  0
SECTION
  2
HEADER
  9
$ACADVER
  1
AC1015
  9
$ACADMAINTVER
 70
     6
  9
$DWGCODEPAGE
  3
ANSI_932
  9
$INSBASE
 10
0.0
 20
0.0
 30
0.0
  9
$EXTMIN
 10
20.2999748214811
 20
27.3756639414522
 30
0.0
  9
$EXTMAX
 10
310.0110943395268
 20
268.972196498001
 30
0.0
  9
$LIMMIN
 10
0.0
 20
0.0
  9
$LIMMAX
 10
12.0
 20
9.0
  9
$ORTHOMODE
 70
     0
  9
$REGENMODE
 70
     1
  9
$FILLMODE
 70
     1
  9
$QTEXTMODE
 70
     0
  9
$MIRRTEXT
 70
     1
  9
$LTSCALE
 40
1.0
  9
$ATTMODE
 70
     1
  9
$TEXTSIZE
 40
0.2
  9
$TRACEWID
 40
0.05
  9
$TEXTSTYLE
  7
Standard
  9
$CLAYER
  8
0
  9
$CELTYPE
  6
ByLayer
  9
$CECOLOR
 62
   256
  9
$CELTSCALE
 40
1.0
  9
$DISPSILH
 70
     0
  9
$DIMSCALE
 40
1.0
  9
$DIMASZ
 40
0.18
  9
$DIMEXO
 40
0.0625
  9
$DIMDLI
 40
0.38
  9
$DIMRND
 40
0.0
  9
$DIMDLE
 40
0.0
  9
$DIMEXE
 40
0.18
  9
$DIMTP
 40
0.0
  9
$DIMTM
 40
0.0
  9
$DIMTXT
 40
0.18
  9
$DIMCEN
 40
0.09
  9
$DIMTSZ
 40
0.0
  9
$DIMTOL
 70
     0
  9
$DIMLIM
 70
     0
  9
$DIMTIH
 70
     1
  9
$DIMTOH
 70
     1
  9
$DIMSE1
 70
     0
  9
$DIMSE2
 70
     0
  9
$DIMTAD
 70
     0
  9
$DIMZIN
 70
     0
  9
$DIMBLK
  1

  9
$DIMASO
 70
     1
  9
$DIMSHO
 70
     1
  9
$DIMPOST
  1

  9
$DIMAPOST
  1

  9
$DIMALT
 70
     0
  9
$DIMALTD
 70
     2
  9
$DIMALTF
 40
25.4
  9
$DIMLFAC
 40
1.0
  9
$DIMTOFL
 70
     0
  9
$DIMTVP
 40
0.0
  9
$DIMTIX
 70
     0
  9
$DIMSOXD
 70
     0
  9
$DIMSAH
 70
     0
  9
$DIMBLK1
  1

  9
$DIMBLK2
  1

  9
$DIMSTYLE
  2
Standard
  9
$DIMCLRD
 70
     0
  9
$DIMCLRE
 70
     0
  9
$DIMCLRT
 70
     0
  9
$DIMTFAC
 40
1.0
  9
$DIMGAP
 40
0.09
  9
$DIMJUST
 70
     0
  9
$DIMSD1
 70
     0
  9
$DIMSD2
 70
     0
  9
$DIMTOLJ
 70
     1
  9
$DIMTZIN
 70
     0
  9
$DIMALTZ
 70
     0
  9
$DIMALTTZ
 70
     0
  9
$DIMUPT
 70
     0
  9
$DIMDEC
 70
     4
  9
$DIMTDEC
 70
     4
  9
$DIMALTU
 70
     2
  9
$DIMALTTD
 70
     2
  9
$DIMTXSTY
  7
Standard
  9
$DIMAUNIT
 70
     0
  9
$DIMADEC
 70
     0
  9
$DIMALTRND
 40
0.0
  9
$DIMAZIN
 70
     0
  9
$DIMDSEP
 70
    46
  9
$DIMATFIT
 70
     3
  9
$DIMFRAC
 70
     0
  9
$DIMLDRBLK
  1

  9
$DIMLUNIT
 70
     2
  9
$DIMLWD
 70
    -2
  9
$DIMLWE
 70
    -2
  9
$DIMTMOVE
 70
     0
  9
$LUNITS
 70
     2
  9
$LUPREC
 70
     4
  9
$SKETCHINC
 40
0.1
  9
$FILLETRAD
 40
0.5
  9
$AUNITS
 70
     0
  9
$AUPREC
 70
     0
  9
$MENU
  1
.
  9
$ELEVATION
 40
0.0
  9
$PELEVATION
 40
0.0
  9
$THICKNESS
 40
0.0
  9
$LIMCHECK
 70
     0
  9
$CHAMFERA
 40
0.5
  9
$CHAMFERB
 40
0.5
  9
$CHAMFERC
 40
1.0
  9
$CHAMFERD
 40
0.0
  9
$SKPOLY
 70
     0
  9
$TDCREATE
 40
2458212.386078229
  9
$TDUCREATE
 40
2458212.011078229
  9
$TDUPDATE
 40
2458212.386078241
  9
$TDUUPDATE
 40
2458212.011078241
  9
$TDINDWG
 40
0.0000000116
  9
$TDUSRTIMER
 40
0.0000000116
  9
$USRTIMER
 70
     1
  9
$ANGBASE
 50
0.0
  9
$ANGDIR
 70
     0
  9
$PDMODE
 70
     0
  9
$PDSIZE
 40
0.0
  9
$PLINEWID
 40
0.0
  9
$SPLFRAME
 70
     0
  9
$SPLINETYPE
 70
     6
  9
$SPLINESEGS
 70
     8
  9
$HANDSEED
  5
1E2
  9
$SURFTAB1
 70
     6
  9
$SURFTAB2
 70
     6
  9
$SURFTYPE
 70
     6
  9
$SURFU
 70
     6
  9
$SURFV
 70
     6
  9
$UCSBASE
  2

  9
$UCSNAME
  2

  9
$UCSORG
 10
0.0
 20
0.0
 30
0.0
  9
$UCSXDIR
 10
1.0
 20
0.0
 30
0.0
  9
$UCSYDIR
 10
0.0
 20
1.0
 30
0.0
  9
$UCSORTHOREF
  2

  9
$UCSORTHOVIEW
 70
     0
  9
$UCSORGTOP
 10
0.0
 20
0.0
 30
0.0
  9
$UCSORGBOTTOM
 10
0.0
 20
0.0
 30
0.0
  9
$UCSORGLEFT
 10
0.0
 20
0.0
 30
0.0
  9
$UCSORGRIGHT
 10
0.0
 20
0.0
 30
0.0
  9
$UCSORGFRONT
 10
0.0
 20
0.0
 30
0.0
  9
$UCSORGBACK
 10
0.0
 20
0.0
 30
0.0
  9
$PUCSBASE
  2

  9
$PUCSNAME
  2

  9
$PUCSORG
 10
0.0
 20
0.0
 30
0.0
  9
$PUCSXDIR
 10
1.0
 20
0.0
 30
0.0
  9
$PUCSYDIR
 10
0.0
 20
1.0
 30
0.0
  9
$PUCSORTHOREF
  2

  9
$PUCSORTHOVIEW
 70
     0
  9
$PUCSORGTOP
 10
0.0
 20
0.0
 30
0.0
  9
$PUCSORGBOTTOM
 10
0.0
 20
0.0
 30
0.0
  9
$PUCSORGLEFT
 10
0.0
 20
0.0
 30
0.0
  9
$PUCSORGRIGHT
 10
0.0
 20
0.0
 30
0.0
  9
$PUCSORGFRONT
 10
0.0
 20
0.0
 30
0.0
  9
$PUCSORGBACK
 10
0.0
 20
0.0
 30
0.0
  9
$USERI1
 70
     0
  9
$USERI2
 70
     0
  9
$USERI3
 70
     0
  9
$USERI4
 70
     0
  9
$USERI5
 70
     0
  9
$USERR1
 40
18.0
  9
$USERR2
 40
0.0
  9
$USERR3
 40
0.0
  9
$USERR4
 40
0.0
  9
$USERR5
 40
0.0
  9
$WORLDVIEW
 70
     1
  9
$SHADEDGE
 70
     3
  9
$SHADEDIF
 70
    70
  9
$TILEMODE
 70
     1
  9
$MAXACTVP
 70
    64
  9
$PINSBASE
 10
0.0
 20
0.0
 30
0.0
  9
$PLIMCHECK
 70
     0
  9
$PEXTMIN
 10
1.00000000000000E+20
 20
1.00000000000000E+20
 30
1.00000000000000E+20
  9
$PEXTMAX
 10
-1.00000000000000E+20
 20
-1.00000000000000E+20
 30
-1.00000000000000E+20
  9
$PLIMMIN
 10
0.0
 20
0.0
  9
$PLIMMAX
 10
12.0
 20
9.0
  9
$UNITMODE
 70
     0
  9
$VISRETAIN
 70
     1
  9
$PLINEGEN
 70
     0
  9
$PSLTSCALE
 70
     1
  9
$TREEDEPTH
 70
  3020
  9
$CMLSTYLE
  2
Standard
  9
$CMLJUST
 70
     0
  9
$CMLSCALE
 40
1.0
  9
$PROXYGRAPHICS
 70
     1
  9
$MEASUREMENT
 70
     1
  9
$CELWEIGHT
370
    -1
  9
$ENDCAPS
280
     0
  9
$JOINSTYLE
280
     0
  9
$LWDISPLAY
290
     0
  9
$INSUNITS
 70
     1
  9
$HYPERLINKBASE
  1

  9
$STYLESHEET
  1

  9
$XEDIT
290
     1
  9
$CEPSNTYPE
380
     0
  9
$PSTYLEMODE
290
     1
  9
$FINGERPRINTGUID
  2
{143B92E2-EE48-434F-B584-B3351186919D}
  9
$VERSIONGUID
  2
{FAEB1C32-E019-11D5-929B-00C0DF256EC4}
  9
$EXTNAMES
290
     1
  9
$PSVPSCALE
 40
0.0
  9
$OLESTARTUP
290
     0
  0
ENDSEC
  0
SECTION
  2
CLASSES
  0
CLASS
  1
ACDBDICTIONARYWDFLT
  2
AcDbDictionaryWithDefault
  3
ObjectDBX Classes
 90
        0
280
     0
281
     0
  0
CLASS
  1
VISUALSTYLE
  2
AcDbVisualStyle
  3
ObjectDBX Classes
 90
     4095
280
     0
281
     0
  0
CLASS
  1
MATERIAL
  2
AcDbMaterial
  3
ObjectDBX Classes
 90
     1153
280
     0
281
     0
  0
CLASS
  1

  2
exOdDbCircle
  3

 90
        0
280
     0
281
     1
  0
CLASS
  1

  2
exOdDbSpline
  3

 90
        0
280
     0
281
     1
  0
CLASS
  1
SCALE
  2
AcDbScale
  3
ObjectDBX Classes
 90
     1153
280
     0
281
     0
  0
CLASS
  1
DICTIONARYVAR
  2
AcDbDictionaryVar
  3
ObjectDBX Classes
 90
        0
280
     0
281
     0
  0
CLASS
  1
ACDBPLACEHOLDER
  2
AcDbPlaceHolder
  3
ObjectDBX Classes
 90
        0
280
     0
281
     0
  0
CLASS
  1
LAYOUT
  2
AcDbLayout
  3
ObjectDBX Classes
 90
        0
280
     0
281
     0
  0
ENDSEC
  0
SECTION
  2
TABLES
  0
TABLE
  2
VPORT
  5
8
330
0
100
AcDbSymbolTable
 70
     1
  0
VPORT
  5
29
330
8
100
AcDbSymbolTableRecord
100
AcDbViewportTableRecord
  2
*Active
 70
     0
 10
0.0
 20
0.0
 11
1.0
 21
1.0
 12
165.1555345805039
 22
148.1739302197266
 13
0.0
 23
0.0
 14
0.5
 24
0.5
 15
0.5
 25
0.5
 16
0.0
 26
0.0
 36
1.0
 17
0.0
 27
0.0
 37
0.0
 40
265.7561858122037
 41
1.60267857142857
 42
50.0
 43
0.0
 44
0.0
 50
0.0
 51
0.0
 71
     0
 72
   100
 73
     1
 74
     3
 75
     0
 76
     0
 77
     0
 78
     0
281
     0
 65
     1
110
0.0
120
0.0
130
0.0
111
1.0
121
0.0
131
0.0
112
0.0
122
1.0
132
0.0
 79
     0
146
0.0
  0
ENDTAB
  0
TABLE
  2
LTYPE
  5
5
330
0
100
AcDbSymbolTable
 70
     8
  0
LTYPE
  5
14
330
5
100
AcDbSymbolTableRecord
100
AcDbLinetypeTableRecord
  2
ByBlock
 70
     0
  3

 72
    65
 73
     0
 40
0.0
  0
LTYPE
  5
15
330
5
100
AcDbSymbolTableRecord
100
AcDbLinetypeTableRecord
  2
ByLayer
 70
     0
  3

 72
    65
 73
     0
 40
0.0
  0
LTYPE
  5
16
330
5
100
AcDbSymbolTableRecord
100
AcDbLinetypeTableRecord
  2
Continuous
 70
     0
  3
Solid line
 72
    65
 73
     0
 40
0.0
  0
LTYPE
  5
3F
330
5
100
AcDbSymbolTableRecord
100
AcDbLinetypeTableRecord
  2
DASHED
 70
     0
  3
Dashed
 72
    65
 73
     2
 40
15.0
 49
7.0
 74
     0
 49
-8.0
 74
     0
  0
LTYPE
  5
40
330
5
100
AcDbSymbolTableRecord
100
AcDbLinetypeTableRecord
  2
DOTTED
 70
     0
  3
Dotted
 72
    65
 73
     2
 40
1.0
 49
0.0
 74
     0
 49
-1.0
 74
     0
  0
LTYPE
  5
41
330
5
100
AcDbSymbolTableRecord
100
AcDbLinetypeTableRecord
  2
DOT_CENTER
 70
     0
  3
Dot_Center
 72
    65
 73
     4
 40
14.0
 49
12.0
 74
     0
 49
-1.0
 74
     0
 49
0.0
 74
     0
 49
-1.0
 74
     0
  0
LTYPE
  5
42
330
5
100
AcDbSymbolTableRecord
100
AcDbLinetypeTableRecord
  2
LONG_DASHED
 70
     0
  3
Long_Dashed
 72
    65
 73
     2
 40
15.0
 49
10.0
 74
     0
 49
-5.0
 74
     0
  0
LTYPE
  5
43
330
5
100
AcDbSymbolTableRecord
100
AcDbLinetypeTableRecord
  2
DASH_CENTER
 70
     0
  3
Dash_Center
 72
    65
 73
     4
 40
14.0
 49
11.0
 74
     0
 49
-1.0
 74
     0
 49
1.0
 74
     0
 49
-1.0
 74
     0
  0
LTYPE
  5
44
330
5
100
AcDbSymbolTableRecord
100
AcDbLinetypeTableRecord
  2
PHANTOM
 70
     0
  3
Phantom
 72
    65
 73
     6
 40
13.0
 49
10.0
 74
     0
 49
-1.0
 74
     0
 49
0.0
 74
     0
 49
-1.0
 74
     0
 49
0.0
 74
     0
 49
-1.0
 74
     0
  0
LTYPE
  5
45
330
5
100
AcDbSymbolTableRecord
100
AcDbLinetypeTableRecord
  2
CENTER_DASH_DASH
 70
     0
  3
Center_Dash_Dash
 72
    65
 73
     6
 40
14.0
 49
9.0
 74
     0
 49
-1.0
 74
     0
 49
1.0
 74
     0
 49
-1.0
 74
     0
 49
1.0
 74
     0
 49
-1.0
 74
     0
  0
ENDTAB
  0
TABLE
  2
LAYER
  5
2
330
0
100
AcDbSymbolTable
 70
     5
  0
LAYER
  5
10
330
2
100
AcDbSymbolTableRecord
100
AcDbLayerTableRecord
  2
0
 70
     0
 62
     7
  6
Continuous
370
    -3
390
F
  0
LAYER
  5
46
330
2
100
AcDbSymbolTableRecord
100
AcDbLayerTableRecord
  2
1
 70
     0
 62
     7
  6
Continuous
370
    -3
390
F
  0
LAYER
  5
47
330
2
100
AcDbSymbolTableRecord
100
AcDbLayerTableRecord
  2
DD0
 70
     0
 62
     7
  6
Continuous
370
    -3
390
F
  0
LAYER
  5
48
330
2
100
AcDbSymbolTableRecord
100
AcDbLayerTableRecord
  2
LEVEL001
 70
     0
 62
     7
  6
Continuous
370
    -3
390
F
  0
LAYER
  5
49
330
2
100
AcDbSymbolTableRecord
100
AcDbLayerTableRecord
  2
M1
 70
     0
 62
     7
  6
Continuous
370
    -3
390
F
  0
ENDTAB
  0
TABLE
  2
STYLE
  5
3
330
0
100
AcDbSymbolTable
 70
     2
  0
STYLE
  5
11
330
3
100
AcDbSymbolTableRecord
100
AcDbTextStyleTableRecord
  2
Standard
 70
     0
 40
0.0
 41
1.0
 50
0.0
 71
     0
 42
0.2
  3
txt
  4

  0
STYLE
  5
190
330
3
100
AcDbSymbolTableRecord
100
AcDbTextStyleTableRecord
  2
CONVERTER_11
 70
     0
 40
0.0
 41
0.9
 50
0.0
 71
     0
 42
0.2
  3
txt.shx
  4

  0
ENDTAB
  0
TABLE
  2
VIEW
  5
6
330
0
100
AcDbSymbolTable
 70
     0
  0
ENDTAB
  0
TABLE
  2
UCS
  5
7
330
0
100
AcDbSymbolTable
 70
     0
  0
ENDTAB
  0
TABLE
  2
APPID
  5
9
330
0
100
AcDbSymbolTable
 70
     1
  0
APPID
  5
12
330
9
100
AcDbSymbolTableRecord
100
AcDbRegAppTableRecord
  2
ACAD
 70
     0
  0
ENDTAB
  0
TABLE
  2
DIMSTYLE
  5
A
330
0
100
AcDbSymbolTable
 70
     1
100
AcDbDimStyleTable
  0
DIMSTYLE
105
27
330
A
100
AcDbSymbolTableRecord
100
AcDbDimStyleTableRecord
  2
Standard
 70
     0
340
11
  0
ENDTAB
  0
TABLE
  2
BLOCK_RECORD
  5
1
330
0
100
AcDbSymbolTable
 70
     1
  0
BLOCK_RECORD
  5
1F
330
1
100
AcDbSymbolTableRecord
100
AcDbBlockTableRecord
  2
*Model_Space
340
22
  0
BLOCK_RECORD
  5
1B
330
1
100
AcDbSymbolTableRecord
100
AcDbBlockTableRecord
  2
*Paper_Space
340
1E
  0
BLOCK_RECORD
  5
23
330
1
100
AcDbSymbolTableRecord
100
AcDbBlockTableRecord
  2
*Paper_Space0
340
26
  0
ENDTAB
  0
ENDSEC
  0
SECTION
  2
BLOCKS
  0
BLOCK
  5
20
330
1F
100
AcDbEntity
  8
0
100
AcDbBlockBegin
  2
*Model_Space
 70
     0
 10
0.0
 20
0.0
 30
0.0
  3
*Model_Space
  1

  0
ENDBLK
  5
21
330
1F
100
AcDbEntity
  8
0
100
AcDbBlockEnd
  0
BLOCK
  5
1C
330
1B
100
AcDbEntity
 67
     1
  8
0
100
AcDbBlockBegin
  2
*Paper_Space
 70
     0
 10
0.0
 20
0.0
 30
0.0
  3
*Paper_Space
  1

  0
ENDBLK
  5
1D
330
1B
100
AcDbEntity
 67
     1
  8
0
100
AcDbBlockEnd
  0
BLOCK
  5
24
330
23
100
AcDbEntity
  8
0
100
AcDbBlockBegin
  2
*Paper_Space0
 70
     0
 10
0.0
 20
0.0
 30
0.0
  3
*Paper_Space0
  1

  0
ENDBLK
  5
25
330
23
100
AcDbEntity
  8
0
100
AcDbBlockEnd
  0
ENDSEC
  0
SECTION
  2
ENTITIES
  0
POINT
  5
4A
330
1F
100
AcDbEntity
  8
DD0
 62
     3
100
AcDbPoint
 10
191.5003334412356
 20
54.33688084390522
 30
0.0
  0
LINE
  5
4B
330
1F
100
AcDbEntity
  8
1
  6
Continuous
 62
     4
100
AcDbLine
 10
114.1175942252594
 20
72.9415819964832
 30
0.0
 11
113.2352412840829
 21
72.27491532981652
 31
0.0
  0
LINE
  5
4C
330
1F
100
AcDbEntity
  8
1
  6
Continuous
 62
     4
100
AcDbLine
 10
113.2352412840829
 20
73.60824866314987
 30
0.0
 11
114.1175942252594
 21
72.9415819964832
 31
0.0
  0
LINE
  5
4D
330
1F
100
AcDbEntity
  8
1
  6
Continuous
 62
     4
100
AcDbLine
 10
110.8823001076123
 20
72.9415819964832
 30
0.0
 11
114.1175942252594
 21
72.9415819964832
 31
0.0
  0
LINE
  5
4E
330
1F
100
AcDbEntity
  8
1
  6
Continuous
 62
     4
100
AcDbLine
 10
106.6175942252594
 20
74.77491532981652
 30
0.0
 11
108.8234765782006
 21
74.77491532981652
 31
0.0
  0
LINE
  5
4F
330
1F
100
AcDbEntity
  8
1
  6
Continuous
 62
     4
100
AcDbLine
 10
105.5881824605535
 20
71.60824866314987
 30
0.0
 11
105.5881824605535
 21
73.9415819964832
 31
0.0
  0
LINE
  5
50
330
1F
100
AcDbEntity
  8
1
  6
Continuous
 62
     4
100
AcDbLine
 10
108.0881824605535
 20
71.60824866314987
 30
0.0
 11
105.5881824605535
 21
71.60824866314987
 31
0.0
  0
LINE
  5
51
330
1F
100
AcDbEntity
  8
1
  6
Continuous
 62
     4
100
AcDbLine
 10
108.0881824605535
 20
73.9415819964832
 30
0.0
 11
108.0881824605535
 21
71.60824866314987
 31
0.0
  0
LINE
  5
52
330
1F
100
AcDbEntity
  8
1
  6
Continuous
 62
     4
100
AcDbLine
 10
105.5881824605535
 20
73.9415819964832
 30
0.0
 11
108.0881824605535
 21
73.9415819964832
 31
0.0
  0
LINE
  5
53
330
1F
100
AcDbEntity
  8
1
  6
Continuous
 62
     4
100
AcDbLine
 10
108.3823001076123
 20
70.4415819964832
 30
0.0
 11
107.6470059899653
 21
70.60824866314987
 31
0.0
  0
LINE
  5
54
330
1F
100
AcDbEntity
  8
1
  6
Continuous
 62
     4
100
AcDbLine
 10
108.8234765782006
 20
70.9415819964832
 30
0.0
 11
108.3823001076123
 21
70.4415819964832
 31
0.0
  0
LINE
  5
55
330
1F
100
AcDbEntity
  8
1
  6
Continuous
 62
     4
100
AcDbLine
 10
108.8234765782006
 20
74.77491532981652
 30
0.0
 11
108.8234765782006
 21
70.9415819964832
 31
0.0
  0
LINE
  5
56
330
1F
100
AcDbEntity
  8
1
  6
Continuous
 62
     4
100
AcDbLine
 10
104.8528883429065
 20
74.77491532981652
 30
0.0
 11
106.6175942252594
 21
74.77491532981652
 31
0.0
  0
LINE
  5
57
330
1F
100
AcDbEntity
  8
1
  6
Continuous
 62
     4
100
AcDbLine
 10
104.8528883429065
 20
70.4415819964832
 30
0.0
 11
104.8528883429065
 21
74.77491532981652
 31
0.0
  0
LINE
  5
58
330
1F
100
AcDbEntity
  8
1
  6
Continuous
 62
     4
100
AcDbLine
 10
106.9117118723182
 20
75.4415819964832
 30
0.0
 11
106.6175942252594
 21
74.77491532981652
 31
0.0
  0
LINE
  5
59
330
1F
100
AcDbEntity
  8
1
  6
Continuous
 62
     4
100
AcDbLine
 10
99.99994716643586
 20
74.77491532981652
 30
0.0
 11
103.0881824605535
 21
74.77491532981652
 31
0.0
  0
LINE
  5
5A
330
1F
100
AcDbEntity
  8
1
  6
Continuous
 62
     4
100
AcDbLine
 10
99.99994716643586
 20
73.60824866314987
 30
0.0
 11
99.99994716643586
 21
73.10824866314987
 31
0.0
  0
LINE
  5
5B
330
1F
100
AcDbEntity
  8
1
  6
Continuous
 62
     4
100
AcDbLine
 10
101.9117118723182
 20
70.4415819964832
 30
0.0
 11
100.5881824605535
 21
70.60824866314987
 31
0.0
  0
LINE
  5
5C
330
1F
100
AcDbEntity
  8
1
  6
Continuous
 62
     4
100
AcDbLine
 10
102.7940648134947
 20
71.60824866314987
 30
0.0
 11
101.9117118723182
 21
70.4415819964832
 31
0.0
  0
LINE
  5
5D
330
1F
100
AcDbEntity
  8
1
  6
Continuous
 62
     4
100
AcDbLine
 10
102.7940648134947
 20
73.60824866314987
 30
0.0
 11
102.7940648134947
 21
71.60824866314987
 31
0.0
  0
LINE
  5
5E
330
1F
100
AcDbEntity
  8
1
  6
Continuous
 62
     4
100
AcDbLine
 10
99.99994716643586
 20
73.60824866314987
 30
0.0
 11
102.7940648134947
 21
73.60824866314987
 31
0.0
  0
LINE
  5
5F
330
1F
100
AcDbEntity
  8
1
  6
Continuous
 62
     4
100
AcDbLine
 10
99.55877069584763
 20
71.60824866314987
 30
0.0
 11
98.67641775467115
 21
70.4415819964832
 31
0.0
  0
LINE
  5
60
330
1F
100
AcDbEntity
  8
1
  6
Continuous
 62
     4
100
AcDbLine
 10
99.99994716643586
 20
73.10824866314987
 30
0.0
 11
99.55877069584763
 21
71.60824866314987
 31
0.0
  0
LINE
  5
61
330
1F
100
AcDbEntity
  8
1
  6
Continuous
 62
     4
100
AcDbLine
 10
99.99994716643586
 20
74.77491532981652
 30
0.0
 11
99.99994716643586
 21
73.60824866314987
 31
0.0
  0
LINE
  5
62
330
1F
100
AcDbEntity
  8
1
  6
Continuous
 62
     4
100
AcDbLine
 10
98.67641775467115
 20
74.77491532981652
 30
0.0
 11
99.99994716643586
 21
74.77491532981652
 31
0.0
  0
LINE
  5
63
330
1F
100
AcDbEntity
  8
1
  6
Continuous
 62
     4
100
AcDbLine
 10
101.0293589311417
 20
75.4415819964832
 30
0.0
 11
101.0293589311417
 21
74.77491532981652
 31
0.0
  0
LINE
  5
64
330
1F
100
AcDbEntity
  8
1
  6
Continuous
 62
     4
100
AcDbLine
 10
94.99994716643586
 20
74.9415819964832
 30
0.0
 11
94.99994716643586
 21
70.27491532981652
 31
0.0
  0
LINE
  5
65
330
1F
100
AcDbEntity
  8
1
  6
Continuous
 62
     4
100
AcDbLine
 10
96.32347657820056
 20
71.77491532981652
 30
0.0
 11
97.35288834290644
 21
70.60824866314987
 31
0.0
  0
LINE
  5
66
330
1F
100
AcDbEntity
  8
1
  6
Continuous
 62
     4
100
AcDbLine
 10
95.5881824605535
 20
73.10824866314987
 30
0.0
 11
96.32347657820056
 21
71.77491532981652
 31
0.0
  0
LINE
  5
67
330
1F
100
AcDbEntity
  8
1
  6
Continuous
 62
     4
100
AcDbLine
 10
94.99994716643586
 20
74.9415819964832
 30
0.0
 11
95.5881824605535
 21
73.10824866314987
 31
0.0
  0
LINE
  5
68
330
1F
100
AcDbEntity
  8
1
  6
Continuous
 62
     4
100
AcDbLine
 10
97.05877069584761
 20
74.9415819964832
 30
0.0
 11
95.88230010761232
 21
73.27491532981652
 31
0.0
  0
LINE
  5
69
330
1F
100
AcDbEntity
  8
1
  6
Continuous
 62
     4
100
AcDbLine
 10
93.67641775467115
 20
71.9415819964832
 30
0.0
 11
92.79406481349467
 21
70.77491532981652
 31
0.0
  0
LINE
  5
6A
330
1F
100
AcDbEntity
  8
1
  6
Continuous
 62
     4
100
AcDbLine
 10
94.11759422525938
 20
73.10824866314987
 30
0.0
 11
93.67641775467115
 21
71.9415819964832
 31
0.0
  0
LINE
  5
6B
330
1F
100
AcDbEntity
  8
1
  6
Continuous
 62
     4
100
AcDbLine
 10
94.2646530487888
 20
74.4415819964832
 30
0.0
 11
94.11759422525938
 21
73.10824866314987
 31
0.0
  0
LINE
  5
6C
330
1F
100
AcDbEntity
  8
1
  6
Continuous
 62
     4
100
AcDbLine
 10
92.79406481349467
 20
74.4415819964832
 30
0.0
 11
94.2646530487888
 21
74.4415819964832
 31
0.0
  0
LINE
  5
6D
330
1F
100
AcDbEntity
  8
1
  6
Continuous
 62
     4
100
AcDbLine
 10
94.99994716643586
 20
70.27491532981652
 30
0.0
 11
93.97053540172998
 21
70.9415819964832
 31
0.0
  0
LINE
  5
6E
330
1F
100
AcDbEntity
  8
1
  6
Continuous
 62
     4
100
AcDbLine
 10
94.99994716643586
 20
75.4415819964832
 30
0.0
 11
94.99994716643586
 21
74.9415819964832
 31
0.0
  0
LINE
  5
6F
330
1F
100
AcDbEntity
  8
1
  6
Continuous
 62
     4
100
AcDbLine
 10
89.55877069584763
 20
74.9415819964832
 30
0.0
 11
91.17641775467115
 21
74.9415819964832
 31
0.0
  0
LINE
  5
70
330
1F
100
AcDbEntity
  8
1
  6
Continuous
 62
     4
100
AcDbLine
 10
91.32347657820057
 20
70.4415819964832
 30
0.0
 11
91.32347657820057
 21
71.60824866314987
 31
0.0
  0
LINE
  5
71
330
1F
100
AcDbEntity
  8
1
  6
Continuous
 62
     4
100
AcDbLine
 10
90.58818246055351
 20
70.4415819964832
 30
0.0
 11
91.32347657820057
 21
70.4415819964832
 31
0.0
  0
LINE
  5
72
330
1F
100
AcDbEntity
  8
1
  6
Continuous
 62
     4
100
AcDbLine
 10
90.58818246055351
 20
73.10824866314987
 30
0.0
 11
90.58818246055351
 21
70.4415819964832
 31
0.0
  0
LINE
  5
73
330
1F
100
AcDbEntity
  8
1
  6
Continuous
 62
     4
100
AcDbLine
 10
89.55877069584763
 20
73.10824866314987
 30
0.0
 11
89.55877069584763
 21
70.4415819964832
 31
0.0
  0
LINE
  5
74
330
1F
100
AcDbEntity
  8
1
  6
Continuous
 62
     4
100
AcDbLine
 10
88.23524128408292
 20
71.27491532981652
 30
0.0
 11
87.64700598996527
 21
70.4415819964832
 31
0.0
  0
LINE
  5
75
330
1F
100
AcDbEntity
  8
1
  6
Continuous
 62
     4
100
AcDbLine
 10
88.52935893114174
 20
72.10824866314987
 30
0.0
 11
88.23524128408292
 21
71.27491532981652
 31
0.0
  0
LINE
  5
76
330
1F
100
AcDbEntity
  8
1
  6
Continuous
 62
     4
100
AcDbLine
 10
88.67641775467115
 20
73.10824866314987
 30
0.0
 11
88.52935893114174
 21
72.10824866314987
 31
0.0
  0
LINE
  5
77
330
1F
100
AcDbEntity
  8
1
  6
Continuous
 62
     4
100
AcDbLine
 10
91.02935893114174
 20
73.27491532981652
 30
0.0
 11
91.32347657820057
 21
72.60824866314987
 31
0.0
  0
LINE
  5
78
330
1F
100
AcDbEntity
  8
1
  6
Continuous
 62
     4
100
AcDbLine
 10
90.44112363702409
 20
74.27491532981652
 30
0.0
 11
91.02935893114174
 21
73.27491532981652
 31
0.0
  0
LINE
  5
79
330
1F
100
AcDbEntity
  8
1
  6
Continuous
 62
     4
100
AcDbLine
 10
88.38230010761234
 20
73.10824866314987
 30
0.0
 11
91.02935893114174
 21
73.27491532981652
 31
0.0
  0
LINE
  5
7A
330
1F
100
AcDbEntity
  8
1
  6
Continuous
 62
     4
100
AcDbLine
 10
87.94112363702409
 20
73.10824866314987
 30
0.0
 11
88.38230010761234
 21
73.10824866314987
 31
0.0
  0
LINE
  5
7B
330
1F
100
AcDbEntity
  8
1
  6
Continuous
 62
     4
100
AcDbLine
 10
89.55877069584763
 20
74.9415819964832
 30
0.0
 11
88.38230010761234
 21
73.10824866314987
 31
0.0
  0
LINE
  5
7C
330
1F
100
AcDbEntity
  8
1
  6
Continuous
 62
     4
100
AcDbLine
 10
89.55877069584763
 20
75.60824866314987
 30
0.0
 11
89.55877069584763
 21
74.9415819964832
 31
0.0
  0
LINE
  5
7D
330
1F
100
AcDbEntity
  8
1
  6
Continuous
 62
     4
100
AcDbLine
 10
87.94112363702409
 20
74.9415819964832
 30
0.0
 11
89.55877069584763
 21
74.9415819964832
 31
0.0
  0
LINE
  5
7E
330
1F
100
AcDbEntity
  8
1
  6
Continuous
 62
     4
100
AcDbLine
 10
87.05877069584763
 20
70.4415819964832
 30
0.0
 11
87.79406481349469
 21
72.4415819964832
 31
0.0
  0
LINE
  5
7F
330
1F
100
AcDbEntity
  8
1
  6
Continuous
 62
     4
100
AcDbLine
 10
87.05877069584763
 20
73.60824866314987
 30
0.0
 11
87.79406481349469
 21
72.9415819964832
 31
0.0
  0
LINE
  5
80
330
1F
100
AcDbEntity
  8
1
  6
Continuous
 62
     4
100
AcDbLine
 10
87.20582951937703
 20
75.10824866314987
 30
0.0
 11
87.94112363702409
 21
74.4415819964832
 31
0.0
  0
LINE
  5
81
330
1F
100
AcDbEntity
  8
1
  6
Continuous
 62
     3
100
AcDbLine
 10
108.300428083948
 20
183.1380443556352
 30
0.0
 11
94.30042808394796
 21
183.1380443556352
 31
0.0
  0
LINE
  5
82
330
1F
100
AcDbEntity
  8
1
  6
Continuous
 62
     3
100
AcDbLine
 10
108.300428083948
 20
183.1380443556352
 30
0.0
 11
108.300428083948
 21
180.3380443556352
 31
0.0
  0
LINE
  5
83
330
1F
100
AcDbEntity
  8
1
  6
Continuous
 62
     3
100
AcDbLine
 10
94.30042808394796
 20
183.1380443556352
 30
0.0
 11
94.30042808394796
 21
180.3380443556352
 31
0.0
  0
LINE
  5
84
330
1F
100
AcDbEntity
  8
0
  6
Continuous
 62
     3
100
AcDbLine
 10
54.06189540703085
 20
103.4204507172011
 30
0.0
 11
77.95409616284644
 21
105.5107474300202
 31
0.0
  0
LINE
  5
85
330
1F
100
AcDbEntity
  8
0
  6
Continuous
 62
     3
100
AcDbLine
 10
53.53896085578697
 20
80.21463429535048
 30
0.0
 11
93.88292741578414
 21
83.74427457589289
 31
0.0
  0
LINE
  5
86
330
1F
100
AcDbEntity
  8
0
  6
Continuous
 62
     6
100
AcDbLine
 10
87.00909816844464
 20
99.56120717524679
 30
0.0
 11
87.02682886446132
 21
99.49503531685849
 31
0.0
  0
LINE
  5
87
330
1F
100
AcDbEntity
  8
0
  6
Continuous
 62
     3
100
AcDbLine
 10
97.556955972991
 20
84.06570985924519
 30
0.0
 11
117.8069788472287
 21
85.83735729688179
 31
0.0
  0
LINE
  5
88
330
1F
100
AcDbEntity
  8
LEVEL001
  6
Continuous
 62
     3
100
AcDbLine
 10
85.30042808410462
 20
127.337187857562
 30
0.0
 11
84.80042808410747
 21
126.8371878575397
 31
0.0
  0
LINE
  5
89
330
1F
100
AcDbEntity
  8
1
  6
Continuous
 62
     3
100
AcDbLine
 10
84.80042808410747
 20
126.837187857562
 30
0.0
 11
85.30042808410462
 21
127.337187857562
 31
0.0
  0
LINE
  5
8A
330
1F
100
AcDbEntity
  8
1
  6
Continuous
 62
     3
100
AcDbLine
 10
117.3004280838237
 20
127.337187857562
 30
0.0
 11
117.800428083821
 21
126.837187857562
 31
0.0
  0
LINE
  5
8B
330
1F
100
AcDbEntity
  8
1
  6
Continuous
 62
     3
100
AcDbLine
 10
117.8004280837739
 20
118.3373626447632
 30
0.0
 11
117.800428083821
 21
126.837187857562
 31
0.0
  0
LINE
  5
8C
330
1F
100
AcDbEntity
  8
1
  6
Continuous
 62
     3
100
AcDbLine
 10
85.30042808389567
 20
127.337187857562
 30
0.0
 11
117.3004280838237
 21
127.337187857562
 31
0.0
  0
LINE
  5
8D
330
1F
100
AcDbEntity
  8
LEVEL001
  6
Continuous
 62
     3
100
AcDbLine
 10
49.80042808402982
 20
66.33688084389928
 30
0.0
 11
48.30042808401458
 21
66.33688084389928
 31
0.0
  0
LINE
  5
8E
330
1F
100
AcDbEntity
  8
LEVEL001
  6
Continuous
 62
     1
100
AcDbLine
 10
116.5004097733158
 20
130.337187857562
 30
0.0
 11
116.5004097733158
 21
127.337187857562
 31
0.0
  0
LINE
  5
8F
330
1F
100
AcDbEntity
  8
LEVEL001
  6
DOT_CENTER
 62
     1
100
AcDbLine
 10
99.233428083948
 20
99.33688084390178
 30
0.0
 11
150.7673114412349
 21
99.33688084390329
 31
0.0
  0
LINE
  5
90
330
1F
100
AcDbEntity
  8
LEVEL001
  6
Continuous
 62
     1
100
AcDbLine
 10
132.5003334412356
 20
113.636880843982
 30
0.0
 11
129.0832482795256
 21
113.636880843982
 31
0.0
  0
LINE
  5
91
330
1F
100
AcDbEntity
  8
LEVEL001
  6
Continuous
 62
     3
100
AcDbLine
 10
130.3003334412358
 20
84.33688084389298
 30
0.0
 11
132.5003334412356
 21
84.33688084390766
 31
0.0
  0
LINE
  5
92
330
1F
100
AcDbEntity
  8
LEVEL001
  6
DOT_CENTER
 62
     1
100
AcDbLine
 10
101.3004280838592
 20
187.042990206254
 30
0.0
 11
101.3004280840228
 21
94.69998674554908
 31
0.0
  0
LINE
  5
93
330
1F
100
AcDbEntity
  8
LEVEL001
  6
Continuous
 62
     3
100
AcDbLine
 10
85.3004280838832
 20
130.337187857562
 30
0.0
 11
85.30042808389567
 21
127.337187857572
 31
0.0
  0
LINE
  5
94
330
1F
100
AcDbEntity
  8
LEVEL001
  6
Continuous
 62
     3
100
AcDbLine
 10
50.80042808402983
 20
115.3368808439003
 30
0.0
 11
50.80042808402983
 21
67.33688084389928
 31
0.0
  0
LINE
  5
95
330
1F
100
AcDbEntity
  8
LEVEL001
  6
DOT_CENTER
 62
     1
100
AcDbLine
 10
48.31188607291495
 20
91.33688084390029
 30
0.0
 11
30.30042808419073
 21
91.33688084390029
 31
0.0
  0
LINE
  5
96
330
1F
100
AcDbEntity
  8
LEVEL001
  6
Continuous
 62
     3
100
AcDbLine
 10
32.30042808419074
 20
103.0868808439003
 30
0.0
 11
32.30042808419073
 21
79.58688084389928
 31
0.0
  0
LINE
  5
97
330
1F
100
AcDbEntity
  8
LEVEL001
  6
Continuous
 62
     3
100
AcDbLine
 10
33.55042808419074
 20
78.33688084389928
 30
0.0
 11
32.30042808419073
 21
79.58688084389928
 31
0.0
  0
LINE
  5
98
330
1F
100
AcDbEntity
  8
LEVEL001
  6
Continuous
 62
     3
100
AcDbLine
 10
48.30042808399367
 20
78.33688084389928
 30
0.0
 11
33.55042808419074
 21
78.33688084389928
 31
0.0
  0
LINE
  5
99
330
1F
100
AcDbEntity
  8
LEVEL001
  6
Continuous
 62
     1
100
AcDbLine
 10
32.30042808419073
 20
79.58688084389928
 30
0.0
 11
45.30036457453264
 21
79.58688084389928
 31
0.0
  0
LINE
  5
9A
330
1F
100
AcDbEntity
  8
LEVEL001
  6
Continuous
 62
     3
100
AcDbLine
 10
45.30036457453264
 20
104.3368808439003
 30
0.0
 11
45.30036457453264
 21
78.33688084389928
 31
0.0
  0
LINE
  5
9B
330
1F
100
AcDbEntity
  8
LEVEL001
  6
Continuous
 62
     3
100
AcDbLine
 10
33.55042808419074
 20
104.3368808439003
 30
0.0
 11
32.30042808419074
 21
103.0868808439003
 31
0.0
  0
LINE
  5
9C
330
1F
100
AcDbEntity
  8
LEVEL001
  6
Continuous
 62
     1
100
AcDbLine
 10
32.30042808419074
 20
103.0868808439003
 30
0.0
 11
45.30036457453264
 21
103.0868808439003
 31
0.0
  0
LINE
  5
9D
330
1F
100
AcDbEntity
  8
LEVEL001
  6
Continuous
 62
     3
100
AcDbLine
 10
48.30042808401458
 20
116.3368808439003
 30
0.0
 11
49.80042808403083
 21
116.3368808439003
 31
0.0
  0
LINE
  5
9E
330
1F
100
AcDbEntity
  8
LEVEL001
  6
Continuous
 62
     3
100
AcDbLine
 10
48.30042808401458
 20
115.0868808439003
 30
0.0
 11
48.30042808401458
 21
116.3368808439003
 31
0.0
  0
LINE
  5
9F
330
1F
100
AcDbEntity
  8
LEVEL001
  6
Continuous
 62
     3
100
AcDbLine
 10
48.30042808401458
 20
115.0868808439003
 30
0.0
 11
48.30042808391978
 21
66.33688084389928
 31
0.0
  0
LINE
  5
A0
330
1F
100
AcDbEntity
  8
LEVEL001
  6
Continuous
 62
     3
100
AcDbLine
 10
48.30042808399367
 20
104.3368808439003
 30
0.0
 11
33.55042808419074
 21
104.3368808439003
 31
0.0
  0
LINE
  5
A1
330
1F
100
AcDbEntity
  8
LEVEL001
  6
Continuous
 62
     3
100
AcDbLine
 10
130.3003334412358
 20
114.336880843912
 30
0.0
 11
128.1663588450989
 21
113.1048300363483
 31
0.0
  0
LINE
  5
A2
330
1F
100
AcDbEntity
  8
LEVEL001
  6
Continuous
 62
     3
100
AcDbLine
 10
117.3004280838425
 20
130.337187857562
 30
0.0
 11
117.3004280838259
 21
127.337187857562
 31
0.0
  0
LINE
  5
A3
330
1F
100
AcDbEntity
  8
LEVEL001
  6
Continuous
 62
     1
100
AcDbLine
 10
86.10044639440571
 20
130.337187857562
 30
0.0
 11
86.10044639440571
 21
127.337187857562
 31
0.0
  0
LINE
  5
A4
330
1F
100
AcDbEntity
  8
1
  6
DOT_CENTER
 62
     1
100
AcDbLine
 10
103.367428083948
 20
96.15361663414109
 30
0.0
 11
48.31188607291495
 21
91.33688084390029
 31
0.0
  0
LINE
  5
A5
330
1F
100
AcDbEntity
  8
1
  6
Continuous
 62
     3
100
AcDbLine
 10
120.5729790844299
 20
85.83688084390239
 30
0.0
 11
127.1663588450739
 21
85.83688084390269
 31
0.0
  0
LINE
  5
A6
330
1F
100
AcDbEntity
  8
LEVEL001
  6
Continuous
 62
     3
100
AcDbLine
 10
117.800428083821
 20
126.8371878575397
 30
0.0
 11
117.3004280838237
 21
127.337187857562
 31
0.0
  0
LINE
  5
A7
330
1F
100
AcDbEntity
  8
1
  6
Continuous
 62
     3
100
AcDbLine
 10
84.80042808414248
 20
121.8181103605652
 30
0.0
 11
84.80042808411474
 21
126.8371878575397
 31
0.0
  0
LINE
  5
A8
330
1F
100
AcDbEntity
  8
LEVEL001
  6
Continuous
 62
     3
100
AcDbLine
 10
85.30042808389567
 20
127.337187857572
 30
0.0
 11
84.80042808411474
 21
126.837187857791
 31
0.0
  0
LINE
  5
A9
330
1F
100
AcDbEntity
  8
0
  6
Continuous
 62
     3
100
AcDbLine
 10
117.80153296476
 20
85.83688084390289
 30
0.0
 11
127.1663588450739
 21
85.83688084390269
 31
0.0
  0
LINE
  5
AA
330
1F
100
AcDbEntity
  8
0
  6
Continuous
 62
     3
100
AcDbLine
 10
84.80042808421092
 20
112.9822076350564
 30
0.0
 11
84.8004280841534
 21
126.8371878575789
 31
0.0
  0
LINE
  5
AB
330
1F
100
AcDbEntity
  8
1
  6
Continuous
 62
     3
100
AcDbLine
 10
123.3004268504384
 20
112.8373572968671
 30
0.0
 11
127.1663588450739
 21
112.8368808439028
 31
0.0
  0
LINE
  5
AC
330
1F
100
AcDbEntity
  8
1
  6
Continuous
 62
     3
100
AcDbLine
 10
95.800428083948
 20
169.3376643105632
 30
0.0
 11
95.800428083948
 21
145.337187857562
 31
0.0
  0
LINE
  5
AD
330
1F
100
AcDbEntity
  8
1
  6
Continuous
 62
     3
100
AcDbLine
 10
106.800428083948
 20
169.3376643105632
 30
0.0
 11
106.800428083948
 21
145.337187857562
 31
0.0
  0
LINE
  5
AE
330
1F
100
AcDbEntity
  8
1
  6
PHANTOM
 62
     4
100
AcDbLine
 10
132.300428083948
 20
166.2181279764936
 30
0.0
 11
132.300428083948
 21
162.8376643105632
 31
0.0
  0
LINE
  5
AF
330
1F
100
AcDbEntity
  8
1
  6
PHANTOM
 62
     4
100
AcDbLine
 10
83.51078860823449
 20
162.8376643105632
 30
0.0
 11
83.51078860823449
 21
167.6170843701443
 31
0.0
  0
LINE
  5
B0
330
1F
100
AcDbEntity
  8
1
  6
PHANTOM
 62
     4
100
AcDbLine
 10
94.30042808394796
 20
176.6380443556352
 30
0.0
 11
94.30042808394796
 21
173.8380443556352
 31
0.0
  0
LINE
  5
B1
330
1F
100
AcDbEntity
  8
1
  6
PHANTOM
 62
     4
100
AcDbLine
 10
108.300428083948
 20
176.6380443556352
 30
0.0
 11
108.300428083948
 21
173.8380443556352
 31
0.0
  0
LINE
  5
B2
330
1F
100
AcDbEntity
  8
1
  6
PHANTOM
 62
     4
100
AcDbLine
 10
108.300428083948
 20
176.6380443556352
 30
0.0
 11
94.30042808394796
 21
176.6380443556352
 31
0.0
  0
LINE
  5
B3
330
1F
100
AcDbEntity
  8
1
  6
PHANTOM
 62
     4
100
AcDbLine
 10
83.51078860823449
 20
162.8376643105632
 30
0.0
 11
132.300428083948
 21
162.8376643105632
 31
0.0
  0
LINE
  5
B4
330
1F
100
AcDbEntity
  8
1
  6
Continuous
 62
     3
100
AcDbLine
 10
84.96801102027098
 20
130.337187857562
 30
0.0
 11
117.6328451474668
 21
130.337187857562
 31
0.0
  0
LINE
  5
B5
330
1F
100
AcDbEntity
  8
1
  6
Continuous
 62
     3
100
AcDbLine
 10
106.9790695089961
 20
145.337187857562
 30
0.0
 11
117.8566887829733
 21
139.056991441589
 31
0.0
  0
LINE
  5
B6
330
1F
100
AcDbEntity
  8
1
  6
Continuous
 62
     3
100
AcDbLine
 10
84.74416738476464
 20
139.056991441589
 30
0.0
 11
95.6217866587417
 21
145.337187857562
 31
0.0
  0
LINE
  5
B7
330
1F
100
AcDbEntity
  8
1
  6
Continuous
 62
     3
100
AcDbLine
 10
95.6217866587417
 20
145.337187857562
 30
0.0
 11
106.9790695089961
 21
145.337187857562
 31
0.0
  0
LINE
  5
B8
330
1F
100
AcDbEntity
  8
M1
  6
Continuous
 62
     3
100
AcDbLine
 10
143.0003334412356
 20
108.8618808439054
 30
0.0
 11
150.7673114412357
 21
108.8618808439054
 31
0.0
  0
LINE
  5
B9
330
1F
100
AcDbEntity
  8
M1
  6
DOT_CENTER
 62
     1
100
AcDbLine
 10
192.5568790331697
 20
52.07111134720768
 30
0.0
 11
178.862852441236
 21
81.43804684390548
 31
0.0
  0
LINE
  5
BA
330
1F
100
AcDbEntity
  8
M1
  6
Continuous
 62
     3
100
AcDbLine
 10
183.6154554412359
 20
50.66010184390532
 30
0.0
 11
191.5003334412356
 21
54.33688084390522
 31
0.0
  0
LINE
  5
BB
330
1F
100
AcDbEntity
  8
M1
  6
Continuous
 62
     3
100
AcDbLine
 10
150.7673114412357
 20
89.81188084390548
 30
0.0
 11
143.0003334412356
 21
89.81188084390548
 31
0.0
  0
LINE
  5
BC
330
1F
100
AcDbEntity
  8
M1
  6
Continuous
 62
     3
100
AcDbLine
 10
143.0003334412356
 20
85.83688037944572
 30
0.0
 11
143.0003334412356
 21
112.8368808439053
 31
0.0
  0
LINE
  5
BD
330
1F
100
AcDbEntity
  8
M1
  6
Continuous
 62
     3
100
AcDbLine
 10
132.5003334412356
 20
83.93530288012003
 30
0.0
 11
132.5003334412356
 21
114.7384588439053
 31
0.0
  0
LINE
  5
BE
330
1F
100
AcDbEntity
  8
M1
  6
Continuous
 62
     3
100
AcDbLine
 10
170.2302704412358
 20
77.41260784390549
 30
0.0
 11
180.7546604412357
 21
54.84298084390539
 31
0.0
  0
LINE
  5
BF
330
1F
100
AcDbEntity
  8
M1
  6
Continuous
 62
     3
100
AcDbLine
 10
187.4954344412347
 20
85.46348584390549
 30
0.0
 11
198.0198244412356
 21
62.89385884390541
 31
0.0
  0
LINE
  5
C0
330
1F
100
AcDbEntity
  8
M1
  6
Continuous
 62
     3
100
AcDbLine
 10
180.7546604412357
 20
54.84298084390539
 30
0.0
 11
198.0198244412356
 21
62.89385884390541
 31
0.0
  0
LINE
  5
C1
330
1F
100
AcDbEntity
  8
M1
  6
Continuous
 62
     3
100
AcDbLine
 10
191.5003334412356
 20
54.33688084390522
 30
0.0
 11
199.3852114412359
 21
58.01365984390523
 31
0.0
  0
LINE
  5
C2
330
1F
100
AcDbEntity
  8
1
  6
Continuous
 62
     3
100
AcDbLine
 10
83.51078860823449
 20
169.3376643105632
 30
0.0
 11
132.300428083948
 21
169.3376643105632
 31
0.0
  0
LINE
  5
C3
330
1F
100
AcDbEntity
  8
1
  6
Continuous
 62
     3
100
AcDbLine
 10
132.300428083948
 20
172.7181279764936
 30
0.0
 11
132.300428083948
 21
169.3376643105632
 31
0.0
  0
LINE
  5
C4
330
1F
100
AcDbEntity
  8
1
  6
Continuous
 62
     3
100
AcDbLine
 10
83.51078860823449
 20
169.3376643105632
 30
0.0
 11
83.51078860823449
 21
174.1170843701443
 31
0.0
  0
LINE
  5
C5
330
1F
100
AcDbEntity
  8
1
  6
Continuous
 62
     3
100
AcDbLine
 10
117.800428083821
 20
126.8371878575397
 30
0.0
 11
84.80042808411474
 21
126.837187857791
 31
0.0
  0
LINE
  5
C6
330
1F
100
AcDbEntity
  8
LEVEL001
  6
Continuous
 62
     1
100
AcDbLine
 10
132.5003334412356
 20
85.03688084382298
 30
0.0
 11
129.0878978760989
 21
85.03688084382298
 31
0.0
  0
LINE
  5
C7
330
1F
100
AcDbEntity
  8
LEVEL001
  6
Continuous
 62
     3
100
AcDbLine
 10
132.5003334412356
 20
114.3368808439391
 30
0.0
 11
130.3003334412358
 21
114.336880843912
 31
0.0
  0
LINE
  5
C8
330
1F
100
AcDbEntity
  8
1
  6
Continuous
 62
     3
100
AcDbLine
 10
130.3003334412358
 20
84.33688084389298
 30
0.0
 11
130.3003334412358
 21
114.336880843912
 31
0.0
  0
LINE
  5
C9
330
1F
100
AcDbEntity
  8
LEVEL001
  6
Continuous
 62
     3
100
AcDbLine
 10
130.3003334412358
 20
84.33688084389298
 30
0.0
 11
128.1663588450989
 21
85.56893165145718
 31
0.0
  0
LINE
  5
CA
330
1F
100
AcDbEntity
  8
1
  6
Continuous
 62
     3
100
AcDbLine
 10
33.55042808419074
 20
78.33688084389928
 30
0.0
 11
33.55042808419074
 21
104.3368808439003
 31
0.0
  0
LINE
  5
CB
330
1F
100
AcDbEntity
  8
1
  6
PHANTOM
 62
     4
100
AcDbLine
 10
109.300428083948
 20
173.8380443556352
 30
0.0
 11
93.30042808394796
 21
173.8380443556352
 31
0.0
  0
LINE
  5
CC
330
1F
100
AcDbEntity
  8
1
  6
Continuous
 62
     3
100
AcDbLine
 10
109.300428083948
 20
180.3380443556352
 30
0.0
 11
93.30042808394796
 21
180.3380443556352
 31
0.0
  0
LINE
  5
CD
330
1F
100
AcDbEntity
  8
1
  6
Continuous
 62
     3
100
AcDbLine
 10
46.01072509576886
 20
228.3215614090832
 30
0.0
 11
46.01072509576886
 21
254.3215614090842
 31
0.0
  0
LINE
  5
CE
330
1F
100
AcDbEntity
  8
1
  6
DOT_CENTER
 62
     1
100
AcDbLine
 10
264.3192689206121
 20
99.33749144771592
 30
0.0
 11
299.623749178871
 21
99.33749144771592
 31
0.0
  0
LINE
  5
CF
330
1F
100
AcDbEntity
  8
0
  6
Continuous
 62
     3
100
AcDbLine
 10
298.0110943394762
 20
127.3371878574718
 30
0.0
 11
298.5110943393071
 21
126.8371878576147
 31
0.0
  0
LINE
  5
D0
330
1F
100
AcDbEntity
  8
0
  6
Continuous
 62
     3
100
AcDbLine
 10
298.0110943395316
 20
130.337187857562
 30
0.0
 11
298.0110943394762
 21
127.3371878574718
 31
0.0
  0
LINE
  5
D1
330
1F
100
AcDbEntity
  8
0
  6
Continuous
 62
     3
100
AcDbLine
 10
266.0110943395775
 20
127.3371878574718
 30
0.0
 11
265.5110943397465
 21
126.8371878576147
 31
0.0
  0
LINE
  5
D2
330
1F
100
AcDbEntity
  8
0
  6
Continuous
 62
     3
100
AcDbLine
 10
265.5110943395268
 20
99.33688084390188
 30
0.0
 11
265.5110943397465
 21
126.8371878576147
 31
0.0
  0
LINE
  5
D3
330
1F
100
AcDbEntity
  8
0
  6
Continuous
 62
     3
100
AcDbLine
 10
266.0110943395222
 20
130.337187857562
 30
0.0
 11
266.0110943395775
 21
127.3371878574718
 31
0.0
  0
LINE
  5
D4
330
1F
100
AcDbEntity
  8
0
  6
Continuous
 62
     3
100
AcDbLine
 10
298.5110943395268
 20
99.33688084390188
 30
0.0
 11
298.5110943393071
 21
126.8371878576147
 31
0.0
  0
LINE
  5
D5
330
1F
100
AcDbEntity
  8
LEVEL001
  6
DOT_CENTER
 62
     1
100
AcDbLine
 10
204.0
 20
241.3215614090842
 30
0.0
 11
29.20358704397695
 21
241.3215614090842
 31
0.0
  0
LINE
  5
D6
330
1F
100
AcDbEntity
  8
LEVEL001
  6
Continuous
 62
     1
100
AcDbLine
 10
33.01078860542695
 20
229.5715614090832
 30
0.0
 11
46.01072509576886
 21
229.5715614090832
 31
0.0
  0
LINE
  5
D7
330
1F
100
AcDbEntity
  8
LEVEL001
  6
Continuous
 62
     1
100
AcDbLine
 10
33.01078860542695
 20
253.0715614090842
 30
0.0
 11
46.01072509576886
 21
253.0715614090842
 31
0.0
  0
LINE
  5
D8
330
1F
100
AcDbEntity
  8
LEVEL001
  6
Continuous
 62
     1
100
AcDbLine
 10
132.5003334412356
 20
255.6215614091634
 30
0.0
 11
129.7936088007619
 21
255.6215614091634
 31
0.0
  0
LINE
  5
D9
330
1F
100
AcDbEntity
  8
LEVEL001
  6
Continuous
 62
     1
100
AcDbLine
 10
132.5003334412356
 20
227.0215614090045
 30
0.0
 11
129.7982583973419
 21
227.0215614090045
 31
0.0
  0
LINE
  5
DA
330
1F
100
AcDbEntity
  8
LEVEL001
  6
Continuous
 62
     3
100
AcDbLine
 10
129.7982583973419
 20
227.0215614090045
 30
0.0
 11
129.7936088007619
 21
227.0215614090045
 31
0.0
  0
LINE
  5
DB
330
1F
100
AcDbEntity
  8
1
  6
DOT_CENTER
 62
     1
100
AcDbLine
 10
102.010788605427
 20
261.3215614090842
 30
0.0
 11
102.010788605427
 21
221.3215614090842
 31
0.0
  0
LINE
  5
DC
330
1F
100
AcDbEntity
  8
LEVEL001
  6
Continuous
 62
     1
100
AcDbLine
 10
297.2110760288715
 20
130.337187857562
 30
0.0
 11
297.2110760288715
 21
127.3447984613776
 31
0.0
  0
LINE
  5
DD
330
1F
100
AcDbEntity
  8
LEVEL001
  6
Continuous
 62
     1
100
AcDbLine
 10
266.8111126499613
 20
130.337187857562
 30
0.0
 11
266.8111126499613
 21
127.3447984613776
 31
0.0
  0
LINE
  5
DE
330
1F
100
AcDbEntity
  8
0
  6
Continuous
 62
     3
100
AcDbLine
 10
51.51078860526616
 20
226.7855935857743
 30
0.0
 11
51.51078860526707
 21
241.3215614090842
 31
0.0
  0
LINE
  5
DF
330
1F
100
AcDbEntity
  8
0
  6
Continuous
 62
     3
100
AcDbLine
 10
51.51078860526707
 20
217.3215614090842
 30
0.0
 11
51.51078860526616
 21
226.7855935857743
 31
0.0
  0
LINE
  5
E0
330
1F
100
AcDbEntity
  8
0
  6
Continuous
 62
     3
100
AcDbLine
 10
33.01078860542695
 20
253.0715614090842
 30
0.0
 11
34.26078860542695
 21
254.3215614090842
 31
0.0
  0
LINE
  5
E1
330
1F
100
AcDbEntity
  8
0
  6
Continuous
 62
     3
100
AcDbLine
 10
49.01078860522986
 20
254.3215614090842
 30
0.0
 11
34.26078860542695
 21
254.3215614090842
 31
0.0
  0
LINE
  5
E2
330
1F
100
AcDbEntity
  8
0
  6
Continuous
 62
     3
100
AcDbLine
 10
54.51078860526596
 20
252.8575279744414
 30
0.0
 11
85.88022486395788
 21
252.8575187515166
 31
0.0
  0
LINE
  5
E3
330
1F
100
AcDbEntity
  8
0
  6
Continuous
 62
     3
100
AcDbLine
 10
51.51078860526707
 20
241.3215614090842
 30
0.0
 11
51.51078860526616
 21
255.8575368027533
 31
0.0
  0
LINE
  5
E4
330
1F
100
AcDbEntity
  8
0
  6
Continuous
 62
     3
100
AcDbLine
 10
51.51078860526616
 20
255.8575368027533
 30
0.0
 11
51.51078860526707
 21
265.3215614090841
 31
0.0
  0
LINE
  5
E5
330
1F
100
AcDbEntity
  8
0
  6
Continuous
 62
     3
100
AcDbLine
 10
49.01078860525087
 20
266.3215614090842
 30
0.0
 11
50.51078860526707
 21
266.3215614090842
 31
0.0
  0
LINE
  5
E6
330
1F
100
AcDbEntity
  8
0
  6
Continuous
 62
     3
100
AcDbLine
 10
49.01078860522986
 20
254.3215614090842
 30
0.0
 11
49.01078860525087
 21
266.3215614090842
 31
0.0
  0
LINE
  5
E7
330
1F
100
AcDbEntity
  8
0
  6
Continuous
 62
     3
100
AcDbLine
 10
49.01078860525087
 20
241.3215614090842
 30
0.0
 11
49.01078860522986
 21
254.3215614090842
 31
0.0
  0
LINE
  5
E8
330
1F
100
AcDbEntity
  8
0
  6
Continuous
 62
     3
100
AcDbLine
 10
49.01078860522986
 20
228.3215614090842
 30
0.0
 11
49.01078860525087
 21
241.3215614090842
 31
0.0
  0
LINE
  5
E9
330
1F
100
AcDbEntity
  8
0
  6
Continuous
 62
     3
100
AcDbLine
 10
49.01078860525087
 20
216.3215614090842
 30
0.0
 11
50.51078860526607
 21
216.3215614090832
 31
0.0
  0
LINE
  5
EA
330
1F
100
AcDbEntity
  8
0
  6
Continuous
 62
     3
100
AcDbLine
 10
49.01078860525087
 20
216.3215614090842
 30
0.0
 11
49.01078860522986
 21
228.3215614090842
 31
0.0
  0
LINE
  5
EB
330
1F
100
AcDbEntity
  8
0
  6
Continuous
 62
     3
100
AcDbLine
 10
131.0106939624721
 20
226.3215614090744
 30
0.0
 11
132.5003334412356
 21
226.3215614090654
 31
0.0
  0
LINE
  5
EC
330
1F
100
AcDbEntity
  8
0
  6
Continuous
 62
     3
100
AcDbLine
 10
128.8767193663356
 20
255.0895106015298
 30
0.0
 11
131.0106939624721
 21
256.3215614090934
 31
0.0
  0
LINE
  5
ED
330
1F
100
AcDbEntity
  8
0
  6
Continuous
 62
     3
100
AcDbLine
 10
131.0106939624721
 20
236.8493408106264
 30
0.0
 11
131.0106939624721
 21
226.3215614090744
 31
0.0
  0
LINE
  5
EE
330
1F
100
AcDbEntity
  8
0
  6
Continuous
 62
     3
100
AcDbLine
 10
128.8767193663356
 20
227.5536122166385
 30
0.0
 11
131.0106939624721
 21
226.3215614090744
 31
0.0
  0
LINE
  5
EF
330
1F
100
AcDbEntity
  8
0
  6
Continuous
 62
     3
100
AcDbLine
 10
131.0106939624721
 20
256.3215614090934
 30
0.0
 11
131.0106939624721
 21
245.7937820077612
 31
0.0
  0
LINE
  5
F0
330
1F
100
AcDbEntity
  8
0
  6
Continuous
 62
     3
100
AcDbLine
 10
131.0106939624721
 20
256.3215614090934
 30
0.0
 11
132.5003334412356
 21
256.3215614091026
 31
0.0
  0
LINE
  5
F1
330
1F
100
AcDbEntity
  8
0
  6
Continuous
 62
     3
100
AcDbLine
 10
33.01078860542695
 20
229.5715614090832
 30
0.0
 11
34.26078860542695
 21
228.3215614090842
 31
0.0
  0
LINE
  5
F2
330
1F
100
AcDbEntity
  8
0
  6
Continuous
 62
     3
100
AcDbLine
 10
49.01078860522986
 20
228.3215614090842
 30
0.0
 11
34.26078860542695
 21
228.3215614090842
 31
0.0
  0
LINE
  5
F3
330
1F
100
AcDbEntity
  8
0
  6
Continuous
 62
     3
100
AcDbLine
 10
34.26078860542695
 20
228.3215614090842
 30
0.0
 11
34.26078860542695
 21
241.3215614090842
 31
0.0
  0
LINE
  5
F4
330
1F
100
AcDbEntity
  8
0
  6
Continuous
 62
     3
100
AcDbLine
 10
33.01078860542695
 20
229.5715614090832
 30
0.0
 11
33.01078860542695
 21
241.3215614090842
 31
0.0
  0
LINE
  5
F5
330
1F
100
AcDbEntity
  8
0
  6
Continuous
 62
     3
100
AcDbLine
 10
33.01078860542695
 20
241.3215614090842
 30
0.0
 11
33.01078860542695
 21
253.0715614090842
 31
0.0
  0
LINE
  5
F6
330
1F
100
AcDbEntity
  8
0
  6
Continuous
 62
     3
100
AcDbLine
 10
34.26078860542695
 20
241.3215614090842
 30
0.0
 11
34.26078860542695
 21
254.3215614090842
 31
0.0
  0
LINE
  5
F7
330
1F
100
AcDbEntity
  8
0
  6
Continuous
 62
     3
100
AcDbLine
 10
54.51078860526616
 20
229.7855941415263
 30
0.0
 11
85.88022403924938
 21
229.7856008061464
 31
0.0
  0
LINE
  5
F8
330
1F
100
AcDbEntity
  8
0
  6
Continuous
 62
     3
100
AcDbLine
 10
127.8767193663107
 20
254.8215614090767
 30
0.0
 11
122.5935857035051
 21
254.8215614090767
 31
0.0
  0
LINE
  5
F9
330
1F
100
AcDbEntity
  8
0
  6
Continuous
 62
     3
100
AcDbLine
 10
127.8767193663107
 20
227.8215614090917
 30
0.0
 11
122.5935857035051
 21
227.8215614090917
 31
0.0
  0
LINE
  5
FA
330
1F
100
AcDbEntity
  8
1
  6
DOT_CENTER
 62
     1
100
AcDbLine
 10
310.0110943395268
 20
91.33688084390029
 30
0.0
 11
254.0110943395268
 21
91.33688084390029
 31
0.0
  0
LINE
  5
FB
330
1F
100
AcDbEntity
  8
1
  6
DOT_CENTER
 62
     1
100
AcDbLine
 10
282.0110943395268
 20
187.042990206254
 30
0.0
 11
282.0110943395268
 21
47.643127256073
 31
0.0
  0
LINE
  5
FC
330
1F
100
AcDbEntity
  8
M1
  6
Continuous
 62
     3
100
AcDbLine
 10
132.5003334412356
 20
225.9199834453011
 30
0.0
 11
132.5003334412356
 21
238.8998063795327
 31
0.0
  0
LINE
  5
FD
330
1F
100
AcDbEntity
  8
M1
  6
Continuous
 62
     3
100
AcDbLine
 10
143.0003334412356
 20
227.8215609446267
 30
0.0
 11
143.0003334412356
 21
254.8215614090863
 31
0.0
  0
LINE
  5
FE
330
1F
100
AcDbEntity
  8
M1
  6
Continuous
 62
     3
100
AcDbLine
 10
188.4948237655329
 20
231.7965614090865
 30
0.0
 11
143.0003334412356
 21
231.7965614090865
 31
0.0
  0
LINE
  5
FF
330
1F
100
AcDbEntity
  8
M1
  6
Continuous
 62
     3
100
AcDbLine
 10
143.0003334412356
 20
250.8465614090864
 30
0.0
 11
188.4948237655329
 21
250.8465614090864
 31
0.0
  0
LINE
  5
100
330
1F
100
AcDbEntity
  8
1
  6
Continuous
 62
     3
100
AcDbLine
 10
83.69397813867062
 20
261.5008991245335
 30
0.0
 11
87.24749889527631
 21
247.4519671318656
 31
0.0
  0
LINE
  5
101
330
1F
100
AcDbEntity
  8
1
  6
Continuous
 62
     3
100
AcDbLine
 10
87.24749889527631
 20
235.1911556863027
 30
0.0
 11
83.69397813867062
 21
221.1422236936349
 31
0.0
  0
LINE
  5
102
330
1F
100
AcDbEntity
  8
1
  6
Continuous
 62
     3
100
AcDbLine
 10
114.7015205422003
 20
231.6013803438955
 30
0.0
 11
128.6450129221935
 21
235.5484070921336
 31
0.0
  0
LINE
  5
103
330
1F
100
AcDbEntity
  8
1
  6
Continuous
 62
     3
100
AcDbLine
 10
93.69337473594442
 20
215.3690693766843
 30
0.0
 11
104.0833463593319
 21
225.4709746211141
 31
0.0
  0
LINE
  5
104
330
1F
100
AcDbEntity
  8
1
  6
Continuous
 62
     3
100
AcDbLine
 10
104.083346359142
 20
257.1721481973832
 30
0.0
 11
93.69337473575456
 21
267.274053441813
 31
0.0
  0
LINE
  5
105
330
1F
100
AcDbEntity
  8
1
  6
Continuous
 62
     3
100
AcDbLine
 10
128.6450129220036
 20
247.0947157263637
 30
0.0
 11
114.7015205420104
 21
251.0417424746018
 31
0.0
  0
LINE
  5
106
330
1F
100
AcDbEntity
  8
1
  6
Continuous
 62
     3
100
AcDbLine
 10
86.66728913165953
 20
249.7458407487233
 30
0.0
 11
83.15568189147773
 21
243.6635585925017
 31
0.0
  0
LINE
  5
107
330
1F
100
AcDbEntity
  8
1
  6
Continuous
 62
     3
100
AcDbLine
 10
83.15568189348504
 20
238.979564209657
 30
0.0
 11
86.6672891294552
 21
232.8972820607301
 31
0.0
  0
LINE
  5
108
330
1F
100
AcDbEntity
  8
1
  6
Continuous
 62
     3
100
AcDbLine
 10
102.3868984003898
 20
223.8215614028177
 30
0.0
 11
109.4101128838706
 21
223.8215614028177
 31
0.0
  0
LINE
  5
109
330
1F
100
AcDbEntity
  8
1
  6
Continuous
 62
     3
100
AcDbLine
 10
113.4665710310515
 20
226.1635586048313
 30
0.0
 11
116.9781782730763
 21
232.245840764245
 31
0.0
  0
LINE
  5
10A
330
1F
100
AcDbEntity
  8
1
  6
Continuous
 62
     3
100
AcDbLine
 10
116.9781782642369
 20
250.3972820567007
 30
0.0
 11
113.4665710180598
 21
256.4795642233065
 31
0.0
  0
LINE
  5
10B
330
1F
100
AcDbEntity
  8
1
  6
Continuous
 62
     3
100
AcDbLine
 10
109.4101129138687
 20
258.8215614028177
 30
0.0
 11
102.3868984134285
 21
258.8215614028177
 31
0.0
  0
LINE
  5
10C
330
1F
100
AcDbEntity
  8
M1
  6
Continuous
 62
     3
100
AcDbLine
 10
132.5003334412356
 20
243.7433164388549
 30
0.0
 11
132.5003334412356
 21
256.7231394090863
 31
0.0
  0
LINE
  5
10D
330
1F
100
AcDbEntity
  8
1
  6
Continuous
 62
     3
100
AcDbLine
 10
141.4964820277625
 20
257.3215614090842
 30
0.0
 11
133.0259448547093
 21
257.3215614090842
 31
0.0
  0
LINE
  5
10E
330
1F
100
AcDbEntity
  8
1
  6
Continuous
 62
     3
100
AcDbLine
 10
141.4964820277587
 20
225.3215614090842
 30
0.0
 11
133.0259448547131
 21
225.3215614090842
 31
0.0
  0
LINE
  5
10F
330
1F
100
AcDbEntity
  8
1
  6
Continuous
 62
     3
100
AcDbLine
 10
290.0110943395521
 20
180.3380443556352
 30
0.0
 11
274.0110943395521
 21
180.3380443556352
 31
0.0
  0
LINE
  5
110
330
1F
100
AcDbEntity
  8
1
  6
Continuous
 62
     3
100
AcDbLine
 10
309.6620943395269
 20
172.7181279764936
 30
0.0
 11
309.6620943395269
 21
169.3376643105632
 31
0.0
  0
LINE
  5
111
330
1F
100
AcDbEntity
  8
1
  6
Continuous
 62
     3
100
AcDbLine
 10
254.3600943395268
 20
169.3376643105632
 30
0.0
 11
309.6620943395269
 21
169.3376643105632
 31
0.0
  0
LINE
  5
112
330
1F
100
AcDbEntity
  8
1
  6
Continuous
 62
     3
100
AcDbLine
 10
276.3324529143458
 20
145.337187857562
 30
0.0
 11
287.6897357646002
 21
145.337187857562
 31
0.0
  0
LINE
  5
113
330
1F
100
AcDbEntity
  8
1
  6
Continuous
 62
     3
100
AcDbLine
 10
265.4548336403657
 20
139.0569914415872
 30
0.0
 11
276.3324529143458
 21
145.337187857562
 31
0.0
  0
LINE
  5
114
330
1F
100
AcDbEntity
  8
1
  6
Continuous
 62
     3
100
AcDbLine
 10
287.6897357646002
 20
145.337187857562
 30
0.0
 11
298.5673550385774
 21
139.056991441589
 31
0.0
  0
LINE
  5
115
330
1F
100
AcDbEntity
  8
1
  6
Continuous
 62
     3
100
AcDbLine
 10
287.5110943395521
 20
169.3376643105632
 30
0.0
 11
287.5110943395521
 21
145.337187857562
 31
0.0
  0
LINE
  5
116
330
1F
100
AcDbEntity
  8
1
  6
Continuous
 62
     3
100
AcDbLine
 10
276.5110943395521
 20
169.3376643105632
 30
0.0
 11
276.5110943395521
 21
145.337187857562
 31
0.0
  0
LINE
  5
117
330
1F
100
AcDbEntity
  8
1
  6
Continuous
 62
     3
100
AcDbLine
 10
275.0110943395521
 20
183.1380443556352
 30
0.0
 11
275.0110943395521
 21
180.3380443556352
 31
0.0
  0
LINE
  5
118
330
1F
100
AcDbEntity
  8
1
  6
Continuous
 62
     3
100
AcDbLine
 10
289.0110943395521
 20
183.1380443556352
 30
0.0
 11
289.0110943395521
 21
180.3380443556352
 31
0.0
  0
LINE
  5
119
330
1F
100
AcDbEntity
  8
1
  6
Continuous
 62
     3
100
AcDbLine
 10
289.0110943395521
 20
183.1380443556352
 30
0.0
 11
275.0110943395521
 21
183.1380443556352
 31
0.0
  0
LINE
  5
11A
330
1F
100
AcDbEntity
  8
1
  6
Continuous
 62
     3
100
AcDbLine
 10
265.6786772758751
 20
130.337187857562
 30
0.0
 11
298.3435114030709
 21
130.337187857562
 31
0.0
  0
LINE
  5
11B
330
1F
100
AcDbEntity
  8
1
  6
Continuous
 62
     3
100
AcDbLine
 10
265.6786772758498
 20
130.337187857562
 30
0.0
 11
298.3435114030456
 21
130.337187857562
 31
0.0
  0
LINE
  5
11C
330
1F
100
AcDbEntity
  8
1
  6
Continuous
 62
     3
100
AcDbLine
 10
266.0110943394514
 20
127.3447984613776
 30
0.0
 11
298.0110943394764
 21
127.3447984613776
 31
0.0
  0
LINE
  5
11D
330
1F
100
AcDbEntity
  8
1
  6
Continuous
 62
     3
100
AcDbLine
 10
298.5110943393071
 20
126.8371878576147
 30
0.0
 11
265.5110943397465
 21
126.8371878576147
 31
0.0
  0
LINE
  5
11E
330
1F
100
AcDbEntity
  8
1
  6
Continuous
 62
     3
100
AcDbLine
 10
299.5110943395521
 20
138.3305518025663
 30
0.0
 11
299.5110943395521
 21
131.1891233742032
 31
0.0
  0
LINE
  5
11F
330
1F
100
AcDbEntity
  8
1
  6
Continuous
 62
     3
100
AcDbLine
 10
264.5110943395015
 20
131.1891233742032
 30
0.0
 11
264.5110943395015
 21
138.3305518025663
 31
0.0
  0
LINE
  5
120
330
1F
100
AcDbEntity
  8
1
  6
Continuous
 62
     3
100
AcDbLine
 10
290.0110943395521
 20
180.3380443556352
 30
0.0
 11
304.3518866661995
 21
178.678344964663
 31
0.0
  0
LINE
  5
121
330
1F
100
AcDbEntity
  8
1
  6
Continuous
 62
     3
100
AcDbLine
 10
254.3600943395268
 20
169.3376643105632
 30
0.0
 11
254.3600943395268
 21
172.7181279764936
 31
0.0
  0
LINE
  5
122
330
1F
100
AcDbEntity
  8
1
  6
Continuous
 62
     3
100
AcDbLine
 10
259.6703020128542
 20
178.678344964663
 30
0.0
 11
274.0110943395015
 21
180.3380443556352
 31
0.0
  0
LINE
  5
123
330
1F
100
AcDbEntity
  8
1
  6
Continuous
 62
     3
100
AcDbLine
 10
294.98603152506
 20
110.3210059811839
 30
0.0
 11
285.0361571539937
 21
116.0655686277219
 31
0.0
  0
LINE
  5
124
330
1F
100
AcDbEntity
  8
1
  6
Continuous
 62
     3
100
AcDbLine
 10
278.98603152506
 20
116.0655686277219
 30
0.0
 11
269.0361571539937
 21
110.3210059811839
 31
0.0
  0
LINE
  5
125
330
1F
100
AcDbEntity
  8
1
  6
Continuous
 62
     3
100
AcDbLine
 10
266.0110943395268
 20
105.0814434904399
 30
0.0
 11
266.0110943395268
 21
93.59231819736385
 31
0.0
  0
LINE
  5
126
330
1F
100
AcDbEntity
  8
1
  6
Continuous
 62
     3
100
AcDbLine
 10
269.0361571539937
 20
88.35275570661989
 30
0.0
 11
272.5110943591499
 21
86.34649977580594
 31
0.0
  0
LINE
  5
127
330
1F
100
AcDbEntity
  8
1
  6
Continuous
 62
     3
100
AcDbLine
 10
291.5110943395268
 20
86.3464997871353
 30
0.0
 11
294.98603152506
 21
88.35275570661989
 31
0.0
  0
LINE
  5
128
330
1F
100
AcDbEntity
  8
1
  6
Continuous
 62
     3
100
AcDbLine
 10
298.0110943395268
 20
93.59231819736385
 30
0.0
 11
298.0110943395268
 21
105.0814434904399
 31
0.0
  0
LINE
  5
129
330
1F
100
AcDbEntity
  8
1
  6
Continuous
 62
     3
100
AcDbLine
 10
291.5110943395268
 20
99.33688084390188
 30
0.0
 11
291.5110943395268
 21
59.89728077097307
 31
0.0
  0
LINE
  5
12A
330
1F
100
AcDbEntity
  8
1
  6
Continuous
 62
     3
100
AcDbLine
 10
272.5110943591499
 20
99.33749144771592
 30
0.0
 11
272.5110943591499
 21
59.8975117953332
 31
0.0
  0
ARC
  5
12B
330
1F
100
AcDbEntity
  8
1
  6
Continuous
 62
     3
100
AcDbCircle
 10
190.4426354412347
 20
241.3215614090842
 30
0.0
 40
9.925000000002187
100
AcDbArc
 50
253.6780570956952
 51
106.3219429042128
  0
ARC
  5
12C
330
1F
100
AcDbEntity
  8
1
  6
Continuous
 62
     3
100
AcDbCircle
 10
188.4948237655329
 20
241.3215614090842
 30
0.0
 40
9.524999999997704
100
AcDbArc
 50
270.0
 51
0.0
  0
ARC
  5
12D
330
1F
100
AcDbEntity
  8
1
  6
Continuous
 62
     3
100
AcDbCircle
 10
188.4948237655329
 20
241.3215614090842
 30
0.0
 40
9.524999999999977
100
AcDbArc
 50
0.0
 51
90.0
  0
ARC
  5
12E
330
1F
100
AcDbEntity
  8
1
  6
Continuous
 62
     3
100
AcDbCircle
 10
101.300428083948
 20
-0.28487777774188
 30
0.0
 40
180.8
100
AcDbArc
 50
81.77732701904498
 51
87.46396051972025
  0
ARC
  5
12F
330
1F
100
AcDbEntity
  8
1
  6
Continuous
 62
     3
100
AcDbCircle
 10
101.300428083948
 20
-0.28487777774188
 30
0.0
 40
180.8
100
AcDbArc
 50
92.53603948027977
 51
93.86733281936787
  0
ARC
  5
130
330
1F
100
AcDbEntity
  8
1
  6
Continuous
 62
     3
100
AcDbCircle
 10
101.300428083948
 20
159.1380443556352
 30
0.0
 40
25.0
100
AcDbArc
 50
73.73979529168804
 51
106.260204708312
  0
ARC
  5
131
330
1F
100
AcDbEntity
  8
0
  6
Continuous
 62
     3
100
AcDbCircle
 10
53.80042808402993
 20
77.22605020107528
 30
0.0
 40
2.99999999999996
100
AcDbArc
 50
94.99999999999986
 51
180.0
  0
ARC
  5
132
330
1F
100
AcDbEntity
  8
0
  6
Continuous
 62
     3
100
AcDbCircle
 10
77.30042811692829
 20
112.9822076350252
 30
0.0
 40
7.499999967281856
100
AcDbArc
 50
274.999999832535
 51
0.00000018045722
  0
ARC
  5
133
330
1F
100
AcDbEntity
  8
0
  6
Continuous
 62
     3
100
AcDbCircle
 10
53.8004756950279
 20
106.4090867616045
 30
0.0
 40
3.000047611577241
100
AcDbArc
 50
180.0011259403252
 51
274.9990095019751
  0
ARC
  5
134
330
1F
100
AcDbEntity
  8
0
  6
Continuous
 62
     3
100
AcDbCircle
 10
123.300433431627
 20
118.3373626447327
 30
0.0
 40
5.500005347869592
100
AcDbArc
 50
180.0000673216932
 51
269.9999314410974
  0
ARC
  5
135
330
1F
100
AcDbEntity
  8
1
  6
PHANTOM
 62
     4
100
AcDbCircle
 10
101.300428083948
 20
-6.78487777774189
 30
0.0
 40
180.8
100
AcDbArc
 50
81.77732701904498
 51
87.46396051972025
  0
ARC
  5
136
330
1F
100
AcDbEntity
  8
1
  6
PHANTOM
 62
     4
100
AcDbCircle
 10
101.300428083948
 20
-6.78487777774189
 30
0.0
 40
180.8
100
AcDbArc
 50
92.53603948027977
 51
93.86733281936787
  0
ARC
  5
137
330
1F
100
AcDbEntity
  8
1
  6
PHANTOM
 62
     4
100
AcDbCircle
 10
101.300428083948
 20
152.6380443556352
 30
0.0
 40
25.0
100
AcDbArc
 50
73.73979529168804
 51
106.260204708312
  0
ARC
  5
138
330
1F
100
AcDbEntity
  8
1
  6
Continuous
 62
     3
100
AcDbCircle
 10
115.300428083869
 20
134.7598375883724
 30
0.0
 40
5.0
100
AcDbArc
 50
0.0
 51
59.25272980790769
  0
ARC
  5
139
330
1F
100
AcDbEntity
  8
1
  6
Continuous
 62
     3
100
AcDbCircle
 10
115.300428083869
 20
134.7598375883724
 30
0.0
 40
4.999999999999955
100
AcDbArc
 50
297.8062682886146
 51
0.0
  0
ARC
  5
13A
330
1F
100
AcDbEntity
  8
1
  6
Continuous
 62
     3
100
AcDbCircle
 10
87.30042808386895
 20
134.7598375883724
 30
0.0
 40
4.999999999999955
100
AcDbArc
 50
120.7472701920925
 51
180.0
  0
ARC
  5
13B
330
1F
100
AcDbEntity
  8
1
  6
Continuous
 62
     3
100
AcDbCircle
 10
87.30042808386895
 20
134.7598375883724
 30
0.0
 40
5.0
100
AcDbArc
 50
180.0
 51
242.1937317113837
  0
ARC
  5
13C
330
1F
100
AcDbEntity
  8
M1
  6
DOT_CENTER
 62
     1
100
AcDbCircle
 10
150.7673114412357
 20
68.33688084390539
 30
0.0
 40
30.99999999999991
100
AcDbArc
 50
25.00000000000031
 51
90.0
  0
ARC
  5
13D
330
1F
100
AcDbEntity
  8
M1
  6
Continuous
 62
     3
100
AcDbCircle
 10
150.7673114412357
 20
68.33688084390539
 30
0.0
 40
40.52499999999895
100
AcDbArc
 50
25.00000000000093
 51
90.0
  0
ARC
  5
13E
330
1F
100
AcDbEntity
  8
M1
  6
Continuous
 62
     3
100
AcDbCircle
 10
150.7673114412357
 20
68.33688084390539
 30
0.0
 40
21.47500000000028
100
AcDbArc
 50
25.00000000000134
 51
90.0
  0
ARC
  5
13F
330
1F
100
AcDbEntity
  8
M1
  6
Continuous
 62
     3
100
AcDbCircle
 10
137.2612134412359
 20
111.0868808439053
 30
0.0
 40
6.00000000000047
100
AcDbArc
 50
16.95776300000138
 51
142.5119200000032
  0
ARC
  5
140
330
1F
100
AcDbEntity
  8
M1
  6
Continuous
 62
     3
100
AcDbCircle
 10
183.1493354412357
 20
53.41103984390512
 30
0.0
 40
2.790148000000929
100
AcDbArc
 50
149.1218769999958
 51
279.6168929999982
  0
ARC
  5
141
330
1F
100
AcDbEntity
  8
M1
  6
Continuous
 62
     3
100
AcDbCircle
 10
197.5774874412349
 20
60.13899784390551
 30
0.0
 40
2.790148000000668
100
AcDbArc
 50
310.383107000031
 51
80.87812299996789
  0
ARC
  5
142
330
1F
100
AcDbEntity
  8
M1
  6
Continuous
 62
     3
100
AcDbCircle
 10
137.2612134412359
 20
87.58688084390539
 30
0.0
 40
6.00000000000007
100
AcDbArc
 50
217.4880799999969
 51
343.0422369999986
  0
ARC
  5
143
330
1F
100
AcDbEntity
  8
0
  6
Continuous
 62
     3
100
AcDbCircle
 10
282.0110943395268
 20
91.33688084390029
 30
0.0
 40
25.00000000000002
100
AcDbArc
 50
292.3336826578053
 51
48.70012720896444
  0
ARC
  5
144
330
1F
100
AcDbEntity
  8
0
  6
Continuous
 62
     3
100
AcDbCircle
 10
282.0110943395268
 20
99.33688084390188
 30
0.0
 40
16.5
100
AcDbArc
 50
179.9999999995422
 51
194.1411102339306
  0
ARC
  5
145
330
1F
100
AcDbEntity
  8
0
  6
Continuous
 62
     3
100
AcDbCircle
 10
282.0110943395268
 20
99.33688084390188
 30
0.0
 40
16.5
100
AcDbArc
 50
345.8588897660684
 51
0.0
  0
ARC
  5
146
330
1F
100
AcDbEntity
  8
0
  6
Continuous
 62
     3
100
AcDbCircle
 10
54.51079371616635
 20
255.8575330853395
 30
0.0
 40
3.000005110902493
100
AcDbArc
 50
179.9999290027473
 51
269.999902389159
  0
ARC
  5
147
330
1F
100
AcDbEntity
  8
0
  6
Continuous
 62
     3
100
AcDbCircle
 10
50.51078860526707
 20
265.3215614090842
 30
0.0
 40
1.0
100
AcDbArc
 50
359.9999999999935
 51
90.0
  0
ARC
  5
148
330
1F
100
AcDbEntity
  8
0
  6
Continuous
 62
     3
100
AcDbCircle
 10
127.8767193662966
 20
256.8215614090806
 30
0.0
 40
2.000000000003865
100
AcDbArc
 50
270.0000000004038
 51
300.0000000012272
  0
ARC
  5
149
330
1F
100
AcDbEntity
  8
0
  6
Continuous
 62
     3
100
AcDbCircle
 10
127.8767193662966
 20
225.8215614090879
 30
0.0
 40
2.00000000000367
100
AcDbArc
 50
59.99999999877029
 51
89.99999999959614
  0
ARC
  5
14A
330
1F
100
AcDbEntity
  8
0
  6
Continuous
 62
     3
100
AcDbCircle
 10
122.5935853870966
 20
207.8215613613264
 30
0.0
 40
20.0000000477653
100
AcDbArc
 50
89.99999909355643
 51
107.1691755914208
  0
ARC
  5
14B
330
1F
100
AcDbEntity
  8
0
  6
Continuous
 62
     3
100
AcDbCircle
 10
122.5935853870966
 20
274.821561456842
 30
0.0
 40
20.00000004776521
100
AcDbArc
 50
252.8308244085792
 51
270.0000009064436
  0
ARC
  5
14C
330
1F
100
AcDbEntity
  8
0
  6
Continuous
 62
     3
100
AcDbCircle
 10
54.51083425666627
 20
226.7855484901346
 30
0.0
 40
3.000045651739038
100
AcDbArc
 50
90.00087186425114
 51
179.9991387498293
  0
ARC
  5
14D
330
1F
100
AcDbEntity
  8
0
  6
Continuous
 62
     3
100
AcDbCircle
 10
50.51078860526607
 20
217.3215614090832
 30
0.0
 40
1.0
100
AcDbArc
 50
270.0
 51
0.00000000005862
  0
ARC
  5
14E
330
1F
100
AcDbEntity
  8
M1
  6
Continuous
 62
     3
100
AcDbCircle
 10
137.2612134412359
 20
229.5715614090864
 30
0.0
 40
6.000000000000458
100
AcDbArc
 50
314.9005279606638
 51
343.0422369999986
  0
ARC
  5
14F
330
1F
100
AcDbEntity
  8
M1
  6
Continuous
 62
     3
100
AcDbCircle
 10
137.2612134412359
 20
253.0715614090863
 30
0.0
 40
6.000000000000086
100
AcDbArc
 50
134.9005279607183
 51
142.511920000003
  0
ARC
  5
150
330
1F
100
AcDbEntity
  8
1
  6
Continuous
 62
     3
100
AcDbCircle
 10
63.01078860542697
 20
241.3215614090842
 30
0.0
 40
25.0
100
AcDbArc
 50
0.0
 51
14.1946125406776
  0
ARC
  5
151
330
1F
100
AcDbEntity
  8
1
  6
Continuous
 62
     3
100
AcDbCircle
 10
63.01078860542697
 20
241.3215614090842
 30
0.0
 40
25.00000000000003
100
AcDbArc
 50
345.8053874593221
 51
0.0
  0
ARC
  5
152
330
1F
100
AcDbEntity
  8
1
  6
Continuous
 62
     3
100
AcDbCircle
 10
121.5107885956907
 20
207.5465706673315
 30
0.0
 40
25.00000000000003
100
AcDbArc
 50
120.0
 51
134.1946125406775
  0
ARC
  5
153
330
1F
100
AcDbEntity
  8
1
  6
Continuous
 62
     3
100
AcDbCircle
 10
121.5107885956907
 20
207.5465706673315
 30
0.0
 40
25.00000000000003
100
AcDbArc
 50
105.8053874593221
 51
120.0
  0
ARC
  5
154
330
1F
100
AcDbEntity
  8
1
  6
Continuous
 62
     3
100
AcDbCircle
 10
121.5107885955009
 20
275.0965521511657
 30
0.0
 40
25.00000000000002
100
AcDbArc
 50
225.8053874593223
 51
239.9999999999999
  0
ARC
  5
155
330
1F
100
AcDbEntity
  8
1
  6
Continuous
 62
     3
100
AcDbCircle
 10
121.5107885955009
 20
275.0965521511657
 30
0.0
 40
24.99999999999996
100
AcDbArc
 50
239.9999999999999
 51
254.1946125406776
  0
ARC
  5
156
330
1F
100
AcDbEntity
  8
1
  6
Continuous
 62
     3
100
AcDbCircle
 10
89.51078860823446
 20
262.972196498001
 30
0.0
 40
6.00000000000005
100
AcDbArc
 50
119.9999999999997
 51
194.1946125406774
  0
ARC
  5
157
330
1F
100
AcDbEntity
  8
1
  6
Continuous
 62
     3
100
AcDbCircle
 10
89.51078860823446
 20
262.972196498001
 30
0.0
 40
6.000000000000049
100
AcDbArc
 50
45.80206774027901
 51
119.9999999999997
  0
ARC
  5
158
330
1F
100
AcDbEntity
  8
1
  6
Continuous
 62
     3
100
AcDbCircle
 10
127.0107885988729
 20
241.3215614091938
 30
0.0
 40
5.999999999999986
100
AcDbArc
 50
0.0
 51
74.1975063257329
  0
ARC
  5
159
330
1F
100
AcDbEntity
  8
1
  6
Continuous
 62
     3
100
AcDbCircle
 10
127.0107885988729
 20
241.3215614091938
 30
0.0
 40
6.000000000000022
100
AcDbArc
 50
285.8024835294934
 51
0.0
  0
ARC
  5
15A
330
1F
100
AcDbEntity
  8
1
  6
Continuous
 62
     3
100
AcDbCircle
 10
89.51078860823446
 20
219.6709263201673
 30
0.0
 40
5.999999999999975
100
AcDbArc
 50
239.9999999999998
 51
314.1979322597219
  0
ARC
  5
15B
330
1F
100
AcDbEntity
  8
1
  6
Continuous
 62
     3
100
AcDbCircle
 10
89.51078860823446
 20
219.6709263201673
 30
0.0
 40
6.000000000000019
100
AcDbArc
 50
165.8053874593218
 51
239.9999999999998
  0
ARC
  5
15C
330
1F
100
AcDbEntity
  8
1
  6
Continuous
 62
     3
100
AcDbCircle
 10
102.0107886053953
 20
241.3215614091596
 30
0.0
 40
18.99999999999995
100
AcDbArc
 50
52.91954217737132
 51
67.08045779932263
  0
ARC
  5
15D
330
1F
100
AcDbEntity
  8
1
  6
Continuous
 62
     3
100
AcDbCircle
 10
102.0107886053953
 20
241.3215614091596
 30
0.0
 40
19.00000000000002
100
AcDbArc
 50
292.9195421024621
 51
307.0804578717361
  0
ARC
  5
15E
330
1F
100
AcDbEntity
  8
1
  6
Continuous
 62
     3
100
AcDbCircle
 10
102.0107886053953
 20
241.3215614091596
 30
0.0
 40
19.00000000000005
100
AcDbArc
 50
172.9195421748763
 51
187.0804578742313
  0
ARC
  5
15F
330
1F
100
AcDbEntity
  8
M1
  6
Continuous
 62
     3
100
AcDbCircle
 10
137.2612134412359
 20
229.5715614090864
 30
0.0
 40
6.00000000000007
100
AcDbArc
 50
217.4880799999969
 51
225.0994720393362
  0
ARC
  5
160
330
1F
100
AcDbEntity
  8
M1
  6
Continuous
 62
     3
100
AcDbCircle
 10
137.2612134412359
 20
253.0715614090863
 30
0.0
 40
6.00000000000047
100
AcDbArc
 50
16.95776300000138
 51
45.09947203928155
  0
ARC
  5
161
330
1F
100
AcDbEntity
  8
1
  6
Continuous
 62
     3
100
AcDbCircle
 10
268.0110943394731
 20
134.7598375883724
 30
0.0
 40
4.999999999999955
100
AcDbArc
 50
120.7472701920925
 51
134.42700400035
  0
ARC
  5
162
330
1F
100
AcDbEntity
  8
1
  6
Continuous
 62
     3
100
AcDbCircle
 10
296.0110943394731
 20
134.7598375883724
 30
0.0
 40
4.999999999999914
100
AcDbArc
 50
45.57299599792641
 51
59.25272980790811
  0
ARC
  5
163
330
1F
100
AcDbEntity
  8
1
  6
Continuous
 62
     3
100
AcDbCircle
 10
282.0110943395521
 20
159.1380443556352
 30
0.0
 40
25.0
100
AcDbArc
 50
73.73979529168804
 51
106.2602047083119
  0
ARC
  5
164
330
1F
100
AcDbEntity
  8
1
  6
Continuous
 62
     3
100
AcDbCircle
 10
296.0110943394478
 20
134.7598375883724
 30
0.0
 40
4.999999999999955
100
AcDbArc
 50
297.8062682886146
 51
314.427004002479
  0
ARC
  5
165
330
1F
100
AcDbEntity
  8
1
  6
Continuous
 62
     3
100
AcDbCircle
 10
268.0110943394478
 20
134.7598375883724
 30
0.0
 40
5.000000000000125
100
AcDbArc
 50
225.5729960000567
 51
242.1937317113831
  0
ARC
  5
166
330
1F
100
AcDbEntity
  8
1
  6
Continuous
 62
     3
100
AcDbCircle
 10
282.0110943395268
 20
99.33688084390188
 30
0.0
 40
17.0
100
AcDbArc
 50
199.7499227956425
 51
220.2500772043575
  0
ARC
  5
167
330
1F
100
AcDbEntity
  8
1
  6
Continuous
 62
     3
100
AcDbCircle
 10
282.0110943395268
 20
99.33688084390188
 30
0.0
 40
17.0000000000001
100
AcDbArc
 50
319.7499227956429
 51
340.2500772043575
  0
ARC
  5
168
330
1F
100
AcDbEntity
  8
1
  6
Continuous
 62
     3
100
AcDbCircle
 10
282.0110943395268
 20
99.33688084390188
 30
0.0
 40
16.99999999999999
100
AcDbArc
 50
139.7499227956424
 51
160.2500772043575
  0
ARC
  5
169
330
1F
100
AcDbEntity
  8
1
  6
Continuous
 62
     3
100
AcDbCircle
 10
282.0110943395268
 20
99.33688084390188
 30
0.0
 40
17.0
100
AcDbArc
 50
79.74992279564243
 51
100.250077204357
  0
ARC
  5
16A
330
1F
100
AcDbEntity
  8
1
  6
Continuous
 62
     3
100
AcDbCircle
 10
282.0110943395268
 20
99.33688084390188
 30
0.0
 40
17.0
100
AcDbArc
 50
19.74992279564252
 51
40.25007720435718
  0
ARC
  5
16B
330
1F
100
AcDbEntity
  8
1
  6
Continuous
 62
     3
100
AcDbCircle
 10
282.0110943395268
 20
99.33688084390188
 30
0.0
 40
9.500000000000028
100
AcDbArc
 50
0.00368263384454
 51
179.9963173661555
  0
ARC
  5
16C
330
1F
100
AcDbEntity
  8
1
  6
Continuous
 62
     3
100
AcDbCircle
 10
278.2151822801607
 20
57.57698082567079
 30
0.0
 40
6.20408792101092
100
AcDbArc
 50
156.8396850200134
 51
203.1603149799866
  0
ARC
  5
16D
330
1F
100
AcDbEntity
  8
1
  6
Continuous
 62
     3
100
AcDbCircle
 10
285.8070064184869
 20
57.57698082567079
 30
0.0
 40
6.204087921037678
100
AcDbArc
 50
336.8396850201191
 51
23.16031497988087
  0
ARC
  5
16E
330
1F
100
AcDbEntity
  8
0
  6
Continuous
 62
     3
100
AcDbCircle
 10
282.0110943395268
 20
91.33688084390029
 30
0.0
 40
25.00000000000004
100
AcDbArc
 50
131.2998727910356
 51
247.6663173908148
  0
CIRCLE
  5
16F
330
1F
100
AcDbEntity
  8
1
  6
Continuous
 62
     3
100
AcDbCircle
 10
102.0107885988729
 20
241.3215614091938
 30
0.0
 40
7.0
  0
SPLINE
  5
170
330
1F
100
AcDbEntity
  8
0
  6
Continuous
 62
     3
100
AcDbSpline
210
0.0
220
0.0
230
1.0
 70
     8
 71
     3
 72
    11
 73
     7
 74
     5
 42
0.0000000001
 43
0.0000000001
 44
0.00000001
 40
0.0
 40
0.0
 40
0.0
 40
0.0
 40
0.4296699637761838
 40
0.8455779469579644
 40
1.273445904727756
 40
1.69082440206401
 40
1.69082440206401
 40
1.69082440206401
 40
1.69082440206401
 10
95.5326510125003
 20
84.10153596977739
 30
0.0
 10
95.38993933578985
 20
84.086229561565
 30
0.0
 10
95.10908692167366
 20
84.05610699698587
 30
0.0
 10
94.70059674949535
 20
83.93669823384369
 30
0.0
 10
94.29958964565644
 20
83.80863199152878
 30
0.0
 10
94.02066099618304
 20
83.76554882790145
 30
0.0
 10
93.88292741578414
 20
83.74427457589289
 30
0.0
 11
95.5326510125003
 21
84.10153596977739
 31
0.0
 11
95.10699777955845
 21
84.04292195219126
 31
0.0
 11
94.70500870221997
 21
83.93622503482769
 31
0.0
 11
94.29364907942329
 21
83.81852095665423
 31
0.0
 11
93.88292741578414
 21
83.74427457589289
 31
0.0
  0
SPLINE
  5
171
330
1F
100
AcDbEntity
  8
0
  6
Continuous
 62
     3
100
AcDbSpline
210
0.0
220
0.0
230
1.0
 70
     8
 71
     3
 72
    28
 73
    24
 74
    22
 42
0.0000000001
 43
0.0000000001
 44
0.00000001
 40
0.0
 40
0.0
 40
0.0
 40
0.0
 40
0.0086521452017403
 40
0.0190157244902319
 40
0.038583751045482
 40
0.0598746438774885
 40
0.0991299416986004
 40
0.1388923714717867
 40
0.2885608907298322
 40
0.4383482375096004
 40
0.6570340349576379
 40
0.8741704915165496
 40
1.04436464848484
 40
1.204213076152086
 40
1.356695130440357
 40
1.492207080365073
 40
1.621090899591674
 40
1.695481301200927
 40
1.767249295182604
 40
1.814605925390437
 40
1.859295979251563
 40
1.922560750956878
 40
1.972070768944836
 40
1.972070768944836
 40
1.972070768944836
 40
1.972070768944836
 10
97.5003149613704
 20
84.06093896604028
 30
0.0
 10
97.49744320101777
 20
84.06067285625068
 30
0.0
 10
97.49113163291591
 20
84.060087998932
 30
0.0
 10
97.47831455494472
 20
84.05902169062584
 30
0.0
 10
97.46130041342713
 20
84.05759184978488
 30
0.0
 10
97.43468641294588
 20
84.05539198230498
 30
0.0
 10
97.40136015680213
 20
84.05268228237205
 30
0.0
 10
97.32536793311957
 20
84.04668244349533
 30
0.0
 10
97.21258809090216
 20
84.03850095204842
 30
0.0
 10
97.04015020786746
 20
84.02861531260567
 30
0.0
 10
96.84501533138918
 20
84.02221162741158
 30
0.0
 10
96.64295880094872
 20
84.02300458846258
 30
0.0
 10
96.46067816413361
 20
84.03014354436463
 30
0.0
 10
96.3001829606368
 20
84.04094874044375
 30
0.0
 10
96.15148308770574
 20
84.05418779527915
 30
0.0
 10
96.01323104872426
 20
84.06819583895819
 30
0.0
 10
95.90090259813662
 20
84.07982573998206
 30
0.0
 10
95.80964238787146
 20
84.08860798268543
 30
0.0
 10
95.74537248453909
 20
84.0941253185434
 30
0.0
 10
95.69090664983591
 20
84.09806445091564
 30
0.0
 10
95.63922045327129
 20
84.1009658396262
 30
0.0
 10
95.58673884080525
 20
84.10290291079971
 30
0.0
 10
95.54915218343906
 20
84.10195299756683
 30
0.0
 10
95.5326510125003
 20
84.10153596977739
 30
0.0
 11
97.5003149613704
 21
84.06093896604028
 31
0.0
 11
97.49169859618921
 21
84.06015292045875
 31
0.0
 11
97.4813722632563
 21
84.05927506863318
 31
0.0
 11
97.46187231564059
 21
84.05764420804705
 31
0.0
 11
97.4406539279747
 21
84.05588860489038
 31
0.0
 11
97.40152743881977
 21
84.05271114467288
 31
0.0
 11
97.3618881976025
 21
84.04958362533858
 31
0.0
 11
97.2126028490012
 21
84.03888080562201
 31
0.0
 11
97.0630543263058
 21
84.03042571159848
 31
0.0
 11
96.8444770171956
 21
84.0235381904459
 31
0.0
 11
96.6273426681852
 21
84.02449487575808
 31
0.0
 11
96.45727668278685
 21
84.03109878949459
 31
0.0
 11
96.29778019212394
 21
84.0417001711925
 31
0.0
 11
96.1458806377142
 21
84.05501566029709
 31
0.0
 11
96.01103814842463
 21
84.06846897418592
 31
0.0
 11
95.882814831687
 21
84.08150047077058
 31
0.0
 11
95.80876037125914
 21
84.08856225116398
 31
0.0
 11
95.7372491942297
 21
84.09462826468348
 31
0.0
 11
95.69001259512282
 21
84.09799785359864
 31
0.0
 11
95.6453926884731
 21
84.10050082077379
 31
0.0
 11
95.58215455675685
 21
84.10233658654431
 31
0.0
 11
95.5326510125003
 21
84.10153596977739
 31
0.0
  0
SPLINE
  5
172
330
1F
100
AcDbEntity
  8
0
  6
Continuous
 62
     3
100
AcDbSpline
210
0.0
220
0.0
230
1.0
 70
     8
 71
     3
 72
    11
 73
     7
 74
     5
 42
0.0000000001
 43
0.0000000001
 44
0.00000001
 40
0.0
 40
0.0
 40
0.0
 40
0.0
 40
0.0016935810620647
 40
0.0033871621022261
 40
0.0050804290687448
 40
0.0067736959696322
 40
0.0067736959696322
 40
0.0067736959696322
 40
0.0067736959696322
 10
97.556955972991
 20
84.06570985924519
 30
0.0
 10
97.5563935915144
 20
84.0656606877696
 30
0.0
 10
97.55526882856846
 20
84.06556234481904
 30
0.0
 10
97.55358175268475
 20
84.06541524901377
 30
0.0
 10
97.55189475730776
 20
84.06526843573168
 30
0.0
 10
97.55077013946797
 20
84.06517084011297
 30
0.0
 10
97.550207830559
 20
84.06512204230458
 30
0.0
 11
97.556955972991
 21
84.06570985924519
 31
0.0
 11
97.55526882260054
 21
84.06556241307287
 31
0.0
 11
97.5535816444187
 21
84.06541528550129
 31
0.0
 11
97.55189475133753
 21
84.06526850419253
 31
0.0
 11
97.550207830559
 21
84.06512204230458
 31
0.0
  0
SPLINE
  5
173
330
1F
100
AcDbEntity
  8
0
  6
Continuous
 62
     3
100
AcDbSpline
210
0.0
220
0.0
230
1.0
 70
     8
 71
     3
 72
     9
 73
     5
 74
     3
 42
0.0000000001
 43
0.0000000001
 44
0.00000001
 40
0.0
 40
0.0
 40
0.0
 40
0.0
 40
0.0251335639606706
 40
0.0500679710046009
 40
0.0500679710046009
 40
0.0500679710046009
 40
0.0500679710046009
 10
97.550207830559
 20
84.06512204230458
 30
0.0
 10
97.54186078535824
 20
84.06440408144529
 30
0.0
 10
97.52523283646329
 20
84.0629738488073
 30
0.0
 10
97.50859886457988
 20
84.06161545919316
 30
0.0
 10
97.5003149613704
 20
84.06093896604028
 30
0.0
 11
97.550207830559
 21
84.06512204230458
 31
0.0
 11
97.52516517720684
 21
84.06298626365296
 31
0.0
 11
97.5003149613704
 21
84.06093896604028
 31
0.0
  0
SPLINE
  5
174
330
1F
100
AcDbEntity
  8
1
  6
Continuous
 62
     3
100
AcDbSpline
210
0.0
220
0.0
230
1.0
 70
    11
 71
     3
 72
    79
 73
    75
 74
    73
 42
0.0000000001
 43
0.0000000001
 44
0.00000001
 40
0.0
 40
0.0
 40
0.0
 40
0.0
 40
0.3208051257403586
 40
0.6410425398799924
 40
0.9931533670783131
 40
1.344585121510873
 40
1.739885461809724
 40
2.134698640205603
 40
2.57750124833327
 40
3.020000568052617
 40
3.508478500490234
 40
3.996773316131947
 40
4.524668925157201
 40
5.052455942891552
 40
5.610464542027666
 40
6.168412182689154
 40
6.745236974483578
 40
7.32203430639807
 40
7.905245393347931
 40
8.488456480297785
 40
9.065253812208002
 40
9.64207860399816
 40
10.20002624465963
 40
10.75803484379573
 40
11.28582186153005
 40
11.81371747055529
 40
12.30201228619701
 40
12.79049021863464
 40
13.23298953835399
 40
13.67579214648168
 40
14.07060532487754
 40
14.46590566517641
 40
14.817337419609
 40
15.16944824680733
 40
15.48968566094809
 40
15.81049078668954
 40
16.11942925895055
 40
16.4283677312116
 40
16.74917285695312
 40
17.06941027109383
 40
17.42152109829214
 40
17.77295285272472
 40
18.16825319302356
 40
18.56306637141946
 40
19.00586897954715
 40
19.44836829926648
 40
19.9368462317041
 40
20.42514104734584
 40
20.95303665637108
 40
21.48082367410542
 40
22.0388322732415
 40
22.59677991390296
 40
23.17360470569524
 40
23.75040203760762
 40
24.33361312455747
 40
24.9168242115073
 40
25.49362154341966
 40
26.07044633521197
 40
26.62839397587347
 40
27.18640257500955
 40
27.71418959274391
 40
28.24208520176918
 40
28.73038001741091
 40
29.21885794984853
 40
29.66135726956786
 40
30.10415987769554
 40
30.49897305609139
 40
30.89427339639028
 40
31.24570515082287
 40
31.59781597802123
 40
31.91805339216307
 40
32.23885851790565
 40
32.54779699016665
 40
32.85673546242766
 40
32.85673546242766
 40
32.85673546242766
 40
32.85673546242766
 10
107.9821879643519
 20
135.1449804473772
 30
0.0
 10
107.9593716072505
 20
135.2497124057162
 30
0.0
 10
107.9137792699293
 20
135.4589909838727
 30
0.0
 10
107.7777614987577
 20
135.7629646489802
 30
0.0
 10
107.5993663725355
 20
136.0547410767886
 30
0.0
 10
107.368312730294
 20
136.3401864989202
 30
0.0
 10
107.0968582335348
 20
136.6078497203637
 30
0.0
 10
106.7768034058161
 20
136.8665516932984
 30
0.0
 10
106.4219459566127
 20
137.1044676463881
 30
0.0
 10
106.0226973207789
 20
137.3295283672554
 30
0.0
 10
105.5945995554157
 20
137.5318006209008
 30
0.0
 10
105.1281803995728
 20
137.7170218960296
 30
0.0
 10
104.6390204869975
 20
137.8779681602144
 30
0.0
 10
104.1194537315135
 20
138.0181232825818
 30
0.0
 10
103.5834445182593
 20
138.1328929572632
 30
0.0
 10
103.0263740951114
 20
138.2240079505608
 30
0.0
 10
102.4593477215536
 20
138.2889837176994
 30
0.0
 10
101.8815553047299
 20
138.3285247849439
 30
0.0
 10
101.3004280839536
 20
138.3415433431904
 30
0.0
 10
100.7193008631552
 20
138.3285247849466
 30
0.0
 10
100.141508446404
 20
138.2889837176911
 30
0.0
 10
99.57448207259719
 20
138.2240079505971
 30
0.0
 10
99.01741165035932
 20
138.1328929571425
 30
0.0
 10
98.48140243379865
 20
138.0181232830372
 30
0.0
 10
97.96183569001542
 20
137.8779681586341
 30
0.0
 10
97.47267573536014
 20
137.7170219017733
 30
0.0
 10
97.0062567253533
 20
137.5318006012648
 30
0.0
 10
96.57815844144206
 20
137.3295284378645
 30
0.0
 10
96.17891156820616
 20
137.1044674102471
 30
0.0
 10
95.82404791010909
 20
136.866552537711
 30
0.0
 10
95.5040138834355
 20
136.607846944706
 30
0.0
 10
95.23248640798903
 20
136.3401964239714
 30
0.0
 10
95.00167670894459
 20
136.0547085476443
 30
0.0
 10
94.82241966741543
 20
135.7630821216458
 30
0.0
 10
94.68934572661887
 20
135.4585961325528
 30
0.0
 10
94.61113402361067
 20
135.1503125836792
 30
0.0
 10
94.58273899491466
 20
134.8371878575664
 30
0.0
 10
94.61113402361028
 20
134.5240631314537
 30
0.0
 10
94.68934572661806
 20
134.21577958258
 30
0.0
 10
94.82241966741425
 20
133.9112935934868
 30
0.0
 10
95.00167670894302
 20
133.619667167488
 30
0.0
 10
95.23248640798701
 20
133.3341792911606
 30
0.0
 10
95.50401388343317
 20
133.0665287704257
 30
0.0
 10
95.8240479101064
 20
132.8078231774203
 30
0.0
 10
96.1789115682031
 20
132.5699083048836
 30
0.0
 10
96.57815844143879
 20
132.3448472772658
 30
0.0
 10
97.00625672534966
 20
132.1425751138649
 30
0.0
 10
97.47267573535638
 20
131.9573538133558
 30
0.0
 10
97.96183569001138
 20
131.7964075564943
 30
0.0
 10
98.4814024337944
 20
131.6562524320905
 30
0.0
 10
99.01741165035492
 20
131.5414827579845
 30
0.0
 10
99.57448207259344
 20
131.4503677645289
 30
0.0
 10
100.1415084464013
 20
131.3853919974342
 30
0.0
 10
100.7193008631551
 20
131.3458509301778
 30
0.0
 10
101.3004280839496
 20
131.3328323719343
 30
0.0
 10
101.8815553047424
 20
131.3458509301767
 30
0.0
 10
102.4593477215012
 20
131.3853919974333
 30
0.0
 10
103.0263740952913
 20
131.4503677645241
 30
0.0
 10
103.5834445175941
 20
131.5414827579901
 30
0.0
 10
104.1194537339218
 20
131.6562524320549
 30
0.0
 10
104.6390204785292
 20
131.7964075566015
 30
0.0
 10
105.1281804302205
 20
131.9573538129465
 30
0.0
 10
105.5945994504998
 20
132.1425751152428
 30
0.0
 10
106.0226976978856
 20
132.3448472722864
 30
0.0
 10
106.421944695275
 20
132.5699083215105
 30
0.0
 10
106.7768079160318
 20
132.807823117935
 30
0.0
 10
107.0968434078833
 20
133.0665289659295
 30
0.0
 10
107.3683657428786
 20
133.3341785920553
 30
0.0
 10
107.5991926247219
 20
133.6196694587585
 30
0.0
 10
107.7783889549156
 20
133.9112853189743
 30
0.0
 10
107.9116702523663
 20
134.2158073949934
 30
0.0
 10
107.9891320057875
 20
134.5239604278014
 30
0.0
 10
108.020229452964
 20
134.8375554642341
 30
0.0
 10
107.9948684605559
 20
135.0425054529962
 30
0.0
 10
107.9821879643519
 20
135.1449804473772
 30
0.0
 11
107.9821879643519
 21
135.1449804473772
 31
0.0
 11
107.9031697137792
 21
135.4559017312702
 31
0.0
 11
107.7764380525371
 21
135.7499954024936
 31
0.0
 11
107.5929006672904
 21
136.0504884354363
 31
0.0
 11
107.3729844166745
 21
136.3246072431431
 31
0.0
 11
107.0924317332569
 21
136.6030898294345
 31
0.0
 11
106.7859828381874
 21
136.8520205839543
 31
0.0
 11
106.4188911921291
 21
137.0996450438908
 31
0.0
 11
106.0337437042288
 21
137.3175144096038
 31
0.0
 11
105.5925046798012
 21
137.527082569878
 31
0.0
 11
105.138851797881
 21
137.7077227916118
 31
0.0
 11
104.6376250175778
 21
137.8733895919522
 31
0.0
 11
104.1281282139346
 21
138.0111289950522
 31
0.0
 11
103.5825888821578
 21
138.1284338721644
 31
0.0
 11
103.0319815829293
 21
138.2186401455385
 31
0.0
 11
102.4589406589186
 21
138.2846017998361
 31
0.0
 11
101.8834898479564
 21
138.3239912180416
 31
0.0
 11
101.3004280839497
 21
138.337187857562
 31
0.0
 11
100.717366319943
 21
138.3239912180419
 31
0.0
 11
100.141915508985
 21
138.2846017998372
 31
0.0
 11
99.56887458497846
 21
138.2186401455407
 31
0.0
 11
99.01826728574989
 21
138.1284338721674
 31
0.0
 11
98.47272795397288
 21
138.0111289950559
 31
0.0
 11
97.96323115032959
 21
137.8733895919566
 31
0.0
 11
97.46200437002616
 21
137.7077227916169
 31
0.0
 11
97.00835148810566
 21
137.5270825698838
 31
0.0
 11
96.56711246367779
 21
137.3175144096101
 31
0.0
 11
96.18196497577723
 21
137.0996450438976
 31
0.0
 11
95.8148733297185
 21
136.8520205839616
 31
0.0
 11
95.5084244346487
 21
136.6030898294423
 31
0.0
 11
95.22787175123071
 21
136.3246072431513
 31
0.0
 11
95.00795550061451
 21
136.0504884354447
 31
0.0
 11
94.8244181153674
 21
135.7499954025022
 31
0.0
 11
94.69768645412451
 21
135.4559017312779
 31
0.0
 11
94.61866820355138
 21
135.1449804473839
 31
0.0
 11
94.5920843494953
 21
134.8371878575665
 31
0.0
 11
94.61866820355098
 21
134.529395267749
 31
0.0
 11
94.69768645412373
 21
134.2184739838548
 31
0.0
 11
94.8244181153662
 21
133.9243803126303
 31
0.0
 11
95.00795550061292
 21
133.6238872796877
 31
0.0
 11
95.22787175122875
 21
133.3497684719808
 31
0.0
 11
95.50842443464634
 21
133.0712858856894
 31
0.0
 11
95.81487332971582
 21
132.8223551311696
 31
0.0
 11
96.18196497577422
 21
132.5747306712332
 31
0.0
 11
96.56711246367448
 21
132.3568613055202
 31
0.0
 11
97.00835148810205
 21
132.1472931452459
 31
0.0
 11
97.46200437002236
 21
131.9666529235122
 31
0.0
 11
97.96323115032556
 21
131.8009861231718
 31
0.0
 11
98.47272795396866
 21
131.6632467200718
 31
0.0
 11
99.0182672857455
 21
131.5459418429596
 31
0.0
 11
99.56887458497394
 21
131.4557355695855
 31
0.0
 11
100.1419155089825
 21
131.3897739152881
 31
0.0
 11
100.7173663199426
 21
131.3503844970826
 31
0.0
 11
101.3004280839493
 21
131.337187857562
 31
0.0
 11
101.883489847956
 21
131.3503844970818
 31
0.0
 11
102.4589406589161
 21
131.3897739152865
 31
0.0
 11
103.0319815829248
 21
131.4557355695831
 31
0.0
 11
103.5825888821534
 21
131.5459418429565
 31
0.0
 11
104.1281282139304
 21
131.663246720068
 31
0.0
 11
104.6376250175737
 21
131.8009861231674
 31
0.0
 11
105.1388517978771
 21
131.9666529235071
 31
0.0
 11
105.5925046797977
 21
132.1472931452403
 31
0.0
 11
106.0337437042255
 21
132.3568613055139
 31
0.0
 11
106.4188911921261
 21
132.5747306712264
 31
0.0
 11
106.7859828381848
 21
132.8223551311624
 31
0.0
 11
107.0924317332546
 21
133.0712858856816
 31
0.0
 11
107.3729844166726
 21
133.3497684719727
 31
0.0
 11
107.5929006672888
 21
133.6238872796793
 31
0.0
 11
107.7764380525359
 21
133.9243803126218
 31
0.0
 11
107.9031697137791
 21
134.2184739838471
 31
0.0
 11
107.9821879643523
 21
134.5293952677424
 31
0.0
 11
108.008771818408
 21
134.8371878575598
 31
0.0
 11
107.9821879643519
 21
135.1449804473772
 31
0.0
  0
SPLINE
  5
175
330
1F
100
AcDbEntity
  8
1
  6
Continuous
 62
     3
100
AcDbSpline
210
0.0
220
0.0
230
1.0
 70
    11
 71
     3
 72
    79
 73
    75
 74
    73
 42
0.0000000001
 43
0.0000000001
 44
0.00000001
 40
0.0
 40
0.0
 40
0.0
 40
0.0
 40
0.3392975873017808
 40
0.6780707996040924
 40
0.995254661476731
 40
1.312315826504702
 40
1.641568686980189
 40
1.970693687064399
 40
2.314194775913129
 40
2.657577155838112
 40
3.015630119459584
 40
3.37358790234822
 40
3.744809146934666
 40
4.115960863428368
 40
4.497587402670481
 40
4.879169203768233
 40
5.26743698283804
 40
5.655682973409604
 40
6.046224439267954
 40
6.436765905265911
 40
6.825011895703332
 40
7.213279673836537
 40
7.594861475810792
 40
7.976488020102477
 40
8.347639732023714
 40
8.718860950687167
 40
9.076818756267198
 40
9.43487184606781
 40
9.778254119478332
 40
10.12175463625174
 40
10.45088009795041
 40
10.78013527810241
 40
11.09719471279782
 40
11.4143711245148
 40
11.72332978542165
 40
12.03235963190382
 40
12.33848415158787
 40
12.64460867126312
 40
12.95363851775442
 40
13.26259717872061
 40
13.57977359037734
 40
13.89683302475028
 40
14.22608820522444
 40
14.55521366859336
 40
14.89871418373656
 40
15.24209644896722
 40
15.60014954641409
 40
15.95810738869006
 40
16.32932857554842
 40
16.70048014732477
 40
17.08210679482096
 40
17.46368894204297
 40
17.81347222111689
 40
18.16309078549477
 40
18.5534525062834
 40
18.94417364073951
 40
19.37107816677369
 40
19.79779059163408
 40
20.17937213221608
 40
20.56099860220854
 40
20.93215041733105
 40
21.30337163723295
 40
21.66132943487285
 40
22.01938263091973
 40
22.36276481626041
 40
22.70626482950844
 40
23.03539069513895
 40
23.36464789642752
 40
23.68170584072713
 40
23.99887596838893
 40
24.27793446367195
 40
24.5567551064811
 40
24.86250612568982
 40
25.16899902565133
 40
25.16899902565133
 40
25.16899902565133
 40
25.16899902565133
 10
82.32524640211493
 20
134.3944846447665
 30
0.0
 10
82.34429019085863
 20
134.2828526329643
 30
0.0
 10
82.38234833669934
 20
134.0597611335341
 30
0.0
 10
82.48862584475387
 20
133.7441923015369
 30
0.0
 10
82.62340579715541
 20
133.4487027094131
 30
0.0
 10
82.78759770631316
 20
133.1719661713451
 30
0.0
 10
82.98062269914735
 20
132.909674258117
 30
0.0
 10
83.2040911109703
 20
132.6608386157116
 30
0.0
 10
83.45285646761194
 20
132.4303374860432
 30
0.0
 10
83.7286224653219
 20
132.2168691637573
 30
0.0
 10
84.02542416958855
 20
132.0247699278822
 30
0.0
 10
84.34493999506732
 20
131.8529547368612
 30
0.0
 10
84.68085539794737
 20
131.7047819243504
 30
0.0
 10
85.03435299341635
 20
131.5796193717674
 30
0.0
 10
85.39937399615692
 20
131.4796890484895
 30
0.0
 10
85.77613670894704
 20
131.4047801058411
 30
0.0
 10
86.1593954723667
 20
131.3560629939246
 30
0.0
 10
86.54806097360354
 20
131.3335145157405
 30
0.0
 10
86.93811701210376
 20
131.337517635989
 30
0.0
 10
87.3270096666461
 20
131.3678860629539
 30
0.0
 10
87.71217853326219
 20
131.4245804158462
 30
0.0
 10
88.08965675258592
 20
131.5068654734403
 30
0.0
 10
88.45835720315678
 20
131.6146683962471
 30
0.0
 10
88.81315770644392
 20
131.7463612435593
 30
0.0
 10
89.15425712926135
 20
131.9021732741869
 30
0.0
 10
89.47581597549576
 20
132.0793575251221
 30
0.0
 10
89.77895652725012
 20
132.2786478096487
 30
0.0
 10
90.05768500615446
 20
132.4961424986484
 30
0.0
 10
90.31357608324143
 20
132.7330703832054
 30
0.0
 10
90.54107445144993
 20
132.9845874369292
 30
0.0
 10
90.74174599170833
 20
133.2521398211956
 30
0.0
 10
90.91096429981792
 20
133.5304100743583
 30
0.0
 10
91.04999825290196
 20
133.8205330049692
 30
0.0
 10
91.15541007235205
 20
134.1173668837274
 30
0.0
 10
91.22819893346389
 20
134.4211016633874
 30
0.0
 10
91.2660879955573
 20
134.727443870613
 30
0.0
 10
91.27015376021986
 20
135.0351554902685
 30
0.0
 10
91.23900067391682
 20
135.341313058408
 30
0.0
 10
91.1742763638737
 20
135.6431273931495
 30
0.0
 10
91.07501755634829
 20
135.9392704731069
 30
0.0
 10
90.94387041044064
 20
136.225666054973
 30
0.0
 10
90.77982290285544
 20
136.5024153462772
 30
0.0
 10
90.58675233288838
 20
136.7646994001221
 30
0.0
 10
90.36329480383502
 20
137.0135368536058
 30
0.0
 10
90.11452709763046
 20
137.2440383982704
 30
0.0
 10
89.83876202578347
 20
137.4575066459695
 30
0.0
 10
89.54195998626534
 20
137.6496057188667
 30
0.0
 10
89.2224442379547
 20
137.8214210995444
 30
0.0
 10
88.88652893859252
 20
137.9695937789984
 30
0.0
 10
88.5330308137302
 20
138.0947561711043
 30
0.0
 10
88.16801077176845
 20
138.1946839462819
 30
0.0
 10
87.80383737014199
 20
138.2671029197035
 30
0.0
 10
87.44631243550998
 20
138.3137894948812
 30
0.0
 10
87.08367734106893
 20
138.3385461623756
 30
0.0
 10
86.70648123593281
 20
138.3397477262182
 30
0.0
 10
86.30435412210113
 20
138.313770400774
 30
0.0
 10
85.89301371065103
 20
138.2575053094224
 30
0.0
 10
85.49003553214808
 20
138.1710994095159
 30
0.0
 10
85.10902744506862
 20
138.0597096530809
 30
0.0
 10
84.75422612640372
 20
137.9280145246834
 30
0.0
 10
84.41312719929759
 20
137.7722024846346
 30
0.0
 10
84.09156827572846
 20
137.5950180729942
 30
0.0
 10
83.78842765559398
 20
137.3957278849296
 30
0.0
 10
83.50969910888986
 20
137.1782332932215
 30
0.0
 10
83.25380802487645
 20
136.9413055578295
 30
0.0
 10
83.02631069746249
 20
136.6897878231783
 30
0.0
 10
82.82563793718691
 20
136.4222350832303
 30
0.0
 10
82.65641875444419
 20
136.1439669099569
 30
0.0
 10
82.51736874366381
 20
135.8538488949228
 30
0.0
 10
82.41538506345454
 20
135.5664032475471
 30
0.0
 10
82.34568939603882
 20
135.2826548870484
 30
0.0
 10
82.30596714395826
 20
134.9971724247616
 30
0.0
 10
82.29378525551306
 20
134.6994425356542
 30
0.0
 10
82.31475088494687
 20
134.4962193596467
 30
0.0
 10
82.32524640211493
 20
134.3944846447666
 30
0.0
 11
82.32524640211493
 21
134.3944846447665
 31
0.0
 11
82.39097833666055
 21
134.0616150523888
 31
0.0
 11
82.49648333104355
 21
133.7396896176468
 31
0.0
 11
82.62848204879701
 21
133.4512768219114
 31
0.0
 11
82.78979323472504
 21
133.1783180637383
 31
0.0
 11
82.98479147573565
 21
132.913019868995
 31
0.0
 11
83.20439474792664
 21
132.6678716107442
 31
0.0
 11
83.45615987185477
 21
132.4341895181189
 31
0.0
 11
83.72748327357817
 21
132.2237255769789
 31
0.0
 11
84.02790706062521
 21
132.028924465754
 31
0.0
 11
84.34304638714772
 21
131.8591570389329
 31
0.0
 11
84.68258698792879
 21
131.7090990739542
 31
0.0
 11
85.03239196610878
 21
131.5850423373506
 31
0.0
 11
85.40042150123678
 21
131.484081569092
 31
0.0
 11
85.77465623818163
 21
131.4095628963125
 31
0.0
 11
86.1598088487226
 21
131.3604779204311
 31
0.0
 11
86.54740133984978
 21
131.3379610375047
 31
0.0
 11
86.93792273410423
 21
131.3419204799338
 31
0.0
 11
87.32727508881689
 21
131.3723734033328
 31
0.0
 11
87.71137789872962
 21
131.4289417735398
 31
0.0
 11
88.09071020235413
 21
131.5117600744365
 31
0.0
 11
88.45692687685387
 21
131.6189515802393
 31
0.0
 11
88.8146334612438
 21
131.7519358604837
 31
0.0
 11
89.1521520246387
 21
131.906321133829
 31
0.0
 11
89.47715589972341
 21
132.0857024995443
 31
0.0
 11
89.77611739508163
 21
132.2825674656222
 31
0.0
 11
90.05821572773402
 21
132.5030726715256
 31
0.0
 11
90.30994687347116
 21
132.7366167058285
 31
0.0
 11
90.54014993629463
 21
132.9915660241062
 31
0.0
 11
90.73730799524168
 21
133.255104008713
 31
0.0
 11
90.90818608579667
 21
133.5365461019137
 31
0.0
 11
91.04482347314297
 21
133.8226525672523
 31
0.0
 11
91.15087775837374
 21
134.1215728990028
 31
0.0
 11
91.2225038240743
 21
134.4221143451656
 31
0.0
 11
91.26052713322028
 21
134.7287960596163
 31
0.0
 11
91.26430246263705
 21
135.0348972984893
 31
0.0
 11
91.2335805245183
 21
135.3394763261071
 31
0.0
 11
91.16869258552339
 21
135.6416170241195
 31
0.0
 11
91.07087332171552
 21
135.9346816003039
 31
0.0
 11
90.93890243294389
 21
136.2230989379038
 31
0.0
 11
90.77759594569187
 21
136.4960584625505
 31
0.0
 11
90.58259267009304
 21
136.7613558360293
 31
0.0
 11
90.36298855218547
 21
137.0065039586733
 31
0.0
 11
90.11122434786311
 21
137.2401861987464
 31
0.0
 11
89.83990109896291
 21
137.4506501497717
 31
0.0
 11
89.53947714538171
 21
137.6454512501431
 31
0.0
 11
89.22433780001845
 21
137.8152187672095
 31
0.0
 11
88.88479721970664
 21
137.9652766356938
 31
0.0
 11
88.53499218885923
 21
138.0893327908249
 31
0.0
 11
88.16696270895318
 21
138.1902941695756
 31
0.0
 11
87.79272832116878
 21
138.2648163681355
 31
0.0
 11
87.44590377813195
 21
138.3102154723888
 31
0.0
 11
87.09709815410699
 21
138.334043548396
 31
0.0
 11
86.70673860170425
 21
138.3353446652212
 31
0.0
 11
86.31683249052884
 21
138.310121077476
 31
0.0
 11
85.89387337660541
 21
138.252215444783
 31
0.0
 11
85.47667452065211
 21
138.1626129441399
 31
0.0
 11
85.11045733448051
 21
138.0554241169913
 31
0.0
 11
84.75275065651667
 21
137.9224403016642
 31
0.0
 11
84.41523218218047
 21
137.7680545855162
 31
0.0
 11
84.09022834964378
 21
137.5886731401494
 31
0.0
 11
83.79126681478124
 21
137.3918082485007
 31
0.0
 11
83.50916832640499
 21
137.171303069298
 31
0.0
 11
83.25743732358862
 21
136.9377590104345
 31
0.0
 11
83.02723509973654
 21
136.6828096130339
 31
0.0
 11
82.83007626922995
 21
136.4192717011876
 31
0.0
 11
82.65919358889433
 21
136.1378300302117
 31
0.0
 11
82.52256048509327
 21
135.8517231708232
 31
0.0
 11
82.41653156959927
 21
135.5528005069782
 31
0.0
 11
82.350368057854
 21
135.2816989881644
 31
0.0
 11
82.31150440828998
 21
135.0056001515151
 31
0.0
 11
82.3011115639057
 21
134.7000258159881
 31
0.0
 11
82.32524640211493
 21
134.3944846447666
 31
0.0
  0
SPLINE
  5
176
330
1F
100
AcDbEntity
  8
1
  6
Continuous
 62
     3
100
AcDbSpline
210
0.0
220
0.0
230
1.0
 70
    11
 71
     3
 72
    79
 73
    75
 74
    73
 42
0.0000000001
 43
0.0000000001
 44
0.00000001
 40
0.0
 40
0.0
 40
0.0
 40
0.0
 40
0.3392975873017753
 40
0.6780707996040869
 40
0.9952546614767196
 40
1.312315826504698
 40
1.641568686980201
 40
1.970693687064421
 40
2.314194775913162
 40
2.657577155838122
 40
3.015630119459571
 40
3.373587902348219
 40
3.74480914693464
 40
4.115960863428342
 40
4.497587402670482
 40
4.879169203768235
 40
5.267436982838028
 40
5.655682973409563
 40
6.046224439267899
 40
6.436765905265871
 40
6.825011895703263
 40
7.213279673836509
 40
7.594861475810779
 40
7.97648802010249
 40
8.347639732023714
 40
8.718860950687155
 40
9.076818756267208
 40
9.434871846067821
 40
9.778254119478312
 40
10.12175463625172
 40
10.45088009795038
 40
10.78013527810239
 40
11.09719471279782
 40
11.41437112451479
 40
11.72332978542164
 40
12.03235963190381
 40
12.33848415158785
 40
12.64460867126311
 40
12.9536385177544
 40
13.26259717872059
 40
13.57977359037732
 40
13.89683302475026
 40
14.22608820522443
 40
14.55521366859334
 40
14.89871418373652
 40
15.24209644896718
 40
15.60014954641407
 40
15.95810738869003
 40
16.32932857554837
 40
16.70048014732471
 40
17.0821067948209
 40
17.46368894204297
 40
17.81347222111689
 40
18.16309078549478
 40
18.5534525062834
 40
18.94417364073951
 40
19.37107816677367
 40
19.79779059163408
 40
20.17937213221609
 40
20.56099860220855
 40
20.93215041733107
 40
21.30337163723298
 40
21.66132943487284
 40
22.01938263091971
 40
22.36276481626039
 40
22.70626482950842
 40
23.03539069513893
 40
23.3646478964275
 40
23.6817058407271
 40
23.9988759683889
 40
24.27793446367193
 40
24.55675510648108
 40
24.8625061256898
 40
25.1689990256513
 40
25.1689990256513
 40
25.1689990256513
 40
25.1689990256513
 10
120.2756097657685
 20
134.3944846447665
 30
0.0
 10
120.2565659770248
 20
134.2828526329643
 30
0.0
 10
120.2185078311841
 20
134.0597611335342
 30
0.0
 10
120.1122303231296
 20
133.7441923015369
 30
0.0
 10
119.977450370728
 20
133.4487027094131
 30
0.0
 10
119.8132584615703
 20
133.1719661713451
 30
0.0
 10
119.6202334687361
 20
132.909674258117
 30
0.0
 10
119.3967650569131
 20
132.6608386157115
 30
0.0
 10
119.1479997002715
 20
132.4303374860433
 30
0.0
 10
118.8722337025615
 20
132.2168691637573
 30
0.0
 10
118.575431998295
 20
132.0247699278822
 30
0.0
 10
118.2559161728161
 20
131.8529547368613
 30
0.0
 10
117.9200007699362
 20
131.7047819243503
 30
0.0
 10
117.5665031744671
 20
131.5796193717675
 30
0.0
 10
117.2014821717265
 20
131.4796890484895
 30
0.0
 10
116.8247194589365
 20
131.4047801058411
 30
0.0
 10
116.4414606955168
 20
131.3560629939247
 30
0.0
 10
116.05279519428
 20
131.3335145157405
 30
0.0
 10
115.6627391557798
 20
131.337517635989
 30
0.0
 10
115.2738465012374
 20
131.367886062954
 30
0.0
 10
114.8886776346213
 20
131.4245804158462
 30
0.0
 10
114.5111994152976
 20
131.5068654734404
 30
0.0
 10
114.1424989647267
 20
131.6146683962471
 30
0.0
 10
113.7876984614395
 20
131.7463612435593
 30
0.0
 10
113.4465990386221
 20
131.902173274187
 30
0.0
 10
113.1250401923877
 20
132.0793575251221
 30
0.0
 10
112.8218996406334
 20
132.2786478096487
 30
0.0
 10
112.543171161729
 20
132.4961424986485
 30
0.0
 10
112.2872800846421
 20
132.7330703832054
 30
0.0
 10
112.0597817164336
 20
132.9845874369292
 30
0.0
 10
111.8591101761752
 20
133.2521398211956
 30
0.0
 10
111.6898918680656
 20
133.5304100743582
 30
0.0
 10
111.5508579149815
 20
133.8205330049692
 30
0.0
 10
111.4454460955314
 20
134.1173668837275
 30
0.0
 10
111.3726572344196
 20
134.4211016633874
 30
0.0
 10
111.3347681723262
 20
134.7274438706131
 30
0.0
 10
111.3307024076636
 20
135.0351554902685
 30
0.0
 10
111.3618554939666
 20
135.341313058408
 30
0.0
 10
111.4265798040098
 20
135.6431273931495
 30
0.0
 10
111.5258386115352
 20
135.9392704731068
 30
0.0
 10
111.6569857574428
 20
136.2256660549731
 30
0.0
 10
111.821033265028
 20
136.5024153462772
 30
0.0
 10
112.0141038349951
 20
136.7646994001221
 30
0.0
 10
112.2375613640484
 20
137.0135368536058
 30
0.0
 10
112.486329070253
 20
137.2440383982704
 30
0.0
 10
112.7620941421
 20
137.4575066459695
 30
0.0
 10
113.0588961816181
 20
137.6496057188668
 30
0.0
 10
113.3784119299287
 20
137.8214210995444
 30
0.0
 10
113.7143272292909
 20
137.9695937789984
 30
0.0
 10
114.0678253541532
 20
138.0947561711043
 30
0.0
 10
114.432845396115
 20
138.1946839462819
 30
0.0
 10
114.7970187977415
 20
138.2671029197035
 30
0.0
 10
115.1545437323736
 20
138.3137894948812
 30
0.0
 10
115.5171788268146
 20
138.3385461623756
 30
0.0
 10
115.8943749319507
 20
138.3397477262182
 30
0.0
 10
116.2965020457823
 20
138.3137704007739
 30
0.0
 10
116.7078424572325
 20
138.2575053094224
 30
0.0
 10
117.1108206357354
 20
138.1710994095159
 30
0.0
 10
117.4918287228149
 20
138.0597096530809
 30
0.0
 10
117.8466300414798
 20
137.9280145246833
 30
0.0
 10
118.187728968586
 20
137.7722024846346
 30
0.0
 10
118.5092878921551
 20
137.5950180729942
 30
0.0
 10
118.8124285122895
 20
137.3957278849296
 30
0.0
 10
119.0911570589936
 20
137.1782332932215
 30
0.0
 10
119.347048143007
 20
136.9413055578294
 30
0.0
 10
119.5745454704209
 20
136.6897878231784
 30
0.0
 10
119.7752182306966
 20
136.4222350832303
 30
0.0
 10
119.9444374134393
 20
136.1439669099569
 30
0.0
 10
120.0834874242196
 20
135.8538488949228
 30
0.0
 10
120.1854711044289
 20
135.5664032475471
 30
0.0
 10
120.2551667718447
 20
135.2826548870484
 30
0.0
 10
120.2948890239252
 20
134.9971724247616
 30
0.0
 10
120.3070709123704
 20
134.6994425356542
 30
0.0
 10
120.2861052829366
 20
134.4962193596467
 30
0.0
 10
120.2756097657685
 20
134.3944846447666
 30
0.0
 11
120.2756097657685
 21
134.3944846447665
 31
0.0
 11
120.2098778312229
 21
134.0616150523888
 31
0.0
 11
120.1043728368399
 21
133.7396896176468
 31
0.0
 11
119.9723741190865
 21
133.4512768219114
 31
0.0
 11
119.8110629331584
 21
133.1783180637383
 31
0.0
 11
119.6160646921478
 21
132.913019868995
 31
0.0
 11
119.3964614199568
 21
132.6678716107442
 31
0.0
 11
119.1446962960287
 21
132.4341895181189
 31
0.0
 11
118.8733728943053
 21
132.2237255769789
 31
0.0
 11
118.5729491072583
 21
132.028924465754
 31
0.0
 11
118.2578097807357
 21
131.8591570389329
 31
0.0
 11
117.9182691799547
 21
131.7090990739542
 31
0.0
 11
117.5684642017747
 21
131.5850423373506
 31
0.0
 11
117.2004346666467
 21
131.484081569092
 31
0.0
 11
116.8261999297018
 21
131.4095628963125
 31
0.0
 11
116.4410473191609
 21
131.3604779204311
 31
0.0
 11
116.0534548280337
 21
131.3379610375047
 31
0.0
 11
115.6629334337793
 21
131.3419204799338
 31
0.0
 11
115.2735810790666
 21
131.3723734033328
 31
0.0
 11
114.8894782691539
 21
131.4289417735398
 31
0.0
 11
114.5101459655294
 21
131.5117600744365
 31
0.0
 11
114.1439292910296
 21
131.6189515802393
 31
0.0
 11
113.7862227066396
 21
131.7519358604837
 31
0.0
 11
113.4487041432448
 21
131.906321133829
 31
0.0
 11
113.1237002681601
 21
132.0857024995443
 31
0.0
 11
112.8247387728018
 21
132.2825674656222
 31
0.0
 11
112.5426404401494
 21
132.5030726715256
 31
0.0
 11
112.2909092944123
 21
132.7366167058285
 31
0.0
 11
112.0607062315889
 21
132.9915660241062
 31
0.0
 11
111.8635481726418
 21
133.255104008713
 31
0.0
 11
111.6926700820868
 21
133.5365461019137
 31
0.0
 11
111.5560326947405
 21
133.8226525672523
 31
0.0
 11
111.4499784095097
 21
134.1215728990028
 31
0.0
 11
111.3783523438092
 21
134.4221143451656
 31
0.0
 11
111.3403290346632
 21
134.7287960596163
 31
0.0
 11
111.3365537052464
 21
135.0348972984893
 31
0.0
 11
111.3672756433652
 21
135.3394763261071
 31
0.0
 11
111.4321635823601
 21
135.6416170241195
 31
0.0
 11
111.5299828461679
 21
135.9346816003039
 31
0.0
 11
111.6619537349396
 21
136.2230989379038
 31
0.0
 11
111.8232602221916
 21
136.4960584625505
 31
0.0
 11
112.0182634977905
 21
136.7613558360293
 31
0.0
 11
112.237867615698
 21
137.0065039586733
 31
0.0
 11
112.4896318200203
 21
137.2401861987464
 31
0.0
 11
112.7609550689205
 21
137.4506501497717
 31
0.0
 11
113.0613790225018
 21
137.6454512501431
 31
0.0
 11
113.376518367865
 21
137.8152187672095
 31
0.0
 11
113.7160589481768
 21
137.9652766356938
 31
0.0
 11
114.0658639790242
 21
138.0893327908249
 31
0.0
 11
114.4338934589303
 21
138.1902941695756
 31
0.0
 11
114.8081278467147
 21
138.2648163681355
 31
0.0
 11
115.1549523897515
 21
138.3102154723888
 31
0.0
 11
115.5037580137765
 21
138.334043548396
 31
0.0
 11
115.8941175661792
 21
138.3353446652212
 31
0.0
 11
116.2840236773547
 21
138.310121077476
 31
0.0
 11
116.7069827912781
 21
138.252215444783
 31
0.0
 11
117.1241816472314
 21
138.1626129441399
 31
0.0
 11
117.490398833403
 21
138.0554241169913
 31
0.0
 11
117.8481055113668
 21
137.9224403016642
 31
0.0
 11
118.185623985703
 21
137.7680545855162
 31
0.0
 11
118.5106278182398
 21
137.5886731401494
 31
0.0
 11
118.8095893531023
 21
137.3918082485007
 31
0.0
 11
119.0916878414785
 21
137.171303069298
 31
0.0
 11
119.3434188442949
 21
136.9377590104345
 31
0.0
 11
119.5736210681469
 21
136.6828096130339
 31
0.0
 11
119.7707798986535
 21
136.4192717011876
 31
0.0
 11
119.9416625789891
 21
136.1378300302117
 31
0.0
 11
120.0782956827902
 21
135.8517231708232
 31
0.0
 11
120.1843245982842
 21
135.5528005069782
 31
0.0
 11
120.2504881100295
 21
135.2816989881644
 31
0.0
 11
120.2893517595935
 21
135.0056001515151
 31
0.0
 11
120.2997446039777
 21
134.7000258159881
 31
0.0
 11
120.2756097657685
 21
134.3944846447666
 31
0.0
  0
SPLINE
  5
177
330
1F
100
AcDbEntity
  8
1
  6
Continuous
 62
     3
100
AcDbSpline
210
0.0
220
0.0
230
1.0
 70
    11
 71
     3
 72
    79
 73
    75
 74
    73
 42
0.0000000001
 43
0.0000000001
 44
0.00000001
 40
0.0
 40
0.0
 40
0.0
 40
0.0
 40
0.3074745852281266
 40
0.6149156192884219
 40
0.9270038880193636
 40
1.239033784124258
 40
1.558053550963668
 40
1.877003161252128
 40
2.204325297669484
 40
2.531577639752153
 40
2.867513040342672
 40
3.203387460945569
 40
3.547223534406357
 40
3.891012072552629
 40
4.241158433324001
 40
4.591272680147767
 40
4.945475758419353
 40
5.299662736489969
 40
5.655258857985085
 40
6.010854979480202
 40
6.365041957550807
 40
6.719245035822396
 40
7.069359282646118
 40
7.419505643417501
 40
7.763294181563797
 40
8.107130255024627
 40
8.443004675627538
 40
8.77894007621804
 40
9.106192418300711
 40
9.433514554718078
 40
9.752464165006531
 40
10.07148393184592
 40
10.38351382795071
 40
10.69560209668168
 40
11.00304313074203
 40
11.31051771597016
 40
11.61636195136521
 40
11.92220618676026
 40
12.22968077198836
 40
12.53712180604868
 40
12.84921007477963
 40
13.1612399708845
 40
13.48025973772395
 40
13.79920934801239
 40
14.12653148442975
 40
14.45378382651243
 40
14.78971922710293
 40
15.12559364770584
 40
15.46942972116667
 40
15.81321825931294
 40
16.16336462008428
 40
16.51347886690801
 40
16.86768194517962
 40
17.22186892325022
 40
17.57746504474534
 40
17.93306116624046
 40
18.28724814431106
 40
18.64145122258267
 40
18.99156546940641
 40
19.34171183017778
 40
19.68550036832407
 40
20.02933644178494
 40
20.36521086238783
 40
20.70114626297828
 40
21.0283986050609
 40
21.35572074147829
 40
21.67467035176679
 40
21.99369011860621
 40
22.30572001471112
 40
22.61780828344205
 40
22.92524931750234
 40
23.23272390273047
 40
23.53856813812552
 40
23.84441237352057
 40
23.84441237352057
 40
23.84441237352057
 40
23.84441237352057
 10
136.6948895908083
 20
117.0655621238843
 30
0.0
 10
136.5931855107129
 20
117.0521716654146
 30
0.0
 10
136.3897884483195
 20
117.0253922096221
 30
0.0
 10
136.0904107754993
 20
116.9457533751013
 30
0.0
 10
135.7984926831604
 20
116.8387524343781
 30
0.0
 10
135.5152160998362
 20
116.7011923426168
 30
0.0
 10
135.2442679382482
 20
116.5363946656809
 30
0.0
 10
134.985958673328
 20
116.3437775351791
 30
0.0
 10
134.7440571880482
 20
116.1268083703481
 30
0.0
 10
134.5185630850447
 20
115.885068343609
 30
0.0
 10
134.3128639826034
 20
115.6226519509558
 30
0.0
 10
134.1269429108026
 20
115.3392667914892
 30
0.0
 10
133.9635040475244
 20
115.0393667690777
 30
0.0
 10
133.8226706476762
 20
114.7230186631757
 30
0.0
 10
133.706315758032
 20
114.3946535374645
 30
0.0
 10
133.614707747133
 20
114.054961280648
 30
0.0
 10
133.5488989137361
 20
113.7079733320996
 30
0.0
 10
133.5091735630218
 20
113.3552096142658
 30
0.0
 10
133.495904605127
 20
113.0000000000012
 30
0.0
 10
133.5091735630214
 20
112.6447903857294
 30
0.0
 10
133.5488989137378
 20
112.2920266679173
 30
0.0
 10
133.6147077471267
 20
111.9450387192898
 30
0.0
 10
133.7063157580553
 20
111.6053464627646
 30
0.0
 10
133.8226706475892
 20
111.2769813359752
 30
0.0
 10
133.9635040478423
 20
110.9606332340272
 30
0.0
 10
134.1269429096266
 20
110.6607331970275
 30
0.0
 10
134.3128639868799
 20
110.3773480908022
 30
0.0
 10
134.5185630692436
 20
110.1149315020982
 30
0.0
 10
134.7440572453327
 20
109.8731921890142
 30
0.0
 10
134.9859584616144
 20
109.6562203975151
 30
0.0
 10
135.2442687060222
 20
109.4636128313509
 30
0.0
 10
135.5152132578346
 20
109.2987799062752
 30
0.0
 10
135.7985030326552
 20
109.1613486246632
 30
0.0
 10
136.0903723572038
 20
109.0538714842621
 30
0.0
 10
136.3899294656873
 20
108.97598477352
 30
0.0
 10
136.6938248832944
 20
108.929378216725
 30
0.0
 10
137.0003334412356
 20
108.9135150157093
 30
0.0
 10
137.3068419991768
 20
108.9293782167251
 30
0.0
 10
137.6107374167839
 20
108.9759847735199
 30
0.0
 10
137.9102945252674
 20
109.0538714842622
 30
0.0
 10
138.2021638498159
 20
109.1613486246632
 30
0.0
 10
138.4854536246366
 20
109.2987799062753
 30
0.0
 10
138.7563981764491
 20
109.4636128313508
 30
0.0
 10
139.0147084208568
 20
109.6562203975152
 30
0.0
 10
139.2566096371385
 20
109.8731921890141
 30
0.0
 10
139.4821038132277
 20
110.1149315020982
 30
0.0
 10
139.6878028955913
 20
110.3773480908022
 30
0.0
 10
139.8737239728446
 20
110.6607331970275
 30
0.0
 10
140.0371628346289
 20
110.9606332340273
 30
0.0
 10
140.1779962348819
 20
111.2769813359753
 30
0.0
 10
140.2943511244159
 20
111.6053464627647
 30
0.0
 10
140.3859591353445
 20
111.9450387192898
 30
0.0
 10
140.4517679687334
 20
112.2920266679172
 30
0.0
 10
140.4914933194498
 20
112.6447903857297
 30
0.0
 10
140.5047622773441
 20
113.0000000000001
 30
0.0
 10
140.4914933194499
 20
113.3552096142699
 30
0.0
 10
140.4517679687333
 20
113.707973332084
 30
0.0
 10
140.385959135345
 20
114.0549612807057
 30
0.0
 10
140.2943511244142
 20
114.3946535372518
 30
0.0
 10
140.1779962348882
 20
114.723018663964
 30
0.0
 10
140.0371628346061
 20
115.0393667661951
 30
0.0
 10
139.8737239729288
 20
115.3392668021503
 30
0.0
 10
139.6878028952851
 20
115.6226519121879
 30
0.0
 10
139.4821038143591
 20
115.8850684868537
 30
0.0
 10
139.2566096330367
 20
116.1268078510386
 30
0.0
 10
139.0147084360163
 20
116.3437794544566
 30
0.0
 10
138.7563981214732
 20
116.5363877054696
 30
0.0
 10
138.4854538281364
 20
116.7012181066235
 30
0.0
 10
138.2021631087466
 20
116.8386586116085
 30
0.0
 10
137.9102972761862
 20
116.9461016540188
 30
0.0
 10
137.6107273193203
 20
117.0241138245276
 30
0.0
 10
137.3068796224846
 20
117.0702544054017
 30
0.0
 10
137.0001938531966
 20
117.0878480105586
 30
0.0
 10
136.7966576782711
 20
117.0729907527758
 30
0.0
 10
136.6948895908083
 20
117.0655621238843
 30
0.0
 11
136.6948895908083
 21
117.0655621238843
 31
0.0
 11
136.3909797044441
 21
117.0188780631003
 31
0.0
 11
136.0933742511913
 21
116.9417354444109
 31
0.0
 11
135.8005046581412
 21
116.8339092465454
 31
0.0
 11
135.5196524669662
 21
116.6979507868033
 31
0.0
 11
135.2470574704836
 21
116.5322233614117
 31
0.0
 11
134.9912083105906
 21
116.341776357536
 31
0.0
 11
134.7474485576103
 21
116.1233250727703
 31
0.0
 11
134.5240540949163
 21
115.8841828359399
 31
0.0
 11
134.3166873538611
 21
115.6198882501572
 31
0.0
 11
134.1322791670062
 21
115.3391655274641
 31
0.0
 11
133.9676191292199
 21
115.0373206710078
 31
0.0
 11
133.8276657062036
 21
114.7233085719626
 31
0.0
 11
133.7106138185646
 21
114.3933065574815
 31
0.0
 11
133.6193626267644
 21
114.0552929396729
 31
0.0
 11
133.5532963631576
 21
113.7073057711306
 31
0.0
 11
133.5136238072763
 21
113.3553476717144
 31
0.0
 11
133.5003334412356
 21
113.0
 31
0.0
 11
133.5136238072764
 21
112.6446523282856
 31
0.0
 11
133.5532963631577
 21
112.2926942288694
 31
0.0
 11
133.6193626267644
 21
111.9447070603271
 31
0.0
 11
133.7106138185645
 21
111.6066934425185
 31
0.0
 11
133.8276657062035
 21
111.2766914280374
 31
0.0
 11
133.9676191292198
 21
110.9626793289922
 31
0.0
 11
134.1322791670062
 21
110.6608344725359
 31
0.0
 11
134.3166873538611
 21
110.3801117498428
 31
0.0
 11
134.5240540949164
 21
110.1158171640601
 31
0.0
 11
134.7474485576103
 21
109.8766749272297
 31
0.0
 11
134.9912083105907
 21
109.6582236424639
 31
0.0
 11
135.2470574704836
 21
109.4677766385883
 31
0.0
 11
135.5196524669662
 21
109.3020492131967
 31
0.0
 11
135.8005046581411
 21
109.1660907534546
 31
0.0
 11
136.0933742511912
 21
109.0582645555891
 31
0.0
 11
136.3909797044441
 21
108.9811219368997
 31
0.0
 11
136.6948895908083
 21
108.9344378761157
 31
0.0
 11
137.0003334412356
 21
108.9187933703536
 31
0.0
 11
137.3057772916629
 21
108.9344378761157
 31
0.0
 11
137.6096871780271
 21
108.9811219368997
 31
0.0
 11
137.9072926312799
 21
109.0582645555891
 31
0.0
 11
138.20016222433
 21
109.1660907534547
 31
0.0
 11
138.481014415505
 21
109.3020492131967
 31
0.0
 11
138.7536094119877
 21
109.4677766385883
 31
0.0
 11
139.0094585718806
 21
109.658223642464
 31
0.0
 11
139.2532183248609
 21
109.8766749272297
 31
0.0
 11
139.4766127875549
 21
110.1158171640601
 31
0.0
 11
139.6839795286101
 21
110.3801117498428
 31
0.0
 11
139.868387715465
 21
110.6608344725359
 31
0.0
 11
140.0330477532513
 21
110.9626793289923
 31
0.0
 11
140.1730011762676
 21
111.2766914280375
 31
0.0
 11
140.2900530639067
 21
111.6066934425185
 31
0.0
 11
140.3813042557068
 21
111.944707060327
 31
0.0
 11
140.4473705193136
 21
112.2926942288694
 31
0.0
 11
140.4870430751949
 21
112.6446523282856
 31
0.0
 11
140.5003334412356
 21
113.0
 31
0.0
 11
140.4870430751949
 21
113.3553476717144
 31
0.0
 11
140.4473705193136
 21
113.7073057711306
 31
0.0
 11
140.3813042557069
 21
114.055292939673
 31
0.0
 11
140.2900530639068
 21
114.3933065574815
 31
0.0
 11
140.1730011762677
 21
114.7233085719625
 31
0.0
 11
140.0330477532514
 21
115.0373206710078
 31
0.0
 11
139.868387715465
 21
115.3391655274642
 31
0.0
 11
139.6839795286101
 21
115.6198882501572
 31
0.0
 11
139.4766127875549
 21
115.8841828359399
 31
0.0
 11
139.2532183248609
 21
116.1233250727703
 31
0.0
 11
139.0094585718806
 21
116.341776357536
 31
0.0
 11
138.7536094119876
 21
116.5322233614118
 31
0.0
 11
138.481014415505
 21
116.6979507868033
 31
0.0
 11
138.20016222433
 21
116.8339092465454
 31
0.0
 11
137.9072926312799
 21
116.9417354444109
 31
0.0
 11
137.6096871780271
 21
117.0188780631003
 31
0.0
 11
137.3057772916629
 21
117.0655621238843
 31
0.0
 11
137.0003334412356
 21
117.0812066296464
 31
0.0
 11
136.6948895908083
 21
117.0655621238843
 31
0.0
  0
SPLINE
  5
178
330
1F
100
AcDbEntity
  8
1
  6
Continuous
 62
     3
100
AcDbSpline
210
0.0
220
0.0
230
1.0
 70
    11
 71
     3
 72
    79
 73
    75
 74
    73
 42
0.0000000001
 43
0.0000000001
 44
0.00000001
 40
0.0
 40
0.0
 40
0.0
 40
0.0
 40
0.3261797712055957
 40
0.6514542755466696
 40
1.018860020605107
 40
1.385296884607482
 40
1.808178921557282
 40
2.230470492425801
 40
2.713203138433956
 40
3.19560114326983
 40
3.735016515979358
 40
4.274241934116423
 40
4.86206736982494
 40
5.449784496905173
 40
6.074345281048809
 40
6.6988467089583
 40
7.346271526409298
 40
7.99366995482288
 40
8.648842750888083
 40
9.30401554695327
 40
9.951413975366865
 40
10.59883879281785
 40
11.22334022072732
 40
11.84790100487099
 40
12.43561813195125
 40
13.02344356765976
 40
13.56266898579684
 40
14.10208435850634
 40
14.5844823633422
 40
15.06721500935038
 40
15.4895065802189
 40
15.91238861716868
 40
16.27882548117107
 40
16.64623122622956
 40
16.97150573057062
 40
17.29768550177618
 40
17.60781491451667
 40
17.91794432725723
 40
18.24412409846282
 40
18.5693986028039
 40
18.93680434786231
 40
19.30324121186471
 40
19.72612324881451
 40
20.14841481968302
 40
20.63114746569117
 40
21.11354547052707
 40
21.6529608432366
 40
22.19218626137364
 40
22.78001169708214
 40
23.36772882416241
 40
23.99228960830606
 40
24.61679103621555
 40
25.2642158536665
 40
25.9116142820801
 40
26.56678707814529
 40
27.22195987421047
 40
27.86935830262407
 40
28.5167831200751
 40
29.14128454798458
 40
29.7658453321282
 40
30.35356245920845
 40
30.94138789491699
 40
31.48061331305403
 40
32.02002868576355
 40
32.50242669059941
 40
32.98515933660762
 40
33.40745090747616
 40
33.83033294442595
 40
34.19676980842834
 40
34.5641755534868
 40
34.88945005782789
 40
35.21562982903342
 40
35.52575924177394
 40
35.83588865451447
 40
35.83588865451447
 40
35.83588865451447
 40
35.83588865451447
 10
136.6916830542744
 20
106.8447581793802
 30
0.0
 10
136.5857810622377
 20
106.8187628214341
 30
0.0
 10
136.3742709945034
 20
106.7668442520641
 30
0.0
 10
136.0691342595101
 20
106.6123334183015
 30
0.0
 10
135.7780569627429
 20
106.4111743243053
 30
0.0
 10
135.492457301502
 20
106.1505817680319
 30
0.0
 10
135.2262573224322
 20
105.8458745160611
 30
0.0
 10
134.967736979347
 20
105.4858973830654
 30
0.0
 10
134.73098257218
 20
105.0880074959544
 30
0.0
 10
134.5061193779659
 20
104.639324230568
 30
0.0
 10
134.304586454481
 20
104.1591890332733
 30
0.0
 10
134.1195170172586
 20
103.6351521535604
 30
0.0
 10
133.9589989003674
 20
103.0862773566714
 30
0.0
 10
133.8189496322181
 20
102.5025926276175
 30
0.0
 10
133.7044106377532
 20
101.9009168224555
 30
0.0
 10
133.613360575192
 20
101.2751545541182
 30
0.0
 10
133.5484932435947
 20
100.6384844080677
 30
0.0
 10
133.5089748050084
 20
99.98951067964732
 30
0.0
 10
133.4959869714554
 20
99.33688084390802
 30
0.0
 10
133.5089748050049
 20
98.68425100813813
 30
0.0
 10
133.5484932436086
 20
98.0352772798083
 30
0.0
 10
133.613360575141
 20
97.39860713343056
 30
0.0
 10
133.7044106379363
 20
96.77284486627174
 30
0.0
 10
133.818949631551
 20
96.17116905683082
 30
0.0
 10
133.958998902695
 20
95.58748434284658
 30
0.0
 10
134.1195170088569
 20
95.03860949196722
 30
0.0
 10
134.3045864829733
 20
94.5145727979073
 30
0.0
 10
134.506119276046
 20
94.03443694436682
 30
0.0
 10
134.7309829082405
 20
93.5857558829372
 30
0.0
 10
134.9677357861002
 20
93.18785830021423
 30
0.0
 10
135.226261162881
 20
92.82790649723175
 30
0.0
 10
135.4924436947367
 20
92.52311144929573
 30
0.0
 10
135.7781003192427
 20
92.26280553734162
 30
0.0
 10
136.0689790897175
 20
92.06064744102602
 30
0.0
 10
136.3747773981281
 20
91.90946570473594
 30
0.0
 10
136.6846079416852
 20
91.82090293092733
 30
0.0
 10
137.0003334412356
 20
91.78795498153073
 30
0.0
 10
137.3160589407861
 20
91.82090293092733
 30
0.0
 10
137.6258894843432
 20
91.90946570473596
 30
0.0
 10
137.9316877927537
 20
92.06064744102602
 30
0.0
 10
138.2225665632285
 20
92.26280553734165
 30
0.0
 10
138.5082231877345
 20
92.52311144929577
 30
0.0
 10
138.7744057195902
 20
92.82790649723178
 30
0.0
 10
139.032931096371
 20
93.18785830021424
 30
0.0
 10
139.2696839742308
 20
93.58575588293712
 30
0.0
 10
139.4945476064253
 20
94.03443694436686
 30
0.0
 10
139.6960803994981
 20
94.51457279790725
 30
0.0
 10
139.8811498736143
 20
95.03860949196729
 30
0.0
 10
140.0416679797762
 20
95.58748434284655
 30
0.0
 10
140.1817172509203
 20
96.17116905683082
 30
0.0
 10
140.2962562445349
 20
96.77284486627175
 30
0.0
 10
140.3873063073303
 20
97.39860713343057
 30
0.0
 10
140.4521736388624
 20
98.035277279808
 30
0.0
 10
140.4916920774666
 20
98.68425100813936
 30
0.0
 10
140.5046799110147
 20
99.33688084390323
 30
0.0
 10
140.4916920774668
 20
99.98951067966495
 30
0.0
 10
140.4521736388616
 20
100.6384844080027
 30
0.0
 10
140.3873063073339
 20
101.2751545543572
 30
0.0
 10
140.296256244522
 20
101.9009168215985
 30
0.0
 10
140.181717250967
 20
102.50259263074
 30
0.0
 10
140.0416679796134
 20
103.0862773457789
 30
0.0
 10
139.8811498742021
 20
103.6351521928799
 30
0.0
 10
139.6960803975042
 20
104.1591888999319
 30
0.0
 10
139.4945476135574
 20
104.6393247075484
 30
0.0
 10
139.2696839507136
 20
105.08800592321
 30
0.0
 10
139.0329311798737
 20
105.4859029673978
 30
0.0
 10
138.7744054508374
 20
105.8458565429619
 30
0.0
 10
138.508224139929
 20
106.1506454469806
 30
0.0
 10
138.2225635291625
 20
106.4109714181593
 30
0.0
 10
137.9316986514573
 20
106.6130596047974
 30
0.0
 10
137.6258540464733
 20
106.7644743096465
 30
0.0
 10
137.3161893814008
 20
106.8522023678672
 30
0.0
 10
136.9998731302209
 20
106.8881230330736
 30
0.0
 10
136.7944130795899
 20
106.8592131306113
 30
0.0
 10
136.6916830542744
 20
106.8447581793802
 30
0.0
 11
136.6916830542744
 21
106.8447581793802
 31
0.0
 11
136.3780902566522
 21
106.7550207823641
 31
0.0
 11
136.0855185022261
 21
106.6128755338104
 31
0.0
 11
135.7829276136729
 21
106.4044871088284
 31
0.0
 11
135.5110203422021
 21
106.1588401853361
 31
0.0
 11
135.2314225759419
 21
105.8415795570239
 31
0.0
 11
134.9842406254922
 21
105.4991890574499
 31
0.0
 11
134.7360411971813
 21
105.0851505914734
 31
0.0
 11
134.5192763868689
 21
104.6541971693036
 31
0.0
 11
134.3094301448001
 21
104.1572731318442
 31
0.0
 11
134.1294150722297
 21
103.6489832291188
 31
0.0
 11
133.9636355241892
 21
103.0850187937885
 31
0.0
 11
133.8262159680738
 21
102.5135931319038
 31
0.0
 11
133.7088879828899
 21
101.900151759821
 31
0.0
 11
133.6188191268488
 21
101.2821795641419
 31
0.0
 11
133.5528726094428
 21
100.6381221512558
 31
0.0
 11
133.5135186342484
 21
99.99192095213223
 31
0.0
 11
133.5003334412356
 21
99.33688084390289
 31
0.0
 11
133.5135186342484
 21
98.68184073567356
 31
0.0
 11
133.5528726094428
 21
98.03563953654995
 31
0.0
 11
133.6188191268488
 21
97.39158212366391
 31
0.0
 11
133.70888798289
 21
96.77360992798485
 31
0.0
 11
133.8262159680739
 21
96.16016855590203
 31
0.0
 11
133.9636355241893
 21
95.58874289401722
 31
0.0
 11
134.1294150722298
 21
95.02477845868695
 31
0.0
 11
134.3094301448002
 21
94.51648855596156
 31
0.0
 11
134.519276386869
 21
94.01956451850216
 31
0.0
 11
134.7360411971814
 21
93.58861109633237
 31
0.0
 11
134.9842406254922
 21
93.17457263035583
 31
0.0
 11
135.2314225759419
 21
92.83218213078185
 31
0.0
 11
135.5110203422021
 21
92.5149215024696
 31
0.0
 11
135.7829276136729
 21
92.26927457897733
 31
0.0
 11
136.0855185022263
 21
92.06088615399531
 31
0.0
 11
136.3780902566523
 21
91.91874090544168
 31
0.0
 11
136.6916830542744
 21
91.82900350842553
 31
0.0
 11
137.0003334412356
 21
91.79875137997975
 31
0.0
 11
137.3089838281968
 21
91.82900350842553
 31
0.0
 11
137.622576625819
 21
91.9187409054417
 31
0.0
 11
137.9151483802451
 21
92.06088615399534
 31
0.0
 11
138.2177392687983
 21
92.26927457897733
 31
0.0
 11
138.4896465402691
 21
92.51492150246962
 31
0.0
 11
138.7692443065293
 21
92.83218213078189
 31
0.0
 11
139.016426256979
 21
93.17457263035583
 31
0.0
 11
139.2646256852899
 21
93.58861109633233
 31
0.0
 11
139.4813904956023
 21
94.01956451850216
 31
0.0
 11
139.6912367376711
 21
94.51648855596157
 31
0.0
 11
139.8712518102414
 21
95.02477845868695
 31
0.0
 11
140.0370313582819
 21
95.58874289401722
 31
0.0
 11
140.1744509143974
 21
96.16016855590203
 31
0.0
 11
140.2917788995812
 21
96.77360992798484
 31
0.0
 11
140.3818477556224
 21
97.39158212366392
 31
0.0
 11
140.4477942730283
 21
98.03563953654994
 31
0.0
 11
140.4871482482228
 21
98.68184073567355
 31
0.0
 11
140.5003334412356
 21
99.33688084390288
 31
0.0
 11
140.4871482482228
 21
99.9919209521322
 31
0.0
 11
140.4477942730284
 21
100.6381221512558
 31
0.0
 11
140.3818477556223
 21
101.2821795641419
 31
0.0
 11
140.2917788995812
 21
101.900151759821
 31
0.0
 11
140.1744509143973
 21
102.5135931319037
 31
0.0
 11
140.0370313582819
 21
103.0850187937885
 31
0.0
 11
139.8712518102413
 21
103.6489832291188
 31
0.0
 11
139.691236737671
 21
104.1572731318442
 31
0.0
 11
139.4813904956022
 21
104.6541971693036
 31
0.0
 11
139.2646256852899
 21
105.0851505914734
 31
0.0
 11
139.0164262569789
 21
105.49918905745
 31
0.0
 11
138.7692443065293
 21
105.8415795570239
 31
0.0
 11
138.489646540269
 21
106.1588401853362
 31
0.0
 11
138.2177392687982
 21
106.4044871088285
 31
0.0
 11
137.9151483802449
 21
106.6128755338105
 31
0.0
 11
137.6225766258189
 21
106.7550207823641
 31
0.0
 11
137.3089838281967
 21
106.8447581793803
 31
0.0
 11
137.0003334412356
 21
106.875010307826
 31
0.0
 11
136.6916830542744
 21
106.8447581793802
 31
0.0
  0
SPLINE
  5
179
330
1F
100
AcDbEntity
  8
1
  6
Continuous
 62
     3
100
AcDbSpline
210
0.0
220
0.0
230
1.0
 70
    11
 71
     3
 72
    79
 73
    75
 74
    73
 42
0.0000000001
 43
0.0000000001
 44
0.00000001
 40
0.0
 40
0.0
 40
0.0
 40
0.0
 40
0.3074745852281244
 40
0.6149156192884162
 40
0.9270038880193581
 40
1.239033784124253
 40
1.55805355096367
 40
1.87700316125213
 40
2.204325297669476
 40
2.531577639752156
 40
2.867513040342664
 40
3.203387460945548
 40
3.547223534406387
 40
3.891012072552659
 40
4.241158433324045
 40
4.591272680147769
 40
4.945475758419368
 40
5.299662736489971
 40
5.655258857985115
 40
6.010854979480232
 40
6.365041957550809
 40
6.719245035822397
 40
7.069359282646093
 40
7.419505643417462
 40
7.763294181563758
 40
8.107130255024625
 40
8.443004675627549
 40
8.778940076218039
 40
9.106192418300688
 40
9.433514554718064
 40
9.752464165006533
 40
10.07148393184592
 40
10.3835138279507
 40
10.69560209668168
 40
11.00304313074203
 40
11.31051771597016
 40
11.6163619513652
 40
11.92220618676025
 40
12.22968077198835
 40
12.53712180604867
 40
12.84921007477961
 40
13.16123997088449
 40
13.48025973772395
 40
13.79920934801239
 40
14.12653148442976
 40
14.45378382651243
 40
14.78971922710291
 40
15.12559364770582
 40
15.46942972116667
 40
15.81321825931295
 40
16.1633646200843
 40
16.51347886690803
 40
16.86768194517963
 40
17.22186892325023
 40
17.57746504474535
 40
17.9330611662405
 40
18.2872481443111
 40
18.64145122258268
 40
18.99156546940637
 40
19.34171183017777
 40
19.68550036832405
 40
20.02933644178491
 40
20.3652108623878
 40
20.70114626297829
 40
21.02839860506094
 40
21.35572074147831
 40
21.6746703517668
 40
21.99369011860621
 40
22.30572001471111
 40
22.61780828344204
 40
22.92524931750234
 40
23.23272390273046
 40
23.53856813812551
 40
23.84441237352056
 40
23.84441237352056
 40
23.84441237352056
 40
23.84441237352056
 10
136.6948895908083
 20
81.60819956392197
 30
0.0
 10
136.5931855107129
 20
81.62159002239164
 30
0.0
 10
136.3897884483195
 20
81.64836947818415
 30
0.0
 10
136.0904107754993
 20
81.72800831270493
 30
0.0
 10
135.7984926831604
 20
81.83500925342817
 30
0.0
 10
135.5152160998362
 20
81.97256934518938
 30
0.0
 10
135.2442679382482
 20
82.13736702212537
 30
0.0
 10
134.985958673328
 20
82.32998415262712
 30
0.0
 10
134.7440571880482
 20
82.54695331745813
 30
0.0
 10
134.5185630850447
 20
82.7886933441972
 30
0.0
 10
134.3128639826034
 20
83.05110973685049
 30
0.0
 10
134.1269429108025
 20
83.33449489631704
 30
0.0
 10
133.9635040475244
 20
83.63439491872856
 30
0.0
 10
133.8226706476761
 20
83.95074302463055
 30
0.0
 10
133.706315758032
 20
84.27910815034178
 30
0.0
 10
133.614707747133
 20
84.61880040715832
 30
0.0
 10
133.5488989137361
 20
84.96578835570674
 30
0.0
 10
133.5091735630218
 20
85.31855207354052
 30
0.0
 10
133.495904605127
 20
85.67376168780508
 30
0.0
 10
133.5091735630214
 20
86.02897130207688
 30
0.0
 10
133.5488989137379
 20
86.38173501988898
 30
0.0
 10
133.6147077471267
 20
86.72872296851642
 30
0.0
 10
133.7063157580553
 20
87.0684152250416
 30
0.0
 10
133.8226706475892
 20
87.39678035183101
 30
0.0
 10
133.9635040478423
 20
87.71312845377899
 30
0.0
 10
134.1269429096266
 20
88.0130284907788
 30
0.0
 10
134.3128639868799
 20
88.29641359700405
 30
0.0
 10
134.5185630692436
 20
88.55883018570805
 30
0.0
 10
134.7440572453327
 20
88.80056949879204
 30
0.0
 10
134.9859584616145
 20
89.01754129029112
 30
0.0
 10
135.2442687060221
 20
89.21014885645542
 30
0.0
 10
135.5152132578346
 20
89.37498178153103
 30
0.0
 10
135.7985030326553
 20
89.51241306314304
 30
0.0
 10
136.0903723572039
 20
89.61989020354412
 30
0.0
 10
136.3899294656873
 20
89.69777691428637
 30
0.0
 10
136.6938248832944
 20
89.7443834710812
 30
0.0
 10
137.0003334412356
 20
89.76024667209693
 30
0.0
 10
137.3068419991768
 20
89.74438347108124
 30
0.0
 10
137.6107374167839
 20
89.69777691428631
 30
0.0
 10
137.9102945252673
 20
89.61989020354414
 30
0.0
 10
138.2021638498159
 20
89.51241306314307
 30
0.0
 10
138.4854536246365
 20
89.37498178153103
 30
0.0
 10
138.7563981764492
 20
89.21014885645543
 30
0.0
 10
139.0147084208567
 20
89.01754129029109
 30
0.0
 10
139.2566096371385
 20
88.80056949879206
 30
0.0
 10
139.4821038132277
 20
88.55883018570808
 30
0.0
 10
139.6878028955913
 20
88.29641359700405
 30
0.0
 10
139.8737239728447
 20
88.01302849077881
 30
0.0
 10
140.0371628346288
 20
87.71312845377898
 30
0.0
 10
140.177996234882
 20
87.396780351831
 30
0.0
 10
140.2943511244158
 20
87.0684152250416
 30
0.0
 10
140.3859591353445
 20
86.7287229685164
 30
0.0
 10
140.4517679687334
 20
86.38173501988908
 30
0.0
 10
140.4914933194498
 20
86.02897130207654
 30
0.0
 10
140.5047622773441
 20
85.67376168780619
 30
0.0
 10
140.4914933194499
 20
85.31855207353628
 30
0.0
 10
140.4517679687333
 20
84.96578835572225
 30
0.0
 10
140.385959135345
 20
84.61880040710058
 30
0.0
 10
140.2943511244142
 20
84.27910815055449
 30
0.0
 10
140.1779962348882
 20
83.95074302384232
 30
0.0
 10
140.0371628346061
 20
83.63439492161119
 30
0.0
 10
139.8737239729288
 20
83.33449488565599
 30
0.0
 10
139.6878028952851
 20
83.05110977561841
 30
0.0
 10
139.4821038143591
 20
82.78869320095252
 30
0.0
 10
139.2566096330367
 20
82.54695383676766
 30
0.0
 10
139.0147084360164
 20
82.3299822333496
 30
0.0
 10
138.7563981214732
 20
82.13737398233667
 30
0.0
 10
138.4854538281364
 20
81.97254358118278
 30
0.0
 10
138.2021631087466
 20
81.83510307619774
 30
0.0
 10
137.9102972761862
 20
81.72766003378747
 30
0.0
 10
137.6107273193203
 20
81.64964786327866
 30
0.0
 10
137.3068796224846
 20
81.60350728240464
 30
0.0
 10
137.0001938531966
 20
81.58591367724765
 30
0.0
 10
136.7966576782711
 20
81.60077093503051
 30
0.0
 10
136.6948895908083
 20
81.60819956392197
 30
0.0
 11
136.6948895908083
 21
81.60819956392197
 31
0.0
 11
136.3909797044441
 21
81.65488362470596
 31
0.0
 11
136.0933742511913
 21
81.73202624339535
 31
0.0
 11
135.8005046581412
 21
81.83985244126089
 31
0.0
 11
135.5196524669662
 21
81.97581090100294
 31
0.0
 11
135.2470574704836
 21
82.14153832639452
 31
0.0
 11
134.9912083105906
 21
82.33198533027021
 31
0.0
 11
134.7474485576103
 21
82.55043661503593
 31
0.0
 11
134.5240540949163
 21
82.7895788518664
 31
0.0
 11
134.3166873538611
 21
83.05387343764905
 31
0.0
 11
134.1322791670062
 21
83.33459616034213
 31
0.0
 11
133.9676191292199
 21
83.63644101679851
 31
0.0
 11
133.8276657062036
 21
83.95045311584371
 31
0.0
 11
133.7106138185646
 21
84.28045513032482
 31
0.0
 11
133.6193626267644
 21
84.61846874813332
 31
0.0
 11
133.5532963631576
 21
84.96645591667567
 31
0.0
 11
133.5136238072763
 21
85.31841401609182
 31
0.0
 11
133.5003334412356
 21
85.67376168780629
 31
0.0
 11
133.5136238072764
 21
86.02910935952073
 31
0.0
 11
133.5532963631577
 21
86.38106745893685
 31
0.0
 11
133.6193626267644
 21
86.7290546274792
 31
0.0
 11
133.7106138185645
 21
87.0670682452877
 31
0.0
 11
133.8276657062035
 21
87.39707025976878
 31
0.0
 11
133.9676191292198
 21
87.711082358814
 31
0.0
 11
134.1322791670062
 21
88.01292721527037
 31
0.0
 11
134.3166873538611
 21
88.29364993796348
 31
0.0
 11
134.5240540949164
 21
88.55794452374613
 31
0.0
 11
134.7474485576103
 21
88.79708676057658
 31
0.0
 11
134.9912083105907
 21
89.01553804534231
 31
0.0
 11
135.2470574704836
 21
89.20598504921801
 31
0.0
 11
135.5196524669662
 21
89.37171247460958
 31
0.0
 11
135.8005046581411
 21
89.50767093435162
 31
0.0
 11
136.0933742511912
 21
89.61549713221717
 31
0.0
 11
136.3909797044441
 21
89.6926397509066
 31
0.0
 11
136.6948895908083
 21
89.73932381169058
 31
0.0
 11
137.0003334412356
 21
89.75496831745266
 31
0.0
 11
137.3057772916629
 21
89.73932381169058
 31
0.0
 11
137.6096871780271
 21
89.69263975090658
 31
0.0
 11
137.9072926312799
 21
89.6154971322172
 31
0.0
 11
138.20016222433
 21
89.50767093435165
 31
0.0
 11
138.481014415505
 21
89.37171247460958
 31
0.0
 11
138.7536094119877
 21
89.20598504921801
 31
0.0
 11
139.0094585718806
 21
89.01553804534231
 31
0.0
 11
139.2532183248609
 21
88.79708676057659
 31
0.0
 11
139.4766127875549
 21
88.55794452374614
 31
0.0
 11
139.6839795286101
 21
88.29364993796348
 31
0.0
 11
139.868387715465
 21
88.01292721527037
 31
0.0
 11
140.0330477532513
 21
87.71108235881398
 31
0.0
 11
140.1730011762676
 21
87.39707025976878
 31
0.0
 11
140.2900530639067
 21
87.06706824528771
 31
0.0
 11
140.3813042557068
 21
86.7290546274792
 31
0.0
 11
140.4473705193136
 21
86.38106745893685
 31
0.0
 11
140.4870430751949
 21
86.0291093595207
 31
0.0
 11
140.5003334412356
 21
85.67376168780626
 31
0.0
 11
140.4870430751949
 21
85.3184140160918
 31
0.0
 11
140.4473705193136
 21
84.96645591667564
 31
0.0
 11
140.3813042557069
 21
84.61846874813331
 31
0.0
 11
140.2900530639068
 21
84.28045513032482
 31
0.0
 11
140.1730011762677
 21
83.95045311584373
 31
0.0
 11
140.0330477532514
 21
83.63644101679851
 31
0.0
 11
139.868387715465
 21
83.33459616034214
 31
0.0
 11
139.6839795286101
 21
83.05387343764905
 31
0.0
 11
139.4766127875549
 21
82.7895788518664
 31
0.0
 11
139.2532183248609
 21
82.55043661503595
 31
0.0
 11
139.0094585718806
 21
82.33198533027023
 31
0.0
 11
138.7536094119876
 21
82.1415383263945
 31
0.0
 11
138.481014415505
 21
81.97581090100292
 31
0.0
 11
138.20016222433
 21
81.83985244126086
 31
0.0
 11
137.9072926312799
 21
81.73202624339535
 31
0.0
 11
137.6096871780271
 21
81.65488362470595
 31
0.0
 11
137.3057772916629
 21
81.60819956392197
 31
0.0
 11
137.0003334412356
 21
81.59255505815989
 31
0.0
 11
136.6948895908083
 21
81.60819956392197
 31
0.0
  0
SPLINE
  5
17A
330
1F
100
AcDbEntity
  8
0
  6
Continuous
 62
     3
100
AcDbSpline
210
0.0
220
0.0
230
1.0
 70
     8
 71
     3
 72
     9
 73
     5
 74
     3
 42
0.0000000001
 43
0.0000000001
 44
0.00000001
 40
0.0
 40
0.0
 40
0.0
 40
0.0
 40
1.75924682196597
 40
3.518121987742915
 40
3.518121987742915
 40
3.518121987742915
 40
3.518121987742915
 10
113.2891750261874
 20
256.6120159394621
 30
0.0
 10
113.8605202827606
 20
256.4792666137832
 30
0.0
 10
115.0030900942535
 20
256.2137960068747
 30
0.0
 10
116.1275388154029
 20
255.8797970340594
 30
0.0
 10
116.6897037823114
 20
255.712815189562
 30
0.0
 11
113.2891750261874
 21
256.6120159394621
 31
0.0
 11
114.9986795661102
 21
256.1966322510718
 31
0.0
 11
116.6897037823114
 21
255.712815189562
 31
0.0
  0
SPLINE
  5
17B
330
1F
100
AcDbEntity
  8
0
  6
Continuous
 62
     3
100
AcDbSpline
210
0.0
220
0.0
230
1.0
 70
     8
 71
     3
 72
     9
 73
     5
 74
     3
 42
0.0000000001
 43
0.0000000001
 44
0.00000001
 40
0.0
 40
0.0
 40
0.0
 40
0.0
 40
1.759246822113912
 40
3.518121988038736
 40
3.518121988038736
 40
3.518121988038736
 40
3.518121988038736
 10
113.2891750258986
 20
226.031106878642
 30
0.0
 10
113.8605202825207
 20
226.1638562043288
 30
0.0
 10
115.0030900941111
 20
226.4293268112529
 30
0.0
 10
116.1275388153555
 20
226.7633257840955
 30
0.0
 10
116.6897037823114
 20
226.9303076286064
 30
0.0
 11
113.2891750258986
 21
226.031106878642
 31
0.0
 11
114.9986795659672
 21
226.4464905670588
 31
0.0
 11
116.6897037823114
 21
226.9303076286064
 31
0.0
  0
SPLINE
  5
17C
330
1F
100
AcDbEntity
  8
1
  6
Continuous
 62
     3
100
AcDbSpline
210
0.0
220
0.0
230
1.0
 70
    11
 71
     3
 72
    79
 73
    75
 74
    73
 42
0.0000000001
 43
0.0000000001
 44
0.00000001
 40
0.0
 40
0.0
 40
0.0
 40
0.0
 40
0.3168455194112342
 40
0.6333325962950517
 40
0.9738875127400998
 40
1.3139714475515
 40
1.687938902774111
 40
2.061521147569051
 40
2.472914868243547
 40
2.884044392383197
 40
3.331960052514007
 40
3.779705584497634
 40
4.25947943090292
 40
4.739147945948444
 40
5.243434987084097
 40
5.747661288971488
 40
6.267331671475636
 40
6.78697428299721
 40
7.31187490231819
 40
7.8367755216392
 40
8.356418133160833
 40
8.876088515664948
 40
9.380314817552284
 40
9.884601858687937
 40
10.36427037373351
 40
10.84404422013886
 40
11.29178975212253
 40
11.73970541225335
 40
12.15083493639295
 40
12.56222865706743
 40
12.93581090186241
 40
13.30977835708502
 40
13.64986229189642
 40
13.99041720834146
 40
14.30690428522524
 40
14.62374980463647
 40
14.9317880426735
 40
15.23982628071058
 40
15.55667180012185
 40
15.87315887700565
 40
16.21371379345065
 40
16.55379772826199
 40
16.92776518348458
 40
17.30134742827952
 40
17.71274114895408
 40
18.12387067309364
 40
18.57178633322441
 40
19.01953186520806
 40
19.49930571161337
 40
19.97897422665892
 40
20.48326126779466
 40
20.98748756968208
 40
21.5071579521862
 40
22.0268005637078
 40
22.55170118302875
 40
23.07660180234971
 40
23.59624441387131
 40
24.11591479637548
 40
24.62014109826285
 40
25.12442813939857
 40
25.60409665444411
 40
26.08387050084936
 40
26.53161603283307
 40
26.97953169296385
 40
27.39066121710352
 40
27.80205493777804
 40
28.175637182573
 40
28.54960463779555
 40
28.88968857260689
 40
29.23024348905193
 40
29.54673056593573
 40
29.86357608534698
 40
30.17161432338406
 40
30.47965256142108
 40
30.47965256142108
 40
30.47965256142108
 40
30.47965256142108
 10
136.6932074163446
 20
255.3336501366069
 30
0.0
 10
136.5893561518
 20
255.3133348568698
 30
0.0
 10
136.38177110807
 20
255.2727272797634
 30
0.0
 10
136.0788718812514
 20
255.1514980723416
 30
0.0
 10
135.7867751562084
 20
254.9915109863822
 30
0.0
 10
135.5016157661786
 20
254.7844536631747
 30
0.0
 10
135.232861735627
 20
254.5401275345287
 30
0.0
 10
134.9740721542117
 20
254.2525513231751
 30
0.0
 10
134.735137308945
 20
253.9327229205447
 30
0.0
 10
134.5099102725993
 20
253.5736239356858
 30
0.0
 10
134.3069210816835
 20
253.1877622798482
 30
0.0
 10
134.1215498726462
 20
252.768082294769
 30
0.0
 10
133.9601594404008
 20
252.3273198261965
 30
0.0
 10
133.8198912244828
 20
251.8597306829225
 30
0.0
 10
133.7048714855782
 20
251.3769150161369
 30
0.0
 10
133.6136842843436
 20
250.8755093348559
 30
0.0
 10
133.5485876894122
 20
250.3648927182294
 30
0.0
 10
133.5090210453961
 20
249.8447688862852
 30
0.0
 10
133.4959677733826
 20
249.3215614090873
 30
0.0
 10
133.5090210453945
 20
248.798353931871
 30
0.0
 10
133.5485876894188
 20
248.2782300999814
 30
0.0
 10
133.6136842843196
 20
247.7676134831572
 30
0.0
 10
133.7048714856649
 20
247.2662078025917
 30
0.0
 10
133.8198912241654
 20
246.7833921331963
 30
0.0
 10
133.9601594415213
 20
246.315802999208
 30
0.0
 10
134.1215498685745
 20
245.8750404971053
 30
0.0
 10
134.3069210957583
 20
245.4553606292119
 30
0.0
 10
134.5099102217546
 20
245.0694985541419
 30
0.0
 10
134.7351374815088
 20
244.7104010119929
 30
0.0
 10
134.974071532975
 20
244.3905674832191
 30
0.0
 10
135.2328638194771
 20
244.1030087405657
 30
0.0
 10
135.5016082539646
 20
243.8586206431978
 30
0.0
 10
135.7868003992027
 20
243.6517748440465
 30
0.0
 10
136.0787800526068
 20
243.4910317418945
 30
0.0
 10
136.3820871742837
 20
243.3724366063975
 30
0.0
 10
136.6891506197438
 20
243.3024814116898
 30
0.0
 10
137.0003334412356
 20
243.2775527332504
 30
0.0
 10
137.3115162627275
 20
243.3024814116898
 30
0.0
 10
137.6185797081876
 20
243.3724366063976
 30
0.0
 10
137.9218868298645
 20
243.4910317418945
 30
0.0
 10
138.2138664832685
 20
243.6517748440467
 30
0.0
 10
138.4990586285066
 20
243.8586206431979
 30
0.0
 10
138.7678030629941
 20
244.1030087405657
 30
0.0
 10
139.0265953494962
 20
244.3905674832192
 30
0.0
 10
139.2655294009624
 20
244.7104010119928
 30
0.0
 10
139.4907566607166
 20
245.0694985541421
 30
0.0
 10
139.6937457867128
 20
245.4553606292118
 30
0.0
 10
139.8791170138967
 20
245.8750404971052
 30
0.0
 10
140.0405074409498
 20
246.3158029992081
 30
0.0
 10
140.1807756583058
 20
246.7833921331962
 30
0.0
 10
140.2957953968063
 20
247.2662078025917
 30
0.0
 10
140.3869825981517
 20
247.7676134831573
 30
0.0
 10
140.4520791930524
 20
248.2782300999812
 30
0.0
 10
140.4916458370769
 20
248.7983539318719
 30
0.0
 10
140.5046991090881
 20
249.3215614090844
 30
0.0
 10
140.491645837077
 20
249.8447688862957
 30
0.0
 10
140.4520791930519
 20
250.3648927181902
 30
0.0
 10
140.3869825981534
 20
250.8755093350002
 30
0.0
 10
140.2957953968001
 20
251.3769150156164
 30
0.0
 10
140.1807756583283
 20
251.8597306848271
 30
0.0
 10
140.0405074408706
 20
252.3273198194726
 30
0.0
 10
139.8791170141849
 20
252.7680823192021
 30
0.0
 10
139.6937457857167
 20
253.1877621953898
 30
0.0
 10
139.4907566643153
 20
253.5736242407867
 30
0.0
 10
139.2655293887484
 20
253.93272188505
 30
0.0
 10
139.0265953934669
 20
254.2525550509988
 30
0.0
 10
138.7678029155006
 20
254.540115030075
 30
0.0
 10
138.4990591602161
 20
254.784498741338
 30
0.0
 10
138.2138646965861
 20
254.9913595120209
 30
0.0
 10
137.9218933294348
 20
255.1520491038507
 30
0.0
 10
137.6185573372316
 20
255.2708306772032
 30
0.0
 10
137.3115990792971
 20
255.3401066000295
 30
0.0
 10
137.0000338733859
 20
255.36750461105
 30
0.0
 10
136.795482902025
 20
255.3449349614212
 30
0.0
 10
136.6932074163446
 20
255.3336501366069
 30
0.0
 11
136.6932074163446
 21
255.3336501366069
 31
0.0
 11
136.3843079905089
 21
255.2631361104183
 31
0.0
 11
136.0891140404866
 21
255.1490107332898
 31
0.0
 11
135.7904786619967
 21
254.9853202881531
 31
0.0
 11
135.5145507349125
 21
254.7865217424546
 31
0.0
 11
135.2372194157718
 21
254.5356452848318
 31
0.0
 11
134.9867001348546
 21
254.2585103294134
 31
0.0
 11
134.7397096358664
 21
253.9295111093232
 31
0.0
 11
134.5207505010373
 21
253.5815392959616
 31
0.0
 11
134.3115004027576
 21
253.1855054148853
 31
0.0
 11
134.1302071463242
 21
252.776104857261
 31
0.0
 11
133.9646722924358
 21
252.3257925702394
 31
0.0
 11
133.8265858099244
 21
251.8664299600134
 31
0.0
 11
133.7093094373473
 21
251.3759692864701
 31
0.0
 11
133.6189504549702
 21
250.8799053613367
 31
0.0
 11
133.5529723104587
 21
250.3644403374031
 31
0.0
 11
133.5135430298844
 21
249.8462957865852
 31
0.0
 11
133.5003334412355
 21
249.3215614090842
 31
0.0
 11
133.5135430298844
 21
248.7968270315833
 31
0.0
 11
133.5529723104588
 21
248.2786824807653
 31
0.0
 11
133.6189504549702
 21
247.7632174568317
 31
0.0
 11
133.7093094373473
 21
247.2671535316983
 31
0.0
 11
133.8265858099244
 21
246.7766928581551
 31
0.0
 11
133.9646722924358
 21
246.317330247929
 31
0.0
 11
134.1302071463242
 21
245.8670179609073
 31
0.0
 11
134.3115004027576
 21
245.457617403283
 31
0.0
 11
134.5207505010373
 21
245.0615835222067
 31
0.0
 11
134.7397096358664
 21
244.7136117088451
 31
0.0
 11
134.9867001348546
 21
244.384612488755
 31
0.0
 11
135.2372194157718
 21
244.1074775333365
 31
0.0
 11
135.5145507349125
 21
243.8566010757137
 31
0.0
 11
135.7904786619967
 21
243.6578025300153
 31
0.0
 11
136.0891140404867
 21
243.4941120848786
 31
0.0
 11
136.3843079905089
 21
243.3799867077502
 31
0.0
 11
136.6932074163446
 21
243.3094726815616
 31
0.0
 11
137.0003334412356
 21
243.2857838460554
 31
0.0
 11
137.3074594661266
 21
243.3094726815616
 31
0.0
 11
137.6163588919624
 21
243.3799867077502
 31
0.0
 11
137.9115528419846
 21
243.4941120848786
 31
0.0
 11
138.2101882204745
 21
243.6578025300154
 31
0.0
 11
138.4861161475587
 21
243.8566010757138
 31
0.0
 11
138.7634474666994
 21
244.1074775333365
 31
0.0
 11
139.0139667476166
 21
244.384612488755
 31
0.0
 11
139.2609572466048
 21
244.7136117088452
 31
0.0
 11
139.4799163814339
 21
245.0615835222067
 31
0.0
 11
139.6891664797136
 21
245.457617403283
 31
0.0
 11
139.870459736147
 21
245.8670179609073
 31
0.0
 11
140.0359945900354
 21
246.317330247929
 31
0.0
 11
140.1740810725468
 21
246.7766928581549
 31
0.0
 11
140.2913574451239
 21
247.2671535316983
 31
0.0
 11
140.381716427501
 21
247.7632174568318
 31
0.0
 11
140.4476945720124
 21
248.2786824807653
 31
0.0
 11
140.4871238525868
 21
248.7968270315833
 31
0.0
 11
140.5003334412357
 21
249.3215614090842
 31
0.0
 11
140.4871238525868
 21
249.8462957865851
 31
0.0
 11
140.4476945720125
 21
250.3644403374031
 31
0.0
 11
140.381716427501
 21
250.8799053613367
 31
0.0
 11
140.2913574451239
 21
251.3759692864701
 31
0.0
 11
140.1740810725469
 21
251.8664299600135
 31
0.0
 11
140.0359945900355
 21
252.3257925702395
 31
0.0
 11
139.8704597361471
 21
252.7761048572611
 31
0.0
 11
139.6891664797137
 21
253.1855054148854
 31
0.0
 11
139.4799163814339
 21
253.5815392959616
 31
0.0
 11
139.2609572466048
 21
253.9295111093233
 31
0.0
 11
139.0139667476166
 21
254.2585103294135
 31
0.0
 11
138.7634474666994
 21
254.535645284832
 31
0.0
 11
138.4861161475587
 21
254.7865217424547
 31
0.0
 11
138.2101882204745
 21
254.985320288153
 31
0.0
 11
137.9115528419846
 21
255.1490107332898
 31
0.0
 11
137.6163588919624
 21
255.2631361104183
 31
0.0
 11
137.3074594661266
 21
255.3336501366069
 31
0.0
 11
137.0003334412356
 21
255.357338972113
 31
0.0
 11
136.6932074163446
 21
255.3336501366069
 31
0.0
  0
SPLINE
  5
17D
330
1F
100
AcDbEntity
  8
1
  6
Continuous
 62
     3
100
AcDbSpline
210
0.0
220
0.0
230
1.0
 70
    11
 71
     3
 72
    79
 73
    75
 74
    73
 42
0.0000000001
 43
0.0000000001
 44
0.00000001
 40
0.0
 40
0.0
 40
0.0
 40
0.0
 40
0.3168455194112216
 40
0.6333325962950493
 40
0.9738875127400974
 40
1.313971447551498
 40
1.687938902774071
 40
2.061521147569052
 40
2.472914868243571
 40
2.884044392383173
 40
3.331960052513984
 40
3.779705584497663
 40
4.259479430902949
 40
4.739147945948472
 40
5.24343498708418
 40
5.747661288971572
 40
6.267331671475691
 40
6.786974282997265
 40
7.311874902318245
 40
7.836775521639255
 40
8.35641813316086
 40
8.876088515664975
 40
9.380314817552339
 40
9.884601858688047
 40
10.36427037373359
 40
10.84404422013894
 40
11.29178975212262
 40
11.73970541225333
 40
12.15083493639293
 40
12.56222865706741
 40
12.93581090186241
 40
13.30977835708502
 40
13.64986229189642
 40
13.99041720834149
 40
14.30690428522527
 40
14.62374980463651
 40
14.93178804267353
 40
15.23982628071061
 40
15.55667180012189
 40
15.87315887700571
 40
16.21371379345068
 40
16.55379772826205
 40
16.92776518348465
 40
17.30134742827956
 40
17.71274114895403
 40
18.12387067309367
 40
18.57178633322445
 40
19.01953186520813
 40
19.49930571161339
 40
19.97897422665897
 40
20.48326126779465
 40
20.98748756968207
 40
21.50715795218624
 40
22.02680056370781
 40
22.55170118302879
 40
23.07660180234977
 40
23.59624441387132
 40
24.11591479637549
 40
24.62014109826286
 40
25.12442813939853
 40
25.60409665444407
 40
26.08387050084937
 40
26.53161603283306
 40
26.97953169296393
 40
27.39066121710361
 40
27.80205493777808
 40
28.17563718257302
 40
28.54960463779555
 40
28.8896885726069
 40
29.23024348905194
 40
29.54673056593575
 40
29.86357608534701
 40
30.17161432338409
 40
30.47965256142111
 40
30.47965256142111
 40
30.47965256142111
 40
30.47965256142111
 10
136.6932074163446
 20
227.3094726815615
 30
0.0
 10
136.5893561518
 20
227.3297879612986
 30
0.0
 10
136.3817711080701
 20
227.370395538405
 30
0.0
 10
136.0788718812514
 20
227.4916247458268
 30
0.0
 10
135.7867751562084
 20
227.6516118317862
 30
0.0
 10
135.5016157661786
 20
227.8586691549937
 30
0.0
 10
135.232861735627
 20
228.1029952836397
 30
0.0
 10
134.9740721542116
 20
228.3905714949933
 30
0.0
 10
134.7351373089451
 20
228.7103998976237
 30
0.0
 10
134.5099102725993
 20
229.0694988824826
 30
0.0
 10
134.3069210816834
 20
229.4553605383202
 30
0.0
 10
134.1215498726462
 20
229.8750405233994
 30
0.0
 10
133.9601594404009
 20
230.315802991972
 30
0.0
 10
133.8198912244828
 20
230.783392135246
 30
0.0
 10
133.7048714855781
 20
231.2662078020315
 30
0.0
 10
133.6136842843436
 20
231.7676134833125
 30
0.0
 10
133.5485876894122
 20
232.2782300999391
 30
0.0
 10
133.5090210453961
 20
232.7983539318832
 30
0.0
 10
133.4959677733826
 20
233.3215614090811
 30
0.0
 10
133.5090210453945
 20
233.8447688862974
 30
0.0
 10
133.5485876894188
 20
234.3648927181871
 30
0.0
 10
133.6136842843196
 20
234.8755093350112
 30
0.0
 10
133.7048714856649
 20
235.3769150155767
 30
0.0
 10
133.8198912241654
 20
235.8597306849722
 30
0.0
 10
133.9601594415214
 20
236.3273198189603
 30
0.0
 10
134.1215498685745
 20
236.7680823210632
 30
0.0
 10
134.3069210957583
 20
237.1877621889566
 30
0.0
 10
134.5099102217547
 20
237.5736242640264
 30
0.0
 10
134.7351374815088
 20
237.9327218061756
 30
0.0
 10
134.974071532975
 20
238.2525553349494
 30
0.0
 10
135.232863819477
 20
238.5401140776027
 30
0.0
 10
135.5016082539646
 20
238.7845021749705
 30
0.0
 10
135.7868003992028
 20
238.9913479741219
 30
0.0
 10
136.0787800526067
 20
239.152091076274
 30
0.0
 10
136.3820871742837
 20
239.2706862117709
 30
0.0
 10
136.6891506197437
 20
239.3406414064788
 30
0.0
 10
137.0003334412357
 20
239.365570084918
 30
0.0
 10
137.3115162627275
 20
239.3406414064787
 30
0.0
 10
137.6185797081876
 20
239.2706862117709
 30
0.0
 10
137.9218868298645
 20
239.1520910762738
 30
0.0
 10
138.2138664832685
 20
238.9913479741219
 30
0.0
 10
138.4990586285065
 20
238.7845021749704
 30
0.0
 10
138.7678030629941
 20
238.5401140776027
 30
0.0
 10
139.0265953494962
 20
238.2525553349494
 30
0.0
 10
139.2655294009624
 20
237.9327218061756
 30
0.0
 10
139.4907566607165
 20
237.5736242640264
 30
0.0
 10
139.6937457867129
 20
237.1877621889566
 30
0.0
 10
139.8791170138967
 20
236.7680823210632
 30
0.0
 10
140.0405074409498
 20
236.3273198189605
 30
0.0
 10
140.1807756583058
 20
235.8597306849722
 30
0.0
 10
140.2957953968063
 20
235.3769150155767
 30
0.0
 10
140.3869825981517
 20
234.8755093350112
 30
0.0
 10
140.4520791930524
 20
234.3648927181872
 30
0.0
 10
140.4916458370768
 20
233.8447688862965
 30
0.0
 10
140.5046991090881
 20
233.3215614090841
 30
0.0
 10
140.491645837077
 20
232.7983539318727
 30
0.0
 10
140.4520791930519
 20
232.2782300999782
 30
0.0
 10
140.3869825981534
 20
231.7676134831683
 30
0.0
 10
140.2957953968001
 20
231.266207802552
 30
0.0
 10
140.1807756583283
 20
230.7833921333414
 30
0.0
 10
140.0405074408706
 20
230.3158029986959
 30
0.0
 10
139.879117014185
 20
229.8750404989665
 30
0.0
 10
139.6937457857167
 20
229.4553606227786
 30
0.0
 10
139.4907566643153
 20
229.0694985773818
 30
0.0
 10
139.2655293887485
 20
228.7104009331184
 30
0.0
 10
139.0265953934669
 20
228.3905677671697
 30
0.0
 10
138.7678029155006
 20
228.1030077880935
 30
0.0
 10
138.4990591602161
 20
227.8586240768304
 30
0.0
 10
138.2138646965861
 20
227.6517633061476
 30
0.0
 10
137.9218933294348
 20
227.4910737143176
 30
0.0
 10
137.6185573372316
 20
227.3722921409652
 30
0.0
 10
137.3115990792971
 20
227.3030162181391
 30
0.0
 10
137.0000338733858
 20
227.2756182071182
 30
0.0
 10
136.7954829020251
 20
227.2981878567471
 30
0.0
 10
136.6932074163446
 20
227.3094726815615
 30
0.0
 11
136.6932074163446
 21
227.3094726815615
 31
0.0
 11
136.3843079905089
 21
227.3799867077501
 31
0.0
 11
136.0891140404866
 21
227.4941120848786
 31
0.0
 11
135.7904786619967
 21
227.6578025300153
 31
0.0
 11
135.5145507349125
 21
227.8566010757138
 31
0.0
 11
135.2372194157718
 21
228.1074775333365
 31
0.0
 11
134.9867001348546
 21
228.384612488755
 31
0.0
 11
134.7397096358664
 21
228.7136117088452
 31
0.0
 11
134.5207505010373
 21
229.0615835222068
 31
0.0
 11
134.3115004027576
 21
229.4576174032831
 31
0.0
 11
134.1302071463242
 21
229.8670179609074
 31
0.0
 11
133.9646722924358
 21
230.317330247929
 31
0.0
 11
133.8265858099244
 21
230.776692858155
 31
0.0
 11
133.7093094373473
 21
231.2671535316983
 31
0.0
 11
133.6189504549702
 21
231.7632174568318
 31
0.0
 11
133.5529723104587
 21
232.2786824807653
 31
0.0
 11
133.5135430298844
 21
232.7968270315833
 31
0.0
 11
133.5003334412355
 21
233.3215614090842
 31
0.0
 11
133.5135430298844
 21
233.8462957865852
 31
0.0
 11
133.5529723104588
 21
234.3644403374032
 31
0.0
 11
133.6189504549702
 21
234.8799053613367
 31
0.0
 11
133.7093094373473
 21
235.3759692864701
 31
0.0
 11
133.8265858099244
 21
235.8664299600134
 31
0.0
 11
133.9646722924358
 21
236.3257925702394
 31
0.0
 11
134.1302071463242
 21
236.7761048572611
 31
0.0
 11
134.3115004027576
 21
237.1855054148855
 31
0.0
 11
134.5207505010373
 21
237.5815392959616
 31
0.0
 11
134.7397096358664
 21
237.9295111093232
 31
0.0
 11
134.9867001348546
 21
238.2585103294134
 31
0.0
 11
135.2372194157718
 21
238.5356452848319
 31
0.0
 11
135.5145507349125
 21
238.7865217424547
 31
0.0
 11
135.7904786619967
 21
238.9853202881531
 31
0.0
 11
136.0891140404867
 21
239.1490107332899
 31
0.0
 11
136.3843079905089
 21
239.2631361104183
 31
0.0
 11
136.6932074163446
 21
239.3336501366069
 31
0.0
 11
137.0003334412356
 21
239.3573389721131
 31
0.0
 11
137.3074594661266
 21
239.3336501366069
 31
0.0
 11
137.6163588919624
 21
239.2631361104182
 31
0.0
 11
137.9115528419846
 21
239.1490107332898
 31
0.0
 11
138.2101882204745
 21
238.9853202881531
 31
0.0
 11
138.4861161475587
 21
238.7865217424546
 31
0.0
 11
138.7634474666994
 21
238.5356452848318
 31
0.0
 11
139.0139667476166
 21
238.2585103294135
 31
0.0
 11
139.2609572466048
 21
237.9295111093234
 31
0.0
 11
139.4799163814339
 21
237.5815392959617
 31
0.0
 11
139.6891664797136
 21
237.1855054148855
 31
0.0
 11
139.870459736147
 21
236.7761048572611
 31
0.0
 11
140.0359945900354
 21
236.3257925702395
 31
0.0
 11
140.1740810725468
 21
235.8664299600135
 31
0.0
 11
140.2913574451239
 21
235.3759692864702
 31
0.0
 11
140.381716427501
 21
234.8799053613367
 31
0.0
 11
140.4476945720124
 21
234.3644403374031
 31
0.0
 11
140.4871238525868
 21
233.8462957865851
 31
0.0
 11
140.5003334412357
 21
233.3215614090842
 31
0.0
 11
140.4871238525868
 21
232.7968270315833
 31
0.0
 11
140.4476945720125
 21
232.2786824807654
 31
0.0
 11
140.381716427501
 21
231.7632174568318
 31
0.0
 11
140.2913574451239
 21
231.2671535316983
 31
0.0
 11
140.1740810725469
 21
230.776692858155
 31
0.0
 11
140.0359945900355
 21
230.317330247929
 31
0.0
 11
139.8704597361471
 21
229.8670179609074
 31
0.0
 11
139.6891664797137
 21
229.4576174032831
 31
0.0
 11
139.4799163814339
 21
229.0615835222067
 31
0.0
 11
139.2609572466048
 21
228.713611708845
 31
0.0
 11
139.0139667476166
 21
228.3846124887549
 31
0.0
 11
138.7634474666994
 21
228.1074775333365
 31
0.0
 11
138.4861161475587
 21
227.8566010757138
 31
0.0
 11
138.2101882204745
 21
227.6578025300154
 31
0.0
 11
137.9115528419846
 21
227.4941120848786
 31
0.0
 11
137.6163588919624
 21
227.3799867077501
 31
0.0
 11
137.3074594661266
 21
227.3094726815615
 31
0.0
 11
137.0003334412356
 21
227.2857838460554
 31
0.0
 11
136.6932074163446
 21
227.3094726815615
 31
0.0
  0
SPLINE
  5
17E
330
1F
100
AcDbEntity
  8
1
  6
Continuous
 62
     3
100
AcDbSpline
210
0.0
220
0.0
230
1.0
 70
    11
 71
     3
 72
    79
 73
    75
 74
    73
 42
0.0000000001
 43
0.0000000001
 44
0.00000001
 40
0.0
 40
0.0
 40
0.0
 40
0.0
 40
0.3151333747687769
 40
0.6299608605805493
 40
0.9665793364656947
 40
1.302784183464488
 40
1.669878138009158
 40
2.036620256070953
 40
2.438054239356493
 40
2.839239001730777
 40
3.274349045035203
 40
3.709294939195675
 40
4.173889694705259
 40
4.638381240460268
 40
5.125720669070011
 40
5.612999994104519
 40
6.114635109934484
 40
6.616242594607408
 40
7.122741207964404
 40
7.629239821321457
 40
8.130847305994381
 40
8.632482421824234
 40
9.119761746858691
 40
9.607101175468427
 40
10.07159272122349
 40
10.53618747673307
 40
10.9711333708935
 40
11.40624341419787
 40
11.80742817657216
 40
12.2088621598578
 40
12.5756042779195
 40
12.94269823246425
 40
13.27890307946306
 40
13.61552155534819
 40
13.9303490411599
 40
14.24548241592869
 40
14.55268068979643
 40
14.85987896366418
 40
15.17501233843297
 40
15.4898398242447
 40
15.82645830012979
 40
16.16266314712863
 40
16.52975710167329
 40
16.89649921973512
 40
17.29793320302066
 40
17.69911796539496
 40
18.13422800869934
 40
18.56917390285971
 40
19.03376865836933
 40
19.49826020412433
 40
19.98559963273414
 40
20.47287895776859
 40
20.97451407359856
 40
21.47612155827148
 40
21.98262017162842
 40
22.48911878498548
 40
22.99072626965835
 40
23.49236138548825
 40
23.97964071052276
 40
24.46698013913257
 40
24.93147168488763
 40
25.39606644039721
 40
25.83101233455763
 40
26.26612237786205
 40
26.66730714023638
 40
27.06874112352183
 40
27.43548324158362
 40
27.80257719612831
 40
28.1387820431271
 40
28.4754005190122
 40
28.79022800482394
 40
29.10536137959274
 40
29.41255965346051
 40
29.71975792732822
 40
29.71975792732822
 40
29.71975792732822
 40
29.71975792732822
 10
296.5618184360596
 20
135.1435393984185
 30
0.0
 10
296.5422759042424
 20
135.2469436993279
 30
0.0
 10
296.503209809861
 20
135.4536519302044
 30
0.0
 10
296.3865846362373
 20
135.7556366329391
 30
0.0
 10
296.2323848012284
 20
136.0472336041618
 30
0.0
 10
296.0328877539798
 20
136.3317341179624
 30
0.0
 10
295.7971537119622
 20
136.6002794021227
 30
0.0
 10
295.5198424333763
 20
136.8585882423589
 30
0.0
 10
295.2111110625294
 20
137.0973835164941
 30
0.0
 10
294.8646992657952
 20
137.3222318901844
 30
0.0
 10
294.492195622356
 20
137.5250725753939
 30
0.0
 10
294.0872767161525
 20
137.7101420999273
 30
0.0
 10
293.6618022685185
 20
137.8713800268831
 30
0.0
 10
293.2106220947038
 20
138.0114221569841
 30
0.0
 10
292.7445988534416
 20
138.1263129873603
 30
0.0
 10
292.2607621211782
 20
138.2173535147192
 30
0.0
 10
291.7679484037726
 20
138.2823706331548
 30
0.0
 10
291.2660238333183
 20
138.3218716561833
 30
0.0
 10
290.7610943395549
 20
138.3349129329224
 30
0.0
 10
290.2561648457745
 20
138.3218716561848
 30
0.0
 10
289.7542402753705
 20
138.282370633149
 30
0.0
 10
289.2614265577827
 20
138.2173535147406
 30
0.0
 10
288.7775898261804
 20
138.126312987283
 30
0.0
 10
288.3115665825048
 20
138.011422157267
 30
0.0
 10
287.8603864172936
 20
137.871380025882
 30
0.0
 10
287.4349119385473
 20
137.7101421035696
 30
0.0
 10
287.0299931414037
 20
137.5250725627595
 30
0.0
 10
286.6574891069737
 20
137.3222319359037
 30
0.0
 10
286.3110786614858
 20
137.0973833605454
 30
0.0
 10
286.002342475594
 20
136.8585888050358
 30
0.0
 10
285.7250476981337
 20
136.6002775020748
 30
0.0
 10
285.4892549131076
 20
136.3317409850654
 30
0.0
 10
285.2899597011501
 20
136.0472103481834
 30
0.0
 10
285.1350359587159
 20
135.7557214171454
 30
0.0
 10
285.020947918728
 20
135.453358057725
 30
0.0
 10
284.9535676821467
 20
135.1472318281428
 30
0.0
 10
284.9296842283626
 20
134.837187857562
 30
0.0
 10
284.9535676821467
 20
134.5271438869811
 30
0.0
 10
285.0209479187279
 20
134.2210176573989
 30
0.0
 10
285.1350359587161
 20
133.9186542979785
 30
0.0
 10
285.2899597011502
 20
133.6271653669405
 30
0.0
 10
285.4892549131076
 20
133.3426347300587
 30
0.0
 10
285.7250476981337
 20
133.074098213049
 30
0.0
 10
286.0023424755941
 20
132.8157869100882
 30
0.0
 10
286.3110786614857
 20
132.5769923545786
 30
0.0
 10
286.6574891069737
 20
132.3521437792203
 30
0.0
 10
287.0299931414037
 20
132.1493031523645
 30
0.0
 10
287.4349119385472
 20
131.9642336115543
 30
0.0
 10
287.8603864172936
 20
131.802995689242
 30
0.0
 10
288.3115665825047
 20
131.662953557857
 30
0.0
 10
288.7775898261804
 20
131.548062727841
 30
0.0
 10
289.2614265577828
 20
131.4570222003834
 30
0.0
 10
289.7542402753704
 20
131.392005081975
 30
0.0
 10
290.2561648457753
 20
131.352504058939
 30
0.0
 10
290.7610943395524
 20
131.339462782202
 30
0.0
 10
291.2660238333281
 20
131.3525040589389
 30
0.0
 10
291.7679484037365
 20
131.3920050819754
 30
0.0
 10
292.2607621213112
 20
131.4570222003819
 30
0.0
 10
292.7445988529606
 20
131.5480627278463
 30
0.0
 10
293.210622096465
 20
131.6629535578369
 30
0.0
 10
293.6618022622862
 20
131.8029956893129
 30
0.0
 10
294.0872767388273
 20
131.9642336112962
 30
0.0
 10
294.4921955437006
 20
132.14930315326
 30
0.0
 10
294.8646995504188
 20
132.3521437759799
 30
0.0
 10
295.2111100916778
 20
132.5769923656315
 30
0.0
 10
295.5198459362979
 20
132.8157868702078
 30
0.0
 10
295.7971418832933
 20
133.074098347717
 30
0.0
 10
296.0329305048451
 20
133.3426342433452
 30
0.0
 10
296.2322400220976
 20
133.6271670152331
 30
0.0
 10
296.3871124568082
 20
133.9186482888059
 30
0.0
 10
296.5013803188929
 20
134.2210384859294
 30
0.0
 10
296.5681039811218
 20
134.5270667245092
 30
0.0
 10
296.5943802096954
 20
134.8374678068161
 30
0.0
 10
296.5726723606049
 20
135.0415155345511
 30
0.0
 10
296.5618184360596
 20
135.1435393984185
 30
0.0
 11
296.5618184360596
 21
135.1435393984185
 31
0.0
 11
296.4939459963526
 21
135.451276909654
 31
0.0
 11
296.3838171489873
 21
135.7462141619646
 31
0.0
 11
296.2263059593872
 21
136.0437073945901
 31
0.0
 11
296.0342387179583
 21
136.319649189024
 31
0.0
 11
295.7926753458626
 21
136.5960639294504
 31
0.0
 11
295.5248588737236
 21
136.8466115664608
 31
0.0
 11
295.2078609461944
 21
137.0929072360912
 31
0.0
 11
294.871664019189
 21
137.311815527011
 31
0.0
 11
294.4898919800833
 21
137.5205518677411
 31
0.0
 11
294.0944769923507
 21
137.7017283516553
 31
0.0
 11
293.6602343614941
 21
137.8668998515994
 31
0.0
 11
293.2167001530496
 21
138.0048484000418
 31
0.0
 11
292.7436243981662
 21
138.1218913358354
 31
0.0
 11
292.2647743968863
 21
138.2121344346315
 31
0.0
 11
291.7674813355534
 21
138.2779933792318
 31
0.0
 11
291.2674211979867
 21
138.3173624977984
 31
0.0
 11
290.7610943395521
 21
138.3305518025663
 31
0.0
 11
290.2547674811174
 21
138.3173624977984
 31
0.0
 11
289.7547073435507
 21
138.2779933792318
 31
0.0
 11
289.2574142822179
 21
138.2121344346315
 31
0.0
 11
288.778564280938
 21
138.1218913358354
 31
0.0
 11
288.3054885260547
 21
138.0048484000418
 31
0.0
 11
287.8619543176101
 21
137.8668998515994
 31
0.0
 11
287.4277116867535
 21
137.7017283516553
 31
0.0
 11
287.032296699021
 21
137.5205518677411
 31
0.0
 11
286.6505246599153
 21
137.311815527011
 31
0.0
 11
286.3143277329099
 21
137.0929072360912
 31
0.0
 11
285.9973298053806
 21
136.8466115664608
 31
0.0
 11
285.7295133332418
 21
136.5960639294504
 31
0.0
 11
285.4879499611459
 21
136.3196491890239
 31
0.0
 11
285.2958827197171
 21
136.04370739459
 31
0.0
 11
285.1383715301168
 21
135.7462141619646
 31
0.0
 11
285.0282426827515
 21
135.451276909654
 31
0.0
 11
284.9603702430446
 21
135.1435393984186
 31
0.0
 11
284.9375774178112
 21
134.837187857562
 31
0.0
 11
284.9603702430446
 21
134.5308363167054
 31
0.0
 11
285.0282426827515
 21
134.2230988054699
 31
0.0
 11
285.138371530117
 21
133.9281615531594
 31
0.0
 11
285.2958827197172
 21
133.630668320534
 31
0.0
 11
285.487949961146
 21
133.3547265261
 31
0.0
 11
285.7295133332417
 21
133.0783117856736
 31
0.0
 11
285.9973298053807
 21
132.8277641486632
 31
0.0
 11
286.3143277329099
 21
132.5814684790328
 31
0.0
 11
286.6505246599153
 21
132.362560188113
 31
0.0
 11
287.032296699021
 21
132.1538238473829
 31
0.0
 11
287.4277116867535
 21
131.9726473634687
 31
0.0
 11
287.8619543176101
 21
131.8074758635246
 31
0.0
 11
288.3054885260546
 21
131.6695273150822
 31
0.0
 11
288.778564280938
 21
131.5524843792886
 31
0.0
 11
289.2574142822179
 21
131.4622412804925
 31
0.0
 11
289.7547073435508
 21
131.3963823358922
 31
0.0
 11
290.2547674811175
 21
131.3570132173256
 31
0.0
 11
290.7610943395521
 21
131.3438239125576
 31
0.0
 11
291.2674211979868
 21
131.3570132173256
 31
0.0
 11
291.7674813355534
 21
131.3963823358922
 31
0.0
 11
292.2647743968863
 21
131.4622412804924
 31
0.0
 11
292.7436243981662
 21
131.5524843792885
 31
0.0
 11
293.2167001530496
 21
131.6695273150822
 31
0.0
 11
293.6602343614942
 21
131.8074758635246
 31
0.0
 11
294.0944769923507
 21
131.9726473634687
 31
0.0
 11
294.4898919800833
 21
132.1538238473829
 31
0.0
 11
294.871664019189
 21
132.3625601881129
 31
0.0
 11
295.2078609461945
 21
132.5814684790327
 31
0.0
 11
295.5248588737236
 21
132.8277641486631
 31
0.0
 11
295.7926753458624
 21
133.0783117856736
 31
0.0
 11
296.0342387179583
 21
133.3547265261
 31
0.0
 11
296.2263059593871
 21
133.6306683205339
 31
0.0
 11
296.3838171489873
 21
133.9281615531593
 31
0.0
 11
296.4939459963527
 21
134.2230988054699
 31
0.0
 11
296.5618184360596
 21
134.5308363167053
 31
0.0
 11
296.5846112612929
 21
134.837187857562
 31
0.0
 11
296.5618184360596
 21
135.1435393984185
 31
0.0
  0
SPLINE
  5
17F
330
1F
100
AcDbEntity
  8
1
  6
Continuous
 62
     3
100
AcDbSpline
210
0.0
220
0.0
230
1.0
 70
    11
 71
     3
 72
    79
 73
    75
 74
    73
 42
0.0000000001
 43
0.0000000001
 44
0.00000001
 40
0.0
 40
0.0
 40
0.0
 40
0.0
 40
0.3151333747687769
 40
0.6299608605805693
 40
0.9665793364657147
 40
1.302784183464443
 40
1.669878138009188
 40
2.036620256070983
 40
2.438054239356478
 40
2.839239001730761
 40
3.274349045035088
 40
3.709294939195611
 40
4.173889694705248
 40
4.638381240460257
 40
5.125720669070001
 40
5.612999994104508
 40
6.114635109934417
 40
6.616242594607341
 40
7.122741207964394
 40
7.629239821321447
 40
8.13084730599437
 40
8.63248242182428
 40
9.119761746858625
 40
9.607101175468362
 40
10.07159272122337
 40
10.53618747673301
 40
10.97113337089348
 40
11.40624341419791
 40
11.80742817657224
 40
12.20886215985766
 40
12.57560427791944
 40
12.94269823246419
 40
13.278903079463
 40
13.6155215553481
 40
13.93034904115985
 40
14.24548241592866
 40
14.55268068979639
 40
14.85987896366414
 40
15.17501233843294
 40
15.48983982424463
 40
15.82645830012975
 40
16.16266314712856
 40
16.52975710167329
 40
16.896499219735
 40
17.2979332030205
 40
17.69911796539489
 40
18.13422800869927
 40
18.56917390285974
 40
19.03376865836936
 40
19.49826020412436
 40
19.98559963273411
 40
20.47287895776857
 40
20.97451407359842
 40
21.47612155827141
 40
21.98262017162846
 40
22.48911878498545
 40
22.99072626965832
 40
23.49236138548823
 40
23.97964071052257
 40
24.46698013913243
 40
24.9314716848875
 40
25.39606644039719
 40
25.83101233455761
 40
26.26612237786202
 40
26.66730714023626
 40
27.06874112352175
 40
27.43548324158363
 40
27.80257719612828
 40
28.13878204312707
 40
28.4754005190122
 40
28.79022800482396
 40
29.10536137959274
 40
29.41255965346051
 40
29.71975792732823
 40
29.71975792732823
 40
29.71975792732823
 40
29.71975792732823
 10
267.4603702429941
 20
135.1435393984185
 30
0.0
 10
267.4799127748112
 20
135.2469436993279
 30
0.0
 10
267.5189788691926
 20
135.4536519302044
 30
0.0
 10
267.6356040428164
 20
135.755636632939
 30
0.0
 10
267.7898038778253
 20
136.0472336041617
 30
0.0
 10
267.9893009250738
 20
136.3317341179624
 30
0.0
 10
268.2250349670916
 20
136.6002794021227
 30
0.0
 10
268.5023462456774
 20
136.8585882423589
 30
0.0
 10
268.8110776165242
 20
137.0973835164941
 30
0.0
 10
269.1574894132585
 20
137.3222318901843
 30
0.0
 10
269.5299930566975
 20
137.525072575394
 30
0.0
 10
269.9349119629012
 20
137.7101420999273
 30
0.0
 10
270.3603864105352
 20
137.8713800268831
 30
0.0
 10
270.81156658435
 20
138.0114221569841
 30
0.0
 10
271.277589825612
 20
138.1263129873603
 30
0.0
 10
271.7614265578756
 20
138.2173535147192
 30
0.0
 10
272.2542402752809
 20
138.2823706331548
 30
0.0
 10
272.7561648457354
 20
138.3218716561834
 30
0.0
 10
273.2610943394988
 20
138.3349129329224
 30
0.0
 10
273.7660238332791
 20
138.3218716561848
 30
0.0
 10
274.2679484036831
 20
138.2823706331491
 30
0.0
 10
274.7607621212709
 20
138.2173535147406
 30
0.0
 10
275.2445988528733
 20
138.126312987283
 30
0.0
 10
275.7106220965488
 20
138.011422157267
 30
0.0
 10
276.16180226176
 20
137.871380025882
 30
0.0
 10
276.5872767405063
 20
137.7101421035696
 30
0.0
 10
276.99219553765
 20
137.5250725627595
 30
0.0
 10
277.36469957208
 20
137.3222319359037
 30
0.0
 10
277.711110017568
 20
137.0973833605455
 30
0.0
 10
278.0198462034595
 20
136.8585888050357
 30
0.0
 10
278.2971409809199
 20
136.6002775020749
 30
0.0
 10
278.532933765946
 20
136.3317409850653
 30
0.0
 10
278.7322289779034
 20
136.0472103481835
 30
0.0
 10
278.8871527203375
 20
135.7557214171454
 30
0.0
 10
279.0012407603257
 20
135.453358057725
 30
0.0
 10
279.0686209969069
 20
135.1472318281429
 30
0.0
 10
279.0925044506911
 20
134.837187857562
 30
0.0
 10
279.0686209969069
 20
134.5271438869811
 30
0.0
 10
279.0012407603255
 20
134.221017657399
 30
0.0
 10
278.8871527203376
 20
133.9186542979785
 30
0.0
 10
278.7322289779034
 20
133.6271653669405
 30
0.0
 10
278.532933765946
 20
133.3426347300586
 30
0.0
 10
278.2971409809199
 20
133.0740982130491
 30
0.0
 10
278.0198462034596
 20
132.8157869100881
 30
0.0
 10
277.711110017568
 20
132.5769923545785
 30
0.0
 10
277.36469957208
 20
132.3521437792204
 30
0.0
 10
276.9921955376499
 20
132.1493031523644
 30
0.0
 10
276.5872767405064
 20
131.9642336115544
 30
0.0
 10
276.1618022617599
 20
131.802995689242
 30
0.0
 10
275.7106220965488
 20
131.662953557857
 30
0.0
 10
275.2445988528733
 20
131.5480627278409
 30
0.0
 10
274.7607621212709
 20
131.4570222003834
 30
0.0
 10
274.2679484036832
 20
131.392005081975
 30
0.0
 10
273.7660238332784
 20
131.352504058939
 30
0.0
 10
273.2610943395013
 20
131.3394627822019
 30
0.0
 10
272.7561648457255
 20
131.3525040589389
 30
0.0
 10
272.2542402753172
 20
131.3920050819754
 30
0.0
 10
271.7614265577424
 20
131.4570222003818
 30
0.0
 10
271.2775898260932
 20
131.5480627278463
 30
0.0
 10
270.8115665825886
 20
131.6629535578369
 30
0.0
 10
270.3603864167677
 20
131.802995689313
 30
0.0
 10
269.9349119402263
 20
131.9642336112962
 30
0.0
 10
269.529993135353
 20
132.14930315326
 30
0.0
 10
269.1574891286349
 20
132.3521437759798
 30
0.0
 10
268.8110785873759
 20
132.5769923656316
 30
0.0
 10
268.5023427427558
 20
132.8157868702078
 30
0.0
 10
268.2250467957602
 20
133.074098347717
 30
0.0
 10
267.9892581742085
 20
133.3426342433453
 30
0.0
 10
267.789948656956
 20
133.6271670152331
 30
0.0
 10
267.6350762222454
 20
133.9186482888059
 30
0.0
 10
267.5208083601605
 20
134.2210384859294
 30
0.0
 10
267.454084697932
 20
134.5270667245092
 30
0.0
 10
267.427808469358
 20
134.8374678068161
 30
0.0
 10
267.4495163184487
 20
135.041515534551
 30
0.0
 10
267.4603702429941
 20
135.1435393984185
 30
0.0
 11
267.4603702429941
 21
135.1435393984185
 31
0.0
 11
267.528242682701
 21
135.451276909654
 31
0.0
 11
267.6383715300664
 21
135.7462141619646
 31
0.0
 11
267.7958827196666
 21
136.0437073945901
 31
0.0
 11
267.9879499610953
 21
136.319649189024
 31
0.0
 11
268.2295133331912
 21
136.5960639294504
 31
0.0
 11
268.4973298053301
 21
136.8466115664608
 31
0.0
 11
268.8143277328592
 21
137.0929072360912
 31
0.0
 11
269.1505246598646
 21
137.311815527011
 31
0.0
 11
269.5322966989703
 21
137.5205518677411
 31
0.0
 11
269.9277116867029
 21
137.7017283516553
 31
0.0
 11
270.3619543175595
 21
137.8668998515994
 31
0.0
 11
270.8054885260041
 21
138.0048484000418
 31
0.0
 11
271.2785642808875
 21
138.1218913358354
 31
0.0
 11
271.7574142821674
 21
138.2121344346315
 31
0.0
 11
272.2547073435002
 21
138.2779933792318
 31
0.0
 11
272.7547674810669
 21
138.3173624977984
 31
0.0
 11
273.2610943395016
 21
138.3305518025663
 31
0.0
 11
273.7674211979363
 21
138.3173624977984
 31
0.0
 11
274.267481335503
 21
138.2779933792318
 31
0.0
 11
274.7647743968358
 21
138.2121344346315
 31
0.0
 11
275.2436243981156
 21
138.1218913358354
 31
0.0
 11
275.716700152999
 21
138.0048484000418
 31
0.0
 11
276.1602343614435
 21
137.8668998515994
 31
0.0
 11
276.5944769923001
 21
137.7017283516553
 31
0.0
 11
276.9898919800327
 21
137.5205518677411
 31
0.0
 11
277.3716640191384
 21
137.311815527011
 31
0.0
 11
277.7078609461439
 21
137.0929072360912
 31
0.0
 11
278.0248588736729
 21
136.8466115664608
 31
0.0
 11
278.2926753458119
 21
136.5960639294504
 31
0.0
 11
278.5342387179077
 21
136.3196491890239
 31
0.0
 11
278.7263059593365
 21
136.04370739459
 31
0.0
 11
278.8838171489367
 21
135.7462141619646
 31
0.0
 11
278.9939459963022
 21
135.451276909654
 31
0.0
 11
279.0618184360092
 21
135.1435393984186
 31
0.0
 11
279.0846112612425
 21
134.837187857562
 31
0.0
 11
279.061818436009
 21
134.5308363167054
 31
0.0
 11
278.9939459963021
 21
134.2230988054699
 31
0.0
 11
278.8838171489367
 21
133.9281615531594
 31
0.0
 11
278.7263059593365
 21
133.630668320534
 31
0.0
 11
278.5342387179077
 21
133.3547265261
 31
0.0
 11
278.2926753458119
 21
133.0783117856736
 31
0.0
 11
278.0248588736731
 21
132.8277641486632
 31
0.0
 11
277.7078609461439
 21
132.5814684790328
 31
0.0
 11
277.3716640191384
 21
132.362560188113
 31
0.0
 11
276.9898919800327
 21
132.1538238473829
 31
0.0
 11
276.5944769923001
 21
131.9726473634687
 31
0.0
 11
276.1602343614435
 21
131.8074758635246
 31
0.0
 11
275.716700152999
 21
131.6695273150822
 31
0.0
 11
275.2436243981156
 21
131.5524843792886
 31
0.0
 11
274.7647743968357
 21
131.4622412804925
 31
0.0
 11
274.2674813355029
 21
131.3963823358922
 31
0.0
 11
273.7674211979362
 21
131.3570132173256
 31
0.0
 11
273.2610943395015
 21
131.3438239125576
 31
0.0
 11
272.7547674810668
 21
131.3570132173256
 31
0.0
 11
272.2547073435002
 21
131.3963823358922
 31
0.0
 11
271.7574142821674
 21
131.4622412804924
 31
0.0
 11
271.2785642808876
 21
131.5524843792885
 31
0.0
 11
270.8054885260041
 21
131.6695273150822
 31
0.0
 11
270.3619543175595
 21
131.8074758635246
 31
0.0
 11
269.9277116867029
 21
131.9726473634687
 31
0.0
 11
269.5322966989704
 21
132.1538238473829
 31
0.0
 11
269.1505246598646
 21
132.3625601881129
 31
0.0
 11
268.8143277328592
 21
132.5814684790327
 31
0.0
 11
268.4973298053301
 21
132.8277641486631
 31
0.0
 11
268.2295133331911
 21
133.0783117856736
 31
0.0
 11
267.9879499610954
 21
133.3547265261
 31
0.0
 11
267.7958827196665
 21
133.6306683205339
 31
0.0
 11
267.6383715300663
 21
133.9281615531593
 31
0.0
 11
267.5282426827008
 21
134.2230988054699
 31
0.0
 11
267.460370242994
 21
134.5308363167053
 31
0.0
 11
267.4375774177606
 21
134.837187857562
 31
0.0
 11
267.4603702429941
 21
135.1435393984185
 31
0.0
  0
SPLINE
  5
180
330
1F
100
AcDbEntity
  8
1
  6
Continuous
 62
     3
100
AcDbSpline
210
0.0
220
0.0
230
1.0
 70
     8
 71
     3
 72
    41
 73
    37
 74
    35
 42
0.0000000001
 43
0.0000000001
 44
0.00000001
 40
0.0
 40
0.0
 40
0.0
 40
0.0
 40
0.3542740953659935
 40
0.7067060186366655
 40
1.124425634254538
 40
1.540515219882027
 40
2.040228932182176
 40
2.539211093792908
 40
3.125008676831238
 40
3.710426349486076
 40
4.376029494726597
 40
5.041435650651398
 40
5.774292029490036
 40
6.507040678972583
 40
7.290509457034934
 40
8.073920939309213
 40
8.88874244932012
 40
9.70353885591383
 40
10.52896509177002
 40
11.35439132762598
 40
12.16918773421963
 40
12.98400924423043
 40
13.76742072650476
 40
14.55088950456723
 40
15.28363815404983
 40
16.01649453288841
 40
16.6819006888131
 40
17.34750383405363
 40
17.93292150670851
 40
18.51871908974689
 40
19.01770125135761
 40
19.51741496365776
 40
19.93350454928526
 40
20.35122416490307
 40
20.66630559087997
 40
20.98167675386585
 40
20.98167675386585
 40
20.98167675386585
 40
20.98167675386585
 10
291.4720412125453
 20
54.66279457335455
 30
0.0
 10
291.4383845497605
 20
54.77648055120699
 30
0.0
 10
291.3712462337833
 20
55.003261356899
 30
0.0
 10
291.1731974873361
 20
55.32547679357733
 30
0.0
 10
290.9185120362
 20
55.6290381462052
 30
0.0
 10
290.5888062509756
 20
55.92894907438252
 30
0.0
 10
290.2059818222839
 20
56.2057239708215
 30
0.0
 10
289.7521094586784
 20
56.47687784575351
 30
0.0
 10
289.2524915936696
 20
56.72371754100236
 30
0.0
 10
288.6871314533954
 20
56.95962008523743
 30
0.0
 10
288.0836772534591
 20
57.17026851019423
 30
0.0
 10
287.4234529310344
 20
57.36447377219101
 30
0.0
 10
286.7330210093849
 20
57.5325277760659
 30
0.0
 10
285.9976848008071
 20
57.67951403578387
 30
0.0
 10
285.2403973678797
 20
57.79954410772267
 30
0.0
 10
284.4521028242786
 20
57.89511239080686
 30
0.0
 10
283.6504709070413
 20
57.96312171304737
 30
0.0
 10
282.8330201710657
 20
58.00460853669974
 30
0.0
 10
282.011094339526
 20
58.01821482701847
 30
0.0
 10
281.189168507991
 20
58.00460853669466
 30
0.0
 10
280.371717772002
 20
57.96312171306737
 30
0.0
 10
279.5700858548133
 20
57.89511239073296
 30
0.0
 10
278.781791311038
 20
57.79954410798672
 30
0.0
 10
278.0245038787415
 20
57.67951403482389
 30
0.0
 10
277.2891676679539
 20
57.5325277793919
 30
0.0
 10
276.5987357541853
 20
57.36447376023223
 30
0.0
 10
275.9385114049218
 20
57.17026855028864
 30
0.0
 10
275.3350572991458
 20
56.95961994271007
 30
0.0
 10
274.769696847521
 20
56.72371800233395
 30
0.0
 10
274.2700800567251
 20
56.47687622366641
 30
0.0
 10
273.8162042433945
 20
56.20572903942139
 30
0.0
 10
273.4333915559163
 20
55.92893137108445
 30
0.0
 10
273.1036488030935
 20
55.62909214098008
 30
0.0
 10
272.8571044294097
 20
55.33485234683158
 30
0.0
 10
272.6701750344368
 20
55.03672720758364
 30
0.0
 10
272.6030697644435
 20
54.83686024939538
 30
0.0
 10
272.569501709667
 20
54.7368808438861
 30
0.0
 11
291.4720412125453
 21
54.66279457335455
 31
0.0
 11
291.3566623689339
 21
54.99775405910513
 31
0.0
 11
291.1784769359479
 21
55.30182347883002
 31
0.0
 11
290.9113515180011
 21
55.62296782076788
 31
0.0
 11
290.6050686728501
 21
55.90460830442363
 31
0.0
 11
290.2018187353342
 21
56.19974095621644
 31
0.0
 11
289.7740646045248
 21
56.45666429338385
 31
0.0
 11
289.2498417506945
 21
56.71810110757711
 31
0.0
 11
288.7098691894038
 21
56.94425036030583
 31
0.0
 11
288.0819470110223
 21
57.16502464515515
 31
0.0
 11
287.4437331352858
 21
57.35330210307308
 31
0.0
 11
286.731902114183
 21
57.527586552753
 31
0.0
 11
286.0134328201669
 21
57.67153952033109
 31
0.0
 11
285.2397238888807
 21
57.79481894215973
 31
0.0
 11
284.4620264848418
 21
57.88926627303995
 31
0.0
 11
283.6501537147849
 21
57.95852447411774
 31
0.0
 11
282.836404586055
 21
57.99982265433594
 31
0.0
 11
282.0110943395267
 21
58.01365984390522
 31
0.0
 11
281.1857840929987
 21
57.99982265433594
 31
0.0
 11
280.3720349642688
 21
57.95852447411772
 31
0.0
 11
279.560162194212
 21
57.88926627303994
 31
0.0
 11
278.7824647901731
 21
57.79481894215971
 31
0.0
 11
278.0087558588867
 21
57.67153952033108
 31
0.0
 11
277.2902865648706
 21
57.52758655275299
 31
0.0
 11
276.5784555437679
 21
57.35330210307308
 31
0.0
 11
275.9402416680315
 21
57.16502464515514
 31
0.0
 11
275.31231948965
 21
56.94425036030582
 31
0.0
 11
274.7723469283592
 21
56.71810110757711
 31
0.0
 11
274.2481240745288
 21
56.45666429338385
 31
0.0
 11
273.8203699437195
 21
56.19974095621648
 31
0.0
 11
273.4171200062036
 21
55.90460830442366
 31
0.0
 11
273.1108371610526
 21
55.6229678207679
 31
0.0
 11
272.8437117431059
 21
55.30182347883002
 31
0.0
 11
272.6815484574103
 21
55.03167653035933
 31
0.0
 11
272.569501709667
 21
54.7368808438861
 31
0.0
  0
SPLINE
  5
181
330
1F
100
AcDbEntity
  8
1
  6
Continuous
 62
     3
100
AcDbSpline
210
0.0
220
0.0
230
1.0
 70
    11
 71
     3
 72
    79
 73
    75
 74
    73
 42
0.0000000001
 43
0.0000000001
 44
0.00000001
 40
0.0
 40
0.0
 40
0.0
 40
0.0
 40
0.3542740953659868
 40
0.7067060186366362
 40
1.124425634254503
 40
1.540515219881997
 40
2.040228932182146
 40
2.539211093792877
 40
3.12500867683121
 40
3.710426349486049
 40
4.37602949472657
 40
5.041435650651372
 40
5.77429202949001
 40
6.507040678972556
 40
7.290509457034908
 40
8.073920939309186
 40
8.888742449320093
 40
9.703538855913804
 40
10.52896509176999
 40
11.35439132762595
 40
12.16918773421961
 40
12.9840092442304
 40
13.76742072650474
 40
14.5508895045672
 40
15.2836381540498
 40
16.01649453288838
 40
16.68190068881308
 40
17.3475038340536
 40
17.93292150670848
 40
18.51871908974686
 40
19.01770125135758
 40
19.51741496365774
 40
19.93350454928523
 40
20.35122416490303
 40
20.70365608817368
 40
21.0579301835397
 40
21.38617537508195
 40
21.71442056662421
 40
22.06869466199022
 40
22.42112658526084
 40
22.83884620087863
 40
23.25493578650609
 40
23.7546494988062
 40
24.25363166041703
 40
24.83942924345541
 40
25.42484691611024
 40
26.09045006135077
 40
26.75585621727551
 40
27.48871259611415
 40
28.22146124559675
 40
29.00493002365916
 40
29.78834150593343
 40
30.60316301594429
 40
31.41795942253794
 40
32.24338565839401
 40
33.06881189425008
 40
33.88360830084385
 40
34.69842981085465
 40
35.48184129312893
 40
36.26531007119134
 40
36.99805872067388
 40
37.73091509951252
 40
38.39632125543726
 40
39.06192440067784
 40
39.64734207333267
 40
40.233139656371
 40
40.73212181798178
 40
41.23183553028189
 40
41.64792511590943
 40
42.06564473152721
 40
42.41807665479786
 40
42.77235075016387
 40
43.1005959417061
 40
43.42884113324836
 40
43.42884113324836
 40
43.42884113324836
 40
43.42884113324836
 10
291.4720412125453
 20
55.46279457335454
 30
0.0
 10
291.4383845497605
 20
55.57648055120698
 30
0.0
 10
291.3712462337833
 20
55.80326135689897
 30
0.0
 10
291.1731974873361
 20
56.12547679357732
 30
0.0
 10
290.9185120362
 20
56.42903814620519
 30
0.0
 10
290.5888062509757
 20
56.72894907438253
 30
0.0
 10
290.2059818222838
 20
57.00572397082148
 30
0.0
 10
289.7521094586784
 20
57.27687784575349
 30
0.0
 10
289.2524915936696
 20
57.52371754100237
 30
0.0
 10
288.6871314533954
 20
57.75962008523743
 30
0.0
 10
288.0836772534591
 20
57.97026851019422
 30
0.0
 10
287.4234529310344
 20
58.16447377219101
 30
0.0
 10
286.7330210093849
 20
58.33252777606591
 30
0.0
 10
285.9976848008071
 20
58.47951403578387
 30
0.0
 10
285.2403973678797
 20
58.59954410772264
 30
0.0
 10
284.4521028242784
 20
58.69511239080694
 30
0.0
 10
283.6504709070419
 20
58.76312171304711
 30
0.0
 10
282.8330201710634
 20
58.80460853670067
 30
0.0
 10
282.0110943395348
 20
58.81821482701498
 30
0.0
 10
281.1891685079584
 20
58.80460853670748
 30
0.0
 10
280.3717177721218
 20
58.76312171302025
 30
0.0
 10
279.5700858543733
 20
58.69511239090609
 30
0.0
 10
278.7817913126098
 20
58.59954410736825
 30
0.0
 10
278.0245038730281
 20
58.47951403707208
 30
0.0
 10
277.289167687749
 20
58.33252777160272
 30
0.0
 10
276.5987356830107
 20
58.16447378823869
 30
0.0
 10
275.9385116435499
 20
57.97026845639097
 30
0.0
 10
275.3350564508725
 20
57.75962027649658
 30
0.0
 10
274.7696995932067
 20
57.52371692193581
 30
0.0
 10
274.270070402625
 20
57.27688002245236
 30
0.0
 10
273.8162344099434
 20
57.00571716920431
 30
0.0
 10
273.4332861920246
 20
56.72897283065861
 30
0.0
 10
273.10397016127
 20
56.42896568994487
 30
0.0
 10
272.8479572622527
 20
56.12573202343125
 30
0.0
 10
272.6541441375773
 20
55.80247100563465
 30
0.0
 10
272.5409080743256
 20
55.4740384080667
 30
0.0
 10
272.4967559680298
 20
55.1368808439052
 30
0.0
 10
272.5409080743255
 20
54.79972327974377
 30
0.0
 10
272.6541441375775
 20
54.47129068217582
 30
0.0
 10
272.8479572622527
 20
54.14802966437919
 30
0.0
 10
273.1039701612701
 20
53.84479599786561
 30
0.0
 10
273.4332861920246
 20
53.54478885715183
 30
0.0
 10
273.8162344099433
 20
53.2680445186061
 30
0.0
 10
274.270070402625
 20
52.9968816653581
 30
0.0
 10
274.7696995932067
 20
52.75004476587465
 30
0.0
 10
275.3350564508725
 20
52.51414141131384
 30
0.0
 10
275.9385116435499
 20
52.30349323141942
 30
0.0
 10
276.5987356830107
 20
52.10928789957174
 30
0.0
 10
277.289167687749
 20
51.94123391620772
 30
0.0
 10
278.0245038730281
 20
51.79424765073836
 30
0.0
 10
278.7817913126098
 20
51.67421758044222
 30
0.0
 10
279.5700858543734
 20
51.5786492969043
 30
0.0
 10
280.3717177721213
 20
51.51063997479034
 30
0.0
 10
281.1891685079603
 20
51.46915315110238
 30
0.0
 10
282.0110943395273
 20
51.45554686079753
 30
0.0
 10
282.8330201710911
 20
51.46915315110191
 30
0.0
 10
283.6504709069401
 20
51.51063997479218
 30
0.0
 10
284.4521028246525
 20
51.57864929689743
 30
0.0
 10
285.2403973665431
 20
51.67421758046667
 30
0.0
 10
285.9976848056652
 20
51.79424765064941
 30
0.0
 10
286.7330209925532
 20
51.94123391651593
 30
0.0
 10
287.4234529915539
 20
52.10928789846356
 30
0.0
 10
288.0836770505545
 20
52.30349323513479
 30
0.0
 10
288.687132174679
 20
52.51414139810652
 30
0.0
 10
289.252489259023
 20
52.75004480862388
 30
0.0
 10
289.7521176675249
 20
52.99688151504763
 30
0.0
 10
290.2059561717761
 20
53.26804498828718
 30
0.0
 10
290.5888958415134
 20
53.5447872166783
 30
0.0
 10
290.9182387864992
 20
53.84480100128354
 30
0.0
 10
291.1741600195017
 20
54.14801203965449
 30
0.0
 10
291.368265632171
 20
54.4713452593473
 30
0.0
 10
291.4804718278002
 20
54.79952362974419
 30
0.0
 10
291.5282059405637
 20
55.13756542732639
 30
0.0
 10
291.4907627885514
 20
55.35438485801181
 30
0.0
 10
291.4720412125453
 20
55.46279457335454
 30
0.0
 11
291.4720412125453
 21
55.46279457335454
 31
0.0
 11
291.3566623689339
 21
55.79775405910512
 31
0.0
 11
291.1784769359479
 21
56.10182347883001
 31
0.0
 11
290.9113515180011
 21
56.42296782076787
 31
0.0
 11
290.6050686728501
 21
56.70460830442362
 31
0.0
 11
290.2018187353342
 21
56.99974095621643
 31
0.0
 11
289.7740646045248
 21
57.25666429338384
 31
0.0
 11
289.2498417506945
 21
57.51810110757711
 31
0.0
 11
288.7098691894038
 21
57.74425036030583
 31
0.0
 11
288.0819470110223
 21
57.96502464515515
 31
0.0
 11
287.4437331352858
 21
58.15330210307308
 31
0.0
 11
286.731902114183
 21
58.327586552753
 31
0.0
 11
286.0134328201669
 21
58.47153952033109
 31
0.0
 11
285.2397238888807
 21
58.59481894215973
 31
0.0
 11
284.4620264848418
 21
58.68926627303996
 31
0.0
 11
283.6501537147849
 21
58.75852447411773
 31
0.0
 11
282.836404586055
 21
58.79982265433596
 31
0.0
 11
282.0110943395267
 21
58.81365984390521
 31
0.0
 11
281.1857840929987
 21
58.79982265433595
 31
0.0
 11
280.3720349642688
 21
58.75852447411773
 31
0.0
 11
279.560162194212
 21
58.68926627303994
 31
0.0
 11
278.7824647901731
 21
58.59481894215971
 31
0.0
 11
278.0087558588867
 21
58.47153952033108
 31
0.0
 11
277.2902865648706
 21
58.327586552753
 31
0.0
 11
276.5784555437679
 21
58.15330210307309
 31
0.0
 11
275.9402416680315
 21
57.96502464515513
 31
0.0
 11
275.31231948965
 21
57.74425036030581
 31
0.0
 11
274.7723469283592
 21
57.51810110757712
 31
0.0
 11
274.2481240745288
 21
57.25666429338385
 31
0.0
 11
273.8203699437195
 21
56.99974095621647
 31
0.0
 11
273.4171200062036
 21
56.70460830442364
 31
0.0
 11
273.1108371610526
 21
56.42296782076789
 31
0.0
 11
272.8437117431059
 21
56.10182347883003
 31
0.0
 11
272.6655263101199
 21
55.79775405910513
 31
0.0
 11
272.5501474665085
 21
55.46279457335454
 31
0.0
 11
272.5110943395268
 21
55.13688084390522
 31
0.0
 11
272.5501474665085
 21
54.8109671144559
 31
0.0
 11
272.66552631012
 21
54.47600762870532
 31
0.0
 11
272.8437117431059
 21
54.17193820898044
 31
0.0
 11
273.1108371610526
 21
53.85079386704257
 31
0.0
 11
273.4171200062036
 21
53.5691533833868
 31
0.0
 11
273.8203699437194
 21
53.27402073159398
 31
0.0
 11
274.2481240745288
 21
53.01709739442659
 31
0.0
 11
274.7723469283592
 21
52.75566058023332
 31
0.0
 11
275.31231948965
 21
52.52951132750461
 31
0.0
 11
275.9402416680314
 21
52.30873704265528
 31
0.0
 11
276.5784555437679
 21
52.12045958473735
 31
0.0
 11
277.2902865648707
 21
51.94617513505744
 31
0.0
 11
278.0087558588868
 21
51.80222216747936
 31
0.0
 11
278.7824647901731
 21
51.67894274565072
 31
0.0
 11
279.560162194212
 21
51.58449541477049
 31
0.0
 11
280.3720349642688
 21
51.5152372136927
 31
0.0
 11
281.1857840929987
 21
51.47393903347448
 31
0.0
 11
282.0110943395268
 21
51.4601018439052
 31
0.0
 11
282.836404586055
 21
51.47393903347447
 31
0.0
 11
283.6501537147849
 21
51.5152372136927
 31
0.0
 11
284.4620264848418
 21
51.58449541477049
 31
0.0
 11
285.2397238888806
 21
51.67894274565072
 31
0.0
 11
286.0134328201669
 21
51.80222216747936
 31
0.0
 11
286.731902114183
 21
51.94617513505743
 31
0.0
 11
287.4437331352858
 21
52.12045958473734
 31
0.0
 11
288.0819470110222
 21
52.30873704265528
 31
0.0
 11
288.7098691894038
 21
52.52951132750461
 31
0.0
 11
289.2498417506945
 21
52.75566058023332
 31
0.0
 11
289.7740646045248
 21
53.01709739442659
 31
0.0
 11
290.2018187353343
 21
53.27402073159397
 31
0.0
 11
290.6050686728501
 21
53.5691533833868
 31
0.0
 11
290.9113515180011
 21
53.85079386704256
 31
0.0
 11
291.1784769359477
 21
54.17193820898045
 31
0.0
 11
291.3566623689338
 21
54.47600762870534
 31
0.0
 11
291.4720412125453
 21
54.81096711445591
 31
0.0
 11
291.5110943395269
 21
55.13688084390521
 31
0.0
 11
291.4720412125453
 21
55.46279457335454
 31
0.0
  0
SPLINE
  5
182
330
1F
100
AcDbEntity
  8
1
  6
Continuous
 62
     3
100
AcDbSpline
210
0.0
220
0.0
230
1.0
 70
     8
 71
     3
 72
    45
 73
    41
 74
    39
 42
0.0000000001
 43
0.0000000001
 44
0.00000001
 40
0.0
 40
0.0
 40
0.0
 40
0.0
 40
0.1632490778881556
 40
0.3288172958372909
 40
0.6830913912032894
 40
1.035523314473945
 40
1.453242930091756
 40
1.869332515719198
 40
2.36904622801931
 40
2.868028389630143
 40
3.45382597266852
 40
4.039243645323358
 40
4.704846790563882
 40
5.370252946488629
 40
6.103109325327264
 40
6.835857974809867
 40
7.619326752872274
 40
8.402738235146552
 40
9.217559745157402
 40
10.03235615175106
 40
10.85778238760713
 40
11.68320862346321
 40
12.49800503005697
 40
13.31282654006777
 40
14.09623802234205
 40
14.87970680040445
 40
15.612455449887
 40
16.34531182872564
 40
17.01071798465038
 40
17.67632112989096
 40
18.2617388025458
 40
18.84753638558413
 40
19.3465185471949
 40
19.846232259495
 40
20.26232184512254
 40
20.68004146074032
 40
21.03247338401098
 40
21.38674747937699
 40
21.55231569732331
 40
21.71556477520868
 40
21.71556477520868
 40
21.71556477520868
 40
21.71556477520868
 10
272.5110943395268
 20
59.89728077096748
 30
0.0
 10
272.5129616163033
 20
59.95174400357041
 30
0.0
 10
272.5167226966608
 20
60.06144418135226
 30
0.0
 10
272.5596093529105
 20
60.28568946617127
 30
0.0
 10
272.6538357009012
 20
60.56299840106509
 30
0.0
 10
272.8480568663798
 20
60.8860907868559
 30
0.0
 10
273.1039418850223
 20
61.1893773028001
 30
0.0
 10
273.4332954629744
 20
61.48936892629315
 30
0.0
 10
273.8162317555941
 20
61.76611819323582
 30
0.0
 10
274.2700712520876
 20
62.03727959845521
 30
0.0
 10
274.7696993516143
 20
62.28411694884151
 30
0.0
 10
275.3350565255118
 20
62.52002017271248
 30
0.0
 10
275.9385116225531
 20
62.73066839213069
 30
0.0
 10
276.5987356892733
 20
62.92487371271278
 30
0.0
 10
277.2891676860073
 20
63.0929276993848
 30
0.0
 10
278.0245038735308
 20
63.23991396392658
 30
0.0
 10
278.7817913124715
 20
63.35994403448767
 30
0.0
 10
279.5700858544121
 20
63.4555123179524
 30
0.0
 10
280.3717177721107
 20
63.52352164008676
 30
0.0
 10
281.1891685079632
 20
63.56500846376901
 30
0.0
 10
282.0110943395267
 20
63.57861475407591
 30
0.0
 10
282.8330201710905
 20
63.565008463769
 30
0.0
 10
283.650470906943
 20
63.52352164008678
 30
0.0
 10
284.4521028246417
 20
63.45551231795238
 30
0.0
 10
285.2403973665823
 20
63.35994403448767
 30
0.0
 10
285.9976848055229
 20
63.23991396392657
 30
0.0
 10
286.7330209930465
 20
63.09292769938484
 30
0.0
 10
287.4234529897803
 20
62.92487371271276
 30
0.0
 10
288.0836770565006
 20
62.73066839213067
 30
0.0
 10
288.6871321535419
 20
62.52002017271248
 30
0.0
 10
289.2524893274393
 20
62.2841169488415
 30
0.0
 10
289.7521174269662
 20
62.03727959845518
 30
0.0
 10
290.2059569234594
 20
61.76611819323585
 30
0.0
 10
290.5888932160793
 20
61.48936892629312
 30
0.0
 10
290.9182467940315
 20
61.18937730280018
 30
0.0
 10
291.1741318126737
 20
60.88609078685589
 30
0.0
 10
291.3683529781525
 20
60.56299840106507
 30
0.0
 10
291.4625793261429
 20
60.28568946617217
 30
0.0
 10
291.5054659823924
 20
60.06144418135503
 30
0.0
 10
291.5092270627501
 20
59.95174400357506
 30
0.0
 10
291.5110943395268
 20
59.89728077097307
 30
0.0
 11
272.5110943395268
 21
59.89728077096748
 31
0.0
 11
272.5208576212722
 21
60.06023763569214
 31
0.0
 11
272.5501474665085
 21
60.2231945004168
 31
0.0
 11
272.6655263101199
 21
60.55815398616736
 31
0.0
 11
272.8437117431059
 21
60.86222340589226
 31
0.0
 11
273.1108371610526
 21
61.18336774783014
 31
0.0
 11
273.4171200062036
 21
61.46500823148588
 31
0.0
 11
273.8203699437194
 21
61.76014088327871
 31
0.0
 11
274.2481240745288
 21
62.01706422044612
 31
0.0
 11
274.7723469283592
 21
62.27850103463938
 31
0.0
 11
275.31231948965
 21
62.50465028736809
 31
0.0
 11
275.9402416680314
 21
62.72542457221742
 31
0.0
 11
276.5784555437679
 21
62.91370203013535
 31
0.0
 11
277.2902865648707
 21
63.08798647981526
 31
0.0
 11
278.0087558588868
 21
63.23193944739336
 31
0.0
 11
278.7824647901731
 21
63.35521886922199
 31
0.0
 11
279.560162194212
 21
63.44966620010221
 31
0.0
 11
280.3720349642688
 21
63.51892440118
 31
0.0
 11
281.1857840929987
 21
63.56022258139821
 31
0.0
 11
282.0110943395268
 21
63.57405977096749
 31
0.0
 11
282.836404586055
 21
63.56022258139822
 31
0.0
 11
283.6501537147849
 21
63.51892440118002
 31
0.0
 11
284.4620264848418
 21
63.44966620010221
 31
0.0
 11
285.2397238888806
 21
63.35521886922199
 31
0.0
 11
286.0134328201669
 21
63.23193944739336
 31
0.0
 11
286.731902114183
 21
63.08798647981526
 31
0.0
 11
287.4437331352858
 21
62.91370203013535
 31
0.0
 11
288.0819470110222
 21
62.72542457221741
 31
0.0
 11
288.7098691894038
 21
62.50465028736809
 31
0.0
 11
289.2498417506945
 21
62.27850103463937
 31
0.0
 11
289.7740646045248
 21
62.0170642204461
 31
0.0
 11
290.2018187353343
 21
61.76014088327872
 31
0.0
 11
290.6050686728501
 21
61.46500823148591
 31
0.0
 11
290.9113515180011
 21
61.18336774783015
 31
0.0
 11
291.1784769359477
 21
60.86222340589226
 31
0.0
 11
291.3566623689338
 21
60.55815398616735
 31
0.0
 11
291.4720412125453
 21
60.2231945004168
 31
0.0
 11
291.5013310577811
 21
60.06023763569493
 31
0.0
 11
291.5110943395268
 21
59.89728077097307
 31
0.0
  0
ARC
  5
183
330
1F
100
AcDbEntity
  8
1
  6
Continuous
 62
     3
100
AcDbCircle
 10
126.300428083948
 20
172.7181279764936
 30
0.0
 40
5.999999999999986
100
AcDbArc
 50
0.0
 51
81.77732701904449
  0
ARC
  5
184
330
1F
100
AcDbEntity
  8
1
  6
Continuous
 62
     3
100
AcDbCircle
 10
49.80042808402983
 20
67.33688084389928
 30
0.0
 40
1.0
100
AcDbArc
 50
269.9999999999992
 51
0.0
  0
ARC
  5
185
330
1F
100
AcDbEntity
  8
1
  6
Continuous
 62
     3
100
AcDbCircle
 10
49.80042808403083
 20
115.3368808439003
 30
0.0
 40
1.000000000000014
100
AcDbArc
 50
359.9999999999943
 51
90.0
  0
ARC
  5
186
330
1F
100
AcDbEntity
  8
1
  6
Continuous
 62
     3
100
AcDbCircle
 10
127.166358845074
 20
83.83688084390269
 30
0.0
 40
1.999999999999986
100
AcDbArc
 50
59.99999999917617
 51
90.00000000000286
  0
ARC
  5
187
330
1F
100
AcDbEntity
  8
1
  6
Continuous
 62
     3
100
AcDbCircle
 10
127.166358845074
 20
114.8368808439028
 30
0.0
 40
2.0
100
AcDbArc
 50
269.9999999999972
 51
300.0000000008237
  0
ARC
  5
188
330
1F
100
AcDbEntity
  8
1
  6
PHANTOM
 62
     4
100
AcDbCircle
 10
126.300428083948
 20
166.2181279764936
 30
0.0
 40
5.999999999999986
100
AcDbArc
 50
0.0
 51
81.77732701904449
  0
ARC
  5
189
330
1F
100
AcDbEntity
  8
1
  6
Continuous
 62
     3
100
AcDbCircle
 10
303.6620943395269
 20
172.7181279764936
 30
0.0
 40
6.0
100
AcDbArc
 50
0.0
 51
83.39837132643066
  0
ARC
  5
18A
330
1F
100
AcDbEntity
  8
1
  6
Continuous
 62
     3
100
AcDbCircle
 10
260.3600943395268
 20
172.7181279764936
 30
0.0
 40
5.999999999999966
100
AcDbArc
 50
96.60162867356934
 51
180.0
  0
ARC
  5
18B
330
1F
100
AcDbEntity
  8
1
  6
Continuous
 62
     3
100
AcDbCircle
 10
89.51078860823449
 20
174.1170843701443
 30
0.0
 40
6.000000000000058
100
AcDbArc
 50
93.86733281936782
 51
180.0
  0
ARC
  5
18C
330
1F
100
AcDbEntity
  8
1
  6
PHANTOM
 62
     4
100
AcDbCircle
 10
89.51078860823449
 20
167.6170843701443
 30
0.0
 40
6.000000000000058
100
AcDbArc
 50
93.86733281936782
 51
180.0
  0
LINE
  5
18D
330
1F
100
AcDbEntity
  8
1
 62
     4
100
AcDbLine
 10
40.3821929036811
 20
104.3368808439003
 30
0.0
 11
38.9004532335006
 21
106.331372494278
 31
0.0
  0
LINE
  5
18E
330
1F
100
AcDbEntity
  8
1
 62
     4
100
AcDbLine
 10
40.3821929036811
 20
104.3368808439003
 30
0.0
 11
40.09621453269847
 21
106.8050311158536
 31
0.0
  0
LEADER
  5
18F
330
1F
100
AcDbEntity
  8
1
  6
Continuous
 62
     4
100
AcDbLeader
  3
Standard
 71
     0
 76
     3
 10
40.3821929036811
 20
104.3368808439003
 30
0.0
 10
34.7134705128631
 20
118.647691503883
 30
0.0
 10
20.2999748214811
 20
118.647691503883
 30
0.0
  0
TEXT
  5
1B3
330
1F
100
AcDbEntity
  8
1
 62
     4
100
AcDbText
 10
237.516084649232
 20
224.437503606181
 30
0.0
 40
5.0
  1
KTL-10-20
 41
0.9
  7
CONVERTER_11
100
AcDbText
  0
TEXT
  5
1B4
330
1F
100
AcDbEntity
  8
1
 62
     4
100
AcDbText
 10
153.864939703626
 20
27.3756639414522
 30
0.0
 40
5.0
  1
KTL-10-20_0172VF01-0
 41
0.9
  7
CONVERTER_11
100
AcDbText
  0
TEXT
  5
1B5
330
1F
100
AcDbEntity
  8
1
 62
     4
100
AcDbText
 10
21.293923779941
 20
119.512568214185
 30
0.0
 40
3.0
  1
PJ3/4
 41
0.9
  7
CONVERTER_11
100
AcDbText
  0
ENDSEC
  0
SECTION
  2
OBJECTS
  0
DICTIONARY
  5
C
330
0
100
AcDbDictionary
281
     1
  3
ACAD_GROUP
350
D
  3
ACAD_LAYOUT
350
1A
  3
ACAD_MATERIAL
350
3B
  3
ACAD_MLEADERSTYLE
350
1B8
  3
ACAD_MLINESTYLE
350
17
  3
ACAD_PLOTSETTINGS
350
19
  3
ACAD_PLOTSTYLENAME
350
E
  3
ACAD_SCALELIST
350
191
  3
ACAD_VISUALSTYLE
350
2A
  3
AcDbVariableDictionary
350
1B6
  0
DICTIONARY
  5
D
102
{ACAD_REACTORS
330
C
102
}
330
C
100
AcDbDictionary
281
     1
  0
DICTIONARY
  5
1A
102
{ACAD_REACTORS
330
C
102
}
330
C
100
AcDbDictionary
281
     1
  3
Layout1
350
1E
  3
Layout2
350
26
  3
Model
350
22
  0
DICTIONARY
  5
3B
102
{ACAD_REACTORS
330
C
102
}
330
C
100
AcDbDictionary
281
     1
  3
ByBlock
350
3D
  3
ByLayer
350
3C
  3
Global
350
3E
  0
DICTIONARY
  5
1B8
102
{ACAD_REACTORS
330
C
102
}
330
C
100
AcDbDictionary
281
     1
  0
DICTIONARY
  5
17
102
{ACAD_REACTORS
330
C
102
}
330
C
100
AcDbDictionary
281
     1
  3
Standard
350
18
  0
DICTIONARY
  5
19
102
{ACAD_REACTORS
330
C
102
}
330
C
100
AcDbDictionary
281
     1
  0
ACDBDICTIONARYWDFLT
  5
E
102
{ACAD_REACTORS
330
C
102
}
330
C
100
AcDbDictionary
281
     1
  3
Normal
350
F
100
AcDbDictionaryWithDefault
340
F
  0
DICTIONARY
  5
191
102
{ACAD_REACTORS
330
C
102
}
330
C
100
AcDbDictionary
281
     1
  3
A0
350
192
  3
A1
350
193
  3
A2
350
194
  3
A3
350
195
  3
A4
350
196
  3
A5
350
197
  3
A6
350
198
  3
A7
350
199
  3
A8
350
19A
  3
A9
350
19B
  3
B0
350
19C
  3
B1
350
19D
  3
B2
350
19E
  3
B3
350
19F
  3
B4
350
1A0
  3
B5
350
1A1
  3
B6
350
1A2
  3
B7
350
1A3
  3
B8
350
1A4
  3
B9
350
1A5
  3
C0
350
1A6
  3
C1
350
1A7
  3
C2
350
1A8
  3
C3
350
1A9
  3
C4
350
1AA
  3
C5
350
1AB
  3
C6
350
1AC
  3
C7
350
1AD
  3
C8
350
1AE
  3
C9
350
1AF
  3
D0
350
1B0
  3
D1
350
1B1
  3
D2
350
1B2
  0
DICTIONARY
  5
2A
102
{ACAD_REACTORS
330
C
102
}
330
C
100
AcDbDictionary
281
     1
  3
2dWireframe
350
2F
  3
3D Hidden
350
31
  3
3dWireframe
350
30
  3
Basic
350
32
  3
Brighten
350
36
  3
ColorChange
350
3A
  3
Conceptual
350
34
  3
Dim
350
35
  3
Facepattern
350
39
  3
Flat
350
2B
  3
FlatWithEdges
350
2C
  3
Gouraud
350
2D
  3
GouraudWithEdges
350
2E
  3
Linepattern
350
38
  3
Realistic
350
33
  3
Thicken
350
37
  0
DICTIONARY
  5
1B6
102
{ACAD_REACTORS
330
C
102
}
330
C
100
AcDbDictionary
281
     1
  3
CANNOSCALE
350
1B9
  3
DIMASSOC
350
1BA
  3
HIDETEXT
350
1BB
  0
LAYOUT
  5
1E
102
{ACAD_REACTORS
330
1A
102
}
330
1A
100
AcDbPlotSettings
  1

  2
none_device
  4

  6

 40
0.0
 41
0.0
 42
0.0
 43
0.0
 44
0.0
 45
0.0
 46
0.0
 47
0.0
 48
0.0
 49
0.0
140
0.0
141
0.0
142
1.0
143
1.0
 70
   688
 72
     0
 73
     0
 74
     5
  7

 75
    16
147
1.0
148
0.0
149
0.0
100
AcDbLayout
  1
Layout1
 70
     1
 71
     1
 10
0.0
 20
0.0
 11
12.0
 21
9.0
 12
0.0
 22
0.0
 32
0.0
 14
1.00000000000000E+20
 24
1.00000000000000E+20
 34
1.00000000000000E+20
 15
-1.00000000000000E+20
 25
-1.00000000000000E+20
 35
-1.00000000000000E+20
146
0.0
 13
0.0
 23
0.0
 33
0.0
 16
1.0
 26
0.0
 36
0.0
 17
0.0
 27
1.0
 37
0.0
 76
     0
330
1B
  0
LAYOUT
  5
26
102
{ACAD_REACTORS
330
1A
102
}
330
1A
100
AcDbPlotSettings
  1

  2
none_device
  4

  6

 40
0.0
 41
0.0
 42
0.0
 43
0.0
 44
0.0
 45
0.0
 46
0.0
 47
0.0
 48
0.0
 49
0.0
140
0.0
141
0.0
142
1.0
143
1.0
 70
   688
 72
     0
 73
     0
 74
     5
  7

 75
    16
147
1.0
148
0.0
149
0.0
100
AcDbLayout
  1
Layout2
 70
     1
 71
     2
 10
0.0
 20
0.0
 11
0.0
 21
0.0
 12
0.0
 22
0.0
 32
0.0
 14
0.0
 24
0.0
 34
0.0
 15
0.0
 25
0.0
 35
0.0
146
0.0
 13
0.0
 23
0.0
 33
0.0
 16
1.0
 26
0.0
 36
0.0
 17
0.0
 27
1.0
 37
0.0
 76
     0
330
23
  0
LAYOUT
  5
22
102
{ACAD_REACTORS
330
1A
102
}
330
1A
100
AcDbPlotSettings
  1

  2
none_device
  4

  6

 40
0.0
 41
0.0
 42
0.0
 43
0.0
 44
0.0
 45
0.0
 46
0.0
 47
0.0
 48
0.0
 49
0.0
140
0.0
141
0.0
142
1.0
143
1.0
 70
  1712
 72
     0
 73
     0
 74
     0
  7

 75
     0
147
1.0
148
0.0
149
0.0
100
AcDbLayout
  1
Model
 70
     1
 71
     0
 10
0.0
 20
0.0
 11
12.0
 21
9.0
 12
0.0
 22
0.0
 32
0.0
 14
20.2999748214811
 24
27.3756639414522
 34
0.0
 15
310.0110943395268
 25
268.972196498001
 35
0.0
146
0.0
 13
0.0
 23
0.0
 33
0.0
 16
1.0
 26
0.0
 36
0.0
 17
0.0
 27
1.0
 37
0.0
 76
     0
330
1F
331
29
  0
MATERIAL
  5
3D
102
{ACAD_REACTORS
330
3B
102
}
102
{ACAD_XDICTIONARY
360
1DE
102
}
330
3B
100
AcDbMaterial
  1
ByBlock
  0
MATERIAL
  5
3C
102
{ACAD_REACTORS
330
3B
102
}
102
{ACAD_XDICTIONARY
360
1DC
102
}
330
3B
100
AcDbMaterial
  1
ByLayer
  0
MATERIAL
  5
3E
102
{ACAD_REACTORS
330
3B
102
}
102
{ACAD_XDICTIONARY
360
1E0
102
}
330
3B
100
AcDbMaterial
  1
Global
  0
MLINESTYLE
  5
18
102
{ACAD_REACTORS
330
17
102
}
330
17
100
AcDbMlineStyle
  2
Standard
 70
     0
  3

 62
   256
 51
90.0
 52
90.0
 71
     2
 49
0.5
 62
   256
  6
BYLAYER
 49
-0.5
 62
   256
  6
BYLAYER
  0
ACDBPLACEHOLDER
  5
F
102
{ACAD_REACTORS
330
E
102
}
330
E
  0
SCALE
  5
192
102
{ACAD_REACTORS
330
191
102
}
330
191
100
AcDbScale
 70
     0
300
1:1
140
1.0
141
1.0
290
     1
  0
SCALE
  5
193
102
{ACAD_REACTORS
330
191
102
}
330
191
100
AcDbScale
 70
     0
300
1:2
140
1.0
141
2.0
290
     0
  0
SCALE
  5
194
102
{ACAD_REACTORS
330
191
102
}
330
191
100
AcDbScale
 70
     0
300
1:4
140
1.0
141
4.0
290
     0
  0
SCALE
  5
195
102
{ACAD_REACTORS
330
191
102
}
330
191
100
AcDbScale
 70
     0
300
1:5
140
1.0
141
5.0
290
     0
  0
SCALE
  5
196
102
{ACAD_REACTORS
330
191
102
}
330
191
100
AcDbScale
 70
     0
300
1:8
140
1.0
141
8.0
290
     0
  0
SCALE
  5
197
102
{ACAD_REACTORS
330
191
102
}
330
191
100
AcDbScale
 70
     0
300
1:10
140
1.0
141
10.0
290
     0
  0
SCALE
  5
198
102
{ACAD_REACTORS
330
191
102
}
330
191
100
AcDbScale
 70
     0
300
1:16
140
1.0
141
16.0
290
     0
  0
SCALE
  5
199
102
{ACAD_REACTORS
330
191
102
}
330
191
100
AcDbScale
 70
     0
300
1:20
140
1.0
141
20.0
290
     0
  0
SCALE
  5
19A
102
{ACAD_REACTORS
330
191
102
}
330
191
100
AcDbScale
 70
     0
300
1:30
140
1.0
141
30.0
290
     0
  0
SCALE
  5
19B
102
{ACAD_REACTORS
330
191
102
}
330
191
100
AcDbScale
 70
     0
300
1:40
140
1.0
141
40.0
290
     0
  0
SCALE
  5
19C
102
{ACAD_REACTORS
330
191
102
}
330
191
100
AcDbScale
 70
     0
300
1:50
140
1.0
141
50.0
290
     0
  0
SCALE
  5
19D
102
{ACAD_REACTORS
330
191
102
}
330
191
100
AcDbScale
 70
     0
300
1:100
140
1.0
141
100.0
290
     0
  0
SCALE
  5
19E
102
{ACAD_REACTORS
330
191
102
}
330
191
100
AcDbScale
 70
     0
300
2:1
140
2.0
141
1.0
290
     0
  0
SCALE
  5
19F
102
{ACAD_REACTORS
330
191
102
}
330
191
100
AcDbScale
 70
     0
300
4:1
140
4.0
141
1.0
290
     0
  0
SCALE
  5
1A0
102
{ACAD_REACTORS
330
191
102
}
330
191
100
AcDbScale
 70
     0
300
8:1
140
8.0
141
1.0
290
     0
  0
SCALE
  5
1A1
102
{ACAD_REACTORS
330
191
102
}
330
191
100
AcDbScale
 70
     0
300
10:1
140
10.0
141
1.0
290
     0
  0
SCALE
  5
1A2
102
{ACAD_REACTORS
330
191
102
}
330
191
100
AcDbScale
 70
     0
300
100:1
140
100.0
141
1.0
290
     0
  0
SCALE
  5
1A3
102
{ACAD_REACTORS
330
191
102
}
330
191
100
AcDbScale
 70
     0
300
1/128" = 1'-0"
140
0.0078125
141
12.0
290
     0
  0
SCALE
  5
1A4
102
{ACAD_REACTORS
330
191
102
}
330
191
100
AcDbScale
 70
     0
300
1/64" = 1'-0"
140
0.015625
141
12.0
290
     0
  0
SCALE
  5
1A5
102
{ACAD_REACTORS
330
191
102
}
330
191
100
AcDbScale
 70
     0
300
1/32" = 1'-0"
140
0.03125
141
12.0
290
     0
  0
SCALE
  5
1A6
102
{ACAD_REACTORS
330
191
102
}
330
191
100
AcDbScale
 70
     0
300
1/16" = 1'-0"
140
0.0625
141
12.0
290
     0
  0
SCALE
  5
1A7
102
{ACAD_REACTORS
330
191
102
}
330
191
100
AcDbScale
 70
     0
300
3/32" = 1'-0"
140
0.09375
141
12.0
290
     0
  0
SCALE
  5
1A8
102
{ACAD_REACTORS
330
191
102
}
330
191
100
AcDbScale
 70
     0
300
1/8" = 1'-0"
140
0.125
141
12.0
290
     0
  0
SCALE
  5
1A9
102
{ACAD_REACTORS
330
191
102
}
330
191
100
AcDbScale
 70
     0
300
3/16" = 1'-0"
140
0.1875
141
12.0
290
     0
  0
SCALE
  5
1AA
102
{ACAD_REACTORS
330
191
102
}
330
191
100
AcDbScale
 70
     0
300
1/4" = 1'-0"
140
0.25
141
12.0
290
     0
  0
SCALE
  5
1AB
102
{ACAD_REACTORS
330
191
102
}
330
191
100
AcDbScale
 70
     0
300
3/8" = 1'-0"
140
0.375
141
12.0
290
     0
  0
SCALE
  5
1AC
102
{ACAD_REACTORS
330
191
102
}
330
191
100
AcDbScale
 70
     0
300
1/2" = 1'-0"
140
0.5
141
12.0
290
     0
  0
SCALE
  5
1AD
102
{ACAD_REACTORS
330
191
102
}
330
191
100
AcDbScale
 70
     0
300
3/4" = 1'-0"
140
0.75
141
12.0
290
     0
  0
SCALE
  5
1AE
102
{ACAD_REACTORS
330
191
102
}
330
191
100
AcDbScale
 70
     0
300
1" = 1'-0"
140
1.0
141
12.0
290
     0
  0
SCALE
  5
1AF
102
{ACAD_REACTORS
330
191
102
}
330
191
100
AcDbScale
 70
     0
300
1-1/2" = 1'-0"
140
1.5
141
12.0
290
     0
  0
SCALE
  5
1B0
102
{ACAD_REACTORS
330
191
102
}
330
191
100
AcDbScale
 70
     0
300
3" = 1'-0"
140
3.0
141
12.0
290
     0
  0
SCALE
  5
1B1
102
{ACAD_REACTORS
330
191
102
}
330
191
100
AcDbScale
 70
     0
300
6" = 1'-0"
140
6.0
141
12.0
290
     0
  0
SCALE
  5
1B2
102
{ACAD_REACTORS
330
191
102
}
330
191
100
AcDbScale
 70
     0
300
1'-0" = 1'-0"
140
12.0
141
12.0
290
     0
  0
VISUALSTYLE
  5
2F
102
{ACAD_REACTORS
330
2A
102
}
102
{ACAD_XDICTIONARY
360
1C4
102
}
330
2A
100
AcDbVisualStyle
  2
2dWireframe
 70
     4
 71
     0
 72
     2
 73
     0
 90
        0
 40
-0.6
 41
-30.0
 62
     5
 63
     7
 74
     1
 91
        4
 64
     7
 65
   257
 75
     1
175
     1
 42
1.0
 92
        0
 66
   257
 43
1.0
 76
     1
 77
     6
 78
     2
 67
     7
 79
     5
170
     0
171
     0
290
     0
174
     0
 93
        1
 44
0.0
173
     0
291
     0
 45
0.0
1001
ACAD
1000
AcDbSavedByObjectVersion
1070
     0
  0
VISUALSTYLE
  5
31
102
{ACAD_REACTORS
330
2A
102
}
102
{ACAD_XDICTIONARY
360
1C8
102
}
330
2A
100
AcDbVisualStyle
  2
3D Hidden
 70
     6
 71
     1
 72
     2
 73
     2
 90
        0
 40
-0.6
 41
-30.0
 62
     5
 63
     7
 74
     2
 91
        2
 64
     7
 65
   257
 75
     2
175
     1
 42
40.0
 92
        0
 66
   257
 43
1.0
 76
     1
 77
     6
 78
     2
 67
     7
 79
     3
170
     0
171
     0
290
     0
174
     0
 93
        1
 44
0.0
173
     0
291
     0
 45
0.0
1001
ACAD
1000
AcDbSavedByObjectVersion
1070
     0
  0
VISUALSTYLE
  5
30
102
{ACAD_REACTORS
330
2A
102
}
102
{ACAD_XDICTIONARY
360
1C6
102
}
330
2A
100
AcDbVisualStyle
  2
3dWireframe
 70
     5
 71
     0
 72
     2
 73
     0
 90
        0
 40
-0.6
 41
-30.0
 62
     5
 63
     7
 74
     1
 91
        4
 64
     7
 65
   257
 75
     1
175
     1
 42
1.0
 92
        0
 66
   257
 43
1.0
 76
     1
 77
     6
 78
     2
 67
     7
 79
     5
170
     0
171
     0
290
     0
174
     0
 93
        1
 44
0.0
173
     0
291
     0
 45
0.0
1001
ACAD
1000
AcDbSavedByObjectVersion
1070
     0
  0
VISUALSTYLE
  5
32
102
{ACAD_REACTORS
330
2A
102
}
102
{ACAD_XDICTIONARY
360
1CA
102
}
330
2A
100
AcDbVisualStyle
  2
Basic
 70
     7
 71
     1
 72
     0
 73
     1
 90
        0
 40
-0.6
 41
-30.0
 62
     5
 63
     7
 74
     0
 91
        4
 64
     7
 65
   257
 75
     1
175
     1
 42
1.0
 92
        8
 66
     7
 43
1.0
 76
     1
 77
     6
 78
     2
 67
     7
 79
     5
170
     0
171
     0
290
     0
174
     0
 93
        1
 44
0.0
173
     0
291
     1
 45
0.0
1001
ACAD
1000
AcDbSavedByObjectVersion
1070
     0
  0
VISUALSTYLE
  5
36
102
{ACAD_REACTORS
330
2A
102
}
102
{ACAD_XDICTIONARY
360
1D2
102
}
330
2A
100
AcDbVisualStyle
  2
Brighten
 70
    12
 71
     2
 72
     2
 73
     0
 90
        0
 40
-0.6
 41
-30.0
 62
     5
 63
     7
 74
     1
 91
        4
 64
     7
 65
   257
 75
     1
175
     1
 42
1.0
 92
        8
 66
     7
 43
1.0
 76
     1
 77
     6
 78
     2
 67
     7
 79
     5
170
     0
171
     0
290
     0
174
     0
 93
        1
 44
50.0
173
     0
291
     1
 45
0.0
1001
ACAD
1000
AcDbSavedByObjectVersion
1070
     0
  0
VISUALSTYLE
  5
3A
102
{ACAD_REACTORS
330
2A
102
}
102
{ACAD_XDICTIONARY
360
1DA
102
}
330
2A
100
AcDbVisualStyle
  2
ColorChange
 70
    16
 71
     2
 72
     2
 73
     3
 90
        0
 40
-0.6
 41
-30.0
 62
     5
 63
     8
 74
     1
 91
        4
 64
     7
 65
   257
 75
     1
175
     1
 42
1.0
 92
        8
 66
     8
 43
1.0
 76
     1
 77
     6
 78
     2
 67
     7
 79
     5
170
     0
171
     0
290
     0
174
     0
 93
        1
 44
0.0
173
     0
291
     1
 45
0.0
1001
ACAD
1000
AcDbSavedByObjectVersion
1070
     0
  0
VISUALSTYLE
  5
34
102
{ACAD_REACTORS
330
2A
102
}
102
{ACAD_XDICTIONARY
360
1CE
102
}
330
2A
100
AcDbVisualStyle
  2
Conceptual
 70
     9
 71
     3
 72
     2
 73
     0
 90
        0
 40
-0.6
 41
-30.0
 62
     5
 63
     7
 74
     2
 91
        2
 64
     7
 65
   257
 75
     1
175
     1
 42
40.0
 92
        8
 66
     7
 43
1.0
 76
     1
 77
     6
 78
     2
 67
     7
 79
     3
170
     0
171
     0
290
     0
174
     0
 93
        1
 44
0.0
173
     0
291
     0
 45
0.0
1001
ACAD
1000
AcDbSavedByObjectVersion
1070
     0
  0
VISUALSTYLE
  5
35
102
{ACAD_REACTORS
330
2A
102
}
102
{ACAD_XDICTIONARY
360
1D0
102
}
330
2A
100
AcDbVisualStyle
  2
Dim
 70
    11
 71
     2
 72
     2
 73
     0
 90
        0
 40
-0.6
 41
-30.0
 62
     5
 63
     7
 74
     1
 91
        4
 64
     7
 65
   257
 75
     1
175
     1
 42
1.0
 92
        8
 66
     7
 43
1.0
 76
     1
 77
     6
 78
     2
 67
     7
 79
     5
170
     0
171
     0
290
     0
174
     0
 93
        1
 44
-50.0
173
     0
291
     1
 45
0.0
1001
ACAD
1000
AcDbSavedByObjectVersion
1070
     0
  0
VISUALSTYLE
  5
39
102
{ACAD_REACTORS
330
2A
102
}
102
{ACAD_XDICTIONARY
360
1D8
102
}
330
2A
100
AcDbVisualStyle
  2
Facepattern
 70
    15
 71
     2
 72
     2
 73
     0
 90
        0
 40
-0.6
 41
-30.0
 62
     5
 63
     7
 74
     1
 91
        4
 64
     7
 65
   257
 75
     1
175
     1
 42
1.0
 92
        8
 66
     7
 43
1.0
 76
     1
 77
     6
 78
     2
 67
     7
 79
     5
170
     0
171
     0
290
     0
174
     0
 93
        1
 44
0.0
173
     0
291
     1
 45
0.0
1001
ACAD
1000
AcDbSavedByObjectVersion
1070
     0
  0
VISUALSTYLE
  5
2B
102
{ACAD_REACTORS
330
2A
102
}
102
{ACAD_XDICTIONARY
360
1BC
102
}
330
2A
100
AcDbVisualStyle
  2
Flat
 70
     0
 71
     2
 72
     1
 73
     1
 90
        2
 40
-0.6
 41
30.0
 62
     5
 63
     7
 74
     0
 91
        4
 64
     7
 65
   257
 75
     1
175
     1
 42
1.0
 92
        8
 66
     7
 43
1.0
 76
     1
 77
     6
 78
     2
 67
     7
 79
     5
170
     0
171
     0
290
     0
174
     0
 93
       13
 44
0.0
173
     0
291
     1
 45
0.0
1001
ACAD
1000
AcDbSavedByObjectVersion
1070
     0
  0
VISUALSTYLE
  5
2C
102
{ACAD_REACTORS
330
2A
102
}
102
{ACAD_XDICTIONARY
360
1BE
102
}
330
2A
100
AcDbVisualStyle
  2
FlatWithEdges
 70
     1
 71
     2
 72
     1
 73
     1
 90
        2
 40
-0.6
 41
30.0
 62
     5
 63
     7
 74
     1
 91
        4
 64
     7
 65
   257
 75
     1
175
     1
 42
1.0
 92
        0
 66
   257
 43
1.0
 76
     1
 77
     6
 78
     2
 67
     7
 79
     5
170
     0
171
     0
290
     0
174
     0
 93
       13
 44
0.0
173
     0
291
     1
 45
0.0
1001
ACAD
1000
AcDbSavedByObjectVersion
1070
     0
  0
VISUALSTYLE
  5
2D
102
{ACAD_REACTORS
330
2A
102
}
102
{ACAD_XDICTIONARY
360
1C0
102
}
330
2A
100
AcDbVisualStyle
  2
Gouraud
 70
     2
 71
     2
 72
     2
 73
     1
 90
        2
 40
-0.6
 41
30.0
 62
     5
 63
     7
 74
     0
 91
        4
 64
     7
 65
   257
 75
     1
175
     1
 42
1.0
 92
        0
 66
     7
 43
1.0
 76
     1
 77
     6
 78
     2
 67
     7
 79
     5
170
     0
171
     0
290
     0
174
     0
 93
       13
 44
0.0
173
     0
291
     1
 45
0.0
1001
ACAD
1000
AcDbSavedByObjectVersion
1070
     0
  0
VISUALSTYLE
  5
2E
102
{ACAD_REACTORS
330
2A
102
}
102
{ACAD_XDICTIONARY
360
1C2
102
}
330
2A
100
AcDbVisualStyle
  2
GouraudWithEdges
 70
     3
 71
     2
 72
     2
 73
     1
 90
        2
 40
-0.6
 41
30.0
 62
     5
 63
     7
 74
     1
 91
        4
 64
     7
 65
   257
 75
     1
175
     1
 42
1.0
 92
        0
 66
   257
 43
1.0
 76
     1
 77
     6
 78
     2
 67
     7
 79
     5
170
     0
171
     0
290
     0
174
     0
 93
       13
 44
0.0
173
     0
291
     1
 45
0.0
1001
ACAD
1000
AcDbSavedByObjectVersion
1070
     0
  0
VISUALSTYLE
  5
38
102
{ACAD_REACTORS
330
2A
102
}
102
{ACAD_XDICTIONARY
360
1D6
102
}
330
2A
100
AcDbVisualStyle
  2
Linepattern
 70
    14
 71
     2
 72
     2
 73
     0
 90
        0
 40
-0.6
 41
-30.0
 62
     5
 63
     7
 74
     1
 91
        4
 64
     7
 65
   257
 75
     7
175
     7
 42
1.0
 92
        8
 66
     7
 43
1.0
 76
     1
 77
     6
 78
     2
 67
     7
 79
     5
170
     0
171
     0
290
     0
174
     0
 93
        1
 44
0.0
173
     0
291
     1
 45
0.0
1001
ACAD
1000
AcDbSavedByObjectVersion
1070
     0
  0
VISUALSTYLE
  5
33
102
{ACAD_REACTORS
330
2A
102
}
102
{ACAD_XDICTIONARY
360
1CC
102
}
330
2A
100
AcDbVisualStyle
  2
Realistic
 70
     8
 71
     2
 72
     2
 73
     0
 90
        0
 40
-0.6
 41
-30.0
 62
     5
 63
     7
 74
     1
 91
        0
 64
     7
 65
   257
 75
     1
175
     1
 42
1.0
 92
        8
 66
     8
 43
1.0
 76
     1
 77
     6
 78
     2
 67
     7
 79
     5
170
     0
171
     0
290
     0
174
     0
 93
       13
 44
0.0
173
     0
291
     0
 45
0.0
1001
ACAD
1000
AcDbSavedByObjectVersion
1070
     0
  0
VISUALSTYLE
  5
37
102
{ACAD_REACTORS
330
2A
102
}
102
{ACAD_XDICTIONARY
360
1D4
102
}
330
2A
100
AcDbVisualStyle
  2
Thicken
 70
    13
 71
     2
 72
     2
 73
     0
 90
        0
 40
-0.6
 41
-30.0
 62
     5
 63
     7
 74
     1
 91
        4
 64
     7
 65
   257
 75
     1
175
     1
 42
1.0
 92
       12
 66
     7
 43
1.0
 76
     1
 77
     6
 78
     2
 67
     7
 79
     5
170
     0
171
     0
290
     0
174
     0
 93
        1
 44
0.0
173
     0
291
     1
 45
0.0
1001
ACAD
1000
AcDbSavedByObjectVersion
1070
     0
  0
DICTIONARYVAR
  5
1B9
102
{ACAD_REACTORS
330
1B6
102
}
330
1B6
100
DictionaryVariables
280
     0
  1
1:1
  0
DICTIONARYVAR
  5
1BA
102
{ACAD_REACTORS
330
1B6
102
}
330
1B6
100
DictionaryVariables
280
     0
  1
2
  0
DICTIONARYVAR
  5
1BB
102
{ACAD_REACTORS
330
1B6
102
}
330
1B6
100
DictionaryVariables
280
     0
  1
1
  0
DICTIONARY
  5
1DE
330
3D
100
AcDbDictionary
280
     1
281
     1
  3
ACAD_XREC_ROUNDTRIP
360
1DF
  0
DICTIONARY
  5
1DC
330
3C
100
AcDbDictionary
280
     1
281
     1
  3
ACAD_XREC_ROUNDTRIP
360
1DD
  0
DICTIONARY
  5
1E0
330
3E
100
AcDbDictionary
280
     1
281
     1
  3
ACAD_XREC_ROUNDTRIP
360
1E1
  0
DICTIONARY
  5
1C4
330
2F
100
AcDbDictionary
280
     1
281
     1
  3
ACAD_XREC_ROUNDTRIP
360
1C5
  0
DICTIONARY
  5
1C8
330
31
100
AcDbDictionary
280
     1
281
     1
  3
ACAD_XREC_ROUNDTRIP
360
1C9
  0
DICTIONARY
  5
1C6
330
30
100
AcDbDictionary
280
     1
281
     1
  3
ACAD_XREC_ROUNDTRIP
360
1C7
  0
DICTIONARY
  5
1CA
330
32
100
AcDbDictionary
280
     1
281
     1
  3
ACAD_XREC_ROUNDTRIP
360
1CB
  0
DICTIONARY
  5
1D2
330
36
100
AcDbDictionary
280
     1
281
     1
  3
ACAD_XREC_ROUNDTRIP
360
1D3
  0
DICTIONARY
  5
1DA
330
3A
100
AcDbDictionary
280
     1
281
     1
  3
ACAD_XREC_ROUNDTRIP
360
1DB
  0
DICTIONARY
  5
1CE
330
34
100
AcDbDictionary
280
     1
281
     1
  3
ACAD_XREC_ROUNDTRIP
360
1CF
  0
DICTIONARY
  5
1D0
330
35
100
AcDbDictionary
280
     1
281
     1
  3
ACAD_XREC_ROUNDTRIP
360
1D1
  0
DICTIONARY
  5
1D8
330
39
100
AcDbDictionary
280
     1
281
     1
  3
ACAD_XREC_ROUNDTRIP
360
1D9
  0
DICTIONARY
  5
1BC
330
2B
100
AcDbDictionary
280
     1
281
     1
  3
ACAD_XREC_ROUNDTRIP
360
1BD
  0
DICTIONARY
  5
1BE
330
2C
100
AcDbDictionary
280
     1
281
     1
  3
ACAD_XREC_ROUNDTRIP
360
1BF
  0
DICTIONARY
  5
1C0
330
2D
100
AcDbDictionary
280
     1
281
     1
  3
ACAD_XREC_ROUNDTRIP
360
1C1
  0
DICTIONARY
  5
1C2
330
2E
100
AcDbDictionary
280
     1
281
     1
  3
ACAD_XREC_ROUNDTRIP
360
1C3
  0
DICTIONARY
  5
1D6
330
38
100
AcDbDictionary
280
     1
281
     1
  3
ACAD_XREC_ROUNDTRIP
360
1D7
  0
DICTIONARY
  5
1CC
330
33
100
AcDbDictionary
280
     1
281
     1
  3
ACAD_XREC_ROUNDTRIP
360
1CD
  0
DICTIONARY
  5
1D4
330
37
100
AcDbDictionary
280
     1
281
     1
  3
ACAD_XREC_ROUNDTRIP
360
1D5
  0
XRECORD
  5
1DF
102
{ACAD_REACTORS
330
1DE
102
}
330
1DE
100
AcDbXrecord
280
     1
102
MATERIAL
148
0.0
149
0.0
149
0.0
 93
        0
 94
      127
282
     0
 72
     1
 77
     1
171
     1
175
     1
179
     1
273
     0
  0
XRECORD
  5
1DD
102
{ACAD_REACTORS
330
1DC
102
}
330
1DC
100
AcDbXrecord
280
     1
102
MATERIAL
148
0.0
149
0.0
149
0.0
 93
        0
 94
      127
282
     0
 72
     1
 77
     1
171
     1
175
     1
179
     1
273
     0
  0
XRECORD
  5
1E1
102
{ACAD_REACTORS
330
1E0
102
}
330
1E0
100
AcDbXrecord
280
     1
102
MATERIAL
148
0.0
149
0.0
149
0.0
 93
        0
 94
      127
282
     0
 72
     1
 77
     1
171
     1
175
     1
179
     1
273
     0
  0
XRECORD
  5
1C5
102
{ACAD_REACTORS
330
1C4
102
}
330
1C4
100
AcDbXrecord
280
     1
102
RTVSPropertyOp0
 70
     1
102
RTVSPropertyOp1
 70
     1
102
RTVSPropertyOp2
 70
     1
102
RTVSPropertyOp3
 70
     1
102
RTVSPropertyOp4
 70
     1
102
RTVSPropertyOp5
 70
     1
102
RTVSPropertyOp6
 70
     1
102
RTVSPropertyOp7
 70
     1
102
RTVSPropertyOp8
 70
     1
102
RTVSPropertyOp9
 70
     1
102
RTVSPropertyOp10
 70
     1
102
RTVSPropertyOp11
 70
     1
102
RTVSPropertyOp12
 70
     1
102
RTVSPropertyOp13
 70
     1
102
RTVSPropertyOp14
 70
     1
102
RTVSPropertyOp15
 70
     1
102
RTVSPropertyOp16
 70
     1
102
RTVSPropertyOp17
 70
     1
102
RTVSPropertyOp18
 70
     1
102
RTVSPropertyOp19
 70
     1
102
RTVSPropertyOp20
 70
     1
102
RTVSPropertyOp21
 70
     1
102
RTVSPropertyOp22
 70
     1
102
RTVSPropertyOp23
 70
     1
102
RTVSPropertyOp24
 70
     1
102
RTVSPropertyOp25
 70
     1
102
RTVSPropertyOp26
 70
     1
102
RTVSPropertyOp27
 70
     1
  0
XRECORD
  5
1C9
102
{ACAD_REACTORS
330
1C8
102
}
330
1C8
100
AcDbXrecord
280
     1
102
RTVSPropertyOp0
 70
     1
102
RTVSPropertyOp1
 70
     1
102
RTVSPropertyOp2
 70
     1
102
RTVSPropertyOp3
 70
     1
102
RTVSPropertyOp4
 70
     1
102
RTVSPropertyOp5
 70
     1
102
RTVSPropertyOp6
 70
     1
102
RTVSPropertyOp7
 70
     1
102
RTVSPropertyOp8
 70
     1
102
RTVSPropertyOp9
 70
     1
102
RTVSPropertyOp10
 70
     1
102
RTVSPropertyOp11
 70
     1
102
RTVSPropertyOp12
 70
     1
102
RTVSPropertyOp13
 70
     1
102
RTVSPropertyOp14
 70
     1
102
RTVSPropertyOp15
 70
     1
102
RTVSPropertyOp16
 70
     1
102
RTVSPropertyOp17
 70
     1
102
RTVSPropertyOp18
 70
     1
102
RTVSPropertyOp19
 70
     1
102
RTVSPropertyOp20
 70
     1
102
RTVSPropertyOp21
 70
     1
102
RTVSPropertyOp22
 70
     1
102
RTVSPropertyOp23
 70
     1
102
RTVSPropertyOp24
 70
     1
102
RTVSPropertyOp25
 70
     1
102
RTVSPropertyOp26
 70
     1
102
RTVSPropertyOp27
 70
     1
  0
XRECORD
  5
1C7
102
{ACAD_REACTORS
330
1C6
102
}
330
1C6
100
AcDbXrecord
280
     1
102
RTVSPropertyOp0
 70
     1
102
RTVSPropertyOp1
 70
     1
102
RTVSPropertyOp2
 70
     1
102
RTVSPropertyOp3
 70
     1
102
RTVSPropertyOp4
 70
     1
102
RTVSPropertyOp5
 70
     1
102
RTVSPropertyOp6
 70
     1
102
RTVSPropertyOp7
 70
     1
102
RTVSPropertyOp8
 70
     1
102
RTVSPropertyOp9
 70
     1
102
RTVSPropertyOp10
 70
     1
102
RTVSPropertyOp11
 70
     1
102
RTVSPropertyOp12
 70
     1
102
RTVSPropertyOp13
 70
     1
102
RTVSPropertyOp14
 70
     1
102
RTVSPropertyOp15
 70
     1
102
RTVSPropertyOp16
 70
     1
102
RTVSPropertyOp17
 70
     1
102
RTVSPropertyOp18
 70
     1
102
RTVSPropertyOp19
 70
     1
102
RTVSPropertyOp20
 70
     1
102
RTVSPropertyOp21
 70
     1
102
RTVSPropertyOp22
 70
     1
102
RTVSPropertyOp23
 70
     1
102
RTVSPropertyOp24
 70
     1
102
RTVSPropertyOp25
 70
     1
102
RTVSPropertyOp26
 70
     1
102
RTVSPropertyOp27
 70
     1
  0
XRECORD
  5
1CB
102
{ACAD_REACTORS
330
1CA
102
}
330
1CA
100
AcDbXrecord
280
     1
102
RTVSPropertyOp0
 70
     1
102
RTVSPropertyOp1
 70
     1
102
RTVSPropertyOp2
 70
     1
102
RTVSPropertyOp3
 70
     1
102
RTVSPropertyOp4
 70
     1
102
RTVSPropertyOp5
 70
     1
102
RTVSPropertyOp6
 70
     1
102
RTVSPropertyOp7
 70
     1
102
RTVSPropertyOp8
 70
     1
102
RTVSPropertyOp9
 70
     1
102
RTVSPropertyOp10
 70
     1
102
RTVSPropertyOp11
 70
     1
102
RTVSPropertyOp12
 70
     1
102
RTVSPropertyOp13
 70
     1
102
RTVSPropertyOp14
 70
     1
102
RTVSPropertyOp15
 70
     1
102
RTVSPropertyOp16
 70
     1
102
RTVSPropertyOp17
 70
     1
102
RTVSPropertyOp18
 70
     1
102
RTVSPropertyOp19
 70
     1
102
RTVSPropertyOp20
 70
     1
102
RTVSPropertyOp21
 70
     1
102
RTVSPropertyOp22
 70
     1
102
RTVSPropertyOp23
 70
     1
102
RTVSPropertyOp24
 70
     1
102
RTVSPropertyOp25
 70
     1
102
RTVSPropertyOp26
 70
     1
102
RTVSPropertyOp27
 70
     1
  0
XRECORD
  5
1D3
102
{ACAD_REACTORS
330
1D2
102
}
330
1D2
100
AcDbXrecord
280
     1
102
RTVSPropertyOp0
 70
     1
102
RTVSPropertyOp1
 70
     1
102
RTVSPropertyOp2
 70
     1
102
RTVSPropertyOp3
 70
     1
102
RTVSPropertyOp4
 70
     1
102
RTVSPropertyOp5
 70
     1
102
RTVSPropertyOp6
 70
     1
102
RTVSPropertyOp7
 70
     1
102
RTVSPropertyOp8
 70
     1
102
RTVSPropertyOp9
 70
     1
102
RTVSPropertyOp10
 70
     1
102
RTVSPropertyOp11
 70
     1
102
RTVSPropertyOp12
 70
     1
102
RTVSPropertyOp13
 70
     1
102
RTVSPropertyOp14
 70
     1
102
RTVSPropertyOp15
 70
     1
102
RTVSPropertyOp16
 70
     1
102
RTVSPropertyOp17
 70
     1
102
RTVSPropertyOp18
 70
     1
102
RTVSPropertyOp19
 70
     1
102
RTVSPropertyOp20
 70
     1
102
RTVSPropertyOp21
 70
     1
102
RTVSPropertyOp22
 70
     1
102
RTVSPropertyOp23
 70
     1
102
RTVSPropertyOp24
 70
     1
102
RTVSPropertyOp25
 70
     1
102
RTVSPropertyOp26
 70
     1
102
RTVSPropertyOp27
 70
     1
  0
XRECORD
  5
1DB
102
{ACAD_REACTORS
330
1DA
102
}
330
1DA
100
AcDbXrecord
280
     1
102
RTVSPropertyOp0
 70
     1
102
RTVSPropertyOp1
 70
     1
102
RTVSPropertyOp2
 70
     1
102
RTVSPropertyOp3
 70
     1
102
RTVSPropertyOp4
 70
     1
102
RTVSPropertyOp5
 70
     1
102
RTVSPropertyOp6
 70
     1
102
RTVSPropertyOp7
 70
     1
102
RTVSPropertyOp8
 70
     1
102
RTVSPropertyOp9
 70
     1
102
RTVSPropertyOp10
 70
     1
102
RTVSPropertyOp11
 70
     1
102
RTVSPropertyOp12
 70
     1
102
RTVSPropertyOp13
 70
     1
102
RTVSPropertyOp14
 70
     1
102
RTVSPropertyOp15
 70
     1
102
RTVSPropertyOp16
 70
     1
102
RTVSPropertyOp17
 70
     1
102
RTVSPropertyOp18
 70
     1
102
RTVSPropertyOp19
 70
     1
102
RTVSPropertyOp20
 70
     1
102
RTVSPropertyOp21
 70
     1
102
RTVSPropertyOp22
 70
     1
102
RTVSPropertyOp23
 70
     1
102
RTVSPropertyOp24
 70
     1
102
RTVSPropertyOp25
 70
     1
102
RTVSPropertyOp26
 70
     1
102
RTVSPropertyOp27
 70
     1
  0
XRECORD
  5
1CF
102
{ACAD_REACTORS
330
1CE
102
}
330
1CE
100
AcDbXrecord
280
     1
102
RTVSPropertyOp0
 70
     1
102
RTVSPropertyOp1
 70
     1
102
RTVSPropertyOp2
 70
     1
102
RTVSPropertyOp3
 70
     1
102
RTVSPropertyOp4
 70
     1
102
RTVSPropertyOp5
 70
     1
102
RTVSPropertyOp6
 70
     1
102
RTVSPropertyOp7
 70
     1
102
RTVSPropertyOp8
 70
     1
102
RTVSPropertyOp9
 70
     1
102
RTVSPropertyOp10
 70
     1
102
RTVSPropertyOp11
 70
     1
102
RTVSPropertyOp12
 70
     1
102
RTVSPropertyOp13
 70
     1
102
RTVSPropertyOp14
 70
     1
102
RTVSPropertyOp15
 70
     1
102
RTVSPropertyOp16
 70
     1
102
RTVSPropertyOp17
 70
     1
102
RTVSPropertyOp18
 70
     1
102
RTVSPropertyOp19
 70
     1
102
RTVSPropertyOp20
 70
     1
102
RTVSPropertyOp21
 70
     1
102
RTVSPropertyOp22
 70
     1
102
RTVSPropertyOp23
 70
     1
102
RTVSPropertyOp24
 70
     1
102
RTVSPropertyOp25
 70
     1
102
RTVSPropertyOp26
 70
     1
102
RTVSPropertyOp27
 70
     1
  0
XRECORD
  5
1D1
102
{ACAD_REACTORS
330
1D0
102
}
330
1D0
100
AcDbXrecord
280
     1
102
RTVSPropertyOp0
 70
     1
102
RTVSPropertyOp1
 70
     1
102
RTVSPropertyOp2
 70
     1
102
RTVSPropertyOp3
 70
     1
102
RTVSPropertyOp4
 70
     1
102
RTVSPropertyOp5
 70
     1
102
RTVSPropertyOp6
 70
     1
102
RTVSPropertyOp7
 70
     1
102
RTVSPropertyOp8
 70
     1
102
RTVSPropertyOp9
 70
     1
102
RTVSPropertyOp10
 70
     1
102
RTVSPropertyOp11
 70
     1
102
RTVSPropertyOp12
 70
     1
102
RTVSPropertyOp13
 70
     1
102
RTVSPropertyOp14
 70
     1
102
RTVSPropertyOp15
 70
     1
102
RTVSPropertyOp16
 70
     1
102
RTVSPropertyOp17
 70
     1
102
RTVSPropertyOp18
 70
     1
102
RTVSPropertyOp19
 70
     1
102
RTVSPropertyOp20
 70
     1
102
RTVSPropertyOp21
 70
     1
102
RTVSPropertyOp22
 70
     1
102
RTVSPropertyOp23
 70
     1
102
RTVSPropertyOp24
 70
     1
102
RTVSPropertyOp25
 70
     1
102
RTVSPropertyOp26
 70
     1
102
RTVSPropertyOp27
 70
     1
  0
XRECORD
  5
1D9
102
{ACAD_REACTORS
330
1D8
102
}
330
1D8
100
AcDbXrecord
280
     1
102
RTVSPropertyOp0
 70
     1
102
RTVSPropertyOp1
 70
     1
102
RTVSPropertyOp2
 70
     1
102
RTVSPropertyOp3
 70
     1
102
RTVSPropertyOp4
 70
     1
102
RTVSPropertyOp5
 70
     1
102
RTVSPropertyOp6
 70
     1
102
RTVSPropertyOp7
 70
     1
102
RTVSPropertyOp8
 70
     1
102
RTVSPropertyOp9
 70
     1
102
RTVSPropertyOp10
 70
     1
102
RTVSPropertyOp11
 70
     1
102
RTVSPropertyOp12
 70
     1
102
RTVSPropertyOp13
 70
     1
102
RTVSPropertyOp14
 70
     1
102
RTVSPropertyOp15
 70
     1
102
RTVSPropertyOp16
 70
     1
102
RTVSPropertyOp17
 70
     1
102
RTVSPropertyOp18
 70
     1
102
RTVSPropertyOp19
 70
     1
102
RTVSPropertyOp20
 70
     1
102
RTVSPropertyOp21
 70
     1
102
RTVSPropertyOp22
 70
     1
102
RTVSPropertyOp23
 70
     1
102
RTVSPropertyOp24
 70
     1
102
RTVSPropertyOp25
 70
     1
102
RTVSPropertyOp26
 70
     1
102
RTVSPropertyOp27
 70
     1
  0
XRECORD
  5
1BD
102
{ACAD_REACTORS
330
1BC
102
}
330
1BC
100
AcDbXrecord
280
     1
102
RTVSPropertyOp0
 70
     1
102
RTVSPropertyOp1
 70
     1
102
RTVSPropertyOp2
 70
     1
102
RTVSPropertyOp3
 70
     1
102
RTVSPropertyOp4
 70
     1
102
RTVSPropertyOp5
 70
     1
102
RTVSPropertyOp6
 70
     1
102
RTVSPropertyOp7
 70
     1
102
RTVSPropertyOp8
 70
     1
102
RTVSPropertyOp9
 70
     1
102
RTVSPropertyOp10
 70
     1
102
RTVSPropertyOp11
 70
     1
102
RTVSPropertyOp12
 70
     1
102
RTVSPropertyOp13
 70
     1
102
RTVSPropertyOp14
 70
     1
102
RTVSPropertyOp15
 70
     1
102
RTVSPropertyOp16
 70
     1
102
RTVSPropertyOp17
 70
     1
102
RTVSPropertyOp18
 70
     1
102
RTVSPropertyOp19
 70
     1
102
RTVSPropertyOp20
 70
     1
102
RTVSPropertyOp21
 70
     1
102
RTVSPropertyOp22
 70
     1
102
RTVSPropertyOp23
 70
     1
102
RTVSPropertyOp24
 70
     1
102
RTVSPropertyOp25
 70
     1
102
RTVSPropertyOp26
 70
     1
102
RTVSPropertyOp27
 70
     1
  0
XRECORD
  5
1BF
102
{ACAD_REACTORS
330
1BE
102
}
330
1BE
100
AcDbXrecord
280
     1
102
RTVSPropertyOp0
 70
     1
102
RTVSPropertyOp1
 70
     1
102
RTVSPropertyOp2
 70
     1
102
RTVSPropertyOp3
 70
     1
102
RTVSPropertyOp4
 70
     1
102
RTVSPropertyOp5
 70
     1
102
RTVSPropertyOp6
 70
     1
102
RTVSPropertyOp7
 70
     1
102
RTVSPropertyOp8
 70
     1
102
RTVSPropertyOp9
 70
     1
102
RTVSPropertyOp10
 70
     1
102
RTVSPropertyOp11
 70
     1
102
RTVSPropertyOp12
 70
     1
102
RTVSPropertyOp13
 70
     1
102
RTVSPropertyOp14
 70
     1
102
RTVSPropertyOp15
 70
     1
102
RTVSPropertyOp16
 70
     1
102
RTVSPropertyOp17
 70
     1
102
RTVSPropertyOp18
 70
     1
102
RTVSPropertyOp19
 70
     1
102
RTVSPropertyOp20
 70
     1
102
RTVSPropertyOp21
 70
     1
102
RTVSPropertyOp22
 70
     1
102
RTVSPropertyOp23
 70
     1
102
RTVSPropertyOp24
 70
     1
102
RTVSPropertyOp25
 70
     1
102
RTVSPropertyOp26
 70
     1
102
RTVSPropertyOp27
 70
     1
  0
XRECORD
  5
1C1
102
{ACAD_REACTORS
330
1C0
102
}
330
1C0
100
AcDbXrecord
280
     1
102
RTVSPropertyOp0
 70
     1
102
RTVSPropertyOp1
 70
     1
102
RTVSPropertyOp2
 70
     1
102
RTVSPropertyOp3
 70
     1
102
RTVSPropertyOp4
 70
     1
102
RTVSPropertyOp5
 70
     1
102
RTVSPropertyOp6
 70
     1
102
RTVSPropertyOp7
 70
     1
102
RTVSPropertyOp8
 70
     1
102
RTVSPropertyOp9
 70
     1
102
RTVSPropertyOp10
 70
     1
102
RTVSPropertyOp11
 70
     1
102
RTVSPropertyOp12
 70
     1
102
RTVSPropertyOp13
 70
     1
102
RTVSPropertyOp14
 70
     1
102
RTVSPropertyOp15
 70
     1
102
RTVSPropertyOp16
 70
     1
102
RTVSPropertyOp17
 70
     1
102
RTVSPropertyOp18
 70
     1
102
RTVSPropertyOp19
 70
     1
102
RTVSPropertyOp20
 70
     1
102
RTVSPropertyOp21
 70
     1
102
RTVSPropertyOp22
 70
     1
102
RTVSPropertyOp23
 70
     1
102
RTVSPropertyOp24
 70
     1
102
RTVSPropertyOp25
 70
     1
102
RTVSPropertyOp26
 70
     1
102
RTVSPropertyOp27
 70
     1
  0
XRECORD
  5
1C3
102
{ACAD_REACTORS
330
1C2
102
}
330
1C2
100
AcDbXrecord
280
     1
102
RTVSPropertyOp0
 70
     1
102
RTVSPropertyOp1
 70
     1
102
RTVSPropertyOp2
 70
     1
102
RTVSPropertyOp3
 70
     1
102
RTVSPropertyOp4
 70
     1
102
RTVSPropertyOp5
 70
     1
102
RTVSPropertyOp6
 70
     1
102
RTVSPropertyOp7
 70
     1
102
RTVSPropertyOp8
 70
     1
102
RTVSPropertyOp9
 70
     1
102
RTVSPropertyOp10
 70
     1
102
RTVSPropertyOp11
 70
     1
102
RTVSPropertyOp12
 70
     1
102
RTVSPropertyOp13
 70
     1
102
RTVSPropertyOp14
 70
     1
102
RTVSPropertyOp15
 70
     1
102
RTVSPropertyOp16
 70
     1
102
RTVSPropertyOp17
 70
     1
102
RTVSPropertyOp18
 70
     1
102
RTVSPropertyOp19
 70
     1
102
RTVSPropertyOp20
 70
     1
102
RTVSPropertyOp21
 70
     1
102
RTVSPropertyOp22
 70
     1
102
RTVSPropertyOp23
 70
     1
102
RTVSPropertyOp24
 70
     1
102
RTVSPropertyOp25
 70
     1
102
RTVSPropertyOp26
 70
     1
102
RTVSPropertyOp27
 70
     1
  0
XRECORD
  5
1D7
102
{ACAD_REACTORS
330
1D6
102
}
330
1D6
100
AcDbXrecord
280
     1
102
RTVSPropertyOp0
 70
     1
102
RTVSPropertyOp1
 70
     1
102
RTVSPropertyOp2
 70
     1
102
RTVSPropertyOp3
 70
     1
102
RTVSPropertyOp4
 70
     1
102
RTVSPropertyOp5
 70
     1
102
RTVSPropertyOp6
 70
     1
102
RTVSPropertyOp7
 70
     1
102
RTVSPropertyOp8
 70
     1
102
RTVSPropertyOp9
 70
     1
102
RTVSPropertyOp10
 70
     1
102
RTVSPropertyOp11
 70
     1
102
RTVSPropertyOp12
 70
     1
102
RTVSPropertyOp13
 70
     1
102
RTVSPropertyOp14
 70
     1
102
RTVSPropertyOp15
 70
     1
102
RTVSPropertyOp16
 70
     1
102
RTVSPropertyOp17
 70
     1
102
RTVSPropertyOp18
 70
     1
102
RTVSPropertyOp19
 70
     1
102
RTVSPropertyOp20
 70
     1
102
RTVSPropertyOp21
 70
     1
102
RTVSPropertyOp22
 70
     1
102
RTVSPropertyOp23
 70
     1
102
RTVSPropertyOp24
 70
     1
102
RTVSPropertyOp25
 70
     1
102
RTVSPropertyOp26
 70
     1
102
RTVSPropertyOp27
 70
     1
  0
XRECORD
  5
1CD
102
{ACAD_REACTORS
330
1CC
102
}
330
1CC
100
AcDbXrecord
280
     1
102
RTVSPropertyOp0
 70
     1
102
RTVSPropertyOp1
 70
     1
102
RTVSPropertyOp2
 70
     1
102
RTVSPropertyOp3
 70
     1
102
RTVSPropertyOp4
 70
     1
102
RTVSPropertyOp5
 70
     1
102
RTVSPropertyOp6
 70
     1
102
RTVSPropertyOp7
 70
     1
102
RTVSPropertyOp8
 70
     1
102
RTVSPropertyOp9
 70
     1
102
RTVSPropertyOp10
 70
     1
102
RTVSPropertyOp11
 70
     1
102
RTVSPropertyOp12
 70
     1
102
RTVSPropertyOp13
 70
     1
102
RTVSPropertyOp14
 70
     1
102
RTVSPropertyOp15
 70
     1
102
RTVSPropertyOp16
 70
     1
102
RTVSPropertyOp17
 70
     1
102
RTVSPropertyOp18
 70
     1
102
RTVSPropertyOp19
 70
     1
102
RTVSPropertyOp20
 70
     1
102
RTVSPropertyOp21
 70
     1
102
RTVSPropertyOp22
 70
     1
102
RTVSPropertyOp23
 70
     1
102
RTVSPropertyOp24
 70
     1
102
RTVSPropertyOp25
 70
     1
102
RTVSPropertyOp26
 70
     1
102
RTVSPropertyOp27
 70
     1
  0
XRECORD
  5
1D5
102
{ACAD_REACTORS
330
1D4
102
}
330
1D4
100
AcDbXrecord
280
     1
102
RTVSPropertyOp0
 70
     1
102
RTVSPropertyOp1
 70
     1
102
RTVSPropertyOp2
 70
     1
102
RTVSPropertyOp3
 70
     1
102
RTVSPropertyOp4
 70
     1
102
RTVSPropertyOp5
 70
     1
102
RTVSPropertyOp6
 70
     1
102
RTVSPropertyOp7
 70
     1
102
RTVSPropertyOp8
 70
     1
102
RTVSPropertyOp9
 70
     1
102
RTVSPropertyOp10
 70
     1
102
RTVSPropertyOp11
 70
     1
102
RTVSPropertyOp12
 70
     1
102
RTVSPropertyOp13
 70
     1
102
RTVSPropertyOp14
 70
     1
102
RTVSPropertyOp15
 70
     1
102
RTVSPropertyOp16
 70
     1
102
RTVSPropertyOp17
 70
     1
102
RTVSPropertyOp18
 70
     1
102
RTVSPropertyOp19
 70
     1
102
RTVSPropertyOp20
 70
     1
102
RTVSPropertyOp21
 70
     1
102
RTVSPropertyOp22
 70
     1
102
RTVSPropertyOp23
 70
     1
102
RTVSPropertyOp24
 70
     1
102
RTVSPropertyOp25
 70
     1
102
RTVSPropertyOp26
 70
     1
102
RTVSPropertyOp27
 70
     1
  0
ENDSEC
  0
EOF
