  0
SECTION
  2
HEADER
  9
$ACADVER
  1
AC1015
  9
$ACADMAINTVER
 70
     6
  9
$DWGCODEPAGE
  3
ANSI_932
  9
$INSBASE
 10
0.0
 20
0.0
 30
0.0
  9
$EXTMIN
 10
6.7290656399124
 20
5.47764260205606
 30
0.0
  9
$EXTMAX
 10
151.802161873992
 20
157.7138288335128
 30
0.0
  9
$LIMMIN
 10
0.0
 20
0.0
  9
$LIMMAX
 10
12.0
 20
9.0
  9
$ORTHOMODE
 70
     0
  9
$REGENMODE
 70
     1
  9
$FILLMODE
 70
     1
  9
$QTEXTMODE
 70
     0
  9
$MIRRTEXT
 70
     1
  9
$LTSCALE
 40
1.0
  9
$ATTMODE
 70
     1
  9
$TEXTSIZE
 40
0.2
  9
$TRACEWID
 40
0.05
  9
$TEXTSTYLE
  7
Standard
  9
$CLAYER
  8
0
  9
$CELTYPE
  6
ByLayer
  9
$CECOLOR
 62
   256
  9
$CELTSCALE
 40
1.0
  9
$DISPSILH
 70
     0
  9
$DIMSCALE
 40
1.0
  9
$DIMASZ
 40
0.18
  9
$DIMEXO
 40
0.0625
  9
$DIMDLI
 40
0.38
  9
$DIMRND
 40
0.0
  9
$DIMDLE
 40
0.0
  9
$DIMEXE
 40
0.18
  9
$DIMTP
 40
0.0
  9
$DIMTM
 40
0.0
  9
$DIMTXT
 40
0.18
  9
$DIMCEN
 40
0.09
  9
$DIMTSZ
 40
0.0
  9
$DIMTOL
 70
     0
  9
$DIMLIM
 70
     0
  9
$DIMTIH
 70
     1
  9
$DIMTOH
 70
     1
  9
$DIMSE1
 70
     0
  9
$DIMSE2
 70
     0
  9
$DIMTAD
 70
     0
  9
$DIMZIN
 70
     0
  9
$DIMBLK
  1

  9
$DIMASO
 70
     1
  9
$DIMSHO
 70
     1
  9
$DIMPOST
  1

  9
$DIMAPOST
  1

  9
$DIMALT
 70
     0
  9
$DIMALTD
 70
     2
  9
$DIMALTF
 40
25.4
  9
$DIMLFAC
 40
1.0
  9
$DIMTOFL
 70
     0
  9
$DIMTVP
 40
0.0
  9
$DIMTIX
 70
     0
  9
$DIMSOXD
 70
     0
  9
$DIMSAH
 70
     0
  9
$DIMBLK1
  1

  9
$DIMBLK2
  1

  9
$DIMSTYLE
  2
Standard
  9
$DIMCLRD
 70
     0
  9
$DIMCLRE
 70
     0
  9
$DIMCLRT
 70
     0
  9
$DIMTFAC
 40
1.0
  9
$DIMGAP
 40
0.09
  9
$DIMJUST
 70
     0
  9
$DIMSD1
 70
     0
  9
$DIMSD2
 70
     0
  9
$DIMTOLJ
 70
     1
  9
$DIMTZIN
 70
     0
  9
$DIMALTZ
 70
     0
  9
$DIMALTTZ
 70
     0
  9
$DIMUPT
 70
     0
  9
$DIMDEC
 70
     4
  9
$DIMTDEC
 70
     4
  9
$DIMALTU
 70
     2
  9
$DIMALTTD
 70
     2
  9
$DIMTXSTY
  7
Standard
  9
$DIMAUNIT
 70
     0
  9
$DIMADEC
 70
     0
  9
$DIMALTRND
 40
0.0
  9
$DIMAZIN
 70
     0
  9
$DIMDSEP
 70
    46
  9
$DIMATFIT
 70
     3
  9
$DIMFRAC
 70
     0
  9
$DIMLDRBLK
  1

  9
$DIMLUNIT
 70
     2
  9
$DIMLWD
 70
    -2
  9
$DIMLWE
 70
    -2
  9
$DIMTMOVE
 70
     0
  9
$LUNITS
 70
     2
  9
$LUPREC
 70
     4
  9
$SKETCHINC
 40
0.1
  9
$FILLETRAD
 40
0.5
  9
$AUNITS
 70
     0
  9
$AUPREC
 70
     0
  9
$MENU
  1
.
  9
$ELEVATION
 40
0.0
  9
$PELEVATION
 40
0.0
  9
$THICKNESS
 40
0.0
  9
$LIMCHECK
 70
     0
  9
$CHAMFERA
 40
0.5
  9
$CHAMFERB
 40
0.5
  9
$CHAMFERC
 40
1.0
  9
$CHAMFERD
 40
0.0
  9
$SKPOLY
 70
     0
  9
$TDCREATE
 40
2458179.470912014
  9
$TDUCREATE
 40
2458179.095912014
  9
$TDUPDATE
 40
2458179.470912025
  9
$TDUUPDATE
 40
2458179.095912025
  9
$TDINDWG
 40
0.0000000116
  9
$TDUSRTIMER
 40
0.0000000116
  9
$USRTIMER
 70
     1
  9
$ANGBASE
 50
0.0
  9
$ANGDIR
 70
     0
  9
$PDMODE
 70
     0
  9
$PDSIZE
 40
0.0
  9
$PLINEWID
 40
0.0
  9
$SPLFRAME
 70
     0
  9
$SPLINETYPE
 70
     6
  9
$SPLINESEGS
 70
     8
  9
$HANDSEED
  5
2CF
  9
$SURFTAB1
 70
     6
  9
$SURFTAB2
 70
     6
  9
$SURFTYPE
 70
     6
  9
$SURFU
 70
     6
  9
$SURFV
 70
     6
  9
$UCSBASE
  2

  9
$UCSNAME
  2

  9
$UCSORG
 10
0.0
 20
0.0
 30
0.0
  9
$UCSXDIR
 10
1.0
 20
0.0
 30
0.0
  9
$UCSYDIR
 10
0.0
 20
1.0
 30
0.0
  9
$UCSORTHOREF
  2

  9
$UCSORTHOVIEW
 70
     0
  9
$UCSORGTOP
 10
0.0
 20
0.0
 30
0.0
  9
$UCSORGBOTTOM
 10
0.0
 20
0.0
 30
0.0
  9
$UCSORGLEFT
 10
0.0
 20
0.0
 30
0.0
  9
$UCSORGRIGHT
 10
0.0
 20
0.0
 30
0.0
  9
$UCSORGFRONT
 10
0.0
 20
0.0
 30
0.0
  9
$UCSORGBACK
 10
0.0
 20
0.0
 30
0.0
  9
$PUCSBASE
  2

  9
$PUCSNAME
  2

  9
$PUCSORG
 10
0.0
 20
0.0
 30
0.0
  9
$PUCSXDIR
 10
1.0
 20
0.0
 30
0.0
  9
$PUCSYDIR
 10
0.0
 20
1.0
 30
0.0
  9
$PUCSORTHOREF
  2

  9
$PUCSORTHOVIEW
 70
     0
  9
$PUCSORGTOP
 10
0.0
 20
0.0
 30
0.0
  9
$PUCSORGBOTTOM
 10
0.0
 20
0.0
 30
0.0
  9
$PUCSORGLEFT
 10
0.0
 20
0.0
 30
0.0
  9
$PUCSORGRIGHT
 10
0.0
 20
0.0
 30
0.0
  9
$PUCSORGFRONT
 10
0.0
 20
0.0
 30
0.0
  9
$PUCSORGBACK
 10
0.0
 20
0.0
 30
0.0
  9
$USERI1
 70
     0
  9
$USERI2
 70
     0
  9
$USERI3
 70
     0
  9
$USERI4
 70
     0
  9
$USERI5
 70
     0
  9
$USERR1
 40
18.0
  9
$USERR2
 40
0.0
  9
$USERR3
 40
0.0
  9
$USERR4
 40
0.0
  9
$USERR5
 40
0.0
  9
$WORLDVIEW
 70
     1
  9
$SHADEDGE
 70
     3
  9
$SHADEDIF
 70
    70
  9
$TILEMODE
 70
     1
  9
$MAXACTVP
 70
    64
  9
$PINSBASE
 10
0.0
 20
0.0
 30
0.0
  9
$PLIMCHECK
 70
     0
  9
$PEXTMIN
 10
1.00000000000000E+20
 20
1.00000000000000E+20
 30
1.00000000000000E+20
  9
$PEXTMAX
 10
-1.00000000000000E+20
 20
-1.00000000000000E+20
 30
-1.00000000000000E+20
  9
$PLIMMIN
 10
0.0
 20
0.0
  9
$PLIMMAX
 10
12.0
 20
9.0
  9
$UNITMODE
 70
     0
  9
$VISRETAIN
 70
     1
  9
$PLINEGEN
 70
     0
  9
$PSLTSCALE
 70
     1
  9
$TREEDEPTH
 70
  3020
  9
$CMLSTYLE
  2
Standard
  9
$CMLJUST
 70
     0
  9
$CMLSCALE
 40
1.0
  9
$PROXYGRAPHICS
 70
     1
  9
$MEASUREMENT
 70
     1
  9
$CELWEIGHT
370
    -1
  9
$ENDCAPS
280
     0
  9
$JOINSTYLE
280
     0
  9
$LWDISPLAY
290
     0
  9
$INSUNITS
 70
     1
  9
$HYPERLINKBASE
  1

  9
$STYLESHEET
  1

  9
$XEDIT
290
     1
  9
$CEPSNTYPE
380
     0
  9
$PSTYLEMODE
290
     1
  9
$FINGERPRINTGUID
  2
{4F28B7A5-E3F4-4378-BAB8-78ACE11703ED}
  9
$VERSIONGUID
  2
{FAEB1C32-E019-11D5-929B-00C0DF256EC4}
  9
$EXTNAMES
290
     1
  9
$PSVPSCALE
 40
0.0
  9
$OLESTARTUP
290
     0
  0
ENDSEC
  0
SECTION
  2
CLASSES
  0
CLASS
  1
ACDBDICTIONARYWDFLT
  2
AcDbDictionaryWithDefault
  3
ObjectDBX Classes
 90
        0
280
     0
281
     0
  0
CLASS
  1
VISUALSTYLE
  2
AcDbVisualStyle
  3
ObjectDBX Classes
 90
     4095
280
     0
281
     0
  0
CLASS
  1
MATERIAL
  2
AcDbMaterial
  3
ObjectDBX Classes
 90
     1153
280
     0
281
     0
  0
CLASS
  1

  2
exOdDbCircle
  3

 90
        0
280
     0
281
     1
  0
CLASS
  1

  2
exOdDbSpline
  3

 90
        0
280
     0
281
     1
  0
CLASS
  1

  2
exOdDbPolyline
  3

 90
        0
280
     0
281
     1
  0
CLASS
  1
DICTIONARYVAR
  2
AcDbDictionaryVar
  3
ObjectDBX Classes
 90
        0
280
     0
281
     0
  0
CLASS
  1
ACDBPLACEHOLDER
  2
AcDbPlaceHolder
  3
ObjectDBX Classes
 90
        0
280
     0
281
     0
  0
CLASS
  1
LAYOUT
  2
AcDbLayout
  3
ObjectDBX Classes
 90
        0
280
     0
281
     0
  0
ENDSEC
  0
SECTION
  2
TABLES
  0
TABLE
  2
VPORT
  5
8
330
0
100
AcDbSymbolTable
 70
     1
  0
VPORT
  5
29
330
8
100
AcDbSymbolTableRecord
100
AcDbViewportTableRecord
  2
*Active
 70
     0
 10
0.0
 20
0.0
 11
1.0
 21
1.0
 12
79.26561375695219
 22
81.59573571778442
 13
0.0
 23
0.0
 14
0.5
 24
0.5
 15
0.5
 25
0.5
 16
0.0
 26
0.0
 36
1.0
 17
0.0
 27
0.0
 37
0.0
 40
167.4598048546024
 41
1.60267857142857
 42
50.0
 43
0.0
 44
0.0
 50
0.0
 51
0.0
 71
     0
 72
   100
 73
     1
 74
     3
 75
     0
 76
     0
 77
     0
 78
     0
281
     0
 65
     1
110
0.0
120
0.0
130
0.0
111
1.0
121
0.0
131
0.0
112
0.0
122
1.0
132
0.0
 79
     0
146
0.0
  0
ENDTAB
  0
TABLE
  2
LTYPE
  5
5
330
0
100
AcDbSymbolTable
 70
     8
  0
LTYPE
  5
14
330
5
100
AcDbSymbolTableRecord
100
AcDbLinetypeTableRecord
  2
ByBlock
 70
     0
  3

 72
    65
 73
     0
 40
0.0
  0
LTYPE
  5
15
330
5
100
AcDbSymbolTableRecord
100
AcDbLinetypeTableRecord
  2
ByLayer
 70
     0
  3

 72
    65
 73
     0
 40
0.0
  0
LTYPE
  5
16
330
5
100
AcDbSymbolTableRecord
100
AcDbLinetypeTableRecord
  2
Continuous
 70
     0
  3
Solid line
 72
    65
 73
     0
 40
0.0
  0
LTYPE
  5
3F
330
5
100
AcDbSymbolTableRecord
100
AcDbLinetypeTableRecord
  2
DASHED
 70
     0
  3
Dashed
 72
    65
 73
     2
 40
15.0
 49
7.0
 74
     0
 49
-8.0
 74
     0
  0
LTYPE
  5
40
330
5
100
AcDbSymbolTableRecord
100
AcDbLinetypeTableRecord
  2
DOTTED
 70
     0
  3
Dotted
 72
    65
 73
     2
 40
1.0
 49
0.0
 74
     0
 49
-1.0
 74
     0
  0
LTYPE
  5
41
330
5
100
AcDbSymbolTableRecord
100
AcDbLinetypeTableRecord
  2
DOT_CENTER
 70
     0
  3
Dot_Center
 72
    65
 73
     4
 40
14.0
 49
12.0
 74
     0
 49
-1.0
 74
     0
 49
0.0
 74
     0
 49
-1.0
 74
     0
  0
LTYPE
  5
42
330
5
100
AcDbSymbolTableRecord
100
AcDbLinetypeTableRecord
  2
LONG_DASHED
 70
     0
  3
Long_Dashed
 72
    65
 73
     2
 40
15.0
 49
10.0
 74
     0
 49
-5.0
 74
     0
  0
LTYPE
  5
43
330
5
100
AcDbSymbolTableRecord
100
AcDbLinetypeTableRecord
  2
DASH_CENTER
 70
     0
  3
Dash_Center
 72
    65
 73
     4
 40
14.0
 49
11.0
 74
     0
 49
-1.0
 74
     0
 49
1.0
 74
     0
 49
-1.0
 74
     0
  0
LTYPE
  5
44
330
5
100
AcDbSymbolTableRecord
100
AcDbLinetypeTableRecord
  2
PHANTOM
 70
     0
  3
Phantom
 72
    65
 73
     6
 40
13.0
 49
10.0
 74
     0
 49
-1.0
 74
     0
 49
0.0
 74
     0
 49
-1.0
 74
     0
 49
0.0
 74
     0
 49
-1.0
 74
     0
  0
LTYPE
  5
45
330
5
100
AcDbSymbolTableRecord
100
AcDbLinetypeTableRecord
  2
CENTER_DASH_DASH
 70
     0
  3
Center_Dash_Dash
 72
    65
 73
     6
 40
14.0
 49
9.0
 74
     0
 49
-1.0
 74
     0
 49
1.0
 74
     0
 49
-1.0
 74
     0
 49
1.0
 74
     0
 49
-1.0
 74
     0
  0
ENDTAB
  0
TABLE
  2
LAYER
  5
2
330
0
100
AcDbSymbolTable
 70
     6
  0
LAYER
  5
10
330
2
100
AcDbSymbolTableRecord
100
AcDbLayerTableRecord
  2
0
 70
     0
 62
     7
  6
Continuous
370
    -3
390
F
  0
LAYER
  5
46
330
2
100
AcDbSymbolTableRecord
100
AcDbLayerTableRecord
  2
1
 70
     0
 62
     7
  6
Continuous
370
    -3
390
F
  0
LAYER
  5
47
330
2
100
AcDbSymbolTableRecord
100
AcDbLayerTableRecord
  2
100
 70
     0
 62
     7
  6
Continuous
370
    -3
390
F
  0
LAYER
  5
48
330
2
100
AcDbSymbolTableRecord
100
AcDbLayerTableRecord
  2
2
 70
     0
 62
     7
  6
Continuous
370
    -3
390
F
  0
LAYER
  5
49
330
2
100
AcDbSymbolTableRecord
100
AcDbLayerTableRecord
  2
3
 70
     0
 62
     7
  6
Continuous
370
    -3
390
F
  0
LAYER
  5
4A
330
2
100
AcDbSymbolTableRecord
100
AcDbLayerTableRecord
  2
4
 70
     0
 62
     7
  6
Continuous
370
    -3
390
F
  0
ENDTAB
  0
TABLE
  2
STYLE
  5
3
330
0
100
AcDbSymbolTable
 70
     1
  0
STYLE
  5
11
330
3
100
AcDbSymbolTableRecord
100
AcDbTextStyleTableRecord
  2
Standard
 70
     0
 40
0.0
 41
1.0
 50
0.0
 71
     0
 42
0.2
  3
txt
  4

  0
ENDTAB
  0
TABLE
  2
VIEW
  5
6
330
0
100
AcDbSymbolTable
 70
     0
  0
ENDTAB
  0
TABLE
  2
UCS
  5
7
330
0
100
AcDbSymbolTable
 70
     0
  0
ENDTAB
  0
TABLE
  2
APPID
  5
9
330
0
100
AcDbSymbolTable
 70
     1
  0
APPID
  5
12
330
9
100
AcDbSymbolTableRecord
100
AcDbRegAppTableRecord
  2
ACAD
 70
     0
  0
ENDTAB
  0
TABLE
  2
DIMSTYLE
  5
A
330
0
100
AcDbSymbolTable
 70
     1
100
AcDbDimStyleTable
  0
DIMSTYLE
105
27
330
A
100
AcDbSymbolTableRecord
100
AcDbDimStyleTableRecord
  2
Standard
 70
     0
340
11
  0
ENDTAB
  0
TABLE
  2
BLOCK_RECORD
  5
1
330
0
100
AcDbSymbolTable
 70
     1
  0
BLOCK_RECORD
  5
1F
330
1
100
AcDbSymbolTableRecord
100
AcDbBlockTableRecord
  2
*Model_Space
340
22
  0
BLOCK_RECORD
  5
1B
330
1
100
AcDbSymbolTableRecord
100
AcDbBlockTableRecord
  2
*Paper_Space
340
1E
  0
BLOCK_RECORD
  5
23
330
1
100
AcDbSymbolTableRecord
100
AcDbBlockTableRecord
  2
*Paper_Space0
340
26
  0
ENDTAB
  0
ENDSEC
  0
SECTION
  2
BLOCKS
  0
BLOCK
  5
20
330
1F
100
AcDbEntity
  8
0
100
AcDbBlockBegin
  2
*Model_Space
 70
     0
 10
0.0
 20
0.0
 30
0.0
  3
*Model_Space
  1

  0
ENDBLK
  5
21
330
1F
100
AcDbEntity
  8
0
100
AcDbBlockEnd
  0
BLOCK
  5
1C
330
1B
100
AcDbEntity
 67
     1
  8
0
100
AcDbBlockBegin
  2
*Paper_Space
 70
     0
 10
0.0
 20
0.0
 30
0.0
  3
*Paper_Space
  1

  0
ENDBLK
  5
1D
330
1B
100
AcDbEntity
 67
     1
  8
0
100
AcDbBlockEnd
  0
BLOCK
  5
24
330
23
100
AcDbEntity
  8
0
100
AcDbBlockBegin
  2
*Paper_Space0
 70
     0
 10
0.0
 20
0.0
 30
0.0
  3
*Paper_Space0
  1

  0
ENDBLK
  5
25
330
23
100
AcDbEntity
  8
0
100
AcDbBlockEnd
  0
ENDSEC
  0
SECTION
  2
ENTITIES
  0
POINT
  5
4B
330
1F
100
AcDbEntity
  8
1
 62
     3
 60
     1
100
AcDbPoint
 10
-388.498697369847
 20
162.344692871224
 30
0.0
  0
POINT
  5
4C
330
1F
100
AcDbEntity
  8
1
 62
     3
 60
     1
100
AcDbPoint
 10
-405.498697369847
 20
162.344692871224
 30
0.0
  0
LINE
  5
4D
330
1F
100
AcDbEntity
  8
1
  6
Continuous
 62
     4
100
AcDbLine
 10
149.6295298852373
 20
6.42540484766326
 30
0.0
 11
151.5707063558255
 21
6.42540484766326
 31
0.0
  0
LINE
  5
4E
330
1F
100
AcDbEntity
  8
1
  6
Continuous
 62
     4
100
AcDbLine
 10
149.8060004734726
 20
6.92540484766326
 30
0.0
 11
149.6295298852373
 21
6.42540484766326
 31
0.0
  0
LINE
  5
4F
330
1F
100
AcDbEntity
  8
1
  6
Continuous
 62
     4
100
AcDbLine
 10
149.9824710617079
 20
7.22540484766326
 30
0.0
 11
149.8060004734726
 21
6.92540484766326
 31
0.0
  0
LINE
  5
50
330
1F
100
AcDbEntity
  8
1
  6
Continuous
 62
     4
100
AcDbLine
 10
150.3354122381785
 20
7.52540484766326
 30
0.0
 11
149.9824710617079
 21
7.22540484766326
 31
0.0
  0
LINE
  5
51
330
1F
100
AcDbEntity
  8
1
  6
Continuous
 62
     4
100
AcDbLine
 10
150.688353414649
 20
7.72540484766326
 30
0.0
 11
150.3354122381785
 21
7.52540484766326
 31
0.0
  0
LINE
  5
52
330
1F
100
AcDbEntity
  8
1
  6
Continuous
 62
     4
100
AcDbLine
 10
151.1295298852373
 20
8.02540484766326
 30
0.0
 11
150.688353414649
 21
7.72540484766326
 31
0.0
  0
LINE
  5
53
330
1F
100
AcDbEntity
  8
1
  6
Continuous
 62
     4
100
AcDbLine
 10
151.3942357675902
 20
8.42540484766326
 30
0.0
 11
151.1295298852373
 21
8.02540484766326
 31
0.0
  0
LINE
  5
54
330
1F
100
AcDbEntity
  8
1
  6
Continuous
 62
     4
100
AcDbLine
 10
151.4824710617079
 20
8.82540484766326
 30
0.0
 11
151.3942357675902
 21
8.42540484766326
 31
0.0
  0
LINE
  5
55
330
1F
100
AcDbEntity
  8
1
  6
Continuous
 62
     4
100
AcDbLine
 10
151.1295298852373
 20
9.22540484766326
 30
0.0
 11
151.4824710617079
 21
8.82540484766326
 31
0.0
  0
LINE
  5
56
330
1F
100
AcDbEntity
  8
1
  6
Continuous
 62
     4
100
AcDbLine
 10
150.6001181205314
 20
9.42540484766326
 30
0.0
 11
151.1295298852373
 21
9.22540484766326
 31
0.0
  0
LINE
  5
57
330
1F
100
AcDbEntity
  8
1
  6
Continuous
 62
     4
100
AcDbLine
 10
150.0707063558255
 20
9.22540484766326
 30
0.0
 11
150.6001181205314
 21
9.42540484766326
 31
0.0
  0
LINE
  5
58
330
1F
100
AcDbEntity
  8
1
  6
Continuous
 62
     4
100
AcDbLine
 10
149.7177651793549
 20
8.82540484766326
 30
0.0
 11
150.0707063558255
 21
9.22540484766326
 31
0.0
  0
LINE
  5
59
330
1F
100
AcDbEntity
  8
1
  6
Continuous
 62
     4
100
AcDbLine
 10
148.7471769440608
 20
9.12540484766326
 30
0.0
 11
146.8942357675902
 21
6.92540484766326
 31
0.0
  0
LINE
  5
5A
330
1F
100
AcDbEntity
  8
1
  6
Continuous
 62
     4
100
AcDbLine
 10
146.0118828264137
 20
9.42540484766326
 30
0.0
 11
146.0118828264137
 21
6.42540484766326
 31
0.0
  0
LINE
  5
5B
330
1F
100
AcDbEntity
  8
1
  6
Continuous
 62
     4
100
AcDbLine
 10
145.5707063558255
 20
9.12540484766326
 30
0.0
 11
146.0118828264137
 21
9.42540484766326
 31
0.0
  0
LINE
  5
5C
330
1F
100
AcDbEntity
  8
1
  6
Continuous
 62
     4
100
AcDbLine
 10
144.5118828264137
 20
6.72540484766326
 30
0.0
 11
144.688353414649
 21
7.02540484766326
 31
0.0
  0
LINE
  5
5D
330
1F
100
AcDbEntity
  8
1
  6
Continuous
 62
     4
100
AcDbLine
 10
144.2471769440608
 20
6.52540484766326
 30
0.0
 11
144.5118828264137
 21
6.72540484766326
 31
0.0
  0
LINE
  5
5E
330
1F
100
AcDbEntity
  8
1
  6
Continuous
 62
     4
100
AcDbLine
 10
143.8942357675902
 20
6.42540484766326
 30
0.0
 11
144.2471769440608
 21
6.52540484766326
 31
0.0
  0
LINE
  5
5F
330
1F
100
AcDbEntity
  8
1
  6
Continuous
 62
     4
100
AcDbLine
 10
143.6295298852373
 20
6.42540484766326
 30
0.0
 11
143.8942357675902
 21
6.42540484766326
 31
0.0
  0
LINE
  5
60
330
1F
100
AcDbEntity
  8
1
  6
Continuous
 62
     4
100
AcDbLine
 10
143.453059297002
 20
6.52540484766326
 30
0.0
 11
143.6295298852373
 21
6.42540484766326
 31
0.0
  0
LINE
  5
61
330
1F
100
AcDbEntity
  8
1
  6
Continuous
 62
     4
100
AcDbLine
 10
143.3648240028844
 20
6.72540484766326
 30
0.0
 11
143.453059297002
 21
6.52540484766326
 31
0.0
  0
LINE
  5
62
330
1F
100
AcDbEntity
  8
1
  6
Continuous
 62
     4
100
AcDbLine
 10
143.2765887087667
 20
7.02540484766326
 30
0.0
 11
143.3648240028844
 21
6.72540484766326
 31
0.0
  0
LINE
  5
63
330
1F
100
AcDbEntity
  8
1
  6
Continuous
 62
     4
100
AcDbLine
 10
143.188353414649
 20
7.42540484766326
 30
0.0
 11
143.2765887087667
 21
7.02540484766326
 31
0.0
  0
LINE
  5
64
330
1F
100
AcDbEntity
  8
1
  6
Continuous
 62
     4
100
AcDbLine
 10
143.2765887087667
 20
7.92540484766326
 30
0.0
 11
143.188353414649
 21
7.42540484766326
 31
0.0
  0
LINE
  5
65
330
1F
100
AcDbEntity
  8
1
  6
Continuous
 62
     4
100
AcDbLine
 10
143.3648240028844
 20
8.22540484766326
 30
0.0
 11
143.2765887087667
 21
7.92540484766326
 31
0.0
  0
LINE
  5
66
330
1F
100
AcDbEntity
  8
1
  6
Continuous
 62
     4
100
AcDbLine
 10
143.5412945911196
 20
8.52540484766326
 30
0.0
 11
143.3648240028844
 21
8.22540484766326
 31
0.0
  0
LINE
  5
67
330
1F
100
AcDbEntity
  8
1
  6
Continuous
 62
     4
100
AcDbLine
 10
143.8942357675902
 20
8.62540484766326
 30
0.0
 11
143.5412945911196
 21
8.52540484766326
 31
0.0
  0
LINE
  5
68
330
1F
100
AcDbEntity
  8
1
  6
Continuous
 62
     4
100
AcDbLine
 10
144.2471769440608
 20
8.52540484766326
 30
0.0
 11
143.8942357675902
 21
8.62540484766326
 31
0.0
  0
LINE
  5
69
330
1F
100
AcDbEntity
  8
1
  6
Continuous
 62
     4
100
AcDbLine
 10
144.5118828264137
 20
8.32540484766326
 30
0.0
 11
144.2471769440608
 21
8.52540484766326
 31
0.0
  0
LINE
  5
6A
330
1F
100
AcDbEntity
  8
1
  6
Continuous
 62
     4
100
AcDbLine
 10
144.688353414649
 20
8.12540484766326
 30
0.0
 11
144.5118828264137
 21
8.32540484766326
 31
0.0
  0
LINE
  5
6B
330
1F
100
AcDbEntity
  8
1
  6
Continuous
 62
     4
100
AcDbLine
 10
140.453059297002
 20
7.82540484766326
 30
0.0
 11
140.453059297002
 21
9.42540484766326
 31
0.0
  0
LINE
  5
6C
330
1F
100
AcDbEntity
  8
1
  6
Continuous
 62
     4
100
AcDbLine
 10
141.6001181205314
 20
7.82540484766326
 30
0.0
 11
142.3060004734726
 21
6.42540484766326
 31
0.0
  0
LINE
  5
6D
330
1F
100
AcDbEntity
  8
1
  6
Continuous
 62
     4
100
AcDbLine
 10
141.6001181205314
 20
7.82540484766326
 30
0.0
 11
140.453059297002
 21
7.82540484766326
 31
0.0
  0
LINE
  5
6E
330
1F
100
AcDbEntity
  8
1
  6
Continuous
 62
     4
100
AcDbLine
 10
141.953059297002
 20
8.02540484766326
 30
0.0
 11
141.6001181205314
 21
7.82540484766326
 31
0.0
  0
LINE
  5
6F
330
1F
100
AcDbEntity
  8
1
  6
Continuous
 62
     4
100
AcDbLine
 10
142.1295298852373
 20
8.22540484766326
 30
0.0
 11
141.953059297002
 21
8.02540484766326
 31
0.0
  0
LINE
  5
70
330
1F
100
AcDbEntity
  8
1
  6
Continuous
 62
     4
100
AcDbLine
 10
142.2177651793549
 20
8.62540484766326
 30
0.0
 11
142.1295298852373
 21
8.22540484766326
 31
0.0
  0
LINE
  5
71
330
1F
100
AcDbEntity
  8
1
  6
Continuous
 62
     4
100
AcDbLine
 10
142.1295298852373
 20
8.92540484766326
 30
0.0
 11
142.2177651793549
 21
8.62540484766326
 31
0.0
  0
LINE
  5
72
330
1F
100
AcDbEntity
  8
1
  6
Continuous
 62
     4
100
AcDbLine
 10
141.953059297002
 20
9.22540484766326
 30
0.0
 11
142.1295298852373
 21
8.92540484766326
 31
0.0
  0
LINE
  5
73
330
1F
100
AcDbEntity
  8
1
  6
Continuous
 62
     4
100
AcDbLine
 10
141.6001181205314
 20
9.42540484766326
 30
0.0
 11
141.953059297002
 21
9.22540484766326
 31
0.0
  0
LINE
  5
74
330
1F
100
AcDbEntity
  8
1
  6
Continuous
 62
     4
100
AcDbLine
 10
140.453059297002
 20
9.42540484766326
 30
0.0
 11
141.6001181205314
 21
9.42540484766326
 31
0.0
  0
LINE
  5
75
330
1F
100
AcDbEntity
  8
1
  6
Continuous
 62
     4
100
AcDbLine
 10
140.453059297002
 20
6.42540484766326
 30
0.0
 11
140.453059297002
 21
7.82540484766326
 31
0.0
  0
LINE
  5
76
330
1F
100
AcDbEntity
  8
1
  6
Continuous
 62
     4
100
AcDbLine
 10
102.8482105799892
 20
8.27764260205606
 30
0.0
 11
102.3187988152833
 21
8.47764260205606
 31
0.0
  0
LINE
  5
77
330
1F
100
AcDbEntity
  8
1
  6
Continuous
 62
     4
100
AcDbLine
 10
103.2011517564598
 20
7.77764260205606
 30
0.0
 11
102.8482105799892
 21
8.27764260205606
 31
0.0
  0
LINE
  5
78
330
1F
100
AcDbEntity
  8
1
  6
Continuous
 62
     4
100
AcDbLine
 10
103.2893870505774
 20
6.97764260205606
 30
0.0
 11
103.2011517564598
 21
7.77764260205606
 31
0.0
  0
LINE
  5
79
330
1F
100
AcDbEntity
  8
1
  6
Continuous
 62
     4
100
AcDbLine
 10
103.2011517564598
 20
6.17764260205606
 30
0.0
 11
103.2893870505774
 21
6.97764260205606
 31
0.0
  0
LINE
  5
7A
330
1F
100
AcDbEntity
  8
1
  6
Continuous
 62
     4
100
AcDbLine
 10
102.8482105799892
 20
5.67764260205606
 30
0.0
 11
103.2011517564598
 21
6.17764260205606
 31
0.0
  0
LINE
  5
7B
330
1F
100
AcDbEntity
  8
1
  6
Continuous
 62
     4
100
AcDbLine
 10
102.3187988152833
 20
5.47764260205606
 30
0.0
 11
102.8482105799892
 21
5.67764260205606
 31
0.0
  0
LINE
  5
7C
330
1F
100
AcDbEntity
  8
1
  6
Continuous
 62
     4
100
AcDbLine
 10
101.7893870505774
 20
5.67764260205606
 30
0.0
 11
102.3187988152833
 21
5.47764260205606
 31
0.0
  0
LINE
  5
7D
330
1F
100
AcDbEntity
  8
1
  6
Continuous
 62
     4
100
AcDbLine
 10
101.5246811682245
 20
6.17764260205606
 30
0.0
 11
101.7893870505774
 21
5.67764260205606
 31
0.0
  0
LINE
  5
7E
330
1F
100
AcDbEntity
  8
1
  6
Continuous
 62
     4
100
AcDbLine
 10
101.3482105799892
 20
6.97764260205606
 30
0.0
 11
101.5246811682245
 21
6.17764260205606
 31
0.0
  0
LINE
  5
7F
330
1F
100
AcDbEntity
  8
1
  6
Continuous
 62
     4
100
AcDbLine
 10
101.5246811682245
 20
7.77764260205606
 30
0.0
 11
101.3482105799892
 21
6.97764260205606
 31
0.0
  0
LINE
  5
80
330
1F
100
AcDbEntity
  8
1
  6
Continuous
 62
     4
100
AcDbLine
 10
101.7893870505774
 20
8.27764260205606
 30
0.0
 11
101.5246811682245
 21
7.77764260205606
 31
0.0
  0
LINE
  5
81
330
1F
100
AcDbEntity
  8
1
  6
Continuous
 62
     4
100
AcDbLine
 10
102.3187988152833
 20
8.47764260205606
 30
0.0
 11
101.7893870505774
 21
8.27764260205606
 31
0.0
  0
LINE
  5
82
330
1F
100
AcDbEntity
  8
1
  6
Continuous
 62
     4
100
AcDbLine
 10
98.87762234469504
 20
6.97764260205606
 30
0.0
 11
100.4658576388127
 21
6.97764260205606
 31
0.0
  0
LINE
  5
83
330
1F
100
AcDbEntity
  8
1
  6
Continuous
 62
     4
100
AcDbLine
 10
97.99526940351856
 20
8.47764260205606
 30
0.0
 11
97.99526940351856
 21
5.47764260205606
 31
0.0
  0
LINE
  5
84
330
1F
100
AcDbEntity
  8
1
  6
Continuous
 62
     4
100
AcDbLine
 10
97.55409293293033
 20
8.17764260205606
 30
0.0
 11
97.99526940351856
 21
8.47764260205606
 31
0.0
  0
LINE
  5
85
330
1F
100
AcDbEntity
  8
1
  6
Continuous
 62
     4
100
AcDbLine
 10
96.23056352116564
 20
8.27764260205606
 30
0.0
 11
95.70115175645975
 21
8.47764260205606
 31
0.0
  0
LINE
  5
86
330
1F
100
AcDbEntity
  8
1
  6
Continuous
 62
     4
100
AcDbLine
 10
96.58350469763623
 20
7.77764260205606
 30
0.0
 11
96.23056352116564
 21
8.27764260205606
 31
0.0
  0
LINE
  5
87
330
1F
100
AcDbEntity
  8
1
  6
Continuous
 62
     4
100
AcDbLine
 10
96.67173999175387
 20
6.97764260205606
 30
0.0
 11
96.58350469763623
 21
7.77764260205606
 31
0.0
  0
LINE
  5
88
330
1F
100
AcDbEntity
  8
1
  6
Continuous
 62
     4
100
AcDbLine
 10
96.58350469763623
 20
6.17764260205606
 30
0.0
 11
96.67173999175387
 21
6.97764260205606
 31
0.0
  0
LINE
  5
89
330
1F
100
AcDbEntity
  8
1
  6
Continuous
 62
     4
100
AcDbLine
 10
96.23056352116564
 20
5.67764260205606
 30
0.0
 11
96.58350469763623
 21
6.17764260205606
 31
0.0
  0
LINE
  5
8A
330
1F
100
AcDbEntity
  8
1
  6
Continuous
 62
     4
100
AcDbLine
 10
95.70115175645975
 20
5.47764260205606
 30
0.0
 11
96.23056352116564
 21
5.67764260205606
 31
0.0
  0
LINE
  5
8B
330
1F
100
AcDbEntity
  8
1
  6
Continuous
 62
     4
100
AcDbLine
 10
95.17173999175387
 20
5.67764260205606
 30
0.0
 11
95.70115175645975
 21
5.47764260205606
 31
0.0
  0
LINE
  5
8C
330
1F
100
AcDbEntity
  8
1
  6
Continuous
 62
     4
100
AcDbLine
 10
94.90703410940093
 20
6.17764260205606
 30
0.0
 11
95.17173999175387
 21
5.67764260205606
 31
0.0
  0
LINE
  5
8D
330
1F
100
AcDbEntity
  8
1
  6
Continuous
 62
     4
100
AcDbLine
 10
94.73056352116564
 20
6.97764260205606
 30
0.0
 11
94.90703410940093
 21
6.17764260205606
 31
0.0
  0
LINE
  5
8E
330
1F
100
AcDbEntity
  8
1
  6
Continuous
 62
     4
100
AcDbLine
 10
94.90703410940093
 20
7.77764260205606
 30
0.0
 11
94.73056352116564
 21
6.97764260205606
 31
0.0
  0
LINE
  5
8F
330
1F
100
AcDbEntity
  8
1
  6
Continuous
 62
     4
100
AcDbLine
 10
95.17173999175387
 20
8.27764260205606
 30
0.0
 11
94.90703410940093
 21
7.77764260205606
 31
0.0
  0
LINE
  5
90
330
1F
100
AcDbEntity
  8
1
  6
Continuous
 62
     4
100
AcDbLine
 10
95.70115175645975
 20
8.47764260205606
 30
0.0
 11
95.17173999175387
 21
8.27764260205606
 31
0.0
  0
LINE
  5
91
330
1F
100
AcDbEntity
  8
1
  6
Continuous
 62
     4
100
AcDbLine
 10
92.17173999175387
 20
6.97764260205606
 30
0.0
 11
92.17173999175387
 21
5.47764260205606
 31
0.0
  0
LINE
  5
92
330
1F
100
AcDbEntity
  8
1
  6
Continuous
 62
     4
100
AcDbLine
 10
92.17173999175387
 20
6.97764260205606
 30
0.0
 11
93.67173999175387
 21
6.97764260205606
 31
0.0
  0
LINE
  5
93
330
1F
100
AcDbEntity
  8
1
  6
Continuous
 62
     4
100
AcDbLine
 10
92.17173999175387
 20
8.47764260205606
 30
0.0
 11
92.17173999175387
 21
6.97764260205606
 31
0.0
  0
LINE
  5
94
330
1F
100
AcDbEntity
  8
1
  6
Continuous
 62
     4
100
AcDbLine
 10
93.84821057998916
 20
8.47764260205606
 30
0.0
 11
92.17173999175387
 21
8.47764260205606
 31
0.0
  0
LINE
  5
95
330
1F
100
AcDbEntity
  8
1
  6
Continuous
 62
     4
100
AcDbLine
 10
91.28938705057739
 20
6.07764260205606
 30
0.0
 11
91.28938705057739
 21
8.37764260205606
 31
0.0
  0
LINE
  5
96
330
1F
100
AcDbEntity
  8
1
  6
Continuous
 62
     4
100
AcDbLine
 10
91.1129164623421
 20
5.77764260205606
 30
0.0
 11
91.28938705057739
 21
6.07764260205606
 31
0.0
  0
LINE
  5
97
330
1F
100
AcDbEntity
  8
1
  6
Continuous
 62
     4
100
AcDbLine
 10
90.84821057998916
 20
5.57764260205606
 30
0.0
 11
91.1129164623421
 21
5.77764260205606
 31
0.0
  0
LINE
  5
98
330
1F
100
AcDbEntity
  8
1
  6
Continuous
 62
     4
100
AcDbLine
 10
90.40703410940093
 20
5.47764260205606
 30
0.0
 11
90.84821057998916
 21
5.57764260205606
 31
0.0
  0
LINE
  5
99
330
1F
100
AcDbEntity
  8
1
  6
Continuous
 62
     4
100
AcDbLine
 10
90.05409293293033
 20
5.57764260205606
 30
0.0
 11
90.40703410940093
 21
5.47764260205606
 31
0.0
  0
LINE
  5
9A
330
1F
100
AcDbEntity
  8
1
  6
Continuous
 62
     4
100
AcDbLine
 10
89.70115175645975
 20
5.77764260205606
 30
0.0
 11
90.05409293293033
 21
5.57764260205606
 31
0.0
  0
LINE
  5
9B
330
1F
100
AcDbEntity
  8
1
  6
Continuous
 62
     4
100
AcDbLine
 10
89.6129164623421
 20
6.07764260205606
 30
0.0
 11
89.70115175645975
 21
5.77764260205606
 31
0.0
  0
LINE
  5
9C
330
1F
100
AcDbEntity
  8
1
  6
Continuous
 62
     4
100
AcDbLine
 10
89.6129164623421
 20
8.37764260205606
 30
0.0
 11
89.6129164623421
 21
6.07764260205606
 31
0.0
  0
LINE
  5
9D
330
1F
100
AcDbEntity
  8
1
  6
Continuous
 62
     4
100
AcDbLine
 10
87.31879881528327
 20
5.67764260205606
 30
0.0
 11
87.05409293293033
 21
5.97764260205606
 31
0.0
  0
LINE
  5
9E
330
1F
100
AcDbEntity
  8
1
  6
Continuous
 62
     4
100
AcDbLine
 10
87.9364458741068
 20
5.47764260205606
 30
0.0
 11
87.31879881528327
 21
5.67764260205606
 31
0.0
  0
LINE
  5
9F
330
1F
100
AcDbEntity
  8
1
  6
Continuous
 62
     4
100
AcDbLine
 10
88.37762234469504
 20
5.67764260205606
 30
0.0
 11
87.9364458741068
 21
5.47764260205606
 31
0.0
  0
LINE
  5
A0
330
1F
100
AcDbEntity
  8
1
  6
Continuous
 62
     4
100
AcDbLine
 10
88.64232822704798
 20
5.97764260205606
 30
0.0
 11
88.37762234469504
 21
5.67764260205606
 31
0.0
  0
LINE
  5
A1
330
1F
100
AcDbEntity
  8
1
  6
Continuous
 62
     4
100
AcDbLine
 10
88.73056352116562
 20
6.37764260205606
 30
0.0
 11
88.64232822704798
 21
5.97764260205606
 31
0.0
  0
LINE
  5
A2
330
1F
100
AcDbEntity
  8
1
  6
Continuous
 62
     4
100
AcDbLine
 10
88.73056352116562
 20
7.57764260205606
 30
0.0
 11
88.73056352116562
 21
6.37764260205606
 31
0.0
  0
LINE
  5
A3
330
1F
100
AcDbEntity
  8
1
  6
Continuous
 62
     4
100
AcDbLine
 10
88.55409293293033
 20
6.97764260205606
 30
0.0
 11
88.73056352116562
 21
7.57764260205606
 31
0.0
  0
LINE
  5
A4
330
1F
100
AcDbEntity
  8
1
  6
Continuous
 62
     4
100
AcDbLine
 10
88.28938705057739
 20
6.67764260205606
 30
0.0
 11
88.55409293293033
 21
6.97764260205606
 31
0.0
  0
LINE
  5
A5
330
1F
100
AcDbEntity
  8
1
  6
Continuous
 62
     4
100
AcDbLine
 10
87.9364458741068
 20
6.57764260205606
 30
0.0
 11
88.28938705057739
 21
6.67764260205606
 31
0.0
  0
LINE
  5
A6
330
1F
100
AcDbEntity
  8
1
  6
Continuous
 62
     4
100
AcDbLine
 10
87.58350469763622
 20
6.67764260205606
 30
0.0
 11
87.9364458741068
 21
6.57764260205606
 31
0.0
  0
LINE
  5
A7
330
1F
100
AcDbEntity
  8
1
  6
Continuous
 62
     4
100
AcDbLine
 10
87.23056352116562
 20
6.97764260205606
 30
0.0
 11
87.58350469763622
 21
6.67764260205606
 31
0.0
  0
LINE
  5
A8
330
1F
100
AcDbEntity
  8
1
  6
Continuous
 62
     4
100
AcDbLine
 10
87.14232822704798
 20
7.17764260205606
 30
0.0
 11
87.23056352116562
 21
6.97764260205606
 31
0.0
  0
LINE
  5
A9
330
1F
100
AcDbEntity
  8
1
  6
Continuous
 62
     4
100
AcDbLine
 10
87.05409293293033
 20
7.57764260205606
 30
0.0
 11
87.14232822704798
 21
7.17764260205606
 31
0.0
  0
LINE
  5
AA
330
1F
100
AcDbEntity
  8
1
  6
Continuous
 62
     4
100
AcDbLine
 10
87.23056352116562
 20
8.07764260205606
 30
0.0
 11
87.05409293293033
 21
7.57764260205606
 31
0.0
  0
LINE
  5
AB
330
1F
100
AcDbEntity
  8
1
  6
Continuous
 62
     4
100
AcDbLine
 10
87.49526940351856
 20
8.37764260205606
 30
0.0
 11
87.23056352116562
 21
8.07764260205606
 31
0.0
  0
LINE
  5
AC
330
1F
100
AcDbEntity
  8
1
  6
Continuous
 62
     4
100
AcDbLine
 10
87.9364458741068
 20
8.47764260205606
 30
0.0
 11
87.49526940351856
 21
8.37764260205606
 31
0.0
  0
LINE
  5
AD
330
1F
100
AcDbEntity
  8
1
  6
Continuous
 62
     4
100
AcDbLine
 10
88.37762234469504
 20
8.37764260205606
 30
0.0
 11
87.9364458741068
 21
8.47764260205606
 31
0.0
  0
LINE
  5
AE
330
1F
100
AcDbEntity
  8
1
  6
Continuous
 62
     4
100
AcDbLine
 10
88.64232822704798
 20
8.07764260205606
 30
0.0
 11
88.37762234469504
 21
8.37764260205606
 31
0.0
  0
LINE
  5
AF
330
1F
100
AcDbEntity
  8
1
  6
Continuous
 62
     4
100
AcDbLine
 10
88.73056352116562
 20
7.57764260205606
 30
0.0
 11
88.64232822704798
 21
8.07764260205606
 31
0.0
  0
LINE
  5
B0
330
1F
100
AcDbEntity
  8
1
  6
Continuous
 62
     4
100
AcDbLine
 10
86.17173999175387
 20
8.47764260205606
 30
0.0
 11
86.17173999175387
 21
5.47764260205606
 31
0.0
  0
LINE
  5
B1
330
1F
100
AcDbEntity
  8
1
  6
Continuous
 62
     4
100
AcDbLine
 10
85.73056352116564
 20
8.17764260205606
 30
0.0
 11
86.17173999175387
 21
8.47764260205606
 31
0.0
  0
LINE
  5
B2
330
1F
100
AcDbEntity
  8
1
  6
Continuous
 62
     4
100
AcDbLine
 10
84.40703410940093
 20
8.27764260205606
 30
0.0
 11
83.87762234469504
 21
8.47764260205606
 31
0.0
  0
LINE
  5
B3
330
1F
100
AcDbEntity
  8
1
  6
Continuous
 62
     4
100
AcDbLine
 10
84.75997528587152
 20
7.77764260205606
 30
0.0
 11
84.40703410940093
 21
8.27764260205606
 31
0.0
  0
LINE
  5
B4
330
1F
100
AcDbEntity
  8
1
  6
Continuous
 62
     4
100
AcDbLine
 10
84.84821057998916
 20
6.97764260205606
 30
0.0
 11
84.75997528587152
 21
7.77764260205606
 31
0.0
  0
LINE
  5
B5
330
1F
100
AcDbEntity
  8
1
  6
Continuous
 62
     4
100
AcDbLine
 10
84.75997528587152
 20
6.17764260205606
 30
0.0
 11
84.84821057998916
 21
6.97764260205606
 31
0.0
  0
LINE
  5
B6
330
1F
100
AcDbEntity
  8
1
  6
Continuous
 62
     4
100
AcDbLine
 10
84.40703410940093
 20
5.67764260205606
 30
0.0
 11
84.75997528587152
 21
6.17764260205606
 31
0.0
  0
LINE
  5
B7
330
1F
100
AcDbEntity
  8
1
  6
Continuous
 62
     4
100
AcDbLine
 10
83.87762234469504
 20
5.47764260205606
 30
0.0
 11
84.40703410940093
 21
5.67764260205606
 31
0.0
  0
LINE
  5
B8
330
1F
100
AcDbEntity
  8
1
  6
Continuous
 62
     4
100
AcDbLine
 10
83.34821057998916
 20
5.67764260205606
 30
0.0
 11
83.87762234469504
 21
5.47764260205606
 31
0.0
  0
LINE
  5
B9
330
1F
100
AcDbEntity
  8
1
  6
Continuous
 62
     4
100
AcDbLine
 10
83.08350469763622
 20
6.17764260205606
 30
0.0
 11
83.34821057998916
 21
5.67764260205606
 31
0.0
  0
LINE
  5
BA
330
1F
100
AcDbEntity
  8
1
  6
Continuous
 62
     4
100
AcDbLine
 10
82.90703410940093
 20
6.97764260205606
 30
0.0
 11
83.08350469763622
 21
6.17764260205606
 31
0.0
  0
LINE
  5
BB
330
1F
100
AcDbEntity
  8
1
  6
Continuous
 62
     4
100
AcDbLine
 10
83.08350469763622
 20
7.77764260205606
 30
0.0
 11
82.90703410940093
 21
6.97764260205606
 31
0.0
  0
LINE
  5
BC
330
1F
100
AcDbEntity
  8
1
  6
Continuous
 62
     4
100
AcDbLine
 10
83.34821057998916
 20
8.27764260205606
 30
0.0
 11
83.08350469763622
 21
7.77764260205606
 31
0.0
  0
LINE
  5
BD
330
1F
100
AcDbEntity
  8
1
  6
Continuous
 62
     4
100
AcDbLine
 10
83.87762234469504
 20
8.47764260205606
 30
0.0
 11
83.34821057998916
 21
8.27764260205606
 31
0.0
  0
LINE
  5
BE
330
1F
100
AcDbEntity
  8
1
  6
Continuous
 62
     4
100
AcDbLine
 10
81.58350469763622
 20
8.27764260205606
 30
0.0
 11
81.05409293293033
 21
8.47764260205606
 31
0.0
  0
LINE
  5
BF
330
1F
100
AcDbEntity
  8
1
  6
Continuous
 62
     4
100
AcDbLine
 10
81.93644587410681
 20
7.77764260205606
 30
0.0
 11
81.58350469763622
 21
8.27764260205606
 31
0.0
  0
LINE
  5
C0
330
1F
100
AcDbEntity
  8
1
  6
Continuous
 62
     4
100
AcDbLine
 10
82.02468116822445
 20
6.97764260205606
 30
0.0
 11
81.93644587410681
 21
7.77764260205606
 31
0.0
  0
LINE
  5
C1
330
1F
100
AcDbEntity
  8
1
  6
Continuous
 62
     4
100
AcDbLine
 10
81.93644587410681
 20
6.17764260205606
 30
0.0
 11
82.02468116822445
 21
6.97764260205606
 31
0.0
  0
LINE
  5
C2
330
1F
100
AcDbEntity
  8
1
  6
Continuous
 62
     4
100
AcDbLine
 10
81.58350469763622
 20
5.67764260205606
 30
0.0
 11
81.93644587410681
 21
6.17764260205606
 31
0.0
  0
LINE
  5
C3
330
1F
100
AcDbEntity
  8
1
  6
Continuous
 62
     4
100
AcDbLine
 10
81.05409293293033
 20
5.47764260205606
 30
0.0
 11
81.58350469763622
 21
5.67764260205606
 31
0.0
  0
LINE
  5
C4
330
1F
100
AcDbEntity
  8
1
  6
Continuous
 62
     4
100
AcDbLine
 10
80.52468116822445
 20
5.67764260205606
 30
0.0
 11
81.05409293293033
 21
5.47764260205606
 31
0.0
  0
LINE
  5
C5
330
1F
100
AcDbEntity
  8
1
  6
Continuous
 62
     4
100
AcDbLine
 10
80.2599752858715
 20
6.17764260205606
 30
0.0
 11
80.52468116822445
 21
5.67764260205606
 31
0.0
  0
LINE
  5
C6
330
1F
100
AcDbEntity
  8
1
  6
Continuous
 62
     4
100
AcDbLine
 10
80.08350469763622
 20
6.97764260205606
 30
0.0
 11
80.2599752858715
 21
6.17764260205606
 31
0.0
  0
LINE
  5
C7
330
1F
100
AcDbEntity
  8
1
  6
Continuous
 62
     4
100
AcDbLine
 10
80.2599752858715
 20
7.77764260205606
 30
0.0
 11
80.08350469763622
 21
6.97764260205606
 31
0.0
  0
LINE
  5
C8
330
1F
100
AcDbEntity
  8
1
  6
Continuous
 62
     4
100
AcDbLine
 10
80.52468116822445
 20
8.27764260205606
 30
0.0
 11
80.2599752858715
 21
7.77764260205606
 31
0.0
  0
LINE
  5
C9
330
1F
100
AcDbEntity
  8
1
  6
Continuous
 62
     4
100
AcDbLine
 10
81.05409293293033
 20
8.47764260205606
 30
0.0
 11
80.52468116822445
 21
8.27764260205606
 31
0.0
  0
LINE
  5
CA
330
1F
100
AcDbEntity
  8
1
  6
Continuous
 62
     4
100
AcDbLine
 10
76.37762234469504
 20
5.47764260205606
 30
0.0
 11
79.20115175645975
 21
5.47764260205606
 31
0.0
  0
LINE
  5
CB
330
1F
100
AcDbEntity
  8
1
  6
Continuous
 62
     4
100
AcDbLine
 10
75.49526940351858
 20
6.07764260205606
 30
0.0
 11
75.49526940351858
 21
8.37764260205606
 31
0.0
  0
LINE
  5
CC
330
1F
100
AcDbEntity
  8
1
  6
Continuous
 62
     4
100
AcDbLine
 10
75.31879881528329
 20
5.77764260205606
 30
0.0
 11
75.49526940351858
 21
6.07764260205606
 31
0.0
  0
LINE
  5
CD
330
1F
100
AcDbEntity
  8
1
  6
Continuous
 62
     4
100
AcDbLine
 10
75.05409293293035
 20
5.57764260205606
 30
0.0
 11
75.31879881528329
 21
5.77764260205606
 31
0.0
  0
LINE
  5
CE
330
1F
100
AcDbEntity
  8
1
  6
Continuous
 62
     4
100
AcDbLine
 10
74.61291646234211
 20
5.47764260205606
 30
0.0
 11
75.05409293293035
 21
5.57764260205606
 31
0.0
  0
LINE
  5
CF
330
1F
100
AcDbEntity
  8
1
  6
Continuous
 62
     4
100
AcDbLine
 10
74.25997528587152
 20
5.57764260205606
 30
0.0
 11
74.61291646234211
 21
5.47764260205606
 31
0.0
  0
LINE
  5
D0
330
1F
100
AcDbEntity
  8
1
  6
Continuous
 62
     4
100
AcDbLine
 10
73.90703410940094
 20
5.77764260205606
 30
0.0
 11
74.25997528587152
 21
5.57764260205606
 31
0.0
  0
LINE
  5
D1
330
1F
100
AcDbEntity
  8
1
  6
Continuous
 62
     4
100
AcDbLine
 10
73.81879881528329
 20
6.07764260205606
 30
0.0
 11
73.90703410940094
 21
5.77764260205606
 31
0.0
  0
LINE
  5
D2
330
1F
100
AcDbEntity
  8
1
  6
Continuous
 62
     4
100
AcDbLine
 10
73.81879881528329
 20
8.37764260205606
 30
0.0
 11
73.81879881528329
 21
6.07764260205606
 31
0.0
  0
LINE
  5
D3
330
1F
100
AcDbEntity
  8
1
  6
Continuous
 62
     4
100
AcDbLine
 10
72.49526940351858
 20
8.27764260205606
 30
0.0
 11
71.9658576388127
 21
8.47764260205606
 31
0.0
  0
LINE
  5
D4
330
1F
100
AcDbEntity
  8
1
  6
Continuous
 62
     4
100
AcDbLine
 10
72.84821057998917
 20
7.77764260205606
 30
0.0
 11
72.49526940351858
 21
8.27764260205606
 31
0.0
  0
LINE
  5
D5
330
1F
100
AcDbEntity
  8
1
  6
Continuous
 62
     4
100
AcDbLine
 10
72.93644587410681
 20
6.97764260205606
 30
0.0
 11
72.84821057998917
 21
7.77764260205606
 31
0.0
  0
LINE
  5
D6
330
1F
100
AcDbEntity
  8
1
  6
Continuous
 62
     4
100
AcDbLine
 10
72.84821057998917
 20
6.17764260205606
 30
0.0
 11
72.93644587410681
 21
6.97764260205606
 31
0.0
  0
LINE
  5
D7
330
1F
100
AcDbEntity
  8
1
  6
Continuous
 62
     4
100
AcDbLine
 10
72.49526940351858
 20
5.67764260205606
 30
0.0
 11
72.84821057998917
 21
6.17764260205606
 31
0.0
  0
LINE
  5
D8
330
1F
100
AcDbEntity
  8
1
  6
Continuous
 62
     4
100
AcDbLine
 10
71.9658576388127
 20
5.47764260205606
 30
0.0
 11
72.49526940351858
 21
5.67764260205606
 31
0.0
  0
LINE
  5
D9
330
1F
100
AcDbEntity
  8
1
  6
Continuous
 62
     4
100
AcDbLine
 10
71.43644587410681
 20
5.67764260205606
 30
0.0
 11
71.9658576388127
 21
5.47764260205606
 31
0.0
  0
LINE
  5
DA
330
1F
100
AcDbEntity
  8
1
  6
Continuous
 62
     4
100
AcDbLine
 10
71.17173999175387
 20
6.17764260205606
 30
0.0
 11
71.43644587410681
 21
5.67764260205606
 31
0.0
  0
LINE
  5
DB
330
1F
100
AcDbEntity
  8
1
  6
Continuous
 62
     4
100
AcDbLine
 10
70.99526940351858
 20
6.97764260205606
 30
0.0
 11
71.17173999175387
 21
6.17764260205606
 31
0.0
  0
LINE
  5
DC
330
1F
100
AcDbEntity
  8
1
  6
Continuous
 62
     4
100
AcDbLine
 10
71.17173999175387
 20
7.77764260205606
 30
0.0
 11
70.99526940351858
 21
6.97764260205606
 31
0.0
  0
LINE
  5
DD
330
1F
100
AcDbEntity
  8
1
  6
Continuous
 62
     4
100
AcDbLine
 10
71.43644587410681
 20
8.27764260205606
 30
0.0
 11
71.17173999175387
 21
7.77764260205606
 31
0.0
  0
LINE
  5
DE
330
1F
100
AcDbEntity
  8
1
  6
Continuous
 62
     4
100
AcDbLine
 10
71.9658576388127
 20
8.47764260205606
 30
0.0
 11
71.43644587410681
 21
8.27764260205606
 31
0.0
  0
LINE
  5
DF
330
1F
100
AcDbEntity
  8
1
  6
Continuous
 62
     4
100
AcDbLine
 10
68.17173999175387
 20
5.47764260205606
 30
0.0
 11
70.1129164623421
 21
5.47764260205606
 31
0.0
  0
LINE
  5
E0
330
1F
100
AcDbEntity
  8
1
  6
Continuous
 62
     4
100
AcDbLine
 10
68.34821057998916
 20
5.97764260205606
 30
0.0
 11
68.17173999175387
 21
5.47764260205606
 31
0.0
  0
LINE
  5
E1
330
1F
100
AcDbEntity
  8
1
  6
Continuous
 62
     4
100
AcDbLine
 10
68.52468116822446
 20
6.27764260205606
 30
0.0
 11
68.34821057998916
 21
5.97764260205606
 31
0.0
  0
LINE
  5
E2
330
1F
100
AcDbEntity
  8
1
  6
Continuous
 62
     4
100
AcDbLine
 10
68.87762234469504
 20
6.57764260205606
 30
0.0
 11
68.52468116822446
 21
6.27764260205606
 31
0.0
  0
LINE
  5
E3
330
1F
100
AcDbEntity
  8
1
  6
Continuous
 62
     4
100
AcDbLine
 10
69.23056352116564
 20
6.77764260205606
 30
0.0
 11
68.87762234469504
 21
6.57764260205606
 31
0.0
  0
LINE
  5
E4
330
1F
100
AcDbEntity
  8
1
  6
Continuous
 62
     4
100
AcDbLine
 10
69.67173999175387
 20
7.07764260205606
 30
0.0
 11
69.23056352116564
 21
6.77764260205606
 31
0.0
  0
LINE
  5
E5
330
1F
100
AcDbEntity
  8
1
  6
Continuous
 62
     4
100
AcDbLine
 10
69.93644587410681
 20
7.47764260205606
 30
0.0
 11
69.67173999175387
 21
7.07764260205606
 31
0.0
  0
LINE
  5
E6
330
1F
100
AcDbEntity
  8
1
  6
Continuous
 62
     4
100
AcDbLine
 10
70.02468116822446
 20
7.87764260205606
 30
0.0
 11
69.93644587410681
 21
7.47764260205606
 31
0.0
  0
LINE
  5
E7
330
1F
100
AcDbEntity
  8
1
  6
Continuous
 62
     4
100
AcDbLine
 10
69.67173999175387
 20
8.27764260205606
 30
0.0
 11
70.02468116822446
 21
7.87764260205606
 31
0.0
  0
LINE
  5
E8
330
1F
100
AcDbEntity
  8
1
  6
Continuous
 62
     4
100
AcDbLine
 10
69.14232822704798
 20
8.47764260205606
 30
0.0
 11
69.67173999175387
 21
8.27764260205606
 31
0.0
  0
LINE
  5
E9
330
1F
100
AcDbEntity
  8
1
  6
Continuous
 62
     4
100
AcDbLine
 10
68.6129164623421
 20
8.27764260205606
 30
0.0
 11
69.14232822704798
 21
8.47764260205606
 31
0.0
  0
LINE
  5
EA
330
1F
100
AcDbEntity
  8
1
  6
Continuous
 62
     4
100
AcDbLine
 10
68.25997528587152
 20
7.87764260205606
 30
0.0
 11
68.6129164623421
 21
8.27764260205606
 31
0.0
  0
LINE
  5
EB
330
1F
100
AcDbEntity
  8
1
  6
Continuous
 62
     4
100
AcDbLine
 10
65.43644587410681
 20
7.57764260205606
 30
0.0
 11
66.67173999175387
 21
6.17764260205606
 31
0.0
  0
LINE
  5
EC
330
1F
100
AcDbEntity
  8
1
  6
Continuous
 62
     4
100
AcDbLine
 10
66.67173999175387
 20
7.57764260205606
 30
0.0
 11
65.43644587410681
 21
6.17764260205606
 31
0.0
  0
LINE
  5
ED
330
1F
100
AcDbEntity
  8
1
  6
Continuous
 62
     4
100
AcDbLine
 10
61.99526940351857
 20
5.77764260205606
 30
0.0
 11
61.81879881528327
 21
5.97764260205606
 31
0.0
  0
LINE
  5
EE
330
1F
100
AcDbEntity
  8
1
  6
Continuous
 62
     4
100
AcDbLine
 10
62.34821057998916
 20
5.57764260205606
 30
0.0
 11
61.99526940351857
 21
5.77764260205606
 31
0.0
  0
LINE
  5
EF
330
1F
100
AcDbEntity
  8
1
  6
Continuous
 62
     4
100
AcDbLine
 10
62.78938705057739
 20
5.47764260205606
 30
0.0
 11
62.34821057998916
 21
5.57764260205606
 31
0.0
  0
LINE
  5
F0
330
1F
100
AcDbEntity
  8
1
  6
Continuous
 62
     4
100
AcDbLine
 10
63.31879881528327
 20
5.57764260205606
 30
0.0
 11
62.78938705057739
 21
5.47764260205606
 31
0.0
  0
LINE
  5
F1
330
1F
100
AcDbEntity
  8
1
  6
Continuous
 62
     4
100
AcDbLine
 10
63.58350469763622
 20
5.77764260205606
 30
0.0
 11
63.31879881528327
 21
5.57764260205606
 31
0.0
  0
LINE
  5
F2
330
1F
100
AcDbEntity
  8
1
  6
Continuous
 62
     4
100
AcDbLine
 10
63.75997528587151
 20
6.27764260205606
 30
0.0
 11
63.58350469763622
 21
5.77764260205606
 31
0.0
  0
LINE
  5
F3
330
1F
100
AcDbEntity
  8
1
  6
Continuous
 62
     4
100
AcDbLine
 10
63.58350469763622
 20
6.77764260205606
 30
0.0
 11
63.75997528587151
 21
6.27764260205606
 31
0.0
  0
LINE
  5
F4
330
1F
100
AcDbEntity
  8
1
  6
Continuous
 62
     4
100
AcDbLine
 10
63.14232822704798
 20
7.07764260205606
 30
0.0
 11
63.58350469763622
 21
6.77764260205606
 31
0.0
  0
LINE
  5
F5
330
1F
100
AcDbEntity
  8
1
  6
Continuous
 62
     4
100
AcDbLine
 10
62.70115175645974
 20
7.07764260205606
 30
0.0
 11
63.14232822704798
 21
7.07764260205606
 31
0.0
  0
LINE
  5
F6
330
1F
100
AcDbEntity
  8
1
  6
Continuous
 62
     4
100
AcDbLine
 10
63.14232822704798
 20
7.07764260205606
 30
0.0
 11
62.70115175645974
 21
7.07764260205606
 31
0.0
  0
LINE
  5
F7
330
1F
100
AcDbEntity
  8
1
  6
Continuous
 62
     4
100
AcDbLine
 10
63.49526940351857
 20
7.27764260205606
 30
0.0
 11
63.14232822704798
 21
7.07764260205606
 31
0.0
  0
LINE
  5
F8
330
1F
100
AcDbEntity
  8
1
  6
Continuous
 62
     4
100
AcDbLine
 10
63.67173999175386
 20
7.67764260205606
 30
0.0
 11
63.49526940351857
 21
7.27764260205606
 31
0.0
  0
LINE
  5
F9
330
1F
100
AcDbEntity
  8
1
  6
Continuous
 62
     4
100
AcDbLine
 10
63.58350469763622
 20
7.97764260205606
 30
0.0
 11
63.67173999175386
 21
7.67764260205606
 31
0.0
  0
LINE
  5
FA
330
1F
100
AcDbEntity
  8
1
  6
Continuous
 62
     4
100
AcDbLine
 10
63.31879881528327
 20
8.37764260205606
 30
0.0
 11
63.58350469763622
 21
7.97764260205606
 31
0.0
  0
LINE
  5
FB
330
1F
100
AcDbEntity
  8
1
  6
Continuous
 62
     4
100
AcDbLine
 10
62.78938705057739
 20
8.47764260205606
 30
0.0
 11
63.31879881528327
 21
8.37764260205606
 31
0.0
  0
LINE
  5
FC
330
1F
100
AcDbEntity
  8
1
  6
Continuous
 62
     4
100
AcDbLine
 10
62.25997528587151
 20
8.37764260205606
 30
0.0
 11
62.78938705057739
 21
8.47764260205606
 31
0.0
  0
LINE
  5
FD
330
1F
100
AcDbEntity
  8
1
  6
Continuous
 62
     4
100
AcDbLine
 10
61.90703410940092
 20
7.97764260205606
 30
0.0
 11
62.25997528587151
 21
8.37764260205606
 31
0.0
  0
LINE
  5
FE
330
1F
100
AcDbEntity
  8
1
  6
Continuous
 62
     4
100
AcDbLine
 10
60.9364458741068
 20
8.47764260205606
 30
0.0
 11
60.9364458741068
 21
5.47764260205606
 31
0.0
  0
LINE
  5
FF
330
1F
100
AcDbEntity
  8
1
  6
Continuous
 62
     4
100
AcDbLine
 10
60.49526940351857
 20
8.17764260205606
 30
0.0
 11
60.9364458741068
 21
8.47764260205606
 31
0.0
  0
LINE
  5
100
330
1F
100
AcDbEntity
  8
1
  6
Continuous
 62
     4
100
AcDbLine
 10
56.7893870505774
 20
5.47764260205606
 30
0.0
 11
59.6129164623421
 21
5.47764260205606
 31
0.0
  0
LINE
  5
101
330
1F
100
AcDbEntity
  8
1
  6
Continuous
 62
     4
100
AcDbLine
 10
55.90703410940093
 20
6.07764260205606
 30
0.0
 11
55.90703410940093
 21
8.37764260205606
 31
0.0
  0
LINE
  5
102
330
1F
100
AcDbEntity
  8
1
  6
Continuous
 62
     4
100
AcDbLine
 10
55.73056352116563
 20
5.77764260205606
 30
0.0
 11
55.90703410940093
 21
6.07764260205606
 31
0.0
  0
LINE
  5
103
330
1F
100
AcDbEntity
  8
1
  6
Continuous
 62
     4
100
AcDbLine
 10
55.46585763881269
 20
5.57764260205606
 30
0.0
 11
55.73056352116563
 21
5.77764260205606
 31
0.0
  0
LINE
  5
104
330
1F
100
AcDbEntity
  8
1
  6
Continuous
 62
     4
100
AcDbLine
 10
55.02468116822445
 20
5.47764260205606
 30
0.0
 11
55.46585763881269
 21
5.57764260205606
 31
0.0
  0
LINE
  5
105
330
1F
100
AcDbEntity
  8
1
  6
Continuous
 62
     4
100
AcDbLine
 10
54.67173999175386
 20
5.57764260205606
 30
0.0
 11
55.02468116822445
 21
5.47764260205606
 31
0.0
  0
LINE
  5
106
330
1F
100
AcDbEntity
  8
1
  6
Continuous
 62
     4
100
AcDbLine
 10
54.31879881528327
 20
5.77764260205606
 30
0.0
 11
54.67173999175386
 21
5.57764260205606
 31
0.0
  0
LINE
  5
107
330
1F
100
AcDbEntity
  8
1
  6
Continuous
 62
     4
100
AcDbLine
 10
54.23056352116563
 20
6.07764260205606
 30
0.0
 11
54.31879881528327
 21
5.77764260205606
 31
0.0
  0
LINE
  5
108
330
1F
100
AcDbEntity
  8
1
  6
Continuous
 62
     4
100
AcDbLine
 10
54.23056352116563
 20
8.37764260205606
 30
0.0
 11
54.23056352116563
 21
6.07764260205606
 31
0.0
  0
LINE
  5
109
330
1F
100
AcDbEntity
  8
1
  6
Continuous
 62
     4
100
AcDbLine
 10
52.37762234469504
 20
8.37764260205606
 30
0.0
 11
53.34821057998916
 21
8.37764260205606
 31
0.0
  0
LINE
  5
10A
330
1F
100
AcDbEntity
  8
1
  6
Continuous
 62
     4
100
AcDbLine
 10
52.37762234469504
 20
8.37764260205606
 30
0.0
 11
52.37762234469504
 21
5.47764260205606
 31
0.0
  0
LINE
  5
10B
330
1F
100
AcDbEntity
  8
1
  6
Continuous
 62
     4
100
AcDbLine
 10
51.40703410940093
 20
8.37764260205606
 30
0.0
 11
52.37762234469504
 21
8.37764260205606
 31
0.0
  0
LINE
  5
10C
330
1F
100
AcDbEntity
  8
1
  6
Continuous
 62
     4
100
AcDbLine
 10
48.9364458741068
 20
6.97764260205606
 30
0.0
 11
50.52468116822445
 21
6.97764260205606
 31
0.0
  0
LINE
  5
10D
330
1F
100
AcDbEntity
  8
1
  6
Continuous
 62
     4
100
AcDbLine
 10
47.08350469763622
 20
5.47764260205606
 30
0.0
 11
48.05409293293033
 21
8.47764260205606
 31
0.0
  0
LINE
  5
10E
330
1F
100
AcDbEntity
  8
1
  6
Continuous
 62
     4
100
AcDbLine
 10
46.1129164623421
 20
8.47764260205606
 30
0.0
 11
47.08350469763622
 21
5.47764260205606
 31
0.0
  0
LINE
  5
10F
330
1F
100
AcDbEntity
  8
1
  6
Continuous
 62
     4
100
AcDbLine
 10
143.0115759259409
 20
104.5114677064798
 30
0.0
 11
145.1292229847644
 21
104.5114677064798
 31
0.0
  0
LINE
  5
110
330
1F
100
AcDbEntity
  8
1
  6
Continuous
 62
     4
100
AcDbLine
 10
144.5998112200585
 20
106.8114677064798
 30
0.0
 11
143.0115759259409
 21
104.5114677064798
 31
0.0
  0
LINE
  5
111
330
1F
100
AcDbEntity
  8
1
  6
Continuous
 62
     4
100
AcDbLine
 10
144.5998112200585
 20
103.8114677064798
 30
0.0
 11
144.5998112200585
 21
106.8114677064798
 31
0.0
  0
LINE
  5
112
330
1F
100
AcDbEntity
  8
1
  6
Continuous
 62
     4
100
AcDbLine
 10
142.1292229847644
 20
106.5114677064798
 30
0.0
 11
140.2762818082938
 21
104.3114677064798
 31
0.0
  0
LINE
  5
113
330
1F
100
AcDbEntity
  8
1
  6
Continuous
 62
     4
100
AcDbLine
 10
137.6292229847644
 20
104.1114677064798
 30
0.0
 11
137.4527523965291
 21
104.3114677064798
 31
0.0
  0
LINE
  5
114
330
1F
100
AcDbEntity
  8
1
  6
Continuous
 62
     4
100
AcDbLine
 10
137.982164161235
 20
103.9114677064798
 30
0.0
 11
137.6292229847644
 21
104.1114677064798
 31
0.0
  0
LINE
  5
115
330
1F
100
AcDbEntity
  8
1
  6
Continuous
 62
     4
100
AcDbLine
 10
138.4233406318232
 20
103.8114677064798
 30
0.0
 11
137.982164161235
 21
103.9114677064798
 31
0.0
  0
LINE
  5
116
330
1F
100
AcDbEntity
  8
1
  6
Continuous
 62
     4
100
AcDbLine
 10
138.9527523965291
 20
103.9114677064798
 30
0.0
 11
138.4233406318232
 21
103.8114677064798
 31
0.0
  0
LINE
  5
117
330
1F
100
AcDbEntity
  8
1
  6
Continuous
 62
     4
100
AcDbLine
 10
139.217458278882
 20
104.1114677064798
 30
0.0
 11
138.9527523965291
 21
103.9114677064798
 31
0.0
  0
LINE
  5
118
330
1F
100
AcDbEntity
  8
1
  6
Continuous
 62
     4
100
AcDbLine
 10
139.3939288671173
 20
104.6114677064798
 30
0.0
 11
139.217458278882
 21
104.1114677064798
 31
0.0
  0
LINE
  5
119
330
1F
100
AcDbEntity
  8
1
  6
Continuous
 62
     4
100
AcDbLine
 10
139.217458278882
 20
105.1114677064798
 30
0.0
 11
139.3939288671173
 21
104.6114677064798
 31
0.0
  0
LINE
  5
11A
330
1F
100
AcDbEntity
  8
1
  6
Continuous
 62
     4
100
AcDbLine
 10
138.7762818082938
 20
105.4114677064798
 30
0.0
 11
139.217458278882
 21
105.1114677064798
 31
0.0
  0
LINE
  5
11B
330
1F
100
AcDbEntity
  8
1
  6
Continuous
 62
     4
100
AcDbLine
 10
138.3351053377056
 20
105.4114677064798
 30
0.0
 11
138.7762818082938
 21
105.4114677064798
 31
0.0
  0
LINE
  5
11C
330
1F
100
AcDbEntity
  8
1
  6
Continuous
 62
     4
100
AcDbLine
 10
138.7762818082938
 20
105.4114677064798
 30
0.0
 11
138.3351053377056
 21
105.4114677064798
 31
0.0
  0
LINE
  5
11D
330
1F
100
AcDbEntity
  8
1
  6
Continuous
 62
     4
100
AcDbLine
 10
139.1292229847644
 20
105.6114677064798
 30
0.0
 11
138.7762818082938
 21
105.4114677064798
 31
0.0
  0
LINE
  5
11E
330
1F
100
AcDbEntity
  8
1
  6
Continuous
 62
     4
100
AcDbLine
 10
139.3056935729997
 20
106.0114677064798
 30
0.0
 11
139.1292229847644
 21
105.6114677064798
 31
0.0
  0
LINE
  5
11F
330
1F
100
AcDbEntity
  8
1
  6
Continuous
 62
     4
100
AcDbLine
 10
139.217458278882
 20
106.3114677064798
 30
0.0
 11
139.3056935729997
 21
106.0114677064798
 31
0.0
  0
LINE
  5
120
330
1F
100
AcDbEntity
  8
1
  6
Continuous
 62
     4
100
AcDbLine
 10
138.9527523965291
 20
106.7114677064798
 30
0.0
 11
139.217458278882
 21
106.3114677064798
 31
0.0
  0
LINE
  5
121
330
1F
100
AcDbEntity
  8
1
  6
Continuous
 62
     4
100
AcDbLine
 10
138.4233406318232
 20
106.8114677064798
 30
0.0
 11
138.9527523965291
 21
106.7114677064798
 31
0.0
  0
LINE
  5
122
330
1F
100
AcDbEntity
  8
1
  6
Continuous
 62
     4
100
AcDbLine
 10
137.8939288671173
 20
106.7114677064798
 30
0.0
 11
138.4233406318232
 21
106.8114677064798
 31
0.0
  0
LINE
  5
123
330
1F
100
AcDbEntity
  8
1
  6
Continuous
 62
     4
100
AcDbLine
 10
137.5409876906467
 20
106.3114677064798
 30
0.0
 11
137.8939288671173
 21
106.7114677064798
 31
0.0
  0
LINE
  5
124
330
1F
100
AcDbEntity
  8
1
  6
Continuous
 62
     4
100
AcDbLine
 10
136.5703994553526
 20
105.2114677064798
 30
0.0
 11
135.7762818082938
 21
105.2114677064798
 31
0.0
  0
LINE
  5
125
330
1F
100
AcDbEntity
  8
1
  6
Continuous
 62
     4
100
AcDbLine
 10
136.5703994553526
 20
104.6114677064798
 30
0.0
 11
136.5703994553526
 21
105.2114677064798
 31
0.0
  0
LINE
  5
126
330
1F
100
AcDbEntity
  8
1
  6
Continuous
 62
     4
100
AcDbLine
 10
136.482164161235
 20
104.3114677064798
 30
0.0
 11
136.5703994553526
 21
104.6114677064798
 31
0.0
  0
LINE
  5
127
330
1F
100
AcDbEntity
  8
1
  6
Continuous
 62
     4
100
AcDbLine
 10
136.3056935729997
 20
104.1114677064798
 30
0.0
 11
136.482164161235
 21
104.3114677064798
 31
0.0
  0
LINE
  5
128
330
1F
100
AcDbEntity
  8
1
  6
Continuous
 62
     4
100
AcDbLine
 10
136.0409876906467
 20
103.9114677064798
 30
0.0
 11
136.3056935729997
 21
104.1114677064798
 31
0.0
  0
LINE
  5
129
330
1F
100
AcDbEntity
  8
1
  6
Continuous
 62
     4
100
AcDbLine
 10
135.5998112200585
 20
103.8114677064798
 30
0.0
 11
136.0409876906467
 21
103.9114677064798
 31
0.0
  0
LINE
  5
12A
330
1F
100
AcDbEntity
  8
1
  6
Continuous
 62
     4
100
AcDbLine
 10
135.1586347494703
 20
103.9114677064798
 30
0.0
 11
135.5998112200585
 21
103.8114677064798
 31
0.0
  0
LINE
  5
12B
330
1F
100
AcDbEntity
  8
1
  6
Continuous
 62
     4
100
AcDbLine
 10
134.8939288671173
 20
104.3114677064798
 30
0.0
 11
135.1586347494703
 21
103.9114677064798
 31
0.0
  0
LINE
  5
12C
330
1F
100
AcDbEntity
  8
1
  6
Continuous
 62
     4
100
AcDbLine
 10
134.8056935729997
 20
104.5114677064798
 30
0.0
 11
134.8939288671173
 21
104.3114677064798
 31
0.0
  0
LINE
  5
12D
330
1F
100
AcDbEntity
  8
1
  6
Continuous
 62
     4
100
AcDbLine
 10
134.7174582788821
 20
104.9114677064798
 30
0.0
 11
134.8056935729997
 21
104.5114677064798
 31
0.0
  0
LINE
  5
12E
330
1F
100
AcDbEntity
  8
1
  6
Continuous
 62
     4
100
AcDbLine
 10
134.6292229847644
 20
105.3114677064798
 30
0.0
 11
134.7174582788821
 21
104.9114677064798
 31
0.0
  0
LINE
  5
12F
330
1F
100
AcDbEntity
  8
1
  6
Continuous
 62
     4
100
AcDbLine
 10
134.7174582788821
 20
105.7114677064798
 30
0.0
 11
134.6292229847644
 21
105.3114677064798
 31
0.0
  0
LINE
  5
130
330
1F
100
AcDbEntity
  8
1
  6
Continuous
 62
     4
100
AcDbLine
 10
134.8939288671173
 20
106.3114677064798
 30
0.0
 11
134.7174582788821
 21
105.7114677064798
 31
0.0
  0
LINE
  5
131
330
1F
100
AcDbEntity
  8
1
  6
Continuous
 62
     4
100
AcDbLine
 10
134.982164161235
 20
106.5114677064798
 30
0.0
 11
134.8939288671173
 21
106.3114677064798
 31
0.0
  0
LINE
  5
132
330
1F
100
AcDbEntity
  8
1
  6
Continuous
 62
     4
100
AcDbLine
 10
135.2468700435879
 20
106.7114677064798
 30
0.0
 11
134.982164161235
 21
106.5114677064798
 31
0.0
  0
LINE
  5
133
330
1F
100
AcDbEntity
  8
1
  6
Continuous
 62
     4
100
AcDbLine
 10
135.5998112200585
 20
106.8114677064798
 30
0.0
 11
135.2468700435879
 21
106.7114677064798
 31
0.0
  0
LINE
  5
134
330
1F
100
AcDbEntity
  8
1
  6
Continuous
 62
     4
100
AcDbLine
 10
136.0409876906467
 20
106.7114677064798
 30
0.0
 11
135.5998112200585
 21
106.8114677064798
 31
0.0
  0
LINE
  5
135
330
1F
100
AcDbEntity
  8
1
  6
Continuous
 62
     4
100
AcDbLine
 10
136.2174582788821
 20
106.6114677064798
 30
0.0
 11
136.0409876906467
 21
106.7114677064798
 31
0.0
  0
LINE
  5
136
330
1F
100
AcDbEntity
  8
1
  6
Continuous
 62
     4
100
AcDbLine
 10
136.3939288671173
 20
106.4114677064798
 30
0.0
 11
136.2174582788821
 21
106.6114677064798
 31
0.0
  0
LINE
  5
137
330
1F
100
AcDbEntity
  8
1
  6
Continuous
 62
     4
100
AcDbLine
 10
136.5703994553526
 20
106.1114677064798
 30
0.0
 11
136.3939288671173
 21
106.4114677064798
 31
0.0
  0
LINE
  5
138
330
1F
100
AcDbEntity
  8
1
  6
Continuous
 62
     3
100
AcDbLine
 10
30.69654579060499
 20
53.01736291316911
 30
0.0
 11
24.15636792693026
 21
56.79333636330976
 31
0.0
  0
LINE
  5
139
330
1F
100
AcDbEntity
  8
1
  6
Continuous
 62
     3
100
AcDbLine
 10
32.46299178984827
 20
51.99750483999708
 30
0.0
 11
31.21441736804451
 21
52.71836961852873
 31
0.0
  0
LINE
  5
13A
330
1F
100
AcDbEntity
  8
1
  6
Continuous
 62
     3
100
AcDbLine
 10
33.80967985838959
 20
48.22324312627296
 30
0.0
 11
33.80967985838959
 21
49.66497268333728
 31
0.0
  0
LINE
  5
13B
330
1F
100
AcDbEntity
  8
1
  6
Continuous
 62
     3
100
AcDbLine
 10
33.80967985838959
 20
40.07330963671188
 30
0.0
 11
33.80967985838959
 21
41.51503919377615
 31
0.0
  0
LINE
  5
13C
330
1F
100
AcDbEntity
  8
1
  6
Continuous
 62
     3
100
AcDbLine
 10
31.21441736804452
 20
37.01991270152041
 30
0.0
 11
32.46299178984827
 21
37.74077748005209
 31
0.0
  0
LINE
  5
13D
330
1F
100
AcDbEntity
  8
1
  6
Continuous
 62
     3
100
AcDbLine
 10
13.15636792693026
 20
37.74077748005209
 30
0.0
 11
14.4049423487341
 21
37.01991270152035
 31
0.0
  0
LINE
  5
13E
330
1F
100
AcDbEntity
  8
1
  6
Continuous
 62
     3
100
AcDbLine
 10
11.80967985838936
 20
41.51503919377527
 30
0.0
 11
11.80967985838936
 21
40.07330963671188
 31
0.0
  0
LINE
  5
13F
330
1F
100
AcDbEntity
  8
1
  6
Continuous
 62
     3
100
AcDbLine
 10
11.80967985838936
 20
49.66497268333728
 30
0.0
 11
11.80967985838936
 21
48.22324312627387
 31
0.0
  0
LINE
  5
140
330
1F
100
AcDbEntity
  8
1
  6
Continuous
 62
     3
100
AcDbLine
 10
14.4049423487341
 20
52.71836961852875
 30
0.0
 11
13.15636792693026
 21
51.99750483999708
 31
0.0
  0
LINE
  5
141
330
1F
100
AcDbEntity
  8
1
  6
Continuous
 62
     3
100
AcDbLine
 10
21.46299178984827
 20
56.79333636330976
 30
0.0
 11
14.92281392617383
 21
53.01736291316902
 31
0.0
  0
LINE
  5
142
330
1F
100
AcDbEntity
  8
2
  6
Continuous
 62
     3
100
AcDbLine
 10
96.34814444830596
 20
128.2138288335128
 30
0.0
 11
96.49248201560238
 21
128.4638288335128
 31
0.0
  0
LINE
  5
143
330
1F
100
AcDbEntity
  8
1
  6
Continuous
 62
     3
100
AcDbLine
 10
95.77079417911631
 20
128.2138288335128
 30
0.0
 11
95.77079417911631
 21
129.5605169020537
 31
0.0
  0
LINE
  5
144
330
1F
100
AcDbEntity
  8
1
  6
Continuous
 62
     3
100
AcDbLine
 10
83.35850741938793
 20
129.5605169020537
 30
0.0
 11
95.77079417911631
 21
129.5605169020537
 31
0.0
  0
LINE
  5
145
330
1F
100
AcDbEntity
  8
1
  6
Continuous
 62
     3
100
AcDbLine
 10
83.35850741938793
 20
128.2138288335128
 30
0.0
 11
83.35850741938793
 21
129.5605169020537
 31
0.0
  0
LINE
  5
146
330
1F
100
AcDbEntity
  8
1
  6
Continuous
 62
     3
100
AcDbLine
 10
82.78115715019828
 20
128.2138288335128
 30
0.0
 11
96.34814444830596
 21
128.2138288335128
 31
0.0
  0
LINE
  5
147
330
1F
100
AcDbEntity
  8
2
  6
Continuous
 62
     3
100
AcDbLine
 10
82.78115715019828
 20
128.2138288335128
 30
0.0
 11
82.49248201560243
 21
128.7138288335146
 31
0.0
  0
LINE
  5
148
330
1F
100
AcDbEntity
  8
1
  6
Continuous
 62
     3
100
AcDbLine
 10
95.77079417911631
 20
137.8671407649718
 30
0.0
 11
83.35850741938793
 21
137.8671407649718
 31
0.0
  0
LINE
  5
149
330
1F
100
AcDbEntity
  8
1
  6
Continuous
 62
     3
100
AcDbLine
 10
83.35850741938793
 20
140.5605169020537
 30
0.0
 11
83.35850741938793
 21
137.8671407649718
 31
0.0
  0
LINE
  5
14A
330
1F
100
AcDbEntity
  8
1
  6
Continuous
 62
     3
100
AcDbLine
 10
83.35850741938793
 20
140.5605169020537
 30
0.0
 11
95.77079417911631
 21
140.5605169020537
 31
0.0
  0
LINE
  5
14B
330
1F
100
AcDbEntity
  8
1
  6
Continuous
 62
     3
100
AcDbLine
 10
95.77079417911631
 20
140.5605169020537
 30
0.0
 11
95.77079417911631
 21
137.8671407649718
 31
0.0
  0
LINE
  5
14C
330
1F
100
AcDbEntity
  8
1
  6
Continuous
 62
     3
100
AcDbLine
 10
95.77079417911631
 20
148.8671407649719
 30
0.0
 11
95.77079417911631
 21
150.2138288335128
 31
0.0
  0
LINE
  5
14D
330
1F
100
AcDbEntity
  8
2
  6
Continuous
 62
     3
100
AcDbLine
 10
96.49248201560238
 20
149.9638288335128
 30
0.0
 11
96.34814444830596
 21
150.2138288335128
 31
0.0
  0
LINE
  5
14E
330
1F
100
AcDbEntity
  8
1
  6
Continuous
 62
     3
100
AcDbLine
 10
95.77079417911631
 20
148.8671407649719
 30
0.0
 11
83.35850741938793
 21
148.8671407649719
 31
0.0
  0
LINE
  5
14F
330
1F
100
AcDbEntity
  8
1
  6
Continuous
 62
     3
100
AcDbLine
 10
83.35850741938793
 20
150.2138288335128
 30
0.0
 11
83.35850741938793
 21
148.8671407649719
 31
0.0
  0
LINE
  5
150
330
1F
100
AcDbEntity
  8
1
  6
Continuous
 62
     3
100
AcDbLine
 10
82.78115715019828
 20
150.2138288335128
 30
0.0
 11
96.34814444830596
 21
150.2138288335128
 31
0.0
  0
LINE
  5
151
330
1F
100
AcDbEntity
  8
2
  6
Continuous
 62
     3
100
AcDbLine
 10
82.49248201560243
 20
149.713828833511
 30
0.0
 11
82.78115715019828
 21
150.2138288335128
 31
0.0
  0
LINE
  5
159
330
1F
100
AcDbEntity
  8
3
  6
Continuous
 62
     3
100
AcDbLine
 10
111.0946236707242
 20
95.48473699941476
 30
0.0
 11
111.0946236707242
 21
80.25354532120276
 31
0.0
  0
LINE
  5
15A
330
1F
100
AcDbEntity
  8
1
  6
Continuous
 62
     3
100
AcDbLine
 10
22.80967985838937
 20
95.48473699941476
 30
0.0
 11
22.80967985838937
 21
80.25354532120276
 31
0.0
  0
LINE
  5
15B
330
1F
100
AcDbEntity
  8
1
  6
Continuous
 62
     3
100
AcDbLine
 10
38.30967985838937
 20
96.86914116030877
 30
0.0
 11
38.30967985838937
 21
78.86914116030877
 31
0.0
  0
LINE
  5
15C
330
1F
100
AcDbEntity
  8
1
  6
Continuous
 62
     3
100
AcDbLine
 10
38.30967985838937
 20
78.86914116030877
 30
0.0
 11
7.30967985838937
 21
78.86914116030877
 31
0.0
  0
LINE
  5
15D
330
1F
100
AcDbEntity
  8
1
  6
Continuous
 62
     3
100
AcDbLine
 10
7.30967985838937
 20
78.86914116030877
 30
0.0
 11
7.30967985838937
 21
96.86914116030877
 31
0.0
  0
LINE
  5
15E
330
1F
100
AcDbEntity
  8
1
  6
Continuous
 62
     3
100
AcDbLine
 10
7.30967985838937
 20
96.86914116030877
 30
0.0
 11
38.30967985838937
 21
96.86914116030877
 31
0.0
  0
LINE
  5
15F
330
1F
100
AcDbEntity
  8
1
  6
DOT_CENTER
 62
     1
100
AcDbLine
 10
65.99248201560249
 20
139.2138288335128
 30
0.0
 11
150.3544419756185
 21
139.2138288335128
 31
0.0
  0
LINE
  5
160
330
1F
100
AcDbEntity
  8
1
  6
DOT_CENTER
 62
     1
100
AcDbLine
 10
128.9924820156026
 20
157.7138288335128
 30
0.0
 11
128.9924820156026
 21
120.7138288335128
 31
0.0
  0
LINE
  5
161
330
1F
100
AcDbEntity
  8
1
  6
Continuous
 62
     3
100
AcDbLine
 10
100.9924820156026
 20
125.6832332185858
 30
0.0
 11
100.9924820156026
 21
127.7138288335128
 31
0.0
  0
LINE
  5
162
330
1F
100
AcDbEntity
  8
1
  6
Continuous
 62
     3
100
AcDbLine
 10
100.9924820156026
 20
127.7138288335128
 30
0.0
 11
100.9924820156026
 21
139.2138288335128
 31
0.0
  0
LINE
  5
163
330
1F
100
AcDbEntity
  8
1
  6
Continuous
 62
     3
100
AcDbLine
 10
100.9924820156026
 20
139.2138288335128
 30
0.0
 11
100.9924820156026
 21
150.7138288335128
 31
0.0
  0
LINE
  5
164
330
1F
100
AcDbEntity
  8
1
  6
Continuous
 62
     3
100
AcDbLine
 10
100.9924820156026
 20
150.7138288335128
 30
0.0
 11
100.9924820156026
 21
152.7444244484408
 31
0.0
  0
LINE
  5
165
330
1F
100
AcDbEntity
  8
1
  6
Continuous
 62
     3
100
AcDbLine
 10
101.4586118940304
 20
152.8138288335138
 30
0.0
 11
118.9465873317034
 21
152.8138288335138
 31
0.0
  0
LINE
  5
166
330
1F
100
AcDbEntity
  8
1
  6
Continuous
 62
     3
100
AcDbLine
 10
101.4586118940305
 20
125.6138288335128
 30
0.0
 11
118.9465873317032
 21
125.6138288335128
 31
0.0
  0
LINE
  5
167
330
1F
100
AcDbEntity
  8
1
  6
Continuous
 62
     3
100
AcDbLine
 10
119.7548777085686
 20
155.2138288335128
 30
0.0
 11
118.3692370625136
 21
152.8138288335138
 31
0.0
  0
LINE
  5
168
330
1F
100
AcDbEntity
  8
1
  6
Continuous
 62
     3
100
AcDbLine
 10
118.3692370625134
 20
125.6138288335128
 30
0.0
 11
119.7548777085686
 21
123.2138288335128
 31
0.0
  0
LINE
  5
169
330
1F
100
AcDbEntity
  8
1
  6
Continuous
 62
     3
100
AcDbLine
 10
119.7548777085686
 20
123.2138288335128
 30
0.0
 11
138.2300863226367
 21
123.2138288335128
 31
0.0
  0
LINE
  5
16A
330
1F
100
AcDbEntity
  8
1
  6
Continuous
 62
     3
100
AcDbLine
 10
138.2300863226367
 20
123.2138288335128
 30
0.0
 11
147.4676906296707
 21
139.2138288335128
 31
0.0
  0
LINE
  5
16B
330
1F
100
AcDbEntity
  8
1
  6
Continuous
 62
     3
100
AcDbLine
 10
147.4676906296707
 20
139.2138288335128
 30
0.0
 11
138.2300863226367
 21
155.2138288335128
 31
0.0
  0
LINE
  5
16C
330
1F
100
AcDbEntity
  8
1
  6
Continuous
 62
     3
100
AcDbLine
 10
138.2300863226367
 20
155.2138288335128
 30
0.0
 11
119.7548777085686
 21
155.2138288335128
 31
0.0
  0
LINE
  5
16D
330
1F
100
AcDbEntity
  8
0
  6
Continuous
 62
     3
100
AcDbLine
 10
72.49248201560246
 20
129.0096420976898
 30
0.0
 11
73.19051253883669
 21
128.3116115744558
 31
0.0
  0
LINE
  5
16E
330
1F
100
AcDbEntity
  8
0
  6
Continuous
 62
     3
100
AcDbLine
 10
78.79248201560247
 20
128.5886447443328
 30
0.0
 11
73.14948598005606
 21
128.7227242318648
 31
0.0
  0
LINE
  5
16F
330
1F
100
AcDbEntity
  8
1
  6
Continuous
 62
     3
100
AcDbLine
 10
82.49248201560246
 20
148.2138288335128
 30
0.0
 11
78.99248201560246
 21
148.2138288335128
 31
0.0
  0
LINE
  5
170
330
1F
100
AcDbEntity
  8
1
  6
Continuous
 62
     3
100
AcDbLine
 10
82.49248201560246
 20
130.2138288335128
 30
0.0
 11
78.99248201560246
 21
130.2138288335128
 31
0.0
  0
LINE
  5
171
330
1F
100
AcDbEntity
  8
1
  6
Continuous
 62
     3
100
AcDbLine
 10
81.99248201560246
 20
150.7138288335128
 30
0.0
 11
79.49248201560246
 21
150.7138288335128
 31
0.0
  0
LINE
  5
172
330
1F
100
AcDbEntity
  8
1
  6
Continuous
 62
     3
100
AcDbLine
 10
81.99248201560246
 20
127.7138288335128
 30
0.0
 11
79.49248201560246
 21
127.7138288335128
 31
0.0
  0
LINE
  5
173
330
1F
100
AcDbEntity
  8
1
  6
Continuous
 62
     3
100
AcDbLine
 10
78.99248201560246
 20
150.2138288335128
 30
0.0
 11
78.99248201560246
 21
128.2138288335128
 31
0.0
  0
LINE
  5
174
330
1F
100
AcDbEntity
  8
0
  6
Continuous
 62
     3
100
AcDbLine
 10
68.99248201560246
 20
132.5096420976898
 30
0.0
 11
68.99248201560246
 21
139.2138288335128
 31
0.0
  0
LINE
  5
175
330
1F
100
AcDbEntity
  8
0
  6
Continuous
 62
     3
100
AcDbLine
 10
78.79248201562757
 20
129.0511539758758
 30
0.0
 11
73.14948598005577
 21
129.1793970468258
 31
0.0
  0
LINE
  5
176
330
1F
100
AcDbEntity
  8
0
  6
Continuous
 62
     3
100
AcDbLine
 10
78.79248201560247
 20
128.2138288335128
 30
0.0
 11
73.19051253883669
 21
128.3116115744558
 31
0.0
  0
LINE
  5
177
330
1F
100
AcDbEntity
  8
0
  6
Continuous
 62
     3
100
AcDbLine
 10
78.79248201560247
 20
128.2138288335128
 30
0.0
 11
78.99248201560246
 21
128.4138288335128
 31
0.0
  0
LINE
  5
178
330
1F
100
AcDbEntity
  8
0
  6
Continuous
 62
     3
100
AcDbLine
 10
78.79248201560247
 20
131.4356542404608
 30
0.0
 11
73.14948597974927
 21
131.5338072375918
 31
0.0
  0
LINE
  5
179
330
1F
100
AcDbEntity
  8
0
  6
Continuous
 62
     3
100
AcDbLine
 10
78.79248201560247
 20
130.4869420903098
 30
0.0
 11
73.14948598020808
 21
130.5970669116968
 31
0.0
  0
LINE
  5
17A
330
1F
100
AcDbEntity
  8
0
  6
Continuous
 62
     3
100
AcDbLine
 10
78.79248201560247
 20
129.6875493918838
 30
0.0
 11
73.14948598020817
 21
129.8077617716688
 31
0.0
  0
LINE
  5
17B
330
1F
100
AcDbEntity
  8
0
  6
Continuous
 62
     3
100
AcDbLine
 10
78.79248201560247
 20
150.2138288335128
 30
0.0
 11
73.19051253883669
 21
150.1160460925698
 31
0.0
  0
LINE
  5
17C
330
1F
100
AcDbEntity
  8
0
  6
Continuous
 62
     3
100
AcDbLine
 10
78.79248201560247
 20
150.2138288335128
 30
0.0
 11
78.99248201560246
 21
150.0138288335128
 31
0.0
  0
LINE
  5
17D
330
1F
100
AcDbEntity
  8
0
  6
Continuous
 62
     3
100
AcDbLine
 10
73.19051253883669
 20
150.1160460925698
 30
0.0
 11
72.49248201560246
 21
149.4180155693358
 31
0.0
  0
LINE
  5
17E
330
1F
100
AcDbEntity
  8
0
  6
Continuous
 62
     3
100
AcDbLine
 10
78.79248201562757
 20
149.8390129226738
 30
0.0
 11
73.14948598005066
 21
149.7049334351588
 31
0.0
  0
LINE
  5
17F
330
1F
100
AcDbEntity
  8
0
  6
Continuous
 62
     3
100
AcDbLine
 10
78.79248201560247
 20
149.3765036911368
 30
0.0
 11
73.14948598005088
 21
149.2482606201988
 31
0.0
  0
LINE
  5
180
330
1F
100
AcDbEntity
  8
0
  6
Continuous
 62
     3
100
AcDbLine
 10
78.79248201560247
 20
148.7401082751418
 30
0.0
 11
73.14948598005108
 21
148.6198958952988
 31
0.0
  0
LINE
  5
181
330
1F
100
AcDbEntity
  8
0
  6
Continuous
 62
     3
100
AcDbLine
 10
78.79248201562768
 20
147.9407155766818
 30
0.0
 11
73.14948598005097
 21
147.8305907551158
 31
0.0
  0
LINE
  5
182
330
1F
100
AcDbEntity
  8
0
  6
Continuous
 62
     3
100
AcDbLine
 10
78.79248201562757
 20
136.3668193374338
 30
0.0
 11
73.14948598005597
 21
136.4027458277908
 31
0.0
  0
LINE
  5
183
330
1F
100
AcDbEntity
  8
0
  6
Continuous
 62
     3
100
AcDbLine
 10
78.79248201562768
 20
139.2138288335618
 30
0.0
 11
73.14948598005097
 21
139.2138288335138
 31
0.0
  0
LINE
  5
184
330
1F
100
AcDbEntity
  8
0
  6
Continuous
 62
     3
100
AcDbLine
 10
78.79248201560247
 20
142.0608383296398
 30
0.0
 11
73.14948598005577
 21
142.0249118392348
 31
0.0
  0
LINE
  5
185
330
1F
100
AcDbEntity
  8
0
  6
Continuous
 62
     3
100
AcDbLine
 10
78.79248201560247
 20
137.7780407190928
 30
0.0
 11
73.14948598020808
 21
137.7961589682618
 31
0.0
  0
LINE
  5
186
330
1F
100
AcDbEntity
  8
0
  6
Continuous
 62
     3
100
AcDbLine
 10
78.79248201562757
 20
140.6496169479808
 30
0.0
 11
73.14948598005097
 21
140.6314986985958
 31
0.0
  0
LINE
  5
187
330
1F
100
AcDbEntity
  8
0
  6
Continuous
 62
     3
100
AcDbLine
 10
78.79248201562757
 20
146.9920034265258
 30
0.0
 11
73.14948597974927
 21
146.8938504290148
 31
0.0
  0
LINE
  5
188
330
1F
100
AcDbEntity
  8
0
  6
Continuous
 62
     3
100
AcDbLine
 10
72.49248201211057
 20
129.0096420976898
 30
0.0
 11
72.49248201560246
 21
149.4180155693358
 31
0.0
  0
LINE
  5
189
330
1F
100
AcDbEntity
  8
0
  6
Continuous
 62
     3
100
AcDbLine
 10
68.99248201560246
 20
139.2138288335128
 30
0.0
 11
68.99248201560246
 21
145.9180155693358
 31
0.0
  0
LINE
  5
18A
330
1F
100
AcDbEntity
  8
4
  6
Continuous
 62
     3
100
AcDbLine
 10
82.49248201560246
 20
128.2138288335128
 30
0.0
 11
82.49248201560246
 21
150.2138288335128
 31
0.0
  0
LINE
  5
18B
330
1F
100
AcDbEntity
  8
1
  6
Continuous
 62
     3
100
AcDbLine
 10
98.99248201560238
 20
148.8488288335128
 30
0.0
 11
100.9924820156026
 21
148.7863257101048
 31
0.0
  0
LINE
  5
18C
330
1F
100
AcDbEntity
  8
1
  6
Continuous
 62
     3
100
AcDbLine
 10
98.99248201560238
 20
129.5788288335128
 30
0.0
 11
100.9924820156026
 21
129.6413319569218
 31
0.0
  0
LINE
  5
18D
330
1F
100
AcDbEntity
  8
1
  6
Continuous
 62
     3
100
AcDbLine
 10
98.99248201560238
 20
148.8488288335128
 30
0.0
 11
98.99248201560238
 21
149.9638288335128
 31
0.0
  0
LINE
  5
18E
330
1F
100
AcDbEntity
  8
1
  6
Continuous
 62
     3
100
AcDbLine
 10
98.99248201560238
 20
148.8488288335128
 30
0.0
 11
98.99248201560238
 21
128.4638288335128
 31
0.0
  0
LINE
  5
18F
330
1F
100
AcDbEntity
  8
0
  6
Continuous
 62
     3
100
AcDbLine
 10
96.49248201560238
 20
128.4638288335128
 30
0.0
 11
96.49248201560238
 21
149.9638288335128
 31
0.0
  0
LINE
  5
190
330
1F
100
AcDbEntity
  8
0
  6
Continuous
 62
     3
100
AcDbLine
 10
100.1129177717433
 20
128.4638288335128
 30
0.0
 11
96.49248201560238
 21
128.4638288335128
 31
0.0
  0
LINE
  5
191
330
1F
100
AcDbEntity
  8
0
  6
Continuous
 62
     3
100
AcDbLine
 10
100.9924820156026
 20
128.4913165897528
 30
0.0
 11
100.1129177717433
 21
128.4638288335128
 31
0.0
  0
LINE
  5
192
330
1F
100
AcDbEntity
  8
0
  6
Continuous
 62
     3
100
AcDbLine
 10
100.1129177717433
 20
149.9638288335128
 30
0.0
 11
96.49248201560238
 21
149.9638288335128
 31
0.0
  0
LINE
  5
193
330
1F
100
AcDbEntity
  8
0
  6
Continuous
 62
     3
100
AcDbLine
 10
100.9924820156026
 20
149.9363410772738
 30
0.0
 11
100.1129177717433
 21
149.9638288335128
 31
0.0
  0
LINE
  5
194
330
1F
100
AcDbEntity
  8
0
  6
Continuous
 62
     3
100
AcDbLine
 10
22.80967985714527
 20
75.72702499279777
 30
0.0
 11
33.45967985714538
 21
75.72702499279777
 31
0.0
  0
LINE
  5
195
330
1F
100
AcDbEntity
  8
0
  6
Continuous
 62
     3
100
AcDbLine
 10
13.80967985714527
 20
72.86914116030977
 30
0.0
 11
31.80967985714527
 21
72.86914116030977
 31
0.0
  0
LINE
  5
196
330
1F
100
AcDbEntity
  8
0
  6
Continuous
 62
     3
100
AcDbLine
 10
31.80967985714527
 20
65.36914046466777
 30
0.0
 11
13.80967985714527
 21
65.36914046466777
 31
0.0
  0
LINE
  5
197
330
1F
100
AcDbEntity
  8
0
  6
Continuous
 62
     3
100
AcDbLine
 10
22.80967985714457
 20
15.87555378913137
 30
0.0
 11
22.80967985714517
 21
25.86914116002457
 31
0.0
  0
LINE
  5
198
330
1F
100
AcDbEntity
  8
0
  6
Continuous
 62
     3
100
AcDbLine
 10
12.15967985714516
 20
75.72702499279777
 30
0.0
 11
22.80967985714527
 21
75.72702499279777
 31
0.0
  0
LINE
  5
199
330
1F
100
AcDbEntity
  8
1
  6
Continuous
 62
     3
100
AcDbLine
 10
14.80967985838937
 20
53.13049698095347
 30
0.0
 11
15.16328098617277
 21
52.77689585317006
 31
0.0
  0
LINE
  5
19A
330
1F
100
AcDbEntity
  8
1
  6
Continuous
 62
     3
100
AcDbLine
 10
30.45607873060587
 20
52.77689585317006
 30
0.0
 11
30.80967985838937
 21
53.13049698095347
 31
0.0
  0
LINE
  5
19B
330
1F
100
AcDbEntity
  8
1
  6
DOT_CENTER
 62
     1
100
AcDbLine
 10
19.30967985838937
 20
28.86914116002457
 30
0.0
 11
26.30967985838937
 21
28.86914116002457
 31
0.0
  0
LINE
  5
19C
330
1F
100
AcDbEntity
  8
1
  6
Continuous
 62
     3
100
AcDbLine
 10
23.80967985838937
 20
25.86914116002457
 30
0.0
 11
21.80967985838937
 21
25.86914116002457
 31
0.0
  0
LINE
  5
19D
330
1F
100
AcDbEntity
  8
1
  6
Continuous
 62
     3
100
AcDbLine
 10
19.80967985838937
 20
33.02642187769757
 30
0.0
 11
19.80967985838937
 21
27.86914116002457
 31
0.0
  0
LINE
  5
19E
330
1F
100
AcDbEntity
  8
1
  6
Continuous
 62
     3
100
AcDbLine
 10
25.80967985838937
 20
33.02642187769757
 30
0.0
 11
25.80967985838937
 21
27.86914116002457
 31
0.0
  0
LINE
  5
19F
330
1F
100
AcDbEntity
  8
1
  6
DOT_CENTER
 62
     1
100
AcDbLine
 10
6.80967985838937
 20
44.86914116002457
 30
0.0
 11
38.80967985838937
 21
44.86914116002457
 31
0.0
  0
LINE
  5
1A0
330
1F
100
AcDbEntity
  8
0
  6
Continuous
 62
     3
100
AcDbLine
 10
101.4586118940304
 20
31.26914116030876
 30
0.0
 11
108.6697525401281
 21
31.26914116030876
 31
0.0
  0
LINE
  5
1A1
330
1F
100
AcDbEntity
  8
0
  6
DOTTED
 62
     4
100
AcDbLine
 10
139.6424820156026
 20
82.86914116030877
 30
0.0
 11
140.6424820156026
 21
82.86914116030877
 31
0.0
  0
LINE
  5
1A2
330
1F
100
AcDbEntity
  8
0
  6
Continuous
 62
     3
100
AcDbLine
 10
118.3424820156026
 20
78.86914116030877
 30
0.0
 11
118.3424820156026
 21
75.72702499279777
 31
0.0
  0
LINE
  5
1A3
330
1F
100
AcDbEntity
  8
0
  6
Continuous
 62
     3
100
AcDbLine
 10
139.6424820156026
 20
78.86914116030877
 30
0.0
 11
139.6424820156026
 21
75.72702499279777
 31
0.0
  0
LINE
  5
1A4
330
1F
100
AcDbEntity
  8
0
  6
Continuous
 62
     3
100
AcDbLine
 10
118.3424820156026
 20
75.72702499279777
 30
0.0
 11
139.6424820156026
 21
75.72702499279777
 31
0.0
  0
LINE
  5
1A5
330
1F
100
AcDbEntity
  8
0
  6
Continuous
 62
     3
100
AcDbLine
 10
147.4676906296704
 20
16.53434964658337
 30
0.0
 11
147.4676906296706
 21
31.03563091760354
 31
0.0
  0
LINE
  5
1A6
330
1F
100
AcDbEntity
  8
0
  6
Continuous
 62
     3
100
AcDbLine
 10
140.0452497862814
 20
34.48596502818687
 30
0.0
 11
146.655010256519
 21
32.08020894799407
 31
0.0
  0
LINE
  5
1A7
330
1F
100
AcDbEntity
  8
0
  6
Continuous
 62
     3
100
AcDbLine
 10
143.9924820156026
 20
13.86914116030876
 30
0.0
 11
146.8129907651462
 21
15.49755861404557
 31
0.0
  0
LINE
  5
1A8
330
1F
100
AcDbEntity
  8
0
  6
Continuous
 62
     3
100
AcDbLine
 10
101.4586118940304
 20
58.46914116030877
 30
0.0
 11
117.3924820180024
 21
58.46914116030877
 31
0.0
  0
LINE
  5
1A9
330
1F
100
AcDbEntity
  8
0
  6
Continuous
 62
     3
100
AcDbLine
 10
118.9924820156026
 20
63.95492759793577
 30
0.0
 11
118.9924820156025
 21
60.06914115704677
 31
0.0
  0
LINE
  5
1AA
330
1F
100
AcDbEntity
  8
0
  6
Continuous
 62
     3
100
AcDbLine
 10
119.9924820156026
 20
72.44042245241877
 30
0.0
 11
119.9924820156026
 21
66.03188286010577
 31
0.0
  0
LINE
  5
1AB
330
1F
100
AcDbEntity
  8
0
  6
Continuous
 62
     3
100
AcDbLine
 10
119.523852865501
 20
64.90051201020776
 30
0.0
 11
119.2853752344161
 21
64.66203437912176
 31
0.0
  0
LINE
  5
1AC
330
1F
100
AcDbEntity
  8
0
  6
Continuous
 62
     3
100
AcDbLine
 10
110.5172734015347
 20
29.69020803798347
 30
0.0
 11
110.5172734015345
 21
16.53434964658246
 31
0.0
  0
LINE
  5
1AD
330
1F
100
AcDbEntity
  8
0
  6
Continuous
 62
     3
100
AcDbLine
 10
119.7548777085685
 20
15.87555378911146
 30
0.0
 11
119.7548777085668
 21
31.61759165403777
 31
0.0
  0
LINE
  5
1AE
330
1F
100
AcDbEntity
  8
0
  6
Continuous
 62
     3
100
AcDbLine
 10
113.9924820156026
 20
13.86914116030876
 30
0.0
 11
111.1719732607792
 21
15.49755859583897
 31
0.0
  0
LINE
  5
1AF
330
1F
100
AcDbEntity
  8
0
  6
Continuous
 62
     3
100
AcDbLine
 10
100.9924820156025
 20
31.33854554538077
 30
0.0
 11
100.9924820156025
 21
58.39973677523676
 31
0.0
  0
LINE
  5
1B0
330
1F
100
AcDbEntity
  8
0
  6
Continuous
 62
     3
100
AcDbLine
 10
113.9924820156026
 20
13.86914116030876
 30
0.0
 11
143.9924820156026
 21
13.86914116030876
 31
0.0
  0
LINE
  5
1B1
330
1F
100
AcDbEntity
  8
0
  6
Continuous
 62
     3
100
AcDbLine
 10
137.9924820156026
 20
72.44042245241877
 30
0.0
 11
137.9924820156026
 21
66.03188286010577
 31
0.0
  0
LINE
  5
1B2
330
1F
100
AcDbEntity
  8
0
  6
Continuous
 62
     3
100
AcDbLine
 10
138.4611111657042
 20
64.90051201020776
 30
0.0
 11
138.6995887967891
 21
64.66203437912176
 31
0.0
  0
LINE
  5
1B3
330
1F
100
AcDbEntity
  8
0
  6
Continuous
 62
     3
100
AcDbLine
 10
138.9924820156026
 20
63.95492759793577
 30
0.0
 11
138.9924820156025
 21
35.98947322144427
 31
0.0
  0
LINE
  5
1B4
330
1F
100
AcDbEntity
  8
0
  6
Continuous
 62
     3
100
AcDbLine
 10
138.2300863226366
 20
15.87555378912376
 30
0.0
 11
138.2300863226366
 21
31.61758906008036
 31
0.0
  0
LINE
  5
1B5
330
1F
100
AcDbEntity
  8
0
  6
Continuous
 62
     3
100
AcDbLine
 10
137.9924820156026
 20
65.36914116030877
 30
0.0
 11
119.9924820156026
 21
65.36914116030877
 31
0.0
  0
LINE
  5
1B6
330
1F
100
AcDbEntity
  8
0
  6
Continuous
 62
     3
100
AcDbLine
 10
119.9924820156026
 20
72.86914116030877
 30
0.0
 11
137.9924820156026
 21
72.86914116030877
 31
0.0
  0
LINE
  5
1B7
330
1F
100
AcDbEntity
  8
0
  6
Continuous
 62
     3
100
AcDbLine
 10
126.91402104652
 20
53.81198972106567
 30
0.0
 11
126.9140210465197
 21
36.06593152526297
 31
0.0
  0
LINE
  5
1B8
330
1F
100
AcDbEntity
  8
3
  6
Continuous
 62
     3
100
AcDbLine
 10
113.4924820156026
 20
78.86914116030877
 30
0.0
 11
118.3424820156026
 21
78.86914116030877
 31
0.0
  0
LINE
  5
1B9
330
1F
100
AcDbEntity
  8
3
  6
Continuous
 62
     3
100
AcDbLine
 10
111.0946236707242
 20
80.25354532120276
 30
0.0
 11
113.4924820156026
 21
78.86914116030877
 31
0.0
  0
LINE
  5
1BA
330
1F
100
AcDbEntity
  8
3
  6
Continuous
 62
     3
100
AcDbLine
 10
113.4924820156026
 20
96.86914116030877
 30
0.0
 11
111.0946236707242
 21
95.48473699941476
 31
0.0
  0
LINE
  5
1BB
330
1F
100
AcDbEntity
  8
3
  6
Continuous
 62
     3
100
AcDbLine
 10
144.4924820156026
 20
96.86914116030877
 30
0.0
 11
113.4924820156026
 21
96.86914116030877
 31
0.0
  0
LINE
  5
1BC
330
1F
100
AcDbEntity
  8
3
  6
Continuous
 62
     3
100
AcDbLine
 10
146.8903403604809
 20
95.48473699941476
 30
0.0
 11
144.4924820156026
 21
96.86914116030877
 31
0.0
  0
LINE
  5
1BD
330
1F
100
AcDbEntity
  8
3
  6
Continuous
 62
     3
100
AcDbLine
 10
146.8903403604809
 20
80.25354532120276
 30
0.0
 11
146.8903403604809
 21
95.48473699941476
 31
0.0
  0
LINE
  5
1BE
330
1F
100
AcDbEntity
  8
3
  6
Continuous
 62
     3
100
AcDbLine
 10
144.4924820156026
 20
78.86914116030877
 30
0.0
 11
146.8903403604809
 21
80.25354532120276
 31
0.0
  0
LINE
  5
1BF
330
1F
100
AcDbEntity
  8
3
  6
Continuous
 62
     3
100
AcDbLine
 10
139.6424820156026
 20
78.86914116030877
 30
0.0
 11
144.4924820156026
 21
78.86914116030877
 31
0.0
  0
LINE
  5
1C0
330
1F
100
AcDbEntity
  8
3
  6
Continuous
 62
     3
100
AcDbLine
 10
118.3424820156026
 20
78.86914116030877
 30
0.0
 11
139.6424820156026
 21
78.86914116030877
 31
0.0
  0
LINE
  5
1C1
330
1F
100
AcDbEntity
  8
3
  6
DOTTED
 62
     4
100
AcDbLine
 10
117.3424820156026
 20
85.86914116030877
 30
0.0
 11
117.3424820156026
 21
82.86914116030877
 31
0.0
  0
LINE
  5
1C2
330
1F
100
AcDbEntity
  8
3
  6
DOTTED
 62
     4
100
AcDbLine
 10
140.6424820156026
 20
85.86914116030877
 30
0.0
 11
117.3424820156026
 21
85.86914116030877
 31
0.0
  0
LINE
  5
1C3
330
1F
100
AcDbEntity
  8
3
  6
DOTTED
 62
     4
100
AcDbLine
 10
140.6424820156026
 20
82.86914116030877
 30
0.0
 11
140.6424820156026
 21
85.86914116030877
 31
0.0
  0
LINE
  5
1C4
330
1F
100
AcDbEntity
  8
3
  6
Continuous
 62
     3
100
AcDbLine
 10
120.0435528431634
 20
95.48473699941476
 30
0.0
 11
120.0435528431634
 21
80.25354532120276
 31
0.0
  0
LINE
  5
1C5
330
1F
100
AcDbEntity
  8
3
  6
Continuous
 62
     3
100
AcDbLine
 10
137.9414111880418
 20
95.48473699941476
 30
0.0
 11
137.9414111880418
 21
80.25354532120276
 31
0.0
  0
LINE
  5
1C6
330
1F
100
AcDbEntity
  8
0
  6
Continuous
 62
     3
100
AcDbLine
 10
138.2068413695476
 20
73.24042245241877
 30
0.0
 11
139.6424820156026
 21
75.72702499279777
 31
0.0
  0
LINE
  5
1C7
330
1F
100
AcDbEntity
  8
0
  6
Continuous
 62
     3
100
AcDbLine
 10
119.7781226616576
 20
73.24042245241877
 30
0.0
 11
118.3424820156026
 21
75.72702499279777
 31
0.0
  0
LINE
  5
1C8
330
1F
100
AcDbEntity
  8
1
  6
DOT_CENTER
 62
     1
100
AcDbLine
 10
128.9924820156026
 20
10.86914116030876
 30
0.0
 11
128.9924820156026
 21
99.86914116030877
 31
0.0
  0
LINE
  5
1C9
330
1F
100
AcDbEntity
  8
1
  6
DOT_CENTER
 62
     1
100
AcDbLine
 10
131.9924820156026
 20
44.86914116030877
 30
0.0
 11
63.99248201560249
 21
44.86914116030867
 31
0.0
  0
LINE
  5
1CA
330
1F
100
AcDbEntity
  8
4
  6
Continuous
 62
     3
100
AcDbLine
 10
81.99248201560246
 20
53.13049698123787
 30
0.0
 11
79.49248201560246
 21
53.13049698123787
 31
0.0
  0
LINE
  5
1CB
330
1F
100
AcDbEntity
  8
4
  6
Continuous
 62
     3
100
AcDbLine
 10
79.99248201560246
 20
33.95131019705987
 30
0.0
 11
79.99248201560246
 21
26.36914116030867
 31
0.0
  0
LINE
  5
1CC
330
1F
100
AcDbEntity
  8
4
  6
Continuous
 62
     3
100
AcDbLine
 10
80.49248201560246
 20
25.86914116030867
 30
0.0
 11
81.99248201560246
 21
25.86914116030867
 31
0.0
  0
LINE
  5
1CD
330
1F
100
AcDbEntity
  8
4
  6
Continuous
 62
     3
100
AcDbLine
 10
78.99248201560246
 20
34.06914116030866
 30
0.0
 11
78.99248201560246
 21
33.86914116030867
 31
0.0
  0
LINE
  5
1CE
330
1F
100
AcDbEntity
  8
0
  6
Continuous
 62
     3
100
AcDbLine
 10
68.99248201560246
 20
44.86914116030867
 30
0.0
 11
68.99248201560246
 21
51.57332789613177
 31
0.0
  0
LINE
  5
1CF
330
1F
100
AcDbEntity
  8
0
  6
Continuous
 62
     3
100
AcDbLine
 10
72.49248201556887
 20
54.87725730924977
 30
0.0
 11
72.49248201560246
 21
55.07332789613177
 31
0.0
  0
LINE
  5
1D0
330
1F
100
AcDbEntity
  8
0
  6
Continuous
 62
     3
100
AcDbLine
 10
72.49248201557026
 20
54.53179302741157
 30
0.0
 11
72.49248201556887
 21
54.87725730924977
 31
0.0
  0
LINE
  5
1D1
330
1F
100
AcDbEntity
  8
0
  6
Continuous
 62
     3
100
AcDbLine
 10
72.49248201560246
 20
54.02099809317797
 30
0.0
 11
72.49248201557026
 21
54.53179302741157
 31
0.0
  0
LINE
  5
1D2
330
1F
100
AcDbEntity
  8
0
  6
Continuous
 62
     3
100
AcDbLine
 10
72.49248201556887
 20
53.35361234939947
 30
0.0
 11
72.49248201560246
 21
54.02099809317797
 31
0.0
  0
LINE
  5
1D3
330
1F
100
AcDbEntity
  8
0
  6
Continuous
 62
     3
100
AcDbLine
 10
72.49248201556878
 20
52.54105495119907
 30
0.0
 11
72.49248201556887
 21
53.35361234939947
 31
0.0
  0
LINE
  5
1D4
330
1F
100
AcDbEntity
  8
0
  6
Continuous
 62
     3
100
AcDbLine
 10
78.79248201560247
 20
52.64731575336087
 30
0.0
 11
73.14948597974916
 21
52.54916275581097
 31
0.0
  0
LINE
  5
1D5
330
1F
100
AcDbEntity
  8
0
  6
Continuous
 62
     3
100
AcDbLine
 10
72.49248201556887
 20
42.87840308407357
 30
0.0
 11
72.49248201558308
 21
44.20175541650316
 31
0.0
  0
LINE
  5
1D6
330
1F
100
AcDbEntity
  8
0
  6
Continuous
 62
     3
100
AcDbLine
 10
72.49248201556878
 20
41.58911283206656
 30
0.0
 11
72.49248201556887
 21
42.87840308407357
 31
0.0
  0
LINE
  5
1D7
330
1F
100
AcDbEntity
  8
0
  6
Continuous
 62
     3
100
AcDbLine
 10
72.49248201558308
 20
44.20175541650316
 30
0.0
 11
72.49248201558308
 21
51.59722898104337
 31
0.0
  0
LINE
  5
1D8
330
1F
100
AcDbEntity
  8
0
  6
Continuous
 62
     3
100
AcDbLine
 10
72.49248201558308
 20
51.59722898104337
 30
0.0
 11
72.49248201556878
 21
52.54105495119907
 31
0.0
  0
LINE
  5
1D9
330
1F
100
AcDbEntity
  8
0
  6
Continuous
 62
     3
100
AcDbLine
 10
78.79248201560247
 20
46.30492927472926
 30
0.0
 11
73.14948598005088
 21
46.28681102539187
 31
0.0
  0
LINE
  5
1DA
330
1F
100
AcDbEntity
  8
0
  6
Continuous
 62
     3
100
AcDbLine
 10
78.79248201562757
 20
43.43335304584086
 30
0.0
 11
73.14948598020797
 21
43.45147129505777
 31
0.0
  0
LINE
  5
1DB
330
1F
100
AcDbEntity
  8
0
  6
Continuous
 62
     3
100
AcDbLine
 10
78.79248201562746
 20
47.71615065638817
 30
0.0
 11
73.14948598005577
 21
47.68022416603037
 31
0.0
  0
LINE
  5
1DC
330
1F
100
AcDbEntity
  8
0
  6
Continuous
 62
     3
100
AcDbLine
 10
78.79248201562768
 20
44.86914116035726
 30
0.0
 11
73.14948598005088
 21
44.86914116030917
 31
0.0
  0
LINE
  5
1DD
330
1F
100
AcDbEntity
  8
0
  6
Continuous
 62
     3
100
AcDbLine
 10
78.79248201562746
 20
42.02213166422926
 30
0.0
 11
73.14948598005597
 21
42.05805815458666
 31
0.0
  0
LINE
  5
1DE
330
1F
100
AcDbEntity
  8
0
  6
Continuous
 62
     3
100
AcDbLine
 10
78.79248201560247
 20
53.59602790351227
 30
0.0
 11
73.14948598005088
 21
53.48590308191177
 31
0.0
  0
LINE
  5
1DF
330
1F
100
AcDbEntity
  8
0
  6
Continuous
 62
     3
100
AcDbLine
 10
78.79248201560247
 20
54.39542060193767
 30
0.0
 11
73.14948598005108
 21
54.27520822209426
 31
0.0
  0
LINE
  5
1E0
330
1F
100
AcDbEntity
  8
0
  6
Continuous
 62
     3
100
AcDbLine
 10
78.79248201562757
 20
55.03181601794577
 30
0.0
 11
73.14948598005088
 21
54.90357294699477
 31
0.0
  0
LINE
  5
1E1
330
1F
100
AcDbEntity
  8
0
  6
Continuous
 62
     3
100
AcDbLine
 10
78.79248201560247
 20
55.49432524948877
 30
0.0
 11
73.14948598005066
 21
55.36024576195477
 31
0.0
  0
LINE
  5
1E2
330
1F
100
AcDbEntity
  8
0
  6
Continuous
 62
     3
100
AcDbLine
 10
73.19051253883669
 20
55.77135841936577
 30
0.0
 11
72.49248201560246
 21
55.07332789613177
 31
0.0
  0
LINE
  5
1E3
330
1F
100
AcDbEntity
  8
0
  6
Continuous
 62
     3
100
AcDbLine
 10
78.99248201560246
 20
34.06914116030866
 30
0.0
 11
78.79248201560247
 21
33.86914116030867
 31
0.0
  0
LINE
  5
1E4
330
1F
100
AcDbEntity
  8
0
  6
Continuous
 62
     3
100
AcDbLine
 10
78.79248201560247
 20
55.86914116030877
 30
0.0
 11
73.19051253883669
 21
55.77135841936577
 31
0.0
  0
LINE
  5
1E5
330
1F
100
AcDbEntity
  8
0
  6
Continuous
 62
     3
100
AcDbLine
 10
72.49248201560246
 20
34.66495442448577
 30
0.0
 11
72.49248201558328
 21
34.86102501132626
 31
0.0
  0
LINE
  5
1E6
330
1F
100
AcDbEntity
  8
0
  6
Continuous
 62
     3
100
AcDbLine
 10
73.19051253883669
 20
33.96692390125156
 30
0.0
 11
72.49248201560246
 21
34.66495442448577
 31
0.0
  0
LINE
  5
1E7
330
1F
100
AcDbEntity
  8
0
  6
Continuous
 62
     3
100
AcDbLine
 10
72.49248201558328
 20
34.86102501132626
 30
0.0
 11
72.49248201558308
 21
38.14105333952196
 31
0.0
  0
LINE
  5
1E8
330
1F
100
AcDbEntity
  8
0
  6
Continuous
 62
     3
100
AcDbLine
 10
78.79248201560247
 20
35.34286171867977
 30
0.0
 11
73.14948598020817
 21
35.46307409846487
 31
0.0
  0
LINE
  5
1E9
330
1F
100
AcDbEntity
  8
0
  6
Continuous
 62
     3
100
AcDbLine
 10
78.79248201560247
 20
36.14225441710516
 30
0.0
 11
73.14948598020797
 21
36.25237923849277
 31
0.0
  0
LINE
  5
1EA
330
1F
100
AcDbEntity
  8
0
  6
Continuous
 62
     3
100
AcDbLine
 10
78.79248201560247
 20
37.09096656725667
 30
0.0
 11
73.14948597974916
 21
37.18911956438807
 31
0.0
  0
LINE
  5
1EB
330
1F
100
AcDbEntity
  8
0
  6
Continuous
 62
     3
100
AcDbLine
 10
78.79248201560247
 20
52.65068316771627
 30
0.0
 11
78.79248201560247
 21
52.64731575336087
 31
0.0
  0
LINE
  5
1EC
330
1F
100
AcDbEntity
  8
0
  6
Continuous
 62
     3
100
AcDbLine
 10
78.99248201560246
 20
55.66914116030877
 30
0.0
 11
78.79248201560247
 21
55.86914116030877
 31
0.0
  0
LINE
  5
1ED
330
1F
100
AcDbEntity
  8
0
  6
Continuous
 62
     3
100
AcDbLine
 10
78.79248201560247
 20
33.86914116030867
 30
0.0
 11
73.19051253883669
 21
33.96692390125156
 31
0.0
  0
LINE
  5
1EE
330
1F
100
AcDbEntity
  8
0
  6
Continuous
 62
     3
100
AcDbLine
 10
78.79248201560247
 20
34.24395707112886
 30
0.0
 11
73.14948598005606
 21
34.37803655866087
 31
0.0
  0
LINE
  5
1EF
330
1F
100
AcDbEntity
  8
0
  6
Continuous
 62
     3
100
AcDbLine
 10
78.79248201562757
 20
34.70646630267157
 30
0.0
 11
73.14948598005566
 21
34.83470937362156
 31
0.0
  0
LINE
  5
1F0
330
1F
100
AcDbEntity
  8
0
  6
Continuous
 62
     3
100
AcDbLine
 10
72.49248201558308
 20
38.14105333952196
 30
0.0
 11
72.49248201556878
 21
41.58911283206656
 31
0.0
  0
LINE
  5
1F1
330
1F
100
AcDbEntity
  8
0
  6
Continuous
 62
     3
100
AcDbLine
 10
96.49248201560238
 20
34.11914116030867
 30
0.0
 11
96.49248201560238
 21
55.61914116030877
 31
0.0
  0
LINE
  5
1F2
330
1F
100
AcDbEntity
  8
0
  6
Continuous
 62
     3
100
AcDbLine
 10
95.77079417911528
 20
32.86914116030867
 30
0.0
 11
95.77079417911528
 21
32.94494595702346
 31
0.0
  0
LINE
  5
1F3
330
1F
100
AcDbEntity
  8
0
  6
Continuous
 62
     3
100
AcDbLine
 10
83.35850741938697
 20
32.86914116030867
 30
0.0
 11
95.77079417911528
 21
32.86914116030867
 31
0.0
  0
LINE
  5
1F4
330
1F
100
AcDbEntity
  8
0
  6
Continuous
 62
     3
100
AcDbLine
 10
83.35850741938697
 20
56.79333636359377
 30
0.0
 11
83.35850741938697
 21
56.86914116030877
 31
0.0
  0
LINE
  5
1F5
330
1F
100
AcDbEntity
  8
0
  6
Continuous
 62
     3
100
AcDbLine
 10
82.49248201560246
 20
55.36914116030877
 30
0.0
 11
83.35850741938697
 21
56.86914116030877
 31
0.0
  0
LINE
  5
1F6
330
1F
100
AcDbEntity
  8
0
  6
Continuous
 62
     3
100
AcDbLine
 10
95.77079417911528
 20
32.94494595702346
 30
0.0
 11
83.35850741938697
 21
32.94494595702346
 31
0.0
  0
LINE
  5
1F7
330
1F
100
AcDbEntity
  8
0
  6
Continuous
 62
     3
100
AcDbLine
 10
95.77079417911528
 20
56.79333636359377
 30
0.0
 11
83.35850741938697
 21
56.79333636359377
 31
0.0
  0
LINE
  5
1F8
330
1F
100
AcDbEntity
  8
0
  6
Continuous
 62
     3
100
AcDbLine
 10
95.77079417911528
 20
56.79333636359377
 30
0.0
 11
95.77079417911528
 21
56.86914116030877
 31
0.0
  0
LINE
  5
1F9
330
1F
100
AcDbEntity
  8
0
  6
Continuous
 62
     3
100
AcDbLine
 10
82.49248201560246
 20
34.36914116030887
 30
0.0
 11
83.35850741938697
 21
32.86914116030867
 31
0.0
  0
LINE
  5
1FA
330
1F
100
AcDbEntity
  8
0
  6
Continuous
 62
     3
100
AcDbLine
 10
83.35850741938697
 20
32.86914116030867
 30
0.0
 11
83.35850741938697
 21
32.94494595702346
 31
0.0
  0
LINE
  5
1FB
330
1F
100
AcDbEntity
  8
0
  6
Continuous
 62
     3
100
AcDbLine
 10
83.35850741938697
 20
56.86914116030877
 30
0.0
 11
95.77079417911528
 21
56.86914116030877
 31
0.0
  0
LINE
  5
1FC
330
1F
100
AcDbEntity
  8
0
  6
Continuous
 62
     3
100
AcDbLine
 10
95.77079417911528
 20
32.86914116030867
 30
0.0
 11
96.49248201560238
 21
34.11914116030867
 31
0.0
  0
LINE
  5
1FD
330
1F
100
AcDbEntity
  8
0
  6
Continuous
 62
     3
100
AcDbLine
 10
95.77079417911528
 20
56.86914116030877
 30
0.0
 11
96.49248201560238
 21
55.61914116030877
 31
0.0
  0
LINE
  5
1FE
330
1F
100
AcDbEntity
  8
0
  6
Continuous
 62
     3
100
AcDbLine
 10
95.77079417911528
 20
49.66497268362147
 30
0.0
 11
83.35850741937307
 21
49.66497268362987
 31
0.0
  0
LINE
  5
1FF
330
1F
100
AcDbEntity
  8
0
  6
Continuous
 62
     3
100
AcDbLine
 10
95.77079417911528
 20
49.66497268362147
 30
0.0
 11
95.77079417915428
 21
51.99750484036576
 31
0.0
  0
LINE
  5
200
330
1F
100
AcDbEntity
  8
0
  6
Continuous
 62
     3
100
AcDbLine
 10
96.49248201560238
 20
55.61914116030877
 30
0.0
 11
100.1129177717415
 21
55.61914116030877
 31
0.0
  0
LINE
  5
201
330
1F
100
AcDbEntity
  8
0
  6
Continuous
 62
     3
100
AcDbLine
 10
95.77079417915428
 20
51.99750484036576
 30
0.0
 11
83.35850741938697
 21
51.99750484028107
 31
0.0
  0
LINE
  5
202
330
1F
100
AcDbEntity
  8
0
  6
Continuous
 62
     3
100
AcDbLine
 10
83.35850741938697
 20
37.74077748033636
 30
0.0
 11
83.35850741937307
 21
40.07330963698766
 31
0.0
  0
LINE
  5
203
330
1F
100
AcDbEntity
  8
0
  6
Continuous
 62
     3
100
AcDbLine
 10
96.49248201560238
 20
34.11914116030867
 30
0.0
 11
100.1129177717433
 21
34.11914116030867
 31
0.0
  0
LINE
  5
204
330
1F
100
AcDbEntity
  8
0
  6
Continuous
 62
     3
100
AcDbLine
 10
95.77079417911528
 20
37.74077748033636
 30
0.0
 11
95.77079417911528
 21
40.07330963699597
 31
0.0
  0
LINE
  5
205
330
1F
100
AcDbEntity
  8
0
  6
Continuous
 62
     3
100
AcDbLine
 10
95.77079417911528
 20
37.74077748033636
 30
0.0
 11
83.35850741938697
 21
37.74077748033636
 31
0.0
  0
LINE
  5
206
330
1F
100
AcDbEntity
  8
0
  6
Continuous
 62
     3
100
AcDbLine
 10
95.77079417911528
 20
40.07330963699597
 30
0.0
 11
83.35850741937307
 21
40.07330963698766
 31
0.0
  0
LINE
  5
207
330
1F
100
AcDbEntity
  8
0
  6
Continuous
 62
     3
100
AcDbLine
 10
83.35850741937307
 20
49.66497268362987
 30
0.0
 11
83.35850741938697
 21
51.99750484028107
 31
0.0
  0
LINE
  5
208
330
1F
100
AcDbEntity
  8
0
  6
Continuous
 62
     3
100
AcDbLine
 10
68.99248201560246
 20
38.16495442448577
 30
0.0
 11
68.99248201560246
 21
44.86914116030867
 31
0.0
  0
LINE
  5
209
330
1F
100
AcDbEntity
  8
100
  6
Continuous
 62
     3
100
AcDbLine
 10
98.99248201560238
 20
34.13100313569646
 30
0.0
 11
98.99248201560206
 21
44.86914116030867
 31
0.0
  0
LINE
  5
20A
330
1F
100
AcDbEntity
  8
1
  6
Continuous
 62
     3
100
AcDbLine
 10
100.9924820156025
 20
35.30862891654857
 30
0.0
 11
98.99248201560238
 21
35.24612579314037
 31
0.0
  0
LINE
  5
20B
330
1F
100
AcDbEntity
  8
100
  6
Continuous
 62
     3
100
AcDbLine
 10
98.99248201560206
 20
44.86914116030867
 30
0.0
 11
98.99248201560226
 21
55.60727918492077
 31
0.0
  0
LINE
  5
20C
330
1F
100
AcDbEntity
  8
1
  6
Continuous
 62
     3
100
AcDbLine
 10
100.9924820156025
 20
54.42965340406907
 30
0.0
 11
98.99248201560238
 21
54.49215652747736
 31
0.0
  0
LINE
  5
20D
330
1F
100
AcDbEntity
  8
100
  6
Continuous
 62
     3
100
AcDbLine
 10
100.1129177717415
 20
55.61914116030877
 30
0.0
 11
100.9924820156025
 21
55.59165340406877
 31
0.0
  0
LINE
  5
20E
330
1F
100
AcDbEntity
  8
100
  6
Continuous
 62
     3
100
AcDbLine
 10
100.9924820156025
 20
34.14662891654837
 30
0.0
 11
100.1129177717433
 21
34.11914116030867
 31
0.0
  0
LINE
  5
20F
330
1F
100
AcDbEntity
  8
0
  6
DOTTED
 62
     4
100
AcDbLine
 10
118.3424820156026
 20
78.86914116030877
 30
0.0
 11
118.3424820156025
 21
82.86914116030877
 31
0.0
  0
LINE
  5
210
330
1F
100
AcDbEntity
  8
0
  6
DOTTED
 62
     4
100
AcDbLine
 10
139.6424820156026
 20
78.86914116030877
 30
0.0
 11
139.6424820156026
 21
82.86914116030877
 31
0.0
  0
LINE
  5
211
330
1F
100
AcDbEntity
  8
1
  6
Continuous
 62
     3
100
AcDbLine
 10
13.10264267063857
 20
64.60802541120977
 30
0.0
 11
13.34814139560658
 21
64.85347581848677
 31
0.0
  0
LINE
  5
212
330
1F
100
AcDbEntity
  8
1
  6
Continuous
 62
     3
100
AcDbLine
 10
13.80967985714467
 20
65.97771125888276
 30
0.0
 11
13.80967985714487
 21
72.44042245241977
 31
0.0
  0
LINE
  5
213
330
1F
100
AcDbEntity
  8
100
  6
Continuous
 62
     3
100
AcDbLine
 10
13.59532050319987
 20
73.24042245241976
 30
0.0
 11
12.15967985714516
 21
75.72702499279777
 31
0.0
  0
LINE
  5
214
330
1F
100
AcDbEntity
  8
1
  6
Continuous
 62
     3
100
AcDbLine
 10
31.80967985714467
 20
66.03173146652776
 30
0.0
 11
31.80967985714487
 21
72.44042245241877
 31
0.0
  0
LINE
  5
215
330
1F
100
AcDbEntity
  8
1
  6
Continuous
 62
     3
100
AcDbLine
 10
32.02403921108987
 20
73.24042245241877
 30
0.0
 11
33.45967985714538
 21
75.72702499279777
 31
0.0
  0
LINE
  5
216
330
1F
100
AcDbEntity
  8
1
  6
Continuous
 62
     3
100
AcDbLine
 10
32.27121831868277
 20
64.90749602613177
 30
0.0
 11
32.51671704365077
 21
64.66204561885377
 31
0.0
  0
LINE
  5
217
330
1F
100
AcDbEntity
  8
1
  6
Continuous
 62
     3
100
AcDbLine
 10
7.05967985714517
 20
14.30215386220107
 30
0.0
 11
7.80967985714517
 21
13.86914116030876
 31
0.0
  0
LINE
  5
218
330
1F
100
AcDbEntity
  8
1
  6
Continuous
 62
     3
100
AcDbLine
 10
38.55967985714517
 20
14.30215386220107
 30
0.0
 11
37.80967985714517
 21
13.86914116030876
 31
0.0
  0
LINE
  5
219
330
1F
100
AcDbEntity
  8
1
  6
Continuous
 62
     3
100
AcDbLine
 10
38.80967985714517
 20
32.33521598560557
 30
0.0
 11
38.80967985714517
 21
14.73516656409327
 31
0.0
  0
LINE
  5
21A
330
1F
100
AcDbEntity
  8
1
  6
Continuous
 62
     3
100
AcDbLine
 10
6.80967985714517
 20
14.73516656409327
 30
0.0
 11
6.80967985714517
 21
32.33521598560557
 31
0.0
  0
LINE
  5
21B
330
1F
100
AcDbEntity
  8
100
  6
Continuous
 62
     3
100
AcDbLine
 10
33.45967985714508
 20
78.86914116030877
 30
0.0
 11
33.45967985714538
 21
75.72702499279777
 31
0.0
  0
LINE
  5
21C
330
1F
100
AcDbEntity
  8
100
  6
Continuous
 62
     3
100
AcDbLine
 10
12.15967985714516
 20
75.72702499279777
 30
0.0
 11
12.15967985714508
 21
78.86914116030877
 31
0.0
  0
LINE
  5
21D
330
1F
100
AcDbEntity
  8
1
  6
Continuous
 62
     3
100
AcDbLine
 10
38.48068992880798
 20
32.80506229599857
 30
0.0
 11
34.45462949883097
 21
34.27042845386717
 31
0.0
  0
LINE
  5
21E
330
1F
100
AcDbEntity
  8
1
  6
Continuous
 62
     3
100
AcDbLine
 10
32.80967985714477
 20
54.08651605324165
 30
0.0
 11
32.80967985714457
 21
63.95486924983577
 31
0.0
  0
LINE
  5
21F
330
1F
100
AcDbEntity
  8
1
  6
Continuous
 62
     3
100
AcDbLine
 10
12.80967985714467
 20
63.90084904219177
 30
0.0
 11
12.80967985714537
 21
54.05026599852147
 31
0.0
  0
LINE
  5
220
330
1F
100
AcDbEntity
  8
1
  6
Continuous
 62
     3
100
AcDbLine
 10
11.16473021546088
 20
34.27042845386777
 30
0.0
 11
7.13866978548228
 21
32.80506229599857
 31
0.0
  0
LINE
  5
221
330
1F
100
AcDbEntity
  8
1
  6
Continuous
 62
     3
100
AcDbLine
 10
7.80967985714517
 20
13.86914116030876
 30
0.0
 11
22.76325339426757
 21
13.86914116030876
 31
0.0
  0
LINE
  5
222
330
1F
100
AcDbEntity
  8
1
  6
Continuous
 62
     3
100
AcDbLine
 10
37.80967985714517
 20
13.86914116030876
 30
0.0
 11
22.76325339426757
 21
13.86914116030876
 31
0.0
  0
LINE
  5
223
330
1F
100
AcDbEntity
  8
0
  6
DOTTED
 62
     4
100
AcDbLine
 10
117.3424820156026
 20
82.86914116030877
 30
0.0
 11
118.3424820156025
 21
82.86914116030877
 31
0.0
  0
LINE
  5
224
330
1F
100
AcDbEntity
  8
4
  6
Continuous
 62
     3
100
AcDbLine
 10
82.49248201560246
 20
26.36914116030867
 30
0.0
 11
82.49248201560246
 21
55.36914116030877
 31
0.0
  0
LINE
  5
225
330
1F
100
AcDbEntity
  8
0
  6
Continuous
 62
     3
100
AcDbLine
 10
78.99248201560246
 20
34.45897011588366
 30
0.0
 11
78.99248201560246
 21
34.06914116030866
 31
0.0
  0
LINE
  5
226
330
1F
100
AcDbEntity
  8
0
  6
Continuous
 62
     3
100
AcDbLine
 10
78.99248201560246
 20
55.66914116030877
 30
0.0
 11
78.99248201560246
 21
34.06914116030866
 31
0.0
  0
LINE
  5
227
330
1F
100
AcDbEntity
  8
1
  6
DOT_CENTER
 62
     1
100
AcDbLine
 10
22.80967985838937
 20
10.86914116030876
 30
0.0
 11
22.80967985838937
 21
99.86914116030877
 31
0.0
  0
ARC
  5
228
330
1F
100
AcDbEntity
  8
1
  6
Continuous
 62
     3
100
AcDbCircle
 10
22.80967985838937
 20
44.86914116002457
 30
0.0
 40
12.0000000000002
100
AcDbArc
 50
23.55646430910078
 51
36.44353569089934
  0
ARC
  5
229
330
1F
100
AcDbEntity
  8
1
  6
Continuous
 62
     3
100
AcDbCircle
 10
22.80967985838937
 20
44.86914116002457
 30
0.0
 40
11.9999999999999
100
AcDbArc
 50
323.5564643091008
 51
336.4435356908993
  0
ARC
  5
22A
330
1F
100
AcDbEntity
  8
1
  6
Continuous
 62
     3
100
AcDbCircle
 10
22.80967985838937
 20
44.86914116002457
 30
0.0
 40
11.99999999999999
100
AcDbArc
 50
203.556464309101
 51
216.4435356908986
  0
ARC
  5
22B
330
1F
100
AcDbEntity
  8
1
  6
Continuous
 62
     3
100
AcDbCircle
 10
22.80967985838937
 20
44.86914116002457
 30
0.0
 40
12.00000000000008
100
AcDbArc
 50
143.5564643091013
 51
156.4435356908988
  0
ARC
  5
22C
330
1F
100
AcDbEntity
  8
1
  6
Continuous
 62
     3
100
AcDbCircle
 10
22.80967985838937
 20
44.86914116002457
 30
0.0
 40
12.0
100
AcDbArc
 50
83.55646430910159
 51
96.44353569089942
  0
ARC
  5
22D
330
1F
100
AcDbEntity
  8
1
  6
Continuous
 62
     3
100
AcDbCircle
 10
97.9473711514971
 20
133.7138288335128
 30
0.0
 40
15.16855118309095
100
AcDbArc
 50
164.1088465795518
 51
195.8911534204485
  0
ARC
  5
22E
330
1F
100
AcDbEntity
  8
1
  6
Continuous
 62
     3
100
AcDbCircle
 10
81.16965783245928
 20
133.7138288335128
 30
0.0
 40
15.18035515439838
100
AcDbArc
 50
344.1215297621901
 51
15.87847023780953
  0
ARC
  5
22F
330
1F
100
AcDbEntity
  8
1
  6
Continuous
 62
     3
100
AcDbCircle
 10
81.16965783245928
 20
144.7138288335128
 30
0.0
 40
15.18035515439838
100
AcDbArc
 50
344.1215297621901
 51
15.87847023780995
  0
ARC
  5
230
330
1F
100
AcDbEntity
  8
1
  6
Continuous
 62
     3
100
AcDbCircle
 10
97.9473711514971
 20
144.7138288335128
 30
0.0
 40
15.16855118309098
100
AcDbArc
 50
164.1088465795514
 51
195.8911534204485
  0
ARC
  5
231
330
1F
100
AcDbEntity
  8
1
  6
Continuous
 62
     3
100
AcDbCircle
 10
101.4586118940305
 20
151.2138288335138
 30
0.0
 40
1.600000000000023
100
AcDbArc
 50
90.00000000000355
 51
106.9376682837333
  0
ARC
  5
232
330
1F
100
AcDbEntity
  8
1
  6
Continuous
 62
     3
100
AcDbCircle
 10
101.4586118940305
 20
127.2138288335128
 30
0.0
 40
1.599999999999059
100
AcDbArc
 50
253.0623317162666
 51
270.0
  0
ARC
  5
233
330
1F
100
AcDbEntity
  8
1
  6
Continuous
 62
     3
100
AcDbCircle
 10
115.1245898317877
 20
32.35841713074797
 30
0.0
 40
1.000000000000018
100
AcDbArc
 50
104.3769360128033
 51
134.7759943554682
  0
ARC
  5
234
330
1F
100
AcDbEntity
  8
1
  6
Continuous
 62
     3
100
AcDbCircle
 10
126.2061828778761
 20
36.40167727006147
 30
0.0
 40
0.9999999999999136
100
AcDbArc
 50
274.1596487989927
 51
340.3821073267686
  0
ARC
  5
235
330
1F
100
AcDbEntity
  8
1
  6
Continuous
 62
     3
100
AcDbCircle
 10
126.1570384790816
 20
53.47395082189996
 30
0.0
 40
0.999999999999986
100
AcDbArc
 50
19.75743817096681
 51
74.93759639355608
  0
ARC
  5
236
330
1F
100
AcDbEntity
  8
1
  6
Continuous
 62
     3
100
AcDbCircle
 10
12.20967985714478
 20
65.97771125888276
 30
0.0
 40
1.599999999999744
100
AcDbArc
 50
315.3602270414195
 51
0.0
  0
ARC
  5
237
330
1F
100
AcDbEntity
  8
1
  6
Continuous
 62
     3
100
AcDbCircle
 10
12.20967985714486
 20
72.44042245241977
 30
0.0
 40
1.60000000000001
100
AcDbArc
 50
0.0
 51
30.00000000000154
  0
ARC
  5
238
330
1F
100
AcDbEntity
  8
1
  6
Continuous
 62
     3
100
AcDbCircle
 10
33.40967985714488
 20
72.44042245241877
 30
0.0
 40
1.599999999999918
100
AcDbArc
 50
149.9999999999984
 51
180.0
  0
ARC
  5
239
330
1F
100
AcDbEntity
  8
1
  6
Continuous
 62
     3
100
AcDbCircle
 10
13.80967985714467
 20
63.90084904219177
 30
0.0
 40
0.9999999999999681
100
AcDbArc
 50
134.9943611271038
 51
180.0
  0
ARC
  5
23A
330
1F
100
AcDbEntity
  8
1
  6
Continuous
 62
     3
100
AcDbCircle
 10
31.80967985714457
 20
63.95486924983577
 30
0.0
 40
1.000000000000004
100
AcDbArc
 50
0.0
 51
45.00563887289242
  0
ARC
  5
23B
330
1F
100
AcDbEntity
  8
1
  6
Continuous
 62
     3
100
AcDbCircle
 10
33.40967985714457
 20
66.03173146652776
 30
0.0
 40
1.599999999999898
100
AcDbArc
 50
180.0
 51
224.6397729585806
  0
ARC
  5
23C
330
1F
100
AcDbEntity
  8
1
  6
Continuous
 62
     3
100
AcDbCircle
 10
7.30967985714517
 20
14.73516656409327
 30
0.0
 40
0.5
100
AcDbArc
 50
180.0
 51
239.9999999999988
  0
ARC
  5
23D
330
1F
100
AcDbEntity
  8
1
  6
Continuous
 62
     3
100
AcDbCircle
 10
38.30967985714517
 20
14.73516656409327
 30
0.0
 40
0.4999999999999826
100
AcDbArc
 50
300.0000000000011
 51
0.0
  0
ARC
  5
23E
330
1F
100
AcDbEntity
  8
1
  6
Continuous
 62
     3
100
AcDbCircle
 10
38.30967985714517
 20
32.33521598560557
 30
0.0
 40
0.5
100
AcDbArc
 50
0.0
 51
70.00000000000388
  0
ARC
  5
23F
330
1F
100
AcDbEntity
  8
1
  6
Continuous
 62
     3
100
AcDbCircle
 10
7.30967985714517
 20
32.33521598560557
 30
0.0
 40
0.5000000000000578
100
AcDbArc
 50
110.0000000000045
 51
180.0
  0
ARC
  5
240
330
1F
100
AcDbEntity
  8
1
  6
Continuous
 62
     3
100
AcDbCircle
 10
35.30967985714517
 20
36.61966000583196
 30
0.0
 40
2.50000000000002
100
AcDbArc
 50
199.0696026642567
 51
249.9999999999995
  0
ARC
  5
241
330
1F
100
AcDbEntity
  8
1
  6
Continuous
 62
     3
100
AcDbCircle
 10
10.30967985714668
 20
36.61966000583257
 30
0.0
 40
2.500000000000036
100
AcDbArc
 50
290.0000000000003
 51
340.9303972727819
  0
ARC
  5
242
330
1F
100
AcDbEntity
  8
1
  6
Continuous
 62
     3
100
AcDbCircle
 10
79.49248201560246
 20
150.2138288335128
 30
0.0
 40
0.5
100
AcDbArc
 50
90.0
 51
180.0
  0
ARC
  5
243
330
1F
100
AcDbEntity
  8
1
  6
Continuous
 62
     3
100
AcDbCircle
 10
81.99248201560246
 20
150.2138288335128
 30
0.0
 40
0.5
100
AcDbArc
 50
0.0
 51
90.0
  0
ARC
  5
244
330
1F
100
AcDbEntity
  8
1
  6
Continuous
 62
     3
100
AcDbCircle
 10
81.99248201560246
 20
128.2138288335128
 30
0.0
 40
0.4999999999999858
100
AcDbArc
 50
270.0
 51
0.0
  0
ARC
  5
245
330
1F
100
AcDbEntity
  8
1
  6
Continuous
 62
     3
100
AcDbCircle
 10
79.49248201560246
 20
128.2138288335128
 30
0.0
 40
0.5
100
AcDbArc
 50
180.0
 51
270.0
  0
ARC
  5
246
330
1F
100
AcDbEntity
  8
0
  6
Continuous
 62
     3
100
AcDbCircle
 10
72.49248201560246
 20
145.9180155693358
 30
0.0
 40
3.5
100
AcDbArc
 50
90.0
 51
180.0
  0
ARC
  5
247
330
1F
100
AcDbEntity
  8
0
  6
Continuous
 62
     3
100
AcDbCircle
 10
72.49248201560246
 20
132.5096420976898
 30
0.0
 40
3.5
100
AcDbArc
 50
180.0
 51
270.0
  0
ARC
  5
248
330
1F
100
AcDbEntity
  8
1
  6
Continuous
 62
     3
100
AcDbCircle
 10
22.80967985553637
 20
44.86914116547436
 30
0.0
 40
13.59999999462544
100
AcDbArc
 50
221.8080869020194
 51
257.2564147850017
  0
ARC
  5
249
330
1F
100
AcDbEntity
  8
1
  6
Continuous
 62
     3
100
AcDbCircle
 10
22.80967985553637
 20
44.86914116547436
 30
0.0
 40
13.59999999462541
100
AcDbArc
 50
42.66792545954517
 51
180.0
  0
ARC
  5
24A
330
1F
100
AcDbEntity
  8
1
  6
Continuous
 62
     3
100
AcDbCircle
 10
18.80967985838937
 20
33.02642187769757
 30
0.0
 40
1.0
100
AcDbArc
 50
0.0
 51
71.33707511505389
  0
ARC
  5
24B
330
1F
100
AcDbEntity
  8
1
  6
Continuous
 62
     3
100
AcDbCircle
 10
26.80967985838937
 20
33.02642187769757
 30
0.0
 40
0.9999999999999659
100
AcDbArc
 50
108.6629248849485
 51
180.0
  0
ARC
  5
24C
330
1F
100
AcDbEntity
  8
1
  6
Continuous
 62
     3
100
AcDbCircle
 10
22.80967985838937
 20
44.86914116002457
 30
0.0
 40
11.49999999999982
100
AcDbArc
 50
316.9574262941703
 51
45.92079015211159
  0
ARC
  5
24D
330
1F
100
AcDbEntity
  8
1
  6
Continuous
 62
     3
100
AcDbCircle
 10
21.80967985838937
 20
27.86914116002457
 30
0.0
 40
2.0
100
AcDbArc
 50
180.0
 51
270.0
  0
ARC
  5
24E
330
1F
100
AcDbEntity
  8
1
  6
Continuous
 62
     3
100
AcDbCircle
 10
23.80967985838937
 20
27.86914116002457
 30
0.0
 40
2.0
100
AcDbArc
 50
270.0
 51
0.0
  0
ARC
  5
24F
330
1F
100
AcDbEntity
  8
0
  6
Continuous
 62
     3
100
AcDbCircle
 10
140.5924820156025
 20
35.98947322144427
 30
0.0
 40
1.600000000000023
100
AcDbArc
 50
180.0
 51
249.999999999998
  0
ARC
  5
250
330
1F
100
AcDbEntity
  8
0
  6
Continuous
 62
     3
100
AcDbCircle
 10
101.4586118940303
 20
32.86914116030877
 30
0.0
 40
1.599999999999979
100
AcDbArc
 50
253.0623317162803
 51
270.0000000000036
  0
ARC
  5
251
330
1F
100
AcDbEntity
  8
0
  6
Continuous
 62
     3
100
AcDbCircle
 10
118.3924820156026
 20
72.44042245241877
 30
0.0
 40
1.600000000000009
100
AcDbArc
 50
0.0
 51
30.00000000000158
  0
ARC
  5
252
330
1F
100
AcDbEntity
  8
0
  6
Continuous
 62
     3
100
AcDbCircle
 10
117.3924820239331
 20
60.06914115197776
 30
0.0
 40
1.599999991668987
100
AcDbArc
 50
269.9999997876224
 51
0.00000018152062
  0
ARC
  5
253
330
1F
100
AcDbEntity
  8
0
  6
Continuous
 62
     3
100
AcDbCircle
 10
101.4586118940303
 20
56.86914116030877
 30
0.0
 40
1.600000000000001
100
AcDbArc
 50
89.99999999999643
 51
106.9376682837198
  0
ARC
  5
254
330
1F
100
AcDbEntity
  8
0
  6
Continuous
 62
     3
100
AcDbCircle
 10
119.9924820156026
 20
63.95492759793577
 30
0.0
 40
0.999999999999581
100
AcDbArc
 50
135.000000000021
 51
180.0
  0
ARC
  5
255
330
1F
100
AcDbEntity
  8
0
  6
Continuous
 62
     3
100
AcDbCircle
 10
139.5924820156026
 20
72.44042245241877
 30
0.0
 40
1.599999999999918
100
AcDbArc
 50
149.9999999999984
 51
180.0
  0
ARC
  5
256
330
1F
100
AcDbEntity
  8
0
  6
Continuous
 62
     3
100
AcDbCircle
 10
118.3924820156026
 20
66.03188286010577
 30
0.0
 40
1.599999999999615
100
AcDbArc
 50
315.0000000000101
 51
0.0
  0
ARC
  5
257
330
1F
100
AcDbEntity
  8
0
  6
Continuous
 62
     3
100
AcDbCircle
 10
139.5924820156026
 20
66.03188286010577
 30
0.0
 40
1.599999999999994
100
AcDbArc
 50
180.0
 51
224.9999999999903
  0
ARC
  5
258
330
1F
100
AcDbEntity
  8
0
  6
Continuous
 62
     3
100
AcDbCircle
 10
137.9924820156025
 20
63.95492759793577
 30
0.0
 40
1.000000000000114
100
AcDbArc
 50
0.0
 51
44.99999999997495
  0
ARC
  5
259
330
1F
100
AcDbEntity
  8
3
  6
Continuous
 62
     3
100
AcDbCircle
 10
115.5690882569437
 20
86.79219168042076
 30
0.0
 40
7.923050520112006
100
AcDbArc
 50
235.6157525319601
 51
304.3842474680411
  0
ARC
  5
25A
330
1F
100
AcDbEntity
  8
3
  6
Continuous
 62
     3
100
AcDbCircle
 10
115.5690882569437
 20
88.94609064019676
 30
0.0
 40
7.923050520112129
100
AcDbArc
 50
55.615752531959
 51
124.3842474680398
  0
ARC
  5
25B
330
1F
100
AcDbEntity
  8
3
  6
Continuous
 62
     3
100
AcDbCircle
 10
128.9924820156026
 20
108.4847369994148
 30
0.0
 40
29.61559583910616
100
AcDbArc
 50
252.4120462260064
 51
287.5879537739935
  0
ARC
  5
25C
330
1F
100
AcDbEntity
  8
3
  6
Continuous
 62
     3
100
AcDbCircle
 10
142.4158757742616
 20
86.79219168042076
 30
0.0
 40
7.923050520112175
100
AcDbArc
 50
235.6157525319583
 51
304.3842474680387
  0
ARC
  5
25D
330
1F
100
AcDbEntity
  8
3
  6
Continuous
 62
     3
100
AcDbCircle
 10
142.4158757742616
 20
88.94609064019676
 30
0.0
 40
7.923050520111913
100
AcDbArc
 50
55.61575253196128
 51
124.3842474680416
  0
ARC
  5
25E
330
1F
100
AcDbEntity
  8
3
  6
Continuous
 62
     3
100
AcDbCircle
 10
128.9924820156024
 20
67.25354532120276
 30
0.0
 40
29.61559583910618
100
AcDbArc
 50
72.41204622600603
 51
107.5879537739933
  0
ARC
  5
25F
330
1F
100
AcDbEntity
  8
4
  6
Continuous
 62
     3
100
AcDbCircle
 10
81.99248201560246
 20
52.63049698123787
 30
0.0
 40
0.5000000000000497
100
AcDbArc
 50
28.50844966366696
 51
90.0
  0
ARC
  5
260
330
1F
100
AcDbEntity
  8
4
  6
Continuous
 62
     3
100
AcDbCircle
 10
79.49248201560246
 20
52.63049698123787
 30
0.0
 40
0.5
100
AcDbArc
 50
90.0
 51
151.4915503363368
  0
ARC
  5
261
330
1F
100
AcDbEntity
  8
4
  6
Continuous
 62
     3
100
AcDbCircle
 10
79.49248201560246
 20
32.86914116030867
 30
0.0
 40
0.5
100
AcDbArc
 50
0.0
 51
90.0
  0
ARC
  5
262
330
1F
100
AcDbEntity
  8
4
  6
Continuous
 62
     3
100
AcDbCircle
 10
81.99248201560246
 20
26.36914116030867
 30
0.0
 40
0.5
100
AcDbArc
 50
270.0
 51
0.0
  0
ARC
  5
263
330
1F
100
AcDbEntity
  8
4
  6
Continuous
 62
     3
100
AcDbCircle
 10
80.49248201560246
 20
26.36914116030867
 30
0.0
 40
0.5
100
AcDbArc
 50
180.0
 51
270.0
  0
ARC
  5
264
330
1F
100
AcDbEntity
  8
4
  6
Continuous
 62
     3
100
AcDbCircle
 10
79.49248201560246
 20
33.86914116030867
 30
0.0
 40
0.5
100
AcDbArc
 50
180.0
 51
270.0
  0
ARC
  5
265
330
1F
100
AcDbEntity
  8
0
  6
Continuous
 62
     3
100
AcDbCircle
 10
72.49248201560246
 20
38.16495442448577
 30
0.0
 40
3.5
100
AcDbArc
 50
180.0
 51
270.0
  0
ARC
  5
266
330
1F
100
AcDbEntity
  8
0
  6
Continuous
 62
     3
100
AcDbCircle
 10
72.49248201560246
 20
51.57332789613177
 30
0.0
 40
3.5
100
AcDbArc
 50
90.0
 51
180.0
  0
ARC
  5
267
330
1F
100
AcDbEntity
  8
1
  6
Continuous
 62
     3
100
AcDbCircle
 10
22.80967985838937
 20
44.86914116002457
 30
0.0
 40
11.49999999999982
100
AcDbArc
 50
134.0792098478884
 51
316.9574262941703
  0
ARC
  5
268
330
1F
100
AcDbEntity
  8
1
  6
Continuous
 62
     3
100
AcDbCircle
 10
22.80967985553637
 20
44.86914116547436
 30
0.0
 40
13.59999999462541
100
AcDbArc
 50
282.7435852396443
 51
318.1919131126522
  0
ARC
  5
269
330
1F
100
AcDbEntity
  8
1
  6
Continuous
 62
     3
100
AcDbCircle
 10
22.80967985553637
 20
44.86914116547436
 30
0.0
 40
13.5999999946254
100
AcDbArc
 50
180.0
 51
221.8080869020194
  0
ARC
  5
26A
330
1F
100
AcDbEntity
  8
1
  6
Continuous
 62
     3
100
AcDbCircle
 10
22.80967985553637
 20
44.86914116547436
 30
0.0
 40
13.59999999462541
100
AcDbArc
 50
318.1919131126522
 51
42.66792545954517
  0
CIRCLE
  5
26B
330
1F
100
AcDbEntity
  8
1
  6
Continuous
 62
     3
100
AcDbCircle
 10
128.9924820156026
 20
139.2138288335128
 30
0.0
 40
8.750000000000199
  0
CIRCLE
  5
26C
330
1F
100
AcDbEntity
  8
1
  6
Continuous
 62
     3
100
AcDbCircle
 10
128.9924820156026
 20
139.2138288335128
 30
0.0
 40
15.5000000000004
  0
CIRCLE
  5
26D
330
1F
100
AcDbEntity
  8
1
  6
Continuous
 62
     3
100
AcDbCircle
 10
128.9924820156026
 20
139.2138288335128
 30
0.0
 40
11.65000000000001
  0
CIRCLE
  5
26E
330
1F
100
AcDbEntity
  8
1
  6
Continuous
 62
     3
100
AcDbCircle
 10
128.9924820156026
 20
139.2138288335128
 30
0.0
 40
12.25
  0
CIRCLE
  5
26F
330
1F
100
AcDbEntity
  8
1
  6
Continuous
 62
     3
100
AcDbCircle
 10
128.9924820156026
 20
139.2138288335128
 30
0.0
 40
6.5
  0
CIRCLE
  5
270
330
1F
100
AcDbEntity
  8
1
  6
Continuous
 62
     3
100
AcDbCircle
 10
128.9924820156026
 20
139.2138288335128
 30
0.0
 40
7.75
  0
CIRCLE
  5
271
330
1F
100
AcDbEntity
  8
1
  6
Continuous
 62
     3
100
AcDbCircle
 10
128.9924820156026
 20
139.2138288335128
 30
0.0
 40
13.2205
  0
CIRCLE
  5
272
330
1F
100
AcDbEntity
  8
1
  6
Continuous
 62
     3
100
AcDbCircle
 10
128.9924820156026
 20
139.2138288335128
 30
0.0
 40
15.5000000000004
  0
CIRCLE
  5
273
330
1F
100
AcDbEntity
  8
1
  6
Continuous
 62
     3
100
AcDbCircle
 10
22.80967985838937
 20
28.86914116002457
 30
0.0
 40
1.299999999999908
  0
CIRCLE
  5
274
330
1F
100
AcDbEntity
  8
1
  6
Continuous
 62
     3
100
AcDbCircle
 10
22.80967985838937
 20
44.86914116002457
 30
0.0
 40
10.34999999999989
  0
CIRCLE
  5
275
330
1F
100
AcDbEntity
  8
1
  6
Continuous
 62
     3
100
AcDbCircle
 10
22.80967985838937
 20
44.86914116002457
 30
0.0
 40
11.0
  0
CIRCLE
  5
276
330
1F
100
AcDbEntity
  8
1
  6
Continuous
 62
     3
100
AcDbCircle
 10
22.80967985838937
 20
44.86914116002457
 30
0.0
 40
6.5
  0
SPLINE
  5
277
330
1F
100
AcDbEntity
  8
0
  6
Continuous
 62
     3
100
AcDbSpline
210
0.0
220
0.0
230
1.0
 70
     8
 71
     3
 72
   139
 73
   135
 74
   133
 42
0.0000000001
 43
0.0000000001
 44
0.00000001
 40
0.0
 40
0.0
 40
0.0
 40
0.0
 40
0.1757196566018584
 40
0.3514393132037062
 40
0.3577347660377129
 40
0.3640300682862567
 40
0.3703251458096412
 40
0.3766202636741486
 40
0.3829150004708363
 40
0.3892097264633702
 40
0.3955045314595372
 40
0.4017993393465816
 40
0.4080938261763206
 40
0.41438831223058
 40
0.4206827786031856
 40
0.4269772451870811
 40
0.4332718413888628
 40
0.4395664375305229
 40
0.4458610391349598
 40
0.4521556407632796
 40
0.4584503814619912
 40
0.4647451221491956
 40
0.4710398617859677
 40
0.4773346014239595
 40
0.4836293279255878
 40
0.4899240544321198
 40
0.4962187802768461
 40
0.5025135061027246
 40
0.508808131445404
 40
0.51510275686617
 40
0.5213973870197374
 40
0.5276920168693331
 40
0.5339865928391042
 40
0.54028116994874
 40
0.546575731631139
 40
0.5528702890557736
 40
0.5575644697613303
 40
0.5622586481447447
 40
0.5669528182318975
 40
0.5716469889410236
 40
0.5763411256518726
 40
0.5810352621963346
 40
0.5857294013079772
 40
0.5904235404636183
 40
0.5951175254478388
 40
0.5998115104203061
 40
0.604505494789139
 40
0.6091994791611494
 40
0.6138934744447033
 40
0.6185874697277581
 40
0.6232814652344907
 40
0.627975460739977
 40
0.63266860326875
 40
0.6373617457963316
 40
0.642054888313529
 40
0.6467480308310964
 40
0.6514411703906834
 40
0.6561343099498684
 40
0.6608274496234035
 40
0.6655205892979665
 40
0.6702138053650241
 40
0.6749070214290933
 40
0.6796002373753879
 40
0.6842934533327553
 40
0.6889866731229362
 40
0.6936798928718727
 40
0.6983731132495409
 40
0.7030663337813506
 40
0.7078538493702821
 40
0.7126413651160431
 40
0.7174288814917685
 40
0.7222163978255141
 40
0.7270039158819452
 40
0.7317914339495702
 40
0.7365789519251998
 40
0.7413664698980598
 40
0.7461539197238614
 40
0.7509413695499922
 40
0.7557288194773077
 40
0.760516269404559
 40
0.7653037229177213
 40
0.7700911764306306
 40
0.7748786300692087
 40
0.7796660837090663
 40
0.7844548325610985
 40
0.7892435814162584
 40
0.7940323301563065
 40
0.798821078896549
 40
0.8036098149928799
 40
0.8083985510855625
 40
0.813187288054683
 40
0.817976025037732
 40
0.822765009259895
 40
0.827553993429731
 40
0.8323429745980087
 40
0.8371319559665309
 40
0.8419209839366313
 40
0.8467100111571041
 40
0.8514990487209058
 40
0.8562880890840919
 40
0.8625367847047897
 40
0.8687854850421876
 40
0.8750342025731855
 40
0.8812829188421101
 40
0.8875316831445385
 40
0.8937804477822504
 40
0.9000292078127
 40
0.9062779677605716
 40
0.9125266074141168
 40
0.9187752470834812
 40
0.9250238872821027
 40
0.9312725274767508
 40
0.9375212343419128
 40
0.9437699412035147
 40
0.9500186517232448
 40
0.9562673622665981
 40
0.9625151582450994
 40
0.9687629541645171
 40
0.9750107368605471
 40
0.9812585197093482
 40
0.9875059720318394
 40
0.9937534238217871
 40
1.000000925646837
 40
1.006248429414302
 40
1.012496995960536
 40
1.018745555269441
 40
1.024993916657431
 40
1.031242305121148
 40
1.037491670381617
 40
1.043740934505382
 40
1.049990764495258
 40
1.056240972080413
 40
1.232564229366312
 40
1.408887486652268
 40
1.408887486652268
 40
1.408887486652268
 40
1.408887486652268
 10
146.655010256519
 20
32.08020894799407
 30
0.0
 10
146.7093480662282
 20
32.05814326938057
 30
0.0
 10
146.8180236856467
 20
32.01401191215358
 30
0.0
 10
146.920130892669
 20
31.95124588787201
 30
0.0
 10
146.9715480937701
 20
31.9152461154067
 30
0.0
 10
146.9766872612223
 20
31.91161006132301
 30
0.0
 10
146.9818090114505
 20
31.90794989913988
 30
0.0
 10
146.986913061886
 20
31.90426536490361
 30
0.0
 10
146.9919993582149
 20
31.90055657337774
 30
0.0
 10
146.9970677701832
 20
31.89682355035783
 30
0.0
 10
147.0021182668719
 20
31.89306628601295
 30
0.0
 10
147.0071506272382
 20
31.88928489731684
 30
0.0
 10
147.0121646929649
 20
31.88547945937486
 30
0.0
 10
147.0171603215135
 20
31.88165003693666
 30
0.0
 10
147.0221374602511
 20
31.87779662461241
 30
0.0
 10
147.027096005259
 20
31.87391925553744
 30
0.0
 10
147.0320358226012
 20
31.87001798529105
 30
0.0
 10
147.0369567727043
 20
31.86609287096942
 30
0.0
 10
147.0418586806888
 20
31.86214399845986
 30
0.0
 10
147.046741440992
 20
31.85817139789037
 30
0.0
 10
147.0516049096997
 20
31.85417512960309
 30
0.0
 10
147.0564489390793
 20
31.85015524805226
 30
0.0
 10
147.0612733457766
 20
31.84611183798931
 30
0.0
 10
147.06607797836
 20
31.84204495807861
 30
0.0
 10
147.0708626884607
 20
31.83795466448182
 30
0.0
 10
147.0756273270467
 20
31.83384101466506
 30
0.0
 10
147.0803717479353
 20
31.82970406356711
 30
0.0
 10
147.0850957758558
 20
31.82554389160492
 30
0.0
 10
147.0897992606326
 20
31.82136055785734
 30
0.0
 10
147.0944820506679
 20
31.81715411903911
 30
0.0
 10
147.0991440170814
 20
31.81292461087232
 30
0.0
 10
147.1037849922191
 20
31.80867210410735
 30
0.0
 10
147.108404820319
 20
31.80439665902519
 30
0.0
 10
147.1130033417954
 20
31.80009833851447
 30
0.0
 10
147.1175804116122
 20
31.79577719177495
 30
0.0
 10
147.1217498014607
 20
31.79180142148931
 30
0.0
 10
147.1255173383116
 20
31.78817733640194
 30
0.0
 10
147.1288882446236
 20
31.78491047449013
 30
0.0
 10
147.1322469175857
 20
31.78163104178076
 30
0.0
 10
147.1355932860362
 20
31.77833907404017
 30
0.0
 10
147.1389272878772
 20
31.77503459824253
 30
0.0
 10
147.1422488595686
 20
31.77171764308478
 30
0.0
 10
147.1455579448487
 20
31.76838822983898
 30
0.0
 10
147.148854443115
 20
31.76504642446805
 30
0.0
 10
147.1521382894977
 20
31.76169225768361
 30
0.0
 10
147.1554094197054
 20
31.75832576025108
 30
0.0
 10
147.1586678048684
 20
31.75494692579037
 30
0.0
 10
147.1619133824897
 20
31.75155578222807
 30
0.0
 10
147.1651460874542
 20
31.74815236015161
 30
0.0
 10
147.168365854279
 20
31.74473669038266
 30
0.0
 10
147.1715726147527
 20
31.74130880668424
 30
0.0
 10
147.1747661095118
 20
31.73786894877266
 30
0.0
 10
147.1779462751649
 20
31.73441715084979
 30
0.0
 10
147.1811130483311
 20
31.7309534473936
 30
0.0
 10
147.1842665552878
 20
31.72747766142713
 30
0.0
 10
147.1874067287889
 20
31.72398982604683
 30
0.0
 10
147.1905335020463
 20
31.72048997385944
 30
0.0
 10
147.193646808092
 20
31.71697813769533
 30
0.0
 10
147.1967465803638
 20
31.71345434991177
 30
0.0
 10
147.1998327681702
 20
31.70991862466409
 30
0.0
 10
147.2029053035707
 20
31.70637099534559
 30
0.0
 10
147.2059641183209
 20
31.70281149553681
 30
0.0
 10
147.2090091275712
 20
31.6992401785182
 30
0.0
 10
147.212040263739
 20
31.69565707760804
 30
0.0
 10
147.2150574581951
 20
31.69206222733435
 30
0.0
 10
147.2180606422057
 20
31.68845566237056
 30
0.0
 10
147.2210497459135
 20
31.68483741874969
 30
0.0
 10
147.2240446239985
 20
31.6811832216356
 30
0.0
 10
147.2270448717816
 20
31.67749283297171
 30
0.0
 10
147.2300500766324
 20
31.67376601469446
 30
0.0
 10
147.2330403360204
 20
31.67002719370054
 30
0.0
 10
147.2360155752598
 20
31.66627640806563
 30
0.0
 10
147.2389757189653
 20
31.66251369674083
 30
0.0
 10
147.2419206915879
 20
31.65873909885306
 30
0.0
 10
147.2448504169777
 20
31.6549526543076
 30
0.0
 10
147.2477648052483
 20
31.65115442092609
 30
0.0
 10
147.2506637803523
 20
31.64734443902142
 30
0.0
 10
147.2535472657049
 20
31.64352274904315
 30
0.0
 10
147.2564151979277
 20
31.63968937355392
 30
0.0
 10
147.2592675003256
 20
31.63584435259659
 30
0.0
 10
147.2621040951842
 20
31.63198772755941
 30
0.0
 10
147.2649249045908
 20
31.62811954016694
 30
0.0
 10
147.2677298496372
 20
31.62423983352744
 30
0.0
 10
147.2705191033604
 20
31.62034829926038
 30
0.0
 10
147.2732925819249
 20
31.61644497670535
 30
0.0
 10
147.2760502020511
 20
31.61252990627251
 30
0.0
 10
147.2787916351995
 20
31.60860348427467
 30
0.0
 10
147.2815168002211
 20
31.60466575894149
 30
0.0
 10
147.2842256181609
 20
31.60071677543815
 30
0.0
 10
147.286918009802
 20
31.59675657903628
 30
0.0
 10
147.2895938978155
 20
31.59278521214362
 30
0.0
 10
147.2922532479826
 20
31.58880265253338
 30
0.0
 10
147.2948959788618
 20
31.5848089465316
 30
0.0
 10
147.2975220091198
 20
31.58080414199907
 30
0.0
 10
147.3001312132688
 20
31.57678835572273
 30
0.0
 10
147.3027235193362
 20
31.57276162313861
 30
0.0
 10
147.3052988468778
 20
31.56872399241225
 30
0.0
 10
147.3078571168162
 20
31.56467551022477
 30
0.0
 10
147.3103982404832
 20
31.56061623857039
 30
0.0
 10
147.3131785562477
 20
31.55613272830981
 30
0.0
 10
147.3161912933917
 20
31.55122089665768
 30
0.0
 10
147.3194287915637
 20
31.54587624406944
 30
0.0
 10
147.3226364936391
 20
31.54051364706105
 30
0.0
 10
147.3258142412058
 20
31.53513322083382
 30
0.0
 10
147.3289618652565
 20
31.52973509826062
 30
0.0
 10
147.3320791974683
 20
31.52431940916039
 30
0.0
 10
147.3351660616246
 20
31.5188862975267
 30
0.0
 10
147.3382222693823
 20
31.51343592985803
 30
0.0
 10
147.3412476528196
 20
31.5079684378144
 30
0.0
 10
147.3442420375705
 20
31.50248395265638
 30
0.0
 10
147.3472052671456
 20
31.4969825717042
 30
0.0
 10
147.3501371752784
 20
31.49146440908222
 30
0.0
 10
147.3530375840572
 20
31.48592959988323
 30
0.0
 10
147.3559063165515
 20
31.48037827994828
 30
0.0
 10
147.3587431845881
 20
31.4748106075006
 30
0.0
 10
147.3615478728161
 20
31.46922699500986
 30
0.0
 10
147.3643202069443
 20
31.46362758785347
 30
0.0
 10
147.3670599997693
 20
31.45801253040004
 30
0.0
 10
147.3697671950353
 20
31.45238168883573
 30
0.0
 10
147.3724415528523
 20
31.44673530372859
 30
0.0
 10
147.3750828834326
 20
31.44107351498075
 30
0.0
 10
147.3776909950874
 20
31.43539645014303
 30
0.0
 10
147.380265732771
 20
31.42970415229348
 30
0.0
 10
147.3828070387486
 20
31.42399644358127
 30
0.0
 10
147.3853146963623
 20
31.4182734865382
 30
0.0
 10
147.3877884736111
 20
31.41253549200008
 30
0.0
 10
147.3902280368964
 20
31.40678293054771
 30
0.0
 10
147.3926332945283
 20
31.40101565473496
 30
0.0
 10
147.3950040889558
 20
31.39523378234685
 30
0.0
 10
147.3973401198785
 20
31.38943732778057
 30
0.0
 10
147.3996416995221
 20
31.38362655198608
 30
0.0
 10
147.4224481347306
 20
31.3249696740646
 30
0.0
 10
147.4577331119298
 20
31.20940634728203
 30
0.0
 10
147.4643714570904
 20
31.09171237649106
 30
0.0
 10
147.4676906296707
 20
31.03286539109557
 30
0.0
 11
146.655010256519
 21
32.08020894799407
 31
0.0
 11
146.8159323592915
 21
32.00962938611133
 31
0.0
 11
146.966388614506
 21
31.91885321642405
 31
0.0
 11
146.9715452159069
 21
31.9152418194122
 31
0.0
 11
146.976684434581
 21
31.91160598913283
 31
0.0
 11
146.9818060760658
 21
31.90794582663277
 31
0.0
 11
146.9869102214851
 21
31.90426123595445
 31
0.0
 11
146.991996394449
 21
31.90055252244154
 31
0.0
 11
146.9970647599634
 21
31.89681952815628
 31
0.0
 11
147.0021152539892
 21
31.89306225786587
 31
0.0
 11
147.007147677674
 21
31.88928081393649
 31
0.0
 11
147.0121616354175
 21
31.88547545032753
 31
0.0
 11
147.0171572459666
 21
31.8816460339322
 31
0.0
 11
147.0221343564233
 21
31.87779263563746
 31
0.0
 11
147.0270928443414
 21
31.87391530315992
 31
0.0
 11
147.0320326721913
 21
31.87001401591629
 31
0.0
 11
147.0369535973618
 21
31.8660889125989
 31
0.0
 11
147.0418554831718
 21
31.86214004885546
 31
0.0
 11
147.0467381838564
 21
31.85816748750486
 31
0.0
 11
147.0516016638906
 21
31.85417119892408
 31
0.0
 11
147.0564456689464
 21
31.85015132637157
 31
0.0
 11
147.0612700506924
 21
31.84610792583933
 31
0.0
 11
147.0660746618371
 21
31.84204105248778
 31
0.0
 11
147.0708593437894
 21
31.83795077128148
 31
0.0
 11
147.0756239576255
 21
31.83383713094902
 31
0.0
 11
147.08036835333
 21
31.82970018970466
 31
0.0
 11
147.0850923812587
 21
31.82554000541166
 31
0.0
 11
147.0897958154621
 21
31.8213567034982
 31
0.0
 11
147.0944785787074
 21
31.81715027537257
 31
0.0
 11
147.099140520635
 21
31.81292077584743
 31
0.0
 11
147.1037814830923
 21
31.80866826689231
 31
0.0
 11
147.1084012717136
 21
31.80439284413726
 31
0.0
 11
147.1129997710173
 21
31.80009452991618
 31
0.0
 11
147.1175768120731
 21
31.79577339558049
 31
0.0
 11
147.1221322453724
 21
31.79142949403611
 31
0.0
 11
147.1255153111261
 21
31.78817523550265
 31
0.0
 11
147.1288862081125
 21
31.78490837704191
 31
0.0
 11
147.1322448683373
 21
31.78162895113161
 31
0.0
 11
147.1355912343246
 21
31.77833698009195
 31
0.0
 11
147.138925217472
 21
31.77503251707469
 31
0.0
 11
147.1422467777998
 21
31.77171556743875
 31
0.0
 11
147.1455558529154
 21
31.76838615850048
 31
0.0
 11
147.1488523764906
 21
31.76504432147113
 31
0.0
 11
147.1521361761537
 21
31.76169019642801
 31
0.0
 11
147.1554072956949
 21
31.75832370391071
 31
0.0
 11
147.1586656698814
 21
31.75494487468814
 31
0.0
 11
147.1619112341186
 21
31.7515537388803
 31
0.0
 11
147.1651439306717
 21
31.74815031931795
 31
0.0
 11
147.1683636864943
 21
31.74473465479109
 31
0.0
 11
147.1715704360336
 21
31.74130677626205
 31
0.0
 11
147.1747641132202
 21
31.7378667152403
 31
0.0
 11
147.1779440751932
 21
31.73441513174209
 31
0.0
 11
147.1811108372989
 21
31.73095143363887
 31
0.0
 11
147.1842643331555
 21
31.72747565306905
 31
0.0
 11
147.187404496183
 21
31.72398782238928
 31
0.0
 11
147.1905312576164
 21
31.72048797641207
 31
0.0
 11
147.1936445524336
 21
31.71697614579211
 31
0.0
 11
147.196744313491
 21
31.71345236353685
 31
0.0
 11
147.1998304732767
 21
31.70991666307131
 31
0.0
 11
147.2029030140222
 21
31.7063690201328
 31
0.0
 11
147.2059618174337
 21
31.70280952596739
 31
0.0
 11
147.2090068152547
 21
31.69923821469715
 31
0.0
 11
147.212037939161
 21
31.69565512051933
 31
0.0
 11
147.2150551229719
 21
31.69206027506363
 31
0.0
 11
147.2180582953285
 21
31.68845371612075
 31
0.0
 11
147.2210473875793
 21
31.6848354782859
 31
0.0
 11
147.224022330116
 21
31.68120559731491
 31
0.0
 11
147.2270423932601
 21
31.6774908262426
 31
0.0
 11
147.2300475855645
 21
31.67376401443766
 31
0.0
 11
147.2330378325911
 21
31.67002519968325
 31
0.0
 11
147.2360130589233
 21
31.66627442097501
 31
0.0
 11
147.2389731903928
 21
31.66251171572162
 31
0.0
 11
147.2419181504041
 21
31.65873712438223
 31
0.0
 11
147.2448478630997
 21
31.65495068649305
 31
0.0
 11
147.2477622524775
 21
31.65115244178075
 31
0.0
 11
147.2506612010162
 21
31.64734248466747
 31
0.0
 11
147.253544673493
 21
31.64352080148946
 31
0.0
 11
147.2564125928348
 21
31.63968743280705
 31
0.0
 11
147.2592648815738
 21
31.63584241970496
 31
0.0
 11
147.2621014641534
 21
31.63198580066624
 31
0.0
 11
147.264922260502
 21
31.62811762033202
 31
0.0
 11
147.2677271924931
 21
31.62423792074738
 31
0.0
 11
147.2705161815758
 21
31.62034674454341
 31
0.0
 11
147.2732898971765
 21
31.61644307737849
 31
0.0
 11
147.2760475042471
 21
31.61252801430851
 31
0.0
 11
147.2787889242484
 21
31.60860159980266
 31
0.0
 11
147.2815140784974
 21
31.60466387853061
 31
0.0
 11
147.2842228808152
 21
31.60071490608156
 31
0.0
 11
147.286915259006
 21
31.59675471757055
 31
0.0
 11
147.2895911338499
 21
31.59278335815852
 31
0.0
 11
147.2922504248761
 21
31.58880087487157
 31
0.0
 11
147.2948931879477
 21
31.58480710807476
 31
0.0
 11
147.2975192054018
 21
31.58080231073786
 31
0.0
 11
147.300128395569
 21
31.57678653344055
 31
0.0
 11
147.3027206798205
 21
31.57275982201464
 31
0.0
 11
147.305296002401
 21
31.56872218625783
 31
0.0
 11
147.3078542569025
 21
31.56467371548183
 31
0.0
 11
147.3103953682724
 21
31.56061445030284
 31
0.0
 11
147.3129192513195
 21
31.55654444760447
 31
0.0
 11
147.3161863531912
 21
31.55121788752128
 31
0.0
 11
147.3194238219995
 21
31.54587325922532
 31
0.0
 11
147.3226314996244
 21
31.54051067822013
 31
0.0
 11
147.3258092111917
 21
31.53513028750899
 31
0.0
 11
147.3289568153348
 21
31.52973217270237
 31
0.0
 11
147.3320741203415
 21
31.52431650386163
 31
0.0
 11
147.3351609556357
 21
31.51888341544117
 31
0.0
 11
147.3382171547624
 21
31.51343303492382
 31
0.0
 11
147.3412424895905
 21
31.50796559981233
 31
0.0
 11
147.3442368449427
 21
31.50248113687219
 31
0.0
 11
147.3472000451541
 21
31.49697977805467
 31
0.0
 11
147.3501319132863
 21
31.49146165758322
 31
0.0
 11
147.3530323028646
 21
31.48592685155398
 31
0.0
 11
147.3559010051586
 21
31.48037555579618
 31
0.0
 11
147.3587378439967
 21
31.47480790561266
 31
0.0
 11
147.3615426391951
 21
31.46922404428294
 31
0.0
 11
147.3643148062705
 21
31.46362493325575
 31
0.0
 11
147.3670545690822
 21
31.45800989509146
 31
0.0
 11
147.3697617302801
 21
31.45237908104146
 31
0.0
 11
147.372436103004
 21
31.44673262010924
 31
0.0
 11
147.3750773536349
 21
31.44107095466287
 31
0.0
 11
147.3776854246556
 21
31.4353939290844
 31
0.0
 11
147.3802601353494
 21
31.42970164097701
 31
0.0
 11
147.3828012638128
 21
31.42399427998816
 31
0.0
 11
147.3853090314134
 21
31.41827102169033
 31
0.0
 11
147.3877828011173
 21
31.41253299442572
 31
0.0
 11
147.3902222986102
 21
31.40678052782288
 31
0.0
 11
147.3926274070464
 21
31.40101356919603
 31
0.0
 11
147.394998277511
 21
31.3952313949165
 31
0.0
 11
147.3973342907248
 21
31.3894351595561
 31
0.0
 11
147.3996354860494
 21
31.38362440444335
 31
0.0
 11
147.4019015824523
 21
31.37779946650802
 31
0.0
 11
147.4507250764099
 21
31.2083705507419
 31
0.0
 11
147.4676906296707
 21
31.03286539109557
 31
0.0
  0
SPLINE
  5
278
330
1F
100
AcDbEntity
  8
1
  6
Continuous
 62
     3
100
AcDbSpline
210
0.0
220
0.0
230
1.0
 70
     8
 71
     3
 72
     9
 73
     5
 74
     3
 42
0.0000000001
 43
0.0000000001
 44
0.00000001
 40
0.0
 40
0.0
 40
0.0
 40
0.0
 40
7.87267901547497
 40
15.74535803094994
 40
15.74535803094994
 40
15.74535803094994
 40
15.74535803094994
 10
22.80967985838937
 20
95.48473699941476
 30
0.0
 10
20.22634652505604
 20
96.17693907986163
 30
0.0
 10
15.05967985838937
 20
97.56134324075539
 30
0.0
 10
9.893013191722707
 20
96.17693907986165
 30
0.0
 10
7.309679858389373
 20
95.48473699941476
 30
0.0
 11
22.80967985838937
 21
95.48473699941476
 31
0.0
 11
15.05967985838937
 21
96.86914116030852
 31
0.0
 11
7.309679858389373
 21
95.48473699941476
 31
0.0
  0
SPLINE
  5
279
330
1F
100
AcDbEntity
  8
1
  6
Continuous
 62
     3
100
AcDbSpline
210
0.0
220
0.0
230
1.0
 70
     8
 71
     3
 72
     9
 73
     5
 74
     3
 42
0.0000000001
 43
0.0000000001
 44
0.00000001
 40
0.0
 40
0.0
 40
0.0
 40
0.0
 40
7.872679015474977
 40
15.74535803094994
 40
15.74535803094994
 40
15.74535803094994
 40
15.74535803094994
 10
38.30967985838937
 20
95.48473699941476
 30
0.0
 10
35.72634652505604
 20
96.17693907986163
 30
0.0
 10
30.55967985838937
 20
97.56134324075538
 30
0.0
 10
25.3930131917227
 20
96.17693907986165
 30
0.0
 10
22.80967985838937
 20
95.48473699941476
 30
0.0
 11
38.30967985838937
 21
95.48473699941476
 31
0.0
 11
30.55967985838937
 21
96.86914116030852
 31
0.0
 11
22.80967985838937
 21
95.48473699941476
 31
0.0
  0
SPLINE
  5
27A
330
1F
100
AcDbEntity
  8
1
  6
Continuous
 62
     3
100
AcDbSpline
210
0.0
220
0.0
230
1.0
 70
     8
 71
     3
 72
     9
 73
     5
 74
     3
 42
0.0000000001
 43
0.0000000001
 44
0.00000001
 40
0.0
 40
0.0
 40
0.0
 40
0.0
 40
7.87267901547497
 40
15.74535803094994
 40
15.74535803094994
 40
15.74535803094994
 40
15.74535803094994
 10
22.80967985838937
 20
80.25354532120276
 30
0.0
 10
20.22634652505604
 20
79.56134324075587
 30
0.0
 10
15.05967985838937
 20
78.17693907986214
 30
0.0
 10
9.893013191722707
 20
79.56134324075592
 30
0.0
 10
7.309679858389373
 20
80.25354532120276
 30
0.0
 11
22.80967985838937
 21
80.25354532120276
 31
0.0
 11
15.05967985838937
 21
78.86914116030901
 31
0.0
 11
7.309679858389373
 21
80.25354532120276
 31
0.0
  0
SPLINE
  5
27B
330
1F
100
AcDbEntity
  8
1
  6
Continuous
 62
     3
100
AcDbSpline
210
0.0
220
0.0
230
1.0
 70
     8
 71
     3
 72
     9
 73
     5
 74
     3
 42
0.0000000001
 43
0.0000000001
 44
0.00000001
 40
0.0
 40
0.0
 40
0.0
 40
0.0
 40
7.872679015474977
 40
15.74535803094994
 40
15.74535803094994
 40
15.74535803094994
 40
15.74535803094994
 10
38.30967985838937
 20
80.25354532120276
 30
0.0
 10
35.72634652505604
 20
79.56134324075589
 30
0.0
 10
30.55967985838937
 20
78.17693907986214
 30
0.0
 10
25.3930131917227
 20
79.5613432407559
 30
0.0
 10
22.80967985838937
 20
80.25354532120276
 30
0.0
 11
38.30967985838937
 21
80.25354532120276
 31
0.0
 11
30.55967985838937
 21
78.86914116030901
 31
0.0
 11
22.80967985838937
 21
80.25354532120276
 31
0.0
  0
SPLINE
  5
27C
330
1F
100
AcDbEntity
  8
0
  6
Continuous
 62
     3
100
AcDbSpline
210
0.0
220
0.0
230
1.0
 70
     8
 71
     3
 72
    11
 73
     7
 74
     5
 42
0.0000000001
 43
0.0000000001
 44
0.00000001
 40
0.0
 40
0.0
 40
0.0
 40
0.0
 40
1.400678983576548
 40
2.80135796715314
 40
4.202037205062411
 40
5.602716442971676
 40
5.602716442971676
 40
5.602716442971676
 40
5.602716442971676
 10
73.19051253883669
 20
132.6089382042788
 30
0.0
 10
73.6573433027167
 20
132.6013154598735
 30
0.0
 10
74.59100483047676
 20
132.586069971063
 30
0.0
 10
75.99149716958016
 20
132.56319945206
 30
0.0
 10
77.39198956869316
 20
132.5403274157329
 30
0.0
 10
78.32565119996605
 20
132.5250778815222
 30
0.0
 10
78.79248201560247
 20
132.5174531144168
 30
0.0
 11
73.19051253883669
 21
132.6089382042788
 31
0.0
 11
74.59100482425958
 21
132.5860695903292
 31
0.0
 11
75.9914970806878
 21
132.5631992007877
 31
0.0
 11
77.39198956253152
 21
132.5403270384654
 31
0.0
 11
78.79248201560247
 21
132.5174531144168
 31
0.0
  0
SPLINE
  5
27D
330
1F
100
AcDbEntity
  8
0
  6
Continuous
 62
     3
100
AcDbSpline
210
0.0
220
0.0
230
1.0
 70
     8
 71
     3
 72
    11
 73
     7
 74
     5
 42
0.0000000001
 43
0.0000000001
 44
0.00000001
 40
0.0
 40
0.0
 40
0.0
 40
0.0
 40
1.400492280308047
 40
2.800984560616101
 40
4.201477022426433
 40
5.601969484236751
 40
5.601969484236751
 40
5.601969484236751
 40
5.601969484236751
 10
73.19051253883669
 20
143.4230624726748
 30
0.0
 10
73.65734329793544
 20
143.4230931398411
 30
0.0
 10
74.59100481613298
 20
143.4231544741737
 30
0.0
 10
75.99149715489064
 20
143.4232307014578
 30
0.0
 10
77.39198955467921
 20
143.4232964607879
 30
0.0
 10
78.32565119529464
 20
143.4233298799485
 30
0.0
 10
78.79248201560236
 20
143.4233465895288
 30
0.0
 11
73.19051253883669
 21
143.4230624726748
 31
0.0
 11
74.59100481629308
 21
143.4231518451373
 31
0.0
 11
75.99149709447823
 21
143.4232289567952
 31
0.0
 11
77.39198955478486
 21
143.4232938556892
 31
0.0
 11
78.79248201560236
 21
143.4233465895288
 31
0.0
  0
SPLINE
  5
27E
330
1F
100
AcDbEntity
  8
0
  6
Continuous
 62
     3
100
AcDbSpline
210
0.0
220
0.0
230
1.0
 70
     8
 71
     3
 72
    11
 73
     7
 74
     5
 42
0.0000000001
 43
0.0000000001
 44
0.00000001
 40
0.0
 40
0.0
 40
0.0
 40
0.0
 40
1.400492468968765
 40
2.800984937937574
 40
4.201477211087266
 40
5.60196948423695
 40
5.60196948423695
 40
5.60196948423695
 40
5.60196948423695
 10
78.79248201560256
 20
135.0043110774968
 30
0.0
 10
78.3256511929087
 20
135.0043277870772
 30
0.0
 10
77.39198954752098
 20
135.004361206238
 30
0.0
 10
75.99149714534616
 20
135.0044269655689
 30
0.0
 10
74.59100480897462
 20
135.0045031928532
 30
0.0
 10
73.65734329554934
 20
135.004564527185
 30
0.0
 10
73.19051253883669
 20
135.0045951943508
 30
0.0
 11
78.79248201560256
 21
135.0043110774968
 31
0.0
 11
77.39198954762661
 21
135.0043638113368
 31
0.0
 11
75.99149708016151
 21
135.0044287102317
 31
0.0
 11
74.59100480913472
 21
135.0045058218893
 31
0.0
 11
73.19051253883669
 21
135.0045951943508
 31
0.0
  0
SPLINE
  5
27F
330
1F
100
AcDbEntity
  8
0
  6
Continuous
 62
     3
100
AcDbSpline
210
0.0
220
0.0
230
1.0
 70
     8
 71
     3
 72
    11
 73
     7
 74
     5
 42
0.0000000001
 43
0.0000000001
 44
0.00000001
 40
0.0
 40
0.0
 40
0.0
 40
0.0
 40
1.400678983499535
 40
2.801357966999074
 40
4.202037204908364
 40
5.602716442817622
 40
5.602716442817622
 40
5.602716442817622
 40
5.602716442817622
 10
73.19051253899107
 20
145.8187194627208
 30
0.0
 10
73.65734330284528
 20
145.8263422071362
 30
0.0
 10
74.59100483055363
 20
145.8415876959668
 30
0.0
 10
75.99149716960571
 20
145.8644582149653
 30
0.0
 10
77.39198956869308
 20
145.8873302512936
 30
0.0
 10
78.32565119996595
 20
145.9025797855037
 30
0.0
 10
78.79248201560236
 20
145.9102045526088
 30
0.0
 11
73.19051253899107
 21
145.8187194627208
 31
0.0
 11
74.59100482433655
 21
145.8415880766947
 31
0.0
 11
75.99149708068767
 21
145.8644584662381
 31
0.0
 11
77.3919895625314
 21
145.8873306285606
 31
0.0
 11
78.79248201560236
 21
145.9102045526088
 31
0.0
  0
SPLINE
  5
280
330
1F
100
AcDbEntity
  8
0
  6
Continuous
 62
     3
100
AcDbSpline
210
0.0
220
0.0
230
1.0
 70
     8
 71
     3
 72
    11
 73
     7
 74
     5
 42
0.0000000001
 43
0.0000000001
 44
0.00000001
 40
0.0
 40
0.0
 40
0.0
 40
0.0
 40
2.535946205521557
 40
5.071892411043098
 40
7.614442189163999
 40
10.1569919672849
 40
10.1569919672849
 40
10.1569919672849
 40
10.1569919672849
 10
16.90192448496087
 20
32.61930742890776
 30
0.0
 10
16.05687587301162
 20
32.65417710309855
 30
0.0
 10
14.36677864911314
 20
32.72391645148011
 30
0.0
 10
11.82933112508182
 20
32.57895079915696
 30
0.0
 10
9.305372159863955
 20
32.27428063188986
 30
0.0
 10
7.641577291384764
 20
31.94770520769546
 30
0.0
 10
6.80967985714517
 20
31.78441749559826
 30
0.0
 11
16.90192448496087
 21
32.61930742890776
 31
0.0
 11
14.36676179840036
 21
32.68234162574162
 31
0.0
 11
11.83413864039648
 21
32.55256066858084
 31
0.0
 11
9.310447768513074
 21
32.24345913607898
 31
0.0
 11
6.80967985714517
 21
31.78441749559826
 31
0.0
  0
SPLINE
  5
281
330
1F
100
AcDbEntity
  8
0
  6
Continuous
 62
     3
100
AcDbSpline
210
0.0
220
0.0
230
1.0
 70
     8
 71
     3
 72
    11
 73
     7
 74
     5
 42
0.0000000001
 43
0.0000000001
 44
0.00000001
 40
0.0
 40
0.0
 40
0.0
 40
0.0
 40
4.076696560752673
 40
8.153393121505399
 40
12.2304214472337
 40
16.30744977296204
 40
16.30744977296204
 40
16.30744977296204
 40
16.30744977296204
 10
22.80967985714457
 20
15.87555378913137
 30
0.0
 10
24.11376470083929
 20
15.48463434467593
 30
0.0
 10
26.72193438822875
 20
14.70279545576504
 30
0.0
 10
30.80945497711487
 20
14.31836119500461
 30
0.0
 10
34.89710287393001
 20
14.70270834668139
 30
0.0
 10
37.50548752926578
 20
15.48460530826758
 30
0.0
 10
38.80967985693367
 20
15.87555378906067
 30
0.0
 11
22.80967985714457
 21
15.87555378913137
 31
0.0
 11
26.75112691803902
 21
14.83418453924008
 31
0.0
 11
30.80934683607952
 21
14.4464914321663
 31
0.0
 11
34.86790590839711
 21
14.83412299086538
 31
0.0
 11
38.80967985693367
 21
15.87555378906067
 31
0.0
  0
SPLINE
  5
282
330
1F
100
AcDbEntity
  8
0
  6
Continuous
 62
     3
100
AcDbSpline
210
0.0
220
0.0
230
1.0
 70
     8
 71
     3
 72
    11
 73
     7
 74
     5
 42
0.0000000001
 43
0.0000000001
 44
0.00000001
 40
0.0
 40
0.0
 40
0.0
 40
0.0
 40
4.077028325839168
 40
8.154056651678387
 40
12.23075321243041
 40
16.30744977318237
 40
16.30744977318237
 40
16.30744977318237
 40
16.30744977318237
 10
6.809679857145369
 20
15.87555378913117
 30
0.0
 10
8.113872184846889
 20
15.48460530832168
 30
0.0
 10
10.72225684024994
 20
14.7027083467027
 30
0.0
 10
14.80990473713826
 20
14.31836119499927
 30
0.0
 10
18.89742532606122
 20
14.70279545576527
 30
0.0
 10
21.50559501345012
 20
15.484634344676
 30
0.0
 10
22.80967985714457
 20
15.87555378913137
 30
0.0
 11
6.809679857145369
 21
15.87555378913117
 31
0.0
 11
10.75145380578441
 21
14.83412299088986
 31
0.0
 11
14.81001287821109
 21
14.44649143216633
 31
0.0
 11
18.86823279625089
 21
14.83418453923993
 31
0.0
 11
22.80967985714457
 21
15.87555378913137
 31
0.0
  0
SPLINE
  5
283
330
1F
100
AcDbEntity
  8
0
  6
Continuous
 62
     3
100
AcDbSpline
210
0.0
220
0.0
230
1.0
 70
     8
 71
     3
 72
    11
 73
     7
 74
     5
 42
0.0000000001
 43
0.0000000001
 44
0.00000001
 40
0.0
 40
0.0
 40
0.0
 40
0.0
 40
2.542787427985844
 40
5.085574855971682
 40
7.621283453285787
 40
10.15699205059987
 40
10.15699205059987
 40
10.15699205059987
 40
10.15699205059987
 10
38.80967985729657
 20
31.78441749555917
 30
0.0
 10
37.97770442766109
 20
31.94771945111354
 30
0.0
 10
36.31375356839013
 20
32.27432336222228
 30
0.0
 10
33.7897123347385
 20
32.57897947966701
 30
0.0
 10
31.25234308317916
 20
32.72391181760993
 30
0.0
 10
29.5624045149495
 20
32.65417555853803
 30
0.0
 10
28.71743523083467
 20
32.61930742900206
 30
0.0
 11
38.80967985729657
 21
31.78441749555917
 31
0.0
 11
36.30867701260394
 21
32.24349556600276
 31
0.0
 11
33.7847473722851
 21
32.55260246440984
 31
0.0
 11
31.25236015631275
 21
32.68234482014803
 31
0.0
 11
28.71743523083467
 21
32.61930742900206
 31
0.0
  0
SPLINE
  5
284
330
1F
100
AcDbEntity
  8
0
  6
Continuous
 62
     3
100
AcDbSpline
210
0.0
220
0.0
230
1.0
 70
     8
 71
     3
 72
   139
 73
   135
 74
   133
 42
0.0000000001
 43
0.0000000001
 44
0.00000001
 40
0.0
 40
0.0
 40
0.0
 40
0.0
 40
0.1603173401422277
 40
0.3206346802844682
 40
0.3262785873148906
 40
0.3319223920033182
 40
0.3375660436001821
 40
0.3432097226154694
 40
0.3488531401938639
 40
0.3544965504280993
 40
0.3601400144514397
 40
0.3657834804405344
 40
0.3714267020778635
 40
0.3770699231880669
 40
0.3827131308912588
 40
0.3883563387371359
 40
0.3939996355738745
 40
0.3996429323716229
 40
0.4052862328552269
 40
0.410929533349403
 40
0.4165723524402655
 40
0.4222151715265724
 40
0.4278579898725794
 40
0.4335008082187687
 40
0.4391436153355495
 40
0.444786422455261
 40
0.4504292292247535
 40
0.4560720359831592
 40
0.4617148101381186
 40
0.4673575843382249
 40
0.4730003612208885
 40
0.4786431379296212
 40
0.4842858850287229
 40
0.4899286327794003
 40
0.4955713717306181
 40
0.5012141082486719
 40
0.5055745952946716
 40
0.5099350809070784
 40
0.5142955613794492
 40
0.5186560422358398
 40
0.523016501736053
 40
0.5273769611334708
 40
0.5317374221242508
 40
0.5360978831422292
 40
0.5404582437125897
 40
0.5448186042756742
 40
0.5491789644661761
 40
0.5535393246586586
 40
0.5578996917110061
 40
0.5622600587629214
 40
0.5666204259575307
 40
0.5709807931518421
 40
0.5753407746642258
 40
0.579700756176127
 40
0.584060737685279
 40
0.5884207191945932
 40
0.592780698926004
 40
0.5971406786572165
 40
0.601500658456993
 40
0.605860638257302
 40
0.6102206665584406
 40
0.6145806948580289
 40
0.618940723101978
 40
0.6233007513517822
 40
0.6276607817959845
 40
0.6320208122184665
 40
0.6363808429809015
 40
0.6407408738245545
 40
0.6451657991466575
 40
0.6495907245498446
 40
0.6540156502858812
 40
0.6584405760002018
 40
0.6628655025574084
 40
0.6672904291204015
 40
0.6717153556449844
 40
0.6761402821680812
 40
0.6805651640505394
 40
0.6849900459331596
 40
0.6894149278752929
 40
0.6938398098173815
 40
0.698264694021363
 40
0.7026895782252014
 40
0.7071144625078856
 40
0.7115393467911382
 40
0.7159648311452027
 40
0.720390315500164
 40
0.7248157997847436
 40
0.7292412840696818
 40
0.73366676070274
 40
0.7380922373335755
 40
0.7425177144883757
 40
0.7469431916514461
 40
0.751368827165106
 40
0.7557944626477416
 40
0.7602200963560866
 40
0.7646457301825967
 40
0.7690713921963995
 40
0.7734970537681919
 40
0.777922721466147
 40
0.782348390814513
 40
0.7879232436605857
 40
0.7934980990805448
 40
0.7990729638672514
 40
0.8046478279649856
 40
0.8102227156822148
 40
0.8157976035828499
 40
0.8213724890177897
 40
0.8269473744067453
 40
0.832522132456576
 40
0.8380968905157438
 40
0.8436716487991724
 40
0.8492464070801603
 40
0.8548212107564176
 40
0.8603960144316167
 40
0.8659708204473321
 40
0.8715456264721986
 40
0.8771206211267212
 40
0.8826956157545175
 40
0.8882706018260276
 40
0.8938455879918684
 40
0.8994203578016843
 40
0.9049951272697055
 40
0.9105699291525863
 40
0.9161447322925416
 40
0.9217202786947041
 40
0.9272958204105634
 40
0.9328712337387658
 40
0.9384466645868306
 40
0.944022734298862
 40
0.9495987385850592
 40
0.9551751099502396
 40
0.9607517255558672
 40
1.121320696434666
 40
1.281889667313498
 40
1.281889667313498
 40
1.281889667313498
 40
1.281889667313498
 10
146.8129907651462
 20
15.49755861404557
 30
0.0
 10
146.8584351598758
 20
15.52577279321356
 30
0.0
 10
146.9493239493351
 20
15.58220115154953
 30
0.0
 10
147.0328406802407
 20
15.65252638712028
 30
0.0
 10
147.0746354059939
 20
15.69157760737096
 30
0.0
 10
147.078743061374
 20
15.69544805335809
 30
0.0
 10
147.0828350046151
 20
15.69933488713144
 30
0.0
 10
147.0869109975169
 20
15.70323828727346
 30
0.0
 10
147.0909710226427
 20
15.70715816948347
 30
0.0
 10
147.0950149946819
 20
15.71109451031489
 30
0.0
 10
147.0990428948042
 20
15.71504731786591
 30
0.0
 10
147.103054580746
 20
15.71901649094499
 30
0.0
 10
147.1070499549468
 20
15.72300196835324
 30
0.0
 10
147.1110289293786
 20
15.72700369753203
 30
0.0
 10
147.1149914763952
 20
15.73102168752566
 30
0.0
 10
147.1189375314163
 20
15.73505591081274
 30
0.0
 10
147.1228670115445
 20
15.73910632181752
 30
0.0
 10
147.1267798304006
 20
15.74317287329961
 30
0.0
 10
147.1306758801801
 20
15.74725549533516
 30
0.0
 10
147.1345549631305
 20
15.75135402254417
 30
0.0
 10
147.1384169923913
 20
15.75546840332385
 30
0.0
 10
147.1422618807091
 20
15.75959858730467
 30
0.0
 10
147.1460896488704
 20
15.76374464259731
 30
0.0
 10
147.1499002050586
 20
15.76790651724731
 30
0.0
 10
147.1536934599158
 20
15.77208416191032
 30
0.0
 10
147.1574693237852
 20
15.77627752647197
 30
0.0
 10
147.1612277092876
 20
15.78048656340412
 30
0.0
 10
147.1649685190343
 20
15.7847112139739
 30
0.0
 10
147.1686916627675
 20
15.788951427266
 30
0.0
 10
147.1723970493418
 20
15.79320715358947
 30
0.0
 10
147.1760845937277
 20
15.7974783504679
 30
0.0
 10
147.1797541970884
 20
15.80176495941077
 30
0.0
 10
147.1834057663677
 20
15.8060669284549
 30
0.0
 10
147.187039206593
 20
15.81038420390022
 30
0.0
 10
147.1906544299
 20
15.81471674053622
 30
0.0
 10
147.1939788900598
 20
15.81873516117722
 30
0.0
 10
147.1970170541984
 20
15.8224356546002
 30
0.0
 10
147.1997729669839
 20
15.82581483164864
 30
0.0
 10
147.202517801428
 20
15.82920301075147
 30
0.0
 10
147.2052515096063
 20
15.83260016219853
 30
0.0
 10
147.2079740485917
 20
15.83600626241079
 30
0.0
 10
147.2106853746745
 20
15.83942128664361
 30
0.0
 10
147.2133854481531
 20
15.84284521529879
 30
0.0
 10
147.2160742041142
 20
15.84627799675201
 30
0.0
 10
147.21875159813
 20
15.84971960490088
 30
0.0
 10
147.2214175861125
 20
15.85317001364905
 30
0.0
 10
147.2240721441948
 20
15.85662922351964
 30
0.0
 10
147.2267152292246
 20
15.86009721027238
 30
0.0
 10
147.2293467965979
 20
15.86357394780758
 30
0.0
 10
147.2319668014985
 20
15.8670594098425
 30
0.0
 10
147.234575197603
 20
15.87055356805927
 30
0.0
 10
147.2371718632852
 20
15.87405629252716
 30
0.0
 10
147.2397567545382
 20
15.87756755549878
 30
0.0
 10
147.2423298272731
 20
15.88108732910996
 30
0.0
 10
147.2448911122886
 20
15.88461568975403
 30
0.0
 10
147.2474405636981
 20
15.88815260964344
 30
0.0
 10
147.2499781358444
 20
15.89169806129775
 30
0.0
 10
147.2525037829669
 20
15.89525201707709
 30
0.0
 10
147.255017459507
 20
15.8988144496351
 30
0.0
 10
147.2575191287125
 20
15.90238534420813
 30
0.0
 10
147.2600087442603
 20
15.90596467270356
 30
0.0
 10
147.2624862596493
 20
15.90955240688791
 30
0.0
 10
147.2649516191886
 20
15.91314850498051
 30
0.0
 10
147.2674047767007
 20
15.91675293889192
 30
0.0
 10
147.2698456854683
 20
15.92036567975564
 30
0.0
 10
147.2722742987051
 20
15.92398669859217
 30
0.0
 10
147.2746905690517
 20
15.9276159655617
 30
0.0
 10
147.277106375806
 20
15.93127149789624
 30
0.0
 10
147.2795214548869
 20
15.93495340878613
 30
0.0
 10
147.2819355378295
 20
15.93866181111823
 30
0.0
 10
147.2843367100888
 20
15.94237858627683
 30
0.0
 10
147.2867249213348
 20
15.94610370325366
 30
0.0
 10
147.2891001209028
 20
15.94983713052206
 30
0.0
 10
147.2914622580293
 20
15.95357883641737
 30
0.0
 10
147.2938112816612
 20
15.95732878881151
 30
0.0
 10
147.2961471328951
 20
15.96108694294096
 30
0.0
 10
147.2984697607002
 20
15.96485326636159
 30
0.0
 10
147.300779113745
 20
15.96862772649682
 30
0.0
 10
147.3030751481941
 20
15.97241030327249
 30
0.0
 10
147.3053578126408
 20
15.97620096435084
 30
0.0
 10
147.3076270551224
 20
15.97999967648851
 30
0.0
 10
147.3098828235675
 20
15.98380640622158
 30
0.0
 10
147.3121250653627
 20
15.98762111915922
 30
0.0
 10
147.3143538288755
 20
15.99144395410259
 30
0.0
 10
147.3165690594092
 20
15.99527487802499
 30
0.0
 10
147.3187707023557
 20
15.9991138574742
 30
0.0
 10
147.3209586049978
 20
16.0029606843483
 30
0.0
 10
147.3231327133414
 20
16.00681532121843
 30
0.0
 10
147.325292974533
 20
16.0106777326151
 30
0.0
 10
147.3274393355724
 20
16.01454788297058
 30
0.0
 10
147.3295717444383
 20
16.01842573853621
 30
0.0
 10
147.3316901729842
 20
16.02231130939879
 30
0.0
 10
147.3337945669697
 20
16.02620455917696
 30
0.0
 10
147.335884872261
 20
16.0301054505949
 30
0.0
 10
147.3379610103675
 20
16.03401389990056
 30
0.0
 10
147.3400229320744
 20
16.03792987779336
 30
0.0
 10
147.3420705837416
 20
16.04185334682816
 30
0.0
 10
147.3441039124311
 20
16.04578427050268
 30
0.0
 10
147.3461228602229
 20
16.04972260259889
 30
0.0
 10
147.348300872247
 20
16.0540098215229
 30
0.0
 10
147.350633180143
 20
16.05864827484307
 30
0.0
 10
147.3531144735531
 20
16.06364051299695
 30
0.0
 10
147.3555725639283
 20
16.06864422123702
 30
0.0
 10
147.3580073471953
 20
16.07365932394864
 30
0.0
 10
147.3604187146465
 20
16.07868573608344
 30
0.0
 10
147.3628065578153
 20
16.08372337414685
 30
0.0
 10
147.365170764835
 20
16.08877214725267
 30
0.0
 10
147.3675112090987
 20
16.09383193221237
 30
0.0
 10
147.3698277824494
 20
16.09890264407827
 30
0.0
 10
147.3721203731996
 20
16.10398419771485
 30
0.0
 10
147.3743888862305
 20
16.10907654593429
 30
0.0
 10
147.3766332144579
 20
16.11417961592328
 30
0.0
 10
147.3788532440522
 20
16.11929332016042
 30
0.0
 10
147.3810488617052
 20
16.12441757075694
 30
0.0
 10
147.3832199476049
 20
16.1295522642277
 30
0.0
 10
147.3853664118327
 20
16.13469736805318
 30
0.0
 10
147.3874881385998
 20
16.13985279043014
 30
0.0
 10
147.3895850091217
 20
16.14501843742391
 30
0.0
 10
147.3916568823887
 20
16.15019415822363
 30
0.0
 10
147.3937036142384
 20
16.15537979214201
 30
0.0
 10
147.3957250887022
 20
16.1605752466686
 30
0.0
 10
147.3977211888123
 20
16.16578043712051
 30
0.0
 10
147.3996918183046
 20
16.17099533578425
 30
0.0
 10
147.4016369411608
 20
16.17622007832512
 30
0.0
 10
147.4035564265388
 20
16.18145455685161
 30
0.0
 10
147.4054501350217
 20
16.18669863205784
 30
0.0
 10
147.4073178655098
 20
16.19195197579371
 30
0.0
 10
147.4091595558381
 20
16.19721468851186
 30
0.0
 10
147.4109751163678
 20
16.20248669285749
 30
0.0
 10
147.4127643420964
 20
16.20776798095055
 30
0.0
 10
147.4145275028532
 20
16.21305837870911
 30
0.0
 10
147.4323399356907
 20
16.26745252083214
 30
0.0
 10
147.459863982552
 20
16.37364011943222
 30
0.0
 10
147.4650817472976
 20
16.48077980419965
 30
0.0
 10
147.4676906296704
 20
16.53434964658337
 30
0.0
 11
146.8129907651462
 21
15.49755861404557
 31
0.0
 11
146.9471197704317
 21
15.5853712526086
 31
0.0
 11
147.0705092961274
 21
15.6877268801963
 31
0.0
 11
147.074632762627
 21
15.69158054216836
 31
0.0
 11
147.0787404889665
 21
15.69545082842146
 31
0.0
 11
147.0828323551657
 21
15.69933765673694
 31
0.0
 11
147.0869084087005
 21
15.70324110398387
 31
0.0
 11
147.0909683574866
 21
15.70716092257895
 31
0.0
 11
147.0950123012839
 21
15.71109724035528
 31
0.0
 11
147.0990401994135
 21
15.71505005237209
 31
0.0
 11
147.1030519294792
 21
15.71901927524942
 31
0.0
 11
147.1070472319329
 21
15.72300468724207
 31
0.0
 11
147.1110261951598
 21
15.72700641138772
 31
0.0
 11
147.1149887247564
 21
15.73102439003099
 31
0.0
 11
147.1189347447816
 21
15.73505858397185
 31
0.0
 11
147.1228642310919
 21
15.73910900821195
 31
0.0
 11
147.1267770345638
 21
15.74317555069139
 31
0.0
 11
147.1306730706152
 21
15.7472581654705
 31
0.0
 11
147.134552249257
 21
15.75135680104015
 31
0.0
 11
147.1384141539006
 21
15.75547105672202
 31
0.0
 11
147.1422590275456
 21
15.75960123273461
 31
0.0
 11
147.1460867806574
 21
15.76374727964717
 31
0.0
 11
147.1498973244456
 21
15.76790914880967
 31
0.0
 11
147.1536905618495
 21
15.77208678236891
 31
0.0
 11
147.1574664108152
 21
15.77628013863546
 31
0.0
 11
147.1612247812116
 21
15.78048916705088
 31
0.0
 11
147.1649655830831
 21
15.78471381726963
 31
0.0
 11
147.1686887043267
 21
15.7889540140067
 31
0.0
 11
147.172394074965
 21
15.7932097312325
 31
0.0
 11
147.1760816045733
 21
15.79748092033343
 31
0.0
 11
147.1797511988609
 21
15.80176752817049
 31
0.0
 11
147.1834027460744
 21
15.80606948095637
 31
0.0
 11
147.1870361727012
 21
15.81038675013091
 31
0.0
 11
147.1906513791039
 21
15.8147192765922
 31
0.0
 11
147.1942482754386
 21
15.81906701303424
 31
0.0
 11
147.1970152156992
 21
15.82243715974806
 31
0.0
 11
147.1997711218914
 21
15.8258163335873
 31
0.0
 11
147.2025159478801
 21
15.82920450717221
 31
0.0
 11
147.2052496532605
 21
15.83260166012615
 31
0.0
 11
147.2079721804853
 21
15.83600775063627
 31
0.0
 11
147.2106834988586
 21
15.83942277023137
 31
0.0
 11
147.2133835652799
 21
15.84284669508054
 31
0.0
 11
147.2160723344925
 21
15.84627949865937
 31
0.0
 11
147.2187497005654
 21
15.84972107609061
 31
0.0
 11
147.2214156812177
 21
15.85317148061782
 31
0.0
 11
147.2240702318005
 21
15.85663068604603
 31
0.0
 11
147.2267133080016
 21
15.86009866661162
 31
0.0
 11
147.2293448692844
 21
15.86357540158079
 31
0.0
 11
147.2319648666659
 21
15.86706085916176
 31
0.0
 11
147.2345732552883
 21
15.87055501297437
 31
0.0
 11
147.2371699900016
 21
15.87405783624966
 31
0.0
 11
147.2397547974883
 21
15.87756899119429
 31
0.0
 11
147.2423278626539
 21
15.88108876028299
 31
0.0
 11
147.2448891400788
 21
15.88461711637512
 31
0.0
 11
147.2474385842243
 21
15.88815403216582
 31
0.0
 11
147.2499761483958
 21
15.8916994787292
 31
0.0
 11
147.2525017878544
 21
15.89525342985176
 31
0.0
 11
147.2550154567362
 21
15.89881585776083
 31
0.0
 11
147.2575171089734
 21
15.90238673439593
 31
0.0
 11
147.2600067260307
 21
15.90596607144273
 31
0.0
 11
147.2624842336865
 21
15.90955380089025
 31
0.0
 11
147.2649495854493
 21
15.91314989418353
 31
0.0
 11
147.2674027347648
 21
15.91675432267841
 31
0.0
 11
147.2698436361391
 21
15.92036705930808
 31
0.0
 11
147.2722722414815
 21
15.92398807316833
 31
0.0
 11
147.2746885040232
 21
15.92761733529426
 31
0.0
 11
147.2770923765234
 21
15.93125481601042
 31
0.0
 11
147.279519311462
 21
15.93495480937661
 31
0.0
 11
147.2819333859767
 21
15.93866320647794
 31
0.0
 11
147.2843345498892
 21
15.94237997653202
 31
0.0
 11
147.2867227525458
 21
15.94610508802675
 31
0.0
 11
147.289097943804
 21
15.9498385102536
 31
0.0
 11
147.2914600724547
 21
15.95358021084629
 31
0.0
 11
147.2938090875722
 21
15.95733015787603
 31
0.0
 11
147.2961449381287
 21
15.96108831924996
 31
0.0
 11
147.2984675495402
 21
15.96485462458873
 31
0.0
 11
147.300776893967
 21
15.96862907925046
 31
0.0
 11
147.3030729197938
 21
15.97241165054581
 31
0.0
 11
147.3053555751941
 21
15.97620230543972
 31
0.0
 11
147.307624809383
 21
15.98000101264281
 31
0.0
 11
147.3098805691102
 21
15.98380773672925
 31
0.0
 11
147.3121228021891
 21
15.98762244402277
 31
0.0
 11
147.3143514562025
 21
15.99144510045627
 31
0.0
 11
147.316566778125
 21
15.99527619175615
 31
0.0
 11
147.3187684123185
 21
15.99911516540206
 31
0.0
 11
147.3209563061588
 21
16.00296198638785
 31
0.0
 11
147.32313040694
 21
16.00681661956745
 31
0.0
 11
147.3252906580348
 21
16.01067902278788
 31
0.0
 11
147.3274370101115
 21
16.0145491669936
 31
0.0
 11
147.3295694101583
 21
16.0184270166668
 31
0.0
 11
147.3316878045115
 21
16.02231253509876
 31
0.0
 11
147.3337922147231
 21
16.02620582514202
 31
0.0
 11
147.3358825113861
 21
16.03010671084736
 31
0.0
 11
147.3379586402627
 21
16.03401515332589
 31
0.0
 11
147.3400205486533
 21
16.03793111662437
 31
0.0
 11
147.342068195777
 21
16.04185458773008
 31
0.0
 11
147.3441015144936
 21
16.04578550306178
 31
0.0
 11
147.3461204539125
 21
16.04972382988866
 31
0.0
 11
147.3481249579717
 21
16.05366952534799
 31
0.0
 11
147.350629329968
 21
16.05865019851127
 31
0.0
 11
147.3531106047201
 21
16.0636424213186
 31
0.0
 11
147.3555686787253
 21
16.06864611890887
 31
0.0
 11
147.3580034405793
 21
16.07366120060537
 31
0.0
 11
147.3604147933932
 21
16.07868760594785
 31
0.0
 11
147.3628026188625
 21
16.08372523084779
 31
0.0
 11
147.3651668074113
 21
16.08877398912271
 31
0.0
 11
147.3675072512981
 21
16.09383379835952
 31
0.0
 11
147.3698237882824
 21
16.0989044574601
 31
0.0
 11
147.3721163602106
 21
16.10398599673207
 31
0.0
 11
147.3743848544099
 21
16.1090783305768
 31
0.0
 11
147.3766291576171
 21
16.11418137212137
 31
0.0
 11
147.37884917434
 21
16.11929507545447
 31
0.0
 11
147.381044772723
 21
16.12441931039807
 31
0.0
 11
147.3832158399061
 21
16.12955398949221
 31
0.0
 11
147.385362260842
 21
16.13469902004417
 31
0.0
 11
147.3874839920867
 21
16.13985448529215
 31
0.0
 11
147.3895808441552
 21
16.14502011947421
 31
0.0
 11
147.3916526967284
 21
16.15019582199776
 31
0.0
 11
147.3936994353786
 21
16.15538150726079
 31
0.0
 11
147.3957208634048
 21
16.16057687896717
 31
0.0
 11
147.3977169392066
 21
16.1657820433272
 31
0.0
 11
147.3996875519835
 21
16.1709969355904
 31
0.0
 11
147.4016325681322
 21
16.1762214300378
 31
0.0
 11
147.4035521192191
 21
16.18145612595134
 31
0.0
 11
147.4054458219601
 21
16.18670022314285
 31
0.0
 11
147.4073135138825
 21
16.19195350408557
 31
0.0
 11
147.4091551202526
 21
16.19721600492825
 31
0.0
 11
147.4109707173582
 21
16.20248821135285
 31
0.0
 11
147.4127599493395
 21
16.20776935447882
 31
0.0
 11
147.4145228287888
 21
16.21305973949784
 31
0.0
 11
147.4162591898347
 21
16.21835914436359
 31
0.0
 11
147.4544048624288
 21
16.37433126389598
 31
0.0
 11
147.4676906296704
 21
16.53434964658337
 31
0.0
  0
SPLINE
  5
285
330
1F
100
AcDbEntity
  8
0
  6
Continuous
 62
     3
100
AcDbSpline
210
0.0
220
0.0
230
1.0
 70
     8
 71
     3
 72
   139
 73
   135
 74
   133
 42
0.0000000001
 43
0.0000000001
 44
0.00000001
 40
0.0
 40
0.0
 40
0.0
 40
0.0
 40
0.1603173310676626
 40
0.3206346621352163
 40
0.3256755596745406
 40
0.3307163749656095
 40
0.3357570658762739
 40
0.3407977788225071
 40
0.3458382730491242
 40
0.350878761373071
 40
0.3559192932806869
 40
0.3609598267685353
 40
0.3660000867833731
 40
0.3710403463743616
 40
0.3760805950743807
 40
0.3811208438889032
 40
0.3861611685334021
 40
0.3912014931469553
 40
0.3962418207702386
 40
0.4012821484012957
 40
0.4063223383770374
 40
0.4113625283506983
 40
0.4164027175788089
 40
0.4214429068073448
 40
0.4264830780529712
 40
0.4315232492984817
 40
0.4365634207714978
 40
0.4416035922446847
 40
0.4466438643384142
 40
0.4516841364338577
 40
0.4567244086389436
 40
0.4617646808360061
 40
0.4668049569150675
 40
0.4718452330247976
 40
0.4768855087825441
 40
0.4819257844255806
 40
0.4868887149174362
 40
0.491851645297365
 40
0.4968145753135275
 40
0.5017775053596811
 40
0.5067404328091646
 40
0.5117033602506652
 40
0.5166662878671948
 40
0.5216292154857728
 40
0.5265921117221793
 40
0.5315550079580608
 40
0.536517904213915
 40
0.5414808004699396
 40
0.5464436982649024
 40
0.5514065960597714
 40
0.5563694939230892
 40
0.5613323917866598
 40
0.5662954092936263
 40
0.5712584268006526
 40
0.5762214443513372
 40
0.581184461902037
 40
0.586147479052629
 40
0.5911104962029977
 40
0.5960735134593229
 40
0.6010365307164557
 40
0.6059995745229313
 40
0.6109626183264761
 40
0.6159256620201219
 40
0.6208887057249206
 40
0.6258517524303684
 40
0.6308147990940453
 40
0.6357778463965861
 40
0.6407408938550795
 40
0.6458005356622929
 40
0.6508601776282931
 40
0.6559198202392476
 40
0.6609794628076694
 40
0.6660391082993756
 40
0.67109875380245
 40
0.676158399211001
 40
0.6812180446165783
 40
0.6862776893199729
 40
0.6913373340241227
 40
0.6963969788537829
 40
0.7014566236832598
 40
0.7065162685795777
 40
0.7115759134758587
 40
0.7166355584437352
 40
0.721695203412144
 40
0.7267548974171866
 40
0.7318145914218859
 40
0.7368742855337096
 40
0.7419339796455409
 40
0.7469936748896342
 40
0.7520533701340555
 40
0.757113065403577
 40
0.7621727606718127
 40
0.7672325098640925
 40
0.7722922590611047
 40
0.777352008611797
 40
0.7824117581458669
 40
0.7874715082919752
 40
0.7925312584998461
 40
0.7975910079594979
 40
0.8026507571888006
 40
0.8075916348984293
 40
0.8125325123986861
 40
0.8174733892081918
 40
0.822414266073977
 40
0.8273551286722897
 40
0.8322959912550393
 40
0.8372368543029686
 40
0.842177717356435
 40
0.847118322475469
 40
0.8520589275909384
 40
0.8569995322242187
 40
0.8619401368586694
 40
0.8668807883485038
 40
0.8718214398366638
 40
0.8767620933366521
 40
0.881702746843485
 40
0.8866429407924892
 40
0.8915831347184964
 40
0.8965233217207345
 40
0.901463508797631
 40
0.9064035164442145
 40
0.9113435238206586
 40
0.9162835570776299
 40
0.9212235913303218
 40
0.9261643381592535
 40
0.9311050812764031
 40
0.9360457218626409
 40
0.9409863763213057
 40
0.9459275551197281
 40
0.950868682118646
 40
0.9558101028301683
 40
0.9607517169057253
 40
1.121320843676862
 40
1.281889970448063
 40
1.281889970448063
 40
1.281889970448063
 40
1.281889970448063
 10
111.1719732607792
 20
15.49755859583897
 30
0.0
 10
111.1265288573397
 20
15.52577272468852
 30
0.0
 10
111.0356400504609
 20
15.58220098238759
 30
0.0
 10
110.9522782797217
 20
15.65239748637146
 30
0.0
 10
110.910768947035
 20
15.69116563187147
 30
0.0
 10
110.9070978820776
 20
15.69462012871941
 30
0.0
 10
110.9034393364065
 20
15.69808770460411
 30
0.0
 10
110.8997934958997
 20
15.70156850503362
 30
0.0
 10
110.8961603668747
 20
15.7050624674051
 30
0.0
 10
110.8925400103543
 20
15.70856957762972
 30
0.0
 10
110.8889324318185
 20
15.71208984885041
 30
0.0
 10
110.8853377564548
 20
15.71562318655169
 30
0.0
 10
110.8817560549813
 20
15.71916954605903
 30
0.0
 10
110.8781873904486
 20
15.72272888981901
 30
0.0
 10
110.8746317590345
 20
15.72630124791658
 30
0.0
 10
110.8710892039116
 20
15.72988660412794
 30
0.0
 10
110.8675597839755
 20
15.73348492682171
 30
0.0
 10
110.8640435608254
 20
15.73709618299154
 30
0.0
 10
110.8605406143685
 20
15.74072032051361
 30
0.0
 10
110.857051038774
 20
15.7443572720777
 30
0.0
 10
110.8535748968746
 20
15.74800700216795
 30
0.0
 10
110.8501122508597
 20
15.75166947537877
 30
0.0
 10
110.8466631316866
 20
15.75534468994824
 30
0.0
 10
110.8432276061985
 20
15.75903260631983
 30
0.0
 10
110.8398057370933
 20
15.76273318927638
 30
0.0
 10
110.8363975872558
 20
15.76644640320667
 30
0.0
 10
110.8330032157767
 20
15.77017221671696
 30
0.0
 10
110.8296226634921
 20
15.7739106187082
 30
0.0
 10
110.8262559942766
 20
15.77766157325271
 30
0.0
 10
110.8229032726306
 20
15.78142504478074
 30
0.0
 10
110.8195645853378
 20
15.78520097224164
 30
0.0
 10
110.8162399961007
 20
15.78898932031522
 30
0.0
 10
110.8129295696859
 20
15.79279005249434
 30
0.0
 10
110.8096333711402
 20
15.79660313203735
 30
0.0
 10
110.806351466491
 20
15.80042852104595
 30
0.0
 10
110.803100634996
 20
15.80424655228186
 30
0.0
 10
110.7998806851406
 20
15.80805697025981
 30
0.0
 10
110.7966914250681
 20
15.81185952334684
 30
0.0
 10
110.7935162778856
 20
15.8156738684935
 30
0.0
 10
110.7903553081093
 20
15.8194999695458
 30
0.0
 10
110.7872085798467
 20
15.82333779083311
 30
0.0
 10
110.7840761574187
 20
15.82718729638856
 30
0.0
 10
110.780958104829
 20
15.8310484506502
 30
0.0
 10
110.777854493364
 20
15.83492120898944
 30
0.0
 10
110.7747653878937
 20
15.8388055345665
 30
0.0
 10
110.7716908533661
 20
15.84270139028933
 30
0.0
 10
110.768630948524
 20
15.84660874708748
 30
0.0
 10
110.7655857385026
 20
15.85052756785771
 30
0.0
 10
110.7625552889591
 20
15.85445781483698
 30
0.0
 10
110.7595396657354
 20
15.85839945003151
 30
0.0
 10
110.7565389351955
 20
15.86235243475878
 30
0.0
 10
110.753553139598
 20
15.8663167623348
 30
0.0
 10
110.7505823458332
 20
15.87029239425025
 30
0.0
 10
110.7476266210396
 20
15.87427929179727
 30
0.0
 10
110.7446860560196
 20
15.87827738371669
 30
0.0
 10
110.7417607179878
 20
15.88228663030936
 30
0.0
 10
110.7388506742947
 20
15.88630699168759
 30
0.0
 10
110.7359559924728
 20
15.89033842771946
 30
0.0
 10
110.7330767402082
 20
15.89438089806295
 30
0.0
 10
110.7302129803689
 20
15.89843436920065
 30
0.0
 10
110.7273647812586
 20
15.90249880012712
 30
0.0
 10
110.7245322113735
 20
15.90657414951775
 30
0.0
 10
110.721715344381
 20
15.91066036845912
 30
0.0
 10
110.7189142485248
 20
15.91475741580012
 30
0.0
 10
110.7161289928269
 20
15.91886524927649
 30
0.0
 10
110.7133596464099
 20
15.92298382644429
 30
0.0
 10
110.7106062792423
 20
15.92711310359431
 30
0.0
 10
110.7078512024726
 20
15.93127989551596
 30
0.0
 10
110.7050948539519
 20
15.93548440102011
 30
0.0
 10
110.7023376793817
 20
15.93972681796962
 30
0.0
 10
110.6995974064783
 20
15.94398017203752
 30
0.0
 10
110.6968741098008
 20
15.94824441686815
 30
0.0
 10
110.6941678647554
 20
15.95251950479744
 30
0.0
 10
110.6914787469028
 20
15.95680538794085
 30
0.0
 10
110.6888068325493
 20
15.96110201720867
 30
0.0
 10
110.6861521978476
 20
15.96540934373556
 30
0.0
 10
110.6835149190536
 20
15.96972731848424
 30
0.0
 10
110.6808950727185
 20
15.97405589205366
 30
0.0
 10
110.6782927355468
 20
15.97839501479701
 30
0.0
 10
110.6757079846048
 20
15.98274463647075
 30
0.0
 10
110.6731408972427
 20
15.98710470635493
 30
0.0
 10
110.6705915510204
 20
15.99147517335375
 30
0.0
 10
110.6680600237742
 20
15.99585598589977
 30
0.0
 10
110.6655463854623
 20
16.00024710619216
 30
0.0
 10
110.663050714633
 20
16.00464848189659
 30
0.0
 10
110.6605730904791
 20
16.00906006051362
 30
0.0
 10
110.6581136003304
 20
16.01348177471848
 30
0.0
 10
110.6556723235311
 20
16.01791357127031
 30
0.0
 10
110.6532493398902
 20
16.0223553960975
 30
0.0
 10
110.6508447294519
 20
16.02680719468716
 30
0.0
 10
110.648458572703
 20
16.03126891170175
 30
0.0
 10
110.6460909418019
 20
16.03574050753203
 30
0.0
 10
110.6437419178156
 20
16.04022192630417
 30
0.0
 10
110.6414115818399
 20
16.04471311165825
 30
0.0
 10
110.6391000234056
 20
16.04921399057777
 30
0.0
 10
110.6368073238624
 20
16.05372450563791
 30
0.0
 10
110.6345335649637
 20
16.05824459862753
 30
0.0
 10
110.6322788287827
 20
16.06277421068539
 30
0.0
 10
110.6300431976821
 20
16.06731328235025
 30
0.0
 10
110.6278441115083
 20
16.07182613405251
 30
0.0
 10
110.6256811284917
 20
16.07631245106827
 30
0.0
 10
110.6235538038838
 20
16.08077192400977
 30
0.0
 10
110.621445004359
 20
16.08524018665489
 30
0.0
 10
110.6193548069929
 20
16.08971717593674
 30
0.0
 10
110.6172832869672
 20
16.09420283269587
 30
0.0
 10
110.6152305198218
 20
16.09869709725367
 30
0.0
 10
110.613196579452
 20
16.10319991365551
 30
0.0
 10
110.6111815770419
 20
16.1077111426253
 30
0.0
 10
110.6091855878484
 20
16.11223072221833
 30
0.0
 10
110.6072086890832
 20
16.11675859073564
 30
0.0
 10
110.6052509245534
 20
16.12129476524139
 30
0.0
 10
110.6033123669181
 20
16.12583919796838
 30
0.0
 10
110.6013930953576
 20
16.13039182646156
 30
0.0
 10
110.5994931887825
 20
16.13495258803769
 30
0.0
 10
110.5976127324615
 20
16.13952140435052
 30
0.0
 10
110.5957518634995
 20
16.14409806895003
 30
0.0
 10
110.5939106596618
 20
16.14868251521863
 30
0.0
 10
110.5920892017165
 20
16.15327467532159
 30
0.0
 10
110.5902875148274
 20
16.15787462596505
 30
0.0
 10
110.5885057032146
 20
16.16248224532782
 30
0.0
 10
110.5867438481517
 20
16.16709746847948
 30
0.0
 10
110.5850020313991
 20
16.17172023676483
 30
0.0
 10
110.5832803175314
 20
16.17635053935177
 30
0.0
 10
110.581578710647
 20
16.18098853145435
 30
0.0
 10
110.5798973034631
 20
16.18563413646777
 30
0.0
 10
110.5782361956495
 20
16.19028725296127
 30
0.0
 10
110.5765955487841
 20
16.19494759125089
 30
0.0
 10
110.5749753990581
 20
16.19961524620276
 30
0.0
 10
110.5733758058424
 20
16.20429016633286
 30
0.0
 10
110.5717969194138
 20
16.20897235623998
 30
0.0
 10
110.5702385175254
 20
16.21366168189897
 30
0.0
 10
110.5525715587614
 20
16.26765857600547
 30
0.0
 10
110.525096339828
 20
16.3736397178458
 30
0.0
 10
110.5198810476323
 20
16.4807796703369
 30
0.0
 10
110.5172734015345
 20
16.53434964658246
 30
0.0
 11
111.1719732607792
 21
15.49755859583897
 31
0.0
 11
111.0378443837054
 21
15.58537141367087
 31
0.0
 11
110.9144547261938
 21
15.68772686814109
 31
0.0
 11
110.9107710543472
 21
15.69116797402851
 31
0.0
 11
110.9070999310195
 21
15.6946223440595
 31
0.0
 11
110.9034414463388
 21
15.69808991593302
 31
0.0
 11
110.8997955537146
 21
15.7015707569204
 31
0.0
 11
110.8961624869547
 21
15.70506466704616
 31
0.0
 11
110.892542151998
 21
15.70857175948079
 31
0.0
 11
110.8889345736841
 21
15.71209203512637
 31
0.0
 11
110.8853398431062
 21
15.7156254314973
 31
0.0
 11
110.8817582164633
 21
15.71917172133426
 31
0.0
 11
110.8781895596295
 21
15.72273106188382
 31
0.0
 11
110.8746339409819
 21
15.72630341166938
 31
0.0
 11
110.8710914138009
 21
15.72988874419011
 31
0.0
 11
110.867561986498
 21
15.73348707928232
 31
0.0
 11
110.8640457744217
 21
15.73709832904441
 31
0.0
 11
110.8605428376692
 21
15.74072246158315
 31
0.0
 11
110.8570532407319
 21
15.74435944052778
 31
0.0
 11
110.8535771408853
 21
15.74800913158977
 31
0.0
 11
110.8501145051344
 21
15.75167159914966
 31
0.0
 11
110.8466653965916
 21
15.75534680767635
 31
0.0
 11
110.8432298775049
 21
15.75903472254316
 31
0.0
 11
110.8398080229681
 21
15.76273529516291
 31
0.0
 11
110.8363998837086
 21
15.76644850307138
 31
0.0
 11
110.8330055227337
 21
15.77017431064152
 31
0.0
 11
110.8296250035284
 21
15.77391268172819
 31
0.0
 11
110.82625832261
 21
15.77766365525147
 31
0.0
 11
110.8229056117175
 21
15.78142712073793
 31
0.0
 11
110.819566935158
 21
15.78520304217943
 31
0.0
 11
110.8162423575656
 21
15.78899138319532
 31
0.0
 11
110.8129319411341
 21
15.79279211023148
 31
0.0
 11
110.8096357533639
 21
15.79660518372222
 31
0.0
 11
110.8063538596494
 21
15.80043056649532
 31
0.0
 11
110.803086325168
 21
15.80426822163489
 31
0.0
 11
110.7998830266076
 21
15.80805894154014
 31
0.0
 11
110.7966937771228
 21
15.81186148880215
 31
0.0
 11
110.7935186406892
 21
15.81567582792887
 31
0.0
 11
110.790357681054
 21
15.81950192369706
 31
0.0
 11
110.7872109640652
 21
15.82333973831755
 31
0.0
 11
110.7840785524344
 21
15.82718923778697
 31
0.0
 11
110.7809605105994
 21
15.83105038601543
 31
0.0
 11
110.7778569034157
 21
15.83492314639997
 31
0.0
 11
110.7747678152995
 21
15.8388074576213
 31
0.0
 11
110.7716932916518
 21
15.84270330712912
 31
0.0
 11
110.768633397714
 21
15.84661065768106
 31
0.0
 11
110.7655881989486
 21
15.85052947175262
 31
0.0
 11
110.7625577600669
 21
15.85445971280216
 31
0.0
 11
110.7595421478655
 21
15.85840134159912
 31
0.0
 11
110.7565414283538
 21
15.86235431992105
 31
0.0
 11
110.7535556678251
 21
15.86631860917259
 31
0.0
 11
110.7505848613086
 21
15.87029426652903
 31
0.0
 11
110.7476291476787
 21
15.87428115751234
 31
0.0
 11
110.7446885938393
 21
15.87827924284489
 31
0.0
 11
110.7417632669528
 21
15.8822884828995
 31
0.0
 11
110.7388532345969
 21
15.88630883747649
 31
0.0
 11
110.7359585640896
 21
15.89034026673785
 31
0.0
 11
110.7330793231338
 21
15.89438273031895
 31
0.0
 11
110.730215579765
 21
15.89843618738825
 31
0.0
 11
110.7273673869718
 21
15.90250061866919
 31
0.0
 11
110.7245348284982
 21
15.9065759611443
 31
0.0
 11
110.7217179729967
 21
15.91066217305623
 31
0.0
 11
110.718916889207
 21
15.91475921252619
 31
0.0
 11
110.716131644478
 21
15.91886703973776
 31
0.0
 11
110.7133623097599
 21
15.92298560956294
 31
0.0
 11
110.7106089541191
 21
15.92711487962464
 31
0.0
 11
110.7078716474843
 21
15.93125480624992
 31
0.0
 11
110.7050976584892
 21
15.93548623157385
 31
0.0
 11
110.702340496466
 21
15.9397286406067
 31
0.0
 11
110.6996002359472
 21
15.94398198701157
 31
0.0
 11
110.6968769523485
 21
15.94824622309338
 31
0.0
 11
110.694170719374
 21
15.95252130386328
 31
0.0
 11
110.6914816141334
 21
15.95680717899237
 31
0.0
 11
110.6888097124674
 21
15.96110380012384
 31
0.0
 11
110.686155090356
 21
15.96541111867205
 31
0.0
 11
110.6835178244469
 21
15.96972908498144
 31
0.0
 11
110.6808979909376
 21
15.97405765020748
 31
0.0
 11
110.6782956665905
 21
15.97839676460963
 31
0.0
 11
110.675710928548
 21
15.9827463778168
 31
0.0
 11
110.6731438541032
 21
15.98710643920075
 31
0.0
 11
110.6705945208637
 21
15.99147689758751
 31
0.0
 11
110.6680630066188
 21
15.99585770148958
 31
0.0
 11
110.6655493894827
 21
16.00024879885811
 31
0.0
 11
110.6630537237588
 21
16.00465018000714
 31
0.0
 11
110.6605761128337
 21
16.00906174974191
 31
0.0
 11
110.6581166359219
 21
16.01348345504934
 31
0.0
 11
110.6556753726025
 21
16.01791524226341
 31
0.0
 11
110.6532524021215
 21
16.02235705833468
 31
0.0
 11
110.6508478050714
 21
16.02680884774943
 31
0.0
 11
110.6484616617466
 21
16.03127055552268
 31
0.0
 11
110.6460940527287
 21
16.03574212613556
 31
0.0
 11
110.6437450338848
 21
16.04022355139539
 31
0.0
 11
110.6414147114929
 21
16.04471472713086
 31
0.0
 11
110.6391031665756
 21
16.04921559655917
 31
0.0
 11
110.636810480745
 21
16.05372610174484
 31
0.0
 11
110.6345367354242
 21
16.05824618512426
 31
0.0
 11
110.6322820128295
 21
16.06277578755573
 31
0.0
 11
110.6300463955483
 21
16.06731484912907
 31
0.0
 11
110.6278299658506
 21
16.07186331058964
 31
0.0
 11
110.6256842034672
 21
16.07631392586569
 31
0.0
 11
110.6235568912788
 21
16.08077338921073
 31
0.0
 11
110.6214481043764
 21
16.08524164182746
 31
0.0
 11
110.6193579175472
 21
16.08971862554665
 31
0.0
 11
110.6172864121232
 21
16.09420426803059
 31
0.0
 11
110.6152336576923
 21
16.09869852239681
 31
0.0
 11
110.6131997299461
 21
16.10320132880853
 31
0.0
 11
110.6111847051954
 21
16.10771262606844
 31
0.0
 11
110.6091887637861
 21
16.11223211683985
 31
0.0
 11
110.6072118780477
 21
16.11675997523918
 31
0.0
 11
110.6052541267134
 21
16.12129613924144
 31
0.0
 11
110.6033155883779
 21
16.125840547154
 31
0.0
 11
110.6013963239091
 21
16.13039317947417
 31
0.0
 11
110.5994964307909
 21
16.13495392977068
 31
0.0
 11
110.5976159874485
 21
16.13952273594328
 31
0.0
 11
110.5957550740598
 21
16.14409953159463
 31
0.0
 11
110.5939139409837
 21
16.1486838249153
 31
0.0
 11
110.5920924959062
 21
16.15327597624735
 31
0.0
 11
110.5902908236483
 21
16.15787591371344
 31
0.0
 11
110.5885090042754
 21
16.16248357777205
 31
0.0
 11
110.5867471847846
 21
16.16709873406738
 31
0.0
 11
110.5850053854222
 21
16.17172148301799
 31
0.0
 11
110.5832836829659
 21
16.17635178206148
 31
0.0
 11
110.5815821720915
 21
16.18098954005019
 31
0.0
 11
110.5799006977609
 21
16.18563535787953
 31
0.0
 11
110.578239592671
 21
16.19028849364262
 31
0.0
 11
110.5765989744148
 21
16.19494878345547
 31
0.0
 11
110.5749788909032
 21
16.19961626627768
 31
0.0
 11
110.573379265139
 21
16.20429135401292
 31
0.0
 11
110.5718003722324
 21
16.20897342975016
 31
0.0
 11
110.5702421899702
 21
16.21366274811063
 31
0.0
 11
110.5687048387178
 21
16.21835914042797
 31
0.0
 11
110.5305572274376
 21
16.37433094629576
 31
0.0
 11
110.5172734015345
 21
16.53434964658246
 31
0.0
  0
SPLINE
  5
286
330
1F
100
AcDbEntity
  8
0
  6
Continuous
 62
     3
100
AcDbSpline
210
0.0
220
0.0
230
1.0
 70
     8
 71
     3
 72
   140
 73
   136
 74
   134
 42
0.0000000001
 43
0.0000000001
 44
0.00000001
 40
0.0
 40
0.0
 40
0.0
 40
0.0
 40
0.2246123954827786
 40
0.4493899531621506
 40
0.6739238052392709
 40
0.6824382687856776
 40
0.6909521537403899
 40
0.6994651493684381
 40
0.7079782999651676
 40
0.716489825012676
 40
0.7250013085745101
 40
0.7335131016239805
 40
0.7420249057612196
 40
0.7505341477064303
 40
0.7590433866726616
 40
0.7675525475986279
 40
0.7760617093367761
 40
0.784571433416236
 40
0.7930811572801407
 40
0.8015909019404719
 40
0.8101006466221011
 40
0.8186092320590217
 40
0.827117817509821
 40
0.8356263962714087
 40
0.8441349750330587
 40
0.8526433635431198
 40
0.8611517520338116
 40
0.8696601451867162
 40
0.8781685384161106
 40
0.8866783618657529
 40
0.8951881850724036
 40
0.903697994180049
 40
0.9122078041848317
 40
0.9207178178057835
 40
0.9292278280785783
 40
0.9377378823053807
 40
0.94624794903293
 40
0.9588345706631183
 40
0.9714212208839528
 40
0.9840079752161182
 40
0.9965947219005525
 40
1.009181880794941
 40
1.021769041723234
 40
1.034356169235024
 40
1.046943296228164
 40
1.059532066801297
 40
1.072120837514339
 40
1.084709614755971
 40
1.097298391962551
 40
1.10988702016015
 40
1.122475648337019
 40
1.135064273523398
 40
1.147652898835628
 40
1.160247860174581
 40
1.172842821462123
 40
1.185437782612935
 40
1.198032743771594
 40
1.210627777012499
 40
1.223222810270881
 40
1.235817838997687
 40
1.248412867652278
 40
1.261006624061736
 40
1.273600380698857
 40
1.286194149806524
 40
1.298787918045403
 40
1.311381491336843
 40
1.323975067883443
 40
1.33656859922543
 40
1.349162118402656
 40
1.359562224866733
 40
1.369962323080592
 40
1.380362390828242
 40
1.390762460784248
 40
1.401162407272989
 40
1.411562353172389
 40
1.421962307521456
 40
1.432362262023755
 40
1.44276174708907
 40
1.453161232113619
 40
1.463560714349633
 40
1.47396019659486
 40
1.484359709472366
 40
1.494759222356315
 40
1.505158735155335
 40
1.515558247917639
 40
1.525953826135678
 40
1.536349404364171
 40
1.546744981985695
 40
1.55714055960459
 40
1.567536120081572
 40
1.577931680557949
 40
1.588327240779193
 40
1.59872280100511
 40
1.609118582011526
 40
1.619514363003624
 40
1.629910142681204
 40
1.640305922414105
 40
1.650701716227365
 40
1.661097509832822
 40
1.671493305814106
 40
1.681889102571712
 40
1.692536377893018
 40
1.703183654042354
 40
1.713830932714243
 40
1.72447821116481
 40
1.735125478327947
 40
1.745772745549059
 40
1.75642001168163
 40
1.767067277801972
 40
1.777714167619375
 40
1.788361057434862
 40
1.799007946218999
 40
1.809654835004458
 40
1.820301787906791
 40
1.830948740803539
 40
1.841595696377403
 40
1.852242651975696
 40
1.862888808206437
 40
1.873534964384533
 40
1.884181109004092
 40
1.894827253748505
 40
1.905473114008673
 40
1.916118973834645
 40
1.926764874256838
 40
1.93741077626708
 40
1.948057640439879
 40
1.958704498700662
 40
1.969351193795692
 40
1.979997910991348
 40
1.990645440815527
 40
2.001292888111326
 40
2.011940800463247
 40
2.022589020890498
 40
2.359758007095036
 40
2.696926993299622
 40
2.696926993299622
 40
2.696926993299622
 40
2.696926993299622
 10
110.5172734015347
 20
29.69020803798347
 30
0.0
 10
110.5138268351668
 20
29.76517596298102
 30
0.0
 10
110.5069311680987
 20
29.91516693846081
 30
0.0
 10
110.4498921428982
 20
30.1339563589871
 30
0.0
 10
110.3904950581261
 20
30.27509687936623
 30
0.0
 10
110.3531825014485
 20
30.34645096169218
 30
0.0
 10
110.3491934310189
 20
30.35397244475778
 30
0.0
 10
110.345160410015
 20
30.36146994914239
 30
0.0
 10
110.3410840131199
 20
30.36894306398582
 30
0.0
 10
110.3369643209501
 20
30.37639182245226
 30
0.0
 10
110.332801582749
 20
30.38381609145122
 30
0.0
 10
110.3285957852719
 20
30.39121615945457
 30
0.0
 10
110.3243475906293
 20
30.39859110745137
 30
0.0
 10
110.3200573071651
 20
30.40594066443008
 30
0.0
 10
110.3157252126377
 20
30.41326463041151
 30
0.0
 10
110.3113511235411
 20
30.42056356227433
 30
0.0
 10
110.3069351896551
 20
30.42783744278882
 30
0.0
 10
110.302477640445
 20
30.43508611541895
 30
0.0
 10
110.2979787052008
 20
30.44230940311621
 30
0.0
 10
110.2934387170754
 20
30.44950696692626
 30
0.0
 10
110.288858117551
 20
30.45667830316366
 30
0.0
 10
110.2842371494947
 20
30.4638232335177
 30
0.0
 10
110.2795760735603
 20
30.47094159911925
 30
0.0
 10
110.2748749317486
 20
30.47803356510899
 30
0.0
 10
110.2701340102054
 20
30.48509892128232
 30
0.0
 10
110.2653535583711
 20
30.49213751432701
 30
0.0
 10
110.2605338254059
 20
30.49914919239448
 30
0.0
 10
110.2556750235209
 20
30.50613385577153
 30
0.0
 10
110.2507771250721
 20
30.51309174374769
 30
0.0
 10
110.2458403691168
 20
30.52002270069005
 30
0.0
 10
110.2408649908277
 20
30.52692656652085
 30
0.0
 10
110.235851505607
 20
30.53380280379071
 30
0.0
 10
110.2308001107807
 20
30.54065131895641
 30
0.0
 10
110.2257110397163
 20
30.54747196738467
 30
0.0
 10
110.2205845194166
 20
30.55426461455705
 30
0.0
 10
110.2154208220386
 20
30.56102906684045
 30
0.0
 10
110.2093897688915
 20
30.56884077288219
 30
0.0
 10
110.2024682615259
 20
30.5776815115353
 30
0.0
 10
110.1946296424823
 20
30.58752954638273
 30
0.0
 10
110.1867124430378
 20
30.59731457480675
 30
0.0
 10
110.1787174315974
 20
30.60703634628545
 30
0.0
 10
110.1706454682064
 20
30.61669449539524
 30
0.0
 10
110.1624973864146
 20
30.62628867940941
 30
0.0
 10
110.1542740988607
 20
30.6358184669665
 30
0.0
 10
110.1459760640162
 20
30.64528395202447
 30
0.0
 10
110.1376040759999
 20
30.65468482279115
 30
0.0
 10
110.1291589223683
 20
30.66402076189557
 30
0.0
 10
110.1206417617206
 20
30.67329105769021
 30
0.0
 10
110.1120534160266
 20
30.68249537773011
 30
0.0
 10
110.1033946699145
 20
30.69163343166821
 30
0.0
 10
110.0946663033478
 20
30.70070493824166
 30
0.0
 10
110.0858690546074
 20
30.70970965821564
 30
0.0
 10
110.0770022031559
 20
30.71864882176712
 30
0.0
 10
110.0680664697183
 20
30.72752212667653
 30
0.0
 10
110.0590625362284
 20
30.7363292392207
 30
0.0
 10
110.0499926180089
 20
30.74506838181011
 30
0.0
 10
110.0408574096038
 20
30.75373928621899
 30
0.0
 10
110.0316576178766
 20
30.76234167169594
 30
0.0
 10
110.0223939468137
 20
30.77087526133927
 30
0.0
 10
110.0130671127835
 20
30.77933976754301
 30
0.0
 10
110.0036781262032
 20
30.78773464047244
 30
0.0
 10
109.9942276830376
 20
30.79605962615091
 30
0.0
 10
109.9847164737536
 20
30.80431447741389
 30
0.0
 10
109.9751448623674
 20
30.81249921995455
 30
0.0
 10
109.9655135767711
 20
30.82061356149837
 30
0.0
 10
109.9558232944763
 20
30.82865725444015
 30
0.0
 10
109.9460746962177
 20
30.83663004590468
 30
0.0
 10
109.9362684012911
 20
30.84453173262894
 30
0.0
 10
109.9269776985506
 20
30.85190747502789
 30
0.0
 10
109.9182141375734
 20
30.85877085208152
 30
0.0
 10
109.9099881559895
 20
30.86513453058854
 30
0.0
 10
109.9017245460321
 20
30.87144924749898
 30
0.0
 10
109.8934237452863
 20
30.87771491193599
 30
0.0
 10
109.8850861513682
 20
30.88393146384692
 30
0.0
 10
109.876712165959
 20
30.89009884168834
 30
0.0
 10
109.8683021562541
 20
30.89621700854772
 30
0.0
 10
109.8598566465568
 20
30.90228581340249
 30
0.0
 10
109.8513760358175
 20
30.9083051992867
 30
0.0
 10
109.8428607200237
 20
30.91427511387968
 30
0.0
 10
109.8343109623148
 20
30.92019559524847
 30
0.0
 10
109.8257271424623
 20
30.9260665985035
 30
0.0
 10
109.817109645238
 20
30.93188807508001
 30
0.0
 10
109.8084588533881
 20
30.93765997712684
 30
0.0
 10
109.7997751557385
 20
30.94338225292628
 30
0.0
 10
109.7910600293927
 20
30.94905414271661
 30
0.0
 10
109.7823138639979
 20
30.95467562564772
 30
0.0
 10
109.7735370559249
 20
30.96024669720079
 30
0.0
 10
109.7647288812858
 20
30.96576804182465
 30
0.0
 10
109.7558897217332
 20
30.971239633484
 30
0.0
 10
109.7470199513649
 20
30.97666145095988
 30
0.0
 10
109.7381199419961
 20
30.98203347450315
 30
0.0
 10
109.7291900579053
 20
30.98735568883161
 30
0.0
 10
109.7202306023227
 20
30.99262811451706
 30
0.0
 10
109.7112419386324
 20
30.99785073508103
 30
0.0
 10
109.7022244281547
 20
31.0030235350695
 30
0.0
 10
109.6931784937425
 20
31.00814646492877
 30
0.0
 10
109.6841044881204
 20
31.01321951570971
 30
0.0
 10
109.675002765361
 20
31.01824267761137
 30
0.0
 10
109.6658736769378
 20
31.02321594246291
 30
0.0
 10
109.6567175764761
 20
31.02813930097033
 30
0.0
 10
109.6474607668381
 20
31.03305204398034
 30
0.0
 10
109.6381028446467
 20
31.03795274873593
 30
0.0
 10
109.6286434222564
 20
31.04283997559298
 30
0.0
 10
109.6191571239146
 20
31.04767483026008
 30
0.0
 10
109.6096443156896
 20
31.05245730713208
 30
0.0
 10
109.6001053583385
 20
31.05718740339633
 30
0.0
 10
109.5905406096791
 20
31.06186511731892
 30
0.0
 10
109.5809504215551
 20
31.06649045004256
 30
0.0
 10
109.5713352602066
 20
31.07106334830059
 30
0.0
 10
109.5616954770104
 20
31.07558381610323
 30
0.0
 10
109.5520314202305
 20
31.080051855028
 30
0.0
 10
109.5423433210885
 20
31.08446751889829
 30
0.0
 10
109.5326315027373
 20
31.08883081799901
 30
0.0
 10
109.5228963052438
 20
31.09314175457641
 30
0.0
 10
109.5131380664065
 20
31.09740033273346
 30
0.0
 10
109.5033571424638
 20
31.10160654882852
 30
0.0
 10
109.4935541134519
 20
31.10576030487066
 30
0.0
 10
109.4837293148051
 20
31.10986161193599
 30
0.0
 10
109.4738830771977
 20
31.11391046765764
 30
0.0
 10
109.4640154781625
 20
31.11790697000065
 30
0.0
 10
109.4541269273784
 20
31.12185107958876
 30
0.0
 10
109.4442177419308
 20
31.12574279582581
 30
0.0
 10
109.434288226241
 20
31.12958211758716
 30
0.0
 10
109.4243386062257
 20
31.13336907249181
 30
0.0
 10
109.4143688948077
 20
31.13710376711616
 30
0.0
 10
109.4043794163417
 20
31.14078618566807
 30
0.0
 10
109.3943705319988
 20
31.14441630115007
 30
0.0
 10
109.3843428454151
 20
31.1479940080238
 30
0.0
 10
109.3742964076268
 20
31.15151937809206
 30
0.0
 10
109.3642314902185
 20
31.15499245955459
 30
0.0
 10
109.3541482828522
 20
31.15841311452994
 30
0.0
 10
109.3440471510581
 20
31.16178195805695
 30
0.0
 10
109.2305027270316
 20
31.19897589970481
 30
0.0
 10
109.0072034102298
 20
31.25429539431641
 30
0.0
 10
108.7822361634953
 20
31.26419257164464
 30
0.0
 10
108.6697525401281
 20
31.26914116030876
 30
0.0
 11
110.5172734015347
 21
29.69020803798347
 31
0.0
 11
110.4991545633589
 21
29.91408844335131
 31
0.0
 11
110.4448000240556
 21
30.13219514772656
 31
0.0
 11
110.357120243259
 21
30.33890196127673
 31
0.0
 11
110.3531751006478
 21
30.34644728693304
 31
0.0
 11
110.3491859319988
 21
30.35396877418703
 31
0.0
 11
110.3451531427528
 21
30.36146595402088
 31
0.0
 11
110.3410764959107
 21
30.36893955312753
 31
0.0
 11
110.3369571034634
 21
30.37638781899952
 31
0.0
 11
110.3327944645465
 21
30.38381195461727
 31
0.0
 11
110.3285886586646
 21
30.39121207744062
 31
0.0
 11
110.3243400762088
 21
30.3985877371933
 31
0.0
 11
110.320050264099
 21
30.40593652692663
 31
0.0
 11
110.315718197956
 21
30.41326048423923
 31
0.0
 11
110.3113441635567
 21
30.42055936379279
 31
0.0
 11
110.3069283678069
 21
30.42783305483532
 31
0.0
 11
110.3024707597044
 21
30.43508185707523
 31
0.0
 11
110.2979718673435
 21
30.44230510895818
 31
0.0
 11
110.2934319144618
 21
30.44950264895571
 31
0.0
 11
110.2888511457128
 21
30.45667428142085
 31
0.0
 11
110.2842304296726
 21
30.46381886044369
 31
0.0
 11
110.2795693944834
 21
30.47093720135559
 31
0.0
 11
110.2748682956988
 21
30.47802913922611
 31
0.0
 11
110.2701273804258
 21
30.48509452208321
 31
0.0
 11
110.26534700572
 21
30.49213303703386
 31
0.0
 11
110.2605273149523
 21
30.49914468845221
 31
0.0
 11
110.255668553329
 21
30.50612932799426
 31
0.0
 11
110.250770970236
 21
30.51308680132825
 31
0.0
 11
110.2458339776455
 21
30.52001812149872
 31
0.0
 11
110.2408586364759
 21
30.52692196617069
 31
0.0
 11
110.235845193799
 21
30.53379817468799
 31
0.0
 11
110.2307938785042
 21
30.54064661101389
 31
0.0
 11
110.2257048056313
 21
30.54746729053455
 31
0.0
 11
110.2205783338807
 21
30.55425990138995
 31
0.0
 11
110.2154146698892
 21
30.56102433759158
 31
0.0
 11
110.2102140672149
 21
30.56776043197421
 31
0.0
 11
110.2024550336305
 21
30.57767105465382
 31
0.0
 11
110.1946165718117
 21
30.58751901282277
 31
0.0
 11
110.1866994906762
 21
30.59730401210287
 31
0.0
 11
110.1787047083871
 21
30.60702561939017
 31
0.0
 11
110.1706327958001
 21
30.61668381778429
 31
0.0
 11
110.1624848437242
 21
30.62627795647431
 31
0.0
 11
110.1542616998271
 21
30.63580768277917
 31
0.0
 11
110.1459641616951
 21
30.64527270400944
 31
0.0
 11
110.1375919427375
 21
30.65467393234777
 31
0.0
 11
110.1291469229133
 21
30.66400981946337
 31
0.0
 11
110.1206298921347
 21
30.67328006752671
 31
0.0
 11
110.1120416429258
 21
30.6824843755986
 31
0.0
 11
110.1033830606906
 21
30.69162234657547
 31
0.0
 11
110.0946548221801
 21
30.70069380797255
 31
0.0
 11
110.0858577019659
 21
30.7096984823154
 31
0.0
 11
110.0769924646655
 21
30.7186361025165
 31
0.0
 11
110.0680553527993
 21
30.72751084660404
 31
0.0
 11
110.0590515387336
 21
30.73631791093364
 31
0.0
 11
110.0499817392125
 21
30.74505700602627
 31
0.0
 11
110.0408466661214
 21
30.75372784717394
 31
0.0
 11
110.0316469740655
 21
30.7623302031545
 31
0.0
 11
110.0223834183496
 21
30.77086374862389
 31
0.0
 11
110.0130567011273
 21
30.77932820929689
 31
0.0
 11
110.0036675133984
 21
30.78772332100558
 31
0.0
 11
109.9942175029039
 21
30.79604798329024
 31
0.0
 11
109.9847064103837
 21
30.8043027894846
 31
0.0
 11
109.9751349086519
 21
30.81248749320167
 31
0.0
 11
109.9655036859331
 21
30.82060183528199
 31
0.0
 11
109.9558135658484
 21
30.8286454452297
 31
0.0
 11
109.9460650660716
 21
30.83661820650392
 31
0.0
 11
109.9362588890026
 21
30.84451984702678
 31
0.0
 11
109.9263956694913
 21
30.85235014881793
 31
0.0
 11
109.9182077935481
 21
30.85876270696603
 31
0.0
 11
109.9099818749362
 21
30.86512637775014
 31
0.0
 11
109.9017183414317
 21
30.8714410767275
 31
0.0
 11
109.8934175747543
 21
30.87770675527476
 31
0.0
 11
109.8850800808145
 21
30.88392327212685
 31
0.0
 11
109.8767061645418
 21
30.89009063793153
 31
0.0
 11
109.8682962188376
 21
30.89620879645477
 31
0.0
 11
109.8598506478259
 21
30.90227768300303
 31
0.0
 11
109.8513702302346
 21
30.90829696926476
 31
0.0
 11
109.8428549788134
 21
30.91426687562995
 31
0.0
 11
109.8343052865711
 21
30.9201873480216
 31
0.0
 11
109.8257215394197
 21
30.92605833735976
 31
0.0
 11
109.8171040975421
 21
30.93187981170698
 31
0.0
 11
109.8084533690592
 21
30.93765170610479
 31
0.0
 11
109.7997697344015
 21
30.94337397450015
 31
0.0
 11
109.7910535714163
 21
30.94904657253882
 31
0.0
 11
109.7823085729791
 21
30.95466734195418
 31
0.0
 11
109.7735318279646
 21
30.96023840950496
 31
0.0
 11
109.7647237162944
 21
30.9657597501836
 31
0.0
 11
109.7558846142524
 21
30.97123134127962
 31
0.0
 11
109.7470149107066
 21
30.97665315247524
 31
0.0
 11
109.7381149627909
 21
30.98202517301826
 31
0.0
 11
109.7291851398838
 21
30.98734738450995
 31
0.0
 11
109.7202258084221
 21
30.99261977032383
 31
0.0
 11
109.7112371413718
 21
30.99784242552888
 31
0.0
 11
109.7022196903901
 21
31.00301522363332
 31
0.0
 11
109.6931738158455
 21
31.00813815139276
 31
0.0
 11
109.6840998733769
 21
31.01321119824162
 31
0.0
 11
109.6749982051469
 21
31.01823436103408
 31
0.0
 11
109.6658691757718
 21
31.0232076242842
 31
0.0
 11
109.6567131328198
 21
31.0281309820353
 31
0.0
 11
109.6475304252446
 21
31.03300442761459
 31
0.0
 11
109.6380983049794
 21
31.03794402062117
 31
0.0
 11
109.6286389438339
 21
31.04283124643124
 31
0.0
 11
109.6191527050886
 21
31.04766610088447
 31
0.0
 11
109.6096399535666
 21
31.05244857899575
 31
0.0
 11
109.6001010591912
 21
31.05717867330124
 31
0.0
 11
109.5905363693898
 21
31.06185638730291
 31
0.0
 11
109.5809462404128
 21
31.0664817199722
 31
0.0
 11
109.5713310242386
 21
31.07105467238411
 31
0.0
 11
109.5616914124325
 21
31.07557508685735
 31
0.0
 11
109.5520274128056
 21
31.08004312601959
 31
0.0
 11
109.5423393710845
 21
31.08445879000045
 31
0.0
 11
109.5326276289852
 21
31.08882208075467
 31
0.0
 11
109.5228924684112
 21
31.09313302667213
 31
0.0
 11
109.5131342865118
 21
31.09739160530886
 31
0.0
 11
109.5033534175407
 21
31.10159782274997
 31
0.0
 11
109.4935501986249
 21
31.10575168389349
 31
0.0
 11
109.4837257000501
 21
31.10985288740517
 31
0.0
 11
109.4738795128017
 21
31.11390174379149
 31
0.0
 11
109.4640119709741
 21
31.11789824395305
 31
0.0
 11
109.4541233853832
 21
31.12184238808459
 31
0.0
 11
109.4442143407925
 21
31.12573406843867
 31
0.0
 11
109.43428489032
 21
31.12957338410029
 31
0.0
 11
109.4243353104009
 21
31.13336034267318
 31
0.0
 11
109.4143659508138
 21
31.1370949241803
 31
0.0
 11
109.4043762215025
 21
31.14077745388156
 31
0.0
 11
109.394367339432
 21
31.14440758756023
 31
0.0
 11
109.3843397623786
 21
31.1479852704535
 31
0.0
 11
109.3742936229822
 21
31.15151056055114
 31
0.0
 11
109.3642284786699
 21
31.15498370916991
 31
0.0
 11
109.3541454787607
 21
31.1584044176856
 31
0.0
 11
109.344044406763
 21
31.16177285678276
 31
0.0
 11
109.3339257120132
 21
31.1650889711999
 31
0.0
 11
109.0059186218072
 21
31.2431548026036
 31
0.0
 11
108.6697525401281
 21
31.26914116030876
 31
0.0
  0
SPLINE
  5
287
330
1F
100
AcDbEntity
  8
0
  6
Continuous
 62
     3
100
AcDbSpline
210
0.0
220
0.0
230
1.0
 70
     8
 71
     3
 72
   139
 73
   135
 74
   133
 42
0.0000000001
 43
0.0000000001
 44
0.00000001
 40
0.0
 40
0.0
 40
0.0
 40
0.0
 40
2.155455247415029
 40
4.310910494830156
 40
4.390052592190051
 40
4.469194836767816
 40
4.548337308846347
 40
4.627479741480781
 40
4.706622626888737
 40
4.785765522862915
 40
4.864908345538493
 40
4.944051165385837
 40
5.023195528841885
 40
5.102339893057685
 40
5.181484281979258
 40
5.260628670696532
 40
5.339772945930537
 40
5.418917221218902
 40
5.498061496225374
 40
5.577205771221628
 40
5.656347978482016
 40
5.735490185738139
 40
5.814632401103726
 40
5.89377461646586
 40
5.972917000458322
 40
6.052059384469013
 40
6.131201769777518
 40
6.210344155020837
 40
6.289485026800953
 40
6.368625898825101
 40
6.447766793455013
 40
6.526907687153275
 40
6.606048348188901
 40
6.685189012713154
 40
6.764329628798006
 40
6.843470231856194
 40
6.916226098092134
 40
6.988981956617721
 40
7.061737796197643
 40
7.134493637843718
 40
7.207249471108857
 40
7.280005303820279
 40
7.352761145542104
 40
7.425516987413465
 40
7.498273742594531
 40
7.571030497737272
 40
7.64378725357942
 40
7.716544009433672
 40
7.789300787523134
 40
7.862057565603798
 40
7.934814346745452
 40
8.007571127910479
 40
8.080322746777934
 40
8.153074365605653
 40
8.225825987127603
 40
8.298577608659215
 40
8.371329300239797
 40
8.44408099182118
 40
8.516832684639168
 40
8.589584377447373
 40
8.66233474555228
 40
8.735085113703406
 40
8.807835490920889
 40
8.880585867933922
 40
8.953336095185811
 40
9.026086323214471
 40
9.098836532062652
 40
9.171586738003567
 40
9.244330943933567
 40
9.31707515274692
 40
9.38981938071516
 40
9.462563607913019
 40
9.535307985068327
 40
9.608052362426383
 40
9.68079673080695
 40
9.753541099141806
 40
9.826286797181986
 40
9.899032495231875
 40
9.97177819209781
 40
10.04452388896301
 40
10.11726951629841
 40
10.19001514362407
 40
10.26276076831599
 40
10.33550639304801
 40
10.40825715060862
 40
10.48100790814544
 40
10.55375866268218
 40
10.62650941722778
 40
10.69926015058215
 40
10.77201088392449
 40
10.84476161659485
 40
10.91751234930322
 40
10.99026216178095
 40
11.06301197411052
 40
11.13576177759257
 40
11.20851158162284
 40
11.28126139249021
 40
11.3540112013119
 40
11.42676102875452
 40
11.49951086383088
 40
11.57856628218689
 40
11.65762171351139
 40
11.73667719317367
 40
11.81573266936294
 40
11.89478837759851
 40
11.97384408676148
 40
12.05289977337983
 40
12.13195545975547
 40
12.21101265100917
 40
12.2900698423276
 40
12.36912703230097
 40
12.44818422225629
 40
12.52724124743682
 40
12.60629827262062
 40
12.68535528987644
 40
12.76441230713723
 40
12.84347129404862
 40
12.92253028096798
 40
13.00158926753882
 40
13.08064825406204
 40
13.15970733868452
 40
13.2387664234868
 40
13.31782548591079
 40
13.39688454766588
 40
13.4759421040615
 40
13.55499966294647
 40
13.63405728587375
 40
13.71311489950035
 40
13.79217210449196
 40
13.87122934420392
 40
13.95028638278985
 40
14.02934329178796
 40
16.12790792280625
 40
18.22647255382456
 40
18.22647255382456
 40
18.22647255382456
 40
18.22647255382456
 10
127.0981706178649
 20
53.81198972106567
 30
0.0
 10
127.3343764649973
 20
53.13335865735785
 30
0.0
 10
127.8067881592623
 20
51.77609652994219
 30
0.0
 10
128.2033953767379
 20
50.36600390927526
 30
0.0
 10
128.3846213465936
 20
49.61635509403278
 30
0.0
 10
128.402998956627
 20
49.53937588866166
 30
0.0
 10
128.4211579857262
 20
49.46234486546314
 30
0.0
 10
128.4390942404208
 20
49.38526140135167
 30
0.0
 10
128.4568047370586
 20
49.30812561805631
 30
0.0
 10
128.4742861599241
 20
49.23093745725383
 30
0.0
 10
128.491535247068
 20
49.15369706484761
 30
0.0
 10
128.5085488513913
 20
49.07640395734366
 30
0.0
 10
128.5253237159285
 20
48.99905815614164
 30
0.0
 10
128.5418565710913
 20
48.92165972553722
 30
0.0
 10
128.5581440358144
 20
48.84420927223564
 30
0.0
 10
128.5741828237983
 20
48.76670696679955
 30
0.0
 10
128.5899696490679
 20
48.68915298066068
 30
0.0
 10
128.6055012224345
 20
48.61154750791395
 30
0.0
 10
128.6207742556221
 20
48.53389073630589
 30
0.0
 10
128.6357853159938
 20
48.45618359867709
 30
0.0
 10
128.6505311035752
 20
48.37842638425012
 30
0.0
 10
128.6650083042212
 20
48.30061941012456
 30
0.0
 10
128.6792137174695
 20
48.22276234997979
 30
0.0
 10
128.693144018277
 20
48.14485553241388
 30
0.0
 10
128.7067958645139
 20
48.06689937741167
 30
0.0
 10
128.7201659094542
 20
47.98889433598939
 30
0.0
 10
128.7332507913325
 20
47.9108409494977
 30
0.0
 10
128.746047070588
 20
47.83274023659866
 30
0.0
 10
128.7585513898422
 20
47.75459275480127
 30
0.0
 10
128.7707603829677
 20
47.67639908882964
 30
0.0
 10
128.7826707500022
 20
47.59815936824444
 30
0.0
 10
128.794279094656
 20
47.51987433399389
 30
0.0
 10
128.805582026575
 20
47.44154469401885
 30
0.0
 10
128.8165761467139
 20
47.36317120250506
 30
0.0
 10
128.8272580623538
 20
47.28475456544763
 30
0.0
 10
128.8373455948187
 20
47.20840550901963
 30
0.0
 10
128.8468646636507
 20
47.13412870920755
 30
0.0
 10
128.8558422431128
 20
47.06192869161874
 30
0.0
 10
128.8645475436716
 20
46.98969534667773
 30
0.0
 10
128.8729792379178
 20
46.91742955987771
 30
0.0
 10
128.8811359972631
 20
46.84513222542155
 30
0.0
 10
128.8890164911117
 20
46.77280425474868
 30
0.0
 10
128.896619387328
 20
46.70044657278518
 30
0.0
 10
128.9039433824819
 20
46.62805981820398
 30
0.0
 10
128.9109871366342
 20
46.55564494950461
 30
0.0
 10
128.9177493091188
 20
46.48320293634983
 30
0.0
 10
128.9242285325136
 20
46.41073506637347
 30
0.0
 10
128.9304234682135
 20
46.33824233131227
 30
0.0
 10
128.9363327755841
 20
46.26572574514573
 30
0.0
 10
128.9419551126797
 20
46.19318633533248
 30
0.0
 10
128.9472891357821
 20
46.12062515259471
 30
0.0
 10
128.952333381343
 20
46.04804497189404
 30
0.0
 10
128.9570865280677
 20
45.97544686932048
 30
0.0
 10
128.9615472219478
 20
45.90283193204813
 30
0.0
 10
128.9657141962417
 20
45.83019954522041
 30
0.0
 10
128.9695860721147
 20
45.75755080361859
 30
0.0
 10
128.9731614682316
 20
45.68488684225441
 30
0.0
 10
128.9764390031343
 20
45.61220881101772
 30
0.0
 10
128.9794172937602
 20
45.5395178998275
 30
0.0
 10
128.9820949412161
 20
45.46681573296589
 30
0.0
 10
128.9844705686241
 20
45.39410351061966
 30
0.0
 10
128.9865427919751
 20
45.32138244598553
 30
0.0
 10
128.9883102346185
 20
45.24865333073225
 30
0.0
 10
128.9897715041757
 20
45.17591746478342
 30
0.0
 10
128.9909252095968
 20
45.10317611814106
 30
0.0
 10
128.9917699576672
 20
45.03043058163696
 30
0.0
 10
128.992304355177
 20
44.95768210858536
 30
0.0
 10
128.9925270013897
 20
44.8849340183252
 30
0.0
 10
128.9924365315488
 20
44.81218764365609
 30
0.0
 10
128.9920343380861
 20
44.73944431970343
 30
0.0
 10
128.9913217805734
 20
44.66670336855966
 30
0.0
 10
128.9903002197869
 20
44.59396604659748
 30
0.0
 10
128.9889710164431
 20
44.5212336481571
 30
0.0
 10
128.9873355291386
 20
44.4485074471018
 30
0.0
 10
128.9853951177542
 20
44.37578874768593
 30
0.0
 10
128.983151127318
 20
44.30307834451969
 30
0.0
 10
128.9806049094881
 20
44.23037745581928
 30
0.0
 10
128.977757808838
 20
44.15768728709541
 30
0.0
 10
128.9746111912911
 20
44.08500947003701
 30
0.0
 10
128.9711664076729
 20
44.01234520046103
 30
0.0
 10
128.9674248072988
 20
43.9396956346978
 30
0.0
 10
128.9633877393996
 20
43.86706191451401
 30
0.0
 10
128.9590565508073
 20
43.79444514198294
 30
0.0
 10
128.9544324799269
 20
43.72184471932061
 30
0.0
 10
128.9495168489109
 20
43.6492617414788
 30
0.0
 10
128.9443109469016
 20
43.57669729259067
 30
0.0
 10
128.9388162015544
 20
43.50415414647816
 30
0.0
 10
128.9330339244021
 20
43.43163336230692
 30
0.0
 10
128.926965425296
 20
43.35913597667984
 30
0.0
 10
128.9206120128281
 20
43.28666301302204
 30
0.0
 10
128.9139749936625
 20
43.21421547319835
 30
0.0
 10
128.9070557029928
 20
43.14179465729695
 30
0.0
 10
128.8998554496542
 20
43.06940154542254
 30
0.0
 10
128.8923755417207
 20
42.99703710678214
 30
0.0
 10
128.8846172510692
 20
42.92470198877952
 30
0.0
 10
128.8765818781147
 20
42.85239712824292
 30
0.0
 10
128.868270721745
 20
42.78012344836156
 30
0.0
 10
128.8596850788922
 20
42.70788185545505
 30
0.0
 10
128.8508262452875
 20
42.63567324686026
 30
0.0
 10
128.841431714169
 20
42.56141326555192
 30
0.0
 10
128.8314747356678
 20
42.48510637077783
 30
0.0
 10
128.8209296524215
 20
42.40675716712118
 30
0.0
 10
128.8100718162603
 20
42.32845067672194
 30
0.0
 10
128.7989046047537
 20
42.25018761838406
 30
0.0
 10
128.7874314017022
 20
42.1719687589797
 30
0.0
 10
128.7756555822768
 20
42.09379481921037
 30
0.0
 10
128.7635805275154
 20
42.01566655267425
 30
0.0
 10
128.7512095235572
 20
41.93758410452784
 30
0.0
 10
128.738545921591
 20
41.85954807244691
 30
0.0
 10
128.7255930639379
 20
41.78155902696213
 30
0.0
 10
128.7123543739294
 20
41.70361799710292
 30
0.0
 10
128.6988331980777
 20
41.62572553608371
 30
0.0
 10
128.6850328682033
 20
41.54788210806844
 30
0.0
 10
128.6709567116021
 20
41.47008814618493
 30
0.0
 10
128.6566080388749
 20
41.39234399351845
 30
0.0
 10
128.6419900428157
 20
41.31464936896717
 30
0.0
 10
128.6271060233031
 20
41.23700460291509
 30
0.0
 10
128.6119592657633
 20
41.15940999810074
 30
0.0
 10
128.5965531808228
 20
41.08186646885757
 30
0.0
 10
128.5808910429792
 20
41.00437422139689
 30
0.0
 10
128.5649761266392
 20
40.92693346307852
 30
0.0
 10
128.5488117027608
 20
40.84954437809795
 30
0.0
 10
128.5324010416904
 20
40.77220714552861
 30
0.0
 10
128.5157475063359
 20
40.69492237331593
 30
0.0
 10
128.4988543516491
 20
40.61769014022602
 30
0.0
 10
128.4817248205831
 20
40.54051048429918
 30
0.0
 10
128.4643620492376
 20
40.46338294743135
 30
0.0
 10
128.4467692806955
 20
40.38630767496979
 30
0.0
 10
128.4289498184034
 20
40.30928461982498
 30
0.0
 10
128.4109066190695
 20
40.23231391267696
 30
0.0
 10
128.3926439026709
 20
40.15539493962157
 30
0.0
 10
128.2167795947717
 20
39.42401879053322
 30
0.0
 10
127.833212181969
 20
38.04976911837525
 30
0.0
 10
127.3764944125764
 20
36.72721072296707
 30
0.0
 10
127.1481355278801
 20
36.06593152526297
 30
0.0
 11
127.0981706178649
 21
53.81198972106567
 31
0.0
 11
127.7860495713297
 21
51.76924405187698
 31
0.0
 11
128.3659910020492
 21
49.69327313191101
 31
0.0
 11
128.3845848213625
 21
49.61634627406623
 31
0.0
 11
128.4029625046529
 21
49.53936734426279
 31
0.0
 11
128.421120851556
 21
49.46233614717715
 31
0.0
 11
128.4390565747893
 21
49.38525285148091
 31
0.0
 11
128.4567665524535
 21
49.30811691302267
 31
0.0
 11
128.4742474434629
 21
49.23092872459532
 31
0.0
 11
128.4914959826217
 21
49.15368835770116
 31
0.0
 11
128.5085089333115
 21
49.0763957614049
 31
0.0
 11
128.5252833625075
 21
48.99904947001345
 31
0.0
 11
128.541815670686
 21
48.92165106451687
 31
0.0
 11
128.5581025907026
 21
48.84420062530479
 31
0.0
 11
128.5741408388875
 21
48.76669831010977
 31
0.0
 11
128.5899271083405
 21
48.6891443933868
 31
0.0
 11
128.6054581324256
 21
48.6115389579986
 31
0.0
 11
128.6207306152779
 21
48.53388222916057
 31
0.0
 11
128.6357412550316
 21
48.45617446276062
 31
0.0
 11
128.6504863604071
 21
48.3784179785454
 31
0.0
 11
128.6649630057502
 21
48.30061106555574
 31
0.0
 11
128.6791678636664
 21
48.22275406674026
 31
0.0
 11
128.6930975977542
 21
48.1448473740838
 31
0.0
 11
128.7067488960017
 21
48.06689123898099
 31
0.0
 11
128.7201183821933
 21
47.98888627897286
 31
0.0
 11
128.7332027044825
 21
47.9108329788341
 31
0.0
 11
128.7459985046653
 21
47.83273186079035
 31
0.0
 11
128.7585021818969
 21
47.75458497574812
 31
0.0
 11
128.7707106106186
 21
47.67639142171141
 31
0.0
 11
128.7826204146995
 21
47.59815180406423
 31
0.0
 11
128.7942282056104
 21
47.51986681032004
 31
0.0
 11
128.8055305599738
 21
47.441537371314
 31
0.0
 11
128.8165241152813
 21
47.36316399239589
 31
0.0
 11
128.8272054612177
 21
47.28474750201743
 31
0.0
 11
128.8375711936293
 21
47.20628868069066
 31
0.0
 11
128.8468195054149
 21
47.134123004633
 31
0.0
 11
128.8557968642301
 21
47.06192312943575
 31
0.0
 11
128.8645019427047
 21
46.98968993899169
 31
0.0
 11
128.872933415796
 21
46.91742429878045
 31
0.0
 11
128.8810899530354
 21
46.84512711920637
 31
0.0
 11
128.8889702244693
 21
46.77279930632874
 31
0.0
 11
128.8965728986516
 21
46.70044177838639
 31
0.0
 11
128.903896640578
 21
46.62805548596437
 31
0.0
 11
128.9109402014419
 21
46.55564047595377
 31
0.0
 11
128.9177021509126
 21
46.48319862714898
 31
0.0
 11
128.9241811511221
 21
46.41073092346686
 31
0.0
 11
128.9303758627727
 21
46.33823836474529
 31
0.0
 11
128.9362849470917
 21
46.26572194260196
 31
0.0
 11
128.9419070602578
 21
46.19318270769955
 31
0.0
 11
128.947240859396
 21
46.12062170034127
 31
0.0
 11
128.9522850000436
 21
46.04803998190872
 31
0.0
 11
128.9570378046557
 21
45.97544377748896
 31
0.0
 11
128.9614982686214
 21
45.90282902483315
 31
0.0
 11
128.9656650129556
 21
45.83019682346402
 31
0.0
 11
128.9695366574277
 21
45.75754829419769
 31
0.0
 11
128.9731118245015
 21
45.68488450123152
 31
0.0
 11
128.9763891290675
 21
45.61220666483875
 31
0.0
 11
128.9793671892712
 21
45.53951595040213
 31
0.0
 11
128.9820446224329
 21
45.46681354220183
 31
0.0
 11
128.9844200036695
 21
45.39410196387086
 31
0.0
 11
128.9864919950977
 21
45.32138110773147
 31
0.0
 11
128.9882592059275
 21
45.24865219772197
 31
0.0
 11
128.9897202445326
 21
45.17591649313521
 31
0.0
 11
128.9908737168452
 21
45.10317541074826
 31
0.0
 11
128.9917182326451
 21
45.03043008463526
 31
0.0
 11
128.9922523976614
 21
44.95768183685438
 31
0.0
 11
128.9924748175011
 21
44.88493197091731
 31
0.0
 11
128.992384577207
 21
44.81218782095956
 31
0.0
 11
128.991982610802
 21
44.73944472273788
 31
0.0
 11
128.9912702801516
 21
44.66670398251797
 31
0.0
 11
128.9902489469692
 21
44.59396692546213
 31
0.0
 11
128.988919969259
 21
44.52123468896442
 31
0.0
 11
128.987284708373
 21
44.44850869389357
 31
0.0
 11
128.9853445235105
 21
44.37579020371543
 31
0.0
 11
128.9831007731112
 21
44.30308044708963
 31
0.0
 11
128.9805547649347
 21
44.23037931624755
 31
0.0
 11
128.9777078893362
 21
44.15768934524678
 31
0.0
 11
128.9745614967601
 21
44.0850117240263
 31
0.0
 11
128.9711169368779
 21
44.01234762408953
 31
0.0
 11
128.9673755625043
 21
43.93969827162017
 31
0.0
 11
128.9633387192252
 21
43.86706473810194
 31
0.0
 11
128.9590077552105
 21
43.79444815141184
 31
0.0
 11
128.9543840174484
 21
43.72184961859774
 31
0.0
 11
128.9494684896674
 21
43.64926511396847
 31
0.0
 11
128.9442628062594
 21
43.57670084188891
 31
0.0
 11
128.938768279481
 21
43.50415787213203
 31
0.0
 11
128.9329862200719
 21
43.43163725385045
 31
0.0
 11
128.9269179396338
 21
43.35914004579301
 31
0.0
 11
128.9205647450219
 21
43.28666725006888
 31
0.0
 11
128.9139279435474
 21
43.21421987627064
 31
0.0
 11
128.9070088411528
 21
43.14179891845
 31
0.0
 11
128.8998088354388
 21
43.06940627287558
 31
0.0
 11
128.8923291442431
 21
42.99704199015542
 31
0.0
 11
128.884571070698
 21
42.92470703179125
 31
0.0
 11
128.8765359145013
 21
42.8524023275782
 31
0.0
 11
128.8682249740709
 21
42.78012879680516
 31
0.0
 11
128.8596395480067
 21
42.70788736033766
 31
0.0
 11
128.8507809298013
 21
42.63567889631562
 31
0.0
 11
128.8416504152076
 21
42.56350430101442
 31
0.0
 11
128.8314220456706
 21
42.48511336003233
 31
0.0
 11
128.8208775295499
 21
42.40676430514534
 31
0.0
 11
128.8100202557045
 21
42.3284579294836
 31
0.0
 11
128.7988536190649
 21
42.25019507404328
 31
0.0
 11
128.7873809673772
 21
42.17197625745877
 31
0.0
 11
128.7756057084038
 21
42.0938024227865
 31
0.0
 11
128.763531215526
 21
42.01567427031607
 31
0.0
 11
128.7511608498827
 21
41.93759241837738
 31
0.0
 11
128.7384977256938
 21
41.85955598602236
 31
0.0
 11
128.7255454251258
 21
41.78156702905309
 31
0.0
 11
128.7123072913762
 21
41.70362608280971
 31
0.0
 11
128.6987866613345
 21
41.62573364513501
 31
0.0
 11
128.684986895406
 21
41.54789034297795
 31
0.0
 11
128.6709112916936
 21
41.47009644468868
 31
0.0
 11
128.6565631718063
 21
41.3923523553115
 31
0.0
 11
128.6419458484928
 21
41.31465843124197
 31
0.0
 11
128.6270622542298
 21
41.23701307057393
 31
0.0
 11
128.6119160445032
 21
41.15941851056078
 31
0.0
 11
128.5965105064112
 21
41.08187502112612
 31
0.0
 11
128.58084892085
 21
41.00438284030904
 31
0.0
 11
128.5649345429065
 21
40.92694207949138
 31
0.0
 11
128.5487706614302
 21
40.84955301162393
 31
0.0
 11
128.5323605447139
 21
40.77221580569614
 31
0.0
 11
128.5157074455976
 21
40.69493055784497
 31
0.0
 11
128.4988149386948
 21
40.6176988258057
 31
0.0
 11
128.4816859525527
 21
40.54051919474547
 31
0.0
 11
128.4643237113014
 21
40.46339163597661
 31
0.0
 11
128.4467314631325
 21
40.38631622435462
 31
0.0
 11
128.4289125242918
 21
40.30929332464502
 31
0.0
 11
128.4108700137095
 21
40.23232245377324
 31
0.0
 11
128.3926071967205
 21
40.15540376381035
 31
0.0
 11
128.3741272612995
 21
40.0785370815145
 31
0.0
 11
127.8131517716185
 21
38.05634025367155
 31
0.0
 11
127.1481355278801
 21
36.06593152526297
 31
0.0
  0
SPLINE
  5
288
330
1F
100
AcDbEntity
  8
0
  6
Continuous
 62
     3
100
AcDbSpline
210
0.0
220
0.0
230
1.0
 70
     8
 71
     3
 72
    11
 73
     7
 74
     5
 42
0.0000000001
 43
0.0000000001
 44
0.00000001
 40
0.0
 40
0.0
 40
0.0
 40
0.0
 40
2.438694329462215
 40
4.877388658924437
 40
7.02754619356484
 40
9.177703728205286
 40
9.177703728205286
 40
9.177703728205286
 40
9.177703728205286
 10
138.2300863226366
 20
15.87555378912376
 30
0.0
 10
138.9523297954209
 20
15.49568612839725
 30
0.0
 10
140.3968167409895
 20
14.73595080694421
 30
0.0
 10
142.7522024421569
 20
14.32003457406699
 30
0.0
 10
145.0104682698848
 20
14.66753848826866
 30
0.0
 10
146.3097505377453
 20
15.28553381643766
 30
0.0
 10
146.9593916716756
 20
15.59453148052216
 30
0.0
 11
138.2300863226366
 21
15.87555378912376
 31
0.0
 11
140.4443771814853
 21
14.85371915232085
 31
0.0
 11
142.848830469556
 21
14.44649142974129
 31
0.0
 11
144.975026148567
 21
14.7665997837809
 31
0.0
 11
146.9593916716756
 21
15.59453148052216
 31
0.0
  0
SPLINE
  5
289
330
1F
100
AcDbEntity
  8
0
  6
Continuous
 62
     3
100
AcDbSpline
210
0.0
220
0.0
230
1.0
 70
     8
 71
     3
 72
    11
 73
     7
 74
     5
 42
0.0000000001
 43
0.0000000001
 44
0.00000001
 40
0.0
 40
0.0
 40
0.0
 40
0.0
 40
2.362332715901411
 40
4.724665431802779
 40
6.745623816026214
 40
8.766582200249667
 40
8.766582200249667
 40
8.766582200249667
 40
8.766582200249667
 10
138.2300863226421
 20
31.78441749559336
 30
0.0
 10
138.9799418964693
 20
32.03025064489353
 30
0.0
 10
140.4796530441235
 20
32.52191694349387
 30
0.0
 10
142.7353833703374
 20
32.75455398649567
 30
0.0
 10
144.8754509639107
 20
32.56793424603186
 30
0.0
 10
146.1724579572424
 20
32.19398727077466
 30
0.0
 10
146.8209614539083
 20
32.00701378314606
 30
0.0
 11
138.2300863226421
 21
31.78441749559336
 31
0.0
 11
140.4997061880473
 21
32.43973537813292
 31
0.0
 11
142.8492389452872
 21
32.68531974912331
 31
0.0
 11
144.8620372639653
 21
32.50389285175256
 31
0.0
 11
146.8209614539083
 21
32.00701378314606
 31
0.0
  0
SPLINE
  5
28A
330
1F
100
AcDbEntity
  8
0
  6
Continuous
 62
     3
100
AcDbSpline
210
0.0
220
0.0
230
1.0
 70
     8
 71
     3
 72
    11
 73
     7
 74
     5
 42
0.0000000001
 43
0.0000000001
 44
0.00000001
 40
0.0
 40
0.0
 40
0.0
 40
0.0
 40
4.685562915425844
 40
9.371125830851701
 40
14.05680397751786
 40
18.74248212418418
 40
18.74248212418418
 40
18.74248212418418
 40
18.74248212418418
 10
119.7548777085685
 20
15.87555378911146
 30
0.0
 10
121.2689746527476
 20
15.48313504131122
 30
0.0
 10
124.2971685411057
 20
14.69829754571073
 30
0.0
 10
128.9924042375948
 20
14.32059492464826
 30
0.0
 10
133.6876826646912
 20
14.69827133317813
 30
0.0
 10
136.7159517699881
 20
15.48312630380854
 30
0.0
 10
138.2300863226366
 20
15.87555378912376
 30
0.0
 11
119.7548777085685
 21
15.87555378911146
 31
0.0
 11
124.3226529368657
 21
14.83155699880596
 31
0.0
 11
128.9923664550522
 21
14.4464914297395
 31
0.0
 11
133.6621971215949
 21
14.83153849174861
 31
0.0
 11
138.2300863226366
 21
15.87555378912376
 31
0.0
  0
SPLINE
  5
28B
330
1F
100
AcDbEntity
  8
0
  6
Continuous
 62
     3
100
AcDbSpline
210
0.0
220
0.0
230
1.0
 70
     8
 71
     3
 72
    11
 73
     7
 74
     5
 42
0.0000000001
 43
0.0000000001
 44
0.00000001
 40
0.0
 40
0.0
 40
0.0
 40
0.0
 40
4.645517238847454
 40
9.291034477694868
 40
13.93660366686081
 40
18.58217285602675
 40
18.58217285602675
 40
18.58217285602675
 40
18.58217285602675
 10
119.7548777085793
 20
31.78441749559336
 30
0.0
 10
121.2841937517948
 20
32.03353734519671
 30
0.0
 10
124.3428258382258
 20
32.5317770444034
 30
0.0
 10
128.9924472131099
 20
32.76208924566898
 30
0.0
 10
133.6420866672379
 20
32.53178450112733
 30
0.0
 10
136.7007531041741
 20
32.03353983077135
 30
0.0
 10
138.2300863226421
 20
31.78441749559336
 30
0.0
 11
119.7548777085793
 21
31.78441749559336
 31
0.0
 11
124.3531018237643
 21
32.44560234339338
 31
0.0
 11
128.9924300056408
 21
32.68531975468063
 31
0.0
 11
133.6318104787823
 21
32.44560760070938
 31
0.0
 11
138.2300863226421
 21
31.78441749559336
 31
0.0
  0
SPLINE
  5
28C
330
1F
100
AcDbEntity
  8
0
  6
Continuous
 62
     3
100
AcDbSpline
210
0.0
220
0.0
230
1.0
 70
     8
 71
     3
 72
    11
 73
     7
 74
     5
 42
0.0000000001
 43
0.0000000001
 44
0.00000001
 40
0.0
 40
0.0
 40
0.0
 40
0.0
 40
2.150100260739302
 40
4.300200521478681
 40
6.73895206001494
 40
9.177703598551151
 40
9.177703598551151
 40
9.177703598551151
 40
9.177703598551151
 10
111.0255722779903
 20
15.59453152365077
 30
0.0
 10
111.6751956512394
 20
15.28554162494024
 30
0.0
 10
112.9744423977376
 20
14.66756182751916
 30
0.0
 10
115.2326816219708
 20
14.32003332095748
 30
0.0
 10
117.5880951613961
 20
14.73592498965095
 30
0.0
 10
119.0326168595111
 20
15.49567752262463
 30
0.0
 10
119.7548777085685
 20
15.87555378911146
 30
0.0
 11
111.0255722779903
 21
15.59453152365077
 31
0.0
 11
113.0098826242884
 21
14.7666163221926
 31
0.0
 11
115.1360178938474
 21
14.44649142973829
 31
0.0
 11
117.5405323147598
 21
14.85370079399389
 31
0.0
 11
119.7548777085685
 21
15.87555378911146
 31
0.0
  0
SPLINE
  5
28D
330
1F
100
AcDbEntity
  8
0
  6
Continuous
 62
     3
100
AcDbSpline
210
0.0
220
0.0
230
1.0
 70
     8
 71
     3
 72
    11
 73
     7
 74
     5
 42
0.0000000001
 43
0.0000000001
 44
0.00000001
 40
0.0
 40
0.0
 40
0.0
 40
0.0
 40
2.867549055809282
 40
5.735098111618603
 40
8.6697253263643
 40
11.60435254111001
 40
11.60435254111001
 40
11.60435254111001
 40
11.60435254111001
 10
126.2787186868944
 20
35.40431146133837
 30
0.0
 10
125.3267250709308
 20
35.31481485460397
 30
0.0
 10
123.4227378390037
 20
35.13582164113519
 30
0.0
 10
120.5732882076301
 20
34.64081529368504
 30
0.0
 10
117.7234864381581
 20
34.03918448582525
 30
0.0
 10
115.8253553864948
 20
33.5644617097096
 30
0.0
 10
114.8762898606631
 20
33.32710032165177
 30
0.0
 11
126.2787186868944
 21
35.40431146133837
 31
0.0
 11
123.4275007674545
 21
35.09870720198079
 31
0.0
 11
120.5988535854892
 21
34.62797085599446
 31
0.0
 11
117.7275672690695
 21
34.02154544535678
 31
0.0
 11
114.8762898606631
 21
33.32710032165177
 31
0.0
  0
SPLINE
  5
28E
330
1F
100
AcDbEntity
  8
0
  6
Continuous
 62
     3
100
AcDbSpline
210
0.0
220
0.0
230
1.0
 70
     8
 71
     3
 72
    11
 73
     7
 74
     5
 42
0.0000000001
 43
0.0000000001
 44
0.00000001
 40
0.0
 40
0.0
 40
0.0
 40
0.0
 40
1.162651661931907
 40
2.325303323863795
 40
3.656882732632675
 40
4.988462141401541
 40
4.988462141401541
 40
4.988462141401541
 40
4.988462141401541
 10
114.8762898606645
 20
32.68225015395346
 30
0.0
 10
115.2642188422984
 20
32.67953480275606
 30
0.0
 10
116.0400768055661
 20
32.67410410036127
 30
0.0
 10
117.2499830057694
 20
32.50376918268373
 30
0.0
 10
118.4946844045407
 20
32.21695171134682
 30
0.0
 10
119.3348132738998
 20
31.92859556751117
 30
0.0
 10
119.7548777085793
 20
31.78441749559336
 30
0.0
 11
114.8762898606645
 21
32.68225015395346
 31
0.0
 11
116.0384481862136
 21
32.64838404478806
 31
0.0
 11
117.1911036631917
 21
32.49625173926023
 31
0.0
 11
118.4881064733167
 21
32.19477631342054
 31
0.0
 11
119.7548777085793
 21
31.78441749559336
 31
0.0
  0
SPLINE
  5
28F
330
1F
100
AcDbEntity
  8
0
  6
Continuous
 62
     3
100
AcDbSpline
210
0.0
220
0.0
230
1.0
 70
     8
 71
     3
 72
    11
 73
     7
 74
     5
 42
0.0000000001
 43
0.0000000001
 44
0.00000001
 40
0.0
 40
0.0
 40
0.0
 40
0.0
 40
1.103714981540339
 40
2.207429963080659
 40
3.305738487451682
 40
4.404047011822577
 40
4.404047011822577
 40
4.404047011822577
 40
4.404047011822577
 10
114.4202529778608
 20
33.06828303090127
 30
0.0
 10
114.1488376828453
 20
32.81863747240477
 30
0.0
 10
113.6060070928145
 20
32.3193463554118
 30
0.0
 10
112.6568736306884
 20
31.7481258280944
 30
0.0
 10
111.6183567697515
 20
31.34725411734429
 30
0.0
 10
110.8843011909403
 20
31.29517881265393
 30
0.0
 10
110.5172734015347
 20
31.26914116030876
 30
0.0
 11
114.4202529778608
 21
33.06828303090127
 31
0.0
 11
113.5832671157435
 21
32.34881001049507
 31
0.0
 11
112.6400784092501
 21
31.77558943827205
 31
0.0
 11
111.6076454765149
 21
31.40093779459502
 31
0.0
 11
110.5172734015347
 21
31.26914116030876
 31
0.0
  0
SPLINE
  5
290
330
1F
100
AcDbEntity
  8
0
  6
Continuous
 62
     3
100
AcDbSpline
210
0.0
220
0.0
230
1.0
 70
     8
 71
     3
 72
    11
 73
     7
 74
     5
 42
0.0000000001
 43
0.0000000001
 44
0.00000001
 40
0.0
 40
0.0
 40
0.0
 40
0.0
 40
1.400680352395612
 40
2.801360704791241
 40
4.202040897206679
 40
5.6027210896221
 40
5.6027210896221
 40
5.6027210896221
 40
5.6027210896221
 10
73.19051253883669
 20
55.68326542870577
 30
0.0
 10
73.65734325730278
 20
55.69091883953393
 30
0.0
 10
74.591004694235
 20
55.70622566119025
 30
0.0
 10
75.99149701734655
 20
55.72917240721107
 30
0.0
 10
77.39198943374029
 20
55.75211020315837
 30
0.0
 10
78.32565115498164
 20
55.76739315799995
 30
0.0
 10
78.79248201560236
 20
55.77503463542077
 30
0.0
 11
73.19051253883669
 21
55.68326542870577
 31
0.0
 11
74.59100473107378
 21
55.70622341359189
 31
0.0
 11
75.99149709509976
 21
55.72917091655119
 31
0.0
 11
77.39198947020493
 21
55.7521079760231
 31
0.0
 11
78.79248201560236
 21
55.77503463542077
 31
0.0
  0
SPLINE
  5
291
330
1F
100
AcDbEntity
  8
0
  6
Continuous
 62
     3
100
AcDbSpline
210
0.0
220
0.0
230
1.0
 70
     8
 71
     3
 72
    11
 73
     7
 74
     5
 42
0.0000000001
 43
0.0000000001
 44
0.00000001
 40
0.0
 40
0.0
 40
0.0
 40
0.0
 40
1.400678983499567
 40
2.801357966999164
 40
4.202037204908484
 40
5.60271644281773
 40
5.60271644281773
 40
5.60271644281773
 40
5.60271644281773
 10
73.19051253899096
 20
51.47403178951697
 30
0.0
 10
73.65734330284516
 20
51.48165453393203
 30
0.0
 10
74.59100483055357
 20
51.49690002276209
 30
0.0
 10
75.99149716960572
 20
51.519770541761
 30
0.0
 10
77.39198956869305
 20
51.54264257808917
 30
0.0
 10
78.32565119996593
 20
51.55789211229951
 30
0.0
 10
78.79248201560236
 20
51.56551687940467
 30
0.0
 11
73.19051253899096
 21
51.47403178951697
 31
0.0
 11
74.59100482433648
 21
51.49690040349028
 31
0.0
 11
75.99149708068765
 21
51.51977079303369
 31
0.0
 11
77.39198956253142
 21
51.54264295535627
 31
0.0
 11
78.79248201560236
 21
51.56551687940467
 31
0.0
  0
SPLINE
  5
292
330
1F
100
AcDbEntity
  8
0
  6
Continuous
 62
     3
100
AcDbSpline
210
0.0
220
0.0
230
1.0
 70
     8
 71
     3
 72
    11
 73
     7
 74
     5
 42
0.0000000001
 43
0.0000000001
 44
0.00000001
 40
0.0
 40
0.0
 40
0.0
 40
0.0
 40
1.400492468968765
 40
2.80098493793756
 40
4.201477211087266
 40
5.60196948423695
 40
5.60196948423695
 40
5.60196948423695
 40
5.60196948423695
 10
78.79248201560256
 20
40.65962340429256
 30
0.0
 10
78.32565119290871
 20
40.65964011387305
 30
0.0
 10
77.39198954752098
 20
40.65967353303402
 30
0.0
 10
75.99149714534617
 20
40.65973929236434
 30
0.0
 10
74.59100480897462
 20
40.65981551964869
 30
0.0
 10
73.65734329554934
 20
40.65987685398055
 30
0.0
 10
73.19051253883669
 20
40.65990752114647
 30
0.0
 11
78.79248201560256
 21
40.65962340429256
 31
0.0
 11
77.39198954762661
 21
40.65967613813267
 31
0.0
 11
75.99149708016152
 21
40.65974103702721
 31
0.0
 11
74.59100480913472
 21
40.65981814868486
 31
0.0
 11
73.19051253883669
 21
40.65990752114647
 31
0.0
  0
SPLINE
  5
293
330
1F
100
AcDbEntity
  8
0
  6
Continuous
 62
     3
100
AcDbSpline
210
0.0
220
0.0
230
1.0
 70
     8
 71
     3
 72
    11
 73
     7
 74
     5
 42
0.0000000001
 43
0.0000000001
 44
0.00000001
 40
0.0
 40
0.0
 40
0.0
 40
0.0
 40
1.400492280308033
 40
2.800984560616115
 40
4.201477022426433
 40
5.601969484236751
 40
5.601969484236751
 40
5.601969484236751
 40
5.601969484236751
 10
73.19051253883669
 20
49.07837479947087
 30
0.0
 10
73.65734329793545
 20
49.07840546663697
 30
0.0
 10
74.59100481613297
 20
49.07846680096916
 30
0.0
 10
75.99149715489065
 20
49.07854302825356
 30
0.0
 10
77.39198955467923
 20
49.07860878758373
 30
0.0
 10
78.32565119529463
 20
49.07864220674442
 30
0.0
 10
78.79248201560236
 20
49.07865891632477
 30
0.0
 11
73.19051253883669
 21
49.07837479947087
 31
0.0
 11
74.59100481629307
 21
49.07846417193296
 31
0.0
 11
75.99149709447825
 21
49.07854128359093
 31
0.0
 11
77.39198955478486
 21
49.07860618248507
 31
0.0
 11
78.79248201560236
 21
49.07865891632477
 31
0.0
  0
SPLINE
  5
294
330
1F
100
AcDbEntity
  8
0
  6
Continuous
 62
     3
100
AcDbSpline
210
0.0
220
0.0
230
1.0
 70
     8
 71
     3
 72
    11
 73
     7
 74
     5
 42
0.0000000001
 43
0.0000000001
 44
0.00000001
 40
0.0
 40
0.0
 40
0.0
 40
0.0
 40
1.400680352395673
 40
2.801360704791361
 40
4.20204089720673
 40
5.602721089622106
 40
5.602721089622106
 40
5.602721089622106
 40
5.602721089622106
 10
73.19051253883669
 20
34.05501689191206
 30
0.0
 10
73.6573432573028
 20
34.04736348108382
 30
0.0
 10
74.59100469423501
 20
34.03205665942735
 30
0.0
 10
75.99149701734663
 20
34.00910991340636
 30
0.0
 10
77.39198943374032
 20
33.9861721174589
 30
0.0
 10
78.32565115498167
 20
33.9708891626174
 30
0.0
 10
78.79248201560236
 20
33.96324768519666
 30
0.0
 11
73.19051253883669
 21
34.05501689191206
 31
0.0
 11
74.59100473107384
 21
34.0320589070257
 31
0.0
 11
75.99149709509987
 21
34.00911140406625
 31
0.0
 11
77.39198947020498
 21
33.98617434459423
 31
0.0
 11
78.79248201560236
 21
33.96324768519666
 31
0.0
  0
SPLINE
  5
295
330
1F
100
AcDbEntity
  8
0
  6
Continuous
 62
     3
100
AcDbSpline
210
0.0
220
0.0
230
1.0
 70
     8
 71
     3
 72
    11
 73
     7
 74
     5
 42
0.0000000001
 43
0.0000000001
 44
0.00000001
 40
0.0
 40
0.0
 40
0.0
 40
0.0
 40
1.400678983576542
 40
2.80135796715313
 40
4.202037205062389
 40
5.60271644297167
 40
5.60271644297167
 40
5.60271644297167
 40
5.60271644297167
 10
73.19051253883669
 20
38.26425053107427
 30
0.0
 10
73.65734330271671
 20
38.25662778666915
 30
0.0
 10
74.59100483047678
 20
38.24138229785891
 30
0.0
 10
75.99149716958014
 20
38.21851177885615
 30
0.0
 10
77.39198956869319
 20
38.19563974252885
 30
0.0
 10
78.32565119996603
 20
38.18039020831806
 30
0.0
 10
78.79248201560247
 20
38.17276544121266
 30
0.0
 11
73.19051253883669
 21
38.26425053107427
 31
0.0
 11
74.59100482425958
 21
38.24138191712505
 31
0.0
 11
75.9914970806878
 21
38.21851152758376
 31
0.0
 11
77.3919895625315
 21
38.19563936526143
 31
0.0
 11
78.79248201560247
 21
38.17276544121266
 31
0.0
  0
SPLINE
  5
296
330
1F
100
AcDbEntity
  8
0
  6
Continuous
 62
     3
100
AcDbSpline
210
0.0
220
0.0
230
1.0
 70
     8
 71
     3
 72
    11
 73
     7
 74
     5
 42
0.0000000001
 43
0.0000000001
 44
0.00000001
 40
0.0
 40
0.0
 40
0.0
 40
0.0
 40
2.419085949045732
 40
4.838171898091405
 40
7.257484601826174
 40
9.676797305560985
 40
9.676797305560985
 40
9.676797305560985
 40
9.676797305560985
 10
95.77079417911528
 20
49.66497268362147
 30
0.0
 10
95.9318617543372
 20
48.87398384586304
 30
0.0
 10
96.25399690478108
 20
47.29200617034621
 30
0.0
 10
96.39520829512229
 20
44.86929340456393
 30
0.0
 10
96.25403660187789
 20
42.44650021739476
 30
0.0
 10
95.93187498670282
 20
40.86437316379558
 30
0.0
 10
95.77079417911528
 20
40.07330963699597
 30
0.0
 11
95.77079417911528
 21
49.66497268362147
 31
0.0
 11
96.19699761355291
 21
47.28372774423702
 31
0.0
 11
96.34814444695074
 21
44.86936831291284
 31
0.0
 11
96.19702554873592
 21
42.4547799345231
 31
0.0
 11
95.77079417911528
 21
40.07330963699597
 31
0.0
  0
SPLINE
  5
297
330
1F
100
AcDbEntity
  8
0
  6
Continuous
 62
     3
100
AcDbSpline
210
0.0
220
0.0
230
1.0
 70
     8
 71
     3
 72
    11
 73
     7
 74
     5
 42
0.0000000001
 43
0.0000000001
 44
0.00000001
 40
0.0
 40
0.0
 40
0.0
 40
0.0
 40
2.419354415854487
 40
4.838708831709002
 40
7.257753068629227
 40
9.676797305549416
 40
9.676797305549416
 40
9.676797305549416
 40
9.676797305549416
 10
83.35850741937307
 20
49.66497268362987
 30
0.0
 10
83.19742417787587
 20
48.87389541754003
 30
0.0
 10
82.87525769488147
 20
47.29174088536034
 30
0.0
 10
82.73409330394743
 20
44.86893290457097
 30
0.0
 10
82.87531199552978
 20
42.44623493244902
 30
0.0
 10
83.197442278092
 20
40.86428473547478
 30
0.0
 10
83.35850741937307
 20
40.07330963698766
 30
0.0
 11
83.35850741937307
 21
49.66497268362987
 31
0.0
 11
82.93227091163656
 21
47.28346093077472
 31
0.0
 11
82.78115715273111
 21
44.8688304370171
 31
0.0
 11
82.93230912350757
 21
42.45451312110617
 31
0.0
 11
83.35850741937307
 21
40.07330963698766
 31
0.0
  0
SPLINE
  5
298
330
1F
100
AcDbEntity
  8
0
  6
Continuous
 62
     3
100
AcDbSpline
210
0.0
220
0.0
230
1.0
 70
     8
 71
     3
 72
    11
 73
     7
 74
     5
 42
0.0000000001
 43
0.0000000001
 44
0.00000001
 40
0.0
 40
0.0
 40
0.0
 40
0.0
 40
1.24072664936299
 40
2.481453298726434
 40
3.722025632589753
 40
4.962597966452946
 40
4.962597966452946
 40
4.962597966452946
 40
4.962597966452946
 10
83.35850741938697
 20
56.79333636359377
 30
0.0
 10
83.20070644545376
 20
56.40952596040093
 30
0.0
 10
82.88510449758729
 20
55.64190515401513
 30
0.0
 10
82.72917000601515
 20
54.39531466771005
 30
0.0
 10
82.88515838477385
 20
53.14878940116589
 30
0.0
 10
83.2007244078493
 20
52.38126636057601
 30
0.0
 10
83.35850741938697
 20
51.99750484028107
 30
0.0
 11
83.35850741938697
 21
56.79333636359377
 31
0.0
 11
82.9380148251157
 21
55.62603666060291
 31
0.0
 11
82.78115715273105
 21
54.39526524029177
 31
0.0
 11
82.93805290534289
 21
53.16465423824464
 31
0.0
 11
83.35850741938697
 21
51.99750484028107
 31
0.0
  0
SPLINE
  5
299
330
1F
100
AcDbEntity
  8
0
  6
Continuous
 62
     3
100
AcDbSpline
210
0.0
220
0.0
230
1.0
 70
     8
 71
     3
 72
    11
 73
     7
 74
     5
 42
0.0000000001
 43
0.0000000001
 44
0.00000001
 40
0.0
 40
0.0
 40
0.0
 40
0.0
 40
1.240726649363993
 40
2.481453298727941
 40
3.722025632591264
 40
4.9625979664546
 40
4.9625979664546
 40
4.9625979664546
 40
4.9625979664546
 10
83.35850741938697
 20
37.74077748033636
 30
0.0
 10
83.20070644545036
 20
37.35696707714423
 30
0.0
 10
82.88510449757717
 20
36.58934627075998
 30
0.0
 10
82.72917000601785
 20
35.34275578445227
 30
0.0
 10
82.88515838477298
 20
34.09623051790845
 30
0.0
 10
83.20072440784897
 20
33.32870747731846
 30
0.0
 10
83.35850741938697
 20
32.94494595702346
 30
0.0
 11
83.35850741938697
 21
37.74077748033636
 31
0.0
 11
82.93801482510935
 21
36.57347777734673
 31
0.0
 11
82.78115715273103
 21
35.34270635703427
 31
0.0
 11
82.93805290534272
 21
34.11209535498712
 31
0.0
 11
83.35850741938697
 21
32.94494595702346
 31
0.0
  0
SPLINE
  5
29A
330
1F
100
AcDbEntity
  8
0
  6
Continuous
 62
     3
100
AcDbSpline
210
0.0
220
0.0
230
1.0
 70
     8
 71
     3
 72
    11
 73
     7
 74
     5
 42
0.0000000001
 43
0.0000000001
 44
0.00000001
 40
0.0
 40
0.0
 40
0.0
 40
0.0
 40
1.240593085780191
 40
2.481186171559957
 40
3.721892068974819
 40
4.962597966389795
 40
4.962597966389795
 40
4.962597966389795
 40
4.962597966389795
 10
95.77079417911528
 20
56.79333636359377
 30
0.0
 10
95.92857960590995
 20
56.40956826958688
 30
0.0
 10
96.24415045949924
 20
55.64203208157323
 30
0.0
 10
96.40013159313318
 20
54.3954980446684
 30
0.0
 10
96.24418985499818
 20
53.14891632872803
 30
0.0
 10
95.92859273776892
 20
52.38130866981986
 30
0.0
 10
95.77079417915428
 20
51.99750484036576
 30
0.0
 11
95.77079417911528
 21
56.79333636359377
 31
0.0
 11
96.19125381373533
 21
55.62616675289411
 31
0.0
 11
96.34814444695077
 21
54.39553417828306
 31
0.0
 11
96.19128165312945
 21
53.16478433050952
 31
0.0
 11
95.77079417915428
 21
51.99750484036576
 31
0.0
  0
SPLINE
  5
29B
330
1F
100
AcDbEntity
  8
0
  6
Continuous
 62
     3
100
AcDbSpline
210
0.0
220
0.0
230
1.0
 70
     8
 71
     3
 72
    11
 73
     7
 74
     5
 42
0.0000000001
 43
0.0000000001
 44
0.00000001
 40
0.0
 40
0.0
 40
0.0
 40
0.0
 40
1.240593085780152
 40
2.481186171560286
 40
3.721892069021254
 40
4.962597966482244
 40
4.962597966482244
 40
4.962597966482244
 40
4.962597966482244
 10
95.77079417911528
 20
37.74077748033636
 30
0.0
 10
95.92857960590982
 20
37.35700938632948
 30
0.0
 10
96.24415045949885
 20
36.5894731983157
 30
0.0
 10
96.40013159313614
 20
35.3429391613952
 30
0.0
 10
96.24418985498623
 20
34.09635744542439
 30
0.0
 10
95.92859273773894
 20
33.32874978649043
 30
0.0
 10
95.77079417911528
 20
32.94494595702346
 30
0.0
 11
95.77079417911528
 21
37.74077748033636
 31
0.0
 11
96.19125381373522
 21
36.5736078696367
 31
0.0
 11
96.34814444695071
 21
35.34297529502529
 31
0.0
 11
96.19128165311577
 21
34.11222544720701
 31
0.0
 11
95.77079417911528
 21
32.94494595702346
 31
0.0
  0
SPLINE
  5
29C
330
1F
100
AcDbEntity
  8
0
  6
Continuous
 62
     3
100
AcDbSpline
210
0.0
220
0.0
230
1.0
 70
     8
 71
     3
 72
   139
 73
   135
 74
   133
 42
0.0000000001
 43
0.0000000001
 44
0.00000001
 40
0.0
 40
0.0
 40
0.0
 40
0.0
 40
0.3817237077732684
 40
0.7634474155468411
 40
0.7963404446222241
 40
0.8292334681982317
 40
0.8621264848989385
 40
0.895019503073229
 40
0.9279125151294619
 40
0.9608055267908711
 40
0.9936985410434965
 40
1.026591555401835
 40
1.059484592327143
 40
1.092377629224059
 40
1.125270665543538
 40
1.158163701870649
 40
1.191056741278115
 40
1.223949780683606
 40
1.256842820313958
 40
1.289735859944819
 40
1.322628833968992
 40
1.355521807992935
 40
1.388414782037266
 40
1.421307756081649
 40
1.454200730544414
 40
1.487093705007384
 40
1.519986679501638
 40
1.55287965399521
 40
1.58577263138389
 40
1.618665608775122
 40
1.651558586371414
 40
1.684451563957957
 40
1.717344540407912
 40
1.750237516894245
 40
1.78313049294748
 40
1.816023468865181
 40
1.846923998125054
 40
1.877824527266168
 40
1.908725056030692
 40
1.939625584826993
 40
1.970526111831082
 40
2.001426638826642
 40
2.032327166009456
 40
2.063227693194569
 40
2.094128180171375
 40
2.1250286671476
 40
2.155929154138156
 40
2.186829641128865
 40
2.217730131086507
 40
2.2486306210441
 40
2.279531111099527
 40
2.310431601154986
 40
2.341332913495844
 40
2.372234225836723
 40
2.403135538117468
 40
2.434036850398704
 40
2.464938155680344
 40
2.495839460960062
 40
2.526740766735307
 40
2.557642072517975
 40
2.588543515603257
 40
2.619444958660768
 40
2.650346400107815
 40
2.681247841658436
 40
2.712149308752813
 40
2.743050775460721
 40
2.77395224780176
 40
2.804853721585392
 40
2.851701879299653
 40
2.898550040020586
 40
2.945398211658752
 40
2.99224638249133
 40
3.039094596205576
 40
3.085942810135692
 40
3.132791021384721
 40
3.179639232575987
 40
3.226487537095091
 40
3.273335841629647
 40
3.32018414750625
 40
3.367032453378744
 40
3.413880751978065
 40
3.460729050578417
 40
3.507577349465548
 40
3.554425648352829
 40
3.60127308822353
 40
3.648120528093511
 40
3.69496796868185
 40
3.741815409269909
 40
3.78866285949415
 40
3.835510309720302
 40
3.882357760101122
 40
3.929205210474215
 40
3.976052938500998
 40
4.022900666556388
 40
4.069748396777759
 40
4.11659612689366
 40
4.163443858266217
 40
4.210291590032124
 40
4.257139317259077
 40
4.303987043017933
 40
4.346588371376522
 40
4.389189698464939
 40
4.431791021250274
 40
4.474392344376226
 40
4.516993598724436
 40
4.559594852980958
 40
4.602196109865615
 40
4.644797366776009
 40
4.687397366151275
 40
4.729997365517621
 40
4.772597362975925
 40
4.81519736043783
 40
4.85779756699867
 40
4.900397773553685
 40
4.942997988931508
 40
4.985598204330235
 40
5.028201167215404
 40
5.070804130021407
 40
5.113407063245676
 40
5.156009996777751
 40
5.198612146654274
 40
5.241214295384323
 40
5.283816555817519
 40
5.326418820519582
 40
5.369024555559587
 40
5.411630274669575
 40
5.454235552535602
 40
5.496840889875705
 40
5.539448532689034
 40
5.582055953505242
 40
5.624664640314475
 40
5.667274155699883
 40
7.080096806719293
 40
8.492919457738699
 40
8.492919457738699
 40
8.492919457738699
 40
8.492919457738699
 10
118.9924820156025
 20
58.46914116034677
 30
0.0
 10
119.0951299873577
 20
58.39394902383327
 30
0.0
 10
119.300425930868
 20
58.24356475080621
 30
0.0
 10
119.5160325415991
 20
58.08871606678446
 30
0.0
 10
119.6375047716668
 20
58.00213576672684
 30
0.0
 10
119.664303221697
 20
57.98306237076636
 30
0.0
 10
119.6911141662105
 20
57.96400655589657
 30
0.0
 10
119.7179378270858
 20
57.94496864965431
 30
0.0
 10
119.7447742434195
 20
57.92594873155272
 30
0.0
 10
119.7716235020282
 20
57.90694694845733
 30
0.0
 10
119.7984856776228
 20
57.88796342870906
 30
0.0
 10
119.8253608527762
 20
57.86899830237309
 30
0.0
 10
119.8522491018977
 20
57.85005170335407
 30
0.0
 10
119.8791504999275
 20
57.83112376571712
 30
0.0
 10
119.906065115506
 20
57.81221462780388
 30
0.0
 10
119.9329930240243
 20
57.7933244232366
 30
0.0
 10
119.9599342999157
 20
57.77445328630337
 30
0.0
 10
119.9868890172558
 20
57.75560135155525
 30
0.0
 10
120.013857248951
 20
57.73676875435878
 30
0.0
 10
120.0408390505412
 20
57.71795564218744
 30
0.0
 10
120.06783449514
 20
57.69916215019398
 30
0.0
 10
120.0948436557605
 20
57.68038841382639
 30
0.0
 10
120.1218666231146
 20
57.66163455627893
 30
0.0
 10
120.1489034698038
 20
57.64290071335363
 30
0.0
 10
120.1759542680297
 20
57.62418702112959
 30
0.0
 10
120.2030190897266
 20
57.60549361586937
 30
0.0
 10
120.230098006421
 20
57.58682063411605
 30
0.0
 10
120.2571910902652
 20
57.56816821198295
 30
0.0
 10
120.284298412322
 20
57.54953648633541
 30
0.0
 10
120.3114200434268
 20
57.53092559418765
 30
0.0
 10
120.3385560532675
 20
57.5123356733387
 30
0.0
 10
120.3657065117239
 20
57.49376686145302
 30
0.0
 10
120.3928714886458
 20
57.47521929621415
 30
0.0
 10
120.420051053523
 20
57.45669311555542
 30
0.0
 10
120.447245275921
 20
57.43818845735834
 30
0.0
 10
120.4739048433656
 20
57.42007865388852
 30
0.0
 10
120.5000287969795
 20
57.40236232982039
 30
0.0
 10
120.5256162013029
 20
57.38503813806584
 30
0.0
 10
120.5512167920045
 20
57.36773343848346
 30
0.0
 10
120.5768306328649
 20
57.35044835859688
 30
0.0
 10
120.6024577879435
 20
57.3331830257407
 30
0.0
 10
120.6280983209734
 20
57.31593756746802
 30
0.0
 10
120.6537522958677
 20
57.29871211121247
 30
0.0
 10
120.6794197646388
 20
57.28150679238773
 30
0.0
 10
120.7051007900804
 20
57.26432173913566
 30
0.0
 10
120.730795434782
 20
57.24715707977545
 30
0.0
 10
120.7565037722095
 20
57.23001293539248
 30
0.0
 10
120.7822258652311
 20
57.21288943416594
 30
0.0
 10
120.8079617756056
 20
57.19578670501699
 30
0.0
 10
120.833711564836
 20
57.17870487703405
 30
0.0
 10
120.8594752932859
 20
57.16164408005952
 30
0.0
 10
120.885253250508
 20
57.14460429243363
 30
0.0
 10
120.9110454975189
 20
57.12758564451418
 30
0.0
 10
120.9368520947822
 20
57.11058826643785
 30
0.0
 10
120.9626728732686
 20
57.09361243881933
 30
0.0
 10
120.9885078904828
 20
57.07665829279137
 30
0.0
 10
121.014357205595
 20
57.05972595838501
 30
0.0
 10
121.0402208776079
 20
57.04281556576178
 30
0.0
 10
121.0660989670425
 20
57.02592724409627
 30
0.0
 10
121.0919915705126
 20
57.00906109905911
 30
0.0
 10
121.1178987459067
 20
56.99221726171036
 30
0.0
 10
121.1438205504271
 20
56.97539586339545
 30
0.0
 10
121.1697570030033
 20
56.9585970601768
 30
0.0
 10
121.1957081677566
 20
56.94182097877094
 30
0.0
 10
121.2216741017082
 20
56.92506775051543
 30
0.0
 10
121.2476548626981
 20
56.90833750616714
 30
0.0
 10
121.2736505001284
 20
56.89163038190667
 30
0.0
 10
121.3041353146401
 20
56.87207660995811
 30
0.0
 10
121.3391197163753
 20
56.84969247658655
 30
0.0
 10
121.3786163443499
 20
56.82449787064589
 30
0.0
 10
121.4181480003392
 20
56.79935825187327
 30
0.0
 10
121.4577149823045
 20
56.77427423559181
 30
0.0
 10
121.4973175719811
 20
56.74924644746347
 30
0.0
 10
121.5369560510723
 20
56.72427551325518
 30
0.0
 10
121.5766306872274
 20
56.69936206752848
 30
0.0
 10
121.6163417839797
 20
56.67450672228695
 30
0.0
 10
121.6560896168747
 20
56.64971010724723
 30
0.0
 10
121.6958744586321
 20
56.62497285411419
 30
0.0
 10
121.7356965525096
 20
56.60029561278215
 30
0.0
 10
121.7755561634802
 20
56.57567901958161
 30
0.0
 10
121.8154535555529
 20
56.55112371142345
 30
0.0
 10
121.8553889904973
 20
56.5266303265296
 30
0.0
 10
121.8953627293726
 20
56.5021995035718
 30
0.0
 10
121.935374783886
 20
56.47783203309703
 30
0.0
 10
121.975425406633
 20
56.4535285570815
 30
0.0
 10
122.015514848741
 20
56.42928972071228
 30
0.0
 10
122.0556436039334
 20
56.40511602383212
 30
0.0
 10
122.0958119210412
 20
56.38100811489637
 30
0.0
 10
122.136020043064
 20
56.35696664588423
 30
0.0
 10
122.1762682103329
 20
56.33299227035854
 30
0.0
 10
122.2165566574259
 20
56.30908564529745
 30
0.0
 10
122.2568856983832
 20
56.28524738070201
 30
0.0
 10
122.2972555648177
 20
56.2614781359431
 30
0.0
 10
122.337666485682
 20
56.23777857129819
 30
0.0
 10
122.3781186061813
 20
56.21414939570993
 30
0.0
 10
122.4186121485672
 20
56.19059127272961
 30
0.0
 10
122.4591473310947
 20
56.1671048682384
 30
0.0
 10
122.4997243681491
 20
56.14369085034313
 30
0.0
 10
122.5403434712174
 20
56.12034988880298
 30
0.0
 10
122.5797762996602
 20
56.0977856549175
 30
0.0
 10
122.6180186821669
 20
56.07599115832794
 30
0.0
 10
122.6550666583904
 20
56.05495970159907
 30
0.0
 10
122.6921502407085
 20
56.03399109384431
 30
0.0
 10
122.7292696436229
 20
56.01308601104933
 30
0.0
 10
122.7664250991271
 20
55.99224511920887
 30
0.0
 10
122.8036168356458
 20
55.97146908651554
 30
0.0
 10
122.8408450978248
 20
55.95075857222085
 30
0.0
 10
122.878109740462
 20
55.93011445170458
 30
0.0
 10
122.9154109797159
 20
55.90953739714887
 30
0.0
 10
122.9527490304976
 20
55.88902808572139
 30
0.0
 10
122.9901244732611
 20
55.86858699593687
 30
0.0
 10
123.0275375792849
 20
55.84821477730538
 30
0.0
 10
123.0649885560095
 20
55.82791211462167
 30
0.0
 10
123.1024776091638
 20
55.80767969288381
 30
0.0
 10
123.1400048769505
 20
55.78751823319266
 30
0.0
 10
123.1775713629053
 20
55.7674279933612
 30
0.0
 10
123.2151772597136
 20
55.74740967182296
 30
0.0
 10
123.252822747977
 20
55.72746396766046
 30
0.0
 10
123.2905072021715
 20
55.70759200202393
 30
0.0
 10
123.3282305703506
 20
55.68779458932218
 30
0.0
 10
123.3659930357627
 20
55.66807241852356
 30
0.0
 10
123.4037948050139
 20
55.64842617259052
 30
0.0
 10
123.4416362817741
 20
55.62885643378259
 30
0.0
 10
123.4795186617233
 20
55.6093633779707
 30
0.0
 10
123.5174420734458
 20
55.58994773814864
 30
0.0
 10
123.5554065451191
 20
55.5706102954205
 30
0.0
 10
123.5934112146568
 20
55.55135226261203
 30
0.0
 10
123.6314569315775
 20
55.53217404204546
 30
0.0
 10
123.6695438819909
 20
55.51307617772111
 30
0.0
 10
123.7076726740021
 20
55.49405973598423
 30
0.0
 10
123.7458426110258
 20
55.47512367562275
 30
0.0
 10
124.1936662803575
 20
55.25424460376313
 30
0.0
 10
125.0652058233251
 20
54.85504788375621
 30
0.0
 10
125.9663415457955
 20
54.57807874990844
 30
0.0
 10
126.4169094070307
 20
54.43959418298456
 30
0.0
 11
118.9924820156025
 21
58.46914116034677
 31
0.0
 11
119.300777177251
 21
58.24404766337202
 31
0.0
 11
119.6107210919054
 21
58.02122989288436
 31
0.0
 11
119.6375069337601
 21
58.00213879449039
 31
0.0
 11
119.6643053064719
 21
57.98306529926873
 31
0.0
 11
119.6911162857254
 21
57.96400954058166
 31
0.0
 11
119.7179399548873
 21
57.94497164633604
 31
0.0
 11
119.7447763840837
 21
57.92595175385163
 31
0.0
 11
119.7716256540495
 21
57.90694999292109
 31
0.0
 11
119.7984878430404
 21
57.88796649510743
 31
0.0
 11
119.8253630245952
 21
57.86900139531927
 31
0.0
 11
119.8522512923929
 21
57.85005481428176
 31
0.0
 11
119.8791527030369
 21
57.83112689887459
 31
0.0
 11
119.9060673308797
 21
57.81221778344308
 31
0.0
 11
119.9329952509386
 21
57.79332760186339
 31
0.0
 11
119.9599365400074
 21
57.77445648677245
 31
0.0
 11
119.9868912695767
 21
57.75560457453057
 31
0.0
 11
120.0138595135796
 21
57.73677199978558
 31
0.0
 11
120.0408413453099
 21
57.71795889763217
 31
0.0
 11
120.0678367841341
 21
57.69916544071641
 31
0.0
 11
120.0948459568763
 21
57.68039172696759
 31
0.0
 11
120.1218689363171
 21
57.66163789206319
 31
0.0
 11
120.1489057949261
 21
57.64290407189646
 31
0.0
 11
120.1759566052543
 21
57.62419040230448
 31
0.0
 11
120.2030214388829
 21
57.60549701979408
 31
0.0
 11
120.230100367479
 21
57.58682406081147
 31
0.0
 11
120.2571934623729
 21
57.56817166203535
 31
0.0
 11
120.2843007970206
 21
57.54953995868349
 31
0.0
 11
120.3114224398173
 21
57.53092908944899
 31
0.0
 11
120.338558461416
 21
57.51233919146789
 31
0.0
 11
120.3657089318319
 21
57.49377040231228
 31
0.0
 11
120.392873920032
 21
57.47522286026966
 31
0.0
 11
120.4200534965869
 21
57.45669670253445
 31
0.0
 11
120.4472477304123
 21
57.43819206743168
 31
0.0
 11
120.474456690758
 21
57.41970909305982
 31
0.0
 11
120.5000309840211
 21
57.40236555730053
 31
0.0
 11
120.5256183991579
 21
57.38504138667643
 31
0.0
 11
120.5512190004539
 21
57.36773670837226
 31
0.0
 11
120.5768328524781
 21
57.35045164937969
 31
0.0
 11
120.6024600176788
 21
57.3331863381196
 31
0.0
 11
120.628100561224
 21
57.31594090117796
 31
0.0
 11
120.6537545466933
 21
57.29871546621347
 31
0.0
 11
120.6794220370757
 21
57.28151016128196
 31
0.0
 11
120.705103061813
 21
57.26432513687565
 31
0.0
 11
120.7307977168984
 21
57.2471604989414
 31
0.0
 11
120.7565060646706
 21
57.23001637601037
 31
0.0
 11
120.7822281671626
 21
57.21289289681788
 31
0.0
 11
120.8079640886065
 21
57.19579018863888
 31
0.0
 11
120.8337138880075
 21
57.17870838222314
 31
0.0
 11
120.8594776266342
 21
57.1616476068116
 31
0.0
 11
120.8852553653026
 21
57.14460799194472
 31
0.0
 11
120.9110478511005
 21
57.12758921464571
 31
0.0
 11
120.9368544583389
 21
57.11059185816798
 31
0.0
 11
120.9626752467176
 21
57.09361605220267
 31
0.0
 11
120.9885102757422
 21
57.07666192656908
 31
0.0
 11
121.0143595987146
 21
57.05972961515045
 31
0.0
 11
121.0402232803499
 21
57.04281924436028
 31
0.0
 11
121.0661013796314
 21
57.02593094438099
 31
0.0
 11
121.0919939544144
 21
57.00906484613084
 31
0.0
 11
121.1179011777835
 21
56.9922210056526
 31
0.0
 11
121.1438229922917
 21
56.97539962890642
 31
0.0
 11
121.1697594538823
 21
56.95860084788927
 31
0.0
 11
121.1957106209581
 21
56.94182479301003
 31
0.0
 11
121.221676571552
 21
56.92507158202401
 31
0.0
 11
121.2476573402131
 21
56.90834136073204
 31
0.0
 11
121.2736529880064
 21
56.89163425779192
 31
0.0
 11
121.2996635670876
 21
56.874950407581
 31
0.0
 11
121.3391255044815
 21
56.84970153872838
 31
0.0
 11
121.3786221786683
 21
56.82450703752046
 31
0.0
 11
121.4181538857425
 21
56.79936752038823
 31
0.0
 11
121.45772090286
 21
56.77428361585207
 31
0.0
 11
121.4973235515914
 21
56.74925592435493
 31
0.0
 11
121.5369620781248
 21
56.72428509411836
 31
0.0
 11
121.5766367597438
 21
56.69937175360236
 31
0.0
 11
121.616347875893
 21
56.67451652988578
 31
0.0
 11
121.656095780551
 21
56.64972000368523
 31
0.0
 11
121.6958806668749
 21
56.62498285635661
 31
0.0
 11
121.7357028056403
 21
56.60030572063019
 31
0.0
 11
121.7755624627384
 21
56.57568923227088
 31
0.0
 11
121.8154598963617
 21
56.55113403176426
 31
0.0
 11
121.8553953743907
 21
56.52664075357721
 31
0.0
 11
121.8953691560582
 21
56.50221003750465
 31
0.0
 11
121.9353814973798
 21
56.47784252530924
 31
0.0
 11
121.9754319172916
 21
56.45353930561876
 31
0.0
 11
122.0155214006826
 21
56.42930057743811
 31
0.0
 11
122.0556501970929
 21
56.40512698878555
 31
0.0
 11
122.0958185519789
 21
56.38101919014279
 31
0.0
 11
122.1360267168042
 21
56.35697782841149
 31
0.0
 11
122.1762749235855
 21
56.33300356213321
 31
0.0
 11
122.2165634097862
 21
56.30909704656033
 31
0.0
 11
122.2568924096291
 21
56.28525893887264
 31
0.0
 11
122.297262393817
 21
56.26148975718828
 31
0.0
 11
122.3376733515646
 21
56.23779030323097
 31
0.0
 11
122.3781255097003
 21
56.21416123788639
 31
0.0
 11
122.4186190881543
 21
56.19060322606452
 31
0.0
 11
122.4591543068747
 21
56.1671169326566
 31
0.0
 11
122.4997313807329
 21
56.14370302549177
 31
0.0
 11
122.5403505178876
 21
56.12036217625408
 31
0.0
 11
122.5810119302321
 21
56.09709505449555
 31
0.0
 11
122.6180245777116
 21
56.0760015222054
 31
0.0
 11
122.6550725942404
 21
56.05497017557767
 31
0.0
 11
122.6921562142299
 21
56.03400167941003
 31
0.0
 11
122.7292756756923
 21
56.0130966964436
 31
0.0
 11
122.766431149199
 21
55.99225592725126
 31
0.0
 11
122.8036229223663
 21
55.97148000674451
 31
0.0
 11
122.8408512222101
 21
55.95076960407119
 31
0.0
 11
122.8781162678934
 21
55.93012539276225
 31
0.0
 11
122.9154171762391
 21
55.90954865387195
 31
0.0
 11
122.9527552631455
 21
55.88903945563844
 31
0.0
 11
122.9901307403608
 21
55.86859847996747
 31
0.0
 11
123.0275438196172
 21
55.84822640878394
 31
0.0
 11
123.0649948914393
 21
55.82792382721401
 31
0.0
 11
123.1024839752475
 21
55.80769152151869
 31
0.0
 11
123.1400112782737
 21
55.78753017538762
 31
0.0
 11
123.1775769887052
 21
55.76744048271225
 31
0.0
 11
123.2151837250313
 21
55.74742184565835
 31
0.0
 11
123.2528292524582
 21
55.72747625204475
 31
0.0
 11
123.2905137277335
 21
55.70760440657089
 31
0.0
 11
123.3282373565893
 21
55.68780698826725
 31
0.0
 11
123.3659996198818
 21
55.66808505516907
 31
0.0
 11
123.4038013842124
 21
55.64843894385125
 31
0.0
 11
123.4416429205525
 21
55.62886930610711
 31
0.0
 11
123.4795243002709
 21
55.60937689660042
 31
0.0
 11
123.5174487725183
 21
55.58996084491491
 31
0.0
 11
123.5554133955884
 21
55.57062345377675
 31
0.0
 11
123.593417942739
 21
55.55136562165799
 31
0.0
 11
123.6314630108658
 21
55.53218783343595
 31
0.0
 11
123.6695507553719
 21
55.51308979833947
 31
0.0
 11
123.7076790604948
 21
55.49407336710046
 31
0.0
 11
123.7458493965805
 21
55.47513859393808
 31
0.0
 11
123.7840615066581
 21
55.45628639393922
 31
0.0
 11
125.0758416689672
 21
54.88412220815146
 31
0.0
 11
126.4169094070307
 21
54.43959418298456
 31
0.0
  0
LWPOLYLINE
  5
29D
330
1F
100
AcDbEntity
  8
1
  6
Continuous
 62
     3
100
AcDbPolyline
 90
        8
 70
     1
 43
0.0
 10
120.0435528431636
 20
154.7138288335128
 10
120.0435528431636
 20
154.7138288335128
 10
137.9414111880415
 20
154.7138288335128
 10
146.8903403604806
 20
139.2138288335128
 10
137.9414111880415
 20
123.7138288335128
 10
120.0435528431636
 20
123.7138288335128
 10
111.0946236707245
 20
139.2138288335128
 10
120.0435528431636
 20
154.7138288335128
  0
LINE
  5
29E
330
1F
100
AcDbEntity
  8
1
 62
     4
100
AcDbLine
 10
129.0389084797244
 20
13.86914116030876
 30
0.0
 11
131.317392467562
 21
12.87815169982967
 31
0.0
  0
LINE
  5
29F
330
1F
100
AcDbEntity
  8
1
 62
     4
100
AcDbLine
 10
129.0389084797244
 20
13.86914116030876
 30
0.0
 11
130.5166387650683
 21
11.87167711873242
 31
0.0
  0
LEADER
  5
2A0
330
1F
100
AcDbEntity
  8
1
  6
Continuous
 62
     4
100
AcDbLeader
  3
Standard
 71
     0
 76
     3
 10
129.0389084797244
 20
13.86914116030876
 30
0.0
 10
139.4916938332084
 20
5.55287890155461
 30
0.0
 10
151.802161873992
 20
5.55287890155461
 30
0.0
  0
LINE
  5
2A1
330
1F
100
AcDbEntity
  8
1
 62
     4
100
AcDbLine
 10
128.9924820156026
 20
96.86914116030877
 30
0.0
 11
129.8918917559035
 21
99.18530426179038
 31
0.0
  0
LINE
  5
2A2
330
1F
100
AcDbEntity
  8
1
 62
     4
100
AcDbLine
 10
128.9924820156026
 20
96.86914116030877
 30
0.0
 11
130.9294752498552
 21
98.42529237534954
 31
0.0
  0
LEADER
  5
2A3
330
1F
100
AcDbEntity
  8
1
  6
Continuous
 62
     4
100
AcDbLeader
  3
Standard
 71
     0
 76
     3
 10
128.9924820156026
 20
96.86914116030877
 30
0.0
 10
133.7040085263352
 20
103.3014117945818
 30
0.0
 10
145.8429121705791
 20
103.3014117945818
 30
0.0
  0
ENDSEC
  0
SECTION
  2
OBJECTS
  0
DICTIONARY
  5
C
330
0
100
AcDbDictionary
281
     1
  3
ACAD_GROUP
350
D
  3
ACAD_LAYOUT
350
1A
  3
ACAD_MATERIAL
350
3B
  3
ACAD_MLEADERSTYLE
350
2A6
  3
ACAD_MLINESTYLE
350
17
  3
ACAD_PLOTSETTINGS
350
19
  3
ACAD_PLOTSTYLENAME
350
E
  3
ACAD_VISUALSTYLE
350
2A
  3
AcDbVariableDictionary
350
2A4
  0
DICTIONARY
  5
D
102
{ACAD_REACTORS
330
C
102
}
330
C
100
AcDbDictionary
281
     1
  0
DICTIONARY
  5
1A
102
{ACAD_REACTORS
330
C
102
}
330
C
100
AcDbDictionary
281
     1
  3
Layout1
350
1E
  3
Layout2
350
26
  3
Model
350
22
  0
DICTIONARY
  5
3B
102
{ACAD_REACTORS
330
C
102
}
330
C
100
AcDbDictionary
281
     1
  3
ByBlock
350
3D
  3
ByLayer
350
3C
  3
Global
350
3E
  0
DICTIONARY
  5
2A6
102
{ACAD_REACTORS
330
C
102
}
330
C
100
AcDbDictionary
281
     1
  0
DICTIONARY
  5
17
102
{ACAD_REACTORS
330
C
102
}
330
C
100
AcDbDictionary
281
     1
  3
Standard
350
18
  0
DICTIONARY
  5
19
102
{ACAD_REACTORS
330
C
102
}
330
C
100
AcDbDictionary
281
     1
  0
ACDBDICTIONARYWDFLT
  5
E
102
{ACAD_REACTORS
330
C
102
}
330
C
100
AcDbDictionary
281
     1
  3
Normal
350
F
100
AcDbDictionaryWithDefault
340
F
  0
DICTIONARY
  5
2A
102
{ACAD_REACTORS
330
C
102
}
330
C
100
AcDbDictionary
281
     1
  3
2dWireframe
350
2F
  3
3D Hidden
350
31
  3
3dWireframe
350
30
  3
Basic
350
32
  3
Brighten
350
36
  3
ColorChange
350
3A
  3
Conceptual
350
34
  3
Dim
350
35
  3
Facepattern
350
39
  3
Flat
350
2B
  3
FlatWithEdges
350
2C
  3
Gouraud
350
2D
  3
GouraudWithEdges
350
2E
  3
Linepattern
350
38
  3
Realistic
350
33
  3
Thicken
350
37
  0
DICTIONARY
  5
2A4
102
{ACAD_REACTORS
330
C
102
}
330
C
100
AcDbDictionary
281
     1
  3
DIMASSOC
350
2A7
  3
HIDETEXT
350
2A8
  0
LAYOUT
  5
1E
102
{ACAD_REACTORS
330
1A
102
}
330
1A
100
AcDbPlotSettings
  1

  2
none_device
  4

  6

 40
0.0
 41
0.0
 42
0.0
 43
0.0
 44
0.0
 45
0.0
 46
0.0
 47
0.0
 48
0.0
 49
0.0
140
0.0
141
0.0
142
1.0
143
1.0
 70
   688
 72
     0
 73
     0
 74
     5
  7

 75
    16
147
1.0
148
0.0
149
0.0
100
AcDbLayout
  1
Layout1
 70
     1
 71
     1
 10
0.0
 20
0.0
 11
12.0
 21
9.0
 12
0.0
 22
0.0
 32
0.0
 14
1.00000000000000E+20
 24
1.00000000000000E+20
 34
1.00000000000000E+20
 15
-1.00000000000000E+20
 25
-1.00000000000000E+20
 35
-1.00000000000000E+20
146
0.0
 13
0.0
 23
0.0
 33
0.0
 16
1.0
 26
0.0
 36
0.0
 17
0.0
 27
1.0
 37
0.0
 76
     0
330
1B
  0
LAYOUT
  5
26
102
{ACAD_REACTORS
330
1A
102
}
330
1A
100
AcDbPlotSettings
  1

  2
none_device
  4

  6

 40
0.0
 41
0.0
 42
0.0
 43
0.0
 44
0.0
 45
0.0
 46
0.0
 47
0.0
 48
0.0
 49
0.0
140
0.0
141
0.0
142
1.0
143
1.0
 70
   688
 72
     0
 73
     0
 74
     5
  7

 75
    16
147
1.0
148
0.0
149
0.0
100
AcDbLayout
  1
Layout2
 70
     1
 71
     2
 10
0.0
 20
0.0
 11
0.0
 21
0.0
 12
0.0
 22
0.0
 32
0.0
 14
0.0
 24
0.0
 34
0.0
 15
0.0
 25
0.0
 35
0.0
146
0.0
 13
0.0
 23
0.0
 33
0.0
 16
1.0
 26
0.0
 36
0.0
 17
0.0
 27
1.0
 37
0.0
 76
     0
330
23
  0
LAYOUT
  5
22
102
{ACAD_REACTORS
330
1A
102
}
330
1A
100
AcDbPlotSettings
  1

  2
none_device
  4

  6

 40
0.0
 41
0.0
 42
0.0
 43
0.0
 44
0.0
 45
0.0
 46
0.0
 47
0.0
 48
0.0
 49
0.0
140
0.0
141
0.0
142
1.0
143
1.0
 70
  1712
 72
     0
 73
     0
 74
     0
  7

 75
     0
147
1.0
148
0.0
149
0.0
100
AcDbLayout
  1
Model
 70
     1
 71
     0
 10
0.0
 20
0.0
 11
12.0
 21
9.0
 12
0.0
 22
0.0
 32
0.0
 14
6.7290656399124
 24
5.47764260205606
 34
0.0
 15
151.802161873992
 25
157.7138288335128
 35
0.0
146
0.0
 13
0.0
 23
0.0
 33
0.0
 16
1.0
 26
0.0
 36
0.0
 17
0.0
 27
1.0
 37
0.0
 76
     0
330
1F
331
29
  0
MATERIAL
  5
3D
102
{ACAD_REACTORS
330
3B
102
}
102
{ACAD_XDICTIONARY
360
2CB
102
}
330
3B
100
AcDbMaterial
  1
ByBlock
  0
MATERIAL
  5
3C
102
{ACAD_REACTORS
330
3B
102
}
102
{ACAD_XDICTIONARY
360
2C9
102
}
330
3B
100
AcDbMaterial
  1
ByLayer
  0
MATERIAL
  5
3E
102
{ACAD_REACTORS
330
3B
102
}
102
{ACAD_XDICTIONARY
360
2CD
102
}
330
3B
100
AcDbMaterial
  1
Global
  0
MLINESTYLE
  5
18
102
{ACAD_REACTORS
330
17
102
}
330
17
100
AcDbMlineStyle
  2
Standard
 70
     0
  3

 62
   256
 51
90.0
 52
90.0
 71
     2
 49
0.5
 62
   256
  6
BYLAYER
 49
-0.5
 62
   256
  6
BYLAYER
  0
ACDBPLACEHOLDER
  5
F
102
{ACAD_REACTORS
330
E
102
}
330
E
  0
VISUALSTYLE
  5
2F
102
{ACAD_REACTORS
330
2A
102
}
102
{ACAD_XDICTIONARY
360
2B1
102
}
330
2A
100
AcDbVisualStyle
  2
2dWireframe
 70
     4
 71
     0
 72
     2
 73
     0
 90
        0
 40
-0.6
 41
-30.0
 62
     5
 63
     7
 74
     1
 91
        4
 64
     7
 65
   257
 75
     1
175
     1
 42
1.0
 92
        0
 66
   257
 43
1.0
 76
     1
 77
     6
 78
     2
 67
     7
 79
     5
170
     0
171
     0
290
     0
174
     0
 93
        1
 44
0.0
173
     0
291
     0
 45
0.0
1001
ACAD
1000
AcDbSavedByObjectVersion
1070
     0
  0
VISUALSTYLE
  5
31
102
{ACAD_REACTORS
330
2A
102
}
102
{ACAD_XDICTIONARY
360
2B5
102
}
330
2A
100
AcDbVisualStyle
  2
3D Hidden
 70
     6
 71
     1
 72
     2
 73
     2
 90
        0
 40
-0.6
 41
-30.0
 62
     5
 63
     7
 74
     2
 91
        2
 64
     7
 65
   257
 75
     2
175
     1
 42
40.0
 92
        0
 66
   257
 43
1.0
 76
     1
 77
     6
 78
     2
 67
     7
 79
     3
170
     0
171
     0
290
     0
174
     0
 93
        1
 44
0.0
173
     0
291
     0
 45
0.0
1001
ACAD
1000
AcDbSavedByObjectVersion
1070
     0
  0
VISUALSTYLE
  5
30
102
{ACAD_REACTORS
330
2A
102
}
102
{ACAD_XDICTIONARY
360
2B3
102
}
330
2A
100
AcDbVisualStyle
  2
3dWireframe
 70
     5
 71
     0
 72
     2
 73
     0
 90
        0
 40
-0.6
 41
-30.0
 62
     5
 63
     7
 74
     1
 91
        4
 64
     7
 65
   257
 75
     1
175
     1
 42
1.0
 92
        0
 66
   257
 43
1.0
 76
     1
 77
     6
 78
     2
 67
     7
 79
     5
170
     0
171
     0
290
     0
174
     0
 93
        1
 44
0.0
173
     0
291
     0
 45
0.0
1001
ACAD
1000
AcDbSavedByObjectVersion
1070
     0
  0
VISUALSTYLE
  5
32
102
{ACAD_REACTORS
330
2A
102
}
102
{ACAD_XDICTIONARY
360
2B7
102
}
330
2A
100
AcDbVisualStyle
  2
Basic
 70
     7
 71
     1
 72
     0
 73
     1
 90
        0
 40
-0.6
 41
-30.0
 62
     5
 63
     7
 74
     0
 91
        4
 64
     7
 65
   257
 75
     1
175
     1
 42
1.0
 92
        8
 66
     7
 43
1.0
 76
     1
 77
     6
 78
     2
 67
     7
 79
     5
170
     0
171
     0
290
     0
174
     0
 93
        1
 44
0.0
173
     0
291
     1
 45
0.0
1001
ACAD
1000
AcDbSavedByObjectVersion
1070
     0
  0
VISUALSTYLE
  5
36
102
{ACAD_REACTORS
330
2A
102
}
102
{ACAD_XDICTIONARY
360
2BF
102
}
330
2A
100
AcDbVisualStyle
  2
Brighten
 70
    12
 71
     2
 72
     2
 73
     0
 90
        0
 40
-0.6
 41
-30.0
 62
     5
 63
     7
 74
     1
 91
        4
 64
     7
 65
   257
 75
     1
175
     1
 42
1.0
 92
        8
 66
     7
 43
1.0
 76
     1
 77
     6
 78
     2
 67
     7
 79
     5
170
     0
171
     0
290
     0
174
     0
 93
        1
 44
50.0
173
     0
291
     1
 45
0.0
1001
ACAD
1000
AcDbSavedByObjectVersion
1070
     0
  0
VISUALSTYLE
  5
3A
102
{ACAD_REACTORS
330
2A
102
}
102
{ACAD_XDICTIONARY
360
2C7
102
}
330
2A
100
AcDbVisualStyle
  2
ColorChange
 70
    16
 71
     2
 72
     2
 73
     3
 90
        0
 40
-0.6
 41
-30.0
 62
     5
 63
     8
 74
     1
 91
        4
 64
     7
 65
   257
 75
     1
175
     1
 42
1.0
 92
        8
 66
     8
 43
1.0
 76
     1
 77
     6
 78
     2
 67
     7
 79
     5
170
     0
171
     0
290
     0
174
     0
 93
        1
 44
0.0
173
     0
291
     1
 45
0.0
1001
ACAD
1000
AcDbSavedByObjectVersion
1070
     0
  0
VISUALSTYLE
  5
34
102
{ACAD_REACTORS
330
2A
102
}
102
{ACAD_XDICTIONARY
360
2BB
102
}
330
2A
100
AcDbVisualStyle
  2
Conceptual
 70
     9
 71
     3
 72
     2
 73
     0
 90
        0
 40
-0.6
 41
-30.0
 62
     5
 63
     7
 74
     2
 91
        2
 64
     7
 65
   257
 75
     1
175
     1
 42
40.0
 92
        8
 66
     7
 43
1.0
 76
     1
 77
     6
 78
     2
 67
     7
 79
     3
170
     0
171
     0
290
     0
174
     0
 93
        1
 44
0.0
173
     0
291
     0
 45
0.0
1001
ACAD
1000
AcDbSavedByObjectVersion
1070
     0
  0
VISUALSTYLE
  5
35
102
{ACAD_REACTORS
330
2A
102
}
102
{ACAD_XDICTIONARY
360
2BD
102
}
330
2A
100
AcDbVisualStyle
  2
Dim
 70
    11
 71
     2
 72
     2
 73
     0
 90
        0
 40
-0.6
 41
-30.0
 62
     5
 63
     7
 74
     1
 91
        4
 64
     7
 65
   257
 75
     1
175
     1
 42
1.0
 92
        8
 66
     7
 43
1.0
 76
     1
 77
     6
 78
     2
 67
     7
 79
     5
170
     0
171
     0
290
     0
174
     0
 93
        1
 44
-50.0
173
     0
291
     1
 45
0.0
1001
ACAD
1000
AcDbSavedByObjectVersion
1070
     0
  0
VISUALSTYLE
  5
39
102
{ACAD_REACTORS
330
2A
102
}
102
{ACAD_XDICTIONARY
360
2C5
102
}
330
2A
100
AcDbVisualStyle
  2
Facepattern
 70
    15
 71
     2
 72
     2
 73
     0
 90
        0
 40
-0.6
 41
-30.0
 62
     5
 63
     7
 74
     1
 91
        4
 64
     7
 65
   257
 75
     1
175
     1
 42
1.0
 92
        8
 66
     7
 43
1.0
 76
     1
 77
     6
 78
     2
 67
     7
 79
     5
170
     0
171
     0
290
     0
174
     0
 93
        1
 44
0.0
173
     0
291
     1
 45
0.0
1001
ACAD
1000
AcDbSavedByObjectVersion
1070
     0
  0
VISUALSTYLE
  5
2B
102
{ACAD_REACTORS
330
2A
102
}
102
{ACAD_XDICTIONARY
360
2A9
102
}
330
2A
100
AcDbVisualStyle
  2
Flat
 70
     0
 71
     2
 72
     1
 73
     1
 90
        2
 40
-0.6
 41
30.0
 62
     5
 63
     7
 74
     0
 91
        4
 64
     7
 65
   257
 75
     1
175
     1
 42
1.0
 92
        8
 66
     7
 43
1.0
 76
     1
 77
     6
 78
     2
 67
     7
 79
     5
170
     0
171
     0
290
     0
174
     0
 93
       13
 44
0.0
173
     0
291
     1
 45
0.0
1001
ACAD
1000
AcDbSavedByObjectVersion
1070
     0
  0
VISUALSTYLE
  5
2C
102
{ACAD_REACTORS
330
2A
102
}
102
{ACAD_XDICTIONARY
360
2AB
102
}
330
2A
100
AcDbVisualStyle
  2
FlatWithEdges
 70
     1
 71
     2
 72
     1
 73
     1
 90
        2
 40
-0.6
 41
30.0
 62
     5
 63
     7
 74
     1
 91
        4
 64
     7
 65
   257
 75
     1
175
     1
 42
1.0
 92
        0
 66
   257
 43
1.0
 76
     1
 77
     6
 78
     2
 67
     7
 79
     5
170
     0
171
     0
290
     0
174
     0
 93
       13
 44
0.0
173
     0
291
     1
 45
0.0
1001
ACAD
1000
AcDbSavedByObjectVersion
1070
     0
  0
VISUALSTYLE
  5
2D
102
{ACAD_REACTORS
330
2A
102
}
102
{ACAD_XDICTIONARY
360
2AD
102
}
330
2A
100
AcDbVisualStyle
  2
Gouraud
 70
     2
 71
     2
 72
     2
 73
     1
 90
        2
 40
-0.6
 41
30.0
 62
     5
 63
     7
 74
     0
 91
        4
 64
     7
 65
   257
 75
     1
175
     1
 42
1.0
 92
        0
 66
     7
 43
1.0
 76
     1
 77
     6
 78
     2
 67
     7
 79
     5
170
     0
171
     0
290
     0
174
     0
 93
       13
 44
0.0
173
     0
291
     1
 45
0.0
1001
ACAD
1000
AcDbSavedByObjectVersion
1070
     0
  0
VISUALSTYLE
  5
2E
102
{ACAD_REACTORS
330
2A
102
}
102
{ACAD_XDICTIONARY
360
2AF
102
}
330
2A
100
AcDbVisualStyle
  2
GouraudWithEdges
 70
     3
 71
     2
 72
     2
 73
     1
 90
        2
 40
-0.6
 41
30.0
 62
     5
 63
     7
 74
     1
 91
        4
 64
     7
 65
   257
 75
     1
175
     1
 42
1.0
 92
        0
 66
   257
 43
1.0
 76
     1
 77
     6
 78
     2
 67
     7
 79
     5
170
     0
171
     0
290
     0
174
     0
 93
       13
 44
0.0
173
     0
291
     1
 45
0.0
1001
ACAD
1000
AcDbSavedByObjectVersion
1070
     0
  0
VISUALSTYLE
  5
38
102
{ACAD_REACTORS
330
2A
102
}
102
{ACAD_XDICTIONARY
360
2C3
102
}
330
2A
100
AcDbVisualStyle
  2
Linepattern
 70
    14
 71
     2
 72
     2
 73
     0
 90
        0
 40
-0.6
 41
-30.0
 62
     5
 63
     7
 74
     1
 91
        4
 64
     7
 65
   257
 75
     7
175
     7
 42
1.0
 92
        8
 66
     7
 43
1.0
 76
     1
 77
     6
 78
     2
 67
     7
 79
     5
170
     0
171
     0
290
     0
174
     0
 93
        1
 44
0.0
173
     0
291
     1
 45
0.0
1001
ACAD
1000
AcDbSavedByObjectVersion
1070
     0
  0
VISUALSTYLE
  5
33
102
{ACAD_REACTORS
330
2A
102
}
102
{ACAD_XDICTIONARY
360
2B9
102
}
330
2A
100
AcDbVisualStyle
  2
Realistic
 70
     8
 71
     2
 72
     2
 73
     0
 90
        0
 40
-0.6
 41
-30.0
 62
     5
 63
     7
 74
     1
 91
        0
 64
     7
 65
   257
 75
     1
175
     1
 42
1.0
 92
        8
 66
     8
 43
1.0
 76
     1
 77
     6
 78
     2
 67
     7
 79
     5
170
     0
171
     0
290
     0
174
     0
 93
       13
 44
0.0
173
     0
291
     0
 45
0.0
1001
ACAD
1000
AcDbSavedByObjectVersion
1070
     0
  0
VISUALSTYLE
  5
37
102
{ACAD_REACTORS
330
2A
102
}
102
{ACAD_XDICTIONARY
360
2C1
102
}
330
2A
100
AcDbVisualStyle
  2
Thicken
 70
    13
 71
     2
 72
     2
 73
     0
 90
        0
 40
-0.6
 41
-30.0
 62
     5
 63
     7
 74
     1
 91
        4
 64
     7
 65
   257
 75
     1
175
     1
 42
1.0
 92
       12
 66
     7
 43
1.0
 76
     1
 77
     6
 78
     2
 67
     7
 79
     5
170
     0
171
     0
290
     0
174
     0
 93
        1
 44
0.0
173
     0
291
     1
 45
0.0
1001
ACAD
1000
AcDbSavedByObjectVersion
1070
     0
  0
DICTIONARYVAR
  5
2A7
102
{ACAD_REACTORS
330
2A4
102
}
330
2A4
100
DictionaryVariables
280
     0
  1
2
  0
DICTIONARYVAR
  5
2A8
102
{ACAD_REACTORS
330
2A4
102
}
330
2A4
100
DictionaryVariables
280
     0
  1
1
  0
DICTIONARY
  5
2CB
330
3D
100
AcDbDictionary
280
     1
281
     1
  3
ACAD_XREC_ROUNDTRIP
360
2CC
  0
DICTIONARY
  5
2C9
330
3C
100
AcDbDictionary
280
     1
281
     1
  3
ACAD_XREC_ROUNDTRIP
360
2CA
  0
DICTIONARY
  5
2CD
330
3E
100
AcDbDictionary
280
     1
281
     1
  3
ACAD_XREC_ROUNDTRIP
360
2CE
  0
DICTIONARY
  5
2B1
330
2F
100
AcDbDictionary
280
     1
281
     1
  3
ACAD_XREC_ROUNDTRIP
360
2B2
  0
DICTIONARY
  5
2B5
330
31
100
AcDbDictionary
280
     1
281
     1
  3
ACAD_XREC_ROUNDTRIP
360
2B6
  0
DICTIONARY
  5
2B3
330
30
100
AcDbDictionary
280
     1
281
     1
  3
ACAD_XREC_ROUNDTRIP
360
2B4
  0
DICTIONARY
  5
2B7
330
32
100
AcDbDictionary
280
     1
281
     1
  3
ACAD_XREC_ROUNDTRIP
360
2B8
  0
DICTIONARY
  5
2BF
330
36
100
AcDbDictionary
280
     1
281
     1
  3
ACAD_XREC_ROUNDTRIP
360
2C0
  0
DICTIONARY
  5
2C7
330
3A
100
AcDbDictionary
280
     1
281
     1
  3
ACAD_XREC_ROUNDTRIP
360
2C8
  0
DICTIONARY
  5
2BB
330
34
100
AcDbDictionary
280
     1
281
     1
  3
ACAD_XREC_ROUNDTRIP
360
2BC
  0
DICTIONARY
  5
2BD
330
35
100
AcDbDictionary
280
     1
281
     1
  3
ACAD_XREC_ROUNDTRIP
360
2BE
  0
DICTIONARY
  5
2C5
330
39
100
AcDbDictionary
280
     1
281
     1
  3
ACAD_XREC_ROUNDTRIP
360
2C6
  0
DICTIONARY
  5
2A9
330
2B
100
AcDbDictionary
280
     1
281
     1
  3
ACAD_XREC_ROUNDTRIP
360
2AA
  0
DICTIONARY
  5
2AB
330
2C
100
AcDbDictionary
280
     1
281
     1
  3
ACAD_XREC_ROUNDTRIP
360
2AC
  0
DICTIONARY
  5
2AD
330
2D
100
AcDbDictionary
280
     1
281
     1
  3
ACAD_XREC_ROUNDTRIP
360
2AE
  0
DICTIONARY
  5
2AF
330
2E
100
AcDbDictionary
280
     1
281
     1
  3
ACAD_XREC_ROUNDTRIP
360
2B0
  0
DICTIONARY
  5
2C3
330
38
100
AcDbDictionary
280
     1
281
     1
  3
ACAD_XREC_ROUNDTRIP
360
2C4
  0
DICTIONARY
  5
2B9
330
33
100
AcDbDictionary
280
     1
281
     1
  3
ACAD_XREC_ROUNDTRIP
360
2BA
  0
DICTIONARY
  5
2C1
330
37
100
AcDbDictionary
280
     1
281
     1
  3
ACAD_XREC_ROUNDTRIP
360
2C2
  0
XRECORD
  5
2CC
102
{ACAD_REACTORS
330
2CB
102
}
330
2CB
100
AcDbXrecord
280
     1
102
MATERIAL
148
0.0
149
0.0
149
0.0
 93
        0
 94
      127
282
     0
 72
     1
 77
     1
171
     1
175
     1
179
     1
273
     0
  0
XRECORD
  5
2CA
102
{ACAD_REACTORS
330
2C9
102
}
330
2C9
100
AcDbXrecord
280
     1
102
MATERIAL
148
0.0
149
0.0
149
0.0
 93
        0
 94
      127
282
     0
 72
     1
 77
     1
171
     1
175
     1
179
     1
273
     0
  0
XRECORD
  5
2CE
102
{ACAD_REACTORS
330
2CD
102
}
330
2CD
100
AcDbXrecord
280
     1
102
MATERIAL
148
0.0
149
0.0
149
0.0
 93
        0
 94
      127
282
     0
 72
     1
 77
     1
171
     1
175
     1
179
     1
273
     0
  0
XRECORD
  5
2B2
102
{ACAD_REACTORS
330
2B1
102
}
330
2B1
100
AcDbXrecord
280
     1
102
RTVSPropertyOp0
 70
     1
102
RTVSPropertyOp1
 70
     1
102
RTVSPropertyOp2
 70
     1
102
RTVSPropertyOp3
 70
     1
102
RTVSPropertyOp4
 70
     1
102
RTVSPropertyOp5
 70
     1
102
RTVSPropertyOp6
 70
     1
102
RTVSPropertyOp7
 70
     1
102
RTVSPropertyOp8
 70
     1
102
RTVSPropertyOp9
 70
     1
102
RTVSPropertyOp10
 70
     1
102
RTVSPropertyOp11
 70
     1
102
RTVSPropertyOp12
 70
     1
102
RTVSPropertyOp13
 70
     1
102
RTVSPropertyOp14
 70
     1
102
RTVSPropertyOp15
 70
     1
102
RTVSPropertyOp16
 70
     1
102
RTVSPropertyOp17
 70
     1
102
RTVSPropertyOp18
 70
     1
102
RTVSPropertyOp19
 70
     1
102
RTVSPropertyOp20
 70
     1
102
RTVSPropertyOp21
 70
     1
102
RTVSPropertyOp22
 70
     1
102
RTVSPropertyOp23
 70
     1
102
RTVSPropertyOp24
 70
     1
102
RTVSPropertyOp25
 70
     1
102
RTVSPropertyOp26
 70
     1
102
RTVSPropertyOp27
 70
     1
  0
XRECORD
  5
2B6
102
{ACAD_REACTORS
330
2B5
102
}
330
2B5
100
AcDbXrecord
280
     1
102
RTVSPropertyOp0
 70
     1
102
RTVSPropertyOp1
 70
     1
102
RTVSPropertyOp2
 70
     1
102
RTVSPropertyOp3
 70
     1
102
RTVSPropertyOp4
 70
     1
102
RTVSPropertyOp5
 70
     1
102
RTVSPropertyOp6
 70
     1
102
RTVSPropertyOp7
 70
     1
102
RTVSPropertyOp8
 70
     1
102
RTVSPropertyOp9
 70
     1
102
RTVSPropertyOp10
 70
     1
102
RTVSPropertyOp11
 70
     1
102
RTVSPropertyOp12
 70
     1
102
RTVSPropertyOp13
 70
     1
102
RTVSPropertyOp14
 70
     1
102
RTVSPropertyOp15
 70
     1
102
RTVSPropertyOp16
 70
     1
102
RTVSPropertyOp17
 70
     1
102
RTVSPropertyOp18
 70
     1
102
RTVSPropertyOp19
 70
     1
102
RTVSPropertyOp20
 70
     1
102
RTVSPropertyOp21
 70
     1
102
RTVSPropertyOp22
 70
     1
102
RTVSPropertyOp23
 70
     1
102
RTVSPropertyOp24
 70
     1
102
RTVSPropertyOp25
 70
     1
102
RTVSPropertyOp26
 70
     1
102
RTVSPropertyOp27
 70
     1
  0
XRECORD
  5
2B4
102
{ACAD_REACTORS
330
2B3
102
}
330
2B3
100
AcDbXrecord
280
     1
102
RTVSPropertyOp0
 70
     1
102
RTVSPropertyOp1
 70
     1
102
RTVSPropertyOp2
 70
     1
102
RTVSPropertyOp3
 70
     1
102
RTVSPropertyOp4
 70
     1
102
RTVSPropertyOp5
 70
     1
102
RTVSPropertyOp6
 70
     1
102
RTVSPropertyOp7
 70
     1
102
RTVSPropertyOp8
 70
     1
102
RTVSPropertyOp9
 70
     1
102
RTVSPropertyOp10
 70
     1
102
RTVSPropertyOp11
 70
     1
102
RTVSPropertyOp12
 70
     1
102
RTVSPropertyOp13
 70
     1
102
RTVSPropertyOp14
 70
     1
102
RTVSPropertyOp15
 70
     1
102
RTVSPropertyOp16
 70
     1
102
RTVSPropertyOp17
 70
     1
102
RTVSPropertyOp18
 70
     1
102
RTVSPropertyOp19
 70
     1
102
RTVSPropertyOp20
 70
     1
102
RTVSPropertyOp21
 70
     1
102
RTVSPropertyOp22
 70
     1
102
RTVSPropertyOp23
 70
     1
102
RTVSPropertyOp24
 70
     1
102
RTVSPropertyOp25
 70
     1
102
RTVSPropertyOp26
 70
     1
102
RTVSPropertyOp27
 70
     1
  0
XRECORD
  5
2B8
102
{ACAD_REACTORS
330
2B7
102
}
330
2B7
100
AcDbXrecord
280
     1
102
RTVSPropertyOp0
 70
     1
102
RTVSPropertyOp1
 70
     1
102
RTVSPropertyOp2
 70
     1
102
RTVSPropertyOp3
 70
     1
102
RTVSPropertyOp4
 70
     1
102
RTVSPropertyOp5
 70
     1
102
RTVSPropertyOp6
 70
     1
102
RTVSPropertyOp7
 70
     1
102
RTVSPropertyOp8
 70
     1
102
RTVSPropertyOp9
 70
     1
102
RTVSPropertyOp10
 70
     1
102
RTVSPropertyOp11
 70
     1
102
RTVSPropertyOp12
 70
     1
102
RTVSPropertyOp13
 70
     1
102
RTVSPropertyOp14
 70
     1
102
RTVSPropertyOp15
 70
     1
102
RTVSPropertyOp16
 70
     1
102
RTVSPropertyOp17
 70
     1
102
RTVSPropertyOp18
 70
     1
102
RTVSPropertyOp19
 70
     1
102
RTVSPropertyOp20
 70
     1
102
RTVSPropertyOp21
 70
     1
102
RTVSPropertyOp22
 70
     1
102
RTVSPropertyOp23
 70
     1
102
RTVSPropertyOp24
 70
     1
102
RTVSPropertyOp25
 70
     1
102
RTVSPropertyOp26
 70
     1
102
RTVSPropertyOp27
 70
     1
  0
XRECORD
  5
2C0
102
{ACAD_REACTORS
330
2BF
102
}
330
2BF
100
AcDbXrecord
280
     1
102
RTVSPropertyOp0
 70
     1
102
RTVSPropertyOp1
 70
     1
102
RTVSPropertyOp2
 70
     1
102
RTVSPropertyOp3
 70
     1
102
RTVSPropertyOp4
 70
     1
102
RTVSPropertyOp5
 70
     1
102
RTVSPropertyOp6
 70
     1
102
RTVSPropertyOp7
 70
     1
102
RTVSPropertyOp8
 70
     1
102
RTVSPropertyOp9
 70
     1
102
RTVSPropertyOp10
 70
     1
102
RTVSPropertyOp11
 70
     1
102
RTVSPropertyOp12
 70
     1
102
RTVSPropertyOp13
 70
     1
102
RTVSPropertyOp14
 70
     1
102
RTVSPropertyOp15
 70
     1
102
RTVSPropertyOp16
 70
     1
102
RTVSPropertyOp17
 70
     1
102
RTVSPropertyOp18
 70
     1
102
RTVSPropertyOp19
 70
     1
102
RTVSPropertyOp20
 70
     1
102
RTVSPropertyOp21
 70
     1
102
RTVSPropertyOp22
 70
     1
102
RTVSPropertyOp23
 70
     1
102
RTVSPropertyOp24
 70
     1
102
RTVSPropertyOp25
 70
     1
102
RTVSPropertyOp26
 70
     1
102
RTVSPropertyOp27
 70
     1
  0
XRECORD
  5
2C8
102
{ACAD_REACTORS
330
2C7
102
}
330
2C7
100
AcDbXrecord
280
     1
102
RTVSPropertyOp0
 70
     1
102
RTVSPropertyOp1
 70
     1
102
RTVSPropertyOp2
 70
     1
102
RTVSPropertyOp3
 70
     1
102
RTVSPropertyOp4
 70
     1
102
RTVSPropertyOp5
 70
     1
102
RTVSPropertyOp6
 70
     1
102
RTVSPropertyOp7
 70
     1
102
RTVSPropertyOp8
 70
     1
102
RTVSPropertyOp9
 70
     1
102
RTVSPropertyOp10
 70
     1
102
RTVSPropertyOp11
 70
     1
102
RTVSPropertyOp12
 70
     1
102
RTVSPropertyOp13
 70
     1
102
RTVSPropertyOp14
 70
     1
102
RTVSPropertyOp15
 70
     1
102
RTVSPropertyOp16
 70
     1
102
RTVSPropertyOp17
 70
     1
102
RTVSPropertyOp18
 70
     1
102
RTVSPropertyOp19
 70
     1
102
RTVSPropertyOp20
 70
     1
102
RTVSPropertyOp21
 70
     1
102
RTVSPropertyOp22
 70
     1
102
RTVSPropertyOp23
 70
     1
102
RTVSPropertyOp24
 70
     1
102
RTVSPropertyOp25
 70
     1
102
RTVSPropertyOp26
 70
     1
102
RTVSPropertyOp27
 70
     1
  0
XRECORD
  5
2BC
102
{ACAD_REACTORS
330
2BB
102
}
330
2BB
100
AcDbXrecord
280
     1
102
RTVSPropertyOp0
 70
     1
102
RTVSPropertyOp1
 70
     1
102
RTVSPropertyOp2
 70
     1
102
RTVSPropertyOp3
 70
     1
102
RTVSPropertyOp4
 70
     1
102
RTVSPropertyOp5
 70
     1
102
RTVSPropertyOp6
 70
     1
102
RTVSPropertyOp7
 70
     1
102
RTVSPropertyOp8
 70
     1
102
RTVSPropertyOp9
 70
     1
102
RTVSPropertyOp10
 70
     1
102
RTVSPropertyOp11
 70
     1
102
RTVSPropertyOp12
 70
     1
102
RTVSPropertyOp13
 70
     1
102
RTVSPropertyOp14
 70
     1
102
RTVSPropertyOp15
 70
     1
102
RTVSPropertyOp16
 70
     1
102
RTVSPropertyOp17
 70
     1
102
RTVSPropertyOp18
 70
     1
102
RTVSPropertyOp19
 70
     1
102
RTVSPropertyOp20
 70
     1
102
RTVSPropertyOp21
 70
     1
102
RTVSPropertyOp22
 70
     1
102
RTVSPropertyOp23
 70
     1
102
RTVSPropertyOp24
 70
     1
102
RTVSPropertyOp25
 70
     1
102
RTVSPropertyOp26
 70
     1
102
RTVSPropertyOp27
 70
     1
  0
XRECORD
  5
2BE
102
{ACAD_REACTORS
330
2BD
102
}
330
2BD
100
AcDbXrecord
280
     1
102
RTVSPropertyOp0
 70
     1
102
RTVSPropertyOp1
 70
     1
102
RTVSPropertyOp2
 70
     1
102
RTVSPropertyOp3
 70
     1
102
RTVSPropertyOp4
 70
     1
102
RTVSPropertyOp5
 70
     1
102
RTVSPropertyOp6
 70
     1
102
RTVSPropertyOp7
 70
     1
102
RTVSPropertyOp8
 70
     1
102
RTVSPropertyOp9
 70
     1
102
RTVSPropertyOp10
 70
     1
102
RTVSPropertyOp11
 70
     1
102
RTVSPropertyOp12
 70
     1
102
RTVSPropertyOp13
 70
     1
102
RTVSPropertyOp14
 70
     1
102
RTVSPropertyOp15
 70
     1
102
RTVSPropertyOp16
 70
     1
102
RTVSPropertyOp17
 70
     1
102
RTVSPropertyOp18
 70
     1
102
RTVSPropertyOp19
 70
     1
102
RTVSPropertyOp20
 70
     1
102
RTVSPropertyOp21
 70
     1
102
RTVSPropertyOp22
 70
     1
102
RTVSPropertyOp23
 70
     1
102
RTVSPropertyOp24
 70
     1
102
RTVSPropertyOp25
 70
     1
102
RTVSPropertyOp26
 70
     1
102
RTVSPropertyOp27
 70
     1
  0
XRECORD
  5
2C6
102
{ACAD_REACTORS
330
2C5
102
}
330
2C5
100
AcDbXrecord
280
     1
102
RTVSPropertyOp0
 70
     1
102
RTVSPropertyOp1
 70
     1
102
RTVSPropertyOp2
 70
     1
102
RTVSPropertyOp3
 70
     1
102
RTVSPropertyOp4
 70
     1
102
RTVSPropertyOp5
 70
     1
102
RTVSPropertyOp6
 70
     1
102
RTVSPropertyOp7
 70
     1
102
RTVSPropertyOp8
 70
     1
102
RTVSPropertyOp9
 70
     1
102
RTVSPropertyOp10
 70
     1
102
RTVSPropertyOp11
 70
     1
102
RTVSPropertyOp12
 70
     1
102
RTVSPropertyOp13
 70
     1
102
RTVSPropertyOp14
 70
     1
102
RTVSPropertyOp15
 70
     1
102
RTVSPropertyOp16
 70
     1
102
RTVSPropertyOp17
 70
     1
102
RTVSPropertyOp18
 70
     1
102
RTVSPropertyOp19
 70
     1
102
RTVSPropertyOp20
 70
     1
102
RTVSPropertyOp21
 70
     1
102
RTVSPropertyOp22
 70
     1
102
RTVSPropertyOp23
 70
     1
102
RTVSPropertyOp24
 70
     1
102
RTVSPropertyOp25
 70
     1
102
RTVSPropertyOp26
 70
     1
102
RTVSPropertyOp27
 70
     1
  0
XRECORD
  5
2AA
102
{ACAD_REACTORS
330
2A9
102
}
330
2A9
100
AcDbXrecord
280
     1
102
RTVSPropertyOp0
 70
     1
102
RTVSPropertyOp1
 70
     1
102
RTVSPropertyOp2
 70
     1
102
RTVSPropertyOp3
 70
     1
102
RTVSPropertyOp4
 70
     1
102
RTVSPropertyOp5
 70
     1
102
RTVSPropertyOp6
 70
     1
102
RTVSPropertyOp7
 70
     1
102
RTVSPropertyOp8
 70
     1
102
RTVSPropertyOp9
 70
     1
102
RTVSPropertyOp10
 70
     1
102
RTVSPropertyOp11
 70
     1
102
RTVSPropertyOp12
 70
     1
102
RTVSPropertyOp13
 70
     1
102
RTVSPropertyOp14
 70
     1
102
RTVSPropertyOp15
 70
     1
102
RTVSPropertyOp16
 70
     1
102
RTVSPropertyOp17
 70
     1
102
RTVSPropertyOp18
 70
     1
102
RTVSPropertyOp19
 70
     1
102
RTVSPropertyOp20
 70
     1
102
RTVSPropertyOp21
 70
     1
102
RTVSPropertyOp22
 70
     1
102
RTVSPropertyOp23
 70
     1
102
RTVSPropertyOp24
 70
     1
102
RTVSPropertyOp25
 70
     1
102
RTVSPropertyOp26
 70
     1
102
RTVSPropertyOp27
 70
     1
  0
XRECORD
  5
2AC
102
{ACAD_REACTORS
330
2AB
102
}
330
2AB
100
AcDbXrecord
280
     1
102
RTVSPropertyOp0
 70
     1
102
RTVSPropertyOp1
 70
     1
102
RTVSPropertyOp2
 70
     1
102
RTVSPropertyOp3
 70
     1
102
RTVSPropertyOp4
 70
     1
102
RTVSPropertyOp5
 70
     1
102
RTVSPropertyOp6
 70
     1
102
RTVSPropertyOp7
 70
     1
102
RTVSPropertyOp8
 70
     1
102
RTVSPropertyOp9
 70
     1
102
RTVSPropertyOp10
 70
     1
102
RTVSPropertyOp11
 70
     1
102
RTVSPropertyOp12
 70
     1
102
RTVSPropertyOp13
 70
     1
102
RTVSPropertyOp14
 70
     1
102
RTVSPropertyOp15
 70
     1
102
RTVSPropertyOp16
 70
     1
102
RTVSPropertyOp17
 70
     1
102
RTVSPropertyOp18
 70
     1
102
RTVSPropertyOp19
 70
     1
102
RTVSPropertyOp20
 70
     1
102
RTVSPropertyOp21
 70
     1
102
RTVSPropertyOp22
 70
     1
102
RTVSPropertyOp23
 70
     1
102
RTVSPropertyOp24
 70
     1
102
RTVSPropertyOp25
 70
     1
102
RTVSPropertyOp26
 70
     1
102
RTVSPropertyOp27
 70
     1
  0
XRECORD
  5
2AE
102
{ACAD_REACTORS
330
2AD
102
}
330
2AD
100
AcDbXrecord
280
     1
102
RTVSPropertyOp0
 70
     1
102
RTVSPropertyOp1
 70
     1
102
RTVSPropertyOp2
 70
     1
102
RTVSPropertyOp3
 70
     1
102
RTVSPropertyOp4
 70
     1
102
RTVSPropertyOp5
 70
     1
102
RTVSPropertyOp6
 70
     1
102
RTVSPropertyOp7
 70
     1
102
RTVSPropertyOp8
 70
     1
102
RTVSPropertyOp9
 70
     1
102
RTVSPropertyOp10
 70
     1
102
RTVSPropertyOp11
 70
     1
102
RTVSPropertyOp12
 70
     1
102
RTVSPropertyOp13
 70
     1
102
RTVSPropertyOp14
 70
     1
102
RTVSPropertyOp15
 70
     1
102
RTVSPropertyOp16
 70
     1
102
RTVSPropertyOp17
 70
     1
102
RTVSPropertyOp18
 70
     1
102
RTVSPropertyOp19
 70
     1
102
RTVSPropertyOp20
 70
     1
102
RTVSPropertyOp21
 70
     1
102
RTVSPropertyOp22
 70
     1
102
RTVSPropertyOp23
 70
     1
102
RTVSPropertyOp24
 70
     1
102
RTVSPropertyOp25
 70
     1
102
RTVSPropertyOp26
 70
     1
102
RTVSPropertyOp27
 70
     1
  0
XRECORD
  5
2B0
102
{ACAD_REACTORS
330
2AF
102
}
330
2AF
100
AcDbXrecord
280
     1
102
RTVSPropertyOp0
 70
     1
102
RTVSPropertyOp1
 70
     1
102
RTVSPropertyOp2
 70
     1
102
RTVSPropertyOp3
 70
     1
102
RTVSPropertyOp4
 70
     1
102
RTVSPropertyOp5
 70
     1
102
RTVSPropertyOp6
 70
     1
102
RTVSPropertyOp7
 70
     1
102
RTVSPropertyOp8
 70
     1
102
RTVSPropertyOp9
 70
     1
102
RTVSPropertyOp10
 70
     1
102
RTVSPropertyOp11
 70
     1
102
RTVSPropertyOp12
 70
     1
102
RTVSPropertyOp13
 70
     1
102
RTVSPropertyOp14
 70
     1
102
RTVSPropertyOp15
 70
     1
102
RTVSPropertyOp16
 70
     1
102
RTVSPropertyOp17
 70
     1
102
RTVSPropertyOp18
 70
     1
102
RTVSPropertyOp19
 70
     1
102
RTVSPropertyOp20
 70
     1
102
RTVSPropertyOp21
 70
     1
102
RTVSPropertyOp22
 70
     1
102
RTVSPropertyOp23
 70
     1
102
RTVSPropertyOp24
 70
     1
102
RTVSPropertyOp25
 70
     1
102
RTVSPropertyOp26
 70
     1
102
RTVSPropertyOp27
 70
     1
  0
XRECORD
  5
2C4
102
{ACAD_REACTORS
330
2C3
102
}
330
2C3
100
AcDbXrecord
280
     1
102
RTVSPropertyOp0
 70
     1
102
RTVSPropertyOp1
 70
     1
102
RTVSPropertyOp2
 70
     1
102
RTVSPropertyOp3
 70
     1
102
RTVSPropertyOp4
 70
     1
102
RTVSPropertyOp5
 70
     1
102
RTVSPropertyOp6
 70
     1
102
RTVSPropertyOp7
 70
     1
102
RTVSPropertyOp8
 70
     1
102
RTVSPropertyOp9
 70
     1
102
RTVSPropertyOp10
 70
     1
102
RTVSPropertyOp11
 70
     1
102
RTVSPropertyOp12
 70
     1
102
RTVSPropertyOp13
 70
     1
102
RTVSPropertyOp14
 70
     1
102
RTVSPropertyOp15
 70
     1
102
RTVSPropertyOp16
 70
     1
102
RTVSPropertyOp17
 70
     1
102
RTVSPropertyOp18
 70
     1
102
RTVSPropertyOp19
 70
     1
102
RTVSPropertyOp20
 70
     1
102
RTVSPropertyOp21
 70
     1
102
RTVSPropertyOp22
 70
     1
102
RTVSPropertyOp23
 70
     1
102
RTVSPropertyOp24
 70
     1
102
RTVSPropertyOp25
 70
     1
102
RTVSPropertyOp26
 70
     1
102
RTVSPropertyOp27
 70
     1
  0
XRECORD
  5
2BA
102
{ACAD_REACTORS
330
2B9
102
}
330
2B9
100
AcDbXrecord
280
     1
102
RTVSPropertyOp0
 70
     1
102
RTVSPropertyOp1
 70
     1
102
RTVSPropertyOp2
 70
     1
102
RTVSPropertyOp3
 70
     1
102
RTVSPropertyOp4
 70
     1
102
RTVSPropertyOp5
 70
     1
102
RTVSPropertyOp6
 70
     1
102
RTVSPropertyOp7
 70
     1
102
RTVSPropertyOp8
 70
     1
102
RTVSPropertyOp9
 70
     1
102
RTVSPropertyOp10
 70
     1
102
RTVSPropertyOp11
 70
     1
102
RTVSPropertyOp12
 70
     1
102
RTVSPropertyOp13
 70
     1
102
RTVSPropertyOp14
 70
     1
102
RTVSPropertyOp15
 70
     1
102
RTVSPropertyOp16
 70
     1
102
RTVSPropertyOp17
 70
     1
102
RTVSPropertyOp18
 70
     1
102
RTVSPropertyOp19
 70
     1
102
RTVSPropertyOp20
 70
     1
102
RTVSPropertyOp21
 70
     1
102
RTVSPropertyOp22
 70
     1
102
RTVSPropertyOp23
 70
     1
102
RTVSPropertyOp24
 70
     1
102
RTVSPropertyOp25
 70
     1
102
RTVSPropertyOp26
 70
     1
102
RTVSPropertyOp27
 70
     1
  0
XRECORD
  5
2C2
102
{ACAD_REACTORS
330
2C1
102
}
330
2C1
100
AcDbXrecord
280
     1
102
RTVSPropertyOp0
 70
     1
102
RTVSPropertyOp1
 70
     1
102
RTVSPropertyOp2
 70
     1
102
RTVSPropertyOp3
 70
     1
102
RTVSPropertyOp4
 70
     1
102
RTVSPropertyOp5
 70
     1
102
RTVSPropertyOp6
 70
     1
102
RTVSPropertyOp7
 70
     1
102
RTVSPropertyOp8
 70
     1
102
RTVSPropertyOp9
 70
     1
102
RTVSPropertyOp10
 70
     1
102
RTVSPropertyOp11
 70
     1
102
RTVSPropertyOp12
 70
     1
102
RTVSPropertyOp13
 70
     1
102
RTVSPropertyOp14
 70
     1
102
RTVSPropertyOp15
 70
     1
102
RTVSPropertyOp16
 70
     1
102
RTVSPropertyOp17
 70
     1
102
RTVSPropertyOp18
 70
     1
102
RTVSPropertyOp19
 70
     1
102
RTVSPropertyOp20
 70
     1
102
RTVSPropertyOp21
 70
     1
102
RTVSPropertyOp22
 70
     1
102
RTVSPropertyOp23
 70
     1
102
RTVSPropertyOp24
 70
     1
102
RTVSPropertyOp25
 70
     1
102
RTVSPropertyOp26
 70
     1
102
RTVSPropertyOp27
 70
     1
  0
ENDSEC
  0
EOF
