  0
SECTION
  2
HEADER
  9
$ACADVER
  1
AC1015
  9
$ACADMAINTVER
 70
     6
  9
$DWGCODEPAGE
  3
ANSI_932
  9
$INSBASE
 10
0.0
 20
0.0
 30
0.0
  9
$EXTMIN
 10
-256.703912669961
 20
285.365014190365
 30
0.0
  9
$EXTMAX
 10
853.422082470715
 20
1001.83252551188
 30
0.0
  9
$LIMMIN
 10
0.0
 20
0.0
  9
$LIMMAX
 10
12.0
 20
9.0
  9
$ORTHOMODE
 70
     0
  9
$REGENMODE
 70
     1
  9
$FILLMODE
 70
     1
  9
$QTEXTMODE
 70
     0
  9
$MIRRTEXT
 70
     1
  9
$LTSCALE
 40
1.0
  9
$ATTMODE
 70
     1
  9
$TEXTSIZE
 40
0.2
  9
$TRACEWID
 40
0.05
  9
$TEXTSTYLE
  7
Standard
  9
$CLAYER
  8
0
  9
$CELTYPE
  6
ByLayer
  9
$CECOLOR
 62
   256
  9
$CELTSCALE
 40
1.0
  9
$DISPSILH
 70
     0
  9
$DIMSCALE
 40
1.0
  9
$DIMASZ
 40
0.18
  9
$DIMEXO
 40
0.0625
  9
$DIMDLI
 40
0.38
  9
$DIMRND
 40
0.0
  9
$DIMDLE
 40
0.0
  9
$DIMEXE
 40
0.18
  9
$DIMTP
 40
0.0
  9
$DIMTM
 40
0.0
  9
$DIMTXT
 40
0.18
  9
$DIMCEN
 40
0.09
  9
$DIMTSZ
 40
0.0
  9
$DIMTOL
 70
     0
  9
$DIMLIM
 70
     0
  9
$DIMTIH
 70
     1
  9
$DIMTOH
 70
     1
  9
$DIMSE1
 70
     0
  9
$DIMSE2
 70
     0
  9
$DIMTAD
 70
     0
  9
$DIMZIN
 70
     0
  9
$DIMBLK
  1

  9
$DIMASO
 70
     1
  9
$DIMSHO
 70
     1
  9
$DIMPOST
  1

  9
$DIMAPOST
  1

  9
$DIMALT
 70
     0
  9
$DIMALTD
 70
     2
  9
$DIMALTF
 40
25.4
  9
$DIMLFAC
 40
1.0
  9
$DIMTOFL
 70
     0
  9
$DIMTVP
 40
0.0
  9
$DIMTIX
 70
     0
  9
$DIMSOXD
 70
     0
  9
$DIMSAH
 70
     0
  9
$DIMBLK1
  1

  9
$DIMBLK2
  1

  9
$DIMSTYLE
  2
Standard
  9
$DIMCLRD
 70
     0
  9
$DIMCLRE
 70
     0
  9
$DIMCLRT
 70
     0
  9
$DIMTFAC
 40
1.0
  9
$DIMGAP
 40
0.09
  9
$DIMJUST
 70
     0
  9
$DIMSD1
 70
     0
  9
$DIMSD2
 70
     0
  9
$DIMTOLJ
 70
     1
  9
$DIMTZIN
 70
     0
  9
$DIMALTZ
 70
     0
  9
$DIMALTTZ
 70
     0
  9
$DIMUPT
 70
     0
  9
$DIMDEC
 70
     4
  9
$DIMTDEC
 70
     4
  9
$DIMALTU
 70
     2
  9
$DIMALTTD
 70
     2
  9
$DIMTXSTY
  7
Standard
  9
$DIMAUNIT
 70
     0
  9
$DIMADEC
 70
     0
  9
$DIMALTRND
 40
0.0
  9
$DIMAZIN
 70
     0
  9
$DIMDSEP
 70
    46
  9
$DIMATFIT
 70
     3
  9
$DIMFRAC
 70
     0
  9
$DIMLDRBLK
  1

  9
$DIMLUNIT
 70
     2
  9
$DIMLWD
 70
    -2
  9
$DIMLWE
 70
    -2
  9
$DIMTMOVE
 70
     0
  9
$LUNITS
 70
     2
  9
$LUPREC
 70
     4
  9
$SKETCHINC
 40
0.1
  9
$FILLETRAD
 40
0.5
  9
$AUNITS
 70
     0
  9
$AUPREC
 70
     0
  9
$MENU
  1
.
  9
$ELEVATION
 40
0.0
  9
$PELEVATION
 40
0.0
  9
$THICKNESS
 40
0.0
  9
$LIMCHECK
 70
     0
  9
$CHAMFERA
 40
0.5
  9
$CHAMFERB
 40
0.5
  9
$CHAMFERC
 40
1.0
  9
$CHAMFERD
 40
0.0
  9
$SKPOLY
 70
     0
  9
$TDCREATE
 40
2457624.734177257
  9
$TDUCREATE
 40
2457624.359177257
  9
$TDUPDATE
 40
2457624.734177269
  9
$TDUUPDATE
 40
2457624.359177269
  9
$TDINDWG
 40
0.0000000116
  9
$TDUSRTIMER
 40
0.0000000116
  9
$USRTIMER
 70
     1
  9
$ANGBASE
 50
0.0
  9
$ANGDIR
 70
     0
  9
$PDMODE
 70
     0
  9
$PDSIZE
 40
0.0
  9
$PLINEWID
 40
0.0
  9
$SPLFRAME
 70
     0
  9
$SPLINETYPE
 70
     6
  9
$SPLINESEGS
 70
     8
  9
$HANDSEED
  5
35F
  9
$SURFTAB1
 70
     6
  9
$SURFTAB2
 70
     6
  9
$SURFTYPE
 70
     6
  9
$SURFU
 70
     6
  9
$SURFV
 70
     6
  9
$UCSBASE
  2

  9
$UCSNAME
  2

  9
$UCSORG
 10
0.0
 20
0.0
 30
0.0
  9
$UCSXDIR
 10
1.0
 20
0.0
 30
0.0
  9
$UCSYDIR
 10
0.0
 20
1.0
 30
0.0
  9
$UCSORTHOREF
  2

  9
$UCSORTHOVIEW
 70
     0
  9
$UCSORGTOP
 10
0.0
 20
0.0
 30
0.0
  9
$UCSORGBOTTOM
 10
0.0
 20
0.0
 30
0.0
  9
$UCSORGLEFT
 10
0.0
 20
0.0
 30
0.0
  9
$UCSORGRIGHT
 10
0.0
 20
0.0
 30
0.0
  9
$UCSORGFRONT
 10
0.0
 20
0.0
 30
0.0
  9
$UCSORGBACK
 10
0.0
 20
0.0
 30
0.0
  9
$PUCSBASE
  2

  9
$PUCSNAME
  2

  9
$PUCSORG
 10
0.0
 20
0.0
 30
0.0
  9
$PUCSXDIR
 10
1.0
 20
0.0
 30
0.0
  9
$PUCSYDIR
 10
0.0
 20
1.0
 30
0.0
  9
$PUCSORTHOREF
  2

  9
$PUCSORTHOVIEW
 70
     0
  9
$PUCSORGTOP
 10
0.0
 20
0.0
 30
0.0
  9
$PUCSORGBOTTOM
 10
0.0
 20
0.0
 30
0.0
  9
$PUCSORGLEFT
 10
0.0
 20
0.0
 30
0.0
  9
$PUCSORGRIGHT
 10
0.0
 20
0.0
 30
0.0
  9
$PUCSORGFRONT
 10
0.0
 20
0.0
 30
0.0
  9
$PUCSORGBACK
 10
0.0
 20
0.0
 30
0.0
  9
$USERI1
 70
     0
  9
$USERI2
 70
     0
  9
$USERI3
 70
     0
  9
$USERI4
 70
     0
  9
$USERI5
 70
     0
  9
$USERR1
 40
18.0
  9
$USERR2
 40
0.0
  9
$USERR3
 40
0.0
  9
$USERR4
 40
0.0
  9
$USERR5
 40
0.0
  9
$WORLDVIEW
 70
     1
  9
$SHADEDGE
 70
     3
  9
$SHADEDIF
 70
    70
  9
$TILEMODE
 70
     1
  9
$MAXACTVP
 70
    64
  9
$PINSBASE
 10
0.0
 20
0.0
 30
0.0
  9
$PLIMCHECK
 70
     0
  9
$PEXTMIN
 10
1.00000000000000E+20
 20
1.00000000000000E+20
 30
1.00000000000000E+20
  9
$PEXTMAX
 10
-1.00000000000000E+20
 20
-1.00000000000000E+20
 30
-1.00000000000000E+20
  9
$PLIMMIN
 10
0.0
 20
0.0
  9
$PLIMMAX
 10
12.0
 20
9.0
  9
$UNITMODE
 70
     0
  9
$VISRETAIN
 70
     1
  9
$PLINEGEN
 70
     0
  9
$PSLTSCALE
 70
     1
  9
$TREEDEPTH
 70
  3020
  9
$CMLSTYLE
  2
Standard
  9
$CMLJUST
 70
     0
  9
$CMLSCALE
 40
1.0
  9
$PROXYGRAPHICS
 70
     1
  9
$MEASUREMENT
 70
     1
  9
$CELWEIGHT
370
    -1
  9
$ENDCAPS
280
     0
  9
$JOINSTYLE
280
     0
  9
$LWDISPLAY
290
     0
  9
$INSUNITS
 70
     1
  9
$HYPERLINKBASE
  1

  9
$STYLESHEET
  1

  9
$XEDIT
290
     1
  9
$CEPSNTYPE
380
     0
  9
$PSTYLEMODE
290
     1
  9
$FINGERPRINTGUID
  2
{7DE1FBDE-9225-410C-9CF3-8CA478047801}
  9
$VERSIONGUID
  2
{FAEB1C32-E019-11D5-929B-00C0DF256EC4}
  9
$EXTNAMES
290
     1
  9
$PSVPSCALE
 40
0.0
  9
$OLESTARTUP
290
     0
  0
ENDSEC
  0
SECTION
  2
CLASSES
  0
CLASS
  1
ACDBDICTIONARYWDFLT
  2
AcDbDictionaryWithDefault
  3
ObjectDBX Classes
 90
        0
280
     0
281
     0
  0
CLASS
  1
VISUALSTYLE
  2
AcDbVisualStyle
  3
ObjectDBX Classes
 90
     4095
280
     0
281
     0
  0
CLASS
  1
MATERIAL
  2
AcDbMaterial
  3
ObjectDBX Classes
 90
     1153
280
     0
281
     0
  0
CLASS
  1

  2
exOdDbSpline
  3

 90
        0
280
     0
281
     1
  0
CLASS
  1
DICTIONARYVAR
  2
AcDbDictionaryVar
  3
ObjectDBX Classes
 90
        0
280
     0
281
     0
  0
CLASS
  1
ACDBPLACEHOLDER
  2
AcDbPlaceHolder
  3
ObjectDBX Classes
 90
        0
280
     0
281
     0
  0
CLASS
  1
LAYOUT
  2
AcDbLayout
  3
ObjectDBX Classes
 90
        0
280
     0
281
     0
  0
ENDSEC
  0
SECTION
  2
TABLES
  0
TABLE
  2
VPORT
  5
8
330
0
100
AcDbSymbolTable
 70
     1
  0
VPORT
  5
29
330
8
100
AcDbSymbolTableRecord
100
AcDbViewportTableRecord
  2
*Active
 70
     0
 10
0.0
 20
0.0
 11
1.0
 21
1.0
 12
298.359084900377
 22
643.5987698511225
 13
0.0
 23
0.0
 14
0.5
 24
0.5
 15
0.5
 25
0.5
 16
0.0
 26
0.0
 36
1.0
 17
0.0
 27
0.0
 37
0.0
 40
788.1142624536667
 41
1.60267857142857
 42
50.0
 43
0.0
 44
0.0
 50
0.0
 51
0.0
 71
     0
 72
   100
 73
     1
 74
     3
 75
     0
 76
     0
 77
     0
 78
     0
281
     0
 65
     1
110
0.0
120
0.0
130
0.0
111
1.0
121
0.0
131
0.0
112
0.0
122
1.0
132
0.0
 79
     0
146
0.0
  0
ENDTAB
  0
TABLE
  2
LTYPE
  5
5
330
0
100
AcDbSymbolTable
 70
     8
  0
LTYPE
  5
14
330
5
100
AcDbSymbolTableRecord
100
AcDbLinetypeTableRecord
  2
ByBlock
 70
     0
  3

 72
    65
 73
     0
 40
0.0
  0
LTYPE
  5
15
330
5
100
AcDbSymbolTableRecord
100
AcDbLinetypeTableRecord
  2
ByLayer
 70
     0
  3

 72
    65
 73
     0
 40
0.0
  0
LTYPE
  5
16
330
5
100
AcDbSymbolTableRecord
100
AcDbLinetypeTableRecord
  2
Continuous
 70
     0
  3
Solid line
 72
    65
 73
     0
 40
0.0
  0
LTYPE
  5
3F
330
5
100
AcDbSymbolTableRecord
100
AcDbLinetypeTableRecord
  2
DASHED
 70
     0
  3
Dashed
 72
    65
 73
     2
 40
15.0
 49
7.0
 74
     0
 49
-8.0
 74
     0
  0
LTYPE
  5
40
330
5
100
AcDbSymbolTableRecord
100
AcDbLinetypeTableRecord
  2
DOTTED
 70
     0
  3
Dotted
 72
    65
 73
     2
 40
1.0
 49
0.0
 74
     0
 49
-1.0
 74
     0
  0
LTYPE
  5
41
330
5
100
AcDbSymbolTableRecord
100
AcDbLinetypeTableRecord
  2
DOT_CENTER
 70
     0
  3
Dot_Center
 72
    65
 73
     4
 40
14.0
 49
12.0
 74
     0
 49
-1.0
 74
     0
 49
0.0
 74
     0
 49
-1.0
 74
     0
  0
LTYPE
  5
42
330
5
100
AcDbSymbolTableRecord
100
AcDbLinetypeTableRecord
  2
LONG_DASHED
 70
     0
  3
Long_Dashed
 72
    65
 73
     2
 40
15.0
 49
10.0
 74
     0
 49
-5.0
 74
     0
  0
LTYPE
  5
43
330
5
100
AcDbSymbolTableRecord
100
AcDbLinetypeTableRecord
  2
DASH_CENTER
 70
     0
  3
Dash_Center
 72
    65
 73
     4
 40
14.0
 49
11.0
 74
     0
 49
-1.0
 74
     0
 49
1.0
 74
     0
 49
-1.0
 74
     0
  0
LTYPE
  5
44
330
5
100
AcDbSymbolTableRecord
100
AcDbLinetypeTableRecord
  2
PHANTOM
 70
     0
  3
Phantom
 72
    65
 73
     6
 40
13.0
 49
10.0
 74
     0
 49
-1.0
 74
     0
 49
0.0
 74
     0
 49
-1.0
 74
     0
 49
0.0
 74
     0
 49
-1.0
 74
     0
  0
LTYPE
  5
45
330
5
100
AcDbSymbolTableRecord
100
AcDbLinetypeTableRecord
  2
CENTER_DASH_DASH
 70
     0
  3
Center_Dash_Dash
 72
    65
 73
     6
 40
14.0
 49
9.0
 74
     0
 49
-1.0
 74
     0
 49
1.0
 74
     0
 49
-1.0
 74
     0
 49
1.0
 74
     0
 49
-1.0
 74
     0
  0
ENDTAB
  0
TABLE
  2
LAYER
  5
2
330
0
100
AcDbSymbolTable
 70
     2
  0
LAYER
  5
10
330
2
100
AcDbSymbolTableRecord
100
AcDbLayerTableRecord
  2
0
 70
     0
 62
     7
  6
Continuous
370
    -3
390
F
  0
LAYER
  5
46
330
2
100
AcDbSymbolTableRecord
100
AcDbLayerTableRecord
  2
1
 70
     0
 62
     7
  6
Continuous
370
    -3
390
F
  0
ENDTAB
  0
TABLE
  2
STYLE
  5
3
330
0
100
AcDbSymbolTable
 70
     1
  0
STYLE
  5
11
330
3
100
AcDbSymbolTableRecord
100
AcDbTextStyleTableRecord
  2
Standard
 70
     0
 40
0.0
 41
1.0
 50
0.0
 71
     0
 42
0.2
  3
txt
  4

  0
ENDTAB
  0
TABLE
  2
VIEW
  5
6
330
0
100
AcDbSymbolTable
 70
     0
  0
ENDTAB
  0
TABLE
  2
UCS
  5
7
330
0
100
AcDbSymbolTable
 70
     0
  0
ENDTAB
  0
TABLE
  2
APPID
  5
9
330
0
100
AcDbSymbolTable
 70
     1
  0
APPID
  5
12
330
9
100
AcDbSymbolTableRecord
100
AcDbRegAppTableRecord
  2
ACAD
 70
     0
  0
ENDTAB
  0
TABLE
  2
DIMSTYLE
  5
A
330
0
100
AcDbSymbolTable
 70
     1
100
AcDbDimStyleTable
  0
DIMSTYLE
105
27
330
A
100
AcDbSymbolTableRecord
100
AcDbDimStyleTableRecord
  2
Standard
 70
     0
340
11
  0
ENDTAB
  0
TABLE
  2
BLOCK_RECORD
  5
1
330
0
100
AcDbSymbolTable
 70
     1
  0
BLOCK_RECORD
  5
1F
330
1
100
AcDbSymbolTableRecord
100
AcDbBlockTableRecord
  2
*Model_Space
340
22
  0
BLOCK_RECORD
  5
1B
330
1
100
AcDbSymbolTableRecord
100
AcDbBlockTableRecord
  2
*Paper_Space
340
1E
  0
BLOCK_RECORD
  5
23
330
1
100
AcDbSymbolTableRecord
100
AcDbBlockTableRecord
  2
*Paper_Space0
340
26
  0
ENDTAB
  0
ENDSEC
  0
SECTION
  2
BLOCKS
  0
BLOCK
  5
20
330
1F
100
AcDbEntity
  8
0
100
AcDbBlockBegin
  2
*Model_Space
 70
     0
 10
0.0
 20
0.0
 30
0.0
  3
*Model_Space
  1

  0
ENDBLK
  5
21
330
1F
100
AcDbEntity
  8
0
100
AcDbBlockEnd
  0
BLOCK
  5
1C
330
1B
100
AcDbEntity
 67
     1
  8
0
100
AcDbBlockBegin
  2
*Paper_Space
 70
     0
 10
0.0
 20
0.0
 30
0.0
  3
*Paper_Space
  1

  0
ENDBLK
  5
1D
330
1B
100
AcDbEntity
 67
     1
  8
0
100
AcDbBlockEnd
  0
BLOCK
  5
24
330
23
100
AcDbEntity
  8
0
100
AcDbBlockBegin
  2
*Paper_Space0
 70
     0
 10
0.0
 20
0.0
 30
0.0
  3
*Paper_Space0
  1

  0
ENDBLK
  5
25
330
23
100
AcDbEntity
  8
0
100
AcDbBlockEnd
  0
ENDSEC
  0
SECTION
  2
ENTITIES
  0
POINT
  5
47
330
1F
100
AcDbEntity
  8
1
 62
     3
 60
     1
100
AcDbPoint
 10
157.423072042324
 20
306.537767755498
 30
0.0
  0
POINT
  5
48
330
1F
100
AcDbEntity
  8
1
 62
     3
 60
     1
100
AcDbPoint
 10
414.577042110948
 20
306.537767755498
 30
0.0
  0
POINT
  5
49
330
1F
100
AcDbEntity
  8
1
 62
     3
 60
     1
100
AcDbPoint
 10
397.012525981915
 20
398.537767755497
 30
0.0
  0
POINT
  5
4A
330
1F
100
AcDbEntity
  8
1
 62
     3
 60
     1
100
AcDbPoint
 10
588.668112402091
 20
306.537767755498
 30
0.0
  0
POINT
  5
4B
330
1F
100
AcDbEntity
  8
1
 62
     3
 60
     1
100
AcDbPoint
 10
8.45005739866485
 20
306.537767755498
 30
0.0
  0
POINT
  5
4C
330
1F
100
AcDbEntity
  8
1
 62
     3
 60
     1
100
AcDbPoint
 10
-248.703912669961
 20
306.537767755498
 30
0.0
  0
POINT
  5
4D
330
1F
100
AcDbEntity
  8
1
 62
     3
 60
     1
100
AcDbPoint
 10
135.266467364281
 20
856.323170799791
 30
0.0
  0
POINT
  5
4E
330
1F
100
AcDbEntity
  8
1
 62
     3
 60
     1
100
AcDbPoint
 10
437.266467364281
 20
856.323170799791
 30
0.0
  0
LINE
  5
4F
330
1F
100
AcDbEntity
  8
1
  6
Continuous
 62
     4
100
AcDbLine
 10
793.1216640941219
 20
960.27090367708
 30
0.0
 11
798.321664094122
 21
960.27090367708
 31
0.0
  0
LINE
  5
50
330
1F
100
AcDbEntity
  8
1
  6
Continuous
 62
     4
100
AcDbLine
 10
791.5216640941219
 20
959.87090367708
 30
0.0
 11
793.1216640941219
 21
960.27090367708
 31
0.0
  0
LINE
  5
51
330
1F
100
AcDbEntity
  8
1
  6
Continuous
 62
     4
100
AcDbLine
 10
790.321664094122
 20
959.07090367708
 30
0.0
 11
791.5216640941219
 21
959.87090367708
 31
0.0
  0
LINE
  5
52
330
1F
100
AcDbEntity
  8
1
  6
Continuous
 62
     4
100
AcDbLine
 10
789.5216640941219
 20
958.27090367708
 30
0.0
 11
790.321664094122
 21
959.07090367708
 31
0.0
  0
LINE
  5
53
330
1F
100
AcDbEntity
  8
1
  6
Continuous
 62
     4
100
AcDbLine
 10
789.1216640941219
 20
957.07090367708
 30
0.0
 11
789.5216640941219
 21
958.27090367708
 31
0.0
  0
LINE
  5
54
330
1F
100
AcDbEntity
  8
1
  6
Continuous
 62
     4
100
AcDbLine
 10
788.7216640941219
 20
955.4709036770801
 30
0.0
 11
789.1216640941219
 21
957.07090367708
 31
0.0
  0
LINE
  5
55
330
1F
100
AcDbEntity
  8
1
  6
Continuous
 62
     4
100
AcDbLine
 10
788.7216640941219
 20
949.07090367708
 30
0.0
 11
788.7216640941219
 21
955.4709036770801
 31
0.0
  0
LINE
  5
56
330
1F
100
AcDbEntity
  8
1
  6
Continuous
 62
     4
100
AcDbLine
 10
789.1216640941219
 20
947.4709036770801
 30
0.0
 11
788.7216640941219
 21
949.07090367708
 31
0.0
  0
LINE
  5
57
330
1F
100
AcDbEntity
  8
1
  6
Continuous
 62
     4
100
AcDbLine
 10
789.5216640941219
 20
946.27090367708
 30
0.0
 11
789.1216640941219
 21
947.4709036770801
 31
0.0
  0
LINE
  5
58
330
1F
100
AcDbEntity
  8
1
  6
Continuous
 62
     4
100
AcDbLine
 10
790.321664094122
 20
945.4709036770801
 30
0.0
 11
789.5216640941219
 21
946.27090367708
 31
0.0
  0
LINE
  5
59
330
1F
100
AcDbEntity
  8
1
  6
Continuous
 62
     4
100
AcDbLine
 10
791.5216640941219
 20
944.67090367708
 30
0.0
 11
790.321664094122
 21
945.4709036770801
 31
0.0
  0
LINE
  5
5A
330
1F
100
AcDbEntity
  8
1
  6
Continuous
 62
     4
100
AcDbLine
 10
793.1216640941219
 20
944.27090367708
 30
0.0
 11
791.5216640941219
 21
944.67090367708
 31
0.0
  0
LINE
  5
5B
330
1F
100
AcDbEntity
  8
1
  6
Continuous
 62
     4
100
AcDbLine
 10
798.321664094122
 20
944.27090367708
 30
0.0
 11
793.1216640941219
 21
944.27090367708
 31
0.0
  0
LINE
  5
5C
330
1F
100
AcDbEntity
  8
1
  6
Continuous
 62
     4
100
AcDbLine
 10
775.921664094122
 20
949.87090367708
 30
0.0
 11
783.921664094122
 21
949.87090367708
 31
0.0
  0
LINE
  5
5D
330
1F
100
AcDbEntity
  8
1
  6
Continuous
 62
     4
100
AcDbLine
 10
760.7216640941219
 20
945.4709036770801
 30
0.0
 11
759.921664094122
 21
946.27090367708
 31
0.0
  0
LINE
  5
5E
330
1F
100
AcDbEntity
  8
1
  6
Continuous
 62
     4
100
AcDbLine
 10
762.321664094122
 20
944.67090367708
 30
0.0
 11
760.7216640941219
 21
945.4709036770801
 31
0.0
  0
LINE
  5
5F
330
1F
100
AcDbEntity
  8
1
  6
Continuous
 62
     4
100
AcDbLine
 10
764.321664094122
 20
944.27090367708
 30
0.0
 11
762.321664094122
 21
944.67090367708
 31
0.0
  0
LINE
  5
60
330
1F
100
AcDbEntity
  8
1
  6
Continuous
 62
     4
100
AcDbLine
 10
766.7216640941219
 20
944.27090367708
 30
0.0
 11
764.321664094122
 21
944.27090367708
 31
0.0
  0
LINE
  5
61
330
1F
100
AcDbEntity
  8
1
  6
Continuous
 62
     4
100
AcDbLine
 10
768.7216640941219
 20
944.67090367708
 30
0.0
 11
766.7216640941219
 21
944.27090367708
 31
0.0
  0
LINE
  5
62
330
1F
100
AcDbEntity
  8
1
  6
Continuous
 62
     4
100
AcDbLine
 10
769.921664094122
 20
945.4709036770801
 30
0.0
 11
768.7216640941219
 21
944.67090367708
 31
0.0
  0
LINE
  5
63
330
1F
100
AcDbEntity
  8
1
  6
Continuous
 62
     4
100
AcDbLine
 10
770.7216640941219
 20
946.67090367708
 30
0.0
 11
769.921664094122
 21
945.4709036770801
 31
0.0
  0
LINE
  5
64
330
1F
100
AcDbEntity
  8
1
  6
Continuous
 62
     4
100
AcDbLine
 10
771.121664094122
 20
947.87090367708
 30
0.0
 11
770.7216640941219
 21
946.67090367708
 31
0.0
  0
LINE
  5
65
330
1F
100
AcDbEntity
  8
1
  6
Continuous
 62
     4
100
AcDbLine
 10
771.121664094122
 20
948.67090367708
 30
0.0
 11
771.121664094122
 21
947.87090367708
 31
0.0
  0
LINE
  5
66
330
1F
100
AcDbEntity
  8
1
  6
Continuous
 62
     4
100
AcDbLine
 10
770.7216640941219
 20
949.87090367708
 30
0.0
 11
771.121664094122
 21
948.67090367708
 31
0.0
  0
LINE
  5
67
330
1F
100
AcDbEntity
  8
1
  6
Continuous
 62
     4
100
AcDbLine
 10
769.921664094122
 20
951.07090367708
 30
0.0
 11
770.7216640941219
 21
949.87090367708
 31
0.0
  0
LINE
  5
68
330
1F
100
AcDbEntity
  8
1
  6
Continuous
 62
     4
100
AcDbLine
 10
768.7216640941219
 20
951.87090367708
 30
0.0
 11
769.921664094122
 21
951.07090367708
 31
0.0
  0
LINE
  5
69
330
1F
100
AcDbEntity
  8
1
  6
Continuous
 62
     4
100
AcDbLine
 10
761.921664094122
 20
954.67090367708
 30
0.0
 11
768.7216640941219
 21
951.87090367708
 31
0.0
  0
LINE
  5
6A
330
1F
100
AcDbEntity
  8
1
  6
Continuous
 62
     4
100
AcDbLine
 10
760.7216640941219
 20
955.4709036770801
 30
0.0
 11
761.921664094122
 21
954.67090367708
 31
0.0
  0
LINE
  5
6B
330
1F
100
AcDbEntity
  8
1
  6
Continuous
 62
     4
100
AcDbLine
 10
760.321664094122
 20
956.67090367708
 30
0.0
 11
760.7216640941219
 21
955.4709036770801
 31
0.0
  0
LINE
  5
6C
330
1F
100
AcDbEntity
  8
1
  6
Continuous
 62
     4
100
AcDbLine
 10
760.321664094122
 20
957.4709036770801
 30
0.0
 11
760.321664094122
 21
956.67090367708
 31
0.0
  0
LINE
  5
6D
330
1F
100
AcDbEntity
  8
1
  6
Continuous
 62
     4
100
AcDbLine
 10
760.7216640941219
 20
958.67090367708
 30
0.0
 11
760.321664094122
 21
957.4709036770801
 31
0.0
  0
LINE
  5
6E
330
1F
100
AcDbEntity
  8
1
  6
Continuous
 62
     4
100
AcDbLine
 10
761.921664094122
 20
959.4709036770801
 30
0.0
 11
760.7216640941219
 21
958.67090367708
 31
0.0
  0
LINE
  5
6F
330
1F
100
AcDbEntity
  8
1
  6
Continuous
 62
     4
100
AcDbLine
 10
763.121664094122
 20
959.87090367708
 30
0.0
 11
761.921664094122
 21
959.4709036770801
 31
0.0
  0
LINE
  5
70
330
1F
100
AcDbEntity
  8
1
  6
Continuous
 62
     4
100
AcDbLine
 10
764.7216640941219
 20
960.27090367708
 30
0.0
 11
763.121664094122
 21
959.87090367708
 31
0.0
  0
LINE
  5
71
330
1F
100
AcDbEntity
  8
1
  6
Continuous
 62
     4
100
AcDbLine
 10
766.321664094122
 20
960.27090367708
 30
0.0
 11
764.7216640941219
 21
960.27090367708
 31
0.0
  0
LINE
  5
72
330
1F
100
AcDbEntity
  8
1
  6
Continuous
 62
     4
100
AcDbLine
 10
768.321664094122
 20
959.87090367708
 30
0.0
 11
766.321664094122
 21
960.27090367708
 31
0.0
  0
LINE
  5
73
330
1F
100
AcDbEntity
  8
1
  6
Continuous
 62
     4
100
AcDbLine
 10
769.521664094122
 20
959.4709036770801
 30
0.0
 11
768.321664094122
 21
959.87090367708
 31
0.0
  0
LINE
  5
74
330
1F
100
AcDbEntity
  8
1
  6
Continuous
 62
     4
100
AcDbLine
 10
770.7216640941219
 20
958.67090367708
 30
0.0
 11
769.521664094122
 21
959.4709036770801
 31
0.0
  0
LINE
  5
75
330
1F
100
AcDbEntity
  8
1
  6
Continuous
 62
     4
100
AcDbLine
 10
755.121664094122
 20
960.27090367708
 30
0.0
 11
755.121664094122
 21
944.27090367708
 31
0.0
  0
LINE
  5
76
330
1F
100
AcDbEntity
  8
1
  6
Continuous
 62
     4
100
AcDbLine
 10
749.521664094122
 20
951.4709036770801
 30
0.0
 11
755.121664094122
 21
960.27090367708
 31
0.0
  0
LINE
  5
77
330
1F
100
AcDbEntity
  8
1
  6
Continuous
 62
     4
100
AcDbLine
 10
743.921664094122
 20
960.27090367708
 30
0.0
 11
749.521664094122
 21
951.4709036770801
 31
0.0
  0
LINE
  5
78
330
1F
100
AcDbEntity
  8
1
  6
Continuous
 62
     4
100
AcDbLine
 10
743.921664094122
 20
944.27090367708
 30
0.0
 11
743.921664094122
 21
960.27090367708
 31
0.0
  0
LINE
  5
79
330
1F
100
AcDbEntity
  8
1
  6
Continuous
 62
     4
100
AcDbLine
 10
737.121664094122
 20
959.07090367708
 30
0.0
 11
735.921664094122
 21
959.87090367708
 31
0.0
  0
LINE
  5
7A
330
1F
100
AcDbEntity
  8
1
  6
Continuous
 62
     4
100
AcDbLine
 10
737.921664094122
 20
958.27090367708
 30
0.0
 11
737.121664094122
 21
959.07090367708
 31
0.0
  0
LINE
  5
7B
330
1F
100
AcDbEntity
  8
1
  6
Continuous
 62
     4
100
AcDbLine
 10
738.7216640941219
 20
957.07090367708
 30
0.0
 11
737.921664094122
 21
958.27090367708
 31
0.0
  0
LINE
  5
7C
330
1F
100
AcDbEntity
  8
1
  6
Continuous
 62
     4
100
AcDbLine
 10
739.121664094122
 20
955.4709036770801
 30
0.0
 11
738.7216640941219
 21
957.07090367708
 31
0.0
  0
LINE
  5
7D
330
1F
100
AcDbEntity
  8
1
  6
Continuous
 62
     4
100
AcDbLine
 10
739.121664094122
 20
949.07090367708
 30
0.0
 11
739.121664094122
 21
955.4709036770801
 31
0.0
  0
LINE
  5
7E
330
1F
100
AcDbEntity
  8
1
  6
Continuous
 62
     4
100
AcDbLine
 10
738.7216640941219
 20
947.4709036770801
 30
0.0
 11
739.121664094122
 21
949.07090367708
 31
0.0
  0
LINE
  5
7F
330
1F
100
AcDbEntity
  8
1
  6
Continuous
 62
     4
100
AcDbLine
 10
737.921664094122
 20
946.27090367708
 30
0.0
 11
738.7216640941219
 21
947.4709036770801
 31
0.0
  0
LINE
  5
80
330
1F
100
AcDbEntity
  8
1
  6
Continuous
 62
     4
100
AcDbLine
 10
737.121664094122
 20
945.4709036770801
 30
0.0
 11
737.921664094122
 21
946.27090367708
 31
0.0
  0
LINE
  5
81
330
1F
100
AcDbEntity
  8
1
  6
Continuous
 62
     4
100
AcDbLine
 10
735.921664094122
 20
944.67090367708
 30
0.0
 11
737.121664094122
 21
945.4709036770801
 31
0.0
  0
LINE
  5
82
330
1F
100
AcDbEntity
  8
1
  6
Continuous
 62
     4
100
AcDbLine
 10
734.7216640941219
 20
944.27090367708
 30
0.0
 11
735.921664094122
 21
944.67090367708
 31
0.0
  0
LINE
  5
83
330
1F
100
AcDbEntity
  8
1
  6
Continuous
 62
     4
100
AcDbLine
 10
732.321664094122
 20
944.27090367708
 30
0.0
 11
734.7216640941219
 21
944.27090367708
 31
0.0
  0
LINE
  5
84
330
1F
100
AcDbEntity
  8
1
  6
Continuous
 62
     4
100
AcDbLine
 10
731.121664094122
 20
944.67090367708
 30
0.0
 11
732.321664094122
 21
944.27090367708
 31
0.0
  0
LINE
  5
85
330
1F
100
AcDbEntity
  8
1
  6
Continuous
 62
     4
100
AcDbLine
 10
729.921664094122
 20
945.4709036770801
 30
0.0
 11
731.121664094122
 21
944.67090367708
 31
0.0
  0
LINE
  5
86
330
1F
100
AcDbEntity
  8
1
  6
Continuous
 62
     4
100
AcDbLine
 10
729.121664094122
 20
946.27090367708
 30
0.0
 11
729.921664094122
 21
945.4709036770801
 31
0.0
  0
LINE
  5
87
330
1F
100
AcDbEntity
  8
1
  6
Continuous
 62
     4
100
AcDbLine
 10
728.321664094122
 20
947.4709036770801
 30
0.0
 11
729.121664094122
 21
946.27090367708
 31
0.0
  0
LINE
  5
88
330
1F
100
AcDbEntity
  8
1
  6
Continuous
 62
     4
100
AcDbLine
 10
727.921664094122
 20
949.07090367708
 30
0.0
 11
728.321664094122
 21
947.4709036770801
 31
0.0
  0
LINE
  5
89
330
1F
100
AcDbEntity
  8
1
  6
Continuous
 62
     4
100
AcDbLine
 10
727.921664094122
 20
955.4709036770801
 30
0.0
 11
727.921664094122
 21
949.07090367708
 31
0.0
  0
LINE
  5
8A
330
1F
100
AcDbEntity
  8
1
  6
Continuous
 62
     4
100
AcDbLine
 10
728.321664094122
 20
957.07090367708
 30
0.0
 11
727.921664094122
 21
955.4709036770801
 31
0.0
  0
LINE
  5
8B
330
1F
100
AcDbEntity
  8
1
  6
Continuous
 62
     4
100
AcDbLine
 10
729.121664094122
 20
958.27090367708
 30
0.0
 11
728.321664094122
 21
957.07090367708
 31
0.0
  0
LINE
  5
8C
330
1F
100
AcDbEntity
  8
1
  6
Continuous
 62
     4
100
AcDbLine
 10
729.921664094122
 20
959.07090367708
 30
0.0
 11
729.121664094122
 21
958.27090367708
 31
0.0
  0
LINE
  5
8D
330
1F
100
AcDbEntity
  8
1
  6
Continuous
 62
     4
100
AcDbLine
 10
731.121664094122
 20
959.87090367708
 30
0.0
 11
729.921664094122
 21
959.07090367708
 31
0.0
  0
LINE
  5
8E
330
1F
100
AcDbEntity
  8
1
  6
Continuous
 62
     4
100
AcDbLine
 10
732.321664094122
 20
960.27090367708
 30
0.0
 11
731.121664094122
 21
959.87090367708
 31
0.0
  0
LINE
  5
8F
330
1F
100
AcDbEntity
  8
1
  6
Continuous
 62
     4
100
AcDbLine
 10
734.7216640941219
 20
960.27090367708
 30
0.0
 11
732.321664094122
 21
960.27090367708
 31
0.0
  0
LINE
  5
90
330
1F
100
AcDbEntity
  8
1
  6
Continuous
 62
     4
100
AcDbLine
 10
735.921664094122
 20
959.87090367708
 30
0.0
 11
734.7216640941219
 21
960.27090367708
 31
0.0
  0
LINE
  5
91
330
1F
100
AcDbEntity
  8
1
  6
DOT_CENTER
 62
     1
100
AcDbLine
 10
725.245097355683
 20
562.365014190365
 30
0.0
 11
725.245097355683
 21
285.365014190365
 31
0.0
  0
LINE
  5
92
330
1F
100
AcDbEntity
  8
1
  6
Continuous
 62
     3
100
AcDbLine
 10
158.987588171356
 20
398.537767755497
 30
0.0
 11
157.423072042324
 21
306.537767755498
 31
0.0
  0
LINE
  5
93
330
1F
100
AcDbEntity
  8
1
  6
Continuous
 62
     3
100
AcDbLine
 10
397.012525981915
 20
398.537767755497
 30
0.0
 11
414.577042110948
 21
306.537767755498
 31
0.0
  0
LINE
  5
94
330
1F
100
AcDbEntity
  8
1
  6
Continuous
 62
     3
100
AcDbLine
 10
853.422082470715
 20
306.537767755498
 30
0.0
 11
852.422082470715
 21
298.537767755498
 31
0.0
  0
LINE
  5
95
330
1F
100
AcDbEntity
  8
1
  6
Continuous
 62
     3
100
AcDbLine
 10
852.422082470715
 20
298.537767755498
 30
0.0
 11
582.668112402091
 21
298.537767755498
 31
0.0
  0
LINE
  5
96
330
1F
100
AcDbEntity
  8
1
  6
Continuous
 62
     3
100
AcDbLine
 10
581.668112402091
 20
306.537767755498
 30
0.0
 11
582.668112402091
 21
298.537767755498
 31
0.0
  0
LINE
  5
97
330
1F
100
AcDbEntity
  8
1
  6
Continuous
 62
     3
100
AcDbLine
 10
581.668112402091
 20
306.537767755498
 30
0.0
 11
853.422082470715
 21
306.537767755498
 31
0.0
  0
LINE
  5
98
330
1F
100
AcDbEntity
  8
1
  6
Continuous
 62
     3
100
AcDbLine
 10
606.232628531125
 20
398.537767755497
 30
0.0
 11
588.668112402091
 21
306.537767755498
 31
0.0
  0
LINE
  5
99
330
1F
100
AcDbEntity
  8
1
  6
Continuous
 62
     3
100
AcDbLine
 10
844.257566341685
 20
398.537767755497
 30
0.0
 11
845.822082470717
 21
306.537767755498
 31
0.0
  0
LINE
  5
9A
330
1F
100
AcDbEntity
  8
1
  6
DOT_CENTER
 62
     1
100
AcDbLine
 10
-128.126927635649
 20
562.365014190365
 30
0.0
 11
-128.126927635649
 21
285.365014190365
 31
0.0
  0
LINE
  5
9B
330
1F
100
AcDbEntity
  8
1
  6
Continuous
 62
     3
100
AcDbLine
 10
-9.11445873036882
 20
398.537767755497
 30
0.0
 11
8.45005739866485
 21
306.537767755498
 31
0.0
  0
LINE
  5
9C
330
1F
100
AcDbEntity
  8
1
  6
Continuous
 62
     3
100
AcDbLine
 10
-247.139396540929
 20
398.537767755497
 30
0.0
 11
-248.703912669961
 21
306.537767755498
 31
0.0
  0
LINE
  5
9D
330
1F
100
AcDbEntity
  8
1
  6
Continuous
 62
     3
100
AcDbLine
 10
15.0500573986627
 20
306.537767755498
 30
0.0
 11
14.0500573986627
 21
298.537767755498
 31
0.0
  0
LINE
  5
9E
330
1F
100
AcDbEntity
  8
1
  6
Continuous
 62
     3
100
AcDbLine
 10
14.0500573986627
 20
298.537767755498
 30
0.0
 11
-255.703912669961
 21
298.537767755498
 31
0.0
  0
LINE
  5
9F
330
1F
100
AcDbEntity
  8
1
  6
Continuous
 62
     3
100
AcDbLine
 10
-256.703912669961
 20
306.537767755498
 30
0.0
 11
-255.703912669961
 21
298.537767755498
 31
0.0
  0
LINE
  5
A0
330
1F
100
AcDbEntity
  8
1
  6
Continuous
 62
     3
100
AcDbLine
 10
-256.703912669961
 20
306.537767755498
 30
0.0
 11
15.0500573986627
 21
306.537767755498
 31
0.0
  0
LINE
  5
A1
330
1F
100
AcDbEntity
  8
1
  6
Continuous
 62
     3
100
AcDbLine
 10
792.99668446205
 20
533.537767755497
 30
0.0
 11
793.566008562507
 21
533.537767756022
 31
0.0
  0
LINE
  5
A2
330
1F
100
AcDbEntity
  8
1
  6
Continuous
 62
     3
100
AcDbLine
 10
793.200047861795
 20
531.545378359314
 30
0.0
 11
795.224459296523
 21
531.54537835993
 31
0.0
  0
LINE
  5
A3
330
1F
100
AcDbEntity
  8
1
  6
Continuous
 62
     3
100
AcDbLine
 10
793.566008562507
 20
533.537767756022
 30
0.0
 11
795.224459296523
 21
531.54537835993
 31
0.0
  0
LINE
  5
A4
330
1F
100
AcDbEntity
  8
1
  6
Continuous
 62
     3
100
AcDbLine
 10
795.224459296523
 20
531.54537835993
 30
0.0
 11
799.235739409226
 21
503.537767755498
 31
0.0
  0
LINE
  5
A5
330
1F
100
AcDbEntity
  8
1
  6
Continuous
 62
     3
100
AcDbLine
 10
799.235739409226
 20
503.537767755498
 30
0.0
 11
805.733924372363
 21
503.537767755497
 31
0.0
  0
LINE
  5
A6
330
1F
100
AcDbEntity
  8
1
  6
Continuous
 62
     3
100
AcDbLine
 10
805.733924372363
 20
503.537767755497
 30
0.0
 11
818.72532809615
 21
398.537767755497
 31
0.0
  0
LINE
  5
A7
330
1F
100
AcDbEntity
  8
1
  6
Continuous
 62
     3
100
AcDbLine
 10
655.265735414843
 20
531.54537835993
 30
0.0
 11
657.290146849568
 21
531.545378359314
 31
0.0
  0
LINE
  5
A8
330
1F
100
AcDbEntity
  8
1
  6
Continuous
 62
     3
100
AcDbLine
 10
656.924186148859
 20
533.537767756022
 30
0.0
 11
657.493510249312
 21
533.537767755497
 31
0.0
  0
LINE
  5
A9
330
1F
100
AcDbEntity
  8
1
  6
Continuous
 62
     3
100
AcDbLine
 10
655.265735414843
 20
531.54537835993
 30
0.0
 11
656.924186148859
 21
533.537767756022
 31
0.0
  0
LINE
  5
AA
330
1F
100
AcDbEntity
  8
1
  6
Continuous
 62
     3
100
AcDbLine
 10
651.25445530214
 20
503.537767755498
 30
0.0
 11
655.265735414843
 21
531.54537835993
 31
0.0
  0
LINE
  5
AB
330
1F
100
AcDbEntity
  8
1
  6
Continuous
 62
     3
100
AcDbLine
 10
644.756270339003
 20
503.537767755497
 30
0.0
 11
651.25445530214
 21
503.537767755498
 31
0.0
  0
LINE
  5
AC
330
1F
100
AcDbEntity
  8
1
  6
Continuous
 62
     3
100
AcDbLine
 10
631.764866615216
 20
398.537767755497
 30
0.0
 11
644.756270339003
 21
503.537767755497
 31
0.0
  0
LINE
  5
AD
330
1F
100
AcDbEntity
  8
1
  6
Continuous
 62
     3
100
AcDbLine
 10
650.416127675731
 20
503.537767755498
 30
0.0
 11
641.681953005998
 21
403.537767755497
 31
0.0
  0
LINE
  5
AE
330
1F
100
AcDbEntity
  8
1
  6
Continuous
 62
     3
100
AcDbLine
 10
811.474603421344
 20
403.537767755497
 30
0.0
 11
811.474603421344
 21
398.537767755497
 31
0.0
  0
LINE
  5
AF
330
1F
100
AcDbEntity
  8
1
  6
Continuous
 62
     3
100
AcDbLine
 10
804.807654038054
 20
403.537767755497
 30
0.0
 11
811.474603421344
 21
403.537767755497
 31
0.0
  0
LINE
  5
B0
330
1F
100
AcDbEntity
  8
1
  6
Continuous
 62
     3
100
AcDbLine
 10
638.474603421344
 20
403.537767755497
 30
0.0
 11
638.474603421344
 21
398.537767755497
 31
0.0
  0
LINE
  5
B1
330
1F
100
AcDbEntity
  8
1
  6
Continuous
 62
     3
100
AcDbLine
 10
645.682540673312
 20
403.537767755497
 30
0.0
 11
638.474603421344
 21
403.537767755497
 31
0.0
  0
LINE
  5
B2
330
1F
100
AcDbEntity
  8
1
  6
Continuous
 62
     3
100
AcDbLine
 10
796.058787685461
 20
503.537767755497
 30
0.0
 11
804.807654038054
 21
403.537767755497
 31
0.0
  0
LINE
  5
B3
330
1F
100
AcDbEntity
  8
1
  6
Continuous
 62
     3
100
AcDbLine
 10
796.058787685461
 20
503.537767755497
 30
0.0
 11
800.074067035635
 21
503.537767755498
 31
0.0
  0
LINE
  5
B4
330
1F
100
AcDbEntity
  8
1
  6
Continuous
 62
     3
100
AcDbLine
 10
808.808241705368
 20
403.537767755497
 30
0.0
 11
800.074067035635
 21
503.537767755498
 31
0.0
  0
LINE
  5
B5
330
1F
100
AcDbEntity
  8
1
  6
Continuous
 62
     3
100
AcDbLine
 10
650.416127675731
 20
503.537767755498
 30
0.0
 11
654.431407025905
 21
503.537767755497
 31
0.0
  0
LINE
  5
B6
330
1F
100
AcDbEntity
  8
0
  6
Continuous
 62
     3
100
AcDbLine
 10
725.245097355683
 20
398.537767755497
 30
0.0
 11
714.245097355683
 21
398.537767755497
 31
0.0
  0
LINE
  5
B7
330
1F
100
AcDbEntity
  8
0
  6
Continuous
 62
     3
100
AcDbLine
 10
720.245097355683
 20
414.537767755497
 30
0.0
 11
725.245097355683
 21
414.537767755497
 31
0.0
  0
LINE
  5
B8
330
1F
100
AcDbEntity
  8
0
  6
Continuous
 62
     3
100
AcDbLine
 10
720.245097355683
 20
414.537767755497
 30
0.0
 11
720.245097355683
 21
398.537767755497
 31
0.0
  0
LINE
  5
B9
330
1F
100
AcDbEntity
  8
0
  6
Continuous
 62
     3
100
AcDbLine
 10
736.245097355683
 20
398.537767755497
 30
0.0
 11
736.245097355683
 21
414.537767755497
 31
0.0
  0
LINE
  5
BA
330
1F
100
AcDbEntity
  8
0
  6
Continuous
 62
     3
100
AcDbLine
 10
725.245097355683
 20
414.537767755497
 30
0.0
 11
736.245097355683
 21
414.537767755497
 31
0.0
  0
LINE
  5
BB
330
1F
100
AcDbEntity
  8
0
  6
Continuous
 62
     3
100
AcDbLine
 10
736.245097355683
 20
398.537767755497
 30
0.0
 11
725.245097355683
 21
398.537767755497
 31
0.0
  0
LINE
  5
BC
330
1F
100
AcDbEntity
  8
0
  6
Continuous
 62
     3
100
AcDbLine
 10
725.245097355683
 20
414.537767755497
 30
0.0
 11
725.245097355683
 21
398.537767755497
 31
0.0
  0
LINE
  5
BD
330
1F
100
AcDbEntity
  8
1
  6
Continuous
 62
     3
100
AcDbLine
 10
663.80720057909
 20
548.537767755497
 30
0.0
 11
662.494870626201
 21
533.537767755497
 31
0.0
  0
LINE
  5
BE
330
1F
100
AcDbEntity
  8
1
  6
Continuous
 62
     3
100
AcDbLine
 10
786.682994132275
 20
548.537767755497
 30
0.0
 11
787.995324085164
 21
533.537767755497
 31
0.0
  0
LINE
  5
BF
330
1F
100
AcDbEntity
  8
1
  6
Continuous
 62
     3
100
AcDbLine
 10
663.80720057909
 20
548.537767755497
 30
0.0
 11
786.682994132275
 21
548.537767755497
 31
0.0
  0
LINE
  5
C0
330
1F
100
AcDbEntity
  8
1
  6
Continuous
 62
     3
100
AcDbLine
 10
657.290146849568
 20
531.545378359314
 30
0.0
 11
793.200047861795
 21
531.545378359314
 31
0.0
  0
LINE
  5
C1
330
1F
100
AcDbEntity
  8
1
  6
Continuous
 62
     3
100
AcDbLine
 10
657.493510249312
 20
533.537767755497
 30
0.0
 11
792.99668446205
 21
533.537767755497
 31
0.0
  0
LINE
  5
C2
330
1F
100
AcDbEntity
  8
1
  6
Continuous
 62
     3
100
AcDbLine
 10
796.058787685461
 20
503.537767755497
 30
0.0
 11
792.99668446205
 21
533.537767755497
 31
0.0
  0
LINE
  5
C3
330
1F
100
AcDbEntity
  8
1
  6
Continuous
 62
     3
100
AcDbLine
 10
654.431407025905
 20
503.537767755497
 30
0.0
 11
657.493510249312
 21
533.537767755497
 31
0.0
  0
LINE
  5
C4
330
1F
100
AcDbEntity
  8
1
  6
Continuous
 62
     3
100
AcDbLine
 10
725.245097355683
 20
503.537767755497
 30
0.0
 11
725.245097355683
 21
398.537767755497
 31
0.0
  0
LINE
  5
C5
330
1F
100
AcDbEntity
  8
1
  6
Continuous
 62
     3
100
AcDbLine
 10
654.431407025905
 20
503.537767755497
 30
0.0
 11
796.058787685461
 21
503.537767755497
 31
0.0
  0
LINE
  5
C6
330
1F
100
AcDbEntity
  8
1
  6
Continuous
 62
     3
100
AcDbLine
 10
804.807654038054
 20
403.537767755497
 30
0.0
 11
796.058787685461
 21
503.537767755497
 31
0.0
  0
LINE
  5
C7
330
1F
100
AcDbEntity
  8
1
  6
Continuous
 62
     3
100
AcDbLine
 10
769.879657028589
 20
398.537767755497
 30
0.0
 11
766.074562975024
 21
503.537767755497
 31
0.0
  0
LINE
  5
C8
330
1F
100
AcDbEntity
  8
1
  6
Continuous
 62
     3
100
AcDbLine
 10
680.610537682777
 20
398.537767755497
 30
0.0
 11
684.415631736342
 21
503.537767755497
 31
0.0
  0
LINE
  5
C9
330
1F
100
AcDbEntity
  8
1
  6
Continuous
 62
     3
100
AcDbLine
 10
645.682540673312
 20
403.537767755497
 30
0.0
 11
654.431407025905
 21
503.537767755497
 31
0.0
  0
LINE
  5
CA
330
1F
100
AcDbEntity
  8
1
  6
Continuous
 62
     3
100
AcDbLine
 10
606.232628531125
 20
398.537767755497
 30
0.0
 11
844.257566341685
 21
398.537767755497
 31
0.0
  0
LINE
  5
CB
330
1F
100
AcDbEntity
  8
0
  6
Continuous
 62
     3
100
AcDbLine
 10
-47.6381006190811
 20
503.537767755497
 30
0.0
 11
-34.6466968952941
 21
398.537767755497
 31
0.0
  0
LINE
  5
CC
330
1F
100
AcDbEntity
  8
0
  6
Continuous
 62
     3
100
AcDbLine
 10
-47.6381006190811
 20
503.537767755497
 30
0.0
 11
-54.136285582221
 21
503.537767755517
 31
0.0
  0
LINE
  5
CD
330
1F
100
AcDbEntity
  8
0
  6
Continuous
 62
     3
100
AcDbLine
 10
-54.136285582221
 20
503.537767755517
 30
0.0
 11
-58.6883274556369
 21
503.537767755497
 31
0.0
  0
LINE
  5
CE
330
1F
100
AcDbEntity
  8
0
  6
Continuous
 62
     3
100
AcDbLine
 10
-53.8381692870271
 20
509.537767755497
 30
0.0
 11
-53.3132373058711
 21
503.537767755497
 31
0.0
  0
LINE
  5
CF
330
1F
100
AcDbEntity
  8
0
  6
Continuous
 62
     3
100
AcDbLine
 10
-54.8613262119179
 20
509.537767755497
 30
0.0
 11
-53.8381692870271
 21
509.537767755497
 31
0.0
  0
LINE
  5
D0
330
1F
100
AcDbEntity
  8
0
  6
Continuous
 62
     3
100
AcDbLine
 10
-82.5843328235171
 20
513.537767755497
 30
0.0
 11
-128.126927635649
 21
513.537767755497
 31
0.0
  0
LINE
  5
D1
330
1F
100
AcDbEntity
  8
0
  6
Continuous
 62
     3
100
AcDbLine
 10
-128.126927635649
 20
539.537767727169
 30
0.0
 11
-128.126927635649
 21
513.537767755497
 31
0.0
  0
LINE
  5
D2
330
1F
100
AcDbEntity
  8
0
  6
Continuous
 62
     3
100
AcDbLine
 10
-128.126927635649
 20
545.537767727169
 30
0.0
 11
-128.126927635649
 21
539.537767727169
 31
0.0
  0
LINE
  5
D3
330
1F
100
AcDbEntity
  8
0
  6
Continuous
 62
     3
100
AcDbLine
 10
-128.126927635649
 20
414.537767755497
 30
0.0
 11
-128.126927635649
 21
398.537767755497
 31
0.0
  0
LINE
  5
D4
330
1F
100
AcDbEntity
  8
0
  6
Continuous
 62
     3
100
AcDbLine
 10
-128.126927635649
 20
464.537767755497
 30
0.0
 11
-128.126927635649
 21
414.537767755497
 31
0.0
  0
LINE
  5
D5
330
1F
100
AcDbEntity
  8
0
  6
Continuous
 62
     3
100
AcDbLine
 10
-128.126927635649
 20
503.537767755497
 30
0.0
 11
-128.126927635649
 21
464.537767755497
 31
0.0
  0
LINE
  5
D6
330
1F
100
AcDbEntity
  8
0
  6
Continuous
 62
     3
100
AcDbLine
 10
-68.1269276356491
 20
398.537767755497
 30
0.0
 11
-58.6883274556369
 21
398.537767755497
 31
0.0
  0
LINE
  5
D7
330
1F
100
AcDbEntity
  8
0
  6
Continuous
 62
     3
100
AcDbLine
 10
-127.126927635649
 20
458.537767755497
 30
0.0
 11
-81.1269276356491
 21
458.537767755497
 31
0.0
  0
LINE
  5
D8
330
1F
100
AcDbEntity
  8
0
  6
Continuous
 62
     3
100
AcDbLine
 10
-103.126927635649
 20
503.537767755497
 30
0.0
 11
-128.126927635649
 21
503.537767755497
 31
0.0
  0
LINE
  5
D9
330
1F
100
AcDbEntity
  8
0
  6
Continuous
 62
     3
100
AcDbLine
 10
-103.126927635649
 20
503.537767755497
 30
0.0
 11
-103.126927635649
 21
509.537767755497
 31
0.0
  0
LINE
  5
DA
330
1F
100
AcDbEntity
  8
0
  6
Continuous
 62
     3
100
AcDbLine
 10
-128.126927635649
 20
513.537767755497
 30
0.0
 11
-128.126927635649
 21
503.537767755497
 31
0.0
  0
LINE
  5
DB
330
1F
100
AcDbEntity
  8
0
  6
Continuous
 62
     3
100
AcDbLine
 10
-99.4263596959361
 20
503.537767755497
 30
0.0
 11
-102.126927635649
 21
503.537767755497
 31
0.0
  0
LINE
  5
DC
330
1F
100
AcDbEntity
  8
0
  6
Continuous
 62
     3
100
AcDbLine
 10
-98.4263596959361
 20
503.537767755497
 30
0.0
 11
-99.4263596959361
 21
503.537767755497
 31
0.0
  0
LINE
  5
DD
330
1F
100
AcDbEntity
  8
0
  6
Continuous
 62
     3
100
AcDbLine
 10
-103.126927635649
 20
509.537767755497
 30
0.0
 11
-102.126927635649
 21
509.537767755497
 31
0.0
  0
LINE
  5
DE
330
1F
100
AcDbEntity
  8
0
  6
Continuous
 62
     3
100
AcDbLine
 10
-102.126927635649
 20
509.537767755497
 30
0.0
 11
-102.126927635649
 21
503.537767755497
 31
0.0
  0
LINE
  5
DF
330
1F
100
AcDbEntity
  8
0
  6
Continuous
 62
     3
100
AcDbLine
 10
-87.2013875356149
 20
500.537767755497
 30
0.0
 11
-88.2013875356149
 21
500.537767755497
 31
0.0
  0
LINE
  5
E0
330
1F
100
AcDbEntity
  8
0
  6
Continuous
 62
     3
100
AcDbLine
 10
-81.1269276356491
 20
464.537767755497
 30
0.0
 11
-81.1269276356491
 21
458.537767755497
 31
0.0
  0
LINE
  5
E1
330
1F
100
AcDbEntity
  8
0
  6
Continuous
 62
     3
100
AcDbLine
 10
-127.126927635649
 20
458.537767755497
 30
0.0
 11
-127.126927635649
 21
464.537767755497
 31
0.0
  0
LINE
  5
E2
330
1F
100
AcDbEntity
  8
0
  6
Continuous
 62
     3
100
AcDbLine
 10
-127.126927635649
 20
464.537767755497
 30
0.0
 11
-128.126927635649
 21
464.537767755497
 31
0.0
  0
LINE
  5
E3
330
1F
100
AcDbEntity
  8
0
  6
Continuous
 62
     3
100
AcDbLine
 10
-58.6883274556369
 20
503.537767755497
 30
0.0
 11
-58.6883274556369
 21
398.537767755497
 31
0.0
  0
LINE
  5
E4
330
1F
100
AcDbEntity
  8
0
  6
Continuous
 62
     3
100
AcDbLine
 10
-58.6883274556369
 20
503.537767755497
 30
0.0
 11
-65.4976620581251
 21
503.537767755501
 31
0.0
  0
LINE
  5
E5
330
1F
100
AcDbEntity
  8
0
  6
Continuous
 62
     3
100
AcDbLine
 10
-68.1269276356491
 20
398.537767755497
 30
0.0
 11
-65.9525881764689
 21
458.537767755497
 31
0.0
  0
LINE
  5
E6
330
1F
100
AcDbEntity
  8
0
  6
Continuous
 62
     3
100
AcDbLine
 10
-75.1269276356491
 20
458.537767755497
 30
0.0
 11
-75.9400660880069
 21
481.823006431304
 31
0.0
  0
LINE
  5
E7
330
1F
100
AcDbEntity
  8
0
  6
Continuous
 62
     3
100
AcDbLine
 10
-65.9525881764689
 20
458.537767755497
 30
0.0
 11
-74.203268364914
 21
458.537767755497
 31
0.0
  0
LINE
  5
E8
330
1F
100
AcDbEntity
  8
0
  6
Continuous
 62
     3
100
AcDbLine
 10
-80.1269276356491
 20
458.537767755497
 30
0.0
 11
-76.1269276356491
 21
458.537767755497
 31
0.0
  0
LINE
  5
E9
330
1F
100
AcDbEntity
  8
0
  6
Continuous
 62
     3
100
AcDbLine
 10
-75.1269276356491
 20
458.537767755497
 30
0.0
 11
-76.1269276356491
 21
458.537767755497
 31
0.0
  0
LINE
  5
EA
330
1F
100
AcDbEntity
  8
0
  6
Continuous
 62
     3
100
AcDbLine
 10
-74.203268364914
 20
458.537767755497
 30
0.0
 11
-75.1269276356491
 21
458.537767755497
 31
0.0
  0
LINE
  5
EB
330
1F
100
AcDbEntity
  8
0
  6
Continuous
 62
     3
100
AcDbLine
 10
-76.1269276356491
 20
458.537767755497
 30
0.0
 11
-76.9400660880069
 21
481.823006431304
 31
0.0
  0
LINE
  5
EC
330
1F
100
AcDbEntity
  8
0
  6
Continuous
 62
     3
100
AcDbLine
 10
-80.1269276356491
 20
458.537767755497
 30
0.0
 11
-80.1269276356491
 21
464.537767755497
 31
0.0
  0
LINE
  5
ED
330
1F
100
AcDbEntity
  8
0
  6
Continuous
 62
     3
100
AcDbLine
 10
-80.1269276356491
 20
464.537767755497
 30
0.0
 11
-81.1269276356491
 21
464.537767755497
 31
0.0
  0
LINE
  5
EE
330
1F
100
AcDbEntity
  8
0
  6
Continuous
 62
     3
100
AcDbLine
 10
-41.8143709532781
 20
403.537767755497
 30
0.0
 11
-41.376927635649
 21
398.537767755497
 31
0.0
  0
LINE
  5
EF
330
1F
100
AcDbEntity
  8
0
  6
Continuous
 62
     3
100
AcDbLine
 10
-47.7785780650991
 20
398.537767755498
 30
0.0
 11
-47.4692589288179
 21
403.537767755497
 31
0.0
  0
LINE
  5
F0
330
1F
100
AcDbEntity
  8
0
  6
Continuous
 62
     3
100
AcDbLine
 10
-58.6883274556369
 20
398.537767755497
 30
0.0
 11
-49.3399778850851
 21
398.537767755497
 31
0.0
  0
LINE
  5
F1
330
1F
100
AcDbEntity
  8
0
  6
Continuous
 62
     3
100
AcDbLine
 10
-49.3399778850851
 20
398.537767755497
 30
0.0
 11
-49.3399778850851
 21
403.537767755497
 31
0.0
  0
LINE
  5
F2
330
1F
100
AcDbEntity
  8
0
  6
Continuous
 62
     3
100
AcDbLine
 10
-47.7785780650991
 20
398.537767755498
 30
0.0
 11
-48.876927635649
 21
398.537767755497
 31
0.0
  0
LINE
  5
F3
330
1F
100
AcDbEntity
  8
0
  6
Continuous
 62
     3
100
AcDbLine
 10
-48.876927635649
 20
398.537767755497
 30
0.0
 11
-49.3399778850851
 21
398.537767755497
 31
0.0
  0
LINE
  5
F4
330
1F
100
AcDbEntity
  8
0
  6
Continuous
 62
     3
100
AcDbLine
 10
-41.376927635649
 20
398.537767755497
 30
0.0
 11
-47.7785780650991
 21
398.537767755498
 31
0.0
  0
LINE
  5
F5
330
1F
100
AcDbEntity
  8
0
  6
Continuous
 62
     3
100
AcDbLine
 10
-41.376927635649
 20
398.537767755497
 30
0.0
 11
-34.6466968952941
 21
398.537767755497
 31
0.0
  0
LINE
  5
F6
330
1F
100
AcDbEntity
  8
0
  6
Continuous
 62
     3
100
AcDbLine
 10
-47.4692589288179
 20
403.537767755497
 30
0.0
 11
-41.8143709532781
 21
403.537767755497
 31
0.0
  0
LINE
  5
F7
330
1F
100
AcDbEntity
  8
0
  6
Continuous
 62
     3
100
AcDbLine
 10
-49.3399778850851
 20
403.537767755497
 30
0.0
 11
-47.4692589288179
 21
403.537767755497
 31
0.0
  0
LINE
  5
F8
330
1F
100
AcDbEntity
  8
0
  6
Continuous
 62
     3
100
AcDbLine
 10
-68.1269276356491
 20
398.537767755497
 30
0.0
 11
-117.126927635649
 21
398.537767755497
 31
0.0
  0
LINE
  5
F9
330
1F
100
AcDbEntity
  8
0
  6
Continuous
 62
     3
100
AcDbLine
 10
-117.126927635649
 20
398.537767755497
 30
0.0
 11
-128.126927635649
 21
398.537767755497
 31
0.0
  0
LINE
  5
FA
330
1F
100
AcDbEntity
  8
0
  6
Continuous
 62
     3
100
AcDbLine
 10
-128.126927635649
 20
414.537767755497
 30
0.0
 11
-117.126927635649
 21
414.537767755497
 31
0.0
  0
LINE
  5
FB
330
1F
100
AcDbEntity
  8
0
  6
Continuous
 62
     3
100
AcDbLine
 10
-117.126927635649
 20
398.537767755497
 30
0.0
 11
-117.126927635649
 21
414.537767755497
 31
0.0
  0
LINE
  5
FC
330
1F
100
AcDbEntity
  8
0
  6
Continuous
 62
     3
100
AcDbLine
 10
-128.126927635649
 20
548.537767755497
 30
0.0
 11
-128.126927635649
 21
545.537767727169
 31
0.0
  0
LINE
  5
FD
330
1F
100
AcDbEntity
  8
0
  6
Continuous
 62
     3
100
AcDbLine
 10
-128.126927635649
 20
548.537767755497
 30
0.0
 11
-66.6890308590571
 21
548.537767755497
 31
0.0
  0
LINE
  5
FE
330
1F
100
AcDbEntity
  8
0
  6
Continuous
 62
     3
100
AcDbLine
 10
-66.6890308590571
 20
548.537767755497
 30
0.0
 11
-65.376700906168
 21
533.537767755497
 31
0.0
  0
LINE
  5
FF
330
1F
100
AcDbEntity
  8
0
  6
Continuous
 62
     3
100
AcDbLine
 10
-71.485344040939
 20
533.537767755497
 30
0.0
 11
-66.7491151078341
 21
533.537767755497
 31
0.0
  0
LINE
  5
100
330
1F
100
AcDbEntity
  8
0
  6
Continuous
 62
     3
100
AcDbLine
 10
-77.0452085640129
 20
533.537767755497
 30
0.0
 11
-71.485344040939
 21
533.537767755497
 31
0.0
  0
LINE
  5
101
330
1F
100
AcDbEntity
  8
0
  6
Continuous
 62
     3
100
AcDbLine
 10
-65.3398391789051
 20
531.545378359314
 30
0.0
 11
-57.5363121916371
 21
531.545378359343
 31
0.0
  0
LINE
  5
102
330
1F
100
AcDbEntity
  8
0
  6
Continuous
 62
     3
100
AcDbLine
 10
-58.6883274556369
 20
503.537767755497
 30
0.0
 11
-65.4976620581251
 21
503.537767755501
 31
0.0
  0
LINE
  5
103
330
1F
100
AcDbEntity
  8
0
  6
Continuous
 62
     3
100
AcDbLine
 10
-66.7491151078341
 20
533.537767755497
 30
0.0
 11
-59.1943750081671
 21
533.537767755497
 31
0.0
  0
LINE
  5
104
330
1F
100
AcDbEntity
  8
0
  6
Continuous
 62
     3
100
AcDbLine
 10
-71.485344040939
 20
533.537767755497
 30
0.0
 11
-74.203268364914
 21
458.537767755497
 31
0.0
  0
LINE
  5
105
330
1F
100
AcDbEntity
  8
0
  6
Continuous
 62
     3
100
AcDbLine
 10
-182.050586906384
 20
458.537767755497
 30
0.0
 11
-184.768511230359
 21
533.537767755497
 31
0.0
  0
LINE
  5
106
330
1F
100
AcDbEntity
  8
0
  6
Continuous
 62
     3
100
AcDbLine
 10
-197.059480263131
 20
533.537767755497
 30
0.0
 11
-189.504740163464
 21
533.537767755497
 31
0.0
  0
LINE
  5
107
330
1F
100
AcDbEntity
  8
0
  6
Continuous
 62
     3
100
AcDbLine
 10
-190.756193213173
 20
503.537767755497
 30
0.0
 11
-197.565527815661
 21
503.537767755497
 31
0.0
  0
LINE
  5
108
330
1F
100
AcDbEntity
  8
0
  6
Continuous
 62
     3
100
AcDbLine
 10
-198.717543079661
 20
531.545378359343
 30
0.0
 11
-190.914016092393
 21
531.545378359314
 31
0.0
  0
LINE
  5
109
330
1F
100
AcDbEntity
  8
0
  6
Continuous
 62
     3
100
AcDbLine
 10
-184.768511230359
 20
533.537767755497
 30
0.0
 11
-179.208646707285
 21
533.537767755497
 31
0.0
  0
LINE
  5
10A
330
1F
100
AcDbEntity
  8
0
  6
Continuous
 62
     3
100
AcDbLine
 10
-189.504740163464
 20
533.537767755497
 30
0.0
 11
-184.768511230359
 21
533.537767755497
 31
0.0
  0
LINE
  5
10B
330
1F
100
AcDbEntity
  8
0
  6
Continuous
 62
     3
100
AcDbLine
 10
-190.87715436513
 20
533.537767755497
 30
0.0
 11
-189.564824412241
 21
548.537767755497
 31
0.0
  0
LINE
  5
10C
330
1F
100
AcDbEntity
  8
0
  6
Continuous
 62
     3
100
AcDbLine
 10
-189.564824412241
 20
548.537767755497
 30
0.0
 11
-128.126927635649
 21
548.537767755497
 31
0.0
  0
LINE
  5
10D
330
1F
100
AcDbEntity
  8
0
  6
Continuous
 62
     3
100
AcDbLine
 10
-133.126927635649
 20
414.537767755497
 30
0.0
 11
-133.126927635649
 21
398.537767755497
 31
0.0
  0
LINE
  5
10E
330
1F
100
AcDbEntity
  8
0
  6
Continuous
 62
     3
100
AcDbLine
 10
-133.126927635649
 20
414.537767755497
 30
0.0
 11
-128.126927635649
 21
414.537767755497
 31
0.0
  0
LINE
  5
10F
330
1F
100
AcDbEntity
  8
0
  6
Continuous
 62
     3
100
AcDbLine
 10
-128.126927635649
 20
398.537767755497
 30
0.0
 11
-139.126927635649
 21
398.537767755497
 31
0.0
  0
LINE
  5
110
330
1F
100
AcDbEntity
  8
0
  6
Continuous
 62
     3
100
AcDbLine
 10
-139.126927635649
 20
398.537767755497
 30
0.0
 11
-188.126927635649
 21
398.537767755497
 31
0.0
  0
LINE
  5
111
330
1F
100
AcDbEntity
  8
0
  6
Continuous
 62
     3
100
AcDbLine
 10
-208.78459634248
 20
403.537767755497
 30
0.0
 11
-206.913877386213
 21
403.537767755497
 31
0.0
  0
LINE
  5
112
330
1F
100
AcDbEntity
  8
0
  6
Continuous
 62
     3
100
AcDbLine
 10
-214.43948431802
 20
403.537767755497
 30
0.0
 11
-208.78459634248
 21
403.537767755497
 31
0.0
  0
LINE
  5
113
330
1F
100
AcDbEntity
  8
0
  6
Continuous
 62
     3
100
AcDbLine
 10
-221.607158376004
 20
398.537767755497
 30
0.0
 11
-214.876927635649
 21
398.537767755497
 31
0.0
  0
LINE
  5
114
330
1F
100
AcDbEntity
  8
0
  6
Continuous
 62
     3
100
AcDbLine
 10
-208.475277206199
 20
398.537767755498
 30
0.0
 11
-214.876927635649
 21
398.537767755497
 31
0.0
  0
LINE
  5
115
330
1F
100
AcDbEntity
  8
0
  6
Continuous
 62
     3
100
AcDbLine
 10
-206.913877386213
 20
398.537767755497
 30
0.0
 11
-207.376927635649
 21
398.537767755497
 31
0.0
  0
LINE
  5
116
330
1F
100
AcDbEntity
  8
0
  6
Continuous
 62
     3
100
AcDbLine
 10
-207.376927635649
 20
398.537767755497
 30
0.0
 11
-208.475277206199
 21
398.537767755498
 31
0.0
  0
LINE
  5
117
330
1F
100
AcDbEntity
  8
0
  6
Continuous
 62
     3
100
AcDbLine
 10
-206.913877386213
 20
403.537767755497
 30
0.0
 11
-206.913877386213
 21
398.537767755497
 31
0.0
  0
LINE
  5
118
330
1F
100
AcDbEntity
  8
0
  6
Continuous
 62
     3
100
AcDbLine
 10
-206.913877386213
 20
398.537767755497
 30
0.0
 11
-197.565527815661
 21
398.537767755497
 31
0.0
  0
LINE
  5
119
330
1F
100
AcDbEntity
  8
0
  6
Continuous
 62
     3
100
AcDbLine
 10
-208.78459634248
 20
403.537767755497
 30
0.0
 11
-208.475277206199
 21
398.537767755498
 31
0.0
  0
LINE
  5
11A
330
1F
100
AcDbEntity
  8
0
  6
Continuous
 62
     3
100
AcDbLine
 10
-214.876927635649
 20
398.537767755497
 30
0.0
 11
-214.43948431802
 21
403.537767755497
 31
0.0
  0
LINE
  5
11B
330
1F
100
AcDbEntity
  8
0
  6
Continuous
 62
     3
100
AcDbLine
 10
-175.126927635649
 20
464.537767755497
 30
0.0
 11
-176.126927635649
 21
464.537767755497
 31
0.0
  0
LINE
  5
11C
330
1F
100
AcDbEntity
  8
0
  6
Continuous
 62
     3
100
AcDbLine
 10
-176.126927635649
 20
464.537767755497
 30
0.0
 11
-176.126927635649
 21
458.537767755497
 31
0.0
  0
LINE
  5
11D
330
1F
100
AcDbEntity
  8
0
  6
Continuous
 62
     3
100
AcDbLine
 10
-179.313789183291
 20
481.823006431304
 30
0.0
 11
-180.126927635649
 21
458.537767755497
 31
0.0
  0
LINE
  5
11E
330
1F
100
AcDbEntity
  8
0
  6
Continuous
 62
     3
100
AcDbLine
 10
-181.126927635649
 20
458.537767755497
 30
0.0
 11
-182.050586906384
 21
458.537767755497
 31
0.0
  0
LINE
  5
11F
330
1F
100
AcDbEntity
  8
0
  6
Continuous
 62
     3
100
AcDbLine
 10
-180.126927635649
 20
458.537767755497
 30
0.0
 11
-181.126927635649
 21
458.537767755497
 31
0.0
  0
LINE
  5
120
330
1F
100
AcDbEntity
  8
0
  6
Continuous
 62
     3
100
AcDbLine
 10
-180.126927635649
 20
458.537767755497
 30
0.0
 11
-176.126927635649
 21
458.537767755497
 31
0.0
  0
LINE
  5
121
330
1F
100
AcDbEntity
  8
0
  6
Continuous
 62
     3
100
AcDbLine
 10
-182.050586906384
 20
458.537767755497
 30
0.0
 11
-190.301267094829
 21
458.537767755497
 31
0.0
  0
LINE
  5
122
330
1F
100
AcDbEntity
  8
0
  6
Continuous
 62
     3
100
AcDbLine
 10
-180.313789183291
 20
481.823006431304
 30
0.0
 11
-181.126927635649
 21
458.537767755497
 31
0.0
  0
LINE
  5
123
330
1F
100
AcDbEntity
  8
0
  6
Continuous
 62
     3
100
AcDbLine
 10
-190.301267094829
 20
458.537767755497
 30
0.0
 11
-188.126927635649
 21
398.537767755497
 31
0.0
  0
LINE
  5
124
330
1F
100
AcDbEntity
  8
0
  6
Continuous
 62
     3
100
AcDbLine
 10
-190.756193213173
 20
503.537767755497
 30
0.0
 11
-197.565527815661
 21
503.537767755497
 31
0.0
  0
LINE
  5
125
330
1F
100
AcDbEntity
  8
0
  6
Continuous
 62
     3
100
AcDbLine
 10
-197.565527815661
 20
398.537767755497
 30
0.0
 11
-197.565527815661
 21
503.537767755497
 31
0.0
  0
LINE
  5
126
330
1F
100
AcDbEntity
  8
0
  6
Continuous
 62
     3
100
AcDbLine
 10
-128.126927635649
 20
464.537767755497
 30
0.0
 11
-129.126927635649
 21
464.537767755497
 31
0.0
  0
LINE
  5
127
330
1F
100
AcDbEntity
  8
0
  6
Continuous
 62
     3
100
AcDbLine
 10
-129.126927635649
 20
464.537767755497
 30
0.0
 11
-129.126927635649
 21
458.537767755497
 31
0.0
  0
LINE
  5
128
330
1F
100
AcDbEntity
  8
0
  6
Continuous
 62
     3
100
AcDbLine
 10
-175.126927635649
 20
458.537767755497
 30
0.0
 11
-175.126927635649
 21
464.537767755497
 31
0.0
  0
LINE
  5
129
330
1F
100
AcDbEntity
  8
0
  6
Continuous
 62
     3
100
AcDbLine
 10
-168.052467735683
 20
500.537767755497
 30
0.0
 11
-169.052467735683
 21
500.537767755497
 31
0.0
  0
LINE
  5
12A
330
1F
100
AcDbEntity
  8
0
  6
Continuous
 62
     3
100
AcDbLine
 10
-154.126927635649
 20
503.537767755497
 30
0.0
 11
-154.126927635649
 21
509.537767755497
 31
0.0
  0
LINE
  5
12B
330
1F
100
AcDbEntity
  8
0
  6
Continuous
 62
     3
100
AcDbLine
 10
-154.126927635649
 20
509.537767755497
 30
0.0
 11
-153.126927635649
 21
509.537767755497
 31
0.0
  0
LINE
  5
12C
330
1F
100
AcDbEntity
  8
0
  6
Continuous
 62
     3
100
AcDbLine
 10
-156.827495575362
 20
503.537767755497
 30
0.0
 11
-157.827495575362
 21
503.537767755497
 31
0.0
  0
LINE
  5
12D
330
1F
100
AcDbEntity
  8
0
  6
Continuous
 62
     3
100
AcDbLine
 10
-154.126927635649
 20
503.537767755497
 30
0.0
 11
-156.827495575362
 21
503.537767755497
 31
0.0
  0
LINE
  5
12E
330
1F
100
AcDbEntity
  8
0
  6
Continuous
 62
     3
100
AcDbLine
 10
-153.126927635649
 20
509.537767755497
 30
0.0
 11
-153.126927635649
 21
503.537767755497
 31
0.0
  0
LINE
  5
12F
330
1F
100
AcDbEntity
  8
0
  6
Continuous
 62
     3
100
AcDbLine
 10
-128.126927635649
 20
503.537767755497
 30
0.0
 11
-153.126927635649
 21
503.537767755497
 31
0.0
  0
LINE
  5
130
330
1F
100
AcDbEntity
  8
0
  6
Continuous
 62
     3
100
AcDbLine
 10
-175.126927635649
 20
458.537767755497
 30
0.0
 11
-129.126927635649
 21
458.537767755497
 31
0.0
  0
LINE
  5
131
330
1F
100
AcDbEntity
  8
0
  6
Continuous
 62
     3
100
AcDbLine
 10
-197.565527815661
 20
398.537767755497
 30
0.0
 11
-188.126927635649
 21
398.537767755497
 31
0.0
  0
LINE
  5
132
330
1F
100
AcDbEntity
  8
0
  6
Continuous
 62
     3
100
AcDbLine
 10
-128.126927635649
 20
513.537767755497
 30
0.0
 11
-173.669522447781
 21
513.537767755497
 31
0.0
  0
LINE
  5
133
330
1F
100
AcDbEntity
  8
0
  6
Continuous
 62
     3
100
AcDbLine
 10
-202.415685984271
 20
509.537767755497
 30
0.0
 11
-201.39252905938
 21
509.537767755497
 31
0.0
  0
LINE
  5
134
330
1F
100
AcDbEntity
  8
0
  6
Continuous
 62
     3
100
AcDbLine
 10
-202.940617965427
 20
503.537767755497
 30
0.0
 11
-202.415685984271
 21
509.537767755497
 31
0.0
  0
LINE
  5
135
330
1F
100
AcDbEntity
  8
0
  6
Continuous
 62
     3
100
AcDbLine
 10
-197.565527815661
 20
503.537767755497
 30
0.0
 11
-202.117569689077
 21
503.537767755517
 31
0.0
  0
LINE
  5
136
330
1F
100
AcDbEntity
  8
0
  6
Continuous
 62
     3
100
AcDbLine
 10
-202.117569689077
 20
503.537767755517
 30
0.0
 11
-208.615754652217
 21
503.537767755497
 31
0.0
  0
LINE
  5
137
330
1F
100
AcDbEntity
  8
0
  6
Continuous
 62
     3
100
AcDbLine
 10
-221.607158376004
 20
398.537767755497
 30
0.0
 11
-208.615754652217
 21
503.537767755497
 31
0.0
  0
LINE
  5
138
330
1F
100
AcDbEntity
  8
1
  6
Continuous
 62
     3
100
AcDbLine
 10
-247.139396540929
 20
398.537767755497
 30
0.0
 11
-221.607158376004
 21
398.537767755497
 31
0.0
  0
LINE
  5
139
330
1F
100
AcDbEntity
  8
1
  6
Continuous
 62
     3
100
AcDbLine
 10
-34.6466968952941
 20
398.537767755497
 30
0.0
 11
-9.11445873036882
 21
398.537767755497
 31
0.0
  0
LINE
  5
13A
330
1F
100
AcDbEntity
  8
0
  6
Continuous
 62
     3
100
AcDbLine
 10
247.000056999389
 20
832.658851667393
 30
0.0
 11
247.000056999389
 21
828.732411477148
 31
0.0
  0
LINE
  5
13B
330
1F
100
AcDbEntity
  8
0
  6
Continuous
 62
     3
100
AcDbLine
 10
250.409297676746
 20
825.323170799791
 30
0.0
 11
254.33573786699
 21
825.323170799791
 31
0.0
  0
LINE
  5
13C
330
1F
100
AcDbEntity
  8
0
  6
Continuous
 62
     3
100
AcDbLine
 10
301.664376131787
 20
825.323170799791
 30
0.0
 11
305.590816322031
 21
825.323170799791
 31
0.0
  0
LINE
  5
13D
330
1F
100
AcDbEntity
  8
0
  6
Continuous
 62
     3
100
AcDbLine
 10
309.000056999389
 20
828.732411477148
 30
0.0
 11
309.000056999389
 21
832.658851667393
 31
0.0
  0
LINE
  5
13E
330
1F
100
AcDbEntity
  8
0
  6
Continuous
 62
     3
100
AcDbLine
 10
309.000056999389
 20
879.98748993219
 30
0.0
 11
309.000056999389
 21
883.913930122434
 31
0.0
  0
LINE
  5
13F
330
1F
100
AcDbEntity
  8
0
  6
Continuous
 62
     3
100
AcDbLine
 10
305.590816322031
 20
887.323170799791
 30
0.0
 11
301.664376131787
 21
887.323170799791
 31
0.0
  0
LINE
  5
140
330
1F
100
AcDbEntity
  8
0
  6
Continuous
 62
     3
100
AcDbLine
 10
254.33573786699
 20
887.323170799791
 30
0.0
 11
250.409297676746
 21
887.323170799791
 31
0.0
  0
LINE
  5
141
330
1F
100
AcDbEntity
  8
0
  6
Continuous
 62
     3
100
AcDbLine
 10
247.000056999389
 20
883.913930122434
 30
0.0
 11
247.000056999389
 21
879.98748993219
 31
0.0
  0
LINE
  5
142
330
1F
100
AcDbEntity
  8
0
  6
Continuous
 62
     3
100
AcDbLine
 10
225.375505227534
 20
940.235682136266
 30
0.0
 11
230.680808840699
 21
934.9303785231
 31
0.0
  0
LINE
  5
143
330
1F
100
AcDbEntity
  8
0
  6
Continuous
 62
     3
100
AcDbLine
 10
213.009859382656
 20
924.074757906162
 30
0.0
 11
218.083318120743
 21
936.323170799792
 31
0.0
  0
LINE
  5
144
330
1F
100
AcDbEntity
  8
0
  6
Continuous
 62
     3
100
AcDbLine
 10
204.603087380387
 20
936.81199781636
 30
0.0
 11
193.552860543832
 21
925.761770979804
 31
0.0
  0
LINE
  5
145
330
1F
100
AcDbEntity
  8
0
  6
Continuous
 62
     3
100
AcDbLine
 10
195.213107249494
 20
939.794783136692
 30
0.0
 11
190.528444663156
 21
935.110120550355
 31
0.0
  0
LINE
  5
146
330
1F
100
AcDbEntity
  8
0
  6
Continuous
 62
     3
100
AcDbLine
 10
195.213107249494
 20
939.794783136692
 30
0.0
 11
195.213107249494
 21
940.413421409254
 31
0.0
  0
LINE
  5
147
330
1F
100
AcDbEntity
  8
0
  6
Continuous
 62
     3
100
AcDbLine
 10
211.101272343525
 20
930.313812853222
 30
0.0
 11
204.603087380387
 21
936.81199781636
 31
0.0
  0
LINE
  5
148
330
1F
100
AcDbEntity
  8
0
  6
Continuous
 62
     3
100
AcDbLine
 10
219.265097538748
 20
936.323170799792
 30
0.0
 11
219.352586202273
 21
936.235682136266
 31
0.0
  0
LINE
  5
149
330
1F
100
AcDbEntity
  8
0
  6
Continuous
 62
     3
100
AcDbLine
 10
219.265097538748
 20
936.323170799792
 30
0.0
 11
219.265097538748
 21
940.323170799792
 31
0.0
  0
LINE
  5
14A
330
1F
100
AcDbEntity
  8
0
  6
Continuous
 62
     3
100
AcDbLine
 10
225.375505227534
 20
936.235682136266
 30
0.0
 11
230.680808840699
 21
930.9303785231
 31
0.0
  0
LINE
  5
14B
330
1F
100
AcDbEntity
  8
0
  6
Continuous
 62
     3
100
AcDbLine
 10
218.083318120743
 20
936.323170799792
 30
0.0
 11
219.265097538748
 21
936.323170799792
 31
0.0
  0
LINE
  5
14C
330
1F
100
AcDbEntity
  8
0
  6
Continuous
 62
     3
100
AcDbLine
 10
219.265097538748
 20
940.323170799792
 30
0.0
 11
245.260801967979
 21
940.323170799792
 31
0.0
  0
LINE
  5
14D
330
1F
100
AcDbEntity
  8
0
  6
Continuous
 62
     3
100
AcDbLine
 10
245.260801967979
 20
940.323170799792
 30
0.0
 11
248.114216057305
 21
937.469756710466
 31
0.0
  0
LINE
  5
14E
330
1F
100
AcDbEntity
  8
0
  6
Continuous
 62
     3
100
AcDbLine
 10
307.88589794281
 20
937.469756710466
 30
0.0
 11
310.739312032136
 21
940.323170799792
 31
0.0
  0
LINE
  5
14F
330
1F
100
AcDbEntity
  8
0
  6
Continuous
 62
     3
100
AcDbLine
 10
219.352586202273
 20
940.235682136266
 30
0.0
 11
219.265097538748
 21
940.323170799792
 31
0.0
  0
LINE
  5
150
330
1F
100
AcDbEntity
  8
0
  6
Continuous
 62
     3
100
AcDbLine
 10
225.375505227534
 20
940.235682136266
 30
0.0
 11
219.352586202273
 21
940.235682136266
 31
0.0
  0
LINE
  5
151
330
1F
100
AcDbEntity
  8
0
  6
Continuous
 62
     3
100
AcDbLine
 10
219.352586202273
 20
936.235682136266
 30
0.0
 11
225.375505227534
 21
936.235682136266
 31
0.0
  0
LINE
  5
152
330
1F
100
AcDbEntity
  8
0
  6
Continuous
 62
     3
100
AcDbLine
 10
204.603087380387
 20
949.803401540147
 30
0.0
 11
218.083318120743
 21
936.323170799792
 31
0.0
  0
LINE
  5
153
330
1F
100
AcDbEntity
  8
0
  6
Continuous
 62
     3
100
AcDbLine
 10
195.213107249494
 20
940.413421409254
 30
0.0
 11
204.603087380387
 21
949.803401540147
 31
0.0
  0
LINE
  5
154
330
1F
100
AcDbEntity
  8
0
  6
Continuous
 62
     3
100
AcDbLine
 10
219.352586202273
 20
936.235682136266
 30
0.0
 11
219.352586202273
 21
940.235682136266
 31
0.0
  0
LINE
  5
155
330
1F
100
AcDbEntity
  8
0
  6
Continuous
 62
     3
100
AcDbLine
 10
336.647527797841
 20
936.235682136266
 30
0.0
 11
336.647527797841
 21
940.235682136266
 31
0.0
  0
LINE
  5
156
330
1F
100
AcDbEntity
  8
0
  6
Continuous
 62
     3
100
AcDbLine
 10
336.735016461367
 20
936.323170799792
 30
0.0
 11
336.735016461367
 21
940.323170799792
 31
0.0
  0
LINE
  5
157
330
1F
100
AcDbEntity
  8
0
  6
Continuous
 62
     3
100
AcDbLine
 10
336.647527797841
 20
940.235682136266
 30
0.0
 11
330.624608772581
 21
940.235682136266
 31
0.0
  0
LINE
  5
158
330
1F
100
AcDbEntity
  8
0
  6
Continuous
 62
     3
100
AcDbLine
 10
310.739312032136
 20
940.323170799792
 30
0.0
 11
336.735016461367
 21
940.323170799792
 31
0.0
  0
LINE
  5
159
330
1F
100
AcDbEntity
  8
0
  6
Continuous
 62
     3
100
AcDbLine
 10
336.735016461367
 20
940.323170799792
 30
0.0
 11
336.647527797841
 21
940.235682136266
 31
0.0
  0
LINE
  5
15A
330
1F
100
AcDbEntity
  8
0
  6
Continuous
 62
     3
100
AcDbLine
 10
325.319305159415
 20
934.9303785231
 30
0.0
 11
330.624608772581
 21
940.235682136266
 31
0.0
  0
LINE
  5
15B
330
1F
100
AcDbEntity
  8
0
  6
Continuous
 62
     3
100
AcDbLine
 10
188.348406570607
 20
936.671520370342
 30
0.0
 11
189.909806390595
 21
935.110120550355
 31
0.0
  0
LINE
  5
15C
330
1F
100
AcDbEntity
  8
0
  6
Continuous
 62
     3
100
AcDbLine
 10
360.750057000057
 20
939.323170799792
 30
0.0
 11
360.750057000057
 21
936.207730472698
 31
0.0
  0
LINE
  5
15D
330
1F
100
AcDbEntity
  8
0
  6
Continuous
 62
     3
100
AcDbLine
 10
202.511516512687
 20
908.323170799792
 30
0.0
 11
199.500057000057
 21
908.323170799792
 31
0.0
  0
LINE
  5
15E
330
1F
100
AcDbEntity
  8
0
  6
Continuous
 62
     3
100
AcDbLine
 10
210.499150082131
 20
913.145949349434
 30
0.0
 11
210.499150082132
 21
908.698217755263
 31
0.0
  0
LINE
  5
15F
330
1F
100
AcDbEntity
  8
0
  6
Continuous
 62
     3
100
AcDbLine
 10
210.499150082131
 20
913.145949349434
 30
0.0
 11
205.919751505748
 21
917.72534792582
 31
0.0
  0
LINE
  5
160
330
1F
100
AcDbEntity
  8
0
  6
Continuous
 62
     3
100
AcDbLine
 10
213.009859382656
 20
924.074757906162
 30
0.0
 11
225.949692708361
 21
924.074757906161
 31
0.0
  0
LINE
  5
161
330
1F
100
AcDbEntity
  8
0
  6
Continuous
 62
     3
100
AcDbLine
 10
212.440535289588
 20
924.644081997993
 30
0.0
 11
213.009859382656
 21
924.074757906162
 31
0.0
  0
LINE
  5
162
330
1F
100
AcDbEntity
  8
0
  6
Continuous
 62
     3
100
AcDbLine
 10
210.499150082131
 20
913.145949349434
 30
0.0
 11
203.500057000057
 21
910.246830070527
 31
0.0
  0
LINE
  5
163
330
1F
100
AcDbEntity
  8
0
  6
Continuous
 62
     3
100
AcDbLine
 10
203.500057000057
 20
909.323170799792
 30
0.0
 11
205.537251411686
 21
908.510032347434
 31
0.0
  0
LINE
  5
164
330
1F
100
AcDbEntity
  8
0
  6
Continuous
 62
     3
100
AcDbLine
 10
200.024988981213
 20
904.323170799792
 30
0.0
 11
200.024988981213
 21
903.323170799792
 31
0.0
  0
LINE
  5
165
330
1F
100
AcDbEntity
  8
0
  6
Continuous
 62
     3
100
AcDbLine
 10
195.249376811613
 20
918.497510258972
 30
0.0
 11
195.249376811613
 21
904.323170799792
 31
0.0
  0
LINE
  5
166
330
1F
100
AcDbEntity
  8
0
  6
Continuous
 62
     3
100
AcDbLine
 10
203.500057000057
 20
910.246830070527
 30
0.0
 11
195.249376811613
 21
918.497510258972
 31
0.0
  0
LINE
  5
167
330
1F
100
AcDbEntity
  8
0
  6
Continuous
 62
     3
100
AcDbLine
 10
199.500057000057
 20
908.323170799792
 30
0.0
 11
201.537251411686
 21
907.510032347434
 31
0.0
  0
LINE
  5
168
330
1F
100
AcDbEntity
  8
0
  6
Continuous
 62
     3
100
AcDbLine
 10
198.260836324243
 20
909.323170799792
 30
0.0
 11
203.500057000057
 21
909.323170799792
 31
0.0
  0
LINE
  5
169
330
1F
100
AcDbEntity
  8
0
  6
Continuous
 62
     3
100
AcDbLine
 10
198.260836324243
 20
904.323170799792
 30
0.0
 11
198.260836324243
 21
909.323170799792
 31
0.0
  0
LINE
  5
16A
330
1F
100
AcDbEntity
  8
0
  6
Continuous
 62
     3
100
AcDbLine
 10
198.260836324243
 20
904.323170799792
 30
0.0
 11
195.774308792768
 21
904.323170799792
 31
0.0
  0
LINE
  5
16B
330
1F
100
AcDbEntity
  8
0
  6
Continuous
 62
     3
100
AcDbLine
 10
195.249376811613
 20
904.323170799792
 30
0.0
 11
195.774308792768
 21
904.323170799792
 31
0.0
  0
LINE
  5
16C
330
1F
100
AcDbEntity
  8
0
  6
Continuous
 62
     3
100
AcDbLine
 10
199.500057000057
 20
904.323170799792
 30
0.0
 11
198.260836324243
 21
904.323170799792
 31
0.0
  0
LINE
  5
16D
330
1F
100
AcDbEntity
  8
0
  6
Continuous
 62
     3
100
AcDbLine
 10
200.024988981213
 20
904.323170799792
 30
0.0
 11
199.500057000057
 21
904.323170799792
 31
0.0
  0
LINE
  5
16E
330
1F
100
AcDbEntity
  8
0
  6
Continuous
 62
     3
100
AcDbLine
 10
360.750057000057
 20
936.207730472698
 30
0.0
 11
396.000057000057
 21
900.957730472698
 31
0.0
  0
LINE
  5
16F
330
1F
100
AcDbEntity
  8
0
  6
Continuous
 62
     3
100
AcDbLine
 10
356.829522619398
 20
927.13686112957
 30
0.0
 11
348.253055241271
 21
927.136861129566
 31
0.0
  0
LINE
  5
170
330
1F
100
AcDbEntity
  8
0
  6
Continuous
 62
     3
100
AcDbLine
 10
377.750057000273
 20
856.323170799791
 30
0.0
 11
386.813747330051
 21
856.323170799791
 31
0.0
  0
LINE
  5
171
330
1F
100
AcDbEntity
  8
0
  6
Continuous
 62
     3
100
AcDbLine
 10
386.813747329835
 20
897.152636419133
 30
0.0
 11
356.829522619398
 21
927.13686112957
 31
0.0
  0
LINE
  5
172
330
1F
100
AcDbEntity
  8
0
  6
Continuous
 62
     3
100
AcDbLine
 10
372.687953776866
 20
856.323170799791
 30
0.0
 11
363.437273588421
 21
856.323170799791
 31
0.0
  0
LINE
  5
173
330
1F
100
AcDbEntity
  8
0
  6
Continuous
 62
     3
100
AcDbLine
 10
374.862265262361
 20
856.323170799791
 30
0.0
 11
377.750057000273
 21
856.323170799791
 31
0.0
  0
LINE
  5
174
330
1F
100
AcDbEntity
  8
0
  6
Continuous
 62
     3
100
AcDbLine
 10
372.687953776866
 20
856.323170799791
 30
0.0
 11
374.862265262361
 21
856.323170799791
 31
0.0
  0
LINE
  5
175
330
1F
100
AcDbEntity
  8
0
  6
Continuous
 62
     3
100
AcDbLine
 10
330.050421291802
 20
924.074757906143
 30
0.0
 11
344.147772308658
 21
924.074757906165
 31
0.0
  0
LINE
  5
176
330
1F
100
AcDbEntity
  8
0
  6
Continuous
 62
     3
100
AcDbLine
 10
342.500057000273
 20
856.323170799791
 30
0.0
 11
361.250057000273
 21
856.323170799791
 31
0.0
  0
LINE
  5
177
330
1F
100
AcDbEntity
  8
0
  6
Continuous
 62
     3
100
AcDbLine
 10
361.250057000273
 20
856.323170799791
 30
0.0
 11
363.437273588421
 21
856.323170799791
 31
0.0
  0
LINE
  5
178
330
1F
100
AcDbEntity
  8
0
  6
Continuous
 62
     3
100
AcDbLine
 10
339.43795377665
 20
856.323170799791
 30
0.0
 11
342.500057000273
 21
856.323170799791
 31
0.0
  0
LINE
  5
179
330
1F
100
AcDbEntity
  8
0
  6
Continuous
 62
     3
100
AcDbLine
 10
360.552988034853
 20
936.126101834587
 30
0.0
 11
360.750057000057
 21
936.207730472698
 31
0.0
  0
LINE
  5
17A
330
1F
100
AcDbEntity
  8
0
  6
Continuous
 62
     3
100
AcDbLine
 10
360.552988034853
 20
936.126101834587
 30
0.0
 11
356.829522619398
 21
927.13686112957
 31
0.0
  0
LINE
  5
17B
330
1F
100
AcDbEntity
  8
0
  6
Continuous
 62
     3
100
AcDbLine
 10
360.312613682428
 20
935.885727482162
 30
0.0
 11
360.552988034853
 21
936.126101834587
 31
0.0
  0
LINE
  5
17C
330
1F
100
AcDbEntity
  8
0
  6
Continuous
 62
     3
100
AcDbLine
 10
360.312613682428
 20
935.885727482162
 30
0.0
 11
353.687500317687
 21
935.885727482162
 31
0.0
  0
LINE
  5
17D
330
1F
100
AcDbEntity
  8
0
  6
Continuous
 62
     3
100
AcDbLine
 10
325.319305159415
 20
930.9303785231
 30
0.0
 11
330.624608772581
 21
936.235682136266
 31
0.0
  0
LINE
  5
17E
330
1F
100
AcDbEntity
  8
0
  6
Continuous
 62
     3
100
AcDbLine
 10
353.250057000057
 20
936.323170799792
 30
0.0
 11
353.687500317687
 21
935.885727482162
 31
0.0
  0
LINE
  5
17F
330
1F
100
AcDbEntity
  8
0
  6
Continuous
 62
     3
100
AcDbLine
 10
353.250057000057
 20
939.323170799792
 30
0.0
 11
353.250057000057
 21
936.323170799792
 31
0.0
  0
LINE
  5
180
330
1F
100
AcDbEntity
  8
0
  6
Continuous
 62
     3
100
AcDbLine
 10
336.647527797841
 20
936.235682136266
 30
0.0
 11
336.735016461367
 21
936.323170799792
 31
0.0
  0
LINE
  5
181
330
1F
100
AcDbEntity
  8
0
  6
Continuous
 62
     3
100
AcDbLine
 10
330.624608772581
 20
936.235682136266
 30
0.0
 11
336.647527797841
 21
936.235682136266
 31
0.0
  0
LINE
  5
182
330
1F
100
AcDbEntity
  8
0
  6
Continuous
 62
     3
100
AcDbLine
 10
336.735016461367
 20
936.323170799792
 30
0.0
 11
353.250057000057
 21
936.323170799792
 31
0.0
  0
LINE
  5
183
330
1F
100
AcDbEntity
  8
0
  6
Continuous
 62
     3
100
AcDbLine
 10
278.500057000057
 20
927.137091369273
 30
0.0
 11
278.500057000057
 21
928.125631856643
 31
0.0
  0
LINE
  5
184
330
1F
100
AcDbEntity
  8
0
  6
Continuous
 62
     3
100
AcDbLine
 10
278.500057000057
 20
928.125631856643
 30
0.0
 11
278.500057000057
 21
930.611929148414
 31
0.0
  0
LINE
  5
185
330
1F
100
AcDbEntity
  8
0
  6
Continuous
 62
     3
100
AcDbLine
 10
277.500057000057
 20
926.611929148414
 30
0.0
 11
278.500057000057
 21
926.611929148414
 31
0.0
  0
LINE
  5
186
330
1F
100
AcDbEntity
  8
0
  6
Continuous
 62
     3
100
AcDbLine
 10
232.843371583788
 20
926.261974494296
 30
0.0
 11
323.156742416511
 21
926.26197449431
 31
0.0
  0
LINE
  5
187
330
1F
100
AcDbEntity
  8
0
  6
Continuous
 62
     3
100
AcDbLine
 10
193.552860543832
 20
925.761770979804
 30
0.0
 11
180.561456820044
 21
925.761770979804
 31
0.0
  0
LINE
  5
188
330
1F
100
AcDbEntity
  8
0
  6
Continuous
 62
     3
100
AcDbLine
 10
278.500057000057
 20
930.611929148414
 30
0.0
 11
277.500057000057
 21
930.611929148414
 31
0.0
  0
LINE
  5
189
330
1F
100
AcDbEntity
  8
0
  6
Continuous
 62
     3
100
AcDbLine
 10
277.500057000057
 20
928.125631856643
 30
0.0
 11
277.500057000057
 21
930.611929148414
 31
0.0
  0
LINE
  5
18A
330
1F
100
AcDbEntity
  8
0
  6
Continuous
 62
     3
100
AcDbLine
 10
277.500057000057
 20
927.137091369273
 30
0.0
 11
277.500057000057
 21
928.125631856643
 31
0.0
  0
LINE
  5
18B
330
1F
100
AcDbEntity
  8
0
  6
Continuous
 62
     3
100
AcDbLine
 10
277.500057000057
 20
926.611929148414
 30
0.0
 11
277.500057000057
 21
927.137091369273
 31
0.0
  0
LINE
  5
18C
330
1F
100
AcDbEntity
  8
0
  6
Continuous
 62
     3
100
AcDbLine
 10
278.500057000057
 20
926.611929148414
 30
0.0
 11
278.500057000057
 21
927.137091369273
 31
0.0
  0
LINE
  5
18D
330
1F
100
AcDbEntity
  8
0
  6
Continuous
 62
     3
100
AcDbLine
 10
278.500057000057
 20
931.137091369273
 30
0.0
 11
278.500057000057
 21
930.611929148414
 31
0.0
  0
LINE
  5
18E
330
1F
100
AcDbEntity
  8
0
  6
Continuous
 62
     3
100
AcDbLine
 10
277.500057000057
 20
930.611929148414
 30
0.0
 11
277.500057000057
 21
931.137091369273
 31
0.0
  0
LINE
  5
18F
330
1F
100
AcDbEntity
  8
0
  6
Continuous
 62
     3
100
AcDbLine
 10
206.44850637157
 20
856.323170799791
 30
0.0
 11
203.43704685894
 21
856.323170799791
 31
0.0
  0
LINE
  5
190
330
1F
100
AcDbEntity
  8
0
  6
Continuous
 62
     3
100
AcDbLine
 10
207.43704685894
 20
856.323170799791
 30
0.0
 11
208.311933494199
 21
856.323170799791
 31
0.0
  0
LINE
  5
191
330
1F
100
AcDbEntity
  8
0
  6
Continuous
 62
     3
100
AcDbLine
 10
216.562160223465
 20
856.323170799791
 30
0.0
 11
213.500057000273
 21
856.323170799791
 31
0.0
  0
LINE
  5
192
330
1F
100
AcDbEntity
  8
0
  6
Continuous
 62
     3
100
AcDbLine
 10
208.311933494199
 20
856.323170799791
 30
0.0
 11
213.500057000273
 21
856.323170799791
 31
0.0
  0
LINE
  5
193
330
1F
100
AcDbEntity
  8
0
  6
Continuous
 62
     3
100
AcDbLine
 10
207.437046858724
 20
886.023738739504
 30
0.0
 11
207.437046858724
 21
882.323170799792
 31
0.0
  0
LINE
  5
194
330
1F
100
AcDbEntity
  8
0
  6
Continuous
 62
     3
100
AcDbLine
 10
207.437046858724
 20
882.323170799792
 30
0.0
 11
206.448506371354
 21
882.323170799792
 31
0.0
  0
LINE
  5
195
330
1F
100
AcDbEntity
  8
0
  6
Continuous
 62
     3
100
AcDbLine
 10
207.961978839879
 20
882.323170799792
 30
0.0
 11
207.437046858724
 21
882.323170799792
 31
0.0
  0
LINE
  5
196
330
1F
100
AcDbEntity
  8
0
  6
Continuous
 62
     3
100
AcDbLine
 10
203.961978839879
 20
882.323170799792
 30
0.0
 11
203.437046858724
 21
882.323170799792
 31
0.0
  0
LINE
  5
197
330
1F
100
AcDbEntity
  8
0
  6
Continuous
 62
     3
100
AcDbLine
 10
206.448506371354
 20
882.323170799792
 30
0.0
 11
206.448506371354
 21
885.023738739504
 31
0.0
  0
LINE
  5
198
330
1F
100
AcDbEntity
  8
0
  6
Continuous
 62
     3
100
AcDbLine
 10
203.437046858724
 20
885.023738739504
 30
0.0
 11
203.437046858724
 21
882.323170799792
 31
0.0
  0
LINE
  5
199
330
1F
100
AcDbEntity
  8
0
  6
Continuous
 62
     3
100
AcDbLine
 10
208.311933494459
 20
901.865765613304
 30
0.0
 11
208.311933494199
 21
856.323170799791
 31
0.0
  0
LINE
  5
19A
330
1F
100
AcDbEntity
  8
0
  6
Continuous
 62
     3
100
AcDbLine
 10
207.961978839879
 20
882.323170799792
 30
0.0
 11
207.961978839879
 21
881.323170799792
 31
0.0
  0
LINE
  5
19B
330
1F
100
AcDbEntity
  8
0
  6
Continuous
 62
     3
100
AcDbLine
 10
207.437046858724
 20
881.323170799792
 30
0.0
 11
206.448506371354
 21
881.323170799792
 31
0.0
  0
LINE
  5
19C
330
1F
100
AcDbEntity
  8
0
  6
Continuous
 62
     3
100
AcDbLine
 10
207.961978839879
 20
881.323170799792
 30
0.0
 11
207.437046858724
 21
881.323170799792
 31
0.0
  0
LINE
  5
19D
330
1F
100
AcDbEntity
  8
0
  6
Continuous
 62
     3
100
AcDbLine
 10
203.437046858724
 20
881.323170799792
 30
0.0
 11
203.961978839879
 21
881.323170799792
 31
0.0
  0
LINE
  5
19E
330
1F
100
AcDbEntity
  8
0
  6
Continuous
 62
     3
100
AcDbLine
 10
203.437046858724
 20
881.323170799792
 30
0.0
 11
203.43704685894
 21
856.323170799791
 31
0.0
  0
LINE
  5
19F
330
1F
100
AcDbEntity
  8
0
  6
Continuous
 62
     3
100
AcDbLine
 10
207.437046858724
 20
881.323170799792
 30
0.0
 11
207.43704685894
 21
856.323170799791
 31
0.0
  0
LINE
  5
1A0
330
1F
100
AcDbEntity
  8
0
  6
Continuous
 62
     3
100
AcDbLine
 10
206.44850637157
 20
856.323170799791
 30
0.0
 11
206.448506371354
 21
881.323170799792
 31
0.0
  0
LINE
  5
1A1
330
1F
100
AcDbEntity
  8
0
  6
Continuous
 62
     3
100
AcDbLine
 10
206.448506371354
 20
881.323170799792
 30
0.0
 11
203.961978839879
 21
881.323170799792
 31
0.0
  0
LINE
  5
1A2
330
1F
100
AcDbEntity
  8
0
  6
Continuous
 62
     3
100
AcDbLine
 10
206.448506371354
 20
882.323170799792
 30
0.0
 11
203.961978839879
 21
882.323170799792
 31
0.0
  0
LINE
  5
1A3
330
1F
100
AcDbEntity
  8
0
  6
Continuous
 62
     3
100
AcDbLine
 10
203.961978839879
 20
881.323170799792
 30
0.0
 11
203.961978839879
 21
882.323170799792
 31
0.0
  0
LINE
  5
1A4
330
1F
100
AcDbEntity
  8
0
  6
Continuous
 62
     3
100
AcDbLine
 10
195.249376811613
 20
903.323170799792
 30
0.0
 11
195.249376811613
 21
857.323170799791
 31
0.0
  0
LINE
  5
1A5
330
1F
100
AcDbEntity
  8
0
  6
Continuous
 62
     3
100
AcDbLine
 10
198.260836324243
 20
857.323170799791
 30
0.0
 11
198.260836324243
 21
903.323170799792
 31
0.0
  0
LINE
  5
1A6
330
1F
100
AcDbEntity
  8
0
  6
Continuous
 62
     3
100
AcDbLine
 10
203.43704685894
 20
856.323170799791
 30
0.0
 11
200.024988981429
 21
856.323170799791
 31
0.0
  0
LINE
  5
1A7
330
1F
100
AcDbEntity
  8
0
  6
Continuous
 62
     3
100
AcDbLine
 10
199.500057000057
 20
857.323170799791
 30
0.0
 11
199.500057000057
 21
903.323170799792
 31
0.0
  0
LINE
  5
1A8
330
1F
100
AcDbEntity
  8
0
  6
Continuous
 62
     3
100
AcDbLine
 10
199.500057000057
 20
904.323170799792
 30
0.0
 11
199.500057000057
 21
908.323170799792
 31
0.0
  0
LINE
  5
1A9
330
1F
100
AcDbEntity
  8
0
  6
Continuous
 62
     3
100
AcDbLine
 10
204.603087380387
 20
936.81199781636
 30
0.0
 11
204.603087380387
 21
949.803401540147
 31
0.0
  0
LINE
  5
1AA
330
1F
100
AcDbEntity
  8
0
  6
Continuous
 62
     3
100
AcDbLine
 10
204.548710924316
 20
907.510032347434
 30
0.0
 11
202.511516512687
 21
908.323170799792
 31
0.0
  0
LINE
  5
1AB
330
1F
100
AcDbEntity
  8
0
  6
Continuous
 62
     3
100
AcDbLine
 10
203.500057000057
 20
910.246830070527
 30
0.0
 11
203.500057000057
 21
909.323170799792
 31
0.0
  0
LINE
  5
1AC
330
1F
100
AcDbEntity
  8
0
  6
Continuous
 62
     3
100
AcDbLine
 10
200.024988981213
 20
857.323170799791
 30
0.0
 11
199.500057000057
 21
857.323170799791
 31
0.0
  0
LINE
  5
1AD
330
1F
100
AcDbEntity
  8
0
  6
Continuous
 62
     3
100
AcDbLine
 10
200.024988981213
 20
903.323170799792
 30
0.0
 11
199.500057000057
 21
903.323170799792
 31
0.0
  0
LINE
  5
1AE
330
1F
100
AcDbEntity
  8
0
  6
Continuous
 62
     3
100
AcDbLine
 10
200.024988981213
 20
857.323170799791
 30
0.0
 11
200.024988981429
 21
856.323170799791
 31
0.0
  0
LINE
  5
1AF
330
1F
100
AcDbEntity
  8
0
  6
Continuous
 62
     3
100
AcDbLine
 10
199.500057000057
 20
857.323170799791
 30
0.0
 11
198.260836324243
 21
857.323170799791
 31
0.0
  0
LINE
  5
1B0
330
1F
100
AcDbEntity
  8
0
  6
Continuous
 62
     3
100
AcDbLine
 10
199.500057000057
 20
903.323170799792
 30
0.0
 11
198.260836324243
 21
903.323170799792
 31
0.0
  0
LINE
  5
1B1
330
1F
100
AcDbEntity
  8
0
  6
Continuous
 62
     3
100
AcDbLine
 10
198.260836324243
 20
857.323170799791
 30
0.0
 11
195.774308792768
 21
857.323170799791
 31
0.0
  0
LINE
  5
1B2
330
1F
100
AcDbEntity
  8
0
  6
Continuous
 62
     3
100
AcDbLine
 10
195.774308792768
 20
857.323170799791
 30
0.0
 11
195.774308792985
 21
856.323170799791
 31
0.0
  0
LINE
  5
1B3
330
1F
100
AcDbEntity
  8
0
  6
Continuous
 62
     3
100
AcDbLine
 10
200.024988981429
 20
856.323170799791
 30
0.0
 11
195.774308792985
 21
856.323170799791
 31
0.0
  0
LINE
  5
1B4
330
1F
100
AcDbEntity
  8
0
  6
Continuous
 62
     3
100
AcDbLine
 10
195.249376811613
 20
857.323170799791
 30
0.0
 11
195.774308792768
 21
857.323170799791
 31
0.0
  0
LINE
  5
1B5
330
1F
100
AcDbEntity
  8
0
  6
Continuous
 62
     3
100
AcDbLine
 10
195.774308792768
 20
904.323170799792
 30
0.0
 11
195.774308792768
 21
903.323170799792
 31
0.0
  0
LINE
  5
1B6
330
1F
100
AcDbEntity
  8
0
  6
Continuous
 62
     3
100
AcDbLine
 10
198.260836324243
 20
903.323170799792
 30
0.0
 11
195.774308792768
 21
903.323170799792
 31
0.0
  0
LINE
  5
1B7
330
1F
100
AcDbEntity
  8
0
  6
Continuous
 62
     3
100
AcDbLine
 10
195.774308792768
 20
903.323170799792
 30
0.0
 11
195.249376811613
 21
903.323170799792
 31
0.0
  0
LINE
  5
1B8
330
1F
100
AcDbEntity
  8
0
  6
Continuous
 62
     3
100
AcDbLine
 10
191.399875616472
 20
861.323170799792
 30
0.0
 11
191.399875616688
 21
856.323170799791
 31
0.0
  0
LINE
  5
1B9
330
1F
100
AcDbEntity
  8
0
  6
Continuous
 62
     3
100
AcDbLine
 10
195.774308792985
 20
856.323170799791
 30
0.0
 11
191.399875616688
 21
856.323170799791
 31
0.0
  0
LINE
  5
1BA
330
1F
100
AcDbEntity
  8
0
  6
Continuous
 62
     3
100
AcDbLine
 10
190.000057000057
 20
861.323170799792
 30
0.0
 11
190.000057000057
 21
916.323170799792
 31
0.0
  0
LINE
  5
1BB
330
1F
100
AcDbEntity
  8
0
  6
Continuous
 62
     3
100
AcDbLine
 10
193.651707429507
 20
941.974821229241
 30
0.0
 11
195.213107249494
 21
940.413421409254
 31
0.0
  0
LINE
  5
1BC
330
1F
100
AcDbEntity
  8
0
  6
Continuous
 62
     3
100
AcDbLine
 10
190.000057000057
 20
861.323170799792
 30
0.0
 11
191.399875616472
 21
861.323170799792
 31
0.0
  0
LINE
  5
1BD
330
1F
100
AcDbEntity
  8
0
  6
Continuous
 62
     3
100
AcDbLine
 10
193.552860543832
 20
925.761770979804
 30
0.0
 11
200.36219514632
 21
918.952436377316
 31
0.0
  0
LINE
  5
1BE
330
1F
100
AcDbEntity
  8
0
  6
Continuous
 62
     3
100
AcDbLine
 10
190.000057000057
 20
916.323170799792
 30
0.0
 11
195.249376811613
 21
918.497510258972
 31
0.0
  0
LINE
  5
1BF
330
1F
100
AcDbEntity
  8
0
  6
Continuous
 62
     3
100
AcDbLine
 10
190.000057000057
 20
916.323170799792
 30
0.0
 11
180.561456820044
 21
925.761770979804
 31
0.0
  0
LINE
  5
1C0
330
1F
100
AcDbEntity
  8
0
  6
Continuous
 62
     3
100
AcDbLine
 10
180.561456820044
 20
925.761770979804
 30
0.0
 11
189.909806390595
 21
935.110120550355
 31
0.0
  0
LINE
  5
1C1
330
1F
100
AcDbEntity
  8
0
  6
Continuous
 62
     3
100
AcDbLine
 10
189.909806390595
 20
935.110120550355
 30
0.0
 11
190.528444663156
 21
935.110120550355
 31
0.0
  0
LINE
  5
1C2
330
1F
100
AcDbEntity
  8
0
  6
Continuous
 62
     3
100
AcDbLine
 10
185.000057000057
 20
853.323170799791
 30
0.0
 11
185.000057000273
 21
856.323170799791
 31
0.0
  0
LINE
  5
1C3
330
1F
100
AcDbEntity
  8
0
  6
Continuous
 62
     3
100
AcDbLine
 10
188.000057000273
 20
856.323170799791
 30
0.0
 11
191.399875616688
 21
856.323170799791
 31
0.0
  0
LINE
  5
1C4
330
1F
100
AcDbEntity
  8
0
  6
Continuous
 62
     3
100
AcDbLine
 10
188.000057000273
 20
853.921247011144
 30
0.0
 11
188.000057000273
 21
856.323170799791
 31
0.0
  0
LINE
  5
1C5
330
1F
100
AcDbEntity
  8
0
  6
Continuous
 62
     3
100
AcDbLine
 10
180.500057000057
 20
861.323170799792
 30
0.0
 11
180.500057000273
 21
856.323170799791
 31
0.0
  0
LINE
  5
1C6
330
1F
100
AcDbEntity
  8
0
  6
Continuous
 62
     3
100
AcDbLine
 10
180.500057000273
 20
856.323170799791
 30
0.0
 11
185.000057000273
 21
856.323170799791
 31
0.0
  0
LINE
  5
1C7
330
1F
100
AcDbEntity
  8
0
  6
Continuous
 62
     3
100
AcDbLine
 10
180.500057000057
 20
861.323170799792
 30
0.0
 11
190.000057000057
 21
861.323170799792
 31
0.0
  0
LINE
  5
1C8
330
1F
100
AcDbEntity
  8
1
  6
Continuous
 62
     7
100
AcDbLine
 10
185.000057000057
 20
853.323170799791
 30
0.0
 11
185.000057000057
 21
852.323170799791
 31
0.0
  0
LINE
  5
1C9
330
1F
100
AcDbEntity
  8
1
  6
Continuous
 62
     3
100
AcDbLine
 10
185.000057000057
 20
853.323170799791
 30
0.0
 11
187.310782432908
 21
848.434793353451
 31
0.0
  0
LINE
  5
1CA
330
1F
100
AcDbEntity
  8
0
  6
Continuous
 62
     3
100
AcDbLine
 10
361.250057000273
 20
856.323170799791
 30
0.0
 11
363.437273588421
 21
856.323170799791
 31
0.0
  0
LINE
  5
1CB
330
1F
100
AcDbEntity
  8
0
  6
Continuous
 62
     3
100
AcDbLine
 10
386.813747330051
 20
856.323170799791
 30
0.0
 11
377.750057000273
 21
856.323170799791
 31
0.0
  0
LINE
  5
1CC
330
1F
100
AcDbEntity
  8
0
  6
Continuous
 62
     3
100
AcDbLine
 10
356.829522619614
 20
785.509480470013
 30
0.0
 11
348.253055241475
 21
785.509480470013
 31
0.0
  0
LINE
  5
1CD
330
1F
100
AcDbEntity
  8
0
  6
Continuous
 62
     3
100
AcDbLine
 10
386.813747330051
 20
815.49370518045
 30
0.0
 11
356.829522619614
 21
785.509480470013
 31
0.0
  0
LINE
  5
1CE
330
1F
100
AcDbEntity
  8
0
  6
Continuous
 62
     3
100
AcDbLine
 10
363.437273588421
 20
856.323170799791
 30
0.0
 11
372.687953776866
 21
856.323170799791
 31
0.0
  0
LINE
  5
1CF
330
1F
100
AcDbEntity
  8
0
  6
Continuous
 62
     3
100
AcDbLine
 10
374.862265262361
 20
856.323170799791
 30
0.0
 11
377.750057000273
 21
856.323170799791
 31
0.0
  0
LINE
  5
1D0
330
1F
100
AcDbEntity
  8
0
  6
Continuous
 62
     3
100
AcDbLine
 10
372.687953776866
 20
856.323170799791
 30
0.0
 11
374.862265262361
 21
856.323170799791
 31
0.0
  0
LINE
  5
1D1
330
1F
100
AcDbEntity
  8
0
  6
Continuous
 62
     3
100
AcDbLine
 10
344.147772308835
 20
788.571583693421
 30
0.0
 11
330.050421291988
 21
788.571583693427
 31
0.0
  0
LINE
  5
1D2
330
1F
100
AcDbEntity
  8
0
  6
Continuous
 62
     3
100
AcDbLine
 10
361.250057000273
 20
856.323170799791
 30
0.0
 11
342.500057000273
 21
856.323170799791
 31
0.0
  0
LINE
  5
1D3
330
1F
100
AcDbEntity
  8
0
  6
Continuous
 62
     3
100
AcDbLine
 10
317.000056999389
 20
856.323170799791
 30
0.0
 11
342.500057000273
 21
856.323170799791
 31
0.0
  0
LINE
  5
1D4
330
1F
100
AcDbEntity
  8
0
  6
Continuous
 62
     3
100
AcDbLine
 10
360.750057000273
 20
776.438611126885
 30
0.0
 11
396.000057000273
 21
811.688611126885
 31
0.0
  0
LINE
  5
1D5
330
1F
100
AcDbEntity
  8
0
  6
Continuous
 62
     3
100
AcDbLine
 10
360.312613682644
 20
776.760614117421
 30
0.0
 11
360.552988035068
 21
776.520239764996
 31
0.0
  0
LINE
  5
1D6
330
1F
100
AcDbEntity
  8
0
  6
Continuous
 62
     3
100
AcDbLine
 10
360.312613682644
 20
776.760614117421
 30
0.0
 11
353.687500317903
 21
776.760614117421
 31
0.0
  0
LINE
  5
1D7
330
1F
100
AcDbEntity
  8
0
  6
Continuous
 62
     3
100
AcDbLine
 10
277.500057000273
 20
785.50925023031
 30
0.0
 11
277.500057000273
 21
784.52070974294
 31
0.0
  0
LINE
  5
1D8
330
1F
100
AcDbEntity
  8
0
  6
Continuous
 62
     3
100
AcDbLine
 10
277.500057000273
 20
786.034412451169
 30
0.0
 11
277.500057000273
 21
785.50925023031
 31
0.0
  0
LINE
  5
1D9
330
1F
100
AcDbEntity
  8
0
  6
Continuous
 62
     3
100
AcDbLine
 10
277.500057000273
 20
782.034412451169
 30
0.0
 11
277.500057000273
 21
781.50925023031
 31
0.0
  0
LINE
  5
1DA
330
1F
100
AcDbEntity
  8
0
  6
Continuous
 62
     3
100
AcDbLine
 10
278.500057000273
 20
781.50925023031
 30
0.0
 11
278.500057000273
 21
782.034412451169
 31
0.0
  0
LINE
  5
1DB
330
1F
100
AcDbEntity
  8
0
  6
Continuous
 62
     3
100
AcDbLine
 10
278.500057000273
 20
785.50925023031
 30
0.0
 11
278.500057000273
 21
784.52070974294
 31
0.0
  0
LINE
  5
1DC
330
1F
100
AcDbEntity
  8
0
  6
Continuous
 62
     3
100
AcDbLine
 10
278.500057000273
 20
786.034412451169
 30
0.0
 11
278.500057000273
 21
785.50925023031
 31
0.0
  0
LINE
  5
1DD
330
1F
100
AcDbEntity
  8
0
  6
Continuous
 62
     3
100
AcDbLine
 10
195.21310724971
 20
772.232920190329
 30
0.0
 11
204.603087380603
 21
762.842940059436
 31
0.0
  0
LINE
  5
1DE
330
1F
100
AcDbEntity
  8
0
  6
Continuous
 62
     3
100
AcDbLine
 10
204.603087380603
 20
775.834343783223
 30
0.0
 11
193.552860544048
 21
786.884570619779
 31
0.0
  0
LINE
  5
1DF
330
1F
100
AcDbEntity
  8
0
  6
Continuous
 62
     3
100
AcDbLine
 10
204.603087380603
 20
775.834343783223
 30
0.0
 11
204.603087380603
 21
762.842940059436
 31
0.0
  0
LINE
  5
1E0
330
1F
100
AcDbEntity
  8
0
  6
Continuous
 62
     3
100
AcDbLine
 10
195.21310724971
 20
772.851558462891
 30
0.0
 11
195.21310724971
 21
772.232920190329
 31
0.0
  0
LINE
  5
1E1
330
1F
100
AcDbEntity
  8
0
  6
Continuous
 62
     3
100
AcDbLine
 10
193.651707429723
 20
770.671520370342
 30
0.0
 11
195.21310724971
 21
772.232920190329
 31
0.0
  0
LINE
  5
1E2
330
1F
100
AcDbEntity
  8
0
  6
Continuous
 62
     3
100
AcDbLine
 10
195.21310724971
 20
772.851558462891
 30
0.0
 11
190.528444663372
 21
777.536221049228
 31
0.0
  0
LINE
  5
1E3
330
1F
100
AcDbEntity
  8
0
  6
Continuous
 62
     3
100
AcDbLine
 10
180.56145682026
 20
786.884570619779
 30
0.0
 11
189.909806390811
 21
777.536221049228
 31
0.0
  0
LINE
  5
1E4
330
1F
100
AcDbEntity
  8
0
  6
Continuous
 62
     3
100
AcDbLine
 10
189.909806390811
 20
777.536221049228
 30
0.0
 11
190.528444663372
 21
777.536221049228
 31
0.0
  0
LINE
  5
1E5
330
1F
100
AcDbEntity
  8
0
  6
Continuous
 62
     3
100
AcDbLine
 10
188.348406570823
 20
775.974821229241
 30
0.0
 11
189.909806390811
 21
777.536221049228
 31
0.0
  0
LINE
  5
1E6
330
1F
100
AcDbEntity
  8
0
  6
Continuous
 62
     3
100
AcDbLine
 10
225.375505227749
 20
776.410659463317
 30
0.0
 11
230.680808840915
 21
781.715963076483
 31
0.0
  0
LINE
  5
1E7
330
1F
100
AcDbEntity
  8
0
  6
Continuous
 62
     3
100
AcDbLine
 10
325.319305159631
 20
781.715963076483
 30
0.0
 11
330.624608772797
 21
776.410659463317
 31
0.0
  0
LINE
  5
1E8
330
1F
100
AcDbEntity
  8
0
  6
Continuous
 62
     3
100
AcDbLine
 10
336.735016461583
 20
776.323170799791
 30
0.0
 11
353.250057000273
 21
776.323170799791
 31
0.0
  0
LINE
  5
1E9
330
1F
100
AcDbEntity
  8
0
  6
Continuous
 62
     3
100
AcDbLine
 10
360.552988035068
 20
776.520239764996
 30
0.0
 11
356.829522619614
 21
785.509480470013
 31
0.0
  0
LINE
  5
1EA
330
1F
100
AcDbEntity
  8
0
  6
Continuous
 62
     3
100
AcDbLine
 10
213.009859382872
 20
788.571583693421
 30
0.0
 11
218.083318120958
 21
776.323170799791
 31
0.0
  0
LINE
  5
1EB
330
1F
100
AcDbEntity
  8
0
  6
Continuous
 62
     3
100
AcDbLine
 10
211.101272343741
 20
782.332528746361
 30
0.0
 11
204.603087380603
 21
775.834343783223
 31
0.0
  0
LINE
  5
1EC
330
1F
100
AcDbEntity
  8
0
  6
Continuous
 62
     3
100
AcDbLine
 10
213.009859382872
 20
788.571583693421
 30
0.0
 11
212.44053528253
 21
788.002259593079
 31
0.0
  0
LINE
  5
1ED
330
1F
100
AcDbEntity
  8
0
  6
Continuous
 62
     3
100
AcDbLine
 10
225.949692708576
 20
788.571583693422
 30
0.0
 11
213.009859382872
 21
788.571583693421
 31
0.0
  0
LINE
  5
1EE
330
1F
100
AcDbEntity
  8
0
  6
Continuous
 62
     3
100
AcDbLine
 10
193.552860544048
 20
786.884570619779
 30
0.0
 11
180.56145682026
 21
786.884570619779
 31
0.0
  0
LINE
  5
1EF
330
1F
100
AcDbEntity
  8
0
  6
Continuous
 62
     3
100
AcDbLine
 10
219.35258620249
 20
776.410659463317
 30
0.0
 11
225.375505227749
 21
776.410659463317
 31
0.0
  0
LINE
  5
1F0
330
1F
100
AcDbEntity
  8
0
  6
Continuous
 62
     3
100
AcDbLine
 10
232.843371584049
 20
786.384367105273
 30
0.0
 11
323.156742416746
 21
786.384367105273
 31
0.0
  0
LINE
  5
1F1
330
1F
100
AcDbEntity
  8
0
  6
Continuous
 62
     3
100
AcDbLine
 10
277.500057000273
 20
786.034412451169
 30
0.0
 11
278.500057000273
 21
786.034412451169
 31
0.0
  0
LINE
  5
1F2
330
1F
100
AcDbEntity
  8
0
  6
Continuous
 62
     3
100
AcDbLine
 10
277.500057000273
 20
784.52070974294
 30
0.0
 11
277.500057000273
 21
782.034412451169
 31
0.0
  0
LINE
  5
1F3
330
1F
100
AcDbEntity
  8
0
  6
Continuous
 62
     3
100
AcDbLine
 10
278.500057000273
 20
782.034412451169
 30
0.0
 11
277.500057000273
 21
782.034412451169
 31
0.0
  0
LINE
  5
1F4
330
1F
100
AcDbEntity
  8
0
  6
Continuous
 62
     3
100
AcDbLine
 10
278.500057000273
 20
784.52070974294
 30
0.0
 11
278.500057000273
 21
782.034412451169
 31
0.0
  0
LINE
  5
1F5
330
1F
100
AcDbEntity
  8
0
  6
Continuous
 62
     3
100
AcDbLine
 10
330.624608772797
 20
776.410659463317
 30
0.0
 11
336.647527798057
 21
776.410659463317
 31
0.0
  0
LINE
  5
1F6
330
1F
100
AcDbEntity
  8
0
  6
Continuous
 62
     3
100
AcDbLine
 10
336.647527798057
 20
776.410659463317
 30
0.0
 11
336.735016461583
 21
776.323170799791
 31
0.0
  0
LINE
  5
1F7
330
1F
100
AcDbEntity
  8
0
  6
Continuous
 62
     3
100
AcDbLine
 10
353.250057000273
 20
773.323170799791
 30
0.0
 11
353.250057000273
 21
776.323170799791
 31
0.0
  0
LINE
  5
1F8
330
1F
100
AcDbEntity
  8
0
  6
Continuous
 62
     3
100
AcDbLine
 10
353.250057000273
 20
776.323170799791
 30
0.0
 11
353.687500317903
 21
776.760614117421
 31
0.0
  0
LINE
  5
1F9
330
1F
100
AcDbEntity
  8
0
  6
Continuous
 62
     3
100
AcDbLine
 10
360.552988035068
 20
776.520239764996
 30
0.0
 11
360.750057000273
 21
776.438611126885
 31
0.0
  0
LINE
  5
1FA
330
1F
100
AcDbEntity
  8
0
  6
Continuous
 62
     3
100
AcDbLine
 10
336.647527798057
 20
776.410659463317
 30
0.0
 11
336.647527798057
 21
772.410659463317
 31
0.0
  0
LINE
  5
1FB
330
1F
100
AcDbEntity
  8
0
  6
Continuous
 62
     3
100
AcDbLine
 10
225.375505227749
 20
772.410659463317
 30
0.0
 11
230.680808840915
 21
777.715963076483
 31
0.0
  0
LINE
  5
1FC
330
1F
100
AcDbEntity
  8
0
  6
Continuous
 62
     3
100
AcDbLine
 10
336.647527798057
 20
772.410659463317
 30
0.0
 11
330.624608772797
 21
772.410659463317
 31
0.0
  0
LINE
  5
1FD
330
1F
100
AcDbEntity
  8
0
  6
Continuous
 62
     3
100
AcDbLine
 10
325.319305159631
 20
777.715963076483
 30
0.0
 11
330.624608772797
 21
772.410659463317
 31
0.0
  0
LINE
  5
1FE
330
1F
100
AcDbEntity
  8
0
  6
Continuous
 62
     3
100
AcDbLine
 10
336.735016461583
 20
776.323170799791
 30
0.0
 11
336.735016461583
 21
772.323170799791
 31
0.0
  0
LINE
  5
1FF
330
1F
100
AcDbEntity
  8
0
  6
Continuous
 62
     3
100
AcDbLine
 10
336.735016461583
 20
772.323170799791
 30
0.0
 11
336.647527798057
 21
772.410659463317
 31
0.0
  0
LINE
  5
200
330
1F
100
AcDbEntity
  8
0
  6
Continuous
 62
     3
100
AcDbLine
 10
219.265097538964
 20
772.323170799791
 30
0.0
 11
245.260801968195
 21
772.323170799791
 31
0.0
  0
LINE
  5
201
330
1F
100
AcDbEntity
  8
0
  6
Continuous
 62
     3
100
AcDbLine
 10
245.260801968195
 20
772.323170799791
 30
0.0
 11
248.114216057521
 21
775.176584889117
 31
0.0
  0
LINE
  5
202
330
1F
100
AcDbEntity
  8
0
  6
Continuous
 62
     3
100
AcDbLine
 10
307.885897943026
 20
775.176584889117
 30
0.0
 11
310.739312032352
 21
772.323170799791
 31
0.0
  0
LINE
  5
203
330
1F
100
AcDbEntity
  8
0
  6
Continuous
 62
     3
100
AcDbLine
 10
310.739312032352
 20
772.323170799791
 30
0.0
 11
336.735016461583
 21
772.323170799791
 31
0.0
  0
LINE
  5
204
330
1F
100
AcDbEntity
  8
0
  6
Continuous
 62
     3
100
AcDbLine
 10
360.750057000273
 20
773.323170799791
 30
0.0
 11
360.750057000273
 21
776.438611126885
 31
0.0
  0
LINE
  5
205
330
1F
100
AcDbEntity
  8
0
  6
Continuous
 62
     3
100
AcDbLine
 10
219.35258620249
 20
772.410659463317
 30
0.0
 11
219.265097538964
 21
772.323170799791
 31
0.0
  0
LINE
  5
206
330
1F
100
AcDbEntity
  8
0
  6
Continuous
 62
     3
100
AcDbLine
 10
219.265097538964
 20
776.323170799791
 30
0.0
 11
219.35258620249
 21
776.410659463317
 31
0.0
  0
LINE
  5
207
330
1F
100
AcDbEntity
  8
0
  6
Continuous
 62
     3
100
AcDbLine
 10
204.603087380603
 20
762.842940059436
 30
0.0
 11
218.083318120958
 21
776.323170799791
 31
0.0
  0
LINE
  5
208
330
1F
100
AcDbEntity
  8
0
  6
Continuous
 62
     3
100
AcDbLine
 10
204.548710924532
 20
805.136309252149
 30
0.0
 11
202.511516512903
 21
804.323170799791
 31
0.0
  0
LINE
  5
209
330
1F
100
AcDbEntity
  8
0
  6
Continuous
 62
     3
100
AcDbLine
 10
210.499150082347
 20
803.948123844308
 30
0.0
 11
210.499150082347
 21
799.500392250149
 31
0.0
  0
LINE
  5
20A
330
1F
100
AcDbEntity
  8
0
  6
Continuous
 62
     3
100
AcDbLine
 10
205.919751505949
 20
794.92099367375
 30
0.0
 11
210.499150082347
 21
799.500392250149
 31
0.0
  0
LINE
  5
20B
330
1F
100
AcDbEntity
  8
0
  6
Continuous
 62
     3
100
AcDbLine
 10
210.499150082347
 20
799.500392250149
 30
0.0
 11
203.500057000273
 21
802.399511529056
 31
0.0
  0
LINE
  5
20C
330
1F
100
AcDbEntity
  8
0
  6
Continuous
 62
     3
100
AcDbLine
 10
203.500057000273
 20
802.399511529056
 30
0.0
 11
203.500057000273
 21
803.323170799791
 31
0.0
  0
LINE
  5
20D
330
1F
100
AcDbEntity
  8
0
  6
Continuous
 62
     3
100
AcDbLine
 10
203.500057000273
 20
803.323170799791
 30
0.0
 11
205.537251411901
 21
804.136309252149
 31
0.0
  0
LINE
  5
20E
330
1F
100
AcDbEntity
  8
0
  6
Continuous
 62
     3
100
AcDbLine
 10
219.265097538964
 20
776.323170799791
 30
0.0
 11
219.265097538964
 21
772.323170799791
 31
0.0
  0
LINE
  5
20F
330
1F
100
AcDbEntity
  8
0
  6
Continuous
 62
     3
100
AcDbLine
 10
219.35258620249
 20
776.410659463317
 30
0.0
 11
219.35258620249
 21
772.410659463317
 31
0.0
  0
LINE
  5
210
330
1F
100
AcDbEntity
  8
0
  6
Continuous
 62
     3
100
AcDbLine
 10
218.083318120958
 20
776.323170799791
 30
0.0
 11
219.265097538964
 21
776.323170799791
 31
0.0
  0
LINE
  5
211
330
1F
100
AcDbEntity
  8
0
  6
Continuous
 62
     3
100
AcDbLine
 10
225.375505227749
 20
772.410659463317
 30
0.0
 11
219.35258620249
 21
772.410659463317
 31
0.0
  0
LINE
  5
212
330
1F
100
AcDbEntity
  8
0
  6
Continuous
 62
     3
100
AcDbLine
 10
188.000057000273
 20
856.323170799791
 30
0.0
 11
191.399875616688
 21
856.323170799791
 31
0.0
  0
LINE
  5
213
330
1F
100
AcDbEntity
  8
0
  6
Continuous
 62
     3
100
AcDbLine
 10
195.249376811829
 20
809.323170799791
 30
0.0
 11
195.249376811829
 21
855.323170799791
 31
0.0
  0
LINE
  5
214
330
1F
100
AcDbEntity
  8
0
  6
Continuous
 62
     3
100
AcDbLine
 10
206.44850637157
 20
856.323170799791
 30
0.0
 11
206.44850637157
 21
831.323170799791
 31
0.0
  0
LINE
  5
215
330
1F
100
AcDbEntity
  8
0
  6
Continuous
 62
     3
100
AcDbLine
 10
203.43704685894
 20
831.323170799791
 30
0.0
 11
203.43704685894
 21
856.323170799791
 31
0.0
  0
LINE
  5
216
330
1F
100
AcDbEntity
  8
0
  6
Continuous
 62
     3
100
AcDbLine
 10
206.44850637157
 20
831.323170799791
 30
0.0
 11
203.961978840095
 21
831.323170799791
 31
0.0
  0
LINE
  5
217
330
1F
100
AcDbEntity
  8
0
  6
Continuous
 62
     3
100
AcDbLine
 10
207.43704685894
 20
831.323170799791
 30
0.0
 11
207.43704685894
 21
856.323170799791
 31
0.0
  0
LINE
  5
218
330
1F
100
AcDbEntity
  8
0
  6
Continuous
 62
     3
100
AcDbLine
 10
208.311933494199
 20
810.780575987659
 30
0.0
 11
208.311933494199
 21
856.323170799791
 31
0.0
  0
LINE
  5
219
330
1F
100
AcDbEntity
  8
0
  6
Continuous
 62
     3
100
AcDbLine
 10
213.500057000273
 20
856.323170799791
 30
0.0
 11
208.311933494199
 21
856.323170799791
 31
0.0
  0
LINE
  5
21A
330
1F
100
AcDbEntity
  8
0
  6
Continuous
 62
     3
100
AcDbLine
 10
208.311933494199
 20
856.323170799791
 30
0.0
 11
207.43704685894
 21
856.323170799791
 31
0.0
  0
LINE
  5
21B
330
1F
100
AcDbEntity
  8
0
  6
Continuous
 62
     3
100
AcDbLine
 10
207.961978840095
 20
830.323170799791
 30
0.0
 11
207.961978840095
 21
831.323170799791
 31
0.0
  0
LINE
  5
21C
330
1F
100
AcDbEntity
  8
0
  6
Continuous
 62
     3
100
AcDbLine
 10
207.43704685894
 20
826.622602860079
 30
0.0
 11
207.43704685894
 21
830.323170799791
 31
0.0
  0
LINE
  5
21D
330
1F
100
AcDbEntity
  8
0
  6
Continuous
 62
     3
100
AcDbLine
 10
207.961978840095
 20
831.323170799791
 30
0.0
 11
207.43704685894
 21
831.323170799791
 31
0.0
  0
LINE
  5
21E
330
1F
100
AcDbEntity
  8
0
  6
Continuous
 62
     3
100
AcDbLine
 10
207.961978840095
 20
830.323170799791
 30
0.0
 11
207.43704685894
 21
830.323170799791
 31
0.0
  0
LINE
  5
21F
330
1F
100
AcDbEntity
  8
0
  6
Continuous
 62
     3
100
AcDbLine
 10
206.44850637157
 20
830.323170799791
 30
0.0
 11
206.44850637157
 21
827.622602860079
 31
0.0
  0
LINE
  5
220
330
1F
100
AcDbEntity
  8
0
  6
Continuous
 62
     3
100
AcDbLine
 10
207.43704685894
 20
830.323170799791
 30
0.0
 11
206.44850637157
 21
830.323170799791
 31
0.0
  0
LINE
  5
221
330
1F
100
AcDbEntity
  8
0
  6
Continuous
 62
     3
100
AcDbLine
 10
207.43704685894
 20
831.323170799791
 30
0.0
 11
206.44850637157
 21
831.323170799791
 31
0.0
  0
LINE
  5
222
330
1F
100
AcDbEntity
  8
0
  6
Continuous
 62
     3
100
AcDbLine
 10
203.961978840095
 20
831.323170799791
 30
0.0
 11
203.961978840095
 21
830.323170799791
 31
0.0
  0
LINE
  5
223
330
1F
100
AcDbEntity
  8
0
  6
Continuous
 62
     3
100
AcDbLine
 10
206.44850637157
 20
830.323170799791
 30
0.0
 11
203.961978840095
 21
830.323170799791
 31
0.0
  0
LINE
  5
224
330
1F
100
AcDbEntity
  8
0
  6
Continuous
 62
     3
100
AcDbLine
 10
203.43704685894
 20
831.323170799791
 30
0.0
 11
203.961978840095
 21
831.323170799791
 31
0.0
  0
LINE
  5
225
330
1F
100
AcDbEntity
  8
0
  6
Continuous
 62
     3
100
AcDbLine
 10
203.43704685894
 20
827.622602860079
 30
0.0
 11
203.43704685894
 21
830.323170799791
 31
0.0
  0
LINE
  5
226
330
1F
100
AcDbEntity
  8
0
  6
Continuous
 62
     3
100
AcDbLine
 10
203.961978840095
 20
830.323170799791
 30
0.0
 11
203.43704685894
 21
830.323170799791
 31
0.0
  0
LINE
  5
227
330
1F
100
AcDbEntity
  8
0
  6
Continuous
 62
     3
100
AcDbLine
 10
203.43704685894
 20
856.323170799791
 30
0.0
 11
206.44850637157
 21
856.323170799791
 31
0.0
  0
LINE
  5
228
330
1F
100
AcDbEntity
  8
0
  6
Continuous
 62
     3
100
AcDbLine
 10
200.024988981429
 20
855.323170799791
 30
0.0
 11
200.024988981429
 21
856.323170799791
 31
0.0
  0
LINE
  5
229
330
1F
100
AcDbEntity
  8
0
  6
Continuous
 62
     3
100
AcDbLine
 10
200.024988981429
 20
808.323170799791
 30
0.0
 11
200.024988981429
 21
809.323170799791
 31
0.0
  0
LINE
  5
22A
330
1F
100
AcDbEntity
  8
0
  6
Continuous
 62
     3
100
AcDbLine
 10
203.43704685894
 20
856.323170799791
 30
0.0
 11
200.024988981429
 21
856.323170799791
 31
0.0
  0
LINE
  5
22B
330
1F
100
AcDbEntity
  8
0
  6
Continuous
 62
     3
100
AcDbLine
 10
199.500057000273
 20
808.323170799791
 30
0.0
 11
199.500057000273
 21
804.323170799791
 31
0.0
  0
LINE
  5
22C
330
1F
100
AcDbEntity
  8
0
  6
Continuous
 62
     3
100
AcDbLine
 10
199.500057000273
 20
855.323170799791
 30
0.0
 11
199.500057000273
 21
809.323170799791
 31
0.0
  0
LINE
  5
22D
330
1F
100
AcDbEntity
  8
0
  6
Continuous
 62
     3
100
AcDbLine
 10
200.024988981429
 20
855.323170799791
 30
0.0
 11
199.500057000273
 21
855.323170799791
 31
0.0
  0
LINE
  5
22E
330
1F
100
AcDbEntity
  8
0
  6
Continuous
 62
     3
100
AcDbLine
 10
200.024988981429
 20
809.323170799791
 30
0.0
 11
199.500057000273
 21
809.323170799791
 31
0.0
  0
LINE
  5
22F
330
1F
100
AcDbEntity
  8
0
  6
Continuous
 62
     3
100
AcDbLine
 10
200.024988981429
 20
808.323170799791
 30
0.0
 11
199.500057000273
 21
808.323170799791
 31
0.0
  0
LINE
  5
230
330
1F
100
AcDbEntity
  8
0
  6
Continuous
 62
     3
100
AcDbLine
 10
198.260836324459
 20
855.323170799791
 30
0.0
 11
198.260836324459
 21
809.323170799791
 31
0.0
  0
LINE
  5
231
330
1F
100
AcDbEntity
  8
0
  6
Continuous
 62
     3
100
AcDbLine
 10
195.774308792985
 20
856.323170799791
 30
0.0
 11
200.024988981429
 21
856.323170799791
 31
0.0
  0
LINE
  5
232
330
1F
100
AcDbEntity
  8
0
  6
Continuous
 62
     3
100
AcDbLine
 10
195.774308792985
 20
855.323170799791
 30
0.0
 11
195.774308792985
 21
856.323170799791
 31
0.0
  0
LINE
  5
233
330
1F
100
AcDbEntity
  8
0
  6
Continuous
 62
     3
100
AcDbLine
 10
198.260836324459
 20
855.323170799791
 30
0.0
 11
195.774308792985
 21
855.323170799791
 31
0.0
  0
LINE
  5
234
330
1F
100
AcDbEntity
  8
0
  6
Continuous
 62
     3
100
AcDbLine
 10
199.500057000273
 20
855.323170799791
 30
0.0
 11
198.260836324459
 21
855.323170799791
 31
0.0
  0
LINE
  5
235
330
1F
100
AcDbEntity
  8
0
  6
Continuous
 62
     3
100
AcDbLine
 10
195.774308792985
 20
808.323170799791
 30
0.0
 11
195.774308792985
 21
809.323170799791
 31
0.0
  0
LINE
  5
236
330
1F
100
AcDbEntity
  8
0
  6
Continuous
 62
     3
100
AcDbLine
 10
199.500057000273
 20
809.323170799791
 30
0.0
 11
198.260836324459
 21
809.323170799791
 31
0.0
  0
LINE
  5
237
330
1F
100
AcDbEntity
  8
0
  6
Continuous
 62
     3
100
AcDbLine
 10
198.260836324459
 20
809.323170799791
 30
0.0
 11
195.774308792985
 21
809.323170799791
 31
0.0
  0
LINE
  5
238
330
1F
100
AcDbEntity
  8
0
  6
Continuous
 62
     3
100
AcDbLine
 10
195.774308792985
 20
809.323170799791
 30
0.0
 11
195.249376811829
 21
809.323170799791
 31
0.0
  0
LINE
  5
239
330
1F
100
AcDbEntity
  8
0
  6
Continuous
 62
     3
100
AcDbLine
 10
195.249376811829
 20
855.323170799791
 30
0.0
 11
195.774308792985
 21
855.323170799791
 31
0.0
  0
LINE
  5
23A
330
1F
100
AcDbEntity
  8
0
  6
Continuous
 62
     3
100
AcDbLine
 10
199.500057000273
 20
808.323170799791
 30
0.0
 11
198.260836324459
 21
808.323170799791
 31
0.0
  0
LINE
  5
23B
330
1F
100
AcDbEntity
  8
0
  6
Continuous
 62
     3
100
AcDbLine
 10
198.260836324459
 20
808.323170799791
 30
0.0
 11
195.774308792985
 21
808.323170799791
 31
0.0
  0
LINE
  5
23C
330
1F
100
AcDbEntity
  8
0
  6
Continuous
 62
     3
100
AcDbLine
 10
195.249376811829
 20
808.323170799791
 30
0.0
 11
195.774308792985
 21
808.323170799791
 31
0.0
  0
LINE
  5
23D
330
1F
100
AcDbEntity
  8
0
  6
Continuous
 62
     3
100
AcDbLine
 10
191.399875616688
 20
856.323170799791
 30
0.0
 11
195.774308792985
 21
856.323170799791
 31
0.0
  0
LINE
  5
23E
330
1F
100
AcDbEntity
  8
0
  6
Continuous
 62
     3
100
AcDbLine
 10
191.399875616688
 20
845.323170799791
 30
0.0
 11
191.399875616688
 21
856.323170799791
 31
0.0
  0
LINE
  5
23F
330
1F
100
AcDbEntity
  8
0
  6
Continuous
 62
     3
100
AcDbLine
 10
190.000057000273
 20
845.323170799791
 30
0.0
 11
191.399875616688
 21
845.323170799791
 31
0.0
  0
LINE
  5
240
330
1F
100
AcDbEntity
  8
0
  6
Continuous
 62
     3
100
AcDbLine
 10
185.000057000273
 20
856.323170799791
 30
0.0
 11
185.000057000273
 21
853.921247011144
 31
0.0
  0
LINE
  5
241
330
1F
100
AcDbEntity
  8
0
  6
Continuous
 62
     3
100
AcDbLine
 10
188.000057000273
 20
856.323170799791
 30
0.0
 11
188.000057000273
 21
853.921247011144
 31
0.0
  0
LINE
  5
242
330
1F
100
AcDbEntity
  8
0
  6
Continuous
 62
     3
100
AcDbLine
 10
239.000056999389
 20
856.323170799791
 30
0.0
 11
213.500057000273
 21
856.323170799791
 31
0.0
  0
LINE
  5
243
330
1F
100
AcDbEntity
  8
0
  6
Continuous
 62
     3
100
AcDbLine
 10
190.000057000273
 20
845.323170799791
 30
0.0
 11
190.000057000273
 21
796.323170799791
 31
0.0
  0
LINE
  5
244
330
1F
100
AcDbEntity
  8
0
  6
Continuous
 62
     3
100
AcDbLine
 10
195.249376811828
 20
794.148831340611
 30
0.0
 11
195.249376811829
 21
808.323170799791
 31
0.0
  0
LINE
  5
245
330
1F
100
AcDbEntity
  8
0
  6
Continuous
 62
     3
100
AcDbLine
 10
202.511516512903
 20
804.323170799791
 30
0.0
 11
199.500057000273
 21
804.323170799791
 31
0.0
  0
LINE
  5
246
330
1F
100
AcDbEntity
  8
0
  6
Continuous
 62
     3
100
AcDbLine
 10
198.260836324459
 20
803.323170799791
 30
0.0
 11
203.500057000273
 21
803.323170799791
 31
0.0
  0
LINE
  5
247
330
1F
100
AcDbEntity
  8
0
  6
Continuous
 62
     3
100
AcDbLine
 10
198.260836324459
 20
808.323170799791
 30
0.0
 11
198.260836324459
 21
803.323170799791
 31
0.0
  0
LINE
  5
248
330
1F
100
AcDbEntity
  8
0
  6
Continuous
 62
     3
100
AcDbLine
 10
180.500057000273
 20
845.323170799791
 30
0.0
 11
190.000057000273
 21
845.323170799791
 31
0.0
  0
LINE
  5
249
330
1F
100
AcDbEntity
  8
0
  6
Continuous
 62
     3
100
AcDbLine
 10
190.000057000273
 20
796.323170799791
 30
0.0
 11
180.56145682026
 21
786.884570619779
 31
0.0
  0
LINE
  5
24A
330
1F
100
AcDbEntity
  8
0
  6
Continuous
 62
     3
100
AcDbLine
 10
190.000057000273
 20
796.323170799791
 30
0.0
 11
195.249376811828
 21
794.148831340611
 31
0.0
  0
LINE
  5
24B
330
1F
100
AcDbEntity
  8
0
  6
Continuous
 62
     3
100
AcDbLine
 10
203.500057000273
 20
802.399511529056
 30
0.0
 11
195.249376811828
 21
794.148831340611
 31
0.0
  0
LINE
  5
24C
330
1F
100
AcDbEntity
  8
0
  6
Continuous
 62
     3
100
AcDbLine
 10
193.552860544048
 20
786.884570619779
 30
0.0
 11
200.362195146536
 21
793.693905222267
 31
0.0
  0
LINE
  5
24D
330
1F
100
AcDbEntity
  8
0
  6
Continuous
 62
     3
100
AcDbLine
 10
199.500057000273
 20
804.323170799791
 30
0.0
 11
201.537251411901
 21
805.136309252149
 31
0.0
  0
LINE
  5
24E
330
1F
100
AcDbEntity
  8
0
  6
Continuous
 62
     3
100
AcDbLine
 10
180.500057000273
 20
856.323170799791
 30
0.0
 11
185.000057000273
 21
856.323170799791
 31
0.0
  0
LINE
  5
24F
330
1F
100
AcDbEntity
  8
0
  6
Continuous
 62
     3
100
AcDbLine
 10
180.500057000273
 20
856.323170799791
 30
0.0
 11
180.500057000273
 21
845.323170799791
 31
0.0
  0
LINE
  5
250
330
1F
100
AcDbEntity
  8
0
  6
Continuous
 62
     3
100
AcDbLine
 10
394.60023838386
 20
414.537767755497
 30
0.0
 11
405.500057000273
 21
414.537767755497
 31
0.0
  0
LINE
  5
251
330
1F
100
AcDbEntity
  8
0
  6
Continuous
 62
     3
100
AcDbLine
 10
187.687500317903
 20
403.537767755497
 30
0.0
 11
193.342388293443
 21
403.537767755497
 31
0.0
  0
LINE
  5
252
330
1F
100
AcDbEntity
  8
0
  6
Continuous
 62
     3
100
AcDbLine
 10
195.21310724971
 20
403.537767755497
 30
0.0
 11
195.21310724971
 21
398.537767755497
 31
0.0
  0
LINE
  5
253
330
1F
100
AcDbEntity
  8
0
  6
Continuous
 62
     3
100
AcDbLine
 10
187.687500317903
 20
403.537767755497
 30
0.0
 11
187.250057000273
 21
398.537767755498
 31
0.0
  0
LINE
  5
254
330
1F
100
AcDbEntity
  8
0
  6
Continuous
 62
     3
100
AcDbLine
 10
405.500057000273
 20
398.537767755497
 30
0.0
 11
405.500057000273
 21
414.537767755497
 31
0.0
  0
LINE
  5
255
330
1F
100
AcDbEntity
  8
0
  6
Continuous
 62
     3
100
AcDbLine
 10
360.55298803507
 20
400.790276335038
 30
0.0
 11
356.829522619614
 21
503.537767755497
 31
0.0
  0
LINE
  5
256
330
1F
100
AcDbEntity
  8
0
  6
Continuous
 62
     3
100
AcDbLine
 10
216.562160223681
 20
548.537767755497
 30
0.0
 11
339.437953776866
 21
548.537767755498
 31
0.0
  0
LINE
  5
257
330
1F
100
AcDbEntity
  8
0
  6
Continuous
 62
     3
100
AcDbLine
 10
180.500057000273
 20
398.537767755497
 30
0.0
 11
180.500057000273
 21
414.537767755497
 31
0.0
  0
LINE
  5
258
330
1F
100
AcDbEntity
  8
0
  6
Continuous
 62
     3
100
AcDbLine
 10
180.500057000273
 20
414.537767755497
 30
0.0
 11
182.541099292457
 21
414.537767755497
 31
0.0
  0
LINE
  5
259
330
1F
100
AcDbEntity
  8
0
  6
Continuous
 62
     3
100
AcDbLine
 10
193.342388293443
 20
403.537767755497
 30
0.0
 11
195.21310724971
 21
403.537767755497
 31
0.0
  0
LINE
  5
25A
330
1F
100
AcDbEntity
  8
0
  6
Continuous
 62
     3
100
AcDbLine
 10
193.552860544048
 20
503.537767755497
 30
0.0
 11
180.561456820261
 21
398.537767755497
 31
0.0
  0
LINE
  5
25B
330
1F
100
AcDbEntity
  8
0
  6
Continuous
 62
     3
100
AcDbLine
 10
386.813747330051
 20
503.537767755497
 30
0.0
 11
377.750057000273
 21
503.537767755497
 31
0.0
  0
LINE
  5
25C
330
1F
100
AcDbEntity
  8
0
  6
Continuous
 62
     3
100
AcDbLine
 10
278.500057000273
 20
509.537767755498
 30
0.0
 11
277.500057000273
 21
509.537767755498
 31
0.0
  0
LINE
  5
25D
330
1F
100
AcDbEntity
  8
0
  6
Continuous
 62
     3
100
AcDbLine
 10
200.362195146536
 20
503.537767755496
 30
0.0
 11
193.552860544048
 21
503.537767755497
 31
0.0
  0
LINE
  5
25E
330
1F
100
AcDbEntity
  8
0
  6
Continuous
 62
     3
100
AcDbLine
 10
277.500057000273
 20
509.537767755498
 30
0.0
 11
277.500057000273
 21
503.535136103649
 31
0.0
  0
LINE
  5
25F
330
1F
100
AcDbEntity
  8
0
  6
Continuous
 62
     3
100
AcDbLine
 10
278.500057000273
 20
503.535136103649
 30
0.0
 11
278.500057000273
 21
509.537767755498
 31
0.0
  0
LINE
  5
260
330
1F
100
AcDbEntity
  8
0
  6
Continuous
 62
     3
100
AcDbLine
 10
204.603087380604
 20
503.537767755497
 30
0.0
 11
204.603087380604
 21
398.537767755497
 31
0.0
  0
LINE
  5
261
330
1F
100
AcDbEntity
  8
0
  6
Continuous
 62
     3
100
AcDbLine
 10
394.60023838386
 20
414.537767755497
 30
0.0
 11
396.000057000273
 21
398.537767755497
 31
0.0
  0
LINE
  5
262
330
1F
100
AcDbEntity
  8
0
  6
Continuous
 62
     3
100
AcDbLine
 10
386.813747330051
 20
503.537767755497
 30
0.0
 11
394.60023838386
 21
414.537767755497
 31
0.0
  0
LINE
  5
263
330
1F
100
AcDbEntity
  8
0
  6
Continuous
 62
     3
100
AcDbLine
 10
325.319305159631
 20
460.177665536011
 30
0.0
 11
330.624608772797
 21
399.537767755497
 31
0.0
  0
LINE
  5
264
330
1F
100
AcDbEntity
  8
0
  6
Continuous
 62
     3
100
AcDbLine
 10
245.260801968196
 20
398.537767755497
 30
0.0
 11
248.114216057522
 21
431.152440037927
 31
0.0
  0
LINE
  5
265
330
1F
100
AcDbEntity
  8
0
  6
Continuous
 62
     3
100
AcDbLine
 10
225.37550522775
 20
399.537767755497
 30
0.0
 11
230.680808840915
 21
460.177665536011
 31
0.0
  0
LINE
  5
266
330
1F
100
AcDbEntity
  8
0
  6
Continuous
 62
     3
100
AcDbLine
 10
360.312613682644
 20
403.537767755497
 30
0.0
 11
360.55298803507
 21
400.790276335038
 31
0.0
  0
LINE
  5
267
330
1F
100
AcDbEntity
  8
0
  6
Continuous
 62
     3
100
AcDbLine
 10
353.687500317904
 20
403.537767755497
 30
0.0
 11
360.312613682644
 21
403.537767755497
 31
0.0
  0
LINE
  5
268
330
1F
100
AcDbEntity
  8
0
  6
Continuous
 62
     3
100
AcDbLine
 10
353.687500317904
 20
403.537767755497
 30
0.0
 11
353.250057000273
 21
398.537767755497
 31
0.0
  0
LINE
  5
269
330
1F
100
AcDbEntity
  8
0
  6
Continuous
 62
     3
100
AcDbLine
 10
307.885897943026
 20
431.152440037927
 30
0.0
 11
310.739312032352
 21
398.537767755497
 31
0.0
  0
LINE
  5
26A
330
1F
100
AcDbEntity
  8
0
  6
Continuous
 62
     3
100
AcDbLine
 10
232.843371584049
 20
513.537767755497
 30
0.0
 11
323.156742416746
 21
513.537767755498
 31
0.0
  0
LINE
  5
26B
330
1F
100
AcDbEntity
  8
1
  6
Continuous
 62
     7
100
AcDbLine
 10
278.500057000273
 20
503.537767755498
 30
0.0
 11
277.500057000273
 21
503.537767755498
 31
0.0
  0
LINE
  5
26C
330
1F
100
AcDbEntity
  8
0
  6
Continuous
 62
     3
100
AcDbLine
 10
386.813747329835
 20
897.152636419133
 30
0.0
 11
396.000057000057
 21
900.957730472698
 31
0.0
  0
LINE
  5
26D
330
1F
100
AcDbEntity
  8
0
  6
Continuous
 62
     3
100
AcDbLine
 10
394.600238383858
 20
856.323170799791
 30
0.0
 11
394.600238383643
 21
867.323170799792
 31
0.0
  0
LINE
  5
26E
330
1F
100
AcDbEntity
  8
0
  6
Continuous
 62
     3
100
AcDbLine
 10
386.813747330051
 20
856.323170799791
 30
0.0
 11
386.813747329835
 21
897.152636419133
 31
0.0
  0
LINE
  5
26F
330
1F
100
AcDbEntity
  8
0
  6
Continuous
 62
     3
100
AcDbLine
 10
386.813747330051
 20
856.323170799791
 30
0.0
 11
394.600238383858
 21
856.323170799791
 31
0.0
  0
LINE
  5
270
330
1F
100
AcDbEntity
  8
0
  6
Continuous
 62
     3
100
AcDbLine
 10
396.000057000057
 20
867.323170799792
 30
0.0
 11
396.000057000057
 21
900.957730472698
 31
0.0
  0
LINE
  5
271
330
1F
100
AcDbEntity
  8
0
  6
Continuous
 62
     3
100
AcDbLine
 10
394.600238383643
 20
867.323170799792
 30
0.0
 11
396.000057000057
 21
867.323170799792
 31
0.0
  0
LINE
  5
272
330
1F
100
AcDbEntity
  8
0
  6
Continuous
 62
     3
100
AcDbLine
 10
394.600238383858
 20
856.323170799791
 30
0.0
 11
398.000057000273
 21
856.323170799791
 31
0.0
  0
LINE
  5
273
330
1F
100
AcDbEntity
  8
0
  6
Continuous
 62
     3
100
AcDbLine
 10
398.000057000273
 20
858.725094588438
 30
0.0
 11
398.000057000273
 21
856.323170799791
 31
0.0
  0
LINE
  5
274
330
1F
100
AcDbEntity
  8
0
  6
Continuous
 62
     3
100
AcDbLine
 10
386.813747330051
 20
856.323170799791
 30
0.0
 11
386.813747330051
 21
815.49370518045
 31
0.0
  0
LINE
  5
275
330
1F
100
AcDbEntity
  8
0
  6
Continuous
 62
     3
100
AcDbLine
 10
394.600238383858
 20
856.323170799791
 30
0.0
 11
394.600238383858
 21
851.323170799791
 31
0.0
  0
LINE
  5
276
330
1F
100
AcDbEntity
  8
0
  6
Continuous
 62
     3
100
AcDbLine
 10
386.813747330051
 20
856.323170799791
 30
0.0
 11
394.600238383858
 21
856.323170799791
 31
0.0
  0
LINE
  5
277
330
1F
100
AcDbEntity
  8
0
  6
Continuous
 62
     3
100
AcDbLine
 10
396.000057000273
 20
851.323170799791
 30
0.0
 11
396.000057000273
 21
811.688611126885
 31
0.0
  0
LINE
  5
278
330
1F
100
AcDbEntity
  8
0
  6
Continuous
 62
     3
100
AcDbLine
 10
394.600238383858
 20
851.323170799791
 30
0.0
 11
396.000057000273
 21
851.323170799791
 31
0.0
  0
LINE
  5
279
330
1F
100
AcDbEntity
  8
0
  6
Continuous
 62
     3
100
AcDbLine
 10
394.600238383858
 20
856.323170799791
 30
0.0
 11
398.000057000273
 21
856.323170799791
 31
0.0
  0
LINE
  5
27A
330
1F
100
AcDbEntity
  8
0
  6
Continuous
 62
     3
100
AcDbLine
 10
398.000057000273
 20
858.725094588438
 30
0.0
 11
398.000057000273
 21
856.323170799791
 31
0.0
  0
LINE
  5
27B
330
1F
100
AcDbEntity
  8
0
  6
Continuous
 62
     3
100
AcDbLine
 10
386.813747330051
 20
815.49370518045
 30
0.0
 11
396.000057000273
 21
811.688611126885
 31
0.0
  0
LINE
  5
27C
330
1F
100
AcDbEntity
  8
0
  6
Continuous
 62
     3
100
AcDbLine
 10
405.500057000057
 20
867.323170799792
 30
0.0
 11
405.500057000273
 21
856.323170799791
 31
0.0
  0
LINE
  5
27D
330
1F
100
AcDbEntity
  8
0
  6
Continuous
 62
     3
100
AcDbLine
 10
396.000057000057
 20
867.323170799792
 30
0.0
 11
405.500057000057
 21
867.323170799792
 31
0.0
  0
LINE
  5
27E
330
1F
100
AcDbEntity
  8
0
  6
Continuous
 62
     3
100
AcDbLine
 10
401.000057000273
 20
856.323170799791
 30
0.0
 11
405.500057000273
 21
856.323170799791
 31
0.0
  0
LINE
  5
27F
330
1F
100
AcDbEntity
  8
0
  6
Continuous
 62
     3
100
AcDbLine
 10
401.000057000057
 20
858.725094588438
 30
0.0
 11
401.000057000273
 21
856.323170799791
 31
0.0
  0
LINE
  5
280
330
1F
100
AcDbEntity
  8
0
  6
Continuous
 62
     3
100
AcDbLine
 10
401.000057000273
 20
859.323170799792
 30
0.0
 11
398.689331567422
 21
864.211548246132
 31
0.0
  0
LINE
  5
281
330
1F
100
AcDbEntity
  8
0
  6
Continuous
 62
     3
100
AcDbLine
 10
396.000057000273
 20
851.323170799791
 30
0.0
 11
405.500057000273
 21
851.323170799791
 31
0.0
  0
LINE
  5
282
330
1F
100
AcDbEntity
  8
0
  6
Continuous
 62
     3
100
AcDbLine
 10
405.500057000273
 20
856.323170799791
 30
0.0
 11
405.500057000273
 21
851.323170799791
 31
0.0
  0
LINE
  5
283
330
1F
100
AcDbEntity
  8
0
  6
Continuous
 62
     3
100
AcDbLine
 10
401.000057000273
 20
856.323170799791
 30
0.0
 11
405.500057000273
 21
856.323170799791
 31
0.0
  0
LINE
  5
284
330
1F
100
AcDbEntity
  8
0
  6
Continuous
 62
     3
100
AcDbLine
 10
401.000057000273
 20
859.323170799792
 30
0.0
 11
401.000057000273
 21
856.323170799791
 31
0.0
  0
LINE
  5
285
330
1F
100
AcDbEntity
  8
0
  6
Continuous
 62
     3
100
AcDbLine
 10
360.55298803507
 20
400.790276335038
 30
0.0
 11
360.750057000273
 21
398.537767755497
 31
0.0
  0
LINE
  5
286
330
1F
100
AcDbEntity
  8
0
  6
Continuous
 62
     3
100
AcDbLine
 10
396.000057000273
 20
398.537767755497
 30
0.0
 11
405.500057000273
 21
398.537767755497
 31
0.0
  0
LINE
  5
287
330
1F
100
AcDbEntity
  8
0
  6
Continuous
 62
     3
100
AcDbLine
 10
360.750057000273
 20
398.537767755497
 30
0.0
 11
396.000057000273
 21
398.537767755497
 31
0.0
  0
LINE
  5
288
330
1F
100
AcDbEntity
  8
0
  6
Continuous
 62
     3
100
AcDbLine
 10
204.603087380604
 20
398.537767755497
 30
0.0
 11
218.083318120958
 21
398.537767755498
 31
0.0
  0
LINE
  5
289
330
1F
100
AcDbEntity
  8
0
  6
Continuous
 62
     3
100
AcDbLine
 10
195.21310724971
 20
398.537767755497
 30
0.0
 11
204.603087380604
 21
398.537767755497
 31
0.0
  0
LINE
  5
28A
330
1F
100
AcDbEntity
  8
0
  6
Continuous
 62
     3
100
AcDbLine
 10
180.561456820261
 20
398.537767755497
 30
0.0
 11
187.250057000273
 21
398.537767755498
 31
0.0
  0
LINE
  5
28B
330
1F
100
AcDbEntity
  8
0
  6
Continuous
 62
     3
100
AcDbLine
 10
180.500057000273
 20
398.537767755497
 30
0.0
 11
180.561456820261
 21
398.537767755497
 31
0.0
  0
LINE
  5
28C
330
1F
100
AcDbEntity
  8
0
  6
Continuous
 62
     3
100
AcDbLine
 10
219.265097538964
 20
398.537767755497
 30
0.0
 11
245.260801968196
 21
398.537767755497
 31
0.0
  0
LINE
  5
28D
330
1F
100
AcDbEntity
  8
0
  6
Continuous
 62
     3
100
AcDbLine
 10
219.35258620249
 20
399.537767755497
 30
0.0
 11
219.265097538964
 21
398.537767755497
 31
0.0
  0
LINE
  5
28E
330
1F
100
AcDbEntity
  8
0
  6
Continuous
 62
     3
100
AcDbLine
 10
336.735016461584
 20
398.537767755497
 30
0.0
 11
336.647527798057
 21
399.537767755497
 31
0.0
  0
LINE
  5
28F
330
1F
100
AcDbEntity
  8
0
  6
Continuous
 62
     3
100
AcDbLine
 10
336.735016461584
 20
398.537767755497
 30
0.0
 11
353.250057000273
 21
398.537767755497
 31
0.0
  0
LINE
  5
290
330
1F
100
AcDbEntity
  8
0
  6
Continuous
 62
     3
100
AcDbLine
 10
336.647527798057
 20
399.537767755497
 30
0.0
 11
330.624608772797
 21
399.537767755497
 31
0.0
  0
LINE
  5
291
330
1F
100
AcDbEntity
  8
0
  6
Continuous
 62
     3
100
AcDbLine
 10
225.37550522775
 20
399.537767755497
 30
0.0
 11
219.35258620249
 21
399.537767755497
 31
0.0
  0
LINE
  5
292
330
1F
100
AcDbEntity
  8
0
  6
Continuous
 62
     3
100
AcDbLine
 10
310.739312032352
 20
398.537767755497
 30
0.0
 11
336.735016461584
 21
398.537767755497
 31
0.0
  0
LINE
  5
293
330
1F
100
AcDbEntity
  8
0
  6
Continuous
 62
     3
100
AcDbLine
 10
218.083318120958
 20
398.537767755498
 30
0.0
 11
219.265097538964
 21
398.537767755497
 31
0.0
  0
LINE
  5
294
330
1F
100
AcDbEntity
  8
1
  6
DOT_CENTER
 62
     1
100
AcDbLine
 10
278.000057000273
 20
562.365014190365
 30
0.0
 11
278.000057000273
 21
285.365014190365
 31
0.0
  0
LINE
  5
295
330
1F
100
AcDbEntity
  8
1
  6
DOT_CENTER
 62
     1
100
AcDbLine
 10
278.000057000273
 20
1001.83252551188
 30
0.0
 11
278.000057000273
 21
694.83252551188
 31
0.0
  0
LINE
  5
296
330
1F
100
AcDbEntity
  8
0
  6
Continuous
 62
     3
100
AcDbLine
 10
212.447532134323
 20
533.537767755498
 30
0.0
 11
205.325477832048
 21
533.537767756023
 31
0.0
  0
LINE
  5
297
330
1F
100
AcDbEntity
  8
0
  6
Continuous
 62
     3
100
AcDbLine
 10
211.035982984657
 20
531.545378359321
 30
0.0
 11
203.669688236439
 21
531.545378360061
 31
0.0
  0
LINE
  5
298
330
1F
100
AcDbEntity
  8
0
  6
Continuous
 62
     3
100
AcDbLine
 10
204.603087380604
 20
503.537767755497
 30
0.0
 11
211.10127234374
 21
503.537767755496
 31
0.0
  0
LINE
  5
299
330
1F
100
AcDbEntity
  8
0
  6
Continuous
 62
     3
100
AcDbLine
 10
227.253455282743
 20
533.537767755491
 30
0.0
 11
213.191054337803
 21
533.537767755498
 31
0.0
  0
LINE
  5
29A
330
1F
100
AcDbEntity
  8
0
  6
Continuous
 62
     3
100
AcDbLine
 10
213.191054337803
 20
533.537767755498
 30
0.0
 11
212.447532134323
 21
533.537767755498
 31
0.0
  0
LINE
  5
29B
330
1F
100
AcDbEntity
  8
0
  6
Continuous
 62
     3
100
AcDbLine
 10
200.362195146536
 20
503.537767755496
 30
0.0
 11
204.603087380604
 21
503.537767755497
 31
0.0
  0
LINE
  5
29C
330
1F
100
AcDbEntity
  8
0
  6
Continuous
 62
     3
100
AcDbLine
 10
215.249830270791
 20
533.537767755498
 30
0.0
 11
216.562160223681
 21
548.537767755497
 31
0.0
  0
LINE
  5
29D
330
1F
100
AcDbEntity
  8
0
  6
Continuous
 62
     3
100
AcDbLine
 10
218.083318120958
 20
398.537767755498
 30
0.0
 11
213.191054337803
 21
533.537767755498
 31
0.0
  0
LINE
  5
29E
330
1F
100
AcDbEntity
  8
0
  6
Continuous
 62
     3
100
AcDbLine
 10
356.829522619614
 20
503.537767755497
 30
0.0
 11
377.750057000273
 21
503.537767755497
 31
0.0
  0
LINE
  5
29F
330
1F
100
AcDbEntity
  8
0
  6
Continuous
 62
     3
100
AcDbLine
 10
377.750057000273
 20
503.537767755497
 30
0.0
 11
375.299708579991
 21
531.545378359315
 31
0.0
  0
LINE
  5
2A0
330
1F
100
AcDbEntity
  8
0
  6
Continuous
 62
     3
100
AcDbLine
 10
375.299708579991
 20
531.545378359315
 30
0.0
 11
347.2364324145
 21
531.545378359315
 31
0.0
  0
LINE
  5
2A1
330
1F
100
AcDbEntity
  8
0
  6
Continuous
 62
     3
100
AcDbLine
 10
348.253055241481
 20
503.537767755498
 30
0.0
 11
356.829522619614
 21
503.537767755497
 31
0.0
  0
LINE
  5
2A2
330
1F
100
AcDbEntity
  8
0
  6
Continuous
 62
     3
100
AcDbLine
 10
373.125397094495
 20
533.537767755498
 30
0.0
 11
344.325666367064
 21
533.537767755498
 31
0.0
  0
LINE
  5
2A3
330
1F
100
AcDbEntity
  8
0
  6
Continuous
 62
     3
100
AcDbLine
 10
375.299708579991
 20
531.545378359315
 30
0.0
 11
373.125397094495
 21
533.537767755498
 31
0.0
  0
LINE
  5
2A4
330
1F
100
AcDbEntity
  8
0
  6
Continuous
 62
     3
100
AcDbLine
 10
344.325666367064
 20
533.537767755498
 30
0.0
 11
328.746658717804
 21
533.537767755498
 31
0.0
  0
LINE
  5
2A5
330
1F
100
AcDbEntity
  8
0
  6
Continuous
 62
     3
100
AcDbLine
 10
340.750283729754
 20
533.537767755498
 30
0.0
 11
339.437953776866
 21
548.537767755498
 31
0.0
  0
LINE
  5
2A6
330
1F
100
AcDbEntity
  8
1
  6
Continuous
 62
     3
100
AcDbLine
 10
414.577042110948
 20
972.900155753309
 30
0.0
 11
414.577042110948
 21
723.746185684683
 31
0.0
  0
LINE
  5
2A7
330
1F
100
AcDbEntity
  8
1
  6
Continuous
 62
     3
100
AcDbLine
 10
397.012525981915
 20
867.323170799792
 30
0.0
 11
397.012525981915
 21
971.335639624278
 31
0.0
  0
LINE
  5
2A8
330
1F
100
AcDbEntity
  8
1
  6
Continuous
 62
     3
100
AcDbLine
 10
149.423072042324
 20
306.537767755498
 30
0.0
 11
421.177042110948
 21
306.537767755498
 31
0.0
  0
LINE
  5
2A9
330
1F
100
AcDbEntity
  8
1
  6
Continuous
 62
     3
100
AcDbLine
 10
149.423072042324
 20
306.537767755498
 30
0.0
 11
150.423072042324
 21
298.537767755498
 31
0.0
  0
LINE
  5
2AA
330
1F
100
AcDbEntity
  8
1
  6
Continuous
 62
     3
100
AcDbLine
 10
420.177042110948
 20
298.537767755498
 30
0.0
 11
150.423072042324
 21
298.537767755498
 31
0.0
  0
LINE
  5
2AB
330
1F
100
AcDbEntity
  8
1
  6
Continuous
 62
     3
100
AcDbLine
 10
421.177042110948
 20
306.537767755498
 30
0.0
 11
420.177042110948
 21
298.537767755498
 31
0.0
  0
LINE
  5
2AC
330
1F
100
AcDbEntity
  8
1
  6
Continuous
 62
     3
100
AcDbLine
 10
396.012525981916
 20
398.537767755497
 30
0.0
 11
158.987588171356
 21
398.537767755497
 31
0.0
  0
LINE
  5
2AD
330
1F
100
AcDbEntity
  8
1
  6
Continuous
 62
     3
100
AcDbLine
 10
154.423072042324
 20
984.900155753309
 30
0.0
 11
416.577042110948
 21
984.900155753309
 31
0.0
  0
LINE
  5
2AE
330
1F
100
AcDbEntity
  8
1
  6
Continuous
 62
     3
100
AcDbLine
 10
421.577042110948
 20
979.900155753309
 30
0.0
 11
421.577042110948
 21
717.746185684683
 31
0.0
  0
LINE
  5
2AF
330
1F
100
AcDbEntity
  8
1
  6
Continuous
 62
     3
100
AcDbLine
 10
416.577042110948
 20
712.746185684683
 30
0.0
 11
154.423072042324
 21
712.746185684683
 31
0.0
  0
LINE
  5
2B0
330
1F
100
AcDbEntity
  8
1
  6
Continuous
 62
     3
100
AcDbLine
 10
149.423072042324
 20
717.746185684683
 30
0.0
 11
149.423072042324
 21
979.900155753309
 31
0.0
  0
LINE
  5
2B1
330
1F
100
AcDbEntity
  8
1
  6
Continuous
 62
     3
100
AcDbLine
 10
411.945527572176
 20
722.377700223457
 30
0.0
 11
397.012525981916
 21
737.310701813717
 31
0.0
  0
LINE
  5
2B2
330
1F
100
AcDbEntity
  8
1
  6
Continuous
 62
     3
100
AcDbLine
 10
409.68034565162
 20
976.463994544351
 30
0.0
 11
397.012525981916
 21
975.335639624278
 31
0.0
  0
LINE
  5
2B3
330
1F
100
AcDbEntity
  8
1
  6
Continuous
 62
     3
100
AcDbLine
 10
160.16889565972
 20
974.17376797318
 30
0.0
 11
158.7230949976
 21
975.851447666688
 31
0.0
  0
LINE
  5
2B4
330
1F
100
AcDbEntity
  8
1
  6
Continuous
 62
     3
100
AcDbLine
 10
158.987588171356
 20
737.310701813717
 30
0.0
 11
157.839495044022
 21
724.42128515736
 31
0.0
  0
LINE
  5
2B5
330
1F
100
AcDbEntity
  8
1
  6
Continuous
 62
     3
100
AcDbLine
 10
397.012525981915
 20
741.310701813717
 30
0.0
 11
397.012525981915
 21
851.323170799791
 31
0.0
  0
LINE
  5
2B6
330
1F
100
AcDbEntity
  8
1
  6
Continuous
 62
     3
100
AcDbLine
 10
162.987588171356
 20
737.310701813717
 30
0.0
 11
393.012525981915
 21
737.310701813717
 31
0.0
  0
LINE
  5
2B7
330
1F
100
AcDbEntity
  8
1
  6
Continuous
 62
     3
100
AcDbLine
 10
158.987588171356
 20
971.335639624278
 30
0.0
 11
158.987588171356
 21
741.310701813717
 31
0.0
  0
LINE
  5
2B8
330
1F
100
AcDbEntity
  8
1
  6
Continuous
 62
     3
100
AcDbLine
 10
393.012525981915
 20
975.335639624278
 30
0.0
 11
162.987588171356
 21
975.335639624278
 31
0.0
  0
LINE
  5
2B9
330
1F
100
AcDbEntity
  8
1
  6
Continuous
 62
     3
100
AcDbLine
 10
157.423072042324
 20
723.746185684683
 30
0.0
 11
157.423072042324
 21
972.900155753309
 31
0.0
  0
LINE
  5
2BA
330
1F
100
AcDbEntity
  8
1
  6
Continuous
 62
     3
100
AcDbLine
 10
410.577042110948
 20
719.746185684683
 30
0.0
 11
161.423072042324
 21
719.746185684683
 31
0.0
  0
LINE
  5
2BB
330
1F
100
AcDbEntity
  8
1
  6
Continuous
 62
     3
100
AcDbLine
 10
161.423072042324
 20
976.900155753309
 30
0.0
 11
410.577042110948
 21
976.900155753309
 31
0.0
  0
LINE
  5
2BC
330
1F
100
AcDbEntity
  8
1
  6
DOT_CENTER
 62
     1
100
AcDbLine
 10
135.266467364281
 20
856.323170799791
 30
0.0
 11
437.266467364281
 21
856.323170799791
 31
0.0
  0
ARC
  5
2BD
330
1F
100
AcDbEntity
  8
0
  6
Continuous
 62
     3
100
AcDbCircle
 10
-99.4263596959361
 20
481.037767755497
 30
0.0
 40
22.49999999999957
100
AcDbArc
 50
2.00000000000195
 51
90.0
  0
ARC
  5
2BE
330
1F
100
AcDbEntity
  8
0
  6
Continuous
 62
     3
100
AcDbCircle
 10
-98.4263596959361
 20
481.037767755497
 30
0.0
 40
22.49999999999957
100
AcDbArc
 50
2.00000000000195
 51
90.0
  0
ARC
  5
2BF
330
1F
100
AcDbEntity
  8
0
  6
Continuous
 62
     3
100
AcDbCircle
 10
-157.827495575362
 20
481.037767755497
 30
0.0
 40
22.5
100
AcDbArc
 50
90.0
 51
177.999999999998
  0
ARC
  5
2C0
330
1F
100
AcDbEntity
  8
0
  6
Continuous
 62
     3
100
AcDbCircle
 10
-156.827495575362
 20
481.037767755497
 30
0.0
 40
22.5
100
AcDbArc
 50
90.0
 51
177.999999999998
  0
ARC
  5
2C1
330
1F
100
AcDbEntity
  8
0
  6
Continuous
 62
     3
100
AcDbCircle
 10
278.000057000341
 20
856.323170799719
 30
0.0
 40
39.00000000095199
100
AcDbArc
 50
179.9999999998943
 51
188.8498830981092
  0
ARC
  5
2C2
330
1F
100
AcDbEntity
  8
0
  6
Continuous
 62
     3
100
AcDbCircle
 10
278.000057000341
 20
856.323170799719
 30
0.0
 40
39.00000000093019
100
AcDbArc
 50
188.8498830981092
 51
217.3568519719699
  0
ARC
  5
2C3
330
1F
100
AcDbEntity
  8
0
  6
Continuous
 62
     3
100
AcDbCircle
 10
278.000057000341
 20
856.323170799719
 30
0.0
 40
41.49999999931281
100
AcDbArc
 50
311.6698657232178
 51
318.3301342750659
  0
ARC
  5
2C4
330
1F
100
AcDbEntity
  8
0
  6
Continuous
 62
     3
100
AcDbCircle
 10
278.000057000341
 20
856.323170799719
 30
0.0
 40
41.50000000066338
100
AcDbArc
 50
221.6698657231865
 51
228.3301342748176
  0
ARC
  5
2C5
330
1F
100
AcDbEntity
  8
0
  6
Continuous
 62
     3
100
AcDbCircle
 10
278.000057000341
 20
856.323170799719
 30
0.0
 40
39.00000000040107
100
AcDbArc
 50
240.8446345724443
 51
250.5287793641553
  0
ARC
  5
2C6
330
1F
100
AcDbEntity
  8
0
  6
Continuous
 62
     3
100
AcDbCircle
 10
278.000057000341
 20
856.323170799719
 30
0.0
 40
39.000000000249
100
AcDbArc
 50
250.5287793641553
 51
289.4712206332076
  0
ARC
  5
2C7
330
1F
100
AcDbEntity
  8
0
  6
Continuous
 62
     3
100
AcDbCircle
 10
278.000057000341
 20
856.323170799719
 30
0.0
 40
39.00000000052076
100
AcDbArc
 50
232.6431480259203
 51
240.8446345724443
  0
ARC
  5
2C8
330
1F
100
AcDbEntity
  8
0
  6
Continuous
 62
     3
100
AcDbCircle
 10
278.000057000341
 20
856.323170799719
 30
0.0
 40
38.99999999947264
100
AcDbArc
 50
299.1553654251137
 51
307.3568519718551
  0
ARC
  5
2C9
330
1F
100
AcDbEntity
  8
0
  6
Continuous
 62
     3
100
AcDbCircle
 10
278.000057000341
 20
856.323170799719
 30
0.0
 40
38.99999999961436
100
AcDbArc
 50
289.4712206332076
 51
299.1553654251137
  0
ARC
  5
2CA
330
1F
100
AcDbEntity
  8
0
  6
Continuous
 62
     3
100
AcDbCircle
 10
278.000057000341
 20
856.323170799719
 30
0.0
 40
38.99999999904789
100
AcDbArc
 50
351.1501169014602
 51
0.00000000010572
  0
ARC
  5
2CB
330
1F
100
AcDbEntity
  8
0
  6
Continuous
 62
     3
100
AcDbCircle
 10
278.000057000341
 20
856.323170799719
 30
0.0
 40
38.99999999919935
100
AcDbArc
 50
322.6431480263328
 51
351.1501169014602
  0
ARC
  5
2CC
330
1F
100
AcDbEntity
  8
0
  6
Continuous
 62
     3
100
AcDbCircle
 10
278.000057000341
 20
856.323170799719
 30
0.0
 40
38.99999999907004
100
AcDbArc
 50
8.84988309874876
 51
37.35685197383645
  0
ARC
  5
2CD
330
1F
100
AcDbEntity
  8
0
  6
Continuous
 62
     3
100
AcDbCircle
 10
278.000057000341
 20
856.323170799719
 30
0.0
 40
38.99999999904804
100
AcDbArc
 50
0.00000000010572
 51
8.84988309874876
  0
ARC
  5
2CE
330
1F
100
AcDbEntity
  8
0
  6
Continuous
 62
     3
100
AcDbCircle
 10
278.000057000341
 20
856.323170799719
 30
0.0
 40
38.99999999959922
100
AcDbArc
 50
60.84463457499002
 51
70.52877936686338
  0
ARC
  5
2CF
330
1F
100
AcDbEntity
  8
0
  6
Continuous
 62
     3
100
AcDbCircle
 10
278.000057000341
 20
856.323170799719
 30
0.0
 40
38.99999999947927
100
AcDbArc
 50
52.6431480282732
 51
60.84463457499002
  0
ARC
  5
2D0
330
1F
100
AcDbEntity
  8
0
  6
Continuous
 62
     3
100
AcDbCircle
 10
278.000057000341
 20
856.323170799719
 30
0.0
 40
39.00000000052677
100
AcDbArc
 50
119.1553654274527
 51
127.3568519739514
  0
ARC
  5
2D1
330
1F
100
AcDbEntity
  8
0
  6
Continuous
 62
     3
100
AcDbCircle
 10
278.000057000341
 20
856.323170799719
 30
0.0
 40
38.99999999975103
100
AcDbArc
 50
70.52877936686338
 51
109.4712206357737
  0
ARC
  5
2D2
330
1F
100
AcDbEntity
  8
0
  6
Continuous
 62
     3
100
AcDbCircle
 10
278.000057000341
 20
856.323170799719
 30
0.0
 40
39.00000000038566
100
AcDbArc
 50
109.4712206357737
 51
119.1553654274527
  0
ARC
  5
2D3
330
1F
100
AcDbEntity
  8
0
  6
Continuous
 62
     3
100
AcDbCircle
 10
278.000057000341
 20
856.323170799719
 30
0.0
 40
41.5000000006868
100
AcDbArc
 50
131.6698657250503
 51
138.3301342766651
  0
ARC
  5
2D4
330
1F
100
AcDbEntity
  8
0
  6
Continuous
 62
     3
100
AcDbCircle
 10
278.000057000341
 20
856.323170799719
 30
0.0
 40
41.49999999933685
100
AcDbArc
 50
41.66986572508254
 51
48.33013427691427
  0
ARC
  5
2D5
330
1F
100
AcDbEntity
  8
0
  6
Continuous
 62
     3
100
AcDbCircle
 10
278.000057000341
 20
856.323170799719
 30
0.0
 40
39.00000000080069
100
AcDbArc
 50
142.6431480278608
 51
171.1501169016818
  0
ARC
  5
2D6
330
1F
100
AcDbEntity
  8
0
  6
Continuous
 62
     3
100
AcDbCircle
 10
278.000057000341
 20
856.323170799719
 30
0.0
 40
39.00000000095233
100
AcDbArc
 50
171.1501169016818
 51
179.9999999998943
  0
ARC
  5
2D7
330
1F
100
AcDbEntity
  8
0
  6
Continuous
 62
     3
100
AcDbCircle
 10
278.000057000341
 20
856.323170799719
 30
0.0
 40
64.49999999993202
100
AcDbArc
 50
0.00000000006393
 51
179.9999999999361
  0
ARC
  5
2D8
330
1F
100
AcDbEntity
  8
0
  6
Continuous
 62
     3
100
AcDbCircle
 10
357.000057000057
 20
939.323170799792
 30
0.0
 40
3.75
100
AcDbArc
 50
0.0
 51
180.0
  0
ARC
  5
2D9
330
1F
100
AcDbEntity
  8
0
  6
Continuous
 62
     3
100
AcDbCircle
 10
191.000057000057
 20
939.323170799792
 30
0.0
 40
3.749999999999909
100
AcDbArc
 50
44.99999999998894
 51
225.0
  0
ARC
  5
2DA
330
1F
100
AcDbEntity
  8
0
  6
Continuous
 62
     3
100
AcDbCircle
 10
278.000057000341
 20
856.323170799719
 30
0.0
 40
85.43721658837923
100
AcDbArc
 50
127.533381641294
 51
142.1915341807515
  0
ARC
  5
2DB
330
1F
100
AcDbEntity
  8
0
  6
Continuous
 62
     3
100
AcDbCircle
 10
278.00005692391
 20
856.323170718997
 30
0.0
 40
94.6878967709896
100
AcDbArc
 50
133.818396846608
 51
139.5737206308003
  0
ARC
  5
2DC
330
1F
100
AcDbEntity
  8
0
  6
Continuous
 62
     3
100
AcDbCircle
 10
278.000057000341
 20
856.323170799719
 30
0.0
 40
99.75000000024377
100
AcDbArc
 50
132.1183725709302
 51
141.1074167369094
  0
ARC
  5
2DD
330
1F
100
AcDbEntity
  8
0
  6
Continuous
 62
     3
100
AcDbCircle
 10
278.000057000341
 20
856.323170799719
 30
0.0
 40
96.86220826233102
100
AcDbArc
 50
133.7417932117664
 51
139.574271451882
  0
ARC
  5
2DE
330
1F
100
AcDbEntity
  8
0
  6
Continuous
 62
     3
100
AcDbCircle
 10
278.000057000341
 20
856.323170799719
 30
0.0
 40
99.74999999993202
100
AcDbArc
 50
0.00000000004134
 51
45.22773002937456
  0
ARC
  5
2DF
330
1F
100
AcDbEntity
  8
0
  6
Continuous
 62
     3
100
AcDbCircle
 10
278.000057000341
 20
856.323170799719
 30
0.0
 40
96.86220826202003
100
AcDbArc
 50
0.00000000004257
 51
44.52843584434913
  0
ARC
  5
2E0
330
1F
100
AcDbEntity
  8
0
  6
Continuous
 62
     3
100
AcDbCircle
 10
278.000057000341
 20
856.323170799719
 30
0.0
 40
85.43721658808005
100
AcDbArc
 50
0.00000000004826
 51
52.46661835897457
  0
ARC
  5
2E1
330
1F
100
AcDbEntity
  8
0
  6
Continuous
 62
     3
100
AcDbCircle
 10
278.000057000341
 20
856.323170799719
 30
0.0
 40
61.437896776309
100
AcDbArc
 50
0.00000000006711
 51
179.9999999999329
  0
ARC
  5
2E2
330
1F
100
AcDbEntity
  8
0
  6
Continuous
 62
     3
100
AcDbCircle
 10
186.500057000273
 20
851.323170799791
 30
0.0
 40
2.999999999941112
100
AcDbArc
 50
285.6786565097476
 51
59.99999999999729
  0
ARC
  5
2E3
330
1F
100
AcDbEntity
  8
0
  6
Continuous
 62
     3
100
AcDbCircle
 10
278.000057000341
 20
856.323170799719
 30
0.0
 40
64.50000000006798
100
AcDbArc
 50
179.9999999999361
 51
0.00000000006393
  0
ARC
  5
2E4
330
1F
100
AcDbEntity
  8
0
  6
Continuous
 62
     3
100
AcDbCircle
 10
278.000057000341
 20
856.323170799719
 30
0.0
 40
85.43721658805748
100
AcDbArc
 50
307.5333816411782
 51
0.00000000004826
  0
ARC
  5
2E5
330
1F
100
AcDbEntity
  8
0
  6
Continuous
 62
     3
100
AcDbCircle
 10
278.000057000341
 20
856.323170799719
 30
0.0
 40
96.8622082619895
100
AcDbArc
 50
315.4715641558016
 51
0.00000000004257
  0
ARC
  5
2E6
330
1F
100
AcDbEntity
  8
0
  6
Continuous
 62
     3
100
AcDbCircle
 10
278.000057000341
 20
856.323170799719
 30
0.0
 40
99.74999999990115
100
AcDbArc
 50
314.7722699707656
 51
0.00000000004134
  0
ARC
  5
2E7
330
1F
100
AcDbEntity
  8
0
  6
Continuous
 62
     3
100
AcDbCircle
 10
278.000057000341
 20
856.323170799719
 30
0.0
 40
85.43721658816604
100
AcDbArc
 50
217.8084658192665
 51
232.4666183587611
  0
ARC
  5
2E8
330
1F
100
AcDbEntity
  8
0
  6
Continuous
 62
     3
100
AcDbCircle
 10
191.000057000273
 20
773.323170799791
 30
0.0
 40
3.750000000000633
100
AcDbArc
 50
135.0
 51
315.000000000011
  0
ARC
  5
2E9
330
1F
100
AcDbEntity
  8
0
  6
Continuous
 62
     3
100
AcDbCircle
 10
357.000057000273
 20
773.323170799791
 30
0.0
 40
3.75
100
AcDbArc
 50
180.0
 51
0.0
  0
ARC
  5
2EA
330
1F
100
AcDbEntity
  8
0
  6
Continuous
 62
     3
100
AcDbCircle
 10
278.000057000341
 20
856.323170799719
 30
0.0
 40
99.75000000000766
100
AcDbArc
 50
218.8925832631038
 51
227.881627429106
  0
ARC
  5
2EB
330
1F
100
AcDbEntity
  8
0
  6
Continuous
 62
     3
100
AcDbCircle
 10
278.000057000341
 20
856.323170799719
 30
0.0
 40
96.86220826209255
100
AcDbArc
 50
220.425728548136
 51
226.2582067882452
  0
ARC
  5
2EC
330
1F
100
AcDbEntity
  8
0
  6
Continuous
 62
     3
100
AcDbCircle
 10
278.000057000341
 20
856.323170799719
 30
0.0
 40
61.43789677687596
100
AcDbArc
 50
179.9999999999329
 51
0.00000000006711
  0
ARC
  5
2ED
330
1F
100
AcDbEntity
  8
0
  6
Continuous
 62
     3
100
AcDbCircle
 10
278.000057000341
 20
856.323170799719
 30
0.0
 40
94.68789677658782
100
AcDbArc
 50
220.4262793020443
 51
226.1816030866264
  0
ARC
  5
2EE
330
1F
100
AcDbEntity
  8
0
  6
Continuous
 62
     3
100
AcDbCircle
 10
186.500057000273
 20
851.323170799791
 30
0.0
 40
2.999999999999754
100
AcDbArc
 50
120.0000000000027
 51
59.99999999999729
  0
ARC
  5
2EF
330
1F
100
AcDbEntity
  8
0
  6
Continuous
 62
     3
100
AcDbCircle
 10
278.000057000273
 20
428.537767755497
 30
0.0
 40
30.00000000000068
100
AcDbArc
 50
5.00000000000044
 51
174.9999999999992
  0
ARC
  5
2F0
330
1F
100
AcDbEntity
  8
0
  6
Continuous
 62
     3
100
AcDbCircle
 10
278.000057000273
 20
456.037767755497
 30
0.0
 40
47.50000000000034
100
AcDbArc
 50
90.60312460694368
 51
174.9999999999997
  0
ARC
  5
2F1
330
1F
100
AcDbEntity
  8
0
  6
Continuous
 62
     3
100
AcDbCircle
 10
278.000057000273
 20
456.037767755497
 30
0.0
 40
47.50000000000014
100
AcDbArc
 50
5.00000000000026
 51
89.39687539305635
  0
ARC
  5
2F2
330
1F
100
AcDbEntity
  8
0
  6
Continuous
 62
     3
100
AcDbCircle
 10
399.500057000273
 20
861.323170799792
 30
0.0
 40
2.999999999892637
100
AcDbArc
 50
299.9999999964202
 51
240.000000000007
  0
ARC
  5
2F3
330
1F
100
AcDbEntity
  8
0
  6
Continuous
 62
     3
100
AcDbCircle
 10
399.500057000273
 20
861.323170799792
 30
0.0
 40
2.99999999999947
100
AcDbArc
 50
105.6786565137184
 51
240.000000000007
  0
ARC
  5
2F4
330
1F
100
AcDbEntity
  8
1
  6
Continuous
 62
     3
100
AcDbCircle
 10
154.423072042326
 20
979.900155753307
 30
0.0
 40
5.000000000002046
100
AcDbArc
 50
90.00000000002281
 51
179.9999999999766
  0
ARC
  5
2F5
330
1F
100
AcDbEntity
  8
1
  6
Continuous
 62
     3
100
AcDbCircle
 10
416.577042110948
 20
979.900155753309
 30
0.0
 40
5.0
100
AcDbArc
 50
0.0
 51
90.0
  0
ARC
  5
2F6
330
1F
100
AcDbEntity
  8
1
  6
Continuous
 62
     3
100
AcDbCircle
 10
416.577042110948
 20
717.746185684686
 30
0.0
 40
5.000000000002956
100
AcDbArc
 50
270.0
 51
359.9999999999661
  0
ARC
  5
2F7
330
1F
100
AcDbEntity
  8
1
  6
Continuous
 62
     3
100
AcDbCircle
 10
154.423072042324
 20
717.746185684686
 30
0.0
 40
5.0
100
AcDbArc
 50
180.0000000000339
 51
270.0
  0
ARC
  5
2F8
330
1F
100
AcDbEntity
  8
1
  6
Continuous
 62
     3
100
AcDbCircle
 10
393.012525981916
 20
741.310701813717
 30
0.0
 40
4.0
100
AcDbArc
 50
269.9999999999862
 51
0.0
  0
ARC
  5
2F9
330
1F
100
AcDbEntity
  8
1
  6
Continuous
 62
     3
100
AcDbCircle
 10
162.987588171356
 20
741.310701813715
 30
0.0
 40
4.0
100
AcDbArc
 50
179.9999999999723
 51
270.0
  0
ARC
  5
2FA
330
1F
100
AcDbEntity
  8
1
  6
Continuous
 62
     3
100
AcDbCircle
 10
162.987588171356
 20
971.335639624278
 30
0.0
 40
4.0
100
AcDbArc
 50
90.0
 51
180.0
  0
ARC
  5
2FB
330
1F
100
AcDbEntity
  8
1
  6
Continuous
 62
     3
100
AcDbCircle
 10
393.012525981918
 20
971.335639624278
 30
0.0
 40
3.999999999997044
100
AcDbArc
 50
0.0
 51
90.00000000004235
  0
ARC
  5
2FC
330
1F
100
AcDbEntity
  8
1
  6
Continuous
 62
     3
100
AcDbCircle
 10
161.423072042324
 20
723.746185684683
 30
0.0
 40
4.0
100
AcDbArc
 50
180.0
 51
270.0
  0
ARC
  5
2FD
330
1F
100
AcDbEntity
  8
1
  6
Continuous
 62
     3
100
AcDbCircle
 10
410.577042110948
 20
723.746185684686
 30
0.0
 40
4.000000000002956
100
AcDbArc
 50
270.0
 51
359.9999999999577
  0
ARC
  5
2FE
330
1F
100
AcDbEntity
  8
1
  6
Continuous
 62
     3
100
AcDbCircle
 10
410.577042110948
 20
972.900155753309
 30
0.0
 40
4.0
100
AcDbArc
 50
0.0
 51
90.0
  0
ARC
  5
2FF
330
1F
100
AcDbEntity
  8
1
  6
Continuous
 62
     3
100
AcDbCircle
 10
161.423072042324
 20
972.900155753309
 30
0.0
 40
4.0
100
AcDbArc
 50
90.0
 51
180.0
  0
SPLINE
  5
300
330
1F
100
AcDbEntity
  8
0
  6
Continuous
 62
     3
100
AcDbSpline
210
0.0
220
0.0
230
1.0
 70
     8
 71
     3
 72
    11
 73
     7
 74
     5
 42
0.0000000001
 43
0.0000000001
 44
0.00000001
 40
0.0
 40
0.0
 40
0.0
 40
0.0
 40
5.189882218422523
 40
10.37976396402576
 40
15.56667370772665
 40
20.75358256167812
 40
20.75358256167812
 40
20.75358256167812
 40
20.75358256167812
 10
-77.0452085640129
 20
533.537767755497
 30
0.0
 10
-77.4865703354391
 20
531.8650484847434
 30
0.0
 10
-78.36929383808167
 20
528.5196100956277
 30
0.0
 10
-79.73640147068836
 20
523.5140011960001
 30
0.0
 10
-81.13458650110456
 20
518.5179880724764
 30
0.0
 10
-82.10108407714401
 20
515.1978410996132
 30
0.0
 10
-82.5843328237161
 20
513.537767755564
 30
0.0
 11
-77.0452085640129
 21
533.537767755497
 31
0.0
 11
-78.37650778039826
 21
528.5215420989351
 31
0.0
 11
-79.74188905935515
 21
523.514486427543
 31
0.0
 11
-81.14322464372155
 21
518.5204608700105
 31
0.0
 11
-82.5843328237161
 21
513.537767755564
 31
0.0
  0
SPLINE
  5
301
330
1F
100
AcDbEntity
  8
0
  6
Continuous
 62
     3
100
AcDbSpline
210
0.0
220
0.0
230
1.0
 70
     8
 71
     3
 72
    11
 73
     7
 74
     5
 42
0.0000000001
 43
0.0000000001
 44
0.00000001
 40
0.0
 40
0.0
 40
0.0
 40
0.0
 40
0.6480138529227767
 40
1.296027705845593
 40
1.944045084216727
 40
2.592062462587754
 40
2.592062462587754
 40
2.592062462587754
 40
2.592062462587754
 10
-59.1943750081671
 20
533.537767755497
 30
0.0
 10
-59.05620129264942
 20
533.3717375799783
 30
0.0
 10
-58.77985386161404
 20
533.0396772289408
 30
0.0
 10
-58.3653369516414
 20
532.541581647787
 30
0.0
 10
-57.95082254976648
 20
532.0434824505516
 30
0.0
 10
-57.67448231101356
 20
531.7114130564125
 30
0.0
 10
-57.5363121916371
 20
531.545378359343
 30
0.0
 11
-59.1943750081671
 21
533.537767755497
 31
0.0
 11
-58.77985469299577
 21
533.039676537054
 31
0.0
 11
-58.36533824664911
 21
532.541582098932
 31
0.0
 11
-57.95082334900804
 21
532.0434817854363
 31
0.0
 11
-57.5363121916371
 21
531.545378359343
 31
0.0
  0
SPLINE
  5
302
330
1F
100
AcDbEntity
  8
0
  6
Continuous
 62
     3
100
AcDbSpline
210
0.0
220
0.0
230
1.0
 70
     8
 71
     3
 72
    11
 73
     7
 74
     5
 42
0.0000000001
 43
0.0000000001
 44
0.00000001
 40
0.0
 40
0.0
 40
0.0
 40
0.0
 40
0.6101062575904832
 40
1.2202125151813
 40
1.830318754441135
 40
2.440424993701181
 40
2.440424993701181
 40
2.440424993701181
 40
2.440424993701181
 10
-65.3398391789051
 20
531.545378359314
 30
0.0
 10
-65.45727882966868
 20
531.7114108197975
 30
0.0
 10
-65.69215813119591
 20
532.0434757407643
 30
0.0
 10
-66.04447710605723
 20
532.5415730987662
 30
0.0
 10
-66.39679609513388
 20
533.0396704392284
 30
0.0
 10
-66.63167543693399
 20
533.3717353167407
 30
0.0
 10
-66.7491151078341
 20
533.537767755497
 30
0.0
 11
-65.3398391789051
 21
531.545378359314
 31
0.0
 11
-65.69215813554568
 21
532.0434757376877
 31
0.0
 11
-66.04447711254306
 21
532.5415731016628
 31
0.0
 11
-66.39679609965918
 21
533.0396704360276
 31
0.0
 11
-66.7491151078341
 21
533.537767755497
 31
0.0
  0
SPLINE
  5
303
330
1F
100
AcDbEntity
  8
0
  6
Continuous
 62
     3
100
AcDbSpline
210
0.0
220
0.0
230
1.0
 70
     8
 71
     3
 72
    11
 73
     7
 74
     5
 42
0.0000000001
 43
0.0000000001
 44
0.00000001
 40
0.0
 40
0.0
 40
0.0
 40
0.0
 40
7.001770753291789
 40
14.00354150696578
 40
21.00579927841163
 40
28.00805705015456
 40
28.00805705015456
 40
28.00805705015456
 40
28.00805705015456
 10
-65.3398391789051
 20
531.545378359314
 30
0.0
 10
-65.35170385756464
 20
529.2114849092385
 30
0.0
 10
-65.37543321488445
 20
524.5436980089604
 30
0.0
 10
-65.41395936887645
 20
517.5418707453465
 30
0.0
 10
-65.45440156030591
 20
510.5398919573146
 30
0.0
 10
-65.48324189218518
 20
505.8718091561386
 30
0.0
 10
-65.4976620581251
 20
503.537767755501
 30
0.0
 11
-65.3398391789051
 21
531.545378359314
 31
0.0
 11
-65.37592175234813
 21
524.5437005796996
 31
0.0
 11
-65.41427764045194
 21
517.542034884106
 31
0.0
 11
-65.45487112176565
 21
510.5398947778921
 31
0.0
 11
-65.4976620581251
 21
503.537767755501
 31
0.0
  0
SPLINE
  5
304
330
1F
100
AcDbEntity
  8
0
  6
Continuous
 62
     3
100
AcDbSpline
210
0.0
220
0.0
230
1.0
 70
     8
 71
     3
 72
    11
 73
     7
 74
     5
 42
0.0000000001
 43
0.0000000001
 44
0.00000001
 40
0.0
 40
0.0
 40
0.0
 40
0.0
 40
7.053167117397996
 40
14.106334234397
 40
21.15978396458402
 40
28.21323369428464
 40
28.21323369428464
 40
28.21323369428464
 40
28.21323369428464
 10
-54.136285582221
 20
503.537767755517
 30
0.0
 10
-54.41822074117528
 20
505.8718576470218
 30
0.0
 10
-54.9820910590679
 20
510.5400374298995
 30
0.0
 10
-55.83100536482457
 20
517.5420258843926
 30
0.0
 10
-56.68203856948823
 20
524.5438520344884
 30
0.0
 10
-57.25155431759403
 20
529.2115362511119
 30
0.0
 10
-57.5363121916371
 20
531.545378359343
 30
0.0
 11
-54.136285582221
 21
503.537767755517
 31
0.0
 11
-54.9826073075341
 21
510.5399749734739
 31
0.0
 11
-55.83134527030007
 21
517.5418897295157
 31
0.0
 11
-56.68257674469648
 21
524.5437864777741
 31
0.0
 11
-57.5363121916371
 21
531.545378359343
 31
0.0
  0
SPLINE
  5
305
330
1F
100
AcDbEntity
  8
0
  6
Continuous
 62
     3
100
AcDbSpline
210
0.0
220
0.0
230
1.0
 70
     8
 71
     3
 72
    11
 73
     7
 74
     5
 42
0.0000000001
 43
0.0000000001
 44
0.00000001
 40
0.0
 40
0.0
 40
0.0
 40
0.0
 40
7.053167117398179
 40
14.10633423439739
 40
21.15978396458421
 40
28.21323369428463
 40
28.21323369428463
 40
28.21323369428463
 40
28.21323369428463
 10
-202.117569689077
 20
503.537767755517
 30
0.0
 10
-201.8356345301228
 20
505.8718576470219
 30
0.0
 10
-201.2717642122305
 20
510.5400374298995
 30
0.0
 10
-200.4228499064741
 20
517.5420258843932
 30
0.0
 10
-199.57181670181
 20
524.5438520344886
 30
0.0
 10
-199.0023009537041
 20
529.2115362511119
 30
0.0
 10
-198.717543079661
 20
531.545378359343
 30
0.0
 11
-202.117569689077
 21
503.537767755517
 31
0.0
 11
-201.2712479637642
 21
510.5399749734741
 31
0.0
 11
-200.4225100009984
 21
517.5418897295161
 31
0.0
 11
-199.5712785266018
 21
524.5437864777743
 31
0.0
 11
-198.717543079661
 21
531.545378359343
 31
0.0
  0
SPLINE
  5
306
330
1F
100
AcDbEntity
  8
0
  6
Continuous
 62
     3
100
AcDbSpline
210
0.0
220
0.0
230
1.0
 70
     8
 71
     3
 72
    11
 73
     7
 74
     5
 42
0.0000000001
 43
0.0000000001
 44
0.00000001
 40
0.0
 40
0.0
 40
0.0
 40
0.0
 40
7.001770753291789
 40
14.00354150696578
 40
21.00579927841214
 40
28.0080570501586
 40
28.0080570501586
 40
28.0080570501586
 40
28.0080570501586
 10
-190.914016092393
 20
531.545378359314
 30
0.0
 10
-190.9021514137333
 20
529.2114849092385
 30
0.0
 10
-190.8784220564135
 20
524.5436980089605
 30
0.0
 10
-190.8398959024215
 20
517.5418707453463
 30
0.0
 10
-190.7994537109925
 20
510.5398919573132
 30
0.0
 10
-190.770613379113
 20
505.8718091561358
 30
0.0
 10
-190.756193213173
 20
503.537767755497
 30
0.0
 11
-190.914016092393
 21
531.545378359314
 31
0.0
 11
-190.8779335189498
 21
524.5437005796996
 31
0.0
 11
-190.8395776308462
 21
517.542034884106
 31
0.0
 11
-190.7989841495326
 21
510.5398947778916
 31
0.0
 11
-190.756193213173
 21
503.537767755497
 31
0.0
  0
SPLINE
  5
307
330
1F
100
AcDbEntity
  8
0
  6
Continuous
 62
     3
100
AcDbSpline
210
0.0
220
0.0
230
1.0
 70
     8
 71
     3
 72
    11
 73
     7
 74
     5
 42
0.0000000001
 43
0.0000000001
 44
0.00000001
 40
0.0
 40
0.0
 40
0.0
 40
0.0
 40
0.6101062575903601
 40
1.220212515181202
 40
1.830318754441211
 40
2.44042499370119
 40
2.44042499370119
 40
2.44042499370119
 40
2.44042499370119
 10
-190.914016092393
 20
531.545378359314
 30
0.0
 10
-190.7965764416296
 20
531.7114108197976
 30
0.0
 10
-190.5616971401024
 20
532.0434757407646
 30
0.0
 10
-190.209378165241
 20
532.541573098766
 30
0.0
 10
-189.8570591761644
 20
533.0396704392288
 30
0.0
 10
-189.6221798343641
 20
533.3717353167409
 30
0.0
 10
-189.504740163464
 20
533.537767755497
 30
0.0
 11
-190.914016092393
 21
531.545378359314
 31
0.0
 11
-190.5616971357526
 21
532.0434757376877
 31
0.0
 11
-190.2093781587552
 21
532.5415731016628
 31
0.0
 11
-189.857059171639
 21
533.0396704360277
 31
0.0
 11
-189.504740163464
 21
533.537767755497
 31
0.0
  0
SPLINE
  5
308
330
1F
100
AcDbEntity
  8
0
  6
Continuous
 62
     3
100
AcDbSpline
210
0.0
220
0.0
230
1.0
 70
     8
 71
     3
 72
    11
 73
     7
 74
     5
 42
0.0000000001
 43
0.0000000001
 44
0.00000001
 40
0.0
 40
0.0
 40
0.0
 40
0.0
 40
0.6480138529228969
 40
1.296027705845825
 40
1.944045084216798
 40
2.59206246258775
 40
2.59206246258775
 40
2.59206246258775
 40
2.59206246258775
 10
-197.059480263131
 20
533.537767755497
 30
0.0
 10
-197.1976539786486
 20
533.3717375799782
 30
0.0
 10
-197.474001409684
 20
533.0396772289407
 30
0.0
 10
-197.8885183196562
 20
532.5415816477863
 30
0.0
 10
-198.3030327215315
 20
532.0434824505514
 30
0.0
 10
-198.5793729602844
 20
531.7114130564124
 30
0.0
 10
-198.717543079661
 20
531.545378359343
 30
0.0
 11
-197.059480263131
 21
533.537767755497
 31
0.0
 11
-197.4740005783023
 21
533.0396765370538
 31
0.0
 11
-197.8885170246487
 21
532.5415820989315
 31
0.0
 11
-198.3030319222899
 21
532.043481785436
 31
0.0
 11
-198.717543079661
 21
531.545378359343
 31
0.0
  0
SPLINE
  5
309
330
1F
100
AcDbEntity
  8
0
  6
Continuous
 62
     3
100
AcDbSpline
210
0.0
220
0.0
230
1.0
 70
     8
 71
     3
 72
    11
 73
     7
 74
     5
 42
0.0000000001
 43
0.0000000001
 44
0.00000001
 40
0.0
 40
0.0
 40
0.0
 40
0.0
 40
5.189882218422428
 40
10.37976396402564
 40
15.56667370772796
 40
20.75358256168732
 40
20.75358256168732
 40
20.75358256168732
 40
20.75358256168732
 10
-179.208646707285
 20
533.537767755497
 30
0.0
 10
-178.7672849358586
 20
531.8650484847435
 30
0.0
 10
-177.8845614332157
 20
528.5196100956279
 30
0.0
 10
-176.5174538006135
 20
523.5140011959984
 30
0.0
 10
-175.1192687701792
 20
518.517988072477
 30
0.0
 10
-174.1527711942822
 20
515.1978410995695
 30
0.0
 10
-173.669522447781
 20
513.537767755497
 30
0.0
 11
-179.208646707285
 21
533.537767755497
 31
0.0
 11
-177.8773474909
 21
528.5215420989351
 31
0.0
 11
-176.5119662119432
 21
523.514486427543
 31
0.0
 11
-175.1106306276015
 21
518.5204608700021
 31
0.0
 11
-173.669522447781
 21
513.537767755497
 31
0.0
  0
SPLINE
  5
30A
330
1F
100
AcDbEntity
  8
0
  6
Continuous
 62
     3
100
AcDbSpline
210
0.0
220
0.0
230
1.0
 70
     8
 71
     3
 72
    19
 73
    15
 74
    13
 42
0.0000000001
 43
0.0000000001
 44
0.00000001
 40
0.0
 40
0.0
 40
0.0
 40
0.0
 40
1.036222802234788
 40
2.088324711572239
 40
3.166934196716421
 40
4.237502827341542
 40
5.643745980047392
 40
7.053484012242406
 40
8.745964952827007
 40
10.43714771199114
 40
12.35180369923611
 40
14.26690158630539
 40
18.48199000899783
 40
22.69709036791835
 40
22.69709036791835
 40
22.69709036791835
 40
22.69709036791835
 10
205.537251411686
 20
908.510032347434
 30
0.0
 10
205.7302976767387
 20
908.2181553672301
 30
0.0
 10
206.1193484531905
 20
907.6299286758428
 30
0.0
 10
206.2644559606135
 20
906.5645655941157
 30
0.0
 10
206.4479224973703
 20
905.5186363863295
 30
0.0
 10
206.6186091335826
 20
904.344143559493
 30
0.0
 10
206.764372583504
 20
903.057151560984
 30
0.0
 10
206.8952388805138
 20
901.5598148308297
 30
0.0
 10
207.0159464130863
 20
899.9665992277518
 30
0.0
 10
207.1274623624435
 20
898.2039568803118
 30
0.0
 10
207.2207763909899
 20
896.3659645063382
 30
0.0
 10
207.3265649732862
 20
893.6864161137848
 30
0.0
 10
207.4174425905198
 20
890.2388806378513
 30
0.0
 10
207.4305120964876
 20
887.4287873652149
 30
0.0
 10
207.437046858724
 20
886.023738739504
 30
0.0
 11
205.537251411686
 21
908.510032347434
 31
0.0
 11
206.0441601346383
 21
907.606261777839
 31
0.0
 11
206.2692109488596
 21
906.5785115364623
 31
0.0
 11
206.4433474319631
 21
905.514051623316
 31
0.0
 11
206.5976341891364
 21
904.4546589721052
 31
0.0
 11
206.7582880024648
 21
903.0576227675654
 31
0.0
 11
206.884568678825
 21
901.6535520748312
 31
0.0
 11
207.0124788950351
 21
899.9659114996994
 31
0.0
 11
207.119470621347
 21
898.2781165194382
 31
0.0
 11
207.2171774577901
 21
896.3659551968492
 31
0.0
 11
207.2937086456648
 21
894.4523870913615
 31
0.0
 11
207.4021962697554
 21
890.238695023052
 31
0.0
 11
207.437046858724
 21
886.023738739504
 31
0.0
  0
SPLINE
  5
30B
330
1F
100
AcDbEntity
  8
0
  6
Continuous
 62
     3
100
AcDbSpline
210
0.0
220
0.0
230
1.0
 70
     8
 71
     3
 72
    19
 73
    15
 74
    13
 42
0.0000000001
 43
0.0000000001
 44
0.00000001
 40
0.0
 40
0.0
 40
0.0
 40
0.0
 40
1.036222802234802
 40
2.088324711572351
 40
3.166934196716427
 40
4.237502827341547
 40
5.643745980047282
 40
7.053484012242413
 40
8.745964952827014
 40
10.43714771199127
 40
12.35180369923611
 40
14.2669015863054
 40
18.48199000899772
 40
22.69709036791836
 40
22.69709036791836
 40
22.69709036791836
 40
22.69709036791836
 10
201.537251411686
 20
907.510032347434
 30
0.0
 10
201.7302976767388
 20
907.2181553672301
 30
0.0
 10
202.1193484531905
 20
906.6299286758426
 30
0.0
 10
202.2644559606135
 20
905.5645655941157
 30
0.0
 10
202.4479224973703
 20
904.5186363863295
 30
0.0
 10
202.6186091335827
 20
903.3441435594932
 30
0.0
 10
202.764372583504
 20
902.0571515609839
 30
0.0
 10
202.8952388805137
 20
900.5598148308293
 30
0.0
 10
203.0159464130864
 20
898.9665992277523
 30
0.0
 10
203.1274623624435
 20
897.2039568803115
 30
0.0
 10
203.2207763909899
 20
895.3659645063381
 30
0.0
 10
203.3265649732862
 20
892.6864161137847
 30
0.0
 10
203.4174425905198
 20
889.2388806378511
 30
0.0
 10
203.4305120964876
 20
886.4287873652149
 30
0.0
 10
203.437046858724
 20
885.023738739504
 30
0.0
 11
201.537251411686
 21
907.510032347434
 31
0.0
 11
202.0441601346383
 21
906.606261777839
 31
0.0
 11
202.2692109488596
 21
905.5785115364622
 31
0.0
 11
202.4433474319631
 21
904.514051623316
 31
0.0
 11
202.5976341891364
 21
903.4546589721052
 31
0.0
 11
202.7582880024647
 21
902.0576227675655
 31
0.0
 11
202.884568678825
 21
900.6535520748312
 31
0.0
 11
203.0124788950351
 21
898.9659114996994
 31
0.0
 11
203.119470621347
 21
897.2781165194381
 31
0.0
 11
203.2171774577901
 21
895.3659551968492
 31
0.0
 11
203.2937086456648
 21
893.4523870913615
 31
0.0
 11
203.4021962697554
 21
889.2386950230521
 31
0.0
 11
203.437046858724
 21
885.023738739504
 31
0.0
  0
SPLINE
  5
30C
330
1F
100
AcDbEntity
  8
0
  6
Continuous
 62
     3
100
AcDbSpline
210
0.0
220
0.0
230
1.0
 70
     8
 71
     3
 72
    19
 73
    15
 74
    13
 42
0.0000000001
 43
0.0000000001
 44
0.00000001
 40
0.0
 40
0.0
 40
0.0
 40
0.0
 40
4.215100358920867
 40
8.430188781613406
 40
10.34528666868258
 40
12.25994265592721
 40
13.95112541509148
 40
15.64360635567576
 40
17.05334438787034
 40
18.45958754057594
 40
19.53015617120147
 40
20.60876565634549
 40
21.6608675656829
 40
22.69709036791818
 40
22.69709036791818
 40
22.69709036791818
 40
22.69709036791818
 10
206.448506371354
 20
885.023738739504
 30
0.0
 10
206.4419716091174
 20
886.4287873652152
 30
0.0
 10
206.428902103149
 20
889.2388806378515
 30
0.0
 10
206.3380244859162
 20
892.6864161137854
 30
0.0
 10
206.2322359036198
 20
895.3659645063381
 30
0.0
 10
206.1389218750733
 20
897.2039568803121
 30
0.0
 10
206.0274059257159
 20
898.9665992277517
 30
0.0
 10
205.9066983931428
 20
900.5598148308293
 30
0.0
 10
205.7758320961331
 20
902.0571515609835
 30
0.0
 10
205.6300686462117
 20
903.3441435594924
 30
0.0
 10
205.4593820099999
 20
904.5186363863289
 30
0.0
 10
205.2759154732434
 20
905.5645655941153
 30
0.0
 10
205.1308079658205
 20
906.6299286758424
 30
0.0
 10
204.7417571893688
 20
907.2181553672301
 30
0.0
 10
204.548710924316
 20
907.510032347434
 30
0.0
 11
206.448506371354
 21
885.023738739504
 31
0.0
 11
206.413655782385
 21
889.2386950230523
 31
0.0
 11
206.3051681582947
 21
893.452387091362
 31
0.0
 11
206.2286369704201
 21
895.3659551968495
 31
0.0
 11
206.1309301339768
 21
897.2781165194382
 31
0.0
 11
206.0239384076645
 21
898.9659114996995
 31
0.0
 11
205.8960281914541
 21
900.6535520748309
 31
0.0
 11
205.7697475150938
 21
902.0576227675647
 31
0.0
 11
205.6090937017656
 21
903.4546589721043
 31
0.0
 11
205.4548069445926
 21
904.5140516233156
 31
0.0
 11
205.2806704614895
 21
905.5785115364617
 31
0.0
 11
205.0556196472683
 21
906.6062617778384
 31
0.0
 11
204.548710924316
 21
907.510032347434
 31
0.0
  0
SPLINE
  5
30D
330
1F
100
AcDbEntity
  8
0
  6
Continuous
 62
     3
100
AcDbSpline
210
0.0
220
0.0
230
1.0
 70
     8
 71
     3
 72
    19
 73
    15
 74
    13
 42
0.0000000001
 43
0.0000000001
 44
0.00000001
 40
0.0
 40
0.0
 40
0.0
 40
0.0
 40
8.533963576485144
 40
17.0679142605002
 40
20.96364921502607
 40
24.85901476567125
 40
28.32952294238435
 40
31.80111668288151
 40
34.73419875121168
 40
37.66432232611108
 40
39.95769672337275
 40
42.25804829103104
 40
44.72184243129069
 40
47.17153208346767
 40
47.17153208346767
 40
47.17153208346767
 40
47.17153208346767
 10
278.500057000057
 20
927.137091369273
 30
0.0
 10
281.3447260381013
 20
927.1524436680047
 30
0.0
 10
287.0340598166779
 20
927.1831482422749
 30
0.0
 10
294.020118379432
 20
927.366126242936
 30
0.0
 10
299.4577245315605
 20
927.5777662363297
 30
0.0
 10
303.2070932042811
 20
927.7632572365465
 30
0.0
 10
306.8130013340091
 20
927.9827567606153
 30
0.0
 10
310.0959977323413
 20
928.2227380158411
 30
0.0
 10
313.1965845516596
 20
928.487563219553
 30
0.0
 10
315.8998660504442
 20
928.7759726679178
 30
0.0
 10
318.3881225928226
 20
929.1038253037555
 30
0.0
 10
320.7056760747726
 20
929.4758257803622
 30
0.0
 10
323.104742009481
 20
929.8375717671634
 30
0.0
 10
324.5825314743603
 20
930.5668073778616
 30
0.0
 10
325.319305159415
 20
930.9303785231
 30
0.0
 11
278.500057000057
 21
927.137091369273
 31
0.0
 11
287.0336854935475
 21
927.2127158352976
 31
0.0
 11
295.5648330727182
 21
927.4314285683794
 31
0.0
 11
299.4575555898281
 21
927.5846024587788
 31
0.0
 11
303.3481149057318
 21
927.7780474964202
 31
0.0
 11
306.8121596381787
 21
927.9897574306212
 31
0.0
 11
310.2744692663936
 21
928.2434799905743
 31
0.0
 11
313.1964958819294
 21
928.4979026264784
 31
0.0
 11
316.1097367130448
 21
928.8119918241655
 31
0.0
 11
318.3831414891512
 21
929.1139799861712
 31
0.0
 11
320.6566517490255
 21
929.4643632521452
 31
0.0
 11
323.0701427918249
 21
929.959683907786
 31
0.0
 11
325.319305159415
 21
930.9303785231
 31
0.0
  0
SPLINE
  5
30E
330
1F
100
AcDbEntity
  8
0
  6
Continuous
 62
     3
100
AcDbSpline
210
0.0
220
0.0
230
1.0
 70
     8
 71
     3
 72
    11
 73
     7
 74
     5
 42
0.0000000001
 43
0.0000000001
 44
0.00000001
 40
0.0
 40
0.0
 40
0.0
 40
0.0
 40
0.5445244399272391
 40
1.089048879854053
 40
1.633563599865831
 40
2.178078319877498
 40
2.178078319877498
 40
2.178078319877498
 40
2.178078319877498
 10
212.440535289588
 20
924.644081997993
 30
0.0
 10
212.3228724411522
 20
924.7822871404283
 30
0.0
 10
212.0875467442807
 20
925.0586974252984
 30
0.0
 10
211.7345611544623
 20
925.4733111136665
 30
0.0
 10
211.3815782236756
 20
925.8879228107007
 30
0.0
 10
211.1462582180205
 20
926.1643294305935
 30
0.0
 10
211.028598215193
 20
926.30253274054
 30
0.0
 11
212.440535289588
 21
924.644081997993
 31
0.0
 11
212.0875468868104
 21
925.0586975466433
 31
0.0
 11
211.7345591472746
 21
925.4733136599517
 31
0.0
 11
211.3815783606751
 21
925.8879229273363
 31
0.0
 11
211.028598215193
 21
926.30253274054
 31
0.0
  0
SPLINE
  5
30F
330
1F
100
AcDbEntity
  8
0
  6
Continuous
 62
     3
100
AcDbSpline
210
0.0
220
0.0
230
1.0
 70
     8
 71
     3
 72
    11
 73
     7
 74
     5
 42
0.0000000001
 43
0.0000000001
 44
0.00000001
 40
0.0
 40
0.0
 40
0.0
 40
0.0
 40
1.755188929296658
 40
3.510377809187585
 40
5.371594408793692
 40
7.232810940794178
 40
7.232810940794178
 40
7.232810940794178
 40
7.232810940794178
 10
225.949692708361
 20
924.074757906161
 30
0.0
 10
226.5041774425088
 20
924.2614438930036
 30
0.0
 10
227.6131468951963
 20
924.634815861434
 30
0.0
 10
229.317183373617
 20
925.1847182549271
 30
0.0
 10
231.059706497147
 20
925.730242315328
 30
0.0
 10
232.2488165621065
 20
926.0847304367862
 30
0.0
 10
232.843371583788
 20
926.261974494296
 30
0.0
 11
225.949692708361
 21
924.074757906161
 31
0.0
 11
227.6143047480831
 21
924.6313142238305
 31
0.0
 11
229.2843025659687
 21
925.1714950198145
 31
0.0
 11
231.0609419844827
 21
925.7261837678813
 31
0.0
 11
232.843371583788
 21
926.261974494296
 31
0.0
  0
SPLINE
  5
310
330
1F
100
AcDbEntity
  8
0
  6
Continuous
 62
     3
100
AcDbSpline
210
0.0
220
0.0
230
1.0
 70
     8
 71
     3
 72
    19
 73
    15
 74
    13
 42
0.0000000001
 43
0.0000000001
 44
0.00000001
 40
0.0
 40
0.0
 40
0.0
 40
0.0
 40
8.533963576485144
 40
17.0679142605002
 40
20.96364921502608
 40
24.85901476567127
 40
28.32952294238439
 40
31.80111668288155
 40
34.73419875121169
 40
37.66432232611107
 40
39.95769672337272
 40
42.25804829103101
 40
44.72184243129068
 40
47.17153208346762
 40
47.17153208346762
 40
47.17153208346762
 40
47.17153208346762
 10
278.500057000057
 20
931.137091369273
 30
0.0
 10
281.3447260381013
 20
931.1524436680046
 30
0.0
 10
287.0340598166779
 20
931.1831482422749
 30
0.0
 10
294.0201183794319
 20
931.3661262429356
 30
0.0
 10
299.4577245315604
 20
931.57776623633
 30
0.0
 10
303.2070932042812
 20
931.7632572365462
 30
0.0
 10
306.813001334009
 20
931.9827567606159
 30
0.0
 10
310.0959977323414
 20
932.2227380158417
 30
0.0
 10
313.1965845516596
 20
932.4875632195534
 30
0.0
 10
315.8998660504442
 20
932.7759726679179
 30
0.0
 10
318.3881225928226
 20
933.1038253037552
 30
0.0
 10
320.7056760747725
 20
933.475825780362
 30
0.0
 10
323.104742009481
 20
933.8375717671632
 30
0.0
 10
324.5825314743602
 20
934.5668073778616
 30
0.0
 10
325.319305159415
 20
934.9303785231
 30
0.0
 11
278.500057000057
 21
931.137091369273
 31
0.0
 11
287.0336854935475
 21
931.2127158352976
 31
0.0
 11
295.5648330727182
 21
931.4314285683794
 31
0.0
 11
299.4575555898281
 21
931.584602458779
 31
0.0
 11
303.3481149057318
 21
931.7780474964204
 31
0.0
 11
306.8121596381787
 21
931.9897574306218
 31
0.0
 11
310.2744692663936
 21
932.243479990575
 31
0.0
 11
313.1964958819294
 21
932.4979026264788
 31
0.0
 11
316.1097367130448
 21
932.8119918241656
 31
0.0
 11
318.3831414891512
 21
933.1139799861712
 31
0.0
 11
320.6566517490255
 21
933.4643632521452
 31
0.0
 11
323.0701427918249
 21
933.9596839077861
 31
0.0
 11
325.319305159415
 21
934.9303785231
 31
0.0
  0
SPLINE
  5
311
330
1F
100
AcDbEntity
  8
0
  6
Continuous
 62
     3
100
AcDbSpline
210
0.0
220
0.0
230
1.0
 70
     8
 71
     3
 72
    11
 73
     7
 74
     5
 42
0.0000000001
 43
0.0000000001
 44
0.00000001
 40
0.0
 40
0.0
 40
0.0
 40
0.0
 40
0.7266048698599435
 40
1.45320973969495
 40
2.182014496348452
 40
2.910819252969869
 40
2.910819252969869
 40
2.910819252969869
 40
2.910819252969869
 10
347.053367491992
 20
924.249069391657
 30
0.0
 10
346.8116075955867
 20
924.2344481853467
 30
0.0
 10
346.3280878027841
 20
924.205205772726
 30
0.0
 10
345.6020604678974
 20
924.1615579360923
 30
0.0
 10
344.8752905113224
 20
924.1180435456381
 30
0.0
 10
344.3902783762092
 20
924.0891864526559
 30
0.0
 10
344.147772308658
 20
924.074757906165
 30
0.0
 11
347.053367491992
 21
924.249069391657
 31
0.0
 11
346.3280851908344
 21
924.2052490706658
 31
0.0
 11
345.6027906735766
 21
924.1616314125025
 31
0.0
 11
344.8752878010889
 21
924.1180889752376
 31
0.0
 11
344.147772308658
 21
924.074757906165
 31
0.0
  0
SPLINE
  5
312
330
1F
100
AcDbEntity
  8
0
  6
Continuous
 62
     3
100
AcDbSpline
210
0.0
220
0.0
230
1.0
 70
     8
 71
     3
 72
    11
 73
     7
 74
     5
 42
0.0000000001
 43
0.0000000001
 44
0.00000001
 40
0.0
 40
0.0
 40
0.0
 40
0.0
 40
1.86103727353309
 40
3.722074594683367
 40
5.477442741780134
 40
7.232810941344397
 40
7.232810941344397
 40
7.232810941344397
 40
7.232810941344397
 10
323.156742416511
 20
926.26197449431
 30
0.0
 10
323.7512402264186
 20
926.0847476833897
 30
0.0
 10
324.9402358614446
 20
925.7302940570142
 30
0.0
 10
326.6827028192043
 20
925.1847906470224
 30
0.0
 10
328.3867970437328
 20
924.6348725926168
 30
0.0
 10
329.495879870254
 20
924.2614628034946
 30
0.0
 10
330.050421291802
 20
924.074757906143
 30
0.0
 11
323.156742416511
 21
926.26197449431
 31
0.0
 11
324.9390006204123
 21
925.7262362857549
 31
0.0
 11
326.7154697534971
 21
925.1716036777058
 31
0.0
 11
328.3856389548179
 21
924.631370236681
 31
0.0
 11
330.050421291802
 21
924.074757906143
 31
0.0
  0
SPLINE
  5
313
330
1F
100
AcDbEntity
  8
0
  6
Continuous
 62
     3
100
AcDbSpline
210
0.0
220
0.0
230
1.0
 70
     8
 71
     3
 72
    11
 73
     7
 74
     5
 42
0.0000000001
 43
0.0000000001
 44
0.00000001
 40
0.0
 40
0.0
 40
0.0
 40
0.0
 40
0.7822606683375477
 40
1.564521337327609
 40
2.345799944020664
 40
3.127078551100929
 40
3.127078551100929
 40
3.127078551100929
 40
3.127078551100929
 10
347.053367491992
 20
924.249069391657
 30
0.0
 10
347.1540368085523
 20
924.4896065746264
 30
0.0
 10
347.3553754417572
 20
924.9706809407662
 30
0.0
 10
347.6558225435807
 20
925.6925894409396
 30
0.0
 10
347.9552001875582
 20
926.4145877118324
 30
0.0
 10
348.1537702233504
 20
926.8961033236152
 30
0.0
 10
348.253055241271
 20
927.136861129566
 30
0.0
 11
347.053367491992
 21
924.249069391657
 31
0.0
 11
347.3551362638862
 21
924.9707808031903
 31
0.0
 11
347.6557908148218
 21
925.6929570941682
 31
0.0
 11
347.9549673201347
 21
926.4146839676771
 31
0.0
 11
348.253055241271
 21
927.136861129566
 31
0.0
  0
SPLINE
  5
314
330
1F
100
AcDbEntity
  8
0
  6
Continuous
 62
     3
100
AcDbSpline
210
0.0
220
0.0
230
1.0
 70
     8
 71
     3
 72
    11
 73
     7
 74
     5
 42
0.0000000001
 43
0.0000000001
 44
0.00000001
 40
0.0
 40
0.0
 40
0.0
 40
0.0
 40
0.999594174752603
 40
1.999188346078421
 40
3.005579097042911
 40
4.011969844542645
 40
4.011969844542645
 40
4.011969844542645
 40
4.011969844542645
 10
211.101272343525
 20
930.313812853222
 30
0.0
 10
211.0932227463148
 20
929.9807116598797
 30
0.0
 10
211.0771235519221
 20
929.3145092743371
 30
0.0
 10
211.0574071182724
 20
928.3128409767759
 30
0.0
 10
211.0406930763904
 20
927.3088520367589
 30
0.0
 10
211.0326298355875
 20
926.6379725055615
 30
0.0
 10
211.028598215193
 20
926.30253274054
 30
0.0
 11
211.101272343525
 21
930.313812853222
 31
0.0
 11
211.0778697090832
 21
929.3144926688464
 31
0.0
 11
211.0579555285589
 21
928.3150968850036
 31
0.0
 11
211.0414692249087
 21
927.3088411792216
 31
0.0
 11
211.028598215193
 21
926.30253274054
 31
0.0
  0
SPLINE
  5
315
330
1F
100
AcDbEntity
  8
0
  6
Continuous
 62
     3
100
AcDbSpline
210
0.0
220
0.0
230
1.0
 70
     8
 71
     3
 72
    11
 73
     7
 74
     5
 42
0.0000000001
 43
0.0000000001
 44
0.00000001
 40
0.0
 40
0.0
 40
0.0
 40
0.0
 40
1.741910035722708
 40
3.483820022745145
 40
5.32914154356977
 40
7.1744629996723
 40
7.1744629996723
 40
7.1744629996723
 40
7.1744629996723
 10
210.499150082132
 20
908.698217755263
 30
0.0
 10
210.3125432324659
 20
908.1483787530547
 30
0.0
 10
209.9393295383509
 20
907.0487007640107
 30
0.0
 10
209.3894987866996
 20
905.3595175974717
 30
0.0
 10
208.8439595161285
 20
903.6327489986978
 30
0.0
 10
208.4892754996088
 20
902.4547600682158
 30
0.0
 10
208.311933494459
 20
901.865765613304
 30
0.0
 11
210.499150082132
 21
908.698217755263
 31
0.0
 11
209.9427727341477
 21
907.0475527925279
 31
0.0
 11
209.4024976123878
 21
905.3915476005989
 31
0.0
 11
208.8479424885329
 21
903.6315248365913
 31
0.0
 11
208.311933494459
 21
901.865765613304
 31
0.0
  0
SPLINE
  5
316
330
1F
100
AcDbEntity
  8
0
  6
Continuous
 62
     3
100
AcDbSpline
210
0.0
220
0.0
230
1.0
 70
    24
 71
     3
 72
    11
 73
     7
 74
     5
 42
0.0000000001
 43
0.0000000001
 44
0.00000001
 40
0.0
 40
0.0
 40
0.0
 40
0.0
 40
0.5435779199034126
 40
1.087155839806169
 40
1.63073376010559
 40
2.174311680405253
 40
2.174311680405253
 40
2.174311680405253
 40
2.174311680405253
 10
204.263972765526
 20
919.134612999174
 30
0.0
 10
204.4019543271772
 20
919.017174243123
 30
0.0
 10
204.6779174504794
 20
918.7822967310212
 30
0.0
 10
205.0918621354975
 20
918.4299804627408
 30
0.0
 10
205.5058068205915
 20
918.0776641943456
 30
0.0
 10
205.7817699440292
 20
917.8427866819954
 30
0.0
 10
205.919751505748
 20
917.72534792582
 30
0.0
 11
204.263972765526
 21
919.134612999174
 31
0.0
 11
204.6779174504736
 21
918.7822967310141
 31
0.0
 11
205.0918621353927
 21
918.4299804628216
 31
0.0
 11
205.505806820585
 21
918.0776641943382
 31
0.0
 11
205.919751505748
 21
917.72534792582
 31
0.0
  0
SPLINE
  5
317
330
1F
100
AcDbEntity
  8
0
  6
Continuous
 62
     3
100
AcDbSpline
210
0.0
220
0.0
230
1.0
 70
     8
 71
     3
 72
    11
 73
     7
 74
     5
 42
0.0000000001
 43
0.0000000001
 44
0.00000001
 40
0.0
 40
0.0
 40
0.0
 40
0.0
 40
0.97945000951268
 40
1.958900021917002
 40
2.932477803691815
 40
3.906055588458657
 40
3.906055588458657
 40
3.906055588458657
 40
3.906055588458657
 10
204.263972765526
 20
919.134612999174
 30
0.0
 10
203.9377620862152
 20
919.1212640792348
 30
0.0
 10
203.2853407266305
 20
919.0945662393174
 30
0.0
 10
202.3088469969773
 20
919.0503329614673
 30
0.0
 10
201.3344393747854
 20
919.0033952250155
 30
0.0
 10
200.6862765561405
 20
918.9694226598999
 30
0.0
 10
200.36219514632
 20
918.952436377316
 30
0.0
 11
204.263972765526
 21
919.134612999174
 31
0.0
 11
203.2853712109629
 21
919.0938537236517
 31
0.0
 11
202.3069135234025
 21
919.0497756060338
 31
0.0
 11
201.3344740836119
 21
919.0027093431139
 31
0.0
 11
200.36219514632
 21
918.952436377316
 31
0.0
  0
SPLINE
  5
318
330
1F
100
AcDbEntity
  8
0
  6
Continuous
 62
     3
100
AcDbSpline
210
0.0
220
0.0
230
1.0
 70
     8
 71
     3
 72
    31
 73
    27
 74
    25
 42
0.0000000001
 43
0.0000000001
 44
0.00000001
 40
0.0
 40
0.0
 40
0.0
 40
0.0
 40
1.937397493579865
 40
3.886188781341328
 40
5.739129869128095
 40
7.586458249625377
 40
9.932311794119704
 40
12.28052868581782
 40
15.02259079172935
 40
17.76380065189183
 40
20.77900750517701
 40
23.79449723731867
 40
26.94996888020431
 40
30.10533617739434
 40
33.26070347458459
 40
36.41617511747068
 40
39.43166484961246
 40
42.44687170289762
 40
45.18808156306022
 40
47.93014366897174
 40
50.27836056066988
 40
52.62421410516423
 40
54.47154248566141
 40
56.32448357344784
 40
58.27327486120951
 40
60.21067235478939
 40
60.21067235478939
 40
60.21067235478939
 40
60.21067235478939
 10
248.114216057305
 20
937.469756710466
 30
0.0
 10
248.7056800716533
 20
937.2011193129896
 30
0.0
 10
249.8920864878608
 20
936.6622646671146
 30
0.0
 10
251.8064741851493
 20
936.4227581808591
 30
0.0
 10
253.6674762541044
 20
936.1636046513489
 30
0.0
 10
255.6714048012998
 20
935.936598911384
 30
0.0
 10
257.8430974020981
 20
935.7431967733542
 30
0.0
 10
260.3162026557882
 20
935.5735741611945
 30
0.0
 10
262.9224842913803
 20
935.4249889278492
 30
0.0
 10
265.7524934770368
 20
935.297050229113
 30
0.0
 10
268.6748505699856
 20
935.1982126209398
 30
0.0
 10
271.7361243914635
 20
935.1269057988326
 30
0.0
 10
274.8446431080234
 20
935.0835131548273
 30
0.0
 10
278.0000570000572
 20
935.0690202801233
 30
0.0
 10
281.155470892091
 20
935.0835131548275
 30
0.0
 10
284.2639896086513
 20
935.1269057988324
 30
0.0
 10
287.3252634301293
 20
935.1982126209401
 30
0.0
 10
290.2476205230783
 20
935.2970502291123
 30
0.0
 10
293.0776297087347
 20
935.4249889278492
 30
0.0
 10
295.6839113443269
 20
935.5735741611938
 30
0.0
 10
298.157016598017
 20
935.7431967733539
 30
0.0
 10
300.3287091988152
 20
935.9365989113845
 30
0.0
 10
302.3326377460105
 20
936.1636046513498
 30
0.0
 10
304.1936398149657
 20
936.4227581808589
 30
0.0
 10
306.108027512254
 20
936.6622646671149
 30
0.0
 10
307.2944339284617
 20
937.2011193129897
 30
0.0
 10
307.88589794281
 20
937.469756710466
 30
0.0
 11
248.114216057305
 21
937.469756710466
 31
0.0
 11
249.9159222788334
 21
936.7574620106152
 31
0.0
 11
251.8343190681591
 21
936.4146191282921
 31
0.0
 11
253.6711852927147
 21
936.1710762205828
 31
0.0
 11
255.5066225982096
 21
935.9618107361182
 31
0.0
 11
257.8430014447372
 21
935.7511860991096
 31
0.0
 11
260.1854514328526
 21
935.5867153611825
 31
0.0
 11
262.9230513313536
 21
935.4303459639103
 31
0.0
 11
265.6614448316319
 21
935.3061182090175
 31
0.0
 11
268.674904943274
 21
935.203499869331
 31
0.0
 11
271.6895604696926
 21
935.1325746856122
 31
0.0
 11
274.8447234192293
 21
935.0884379557125
 31
0.0
 11
278.0000570000571
 21
935.0738511851065
 31
0.0
 11
281.1553905808851
 21
935.0884379557125
 31
0.0
 11
284.3105535304223
 21
935.1325746856122
 31
0.0
 11
287.325209056841
 21
935.203499869331
 31
0.0
 11
290.3386691684831
 21
935.3061182090173
 31
0.0
 11
293.0770626687615
 21
935.43034596391
 31
0.0
 11
295.8146625672625
 21
935.5867153611821
 31
0.0
 11
298.1571125553779
 21
935.7511860991096
 31
0.0
 11
300.4934914019055
 21
935.9618107361188
 31
0.0
 11
302.3289287074003
 21
936.1710762205832
 31
0.0
 11
304.1657949319556
 21
936.4146191282921
 31
0.0
 11
306.0841917212815
 21
936.7574620106154
 31
0.0
 11
307.88589794281
 21
937.469756710466
 31
0.0
  0
SPLINE
  5
319
330
1F
100
AcDbEntity
  8
0
  6
Continuous
 62
     3
100
AcDbSpline
210
0.0
220
0.0
230
1.0
 70
     8
 71
     3
 72
    19
 73
    15
 74
    13
 42
0.0000000001
 43
0.0000000001
 44
0.00000001
 40
0.0
 40
0.0
 40
0.0
 40
0.0
 40
2.449689652176478
 40
4.91348379243569
 40
7.213835360094178
 40
9.507209757356426
 40
12.43733333225601
 40
15.37041540058602
 40
18.84200914108327
 40
22.31251731779636
 40
26.20788286844169
 40
30.10361782296743
 40
38.63756850698193
 40
47.17153208346753
 40
47.17153208346753
 40
47.17153208346753
 40
47.17153208346753
 10
230.680808840699
 20
930.9303785231
 30
0.0
 10
231.4175825257537
 20
930.5668073778618
 30
0.0
 10
232.8953719906326
 20
929.8375717671636
 30
0.0
 10
235.2944379253409
 20
929.4758257803624
 30
0.0
 10
237.611991407291
 20
929.1038253037558
 30
0.0
 10
240.1002479496695
 20
928.7759726679183
 30
0.0
 10
242.8035294484544
 20
928.4875632195533
 30
0.0
 10
245.9041162677727
 20
928.222738015842
 30
0.0
 10
249.1871126661051
 20
927.9827567606155
 30
0.0
 10
252.7930207958329
 20
927.7632572365455
 30
0.0
 10
256.5423894685537
 20
927.5777662363298
 30
0.0
 10
261.9799956206819
 20
927.3661262429364
 30
0.0
 10
268.966054183436
 20
927.1831482422749
 30
0.0
 10
274.6553879620125
 20
927.1524436680045
 30
0.0
 10
277.500057000057
 20
927.137091369273
 30
0.0
 11
230.680808840699
 21
930.9303785231
 31
0.0
 11
232.9299712082887
 21
929.9596839077864
 31
0.0
 11
235.3434622510877
 21
929.4643632521456
 31
0.0
 11
237.6169725109622
 21
929.1139799861717
 31
0.0
 11
239.8903772870692
 21
928.8119918241658
 31
0.0
 11
242.8036181181847
 21
928.4979026264789
 31
0.0
 11
245.7256447337204
 21
928.243479990575
 31
0.0
 11
249.1879543619354
 21
927.9897574306215
 31
0.0
 11
252.6519990943822
 21
927.7780474964196
 31
0.0
 11
256.5425584102861
 21
927.5846024587788
 31
0.0
 11
260.4352809273959
 21
927.4314285683796
 31
0.0
 11
268.966428506566
 21
927.2127158352977
 31
0.0
 11
277.500057000057
 21
927.137091369273
 31
0.0
  0
SPLINE
  5
31A
330
1F
100
AcDbEntity
  8
0
  6
Continuous
 62
     3
100
AcDbSpline
210
0.0
220
0.0
230
1.0
 70
     8
 71
     3
 72
    19
 73
    15
 74
    13
 42
0.0000000001
 43
0.0000000001
 44
0.00000001
 40
0.0
 40
0.0
 40
0.0
 40
0.0
 40
2.449689652176614
 40
4.913483792435848
 40
7.213835360094354
 40
9.507209757356557
 40
12.43733333225612
 40
15.37041540058614
 40
18.84200914108338
 40
22.31251731779647
 40
26.20788286844181
 40
30.10361782296756
 40
38.63756850698206
 40
47.17153208346765
 40
47.17153208346765
 40
47.17153208346765
 40
47.17153208346765
 10
230.680808840699
 20
934.9303785231
 30
0.0
 10
231.4175825257537
 20
934.5668073778616
 30
0.0
 10
232.8953719906326
 20
933.837571767163
 30
0.0
 10
235.2944379253408
 20
933.4758257803619
 30
0.0
 10
237.611991407291
 20
933.1038253037549
 30
0.0
 10
240.1002479496695
 20
932.7759726679184
 30
0.0
 10
242.8035294484545
 20
932.4875632195536
 30
0.0
 10
245.9041162677727
 20
932.2227380158417
 30
0.0
 10
249.1871126661051
 20
931.9827567606151
 30
0.0
 10
252.7930207958328
 20
931.7632572365458
 30
0.0
 10
256.5423894685537
 20
931.577766236329
 30
0.0
 10
261.979995620682
 20
931.3661262429362
 30
0.0
 10
268.966054183436
 20
931.1831482422742
 30
0.0
 10
274.6553879620125
 20
931.1524436680043
 30
0.0
 10
277.500057000057
 20
931.137091369273
 30
0.0
 11
230.680808840699
 21
934.9303785231
 31
0.0
 11
232.9299712082887
 21
933.959683907786
 31
0.0
 11
235.3434622510877
 21
933.4643632521452
 31
0.0
 11
237.6169725109622
 21
933.1139799861711
 31
0.0
 11
239.8903772870692
 21
932.8119918241656
 31
0.0
 11
242.8036181181847
 21
932.4979026264789
 31
0.0
 11
245.7256447337204
 21
932.2434799905749
 31
0.0
 11
249.1879543619354
 21
931.9897574306214
 31
0.0
 11
252.6519990943822
 21
931.7780474964195
 31
0.0
 11
256.5425584102861
 21
931.5846024587784
 31
0.0
 11
260.4352809273959
 21
931.431428568379
 31
0.0
 11
268.966428506566
 21
931.2127158352972
 31
0.0
 11
277.500057000057
 21
931.137091369273
 31
0.0
  0
SPLINE
  5
31B
330
1F
100
AcDbEntity
  8
0
  6
Continuous
 62
     3
100
AcDbSpline
210
0.0
220
0.0
230
1.0
 70
     8
 71
     3
 72
    11
 73
     7
 74
     5
 42
0.0000000001
 43
0.0000000001
 44
0.00000001
 40
0.0
 40
0.0
 40
0.0
 40
0.0
 40
0.7264886695201633
 40
1.452977338989226
 40
2.181898296017478
 40
2.910819253009922
 40
2.910819253009922
 40
2.910819253009922
 40
2.910819253009922
 10
347.053367492209
 20
788.397272207925
 30
0.0
 10
346.8116462587917
 20
788.4118910790041
 30
0.0
 10
346.3282037919739
 20
788.4411288211609
 30
0.0
 10
345.6022151238109
 20
788.4847743846303
 30
0.0
 10
344.8754065061622
 20
788.5282911426967
 30
0.0
 10
344.3903170412734
 20
788.5571528431799
 30
0.0
 10
344.147772308835
 20
788.571583693421
 30
0.0
 11
347.053367492209
 21
788.397272207925
 31
0.0
 11
346.3282011808554
 21
788.4410855371642
 31
0.0
 11
345.6030226573619
 21
788.4846962689925
 31
0.0
 11
344.8754037950674
 21
788.5282456987046
 31
0.0
 11
344.147772308835
 21
788.571583693421
 31
0.0
  0
SPLINE
  5
31C
330
1F
100
AcDbEntity
  8
0
  6
Continuous
 62
     3
100
AcDbSpline
210
0.0
220
0.0
230
1.0
 70
     8
 71
     3
 72
    11
 73
     7
 74
     5
 42
0.0000000001
 43
0.0000000001
 44
0.00000001
 40
0.0
 40
0.0
 40
0.0
 40
0.0
 40
0.7822606684268625
 40
1.564521337326699
 40
2.345799943908788
 40
3.127078551098669
 40
3.127078551098669
 40
3.127078551098669
 40
3.127078551098669
 10
347.053367492209
 20
788.397272207925
 30
0.0
 10
347.1540368087776
 20
788.1567350249265
 30
0.0
 10
347.3553754419756
 20
787.6756606587844
 30
0.0
 10
347.6558225437985
 20
786.9537521586514
 30
0.0
 10
347.9552001877498
 20
786.2317538877805
 30
0.0
 10
348.1537702235408
 20
785.7502382759978
 30
0.0
 10
348.253055241475
 20
785.509480470013
 30
0.0
 11
347.053367492209
 21
788.397272207925
 31
0.0
 11
347.3551362641316
 21
787.6755607963067
 31
0.0
 11
347.6557908150376
 21
786.9533845054143
 31
0.0
 11
347.9549673203004
 21
786.2316576320047
 31
0.0
 11
348.253055241475
 21
785.509480470013
 31
0.0
  0
SPLINE
  5
31D
330
1F
100
AcDbEntity
  8
0
  6
Continuous
 62
     3
100
AcDbSpline
210
0.0
220
0.0
230
1.0
 70
     8
 71
     3
 72
    11
 73
     7
 74
     5
 42
0.0000000001
 43
0.0000000001
 44
0.00000001
 40
0.0
 40
0.0
 40
0.0
 40
0.0
 40
1.741375669980648
 40
3.482751303125077
 40
5.328607175611036
 40
7.174462999198854
 40
7.174462999198854
 40
7.174462999198854
 40
7.174462999198854
 10
210.499150082347
 20
803.948123844308
 30
0.0
 10
210.3126000142793
 20
804.4977940122708
 30
0.0
 10
209.93949988209
 20
805.5971343365685
 30
0.0
 10
209.3897163222579
 20
807.286145505562
 30
0.0
 10
208.8441151341395
 20
809.0130813839598
 30
0.0
 10
208.4893273726127
 20
810.1914111249616
 30
0.0
 10
208.311933494199
 20
810.780575987659
 30
0.0
 11
210.499150082347
 21
803.948123844308
 31
0.0
 11
209.9429409571771
 21
805.5982816043656
 31
0.0
 11
209.402824112927
 21
807.2537763613088
 31
0.0
 11
208.8481004046766
 21
809.014306255828
 31
0.0
 11
208.311933494199
 21
810.780575987659
 31
0.0
  0
SPLINE
  5
31E
330
1F
100
AcDbEntity
  8
0
  6
Continuous
 62
     3
100
AcDbSpline
210
0.0
220
0.0
230
1.0
 70
     8
 71
     3
 72
    19
 73
    15
 74
    13
 42
0.0000000001
 43
0.0000000001
 44
0.00000001
 40
0.0
 40
0.0
 40
0.0
 40
0.0
 40
2.449689652176789
 40
4.913483792436274
 40
7.213835360094549
 40
9.507209757356486
 40
12.43733333225603
 40
15.37041540058611
 40
18.84200914108331
 40
22.31251731779643
 40
26.20788286844167
 40
30.10361782296748
 40
38.63756850698202
 40
47.17153208346762
 40
47.17153208346762
 40
47.17153208346762
 40
47.17153208346762
 10
230.680808840915
 20
777.715963076483
 30
0.0
 10
231.4175825259697
 20
778.0795342217215
 30
0.0
 10
232.8953719908487
 20
778.80876983242
 30
0.0
 10
235.2944379255571
 20
779.1705158192209
 30
0.0
 10
237.6119914075071
 20
779.5425162958277
 30
0.0
 10
240.1002479498856
 20
779.8703689316646
 30
0.0
 10
242.8035294486703
 20
780.1587783800297
 30
0.0
 10
245.9041162679887
 20
780.4236035837409
 30
0.0
 10
249.187112666321
 20
780.6635848389673
 30
0.0
 10
252.7930207960488
 20
780.8830843630363
 30
0.0
 10
256.5423894687697
 20
781.0685753632536
 30
0.0
 10
261.9799956208979
 20
781.2802153566465
 30
0.0
 10
268.966054183652
 20
781.4631933573079
 30
0.0
 10
274.6553879622286
 20
781.4938979315784
 30
0.0
 10
277.500057000273
 20
781.50925023031
 30
0.0
 11
230.680808840915
 21
777.715963076483
 31
0.0
 11
232.9299712085048
 21
778.6866576917971
 31
0.0
 11
235.3434622513041
 21
779.181978347438
 31
0.0
 11
237.6169725111784
 21
779.5323616134118
 31
0.0
 11
239.8903772872851
 21
779.8343497754174
 31
0.0
 11
242.8036181184006
 21
780.1484389731042
 31
0.0
 11
245.7256447339364
 21
780.4028616090079
 31
0.0
 11
249.1879543621513
 21
780.6565841689612
 31
0.0
 11
252.6519990945982
 21
780.8682941031626
 31
0.0
 11
256.542558410502
 21
781.0617391408041
 31
0.0
 11
260.4352809276119
 21
781.2149130312034
 31
0.0
 11
268.966428506782
 21
781.4336257642851
 31
0.0
 11
277.500057000273
 21
781.50925023031
 31
0.0
  0
SPLINE
  5
31F
330
1F
100
AcDbEntity
  8
0
  6
Continuous
 62
     3
100
AcDbSpline
210
0.0
220
0.0
230
1.0
 70
     8
 71
     3
 72
    19
 73
    15
 74
    13
 42
0.0000000001
 43
0.0000000001
 44
0.00000001
 40
0.0
 40
0.0
 40
0.0
 40
0.0
 40
8.533963576485203
 40
17.06791426050032
 40
20.96364921502618
 40
24.85901476567138
 40
28.32952294238434
 40
31.80111668288137
 40
34.73419875121151
 40
37.66432232611078
 40
39.95769672337272
 40
42.25804829103122
 40
44.72184243129079
 40
47.17153208346766
 40
47.17153208346766
 40
47.17153208346766
 40
47.17153208346766
 10
278.500057000273
 20
781.50925023031
 30
0.0
 10
281.3447260383173
 20
781.4938979315784
 30
0.0
 10
287.0340598168939
 20
781.4631933573082
 30
0.0
 10
294.0201183796481
 20
781.2802153566465
 30
0.0
 10
299.4577245317765
 20
781.0685753632533
 30
0.0
 10
303.2070932044973
 20
780.8830843630365
 30
0.0
 10
306.813001334225
 20
780.6635848389672
 30
0.0
 10
310.0959977325572
 20
780.4236035837413
 30
0.0
 10
313.1965845518754
 20
780.15877838003
 30
0.0
 10
315.8998660506601
 20
779.8703689316646
 30
0.0
 10
318.3881225930385
 20
779.5425162958281
 30
0.0
 10
320.7056760749887
 20
779.1705158192209
 30
0.0
 10
323.1047420096971
 20
778.8087698324199
 30
0.0
 10
324.5825314745763
 20
778.0795342217215
 30
0.0
 10
325.319305159631
 20
777.715963076483
 30
0.0
 11
278.500057000273
 21
781.50925023031
 31
0.0
 11
287.0336854937636
 21
781.4336257642854
 31
0.0
 11
295.5648330729343
 21
781.2149130312034
 31
0.0
 11
299.4575555900442
 21
781.0617391408042
 31
0.0
 11
303.3481149059479
 21
780.8682941031626
 31
0.0
 11
306.8121596383946
 21
780.6565841689611
 31
0.0
 11
310.2744692666095
 21
780.4028616090081
 31
0.0
 11
313.1964958821453
 21
780.1484389731044
 31
0.0
 11
316.1097367132605
 21
779.8343497754174
 31
0.0
 11
318.3831414893672
 21
779.5323616134118
 31
0.0
 11
320.6566517492417
 21
779.181978347438
 31
0.0
 11
323.0701427920411
 21
778.686657691797
 31
0.0
 11
325.319305159631
 21
777.715963076483
 31
0.0
  0
SPLINE
  5
320
330
1F
100
AcDbEntity
  8
0
  6
Continuous
 62
     3
100
AcDbSpline
210
0.0
220
0.0
230
1.0
 70
     8
 71
     3
 72
    19
 73
    15
 74
    13
 42
0.0000000001
 43
0.0000000001
 44
0.00000001
 40
0.0
 40
0.0
 40
0.0
 40
0.0
 40
2.449689652176744
 40
4.913483792436251
 40
7.213835360094526
 40
9.507209757356463
 40
12.437333332256
 40
15.37041540058609
 40
18.84200914108329
 40
22.31251731779641
 40
26.20788286844165
 40
30.10361782296747
 40
38.63756850698201
 40
47.17153208346761
 40
47.17153208346761
 40
47.17153208346761
 40
47.17153208346761
 10
230.680808840915
 20
781.715963076483
 30
0.0
 10
231.4175825259698
 20
782.0795342217216
 30
0.0
 10
232.8953719908488
 20
782.8087698324199
 30
0.0
 10
235.2944379255571
 20
783.170515819221
 30
0.0
 10
237.6119914075072
 20
783.5425162958279
 30
0.0
 10
240.1002479498855
 20
783.8703689316646
 30
0.0
 10
242.8035294486704
 20
784.1587783800296
 30
0.0
 10
245.9041162679886
 20
784.423603583741
 30
0.0
 10
249.1871126663211
 20
784.6635848389673
 30
0.0
 10
252.7930207960488
 20
784.8830843630367
 30
0.0
 10
256.5423894687696
 20
785.068575363253
 30
0.0
 10
261.9799956208979
 20
785.2802153566473
 30
0.0
 10
268.966054183652
 20
785.4631933573078
 30
0.0
 10
274.6553879622286
 20
785.4938979315782
 30
0.0
 10
277.500057000273
 20
785.50925023031
 30
0.0
 11
230.680808840915
 21
781.715963076483
 31
0.0
 11
232.9299712085048
 21
782.686657691797
 31
0.0
 11
235.3434622513041
 21
783.181978347438
 31
0.0
 11
237.6169725111784
 21
783.5323616134118
 31
0.0
 11
239.8903772872851
 21
783.8343497754174
 31
0.0
 11
242.8036181184006
 21
784.1484389731041
 31
0.0
 11
245.7256447339364
 21
784.402861609008
 31
0.0
 11
249.1879543621513
 21
784.6565841689613
 31
0.0
 11
252.6519990945982
 21
784.8682941031627
 31
0.0
 11
256.542558410502
 21
785.061739140804
 31
0.0
 11
260.4352809276119
 21
785.2149130312037
 31
0.0
 11
268.966428506782
 21
785.4336257642851
 31
0.0
 11
277.500057000273
 21
785.50925023031
 31
0.0
  0
SPLINE
  5
321
330
1F
100
AcDbEntity
  8
0
  6
Continuous
 62
     3
100
AcDbSpline
210
0.0
220
0.0
230
1.0
 70
     8
 71
     3
 72
    19
 73
    15
 74
    13
 42
0.0000000001
 43
0.0000000001
 44
0.00000001
 40
0.0
 40
0.0
 40
0.0
 40
0.0
 40
8.533963576485203
 40
17.06791426050032
 40
20.96364921502618
 40
24.85901476567137
 40
28.32952294238432
 40
31.80111668288137
 40
34.73419875121152
 40
37.66432232611078
 40
39.95769672337271
 40
42.25804829103122
 40
44.72184243129078
 40
47.17153208346765
 40
47.17153208346765
 40
47.17153208346765
 40
47.17153208346765
 10
278.500057000273
 20
785.50925023031
 30
0.0
 10
281.3447260383173
 20
785.4938979315784
 30
0.0
 10
287.0340598168939
 20
785.4631933573081
 30
0.0
 10
294.0201183796481
 20
785.2802153566466
 30
0.0
 10
299.4577245317765
 20
785.0685753632533
 30
0.0
 10
303.2070932044973
 20
784.8830843630365
 30
0.0
 10
306.813001334225
 20
784.6635848389673
 30
0.0
 10
310.0959977325573
 20
784.423603583741
 30
0.0
 10
313.1965845518753
 20
784.1587783800297
 30
0.0
 10
315.8998660506602
 20
783.8703689316646
 30
0.0
 10
318.3881225930385
 20
783.542516295828
 30
0.0
 10
320.7056760749887
 20
783.1705158192209
 30
0.0
 10
323.1047420096971
 20
782.8087698324199
 30
0.0
 10
324.5825314745763
 20
782.0795342217215
 30
0.0
 10
325.319305159631
 20
781.715963076483
 30
0.0
 11
278.500057000273
 21
785.50925023031
 31
0.0
 11
287.0336854937636
 21
785.4336257642852
 31
0.0
 11
295.5648330729343
 21
785.2149130312034
 31
0.0
 11
299.4575555900442
 21
785.0617391408041
 31
0.0
 11
303.3481149059479
 21
784.8682941031626
 31
0.0
 11
306.8121596383946
 21
784.6565841689612
 31
0.0
 11
310.2744692666095
 21
784.402861609008
 31
0.0
 11
313.1964958821453
 21
784.1484389731042
 31
0.0
 11
316.1097367132605
 21
783.8343497754174
 31
0.0
 11
318.3831414893672
 21
783.5323616134118
 31
0.0
 11
320.6566517492417
 21
783.181978347438
 31
0.0
 11
323.0701427920411
 21
782.686657691797
 31
0.0
 11
325.319305159631
 21
781.715963076483
 31
0.0
  0
SPLINE
  5
322
330
1F
100
AcDbEntity
  8
0
  6
Continuous
 62
     3
100
AcDbSpline
210
0.0
220
0.0
230
1.0
 70
     8
 71
     3
 72
    31
 73
    27
 74
    25
 42
0.0000000001
 43
0.0000000001
 44
0.00000001
 40
0.0
 40
0.0
 40
0.0
 40
0.0
 40
1.937397493579714
 40
3.886188781341073
 40
5.73912986912794
 40
7.586458249625347
 40
9.93231179411961
 40
12.28052868581767
 40
15.02259079172918
 40
17.76380065189182
 40
20.77900750517695
 40
23.7944972373185
 40
26.9499688802042
 40
30.10533617739429
 40
33.26070347458454
 40
36.41617511747041
 40
39.43166484961191
 40
42.44687170289686
 40
45.18808156305957
 40
47.93014366897135
 40
50.2783605606695
 40
52.62421410516394
 40
54.47154248566135
 40
56.32448357344821
 40
58.27327486120955
 40
60.21067235478925
 40
60.21067235478925
 40
60.21067235478925
 40
60.21067235478925
 10
248.114216057521
 20
775.176584889117
 30
0.0
 10
248.7056800718693
 20
775.4452222865932
 30
0.0
 10
249.8920864880768
 20
775.984076932468
 30
0.0
 10
251.8064741853652
 20
776.2235834187233
 30
0.0
 10
253.6674762543204
 20
776.4827369482337
 30
0.0
 10
255.6714048015158
 20
776.7097426881985
 30
0.0
 10
257.8430974023141
 20
776.903144826229
 30
0.0
 10
260.3162026560042
 20
777.0727674383886
 30
0.0
 10
262.9224842915964
 20
777.2213526717333
 30
0.0
 10
265.7524934772527
 20
777.3492913704692
 30
0.0
 10
268.6748505702017
 20
777.4481289786427
 30
0.0
 10
271.7361243916795
 20
777.5194358007507
 30
0.0
 10
274.8446431082395
 20
777.5628284447557
 30
0.0
 10
278.0000570002732
 20
777.5773213194598
 30
0.0
 10
281.1554708923071
 20
777.5628284447556
 30
0.0
 10
284.2639896088671
 20
777.5194358007504
 30
0.0
 10
287.3252634303449
 20
777.4481289786424
 30
0.0
 10
290.2476205232937
 20
777.3492913704697
 30
0.0
 10
293.0776297089502
 20
777.2213526717331
 30
0.0
 10
295.6839113445425
 20
777.0727674383884
 30
0.0
 10
298.157016598233
 20
776.9031448262292
 30
0.0
 10
300.3287091990312
 20
776.7097426881987
 30
0.0
 10
302.3326377462266
 20
776.4827369482339
 30
0.0
 10
304.1936398151819
 20
776.2235834187238
 30
0.0
 10
306.1080275124701
 20
775.9840769324676
 30
0.0
 10
307.2944339286777
 20
775.4452222865932
 30
0.0
 10
307.885897943026
 20
775.176584889117
 30
0.0
 11
248.114216057521
 21
775.176584889117
 31
0.0
 11
249.9159222790493
 21
775.8888795889674
 31
0.0
 11
251.834319068375
 21
776.2317224712904
 31
0.0
 11
253.6711852929306
 21
776.4752653789998
 31
0.0
 11
255.5066225984257
 21
776.6845308634645
 31
0.0
 11
257.8430014449532
 21
776.8951555004733
 31
0.0
 11
260.1854514330686
 21
777.0596262384004
 31
0.0
 11
262.9230513315696
 21
777.2159956356722
 31
0.0
 11
265.661444831848
 21
777.3402233905648
 31
0.0
 11
268.67490494349
 21
777.4428417302515
 31
0.0
 11
271.6895604699085
 21
777.5137669139707
 31
0.0
 11
274.8447234194453
 21
777.5579036438706
 31
0.0
 11
278.0000570002732
 21
777.5724904144765
 31
0.0
 11
281.1553905811012
 21
777.5579036438705
 31
0.0
 11
284.3105535306381
 21
777.5137669139706
 31
0.0
 11
287.3252090570566
 21
777.4428417302515
 31
0.0
 11
290.3386691686984
 21
777.3402233905649
 31
0.0
 11
293.0770626689769
 21
777.2159956356721
 31
0.0
 11
295.8146625674782
 21
777.0596262384004
 31
0.0
 11
298.1571125555937
 21
776.8951555004735
 31
0.0
 11
300.4934914021214
 21
776.6845308634647
 31
0.0
 11
302.3289287076165
 21
776.4752653790002
 31
0.0
 11
304.165794932172
 21
776.2317224712906
 31
0.0
 11
306.0841917214976
 21
775.8888795889673
 31
0.0
 11
307.885897943026
 21
775.176584889117
 31
0.0
  0
SPLINE
  5
323
330
1F
100
AcDbEntity
  8
0
  6
Continuous
 62
     3
100
AcDbSpline
210
0.0
220
0.0
230
1.0
 70
     8
 71
     3
 72
    11
 73
     7
 74
     5
 42
0.0000000001
 43
0.0000000001
 44
0.00000001
 40
0.0
 40
0.0
 40
0.0
 40
0.0
 40
1.861037259768593
 40
3.722074594671981
 40
5.477442741751648
 40
7.232810941291462
 40
7.232810941291462
 40
7.232810941291462
 40
7.232810941291462
 10
323.156742416746
 20
786.384367105273
 30
0.0
 10
323.7512402222278
 20
786.5615939149768
 30
0.0
 10
324.9402358571928
 20
786.91604754154
 30
0.0
 10
326.6827028150852
 20
787.4615509510736
 30
0.0
 10
328.3867970439323
 20
788.0114690069836
 30
0.0
 10
329.4958798704452
 20
788.3848787960859
 30
0.0
 10
330.050421291988
 20
788.571583693427
 30
0.0
 11
323.156742416746
 21
786.384367105273
 31
0.0
 11
324.9390006074269
 21
786.9201053099943
 31
0.0
 11
326.7154697537217
 21
787.4747379218798
 31
0.0
 11
328.385638955026
 21
788.0149713628997
 31
0.0
 11
330.050421291988
 21
788.571583693427
 31
0.0
  0
SPLINE
  5
324
330
1F
100
AcDbEntity
  8
0
  6
Continuous
 62
     3
100
AcDbSpline
210
0.0
220
0.0
230
1.0
 70
     8
 71
     3
 72
    11
 73
     7
 74
     5
 42
0.0000000001
 43
0.0000000001
 44
0.00000001
 40
0.0
 40
0.0
 40
0.0
 40
0.0
 40
0.9995993243720576
 40
1.99919864532465
 40
3.005584246634504
 40
4.011969844564653
 40
4.011969844564653
 40
4.011969844564653
 40
4.011969844564653
 10
211.101272343741
 20
782.332528746361
 30
0.0
 10
211.0932227067544
 20
782.6656316557882
 30
0.0
 10
211.0771234328087
 20
783.3318374735031
 30
0.0
 10
211.0574069937649
 20
784.3335074878647
 30
0.0
 10
211.0406930093768
 20
785.3374947120235
 30
0.0
 10
211.0326298133738
 20
786.008370810426
 30
0.0
 10
211.028598215379
 20
786.343808859064
 30
0.0
 11
211.101272343741
 21
782.332528746361
 31
0.0
 11
211.0778695976879
 21
783.3318540791543
 31
0.0
 11
211.0579553416936
 21
784.3312550121422
 31
0.0
 11
211.0414691499781
 21
785.3375055694123
 31
0.0
 11
211.028598215379
 21
786.343808859064
 31
0.0
  0
SPLINE
  5
325
330
1F
100
AcDbEntity
  8
0
  6
Continuous
 62
     3
100
AcDbSpline
210
0.0
220
0.0
230
1.0
 70
     8
 71
     3
 72
    11
 73
     7
 74
     5
 42
0.0000000001
 43
0.0000000001
 44
0.00000001
 40
0.0
 40
0.0
 40
0.0
 40
0.0
 40
1.755188923499062
 40
3.510377809097863
 40
5.371594408625224
 40
7.232810940841681
 40
7.232810940841681
 40
7.232810940841681
 40
7.232810940841681
 10
225.949692708576
 20
788.571583693422
 30
0.0
 10
226.5041774409008
 20
788.3848977072219
 30
0.0
 10
227.6131468935772
 20
788.011525738853
 30
0.0
 10
229.3171833718978
 20
787.4616233452332
 30
0.0
 10
231.0597064972967
 20
786.9160992842785
 30
0.0
 10
232.2488165622989
 20
786.5616111628049
 30
0.0
 10
232.843371584049
 20
786.384367105273
 30
0.0
 11
225.949692708576
 21
788.571583693422
 31
0.0
 11
227.6143047428097
 21
788.0150273776208
 31
0.0
 11
229.2843025660987
 21
787.4748465797952
 31
0.0
 11
231.0609419845365
 21
786.9201578317488
 31
0.0
 11
232.843371584049
 21
786.384367105273
 31
0.0
  0
SPLINE
  5
326
330
1F
100
AcDbEntity
  8
0
  6
Continuous
 62
     3
100
AcDbSpline
210
0.0
220
0.0
230
1.0
 70
     8
 71
     3
 72
    11
 73
     7
 74
     5
 42
0.0000000001
 43
0.0000000001
 44
0.00000001
 40
0.0
 40
0.0
 40
0.0
 40
0.0
 40
0.5445244343286582
 40
1.089048868657723
 40
1.633563588671622
 40
2.17807830868509
 40
2.17807830868509
 40
2.17807830868509
 40
2.17807830868509
 10
212.44053528253
 20
788.002259593079
 30
0.0
 10
212.3228724353099
 20
787.8640544520595
 30
0.0
 10
212.0875467408698
 20
787.5876441700204
 30
0.0
 10
211.7345611534675
 20
787.1730304844968
 30
0.0
 10
211.3815782238936
 20
786.7584187888782
 30
0.0
 10
211.1462582182172
 20
786.482012169002
 30
0.0
 10
211.028598215379
 20
786.343808859064
 30
0.0
 11
212.44053528253
 21
788.002259593079
 31
0.0
 11
212.0875468833962
 21
787.5876440486792
 31
0.0
 11
211.7345591474909
 21
787.1730279396315
 31
0.0
 11
211.3815783608873
 21
786.7584186722478
 31
0.0
 11
211.028598215379
 21
786.343808859064
 31
0.0
  0
SPLINE
  5
327
330
1F
100
AcDbEntity
  8
0
  6
Continuous
 62
     3
100
AcDbSpline
210
0.0
220
0.0
230
1.0
 70
    24
 71
     3
 72
    11
 73
     7
 74
     5
 42
0.0000000001
 43
0.0000000001
 44
0.00000001
 40
0.0
 40
0.0
 40
0.0
 40
0.0
 40
0.5435779198199262
 40
1.087155839640158
 40
1.630733760012597
 40
2.174311680384593
 40
2.174311680384593
 40
2.174311680384593
 40
2.174311680384593
 10
204.263972765743
 20
793.511728600409
 30
0.0
 10
204.4019543273729
 20
793.6291673564419
 30
0.0
 10
204.6779174506328
 20
793.864044868508
 30
0.0
 10
205.0918621356269
 20
794.216361136769
 30
0.0
 10
205.5058068207367
 20
794.568677405178
 30
0.0
 10
205.7817699442116
 20
794.8035549175593
 30
0.0
 10
205.919751505949
 20
794.92099367375
 30
0.0
 11
204.263972765743
 21
793.511728600409
 31
0.0
 11
204.6779174506268
 21
793.8640448685152
 31
0.0
 11
205.0918621354826
 21
794.2163611366545
 31
0.0
 11
205.5058068207305
 21
794.5686774051853
 31
0.0
 11
205.919751505949
 21
794.92099367375
 31
0.0
  0
SPLINE
  5
328
330
1F
100
AcDbEntity
  8
0
  6
Continuous
 62
     3
100
AcDbSpline
210
0.0
220
0.0
230
1.0
 70
     8
 71
     3
 72
    19
 73
    15
 74
    13
 42
0.0000000001
 43
0.0000000001
 44
0.00000001
 40
0.0
 40
0.0
 40
0.0
 40
0.0
 40
4.215100358920753
 40
8.430188781613975
 40
10.34528666868303
 40
12.25994265592742
 40
13.95112541509156
 40
15.64360635567628
 40
17.05334438787095
 40
18.45958754057691
 40
19.53015617120203
 40
20.60876565634588
 40
21.66086756568299
 40
22.69709036791829
 40
22.69709036791829
 40
22.69709036791829
 40
22.69709036791829
 10
206.44850637157
 20
827.622602860079
 30
0.0
 10
206.4419716093334
 20
826.217554234368
 30
0.0
 10
206.4289021033651
 20
823.4074609617317
 30
0.0
 10
206.338024486132
 20
819.9599254857973
 30
0.0
 10
206.2322359038359
 20
817.2803770932444
 30
0.0
 10
206.1389218752894
 20
815.4423847192709
 30
0.0
 10
206.0274059259323
 20
813.6797423718309
 30
0.0
 10
205.9066983933598
 20
812.0865267687531
 30
0.0
 10
205.77583209635
 20
810.5891900385993
 30
0.0
 10
205.6300686464286
 20
809.3021980400896
 30
0.0
 10
205.4593820102164
 20
808.1277052132536
 30
0.0
 10
205.2759154734595
 20
807.0817760054673
 30
0.0
 10
205.1308079660364
 20
806.016412923741
 30
0.0
 10
204.7417571895847
 20
805.428186232353
 30
0.0
 10
204.548710924532
 20
805.136309252149
 30
0.0
 11
206.44850637157
 21
827.622602860079
 31
0.0
 11
206.413655782601
 21
823.4076465765309
 31
0.0
 11
206.3051681585107
 21
819.1939545082205
 31
0.0
 11
206.2286369706361
 21
817.280386402733
 31
0.0
 11
206.130930134193
 21
815.3682250801446
 31
0.0
 11
206.023938407881
 21
813.6804300998834
 31
0.0
 11
205.8960281916709
 21
811.9927895247515
 31
0.0
 11
205.7697475153107
 21
810.5887188320177
 31
0.0
 11
205.6090937019824
 21
809.1916826274777
 31
0.0
 11
205.4548069448091
 21
808.1322899762669
 31
0.0
 11
205.2806704617057
 21
807.0678300631209
 31
0.0
 11
205.0556196474843
 21
806.0400798217446
 31
0.0
 11
204.548710924532
 21
805.136309252149
 31
0.0
  0
SPLINE
  5
329
330
1F
100
AcDbEntity
  8
0
  6
Continuous
 62
     3
100
AcDbSpline
210
0.0
220
0.0
230
1.0
 70
     8
 71
     3
 72
    19
 73
    15
 74
    13
 42
0.0000000001
 43
0.0000000001
 44
0.00000001
 40
0.0
 40
0.0
 40
0.0
 40
0.0
 40
1.036222802234797
 40
2.08832471157197
 40
3.166934196716172
 40
4.237502827341675
 40
5.643745980047774
 40
7.053484012242673
 40
8.745964952827162
 40
10.43714771199152
 40
12.35180369923626
 40
14.2669015863052
 40
18.48199000899776
 40
22.69709036791873
 40
22.69709036791873
 40
22.69709036791873
 40
22.69709036791873
 10
201.537251411901
 20
805.136309252149
 30
0.0
 10
201.730297676954
 20
805.4281862323527
 30
0.0
 10
202.1193484534062
 20
806.01641292374
 30
0.0
 10
202.2644559608289
 20
807.081776005467
 30
0.0
 10
202.4479224975858
 20
808.1277052132531
 30
0.0
 10
202.6186091337985
 20
809.3021980400898
 30
0.0
 10
202.7643725837201
 20
810.589190038599
 30
0.0
 10
202.8952388807296
 20
812.0865267687532
 30
0.0
 10
203.0159464133024
 20
813.679742371831
 30
0.0
 10
203.1274623626595
 20
815.4423847192713
 30
0.0
 10
203.2207763912058
 20
817.2803770932445
 30
0.0
 10
203.3265649735022
 20
819.9599254857981
 30
0.0
 10
203.4174425907358
 20
823.4074609617312
 30
0.0
 10
203.4305120967036
 20
826.217554234368
 30
0.0
 10
203.43704685894
 20
827.622602860079
 30
0.0
 11
201.537251411901
 21
805.136309252149
 31
0.0
 11
202.0441601348539
 21
806.0400798217437
 31
0.0
 11
202.269210949075
 21
807.0678300631201
 31
0.0
 11
202.4433474321786
 21
808.1322899762664
 31
0.0
 11
202.5976341893522
 21
809.1916826274776
 31
0.0
 11
202.7582880026808
 21
810.5887188320177
 31
0.0
 11
202.8845686790409
 21
811.9927895247517
 31
0.0
 11
203.0124788952511
 21
813.6804300998834
 31
0.0
 11
203.119470621563
 21
815.3682250801448
 31
0.0
 11
203.2171774580061
 21
817.2803864027336
 31
0.0
 11
203.2937086458808
 21
819.1939545082209
 31
0.0
 11
203.4021962699715
 21
823.4076465765306
 31
0.0
 11
203.43704685894
 21
827.622602860079
 31
0.0
  0
SPLINE
  5
32A
330
1F
100
AcDbEntity
  8
0
  6
Continuous
 62
     3
100
AcDbSpline
210
0.0
220
0.0
230
1.0
 70
     8
 71
     3
 72
    19
 73
    15
 74
    13
 42
0.0000000001
 43
0.0000000001
 44
0.00000001
 40
0.0
 40
0.0
 40
0.0
 40
0.0
 40
1.036222802234896
 40
2.088324711571958
 40
3.166934196716384
 40
4.23750282734177
 40
5.643745980047872
 40
7.053484012242658
 40
8.745964952827146
 40
10.43714771199151
 40
12.35180369923625
 40
14.26690158630519
 40
18.48199000899774
 40
22.69709036791872
 40
22.69709036791872
 40
22.69709036791872
 40
22.69709036791872
 10
205.537251411901
 20
804.136309252149
 30
0.0
 10
205.7302976769541
 20
804.4281862323528
 30
0.0
 10
206.1193484534062
 20
805.0164129237398
 30
0.0
 10
206.2644559608289
 20
806.0817760054671
 30
0.0
 10
206.4479224975858
 20
807.1277052132527
 30
0.0
 10
206.6186091337985
 20
808.3021980400902
 30
0.0
 10
206.7643725837201
 20
809.5891900385989
 30
0.0
 10
206.8952388807297
 20
811.0865267687534
 30
0.0
 10
207.0159464133023
 20
812.679742371831
 30
0.0
 10
207.1274623626594
 20
814.4423847192711
 30
0.0
 10
207.2207763912059
 20
816.2803770932446
 30
0.0
 10
207.3265649735022
 20
818.959925485798
 30
0.0
 10
207.4174425907358
 20
822.4074609617314
 30
0.0
 10
207.4305120967036
 20
825.217554234368
 30
0.0
 10
207.43704685894
 20
826.622602860079
 30
0.0
 11
205.537251411901
 21
804.136309252149
 31
0.0
 11
206.0441601348539
 21
805.0400798217438
 31
0.0
 11
206.269210949075
 21
806.0678300631201
 31
0.0
 11
206.4433474321786
 21
807.1322899762666
 31
0.0
 11
206.5976341893521
 21
808.1916826274777
 31
0.0
 11
206.7582880026808
 21
809.5887188320178
 31
0.0
 11
206.8845686790409
 21
810.9927895247517
 31
0.0
 11
207.012478895251
 21
812.6804300998834
 31
0.0
 11
207.119470621563
 21
814.3682250801448
 31
0.0
 11
207.2171774580061
 21
816.2803864027336
 31
0.0
 11
207.2937086458808
 21
818.1939545082209
 31
0.0
 11
207.4021962699715
 21
822.4076465765306
 31
0.0
 11
207.43704685894
 21
826.622602860079
 31
0.0
  0
SPLINE
  5
32B
330
1F
100
AcDbEntity
  8
0
  6
Continuous
 62
     3
100
AcDbSpline
210
0.0
220
0.0
230
1.0
 70
     8
 71
     3
 72
    11
 73
     7
 74
     5
 42
0.0000000001
 43
0.0000000001
 44
0.00000001
 40
0.0
 40
0.0
 40
0.0
 40
0.0
 40
0.97945000941436
 40
1.958900021917737
 40
2.932477803844399
 40
3.906055588459671
 40
3.906055588459671
 40
3.906055588459671
 40
3.906055588459671
 10
204.263972765743
 20
793.511728600409
 30
0.0
 10
203.9377620864648
 20
793.5250775203451
 30
0.0
 10
203.2853407268798
 20
793.5517753602595
 30
0.0
 10
202.308846997176
 20
793.5960086381181
 30
0.0
 10
201.3344393749508
 20
793.642946374564
 30
0.0
 10
200.6862765563059
 20
793.6769189396837
 30
0.0
 10
200.362195146536
 20
793.693905222267
 30
0.0
 11
204.263972765743
 21
793.511728600409
 31
0.0
 11
203.285371211278
 21
793.5524878759243
 31
0.0
 11
202.3069135236187
 21
793.5965659935483
 31
0.0
 11
201.3344740836763
 21
793.6436322564729
 31
0.0
 11
200.362195146536
 21
793.693905222267
 31
0.0
  0
SPLINE
  5
32C
330
1F
100
AcDbEntity
  8
0
  6
Continuous
 62
     3
100
AcDbSpline
210
0.0
220
0.0
230
1.0
 70
     8
 71
     3
 72
    11
 73
     7
 74
     5
 42
0.0000000001
 43
0.0000000001
 44
0.00000001
 40
0.0
 40
0.0
 40
0.0
 40
0.0
 40
7.05058749466961
 40
14.10117498967412
 40
21.15170323841206
 40
28.20223148749104
 40
28.20223148749104
 40
28.20223148749104
 40
28.20223148749104
 10
203.669688236439
 20
531.545378360061
 30
0.0
 10
203.3927935875106
 20
529.2115510512194
 30
0.0
 10
202.8390042896406
 20
524.5438964334252
 30
0.0
 10
202.0112133614167
 20
517.542091669749
 30
0.0
 10
201.1853135998301
 20
510.5400834793624
 30
0.0
 10
200.6365679643052
 20
505.8718729968224
 30
0.0
 10
200.362195146536
 20
503.537767755496
 30
0.0
 11
203.669688236439
 21
531.545378360061
 31
0.0
 11
202.8394860729757
 21
524.5438393586862
 31
0.0
 11
202.0115258538484
 21
517.5420348841056
 31
0.0
 11
201.1857767656668
 21
510.5400289551151
 31
0.0
 11
200.362195146536
 21
503.537767755496
 31
0.0
  0
SPLINE
  5
32D
330
1F
100
AcDbEntity
  8
0
  6
Continuous
 62
     3
100
AcDbSpline
210
0.0
220
0.0
230
1.0
 70
     8
 71
     3
 72
    11
 73
     7
 74
     5
 42
0.0000000001
 43
0.0000000001
 44
0.00000001
 40
0.0
 40
0.0
 40
0.0
 40
0.0
 40
5.193268580881385
 40
10.38653668999805
 40
15.57688529398252
 40
20.76723294202622
 40
20.76723294202622
 40
20.76723294202622
 40
20.76723294202622
 10
227.253455282743
 20
533.537767755491
 30
0.0
 10
227.6985555389528
 20
531.8648709317848
 30
0.0
 10
228.5887560109389
 20
528.5190774363411
 30
0.0
 10
229.968090871636
 20
523.5132908317221
 30
0.0
 10
231.3792728742835
 20
518.5173739023098
 30
0.0
 10
232.3553387107552
 20
515.1976363691983
 30
0.0
 10
232.843371584049
 20
513.537767755497
 30
0.0
 11
227.253455282743
 21
533.537767755491
 31
0.0
 11
228.5961381680593
 21
528.5210715096886
 31
0.0
 11
229.9737038708573
 21
523.5138420973645
 31
0.0
 11
231.3881365186075
 21
518.5199359192449
 31
0.0
 11
232.843371584049
 21
513.537767755497
 31
0.0
  0
SPLINE
  5
32E
330
1F
100
AcDbEntity
  8
0
  6
Continuous
 62
     3
100
AcDbSpline
210
0.0
220
0.0
230
1.0
 70
     8
 71
     3
 72
    11
 73
     7
 74
     5
 42
0.0000000001
 43
0.0000000001
 44
0.00000001
 40
0.0
 40
0.0
 40
0.0
 40
0.0
 40
7.002083328183149
 40
14.00416665598712
 40
21.00592779195182
 40
28.00768892738573
 40
28.00768892738573
 40
28.00768892738573
 40
28.00768892738573
 10
211.10127234374
 20
503.537767755496
 30
0.0
 10
211.0944162329013
 20
505.8717854886509
 30
0.0
 10
211.0807040112244
 20
510.5398209548345
 30
0.0
 10
211.0632787013462
 20
517.5417753873226
 30
0.0
 10
211.0479922239423
 20
524.5436274351796
 30
0.0
 10
211.0399860644187
 20
529.2114613846662
 30
0.0
 10
211.035982984657
 20
531.545378359321
 30
0.0
 11
211.10127234374
 21
503.537767755496
 31
0.0
 11
211.081227803785
 21
510.5398223933319
 31
0.0
 11
211.0636348807428
 21
517.5418836197543
 31
0.0
 11
211.0485383912167
 21
524.5436284809379
 31
0.0
 11
211.035982984657
 21
531.545378359321
 31
0.0
  0
SPLINE
  5
32F
330
1F
100
AcDbEntity
  8
0
  6
Continuous
 62
     3
100
AcDbSpline
210
0.0
220
0.0
230
1.0
 70
     8
 71
     3
 72
    11
 73
     7
 74
     5
 42
0.0000000001
 43
0.0000000001
 44
0.00000001
 40
0.0
 40
0.0
 40
0.0
 40
0.0
 40
0.6104327867099201
 40
1.220865573419644
 40
1.831301996379135
 40
2.441738419338392
 40
2.441738419338392
 40
2.441738419338392
 40
2.441738419338392
 10
212.447532134323
 20
533.537767755498
 30
0.0
 10
212.3299009209179
 20
533.3717375488114
 30
0.0
 10
212.0946384941075
 20
533.0396771354385
 30
0.0
 10
211.7417497745977
 20
532.5415815436714
 30
0.0
 10
211.3888640279266
 20
532.0434823602902
 30
0.0
 10
211.1536099990802
 20
531.7114130263108
 30
0.0
 10
211.035982984657
 20
531.545378359321
 30
0.0
 11
212.447532134323
 21
533.537767755498
 31
0.0
 11
212.0946394310083
 21
533.0396764716577
 31
0.0
 11
211.7417510875487
 21
532.5415820989324
 31
0.0
 11
211.3888649286087
 21
532.0434817221968
 31
0.0
 11
211.035982984657
 21
531.545378359321
 31
0.0
  0
SPLINE
  5
330
330
1F
100
AcDbEntity
  8
0
  6
Continuous
 62
     3
100
AcDbSpline
210
0.0
220
0.0
230
1.0
 70
     8
 71
     3
 72
    11
 73
     7
 74
     5
 42
0.0000000001
 43
0.0000000001
 44
0.00000001
 40
0.0
 40
0.0
 40
0.0
 40
0.0
 40
0.6476522439921022
 40
1.295304487983517
 40
1.942956714962258
 40
2.590608941941763
 40
2.590608941941763
 40
2.590608941941763
 40
2.590608941941763
 10
203.669688236439
 20
531.545378360061
 30
0.0
 10
203.8076706941293
 20
531.7114108205672
 30
0.0
 10
204.0836356095098
 20
532.0434757415794
 30
0.0
 10
204.497583002119
 20
532.5415730994864
 30
0.0
 10
204.9115304068465
 20
533.0396704399488
 30
0.0
 10
205.1874953569809
 20
533.3717353173317
 30
0.0
 10
205.325477832048
 20
533.537767756023
 30
0.0
 11
203.669688236439
 21
531.545378360061
 31
0.0
 11
204.0836356133705
 21
532.0434757383713
 31
0.0
 11
204.4975830083673
 21
532.5415731016673
 31
0.0
 11
204.9115304108628
 21
533.0396704366108
 31
0.0
 11
205.325477832048
 21
533.537767756023
 31
0.0
  0
SPLINE
  5
331
330
1F
100
AcDbEntity
  8
0
  6
Continuous
 62
     3
100
AcDbSpline
210
0.0
220
0.0
230
1.0
 70
     8
 71
     3
 72
    11
 73
     7
 74
     5
 42
0.0000000001
 43
0.0000000001
 44
0.00000001
 40
0.0
 40
0.0
 40
0.0
 40
0.0
 40
5.189962099632179
 40
10.37992516972301
 40
15.57357881078127
 40
20.76723294314382
 40
20.76723294314382
 40
20.76723294314382
 40
20.76723294314382
 10
323.156742416746
 20
513.537767755498
 30
0.0
 10
323.6447393532178
 20
515.1975129770804
 30
0.0
 10
324.6207333174107
 20
518.517003730597
 30
0.0
 10
326.0318850252023
 20
523.5127956556395
 30
0.0
 10
327.4112581614911
 20
528.5187050344414
 30
0.0
 10
328.3015251849969
 20
531.8647467957248
 30
0.0
 10
328.746658717804
 20
533.537767755498
 30
0.0
 11
323.156742416746
 21
513.537767755498
 31
0.0
 11
324.611870945794
 21
518.5195653788031
 31
0.0
 11
326.0262028675519
 21
523.5130993862975
 31
0.0
 11
327.4038748813149
 21
528.5206994068435
 31
0.0
 11
328.746658717804
 21
533.537767755498
 31
0.0
  0
SPLINE
  5
332
330
1F
100
AcDbEntity
  8
0
  6
Continuous
 62
     3
100
AcDbSpline
210
0.0
220
0.0
230
1.0
 70
     8
 71
     3
 72
    11
 73
     7
 74
     5
 42
0.0000000001
 43
0.0000000001
 44
0.00000001
 40
0.0
 40
0.0
 40
0.0
 40
0.0
 40
7.006514084354045
 40
14.01302816875233
 40
21.01954186960576
 40
28.02605557049998
 40
28.02605557049998
 40
28.02605557049998
 40
28.02605557049998
 10
347.2364324145
 20
531.545378359315
 30
0.0
 10
347.3216820563721
 20
529.2114300530444
 30
0.0
 10
347.4921813401169
 20
524.5435334404884
 30
0.0
 10
347.7467258202675
 20
517.5416447444085
 30
0.0
 10
348.0004776127042
 20
510.5397274054705
 30
0.0
 10
348.1688626985552
 20
505.8717543054933
 30
0.0
 10
348.253055241481
 20
503.537767755498
 30
0.0
 11
347.2364324145
 21
531.545378359315
 31
0.0
 11
347.4919805999793
 21
524.5435261230028
 31
0.0
 11
347.7465937110587
 21
517.5416398215453
 31
0.0
 11
348.0002819195321
 21
510.5397203323532
 31
0.0
 11
348.253055241481
 21
503.537767755498
 31
0.0
  0
SPLINE
  5
333
330
1F
100
AcDbEntity
  8
0
  6
Continuous
 62
     3
100
AcDbSpline
210
0.0
220
0.0
230
1.0
 70
     8
 71
     3
 72
    11
 73
     7
 74
     5
 42
0.0000000001
 43
0.0000000001
 44
0.00000001
 40
0.0
 40
0.0
 40
0.0
 40
0.0
 40
0.8818474243625523
 40
1.763694846203811
 40
2.645526238176434
 40
3.527357627187619
 40
3.527357627187619
 40
3.527357627187619
 40
3.527357627187619
 10
347.2364324145
 20
531.545378359315
 30
0.0
 10
346.9944957344643
 20
531.7123299023302
 30
0.0
 10
346.5106223750845
 20
532.0462329878832
 30
0.0
 10
345.7834204614039
 20
532.545056016757
 30
0.0
 10
345.0552712734629
 20
533.0424859678466
 30
0.0
 10
344.5688680022581
 20
533.3726738264658
 30
0.0
 10
344.325666367064
 20
533.537767755498
 30
0.0
 11
347.2364324145
 21
531.545378359315
 31
0.0
 11
346.5103896608511
 21
532.0458948922376
 31
0.0
 11
345.7832574380757
 21
532.5448273586194
 31
0.0
 11
345.0550279174256
 21
533.0421284435992
 31
0.0
 11
344.325666367064
 21
533.537767755498
 31
0.0
  0
ENDSEC
  0
SECTION
  2
OBJECTS
  0
DICTIONARY
  5
C
330
0
100
AcDbDictionary
281
     1
  3
ACAD_GROUP
350
D
  3
ACAD_LAYOUT
350
1A
  3
ACAD_MATERIAL
350
3B
  3
ACAD_MLEADERSTYLE
350
336
  3
ACAD_MLINESTYLE
350
17
  3
ACAD_PLOTSETTINGS
350
19
  3
ACAD_PLOTSTYLENAME
350
E
  3
ACAD_VISUALSTYLE
350
2A
  3
AcDbVariableDictionary
350
334
  0
DICTIONARY
  5
D
102
{ACAD_REACTORS
330
C
102
}
330
C
100
AcDbDictionary
281
     1
  0
DICTIONARY
  5
1A
102
{ACAD_REACTORS
330
C
102
}
330
C
100
AcDbDictionary
281
     1
  3
Layout1
350
1E
  3
Layout2
350
26
  3
Model
350
22
  0
DICTIONARY
  5
3B
102
{ACAD_REACTORS
330
C
102
}
330
C
100
AcDbDictionary
281
     1
  3
ByBlock
350
3D
  3
ByLayer
350
3C
  3
Global
350
3E
  0
DICTIONARY
  5
336
102
{ACAD_REACTORS
330
C
102
}
330
C
100
AcDbDictionary
281
     1
  0
DICTIONARY
  5
17
102
{ACAD_REACTORS
330
C
102
}
330
C
100
AcDbDictionary
281
     1
  3
Standard
350
18
  0
DICTIONARY
  5
19
102
{ACAD_REACTORS
330
C
102
}
330
C
100
AcDbDictionary
281
     1
  0
ACDBDICTIONARYWDFLT
  5
E
102
{ACAD_REACTORS
330
C
102
}
330
C
100
AcDbDictionary
281
     1
  3
Normal
350
F
100
AcDbDictionaryWithDefault
340
F
  0
DICTIONARY
  5
2A
102
{ACAD_REACTORS
330
C
102
}
330
C
100
AcDbDictionary
281
     1
  3
2dWireframe
350
2F
  3
3D Hidden
350
31
  3
3dWireframe
350
30
  3
Basic
350
32
  3
Brighten
350
36
  3
ColorChange
350
3A
  3
Conceptual
350
34
  3
Dim
350
35
  3
Facepattern
350
39
  3
Flat
350
2B
  3
FlatWithEdges
350
2C
  3
Gouraud
350
2D
  3
GouraudWithEdges
350
2E
  3
Linepattern
350
38
  3
Realistic
350
33
  3
Thicken
350
37
  0
DICTIONARY
  5
334
102
{ACAD_REACTORS
330
C
102
}
330
C
100
AcDbDictionary
281
     1
  3
DIMASSOC
350
337
  3
HIDETEXT
350
338
  0
LAYOUT
  5
1E
102
{ACAD_REACTORS
330
1A
102
}
330
1A
100
AcDbPlotSettings
  1

  2
none_device
  4

  6

 40
0.0
 41
0.0
 42
0.0
 43
0.0
 44
0.0
 45
0.0
 46
0.0
 47
0.0
 48
0.0
 49
0.0
140
0.0
141
0.0
142
1.0
143
1.0
 70
   688
 72
     0
 73
     0
 74
     5
  7

 75
    16
147
1.0
148
0.0
149
0.0
100
AcDbLayout
  1
Layout1
 70
     1
 71
     1
 10
0.0
 20
0.0
 11
12.0
 21
9.0
 12
0.0
 22
0.0
 32
0.0
 14
1.00000000000000E+20
 24
1.00000000000000E+20
 34
1.00000000000000E+20
 15
-1.00000000000000E+20
 25
-1.00000000000000E+20
 35
-1.00000000000000E+20
146
0.0
 13
0.0
 23
0.0
 33
0.0
 16
1.0
 26
0.0
 36
0.0
 17
0.0
 27
1.0
 37
0.0
 76
     0
330
1B
  0
LAYOUT
  5
26
102
{ACAD_REACTORS
330
1A
102
}
330
1A
100
AcDbPlotSettings
  1

  2
none_device
  4

  6

 40
0.0
 41
0.0
 42
0.0
 43
0.0
 44
0.0
 45
0.0
 46
0.0
 47
0.0
 48
0.0
 49
0.0
140
0.0
141
0.0
142
1.0
143
1.0
 70
   688
 72
     0
 73
     0
 74
     5
  7

 75
    16
147
1.0
148
0.0
149
0.0
100
AcDbLayout
  1
Layout2
 70
     1
 71
     2
 10
0.0
 20
0.0
 11
0.0
 21
0.0
 12
0.0
 22
0.0
 32
0.0
 14
0.0
 24
0.0
 34
0.0
 15
0.0
 25
0.0
 35
0.0
146
0.0
 13
0.0
 23
0.0
 33
0.0
 16
1.0
 26
0.0
 36
0.0
 17
0.0
 27
1.0
 37
0.0
 76
     0
330
23
  0
LAYOUT
  5
22
102
{ACAD_REACTORS
330
1A
102
}
330
1A
100
AcDbPlotSettings
  1

  2
none_device
  4

  6

 40
0.0
 41
0.0
 42
0.0
 43
0.0
 44
0.0
 45
0.0
 46
0.0
 47
0.0
 48
0.0
 49
0.0
140
0.0
141
0.0
142
1.0
143
1.0
 70
  1712
 72
     0
 73
     0
 74
     0
  7

 75
     0
147
1.0
148
0.0
149
0.0
100
AcDbLayout
  1
Model
 70
     1
 71
     0
 10
0.0
 20
0.0
 11
12.0
 21
9.0
 12
0.0
 22
0.0
 32
0.0
 14
-256.703912669961
 24
285.365014190365
 34
0.0
 15
853.422082470715
 25
1001.83252551188
 35
0.0
146
0.0
 13
0.0
 23
0.0
 33
0.0
 16
1.0
 26
0.0
 36
0.0
 17
0.0
 27
1.0
 37
0.0
 76
     0
330
1F
331
29
  0
MATERIAL
  5
3D
102
{ACAD_REACTORS
330
3B
102
}
102
{ACAD_XDICTIONARY
360
35B
102
}
330
3B
100
AcDbMaterial
  1
ByBlock
  0
MATERIAL
  5
3C
102
{ACAD_REACTORS
330
3B
102
}
102
{ACAD_XDICTIONARY
360
359
102
}
330
3B
100
AcDbMaterial
  1
ByLayer
  0
MATERIAL
  5
3E
102
{ACAD_REACTORS
330
3B
102
}
102
{ACAD_XDICTIONARY
360
35D
102
}
330
3B
100
AcDbMaterial
  1
Global
  0
MLINESTYLE
  5
18
102
{ACAD_REACTORS
330
17
102
}
330
17
100
AcDbMlineStyle
  2
Standard
 70
     0
  3

 62
   256
 51
90.0
 52
90.0
 71
     2
 49
0.5
 62
   256
  6
BYLAYER
 49
-0.5
 62
   256
  6
BYLAYER
  0
ACDBPLACEHOLDER
  5
F
102
{ACAD_REACTORS
330
E
102
}
330
E
  0
VISUALSTYLE
  5
2F
102
{ACAD_REACTORS
330
2A
102
}
102
{ACAD_XDICTIONARY
360
341
102
}
330
2A
100
AcDbVisualStyle
  2
2dWireframe
 70
     4
 71
     0
 72
     2
 73
     0
 90
        0
 40
-0.6
 41
-30.0
 62
     5
 63
     7
 74
     1
 91
        4
 64
     7
 65
   257
 75
     1
175
     1
 42
1.0
 92
        0
 66
   257
 43
1.0
 76
     1
 77
     6
 78
     2
 67
     7
 79
     5
170
     0
171
     0
290
     0
174
     0
 93
        1
 44
0.0
173
     0
291
     0
 45
0.0
1001
ACAD
1000
AcDbSavedByObjectVersion
1070
     0
  0
VISUALSTYLE
  5
31
102
{ACAD_REACTORS
330
2A
102
}
102
{ACAD_XDICTIONARY
360
345
102
}
330
2A
100
AcDbVisualStyle
  2
3D Hidden
 70
     6
 71
     1
 72
     2
 73
     2
 90
        0
 40
-0.6
 41
-30.0
 62
     5
 63
     7
 74
     2
 91
        2
 64
     7
 65
   257
 75
     2
175
     1
 42
40.0
 92
        0
 66
   257
 43
1.0
 76
     1
 77
     6
 78
     2
 67
     7
 79
     3
170
     0
171
     0
290
     0
174
     0
 93
        1
 44
0.0
173
     0
291
     0
 45
0.0
1001
ACAD
1000
AcDbSavedByObjectVersion
1070
     0
  0
VISUALSTYLE
  5
30
102
{ACAD_REACTORS
330
2A
102
}
102
{ACAD_XDICTIONARY
360
343
102
}
330
2A
100
AcDbVisualStyle
  2
3dWireframe
 70
     5
 71
     0
 72
     2
 73
     0
 90
        0
 40
-0.6
 41
-30.0
 62
     5
 63
     7
 74
     1
 91
        4
 64
     7
 65
   257
 75
     1
175
     1
 42
1.0
 92
        0
 66
   257
 43
1.0
 76
     1
 77
     6
 78
     2
 67
     7
 79
     5
170
     0
171
     0
290
     0
174
     0
 93
        1
 44
0.0
173
     0
291
     0
 45
0.0
1001
ACAD
1000
AcDbSavedByObjectVersion
1070
     0
  0
VISUALSTYLE
  5
32
102
{ACAD_REACTORS
330
2A
102
}
102
{ACAD_XDICTIONARY
360
347
102
}
330
2A
100
AcDbVisualStyle
  2
Basic
 70
     7
 71
     1
 72
     0
 73
     1
 90
        0
 40
-0.6
 41
-30.0
 62
     5
 63
     7
 74
     0
 91
        4
 64
     7
 65
   257
 75
     1
175
     1
 42
1.0
 92
        8
 66
     7
 43
1.0
 76
     1
 77
     6
 78
     2
 67
     7
 79
     5
170
     0
171
     0
290
     0
174
     0
 93
        1
 44
0.0
173
     0
291
     1
 45
0.0
1001
ACAD
1000
AcDbSavedByObjectVersion
1070
     0
  0
VISUALSTYLE
  5
36
102
{ACAD_REACTORS
330
2A
102
}
102
{ACAD_XDICTIONARY
360
34F
102
}
330
2A
100
AcDbVisualStyle
  2
Brighten
 70
    12
 71
     2
 72
     2
 73
     0
 90
        0
 40
-0.6
 41
-30.0
 62
     5
 63
     7
 74
     1
 91
        4
 64
     7
 65
   257
 75
     1
175
     1
 42
1.0
 92
        8
 66
     7
 43
1.0
 76
     1
 77
     6
 78
     2
 67
     7
 79
     5
170
     0
171
     0
290
     0
174
     0
 93
        1
 44
50.0
173
     0
291
     1
 45
0.0
1001
ACAD
1000
AcDbSavedByObjectVersion
1070
     0
  0
VISUALSTYLE
  5
3A
102
{ACAD_REACTORS
330
2A
102
}
102
{ACAD_XDICTIONARY
360
357
102
}
330
2A
100
AcDbVisualStyle
  2
ColorChange
 70
    16
 71
     2
 72
     2
 73
     3
 90
        0
 40
-0.6
 41
-30.0
 62
     5
 63
     8
 74
     1
 91
        4
 64
     7
 65
   257
 75
     1
175
     1
 42
1.0
 92
        8
 66
     8
 43
1.0
 76
     1
 77
     6
 78
     2
 67
     7
 79
     5
170
     0
171
     0
290
     0
174
     0
 93
        1
 44
0.0
173
     0
291
     1
 45
0.0
1001
ACAD
1000
AcDbSavedByObjectVersion
1070
     0
  0
VISUALSTYLE
  5
34
102
{ACAD_REACTORS
330
2A
102
}
102
{ACAD_XDICTIONARY
360
34B
102
}
330
2A
100
AcDbVisualStyle
  2
Conceptual
 70
     9
 71
     3
 72
     2
 73
     0
 90
        0
 40
-0.6
 41
-30.0
 62
     5
 63
     7
 74
     2
 91
        2
 64
     7
 65
   257
 75
     1
175
     1
 42
40.0
 92
        8
 66
     7
 43
1.0
 76
     1
 77
     6
 78
     2
 67
     7
 79
     3
170
     0
171
     0
290
     0
174
     0
 93
        1
 44
0.0
173
     0
291
     0
 45
0.0
1001
ACAD
1000
AcDbSavedByObjectVersion
1070
     0
  0
VISUALSTYLE
  5
35
102
{ACAD_REACTORS
330
2A
102
}
102
{ACAD_XDICTIONARY
360
34D
102
}
330
2A
100
AcDbVisualStyle
  2
Dim
 70
    11
 71
     2
 72
     2
 73
     0
 90
        0
 40
-0.6
 41
-30.0
 62
     5
 63
     7
 74
     1
 91
        4
 64
     7
 65
   257
 75
     1
175
     1
 42
1.0
 92
        8
 66
     7
 43
1.0
 76
     1
 77
     6
 78
     2
 67
     7
 79
     5
170
     0
171
     0
290
     0
174
     0
 93
        1
 44
-50.0
173
     0
291
     1
 45
0.0
1001
ACAD
1000
AcDbSavedByObjectVersion
1070
     0
  0
VISUALSTYLE
  5
39
102
{ACAD_REACTORS
330
2A
102
}
102
{ACAD_XDICTIONARY
360
355
102
}
330
2A
100
AcDbVisualStyle
  2
Facepattern
 70
    15
 71
     2
 72
     2
 73
     0
 90
        0
 40
-0.6
 41
-30.0
 62
     5
 63
     7
 74
     1
 91
        4
 64
     7
 65
   257
 75
     1
175
     1
 42
1.0
 92
        8
 66
     7
 43
1.0
 76
     1
 77
     6
 78
     2
 67
     7
 79
     5
170
     0
171
     0
290
     0
174
     0
 93
        1
 44
0.0
173
     0
291
     1
 45
0.0
1001
ACAD
1000
AcDbSavedByObjectVersion
1070
     0
  0
VISUALSTYLE
  5
2B
102
{ACAD_REACTORS
330
2A
102
}
102
{ACAD_XDICTIONARY
360
339
102
}
330
2A
100
AcDbVisualStyle
  2
Flat
 70
     0
 71
     2
 72
     1
 73
     1
 90
        2
 40
-0.6
 41
30.0
 62
     5
 63
     7
 74
     0
 91
        4
 64
     7
 65
   257
 75
     1
175
     1
 42
1.0
 92
        8
 66
     7
 43
1.0
 76
     1
 77
     6
 78
     2
 67
     7
 79
     5
170
     0
171
     0
290
     0
174
     0
 93
       13
 44
0.0
173
     0
291
     1
 45
0.0
1001
ACAD
1000
AcDbSavedByObjectVersion
1070
     0
  0
VISUALSTYLE
  5
2C
102
{ACAD_REACTORS
330
2A
102
}
102
{ACAD_XDICTIONARY
360
33B
102
}
330
2A
100
AcDbVisualStyle
  2
FlatWithEdges
 70
     1
 71
     2
 72
     1
 73
     1
 90
        2
 40
-0.6
 41
30.0
 62
     5
 63
     7
 74
     1
 91
        4
 64
     7
 65
   257
 75
     1
175
     1
 42
1.0
 92
        0
 66
   257
 43
1.0
 76
     1
 77
     6
 78
     2
 67
     7
 79
     5
170
     0
171
     0
290
     0
174
     0
 93
       13
 44
0.0
173
     0
291
     1
 45
0.0
1001
ACAD
1000
AcDbSavedByObjectVersion
1070
     0
  0
VISUALSTYLE
  5
2D
102
{ACAD_REACTORS
330
2A
102
}
102
{ACAD_XDICTIONARY
360
33D
102
}
330
2A
100
AcDbVisualStyle
  2
Gouraud
 70
     2
 71
     2
 72
     2
 73
     1
 90
        2
 40
-0.6
 41
30.0
 62
     5
 63
     7
 74
     0
 91
        4
 64
     7
 65
   257
 75
     1
175
     1
 42
1.0
 92
        0
 66
     7
 43
1.0
 76
     1
 77
     6
 78
     2
 67
     7
 79
     5
170
     0
171
     0
290
     0
174
     0
 93
       13
 44
0.0
173
     0
291
     1
 45
0.0
1001
ACAD
1000
AcDbSavedByObjectVersion
1070
     0
  0
VISUALSTYLE
  5
2E
102
{ACAD_REACTORS
330
2A
102
}
102
{ACAD_XDICTIONARY
360
33F
102
}
330
2A
100
AcDbVisualStyle
  2
GouraudWithEdges
 70
     3
 71
     2
 72
     2
 73
     1
 90
        2
 40
-0.6
 41
30.0
 62
     5
 63
     7
 74
     1
 91
        4
 64
     7
 65
   257
 75
     1
175
     1
 42
1.0
 92
        0
 66
   257
 43
1.0
 76
     1
 77
     6
 78
     2
 67
     7
 79
     5
170
     0
171
     0
290
     0
174
     0
 93
       13
 44
0.0
173
     0
291
     1
 45
0.0
1001
ACAD
1000
AcDbSavedByObjectVersion
1070
     0
  0
VISUALSTYLE
  5
38
102
{ACAD_REACTORS
330
2A
102
}
102
{ACAD_XDICTIONARY
360
353
102
}
330
2A
100
AcDbVisualStyle
  2
Linepattern
 70
    14
 71
     2
 72
     2
 73
     0
 90
        0
 40
-0.6
 41
-30.0
 62
     5
 63
     7
 74
     1
 91
        4
 64
     7
 65
   257
 75
     7
175
     7
 42
1.0
 92
        8
 66
     7
 43
1.0
 76
     1
 77
     6
 78
     2
 67
     7
 79
     5
170
     0
171
     0
290
     0
174
     0
 93
        1
 44
0.0
173
     0
291
     1
 45
0.0
1001
ACAD
1000
AcDbSavedByObjectVersion
1070
     0
  0
VISUALSTYLE
  5
33
102
{ACAD_REACTORS
330
2A
102
}
102
{ACAD_XDICTIONARY
360
349
102
}
330
2A
100
AcDbVisualStyle
  2
Realistic
 70
     8
 71
     2
 72
     2
 73
     0
 90
        0
 40
-0.6
 41
-30.0
 62
     5
 63
     7
 74
     1
 91
        0
 64
     7
 65
   257
 75
     1
175
     1
 42
1.0
 92
        8
 66
     8
 43
1.0
 76
     1
 77
     6
 78
     2
 67
     7
 79
     5
170
     0
171
     0
290
     0
174
     0
 93
       13
 44
0.0
173
     0
291
     0
 45
0.0
1001
ACAD
1000
AcDbSavedByObjectVersion
1070
     0
  0
VISUALSTYLE
  5
37
102
{ACAD_REACTORS
330
2A
102
}
102
{ACAD_XDICTIONARY
360
351
102
}
330
2A
100
AcDbVisualStyle
  2
Thicken
 70
    13
 71
     2
 72
     2
 73
     0
 90
        0
 40
-0.6
 41
-30.0
 62
     5
 63
     7
 74
     1
 91
        4
 64
     7
 65
   257
 75
     1
175
     1
 42
1.0
 92
       12
 66
     7
 43
1.0
 76
     1
 77
     6
 78
     2
 67
     7
 79
     5
170
     0
171
     0
290
     0
174
     0
 93
        1
 44
0.0
173
     0
291
     1
 45
0.0
1001
ACAD
1000
AcDbSavedByObjectVersion
1070
     0
  0
DICTIONARYVAR
  5
337
102
{ACAD_REACTORS
330
334
102
}
330
334
100
DictionaryVariables
280
     0
  1
2
  0
DICTIONARYVAR
  5
338
102
{ACAD_REACTORS
330
334
102
}
330
334
100
DictionaryVariables
280
     0
  1
1
  0
DICTIONARY
  5
35B
330
3D
100
AcDbDictionary
280
     1
281
     1
  3
ACAD_XREC_ROUNDTRIP
360
35C
  0
DICTIONARY
  5
359
330
3C
100
AcDbDictionary
280
     1
281
     1
  3
ACAD_XREC_ROUNDTRIP
360
35A
  0
DICTIONARY
  5
35D
330
3E
100
AcDbDictionary
280
     1
281
     1
  3
ACAD_XREC_ROUNDTRIP
360
35E
  0
DICTIONARY
  5
341
330
2F
100
AcDbDictionary
280
     1
281
     1
  3
ACAD_XREC_ROUNDTRIP
360
342
  0
DICTIONARY
  5
345
330
31
100
AcDbDictionary
280
     1
281
     1
  3
ACAD_XREC_ROUNDTRIP
360
346
  0
DICTIONARY
  5
343
330
30
100
AcDbDictionary
280
     1
281
     1
  3
ACAD_XREC_ROUNDTRIP
360
344
  0
DICTIONARY
  5
347
330
32
100
AcDbDictionary
280
     1
281
     1
  3
ACAD_XREC_ROUNDTRIP
360
348
  0
DICTIONARY
  5
34F
330
36
100
AcDbDictionary
280
     1
281
     1
  3
ACAD_XREC_ROUNDTRIP
360
350
  0
DICTIONARY
  5
357
330
3A
100
AcDbDictionary
280
     1
281
     1
  3
ACAD_XREC_ROUNDTRIP
360
358
  0
DICTIONARY
  5
34B
330
34
100
AcDbDictionary
280
     1
281
     1
  3
ACAD_XREC_ROUNDTRIP
360
34C
  0
DICTIONARY
  5
34D
330
35
100
AcDbDictionary
280
     1
281
     1
  3
ACAD_XREC_ROUNDTRIP
360
34E
  0
DICTIONARY
  5
355
330
39
100
AcDbDictionary
280
     1
281
     1
  3
ACAD_XREC_ROUNDTRIP
360
356
  0
DICTIONARY
  5
339
330
2B
100
AcDbDictionary
280
     1
281
     1
  3
ACAD_XREC_ROUNDTRIP
360
33A
  0
DICTIONARY
  5
33B
330
2C
100
AcDbDictionary
280
     1
281
     1
  3
ACAD_XREC_ROUNDTRIP
360
33C
  0
DICTIONARY
  5
33D
330
2D
100
AcDbDictionary
280
     1
281
     1
  3
ACAD_XREC_ROUNDTRIP
360
33E
  0
DICTIONARY
  5
33F
330
2E
100
AcDbDictionary
280
     1
281
     1
  3
ACAD_XREC_ROUNDTRIP
360
340
  0
DICTIONARY
  5
353
330
38
100
AcDbDictionary
280
     1
281
     1
  3
ACAD_XREC_ROUNDTRIP
360
354
  0
DICTIONARY
  5
349
330
33
100
AcDbDictionary
280
     1
281
     1
  3
ACAD_XREC_ROUNDTRIP
360
34A
  0
DICTIONARY
  5
351
330
37
100
AcDbDictionary
280
     1
281
     1
  3
ACAD_XREC_ROUNDTRIP
360
352
  0
XRECORD
  5
35C
102
{ACAD_REACTORS
330
35B
102
}
330
35B
100
AcDbXrecord
280
     1
102
MATERIAL
148
0.0
149
0.0
149
0.0
 93
        0
 94
      127
282
     0
 72
     1
 77
     1
171
     1
175
     1
179
     1
273
     0
  0
XRECORD
  5
35A
102
{ACAD_REACTORS
330
359
102
}
330
359
100
AcDbXrecord
280
     1
102
MATERIAL
148
0.0
149
0.0
149
0.0
 93
        0
 94
      127
282
     0
 72
     1
 77
     1
171
     1
175
     1
179
     1
273
     0
  0
XRECORD
  5
35E
102
{ACAD_REACTORS
330
35D
102
}
330
35D
100
AcDbXrecord
280
     1
102
MATERIAL
148
0.0
149
0.0
149
0.0
 93
        0
 94
      127
282
     0
 72
     1
 77
     1
171
     1
175
     1
179
     1
273
     0
  0
XRECORD
  5
342
102
{ACAD_REACTORS
330
341
102
}
330
341
100
AcDbXrecord
280
     1
102
RTVSPropertyOp0
 70
     1
102
RTVSPropertyOp1
 70
     1
102
RTVSPropertyOp2
 70
     1
102
RTVSPropertyOp3
 70
     1
102
RTVSPropertyOp4
 70
     1
102
RTVSPropertyOp5
 70
     1
102
RTVSPropertyOp6
 70
     1
102
RTVSPropertyOp7
 70
     1
102
RTVSPropertyOp8
 70
     1
102
RTVSPropertyOp9
 70
     1
102
RTVSPropertyOp10
 70
     1
102
RTVSPropertyOp11
 70
     1
102
RTVSPropertyOp12
 70
     1
102
RTVSPropertyOp13
 70
     1
102
RTVSPropertyOp14
 70
     1
102
RTVSPropertyOp15
 70
     1
102
RTVSPropertyOp16
 70
     1
102
RTVSPropertyOp17
 70
     1
102
RTVSPropertyOp18
 70
     1
102
RTVSPropertyOp19
 70
     1
102
RTVSPropertyOp20
 70
     1
102
RTVSPropertyOp21
 70
     1
102
RTVSPropertyOp22
 70
     1
102
RTVSPropertyOp23
 70
     1
102
RTVSPropertyOp24
 70
     1
102
RTVSPropertyOp25
 70
     1
102
RTVSPropertyOp26
 70
     1
102
RTVSPropertyOp27
 70
     1
  0
XRECORD
  5
346
102
{ACAD_REACTORS
330
345
102
}
330
345
100
AcDbXrecord
280
     1
102
RTVSPropertyOp0
 70
     1
102
RTVSPropertyOp1
 70
     1
102
RTVSPropertyOp2
 70
     1
102
RTVSPropertyOp3
 70
     1
102
RTVSPropertyOp4
 70
     1
102
RTVSPropertyOp5
 70
     1
102
RTVSPropertyOp6
 70
     1
102
RTVSPropertyOp7
 70
     1
102
RTVSPropertyOp8
 70
     1
102
RTVSPropertyOp9
 70
     1
102
RTVSPropertyOp10
 70
     1
102
RTVSPropertyOp11
 70
     1
102
RTVSPropertyOp12
 70
     1
102
RTVSPropertyOp13
 70
     1
102
RTVSPropertyOp14
 70
     1
102
RTVSPropertyOp15
 70
     1
102
RTVSPropertyOp16
 70
     1
102
RTVSPropertyOp17
 70
     1
102
RTVSPropertyOp18
 70
     1
102
RTVSPropertyOp19
 70
     1
102
RTVSPropertyOp20
 70
     1
102
RTVSPropertyOp21
 70
     1
102
RTVSPropertyOp22
 70
     1
102
RTVSPropertyOp23
 70
     1
102
RTVSPropertyOp24
 70
     1
102
RTVSPropertyOp25
 70
     1
102
RTVSPropertyOp26
 70
     1
102
RTVSPropertyOp27
 70
     1
  0
XRECORD
  5
344
102
{ACAD_REACTORS
330
343
102
}
330
343
100
AcDbXrecord
280
     1
102
RTVSPropertyOp0
 70
     1
102
RTVSPropertyOp1
 70
     1
102
RTVSPropertyOp2
 70
     1
102
RTVSPropertyOp3
 70
     1
102
RTVSPropertyOp4
 70
     1
102
RTVSPropertyOp5
 70
     1
102
RTVSPropertyOp6
 70
     1
102
RTVSPropertyOp7
 70
     1
102
RTVSPropertyOp8
 70
     1
102
RTVSPropertyOp9
 70
     1
102
RTVSPropertyOp10
 70
     1
102
RTVSPropertyOp11
 70
     1
102
RTVSPropertyOp12
 70
     1
102
RTVSPropertyOp13
 70
     1
102
RTVSPropertyOp14
 70
     1
102
RTVSPropertyOp15
 70
     1
102
RTVSPropertyOp16
 70
     1
102
RTVSPropertyOp17
 70
     1
102
RTVSPropertyOp18
 70
     1
102
RTVSPropertyOp19
 70
     1
102
RTVSPropertyOp20
 70
     1
102
RTVSPropertyOp21
 70
     1
102
RTVSPropertyOp22
 70
     1
102
RTVSPropertyOp23
 70
     1
102
RTVSPropertyOp24
 70
     1
102
RTVSPropertyOp25
 70
     1
102
RTVSPropertyOp26
 70
     1
102
RTVSPropertyOp27
 70
     1
  0
XRECORD
  5
348
102
{ACAD_REACTORS
330
347
102
}
330
347
100
AcDbXrecord
280
     1
102
RTVSPropertyOp0
 70
     1
102
RTVSPropertyOp1
 70
     1
102
RTVSPropertyOp2
 70
     1
102
RTVSPropertyOp3
 70
     1
102
RTVSPropertyOp4
 70
     1
102
RTVSPropertyOp5
 70
     1
102
RTVSPropertyOp6
 70
     1
102
RTVSPropertyOp7
 70
     1
102
RTVSPropertyOp8
 70
     1
102
RTVSPropertyOp9
 70
     1
102
RTVSPropertyOp10
 70
     1
102
RTVSPropertyOp11
 70
     1
102
RTVSPropertyOp12
 70
     1
102
RTVSPropertyOp13
 70
     1
102
RTVSPropertyOp14
 70
     1
102
RTVSPropertyOp15
 70
     1
102
RTVSPropertyOp16
 70
     1
102
RTVSPropertyOp17
 70
     1
102
RTVSPropertyOp18
 70
     1
102
RTVSPropertyOp19
 70
     1
102
RTVSPropertyOp20
 70
     1
102
RTVSPropertyOp21
 70
     1
102
RTVSPropertyOp22
 70
     1
102
RTVSPropertyOp23
 70
     1
102
RTVSPropertyOp24
 70
     1
102
RTVSPropertyOp25
 70
     1
102
RTVSPropertyOp26
 70
     1
102
RTVSPropertyOp27
 70
     1
  0
XRECORD
  5
350
102
{ACAD_REACTORS
330
34F
102
}
330
34F
100
AcDbXrecord
280
     1
102
RTVSPropertyOp0
 70
     1
102
RTVSPropertyOp1
 70
     1
102
RTVSPropertyOp2
 70
     1
102
RTVSPropertyOp3
 70
     1
102
RTVSPropertyOp4
 70
     1
102
RTVSPropertyOp5
 70
     1
102
RTVSPropertyOp6
 70
     1
102
RTVSPropertyOp7
 70
     1
102
RTVSPropertyOp8
 70
     1
102
RTVSPropertyOp9
 70
     1
102
RTVSPropertyOp10
 70
     1
102
RTVSPropertyOp11
 70
     1
102
RTVSPropertyOp12
 70
     1
102
RTVSPropertyOp13
 70
     1
102
RTVSPropertyOp14
 70
     1
102
RTVSPropertyOp15
 70
     1
102
RTVSPropertyOp16
 70
     1
102
RTVSPropertyOp17
 70
     1
102
RTVSPropertyOp18
 70
     1
102
RTVSPropertyOp19
 70
     1
102
RTVSPropertyOp20
 70
     1
102
RTVSPropertyOp21
 70
     1
102
RTVSPropertyOp22
 70
     1
102
RTVSPropertyOp23
 70
     1
102
RTVSPropertyOp24
 70
     1
102
RTVSPropertyOp25
 70
     1
102
RTVSPropertyOp26
 70
     1
102
RTVSPropertyOp27
 70
     1
  0
XRECORD
  5
358
102
{ACAD_REACTORS
330
357
102
}
330
357
100
AcDbXrecord
280
     1
102
RTVSPropertyOp0
 70
     1
102
RTVSPropertyOp1
 70
     1
102
RTVSPropertyOp2
 70
     1
102
RTVSPropertyOp3
 70
     1
102
RTVSPropertyOp4
 70
     1
102
RTVSPropertyOp5
 70
     1
102
RTVSPropertyOp6
 70
     1
102
RTVSPropertyOp7
 70
     1
102
RTVSPropertyOp8
 70
     1
102
RTVSPropertyOp9
 70
     1
102
RTVSPropertyOp10
 70
     1
102
RTVSPropertyOp11
 70
     1
102
RTVSPropertyOp12
 70
     1
102
RTVSPropertyOp13
 70
     1
102
RTVSPropertyOp14
 70
     1
102
RTVSPropertyOp15
 70
     1
102
RTVSPropertyOp16
 70
     1
102
RTVSPropertyOp17
 70
     1
102
RTVSPropertyOp18
 70
     1
102
RTVSPropertyOp19
 70
     1
102
RTVSPropertyOp20
 70
     1
102
RTVSPropertyOp21
 70
     1
102
RTVSPropertyOp22
 70
     1
102
RTVSPropertyOp23
 70
     1
102
RTVSPropertyOp24
 70
     1
102
RTVSPropertyOp25
 70
     1
102
RTVSPropertyOp26
 70
     1
102
RTVSPropertyOp27
 70
     1
  0
XRECORD
  5
34C
102
{ACAD_REACTORS
330
34B
102
}
330
34B
100
AcDbXrecord
280
     1
102
RTVSPropertyOp0
 70
     1
102
RTVSPropertyOp1
 70
     1
102
RTVSPropertyOp2
 70
     1
102
RTVSPropertyOp3
 70
     1
102
RTVSPropertyOp4
 70
     1
102
RTVSPropertyOp5
 70
     1
102
RTVSPropertyOp6
 70
     1
102
RTVSPropertyOp7
 70
     1
102
RTVSPropertyOp8
 70
     1
102
RTVSPropertyOp9
 70
     1
102
RTVSPropertyOp10
 70
     1
102
RTVSPropertyOp11
 70
     1
102
RTVSPropertyOp12
 70
     1
102
RTVSPropertyOp13
 70
     1
102
RTVSPropertyOp14
 70
     1
102
RTVSPropertyOp15
 70
     1
102
RTVSPropertyOp16
 70
     1
102
RTVSPropertyOp17
 70
     1
102
RTVSPropertyOp18
 70
     1
102
RTVSPropertyOp19
 70
     1
102
RTVSPropertyOp20
 70
     1
102
RTVSPropertyOp21
 70
     1
102
RTVSPropertyOp22
 70
     1
102
RTVSPropertyOp23
 70
     1
102
RTVSPropertyOp24
 70
     1
102
RTVSPropertyOp25
 70
     1
102
RTVSPropertyOp26
 70
     1
102
RTVSPropertyOp27
 70
     1
  0
XRECORD
  5
34E
102
{ACAD_REACTORS
330
34D
102
}
330
34D
100
AcDbXrecord
280
     1
102
RTVSPropertyOp0
 70
     1
102
RTVSPropertyOp1
 70
     1
102
RTVSPropertyOp2
 70
     1
102
RTVSPropertyOp3
 70
     1
102
RTVSPropertyOp4
 70
     1
102
RTVSPropertyOp5
 70
     1
102
RTVSPropertyOp6
 70
     1
102
RTVSPropertyOp7
 70
     1
102
RTVSPropertyOp8
 70
     1
102
RTVSPropertyOp9
 70
     1
102
RTVSPropertyOp10
 70
     1
102
RTVSPropertyOp11
 70
     1
102
RTVSPropertyOp12
 70
     1
102
RTVSPropertyOp13
 70
     1
102
RTVSPropertyOp14
 70
     1
102
RTVSPropertyOp15
 70
     1
102
RTVSPropertyOp16
 70
     1
102
RTVSPropertyOp17
 70
     1
102
RTVSPropertyOp18
 70
     1
102
RTVSPropertyOp19
 70
     1
102
RTVSPropertyOp20
 70
     1
102
RTVSPropertyOp21
 70
     1
102
RTVSPropertyOp22
 70
     1
102
RTVSPropertyOp23
 70
     1
102
RTVSPropertyOp24
 70
     1
102
RTVSPropertyOp25
 70
     1
102
RTVSPropertyOp26
 70
     1
102
RTVSPropertyOp27
 70
     1
  0
XRECORD
  5
356
102
{ACAD_REACTORS
330
355
102
}
330
355
100
AcDbXrecord
280
     1
102
RTVSPropertyOp0
 70
     1
102
RTVSPropertyOp1
 70
     1
102
RTVSPropertyOp2
 70
     1
102
RTVSPropertyOp3
 70
     1
102
RTVSPropertyOp4
 70
     1
102
RTVSPropertyOp5
 70
     1
102
RTVSPropertyOp6
 70
     1
102
RTVSPropertyOp7
 70
     1
102
RTVSPropertyOp8
 70
     1
102
RTVSPropertyOp9
 70
     1
102
RTVSPropertyOp10
 70
     1
102
RTVSPropertyOp11
 70
     1
102
RTVSPropertyOp12
 70
     1
102
RTVSPropertyOp13
 70
     1
102
RTVSPropertyOp14
 70
     1
102
RTVSPropertyOp15
 70
     1
102
RTVSPropertyOp16
 70
     1
102
RTVSPropertyOp17
 70
     1
102
RTVSPropertyOp18
 70
     1
102
RTVSPropertyOp19
 70
     1
102
RTVSPropertyOp20
 70
     1
102
RTVSPropertyOp21
 70
     1
102
RTVSPropertyOp22
 70
     1
102
RTVSPropertyOp23
 70
     1
102
RTVSPropertyOp24
 70
     1
102
RTVSPropertyOp25
 70
     1
102
RTVSPropertyOp26
 70
     1
102
RTVSPropertyOp27
 70
     1
  0
XRECORD
  5
33A
102
{ACAD_REACTORS
330
339
102
}
330
339
100
AcDbXrecord
280
     1
102
RTVSPropertyOp0
 70
     1
102
RTVSPropertyOp1
 70
     1
102
RTVSPropertyOp2
 70
     1
102
RTVSPropertyOp3
 70
     1
102
RTVSPropertyOp4
 70
     1
102
RTVSPropertyOp5
 70
     1
102
RTVSPropertyOp6
 70
     1
102
RTVSPropertyOp7
 70
     1
102
RTVSPropertyOp8
 70
     1
102
RTVSPropertyOp9
 70
     1
102
RTVSPropertyOp10
 70
     1
102
RTVSPropertyOp11
 70
     1
102
RTVSPropertyOp12
 70
     1
102
RTVSPropertyOp13
 70
     1
102
RTVSPropertyOp14
 70
     1
102
RTVSPropertyOp15
 70
     1
102
RTVSPropertyOp16
 70
     1
102
RTVSPropertyOp17
 70
     1
102
RTVSPropertyOp18
 70
     1
102
RTVSPropertyOp19
 70
     1
102
RTVSPropertyOp20
 70
     1
102
RTVSPropertyOp21
 70
     1
102
RTVSPropertyOp22
 70
     1
102
RTVSPropertyOp23
 70
     1
102
RTVSPropertyOp24
 70
     1
102
RTVSPropertyOp25
 70
     1
102
RTVSPropertyOp26
 70
     1
102
RTVSPropertyOp27
 70
     1
  0
XRECORD
  5
33C
102
{ACAD_REACTORS
330
33B
102
}
330
33B
100
AcDbXrecord
280
     1
102
RTVSPropertyOp0
 70
     1
102
RTVSPropertyOp1
 70
     1
102
RTVSPropertyOp2
 70
     1
102
RTVSPropertyOp3
 70
     1
102
RTVSPropertyOp4
 70
     1
102
RTVSPropertyOp5
 70
     1
102
RTVSPropertyOp6
 70
     1
102
RTVSPropertyOp7
 70
     1
102
RTVSPropertyOp8
 70
     1
102
RTVSPropertyOp9
 70
     1
102
RTVSPropertyOp10
 70
     1
102
RTVSPropertyOp11
 70
     1
102
RTVSPropertyOp12
 70
     1
102
RTVSPropertyOp13
 70
     1
102
RTVSPropertyOp14
 70
     1
102
RTVSPropertyOp15
 70
     1
102
RTVSPropertyOp16
 70
     1
102
RTVSPropertyOp17
 70
     1
102
RTVSPropertyOp18
 70
     1
102
RTVSPropertyOp19
 70
     1
102
RTVSPropertyOp20
 70
     1
102
RTVSPropertyOp21
 70
     1
102
RTVSPropertyOp22
 70
     1
102
RTVSPropertyOp23
 70
     1
102
RTVSPropertyOp24
 70
     1
102
RTVSPropertyOp25
 70
     1
102
RTVSPropertyOp26
 70
     1
102
RTVSPropertyOp27
 70
     1
  0
XRECORD
  5
33E
102
{ACAD_REACTORS
330
33D
102
}
330
33D
100
AcDbXrecord
280
     1
102
RTVSPropertyOp0
 70
     1
102
RTVSPropertyOp1
 70
     1
102
RTVSPropertyOp2
 70
     1
102
RTVSPropertyOp3
 70
     1
102
RTVSPropertyOp4
 70
     1
102
RTVSPropertyOp5
 70
     1
102
RTVSPropertyOp6
 70
     1
102
RTVSPropertyOp7
 70
     1
102
RTVSPropertyOp8
 70
     1
102
RTVSPropertyOp9
 70
     1
102
RTVSPropertyOp10
 70
     1
102
RTVSPropertyOp11
 70
     1
102
RTVSPropertyOp12
 70
     1
102
RTVSPropertyOp13
 70
     1
102
RTVSPropertyOp14
 70
     1
102
RTVSPropertyOp15
 70
     1
102
RTVSPropertyOp16
 70
     1
102
RTVSPropertyOp17
 70
     1
102
RTVSPropertyOp18
 70
     1
102
RTVSPropertyOp19
 70
     1
102
RTVSPropertyOp20
 70
     1
102
RTVSPropertyOp21
 70
     1
102
RTVSPropertyOp22
 70
     1
102
RTVSPropertyOp23
 70
     1
102
RTVSPropertyOp24
 70
     1
102
RTVSPropertyOp25
 70
     1
102
RTVSPropertyOp26
 70
     1
102
RTVSPropertyOp27
 70
     1
  0
XRECORD
  5
340
102
{ACAD_REACTORS
330
33F
102
}
330
33F
100
AcDbXrecord
280
     1
102
RTVSPropertyOp0
 70
     1
102
RTVSPropertyOp1
 70
     1
102
RTVSPropertyOp2
 70
     1
102
RTVSPropertyOp3
 70
     1
102
RTVSPropertyOp4
 70
     1
102
RTVSPropertyOp5
 70
     1
102
RTVSPropertyOp6
 70
     1
102
RTVSPropertyOp7
 70
     1
102
RTVSPropertyOp8
 70
     1
102
RTVSPropertyOp9
 70
     1
102
RTVSPropertyOp10
 70
     1
102
RTVSPropertyOp11
 70
     1
102
RTVSPropertyOp12
 70
     1
102
RTVSPropertyOp13
 70
     1
102
RTVSPropertyOp14
 70
     1
102
RTVSPropertyOp15
 70
     1
102
RTVSPropertyOp16
 70
     1
102
RTVSPropertyOp17
 70
     1
102
RTVSPropertyOp18
 70
     1
102
RTVSPropertyOp19
 70
     1
102
RTVSPropertyOp20
 70
     1
102
RTVSPropertyOp21
 70
     1
102
RTVSPropertyOp22
 70
     1
102
RTVSPropertyOp23
 70
     1
102
RTVSPropertyOp24
 70
     1
102
RTVSPropertyOp25
 70
     1
102
RTVSPropertyOp26
 70
     1
102
RTVSPropertyOp27
 70
     1
  0
XRECORD
  5
354
102
{ACAD_REACTORS
330
353
102
}
330
353
100
AcDbXrecord
280
     1
102
RTVSPropertyOp0
 70
     1
102
RTVSPropertyOp1
 70
     1
102
RTVSPropertyOp2
 70
     1
102
RTVSPropertyOp3
 70
     1
102
RTVSPropertyOp4
 70
     1
102
RTVSPropertyOp5
 70
     1
102
RTVSPropertyOp6
 70
     1
102
RTVSPropertyOp7
 70
     1
102
RTVSPropertyOp8
 70
     1
102
RTVSPropertyOp9
 70
     1
102
RTVSPropertyOp10
 70
     1
102
RTVSPropertyOp11
 70
     1
102
RTVSPropertyOp12
 70
     1
102
RTVSPropertyOp13
 70
     1
102
RTVSPropertyOp14
 70
     1
102
RTVSPropertyOp15
 70
     1
102
RTVSPropertyOp16
 70
     1
102
RTVSPropertyOp17
 70
     1
102
RTVSPropertyOp18
 70
     1
102
RTVSPropertyOp19
 70
     1
102
RTVSPropertyOp20
 70
     1
102
RTVSPropertyOp21
 70
     1
102
RTVSPropertyOp22
 70
     1
102
RTVSPropertyOp23
 70
     1
102
RTVSPropertyOp24
 70
     1
102
RTVSPropertyOp25
 70
     1
102
RTVSPropertyOp26
 70
     1
102
RTVSPropertyOp27
 70
     1
  0
XRECORD
  5
34A
102
{ACAD_REACTORS
330
349
102
}
330
349
100
AcDbXrecord
280
     1
102
RTVSPropertyOp0
 70
     1
102
RTVSPropertyOp1
 70
     1
102
RTVSPropertyOp2
 70
     1
102
RTVSPropertyOp3
 70
     1
102
RTVSPropertyOp4
 70
     1
102
RTVSPropertyOp5
 70
     1
102
RTVSPropertyOp6
 70
     1
102
RTVSPropertyOp7
 70
     1
102
RTVSPropertyOp8
 70
     1
102
RTVSPropertyOp9
 70
     1
102
RTVSPropertyOp10
 70
     1
102
RTVSPropertyOp11
 70
     1
102
RTVSPropertyOp12
 70
     1
102
RTVSPropertyOp13
 70
     1
102
RTVSPropertyOp14
 70
     1
102
RTVSPropertyOp15
 70
     1
102
RTVSPropertyOp16
 70
     1
102
RTVSPropertyOp17
 70
     1
102
RTVSPropertyOp18
 70
     1
102
RTVSPropertyOp19
 70
     1
102
RTVSPropertyOp20
 70
     1
102
RTVSPropertyOp21
 70
     1
102
RTVSPropertyOp22
 70
     1
102
RTVSPropertyOp23
 70
     1
102
RTVSPropertyOp24
 70
     1
102
RTVSPropertyOp25
 70
     1
102
RTVSPropertyOp26
 70
     1
102
RTVSPropertyOp27
 70
     1
  0
XRECORD
  5
352
102
{ACAD_REACTORS
330
351
102
}
330
351
100
AcDbXrecord
280
     1
102
RTVSPropertyOp0
 70
     1
102
RTVSPropertyOp1
 70
     1
102
RTVSPropertyOp2
 70
     1
102
RTVSPropertyOp3
 70
     1
102
RTVSPropertyOp4
 70
     1
102
RTVSPropertyOp5
 70
     1
102
RTVSPropertyOp6
 70
     1
102
RTVSPropertyOp7
 70
     1
102
RTVSPropertyOp8
 70
     1
102
RTVSPropertyOp9
 70
     1
102
RTVSPropertyOp10
 70
     1
102
RTVSPropertyOp11
 70
     1
102
RTVSPropertyOp12
 70
     1
102
RTVSPropertyOp13
 70
     1
102
RTVSPropertyOp14
 70
     1
102
RTVSPropertyOp15
 70
     1
102
RTVSPropertyOp16
 70
     1
102
RTVSPropertyOp17
 70
     1
102
RTVSPropertyOp18
 70
     1
102
RTVSPropertyOp19
 70
     1
102
RTVSPropertyOp20
 70
     1
102
RTVSPropertyOp21
 70
     1
102
RTVSPropertyOp22
 70
     1
102
RTVSPropertyOp23
 70
     1
102
RTVSPropertyOp24
 70
     1
102
RTVSPropertyOp25
 70
     1
102
RTVSPropertyOp26
 70
     1
102
RTVSPropertyOp27
 70
     1
  0
ENDSEC
  0
EOF
