  0
SECTION
  2
HEADER
  9
$ACADVER
  1
AC1015
  9
$ACADMAINTVER
 70
     6
  9
$DWGCODEPAGE
  3
ANSI_932
  9
$INSBASE
 10
0.0
 20
0.0
 30
0.0
  9
$EXTMIN
 10
-285.897812058843
 20
49.4224593252663
 30
0.0
  9
$EXTMAX
 10
-139.824715824792
 20
202.844692871224
 30
0.0
  9
$LIMMIN
 10
0.0
 20
0.0
  9
$LIMMAX
 10
12.0
 20
9.0
  9
$ORTHOMODE
 70
     0
  9
$REGENMODE
 70
     1
  9
$FILLMODE
 70
     1
  9
$QTEXTMODE
 70
     0
  9
$MIRRTEXT
 70
     1
  9
$LTSCALE
 40
1.0
  9
$ATTMODE
 70
     1
  9
$TEXTSIZE
 40
0.2
  9
$TRACEWID
 40
0.05
  9
$TEXTSTYLE
  7
Standard
  9
$CLAYER
  8
0
  9
$CELTYPE
  6
ByLayer
  9
$CECOLOR
 62
   256
  9
$CELTSCALE
 40
1.0
  9
$DISPSILH
 70
     0
  9
$DIMSCALE
 40
1.0
  9
$DIMASZ
 40
0.18
  9
$DIMEXO
 40
0.0625
  9
$DIMDLI
 40
0.38
  9
$DIMRND
 40
0.0
  9
$DIMDLE
 40
0.0
  9
$DIMEXE
 40
0.18
  9
$DIMTP
 40
0.0
  9
$DIMTM
 40
0.0
  9
$DIMTXT
 40
0.18
  9
$DIMCEN
 40
0.09
  9
$DIMTSZ
 40
0.0
  9
$DIMTOL
 70
     0
  9
$DIMLIM
 70
     0
  9
$DIMTIH
 70
     1
  9
$DIMTOH
 70
     1
  9
$DIMSE1
 70
     0
  9
$DIMSE2
 70
     0
  9
$DIMTAD
 70
     0
  9
$DIMZIN
 70
     0
  9
$DIMBLK
  1

  9
$DIMASO
 70
     1
  9
$DIMSHO
 70
     1
  9
$DIMPOST
  1

  9
$DIMAPOST
  1

  9
$DIMALT
 70
     0
  9
$DIMALTD
 70
     2
  9
$DIMALTF
 40
25.4
  9
$DIMLFAC
 40
1.0
  9
$DIMTOFL
 70
     0
  9
$DIMTVP
 40
0.0
  9
$DIMTIX
 70
     0
  9
$DIMSOXD
 70
     0
  9
$DIMSAH
 70
     0
  9
$DIMBLK1
  1

  9
$DIMBLK2
  1

  9
$DIMSTYLE
  2
Standard
  9
$DIMCLRD
 70
     0
  9
$DIMCLRE
 70
     0
  9
$DIMCLRT
 70
     0
  9
$DIMTFAC
 40
1.0
  9
$DIMGAP
 40
0.09
  9
$DIMJUST
 70
     0
  9
$DIMSD1
 70
     0
  9
$DIMSD2
 70
     0
  9
$DIMTOLJ
 70
     1
  9
$DIMTZIN
 70
     0
  9
$DIMALTZ
 70
     0
  9
$DIMALTTZ
 70
     0
  9
$DIMUPT
 70
     0
  9
$DIMDEC
 70
     4
  9
$DIMTDEC
 70
     4
  9
$DIMALTU
 70
     2
  9
$DIMALTTD
 70
     2
  9
$DIMTXSTY
  7
Standard
  9
$DIMAUNIT
 70
     0
  9
$DIMADEC
 70
     0
  9
$DIMALTRND
 40
0.0
  9
$DIMAZIN
 70
     0
  9
$DIMDSEP
 70
    46
  9
$DIMATFIT
 70
     3
  9
$DIMFRAC
 70
     0
  9
$DIMLDRBLK
  1

  9
$DIMLUNIT
 70
     2
  9
$DIMLWD
 70
    -2
  9
$DIMLWE
 70
    -2
  9
$DIMTMOVE
 70
     0
  9
$LUNITS
 70
     2
  9
$LUPREC
 70
     4
  9
$SKETCHINC
 40
0.1
  9
$FILLETRAD
 40
0.5
  9
$AUNITS
 70
     0
  9
$AUPREC
 70
     0
  9
$MENU
  1
.
  9
$ELEVATION
 40
0.0
  9
$PELEVATION
 40
0.0
  9
$THICKNESS
 40
0.0
  9
$LIMCHECK
 70
     0
  9
$CHAMFERA
 40
0.5
  9
$CHAMFERB
 40
0.5
  9
$CHAMFERC
 40
1.0
  9
$CHAMFERD
 40
0.0
  9
$SKPOLY
 70
     0
  9
$TDCREATE
 40
2458179.468005139
  9
$TDUCREATE
 40
2458179.093005139
  9
$TDUPDATE
 40
2458179.468005151
  9
$TDUUPDATE
 40
2458179.093005151
  9
$TDINDWG
 40
0.0000000116
  9
$TDUSRTIMER
 40
0.0000000116
  9
$USRTIMER
 70
     1
  9
$ANGBASE
 50
0.0
  9
$ANGDIR
 70
     0
  9
$PDMODE
 70
     0
  9
$PDSIZE
 40
0.0
  9
$PLINEWID
 40
0.0
  9
$SPLFRAME
 70
     0
  9
$SPLINETYPE
 70
     6
  9
$SPLINESEGS
 70
     8
  9
$HANDSEED
  5
2A4
  9
$SURFTAB1
 70
     6
  9
$SURFTAB2
 70
     6
  9
$SURFTYPE
 70
     6
  9
$SURFU
 70
     6
  9
$SURFV
 70
     6
  9
$UCSBASE
  2

  9
$UCSNAME
  2

  9
$UCSORG
 10
0.0
 20
0.0
 30
0.0
  9
$UCSXDIR
 10
1.0
 20
0.0
 30
0.0
  9
$UCSYDIR
 10
0.0
 20
1.0
 30
0.0
  9
$UCSORTHOREF
  2

  9
$UCSORTHOVIEW
 70
     0
  9
$UCSORGTOP
 10
0.0
 20
0.0
 30
0.0
  9
$UCSORGBOTTOM
 10
0.0
 20
0.0
 30
0.0
  9
$UCSORGLEFT
 10
0.0
 20
0.0
 30
0.0
  9
$UCSORGRIGHT
 10
0.0
 20
0.0
 30
0.0
  9
$UCSORGFRONT
 10
0.0
 20
0.0
 30
0.0
  9
$UCSORGBACK
 10
0.0
 20
0.0
 30
0.0
  9
$PUCSBASE
  2

  9
$PUCSNAME
  2

  9
$PUCSORG
 10
0.0
 20
0.0
 30
0.0
  9
$PUCSXDIR
 10
1.0
 20
0.0
 30
0.0
  9
$PUCSYDIR
 10
0.0
 20
1.0
 30
0.0
  9
$PUCSORTHOREF
  2

  9
$PUCSORTHOVIEW
 70
     0
  9
$PUCSORGTOP
 10
0.0
 20
0.0
 30
0.0
  9
$PUCSORGBOTTOM
 10
0.0
 20
0.0
 30
0.0
  9
$PUCSORGLEFT
 10
0.0
 20
0.0
 30
0.0
  9
$PUCSORGRIGHT
 10
0.0
 20
0.0
 30
0.0
  9
$PUCSORGFRONT
 10
0.0
 20
0.0
 30
0.0
  9
$PUCSORGBACK
 10
0.0
 20
0.0
 30
0.0
  9
$USERI1
 70
     0
  9
$USERI2
 70
     0
  9
$USERI3
 70
     0
  9
$USERI4
 70
     0
  9
$USERI5
 70
     0
  9
$USERR1
 40
18.0
  9
$USERR2
 40
0.0
  9
$USERR3
 40
0.0
  9
$USERR4
 40
0.0
  9
$USERR5
 40
0.0
  9
$WORLDVIEW
 70
     1
  9
$SHADEDGE
 70
     3
  9
$SHADEDIF
 70
    70
  9
$TILEMODE
 70
     1
  9
$MAXACTVP
 70
    64
  9
$PINSBASE
 10
0.0
 20
0.0
 30
0.0
  9
$PLIMCHECK
 70
     0
  9
$PEXTMIN
 10
1.00000000000000E+20
 20
1.00000000000000E+20
 30
1.00000000000000E+20
  9
$PEXTMAX
 10
-1.00000000000000E+20
 20
-1.00000000000000E+20
 30
-1.00000000000000E+20
  9
$PLIMMIN
 10
0.0
 20
0.0
  9
$PLIMMAX
 10
12.0
 20
9.0
  9
$UNITMODE
 70
     0
  9
$VISRETAIN
 70
     1
  9
$PLINEGEN
 70
     0
  9
$PSLTSCALE
 70
     1
  9
$TREEDEPTH
 70
  3020
  9
$CMLSTYLE
  2
Standard
  9
$CMLJUST
 70
     0
  9
$CMLSCALE
 40
1.0
  9
$PROXYGRAPHICS
 70
     1
  9
$MEASUREMENT
 70
     1
  9
$CELWEIGHT
370
    -1
  9
$ENDCAPS
280
     0
  9
$JOINSTYLE
280
     0
  9
$LWDISPLAY
290
     0
  9
$INSUNITS
 70
     1
  9
$HYPERLINKBASE
  1

  9
$STYLESHEET
  1

  9
$XEDIT
290
     1
  9
$CEPSNTYPE
380
     0
  9
$PSTYLEMODE
290
     1
  9
$FINGERPRINTGUID
  2
{E4CDCFD4-2F27-45DA-9B07-FECF1F9D3DF4}
  9
$VERSIONGUID
  2
{FAEB1C32-E019-11D5-929B-00C0DF256EC4}
  9
$EXTNAMES
290
     1
  9
$PSVPSCALE
 40
0.0
  9
$OLESTARTUP
290
     0
  0
ENDSEC
  0
SECTION
  2
CLASSES
  0
CLASS
  1
ACDBDICTIONARYWDFLT
  2
AcDbDictionaryWithDefault
  3
ObjectDBX Classes
 90
        0
280
     0
281
     0
  0
CLASS
  1
VISUALSTYLE
  2
AcDbVisualStyle
  3
ObjectDBX Classes
 90
     4095
280
     0
281
     0
  0
CLASS
  1
MATERIAL
  2
AcDbMaterial
  3
ObjectDBX Classes
 90
     1153
280
     0
281
     0
  0
CLASS
  1

  2
exOdDbCircle
  3

 90
        0
280
     0
281
     1
  0
CLASS
  1

  2
exOdDbSpline
  3

 90
        0
280
     0
281
     1
  0
CLASS
  1

  2
exOdDbPolyline
  3

 90
        0
280
     0
281
     1
  0
CLASS
  1
DICTIONARYVAR
  2
AcDbDictionaryVar
  3
ObjectDBX Classes
 90
        0
280
     0
281
     0
  0
CLASS
  1
ACDBPLACEHOLDER
  2
AcDbPlaceHolder
  3
ObjectDBX Classes
 90
        0
280
     0
281
     0
  0
CLASS
  1
LAYOUT
  2
AcDbLayout
  3
ObjectDBX Classes
 90
        0
280
     0
281
     0
  0
ENDSEC
  0
SECTION
  2
TABLES
  0
TABLE
  2
VPORT
  5
8
330
0
100
AcDbSymbolTable
 70
     1
  0
VPORT
  5
29
330
8
100
AcDbSymbolTableRecord
100
AcDbViewportTableRecord
  2
*Active
 70
     0
 10
0.0
 20
0.0
 11
1.0
 21
1.0
 12
-212.8612639418175
 22
126.1335760982452
 13
0.0
 23
0.0
 14
0.5
 24
0.5
 15
0.5
 25
0.5
 16
0.0
 26
0.0
 36
1.0
 17
0.0
 27
0.0
 37
0.0
 40
168.7644569005535
 41
1.60267857142857
 42
50.0
 43
0.0
 44
0.0
 50
0.0
 51
0.0
 71
     0
 72
   100
 73
     1
 74
     3
 75
     0
 76
     0
 77
     0
 78
     0
281
     0
 65
     1
110
0.0
120
0.0
130
0.0
111
1.0
121
0.0
131
0.0
112
0.0
122
1.0
132
0.0
 79
     0
146
0.0
  0
ENDTAB
  0
TABLE
  2
LTYPE
  5
5
330
0
100
AcDbSymbolTable
 70
     8
  0
LTYPE
  5
14
330
5
100
AcDbSymbolTableRecord
100
AcDbLinetypeTableRecord
  2
ByBlock
 70
     0
  3

 72
    65
 73
     0
 40
0.0
  0
LTYPE
  5
15
330
5
100
AcDbSymbolTableRecord
100
AcDbLinetypeTableRecord
  2
ByLayer
 70
     0
  3

 72
    65
 73
     0
 40
0.0
  0
LTYPE
  5
16
330
5
100
AcDbSymbolTableRecord
100
AcDbLinetypeTableRecord
  2
Continuous
 70
     0
  3
Solid line
 72
    65
 73
     0
 40
0.0
  0
LTYPE
  5
3F
330
5
100
AcDbSymbolTableRecord
100
AcDbLinetypeTableRecord
  2
DASHED
 70
     0
  3
Dashed
 72
    65
 73
     2
 40
15.0
 49
7.0
 74
     0
 49
-8.0
 74
     0
  0
LTYPE
  5
40
330
5
100
AcDbSymbolTableRecord
100
AcDbLinetypeTableRecord
  2
DOTTED
 70
     0
  3
Dotted
 72
    65
 73
     2
 40
1.0
 49
0.0
 74
     0
 49
-1.0
 74
     0
  0
LTYPE
  5
41
330
5
100
AcDbSymbolTableRecord
100
AcDbLinetypeTableRecord
  2
DOT_CENTER
 70
     0
  3
Dot_Center
 72
    65
 73
     4
 40
14.0
 49
12.0
 74
     0
 49
-1.0
 74
     0
 49
0.0
 74
     0
 49
-1.0
 74
     0
  0
LTYPE
  5
42
330
5
100
AcDbSymbolTableRecord
100
AcDbLinetypeTableRecord
  2
LONG_DASHED
 70
     0
  3
Long_Dashed
 72
    65
 73
     2
 40
15.0
 49
10.0
 74
     0
 49
-5.0
 74
     0
  0
LTYPE
  5
43
330
5
100
AcDbSymbolTableRecord
100
AcDbLinetypeTableRecord
  2
DASH_CENTER
 70
     0
  3
Dash_Center
 72
    65
 73
     4
 40
14.0
 49
11.0
 74
     0
 49
-1.0
 74
     0
 49
1.0
 74
     0
 49
-1.0
 74
     0
  0
LTYPE
  5
44
330
5
100
AcDbSymbolTableRecord
100
AcDbLinetypeTableRecord
  2
PHANTOM
 70
     0
  3
Phantom
 72
    65
 73
     6
 40
13.0
 49
10.0
 74
     0
 49
-1.0
 74
     0
 49
0.0
 74
     0
 49
-1.0
 74
     0
 49
0.0
 74
     0
 49
-1.0
 74
     0
  0
LTYPE
  5
45
330
5
100
AcDbSymbolTableRecord
100
AcDbLinetypeTableRecord
  2
CENTER_DASH_DASH
 70
     0
  3
Center_Dash_Dash
 72
    65
 73
     6
 40
14.0
 49
9.0
 74
     0
 49
-1.0
 74
     0
 49
1.0
 74
     0
 49
-1.0
 74
     0
 49
1.0
 74
     0
 49
-1.0
 74
     0
  0
ENDTAB
  0
TABLE
  2
LAYER
  5
2
330
0
100
AcDbSymbolTable
 70
     6
  0
LAYER
  5
10
330
2
100
AcDbSymbolTableRecord
100
AcDbLayerTableRecord
  2
0
 70
     0
 62
     7
  6
Continuous
370
    -3
390
F
  0
LAYER
  5
46
330
2
100
AcDbSymbolTableRecord
100
AcDbLayerTableRecord
  2
1
 70
     0
 62
     7
  6
Continuous
370
    -3
390
F
  0
LAYER
  5
47
330
2
100
AcDbSymbolTableRecord
100
AcDbLayerTableRecord
  2
100
 70
     0
 62
     7
  6
Continuous
370
    -3
390
F
  0
LAYER
  5
48
330
2
100
AcDbSymbolTableRecord
100
AcDbLayerTableRecord
  2
2
 70
     0
 62
     7
  6
Continuous
370
    -3
390
F
  0
LAYER
  5
49
330
2
100
AcDbSymbolTableRecord
100
AcDbLayerTableRecord
  2
3
 70
     0
 62
     7
  6
Continuous
370
    -3
390
F
  0
LAYER
  5
4A
330
2
100
AcDbSymbolTableRecord
100
AcDbLayerTableRecord
  2
4
 70
     0
 62
     7
  6
Continuous
370
    -3
390
F
  0
ENDTAB
  0
TABLE
  2
STYLE
  5
3
330
0
100
AcDbSymbolTable
 70
     1
  0
STYLE
  5
11
330
3
100
AcDbSymbolTableRecord
100
AcDbTextStyleTableRecord
  2
Standard
 70
     0
 40
0.0
 41
1.0
 50
0.0
 71
     0
 42
0.2
  3
txt
  4

  0
ENDTAB
  0
TABLE
  2
VIEW
  5
6
330
0
100
AcDbSymbolTable
 70
     0
  0
ENDTAB
  0
TABLE
  2
UCS
  5
7
330
0
100
AcDbSymbolTable
 70
     0
  0
ENDTAB
  0
TABLE
  2
APPID
  5
9
330
0
100
AcDbSymbolTable
 70
     1
  0
APPID
  5
12
330
9
100
AcDbSymbolTableRecord
100
AcDbRegAppTableRecord
  2
ACAD
 70
     0
  0
ENDTAB
  0
TABLE
  2
DIMSTYLE
  5
A
330
0
100
AcDbSymbolTable
 70
     1
100
AcDbDimStyleTable
  0
DIMSTYLE
105
27
330
A
100
AcDbSymbolTableRecord
100
AcDbDimStyleTableRecord
  2
Standard
 70
     0
340
11
  0
ENDTAB
  0
TABLE
  2
BLOCK_RECORD
  5
1
330
0
100
AcDbSymbolTable
 70
     1
  0
BLOCK_RECORD
  5
1F
330
1
100
AcDbSymbolTableRecord
100
AcDbBlockTableRecord
  2
*Model_Space
340
22
  0
BLOCK_RECORD
  5
1B
330
1
100
AcDbSymbolTableRecord
100
AcDbBlockTableRecord
  2
*Paper_Space
340
1E
  0
BLOCK_RECORD
  5
23
330
1
100
AcDbSymbolTableRecord
100
AcDbBlockTableRecord
  2
*Paper_Space0
340
26
  0
ENDTAB
  0
ENDSEC
  0
SECTION
  2
BLOCKS
  0
BLOCK
  5
20
330
1F
100
AcDbEntity
  8
0
100
AcDbBlockBegin
  2
*Model_Space
 70
     0
 10
0.0
 20
0.0
 30
0.0
  3
*Model_Space
  1

  0
ENDBLK
  5
21
330
1F
100
AcDbEntity
  8
0
100
AcDbBlockEnd
  0
BLOCK
  5
1C
330
1B
100
AcDbEntity
 67
     1
  8
0
100
AcDbBlockBegin
  2
*Paper_Space
 70
     0
 10
0.0
 20
0.0
 30
0.0
  3
*Paper_Space
  1

  0
ENDBLK
  5
1D
330
1B
100
AcDbEntity
 67
     1
  8
0
100
AcDbBlockEnd
  0
BLOCK
  5
24
330
23
100
AcDbEntity
  8
0
100
AcDbBlockBegin
  2
*Paper_Space0
 70
     0
 10
0.0
 20
0.0
 30
0.0
  3
*Paper_Space0
  1

  0
ENDBLK
  5
25
330
23
100
AcDbEntity
  8
0
100
AcDbBlockEnd
  0
ENDSEC
  0
SECTION
  2
ENTITIES
  0
POINT
  5
4B
330
1F
100
AcDbEntity
  8
1
 62
     3
 60
     1
100
AcDbPoint
 10
-388.498697369847
 20
162.344692871224
 30
0.0
  0
POINT
  5
4C
330
1F
100
AcDbEntity
  8
1
 62
     3
 60
     1
100
AcDbPoint
 10
-405.498697369847
 20
162.344692871224
 30
0.0
  0
LINE
  5
4D
330
1F
100
AcDbEntity
  8
1
  6
Continuous
 62
     4
100
AcDbLine
 10
-142.173818401782
 20
52.25626888537452
 30
0.0
 11
-140.0561713429585
 21
52.25626888537452
 31
0.0
  0
LINE
  5
4E
330
1F
100
AcDbEntity
  8
1
  6
Continuous
 62
     4
100
AcDbLine
 10
-140.5855831076644
 20
54.55626888537452
 30
0.0
 11
-142.173818401782
 21
52.25626888537452
 31
0.0
  0
LINE
  5
4F
330
1F
100
AcDbEntity
  8
1
  6
Continuous
 62
     4
100
AcDbLine
 10
-140.5855831076644
 20
51.55626888537452
 30
0.0
 11
-140.5855831076644
 21
54.55626888537452
 31
0.0
  0
LINE
  5
50
330
1F
100
AcDbEntity
  8
1
  6
Continuous
 62
     4
100
AcDbLine
 10
-143.0561713429585
 20
54.25626888537452
 30
0.0
 11
-144.9091125194291
 21
52.05626888537452
 31
0.0
  0
LINE
  5
51
330
1F
100
AcDbEntity
  8
1
  6
Continuous
 62
     4
100
AcDbLine
 10
-147.5561713429585
 20
51.85626888537452
 30
0.0
 11
-147.7326419311938
 21
52.05626888537452
 31
0.0
  0
LINE
  5
52
330
1F
100
AcDbEntity
  8
1
  6
Continuous
 62
     4
100
AcDbLine
 10
-147.2032301664879
 20
51.65626888537452
 30
0.0
 11
-147.5561713429585
 21
51.85626888537452
 31
0.0
  0
LINE
  5
53
330
1F
100
AcDbEntity
  8
1
  6
Continuous
 62
     4
100
AcDbLine
 10
-146.7620536958997
 20
51.55626888537452
 30
0.0
 11
-147.2032301664879
 21
51.65626888537452
 31
0.0
  0
LINE
  5
54
330
1F
100
AcDbEntity
  8
1
  6
Continuous
 62
     4
100
AcDbLine
 10
-146.2326419311938
 20
51.65626888537452
 30
0.0
 11
-146.7620536958997
 21
51.55626888537452
 31
0.0
  0
LINE
  5
55
330
1F
100
AcDbEntity
  8
1
  6
Continuous
 62
     4
100
AcDbLine
 10
-145.9679360488409
 20
51.85626888537452
 30
0.0
 11
-146.2326419311938
 21
51.65626888537452
 31
0.0
  0
LINE
  5
56
330
1F
100
AcDbEntity
  8
1
  6
Continuous
 62
     4
100
AcDbLine
 10
-145.7914654606056
 20
52.35626888537452
 30
0.0
 11
-145.9679360488409
 21
51.85626888537452
 31
0.0
  0
LINE
  5
57
330
1F
100
AcDbEntity
  8
1
  6
Continuous
 62
     4
100
AcDbLine
 10
-145.9679360488409
 20
52.85626888537452
 30
0.0
 11
-145.7914654606056
 21
52.35626888537452
 31
0.0
  0
LINE
  5
58
330
1F
100
AcDbEntity
  8
1
  6
Continuous
 62
     4
100
AcDbLine
 10
-146.4091125194291
 20
53.15626888537452
 30
0.0
 11
-145.9679360488409
 21
52.85626888537452
 31
0.0
  0
LINE
  5
59
330
1F
100
AcDbEntity
  8
1
  6
Continuous
 62
     4
100
AcDbLine
 10
-146.8502889900173
 20
53.15626888537452
 30
0.0
 11
-146.4091125194291
 21
53.15626888537452
 31
0.0
  0
LINE
  5
5A
330
1F
100
AcDbEntity
  8
1
  6
Continuous
 62
     4
100
AcDbLine
 10
-146.4091125194291
 20
53.15626888537452
 30
0.0
 11
-146.8502889900173
 21
53.15626888537452
 31
0.0
  0
LINE
  5
5B
330
1F
100
AcDbEntity
  8
1
  6
Continuous
 62
     4
100
AcDbLine
 10
-146.0561713429585
 20
53.35626888537452
 30
0.0
 11
-146.4091125194291
 21
53.15626888537452
 31
0.0
  0
LINE
  5
5C
330
1F
100
AcDbEntity
  8
1
  6
Continuous
 62
     4
100
AcDbLine
 10
-145.8797007547232
 20
53.75626888537452
 30
0.0
 11
-146.0561713429585
 21
53.35626888537452
 31
0.0
  0
LINE
  5
5D
330
1F
100
AcDbEntity
  8
1
  6
Continuous
 62
     4
100
AcDbLine
 10
-145.9679360488409
 20
54.05626888537452
 30
0.0
 11
-145.8797007547232
 21
53.75626888537452
 31
0.0
  0
LINE
  5
5E
330
1F
100
AcDbEntity
  8
1
  6
Continuous
 62
     4
100
AcDbLine
 10
-146.2326419311938
 20
54.45626888537452
 30
0.0
 11
-145.9679360488409
 21
54.05626888537452
 31
0.0
  0
LINE
  5
5F
330
1F
100
AcDbEntity
  8
1
  6
Continuous
 62
     4
100
AcDbLine
 10
-146.7620536958997
 20
54.55626888537452
 30
0.0
 11
-146.2326419311938
 21
54.45626888537452
 31
0.0
  0
LINE
  5
60
330
1F
100
AcDbEntity
  8
1
  6
Continuous
 62
     4
100
AcDbLine
 10
-147.2914654606056
 20
54.45626888537452
 30
0.0
 11
-146.7620536958997
 21
54.55626888537452
 31
0.0
  0
LINE
  5
61
330
1F
100
AcDbEntity
  8
1
  6
Continuous
 62
     4
100
AcDbLine
 10
-147.6444066370761
 20
54.05626888537452
 30
0.0
 11
-147.2914654606056
 21
54.45626888537452
 31
0.0
  0
LINE
  5
62
330
1F
100
AcDbEntity
  8
1
  6
Continuous
 62
     4
100
AcDbLine
 10
-148.7914654606056
 20
51.85626888537452
 30
0.0
 11
-148.6149948723703
 21
52.15626888537452
 31
0.0
  0
LINE
  5
63
330
1F
100
AcDbEntity
  8
1
  6
Continuous
 62
     4
100
AcDbLine
 10
-149.0561713429585
 20
51.65626888537452
 30
0.0
 11
-148.7914654606056
 21
51.85626888537452
 31
0.0
  0
LINE
  5
64
330
1F
100
AcDbEntity
  8
1
  6
Continuous
 62
     4
100
AcDbLine
 10
-149.4091125194291
 20
51.55626888537452
 30
0.0
 11
-149.0561713429585
 21
51.65626888537452
 31
0.0
  0
LINE
  5
65
330
1F
100
AcDbEntity
  8
1
  6
Continuous
 62
     4
100
AcDbLine
 10
-149.673818401782
 20
51.55626888537452
 30
0.0
 11
-149.4091125194291
 21
51.55626888537452
 31
0.0
  0
LINE
  5
66
330
1F
100
AcDbEntity
  8
1
  6
Continuous
 62
     4
100
AcDbLine
 10
-149.8502889900173
 20
51.65626888537452
 30
0.0
 11
-149.673818401782
 21
51.55626888537452
 31
0.0
  0
LINE
  5
67
330
1F
100
AcDbEntity
  8
1
  6
Continuous
 62
     4
100
AcDbLine
 10
-149.938524284135
 20
51.85626888537452
 30
0.0
 11
-149.8502889900173
 21
51.65626888537452
 31
0.0
  0
LINE
  5
68
330
1F
100
AcDbEntity
  8
1
  6
Continuous
 62
     4
100
AcDbLine
 10
-150.0267595782526
 20
52.15626888537452
 30
0.0
 11
-149.938524284135
 21
51.85626888537452
 31
0.0
  0
LINE
  5
69
330
1F
100
AcDbEntity
  8
1
  6
Continuous
 62
     4
100
AcDbLine
 10
-150.1149948723703
 20
52.55626888537452
 30
0.0
 11
-150.0267595782526
 21
52.15626888537452
 31
0.0
  0
LINE
  5
6A
330
1F
100
AcDbEntity
  8
1
  6
Continuous
 62
     4
100
AcDbLine
 10
-150.0267595782526
 20
53.05626888537452
 30
0.0
 11
-150.1149948723703
 21
52.55626888537452
 31
0.0
  0
LINE
  5
6B
330
1F
100
AcDbEntity
  8
1
  6
Continuous
 62
     4
100
AcDbLine
 10
-149.938524284135
 20
53.35626888537452
 30
0.0
 11
-150.0267595782526
 21
53.05626888537452
 31
0.0
  0
LINE
  5
6C
330
1F
100
AcDbEntity
  8
1
  6
Continuous
 62
     4
100
AcDbLine
 10
-149.7620536958997
 20
53.65626888537452
 30
0.0
 11
-149.938524284135
 21
53.35626888537452
 31
0.0
  0
LINE
  5
6D
330
1F
100
AcDbEntity
  8
1
  6
Continuous
 62
     4
100
AcDbLine
 10
-149.4091125194291
 20
53.75626888537452
 30
0.0
 11
-149.7620536958997
 21
53.65626888537452
 31
0.0
  0
LINE
  5
6E
330
1F
100
AcDbEntity
  8
1
  6
Continuous
 62
     4
100
AcDbLine
 10
-149.0561713429585
 20
53.65626888537452
 30
0.0
 11
-149.4091125194291
 21
53.75626888537452
 31
0.0
  0
LINE
  5
6F
330
1F
100
AcDbEntity
  8
1
  6
Continuous
 62
     4
100
AcDbLine
 10
-148.7914654606056
 20
53.45626888537452
 30
0.0
 11
-149.0561713429585
 21
53.65626888537452
 31
0.0
  0
LINE
  5
70
330
1F
100
AcDbEntity
  8
1
  6
Continuous
 62
     4
100
AcDbLine
 10
-148.6149948723703
 20
53.25626888537452
 30
0.0
 11
-148.7914654606056
 21
53.45626888537452
 31
0.0
  0
LINE
  5
71
330
1F
100
AcDbEntity
  8
1
  6
Continuous
 62
     4
100
AcDbLine
 10
-152.8502889900173
 20
52.95626888537452
 30
0.0
 11
-152.8502889900173
 21
54.55626888537452
 31
0.0
  0
LINE
  5
72
330
1F
100
AcDbEntity
  8
1
  6
Continuous
 62
     4
100
AcDbLine
 10
-151.7032301664879
 20
52.95626888537452
 30
0.0
 11
-150.9973478135467
 21
51.55626888537452
 31
0.0
  0
LINE
  5
73
330
1F
100
AcDbEntity
  8
1
  6
Continuous
 62
     4
100
AcDbLine
 10
-151.7032301664879
 20
52.95626888537452
 30
0.0
 11
-152.8502889900173
 21
52.95626888537452
 31
0.0
  0
LINE
  5
74
330
1F
100
AcDbEntity
  8
1
  6
Continuous
 62
     4
100
AcDbLine
 10
-151.3502889900173
 20
53.15626888537452
 30
0.0
 11
-151.7032301664879
 21
52.95626888537452
 31
0.0
  0
LINE
  5
75
330
1F
100
AcDbEntity
  8
1
  6
Continuous
 62
     4
100
AcDbLine
 10
-151.173818401782
 20
53.35626888537452
 30
0.0
 11
-151.3502889900173
 21
53.15626888537452
 31
0.0
  0
LINE
  5
76
330
1F
100
AcDbEntity
  8
1
  6
Continuous
 62
     4
100
AcDbLine
 10
-151.0855831076644
 20
53.75626888537452
 30
0.0
 11
-151.173818401782
 21
53.35626888537452
 31
0.0
  0
LINE
  5
77
330
1F
100
AcDbEntity
  8
1
  6
Continuous
 62
     4
100
AcDbLine
 10
-151.173818401782
 20
54.05626888537452
 30
0.0
 11
-151.0855831076644
 21
53.75626888537452
 31
0.0
  0
LINE
  5
78
330
1F
100
AcDbEntity
  8
1
  6
Continuous
 62
     4
100
AcDbLine
 10
-151.3502889900173
 20
54.35626888537452
 30
0.0
 11
-151.173818401782
 21
54.05626888537452
 31
0.0
  0
LINE
  5
79
330
1F
100
AcDbEntity
  8
1
  6
Continuous
 62
     4
100
AcDbLine
 10
-151.7032301664879
 20
54.55626888537452
 30
0.0
 11
-151.3502889900173
 21
54.35626888537452
 31
0.0
  0
LINE
  5
7A
330
1F
100
AcDbEntity
  8
1
  6
Continuous
 62
     4
100
AcDbLine
 10
-152.8502889900173
 20
54.55626888537452
 30
0.0
 11
-151.7032301664879
 21
54.55626888537452
 31
0.0
  0
LINE
  5
7B
330
1F
100
AcDbEntity
  8
1
  6
Continuous
 62
     4
100
AcDbLine
 10
-152.8502889900173
 20
51.55626888537452
 30
0.0
 11
-152.8502889900173
 21
52.95626888537452
 31
0.0
  0
LINE
  5
7C
330
1F
100
AcDbEntity
  8
1
  6
Continuous
 62
     4
100
AcDbLine
 10
-149.615301772843
 20
149.642331744191
 30
0.0
 11
-147.4976547140195
 21
149.642331744191
 31
0.0
  0
LINE
  5
7D
330
1F
100
AcDbEntity
  8
1
  6
Continuous
 62
     4
100
AcDbLine
 10
-148.0270664787254
 20
151.942331744191
 30
0.0
 11
-149.615301772843
 21
149.642331744191
 31
0.0
  0
LINE
  5
7E
330
1F
100
AcDbEntity
  8
1
  6
Continuous
 62
     4
100
AcDbLine
 10
-148.0270664787254
 20
148.942331744191
 30
0.0
 11
-148.0270664787254
 21
151.942331744191
 31
0.0
  0
LINE
  5
7F
330
1F
100
AcDbEntity
  8
1
  6
Continuous
 62
     4
100
AcDbLine
 10
-150.4976547140195
 20
151.642331744191
 30
0.0
 11
-152.3505958904901
 21
149.442331744191
 31
0.0
  0
LINE
  5
80
330
1F
100
AcDbEntity
  8
1
  6
Continuous
 62
     4
100
AcDbLine
 10
-154.9976547140195
 20
149.242331744191
 30
0.0
 11
-155.1741253022548
 21
149.442331744191
 31
0.0
  0
LINE
  5
81
330
1F
100
AcDbEntity
  8
1
  6
Continuous
 62
     4
100
AcDbLine
 10
-154.6447135375489
 20
149.042331744191
 30
0.0
 11
-154.9976547140195
 21
149.242331744191
 31
0.0
  0
LINE
  5
82
330
1F
100
AcDbEntity
  8
1
  6
Continuous
 62
     4
100
AcDbLine
 10
-154.2035370669607
 20
148.942331744191
 30
0.0
 11
-154.6447135375489
 21
149.042331744191
 31
0.0
  0
LINE
  5
83
330
1F
100
AcDbEntity
  8
1
  6
Continuous
 62
     4
100
AcDbLine
 10
-153.6741253022548
 20
149.042331744191
 30
0.0
 11
-154.2035370669607
 21
148.942331744191
 31
0.0
  0
LINE
  5
84
330
1F
100
AcDbEntity
  8
1
  6
Continuous
 62
     4
100
AcDbLine
 10
-153.4094194199019
 20
149.242331744191
 30
0.0
 11
-153.6741253022548
 21
149.042331744191
 31
0.0
  0
LINE
  5
85
330
1F
100
AcDbEntity
  8
1
  6
Continuous
 62
     4
100
AcDbLine
 10
-153.2329488316666
 20
149.742331744191
 30
0.0
 11
-153.4094194199019
 21
149.242331744191
 31
0.0
  0
LINE
  5
86
330
1F
100
AcDbEntity
  8
1
  6
Continuous
 62
     4
100
AcDbLine
 10
-153.4094194199019
 20
150.242331744191
 30
0.0
 11
-153.2329488316666
 21
149.742331744191
 31
0.0
  0
LINE
  5
87
330
1F
100
AcDbEntity
  8
1
  6
Continuous
 62
     4
100
AcDbLine
 10
-153.8505958904901
 20
150.542331744191
 30
0.0
 11
-153.4094194199019
 21
150.242331744191
 31
0.0
  0
LINE
  5
88
330
1F
100
AcDbEntity
  8
1
  6
Continuous
 62
     4
100
AcDbLine
 10
-154.2917723610783
 20
150.542331744191
 30
0.0
 11
-153.8505958904901
 21
150.542331744191
 31
0.0
  0
LINE
  5
89
330
1F
100
AcDbEntity
  8
1
  6
Continuous
 62
     4
100
AcDbLine
 10
-153.8505958904901
 20
150.542331744191
 30
0.0
 11
-154.2917723610783
 21
150.542331744191
 31
0.0
  0
LINE
  5
8A
330
1F
100
AcDbEntity
  8
1
  6
Continuous
 62
     4
100
AcDbLine
 10
-153.4976547140195
 20
150.742331744191
 30
0.0
 11
-153.8505958904901
 21
150.542331744191
 31
0.0
  0
LINE
  5
8B
330
1F
100
AcDbEntity
  8
1
  6
Continuous
 62
     4
100
AcDbLine
 10
-153.3211841257842
 20
151.142331744191
 30
0.0
 11
-153.4976547140195
 21
150.742331744191
 31
0.0
  0
LINE
  5
8C
330
1F
100
AcDbEntity
  8
1
  6
Continuous
 62
     4
100
AcDbLine
 10
-153.4094194199019
 20
151.442331744191
 30
0.0
 11
-153.3211841257842
 21
151.142331744191
 31
0.0
  0
LINE
  5
8D
330
1F
100
AcDbEntity
  8
1
  6
Continuous
 62
     4
100
AcDbLine
 10
-153.6741253022548
 20
151.842331744191
 30
0.0
 11
-153.4094194199019
 21
151.442331744191
 31
0.0
  0
LINE
  5
8E
330
1F
100
AcDbEntity
  8
1
  6
Continuous
 62
     4
100
AcDbLine
 10
-154.2035370669607
 20
151.942331744191
 30
0.0
 11
-153.6741253022548
 21
151.842331744191
 31
0.0
  0
LINE
  5
8F
330
1F
100
AcDbEntity
  8
1
  6
Continuous
 62
     4
100
AcDbLine
 10
-154.7329488316666
 20
151.842331744191
 30
0.0
 11
-154.2035370669607
 21
151.942331744191
 31
0.0
  0
LINE
  5
90
330
1F
100
AcDbEntity
  8
1
  6
Continuous
 62
     4
100
AcDbLine
 10
-155.0858900081371
 20
151.442331744191
 30
0.0
 11
-154.7329488316666
 21
151.842331744191
 31
0.0
  0
LINE
  5
91
330
1F
100
AcDbEntity
  8
1
  6
Continuous
 62
     4
100
AcDbLine
 10
-156.0564782434313
 20
150.342331744191
 30
0.0
 11
-156.8505958904901
 21
150.342331744191
 31
0.0
  0
LINE
  5
92
330
1F
100
AcDbEntity
  8
1
  6
Continuous
 62
     4
100
AcDbLine
 10
-156.0564782434313
 20
149.742331744191
 30
0.0
 11
-156.0564782434313
 21
150.342331744191
 31
0.0
  0
LINE
  5
93
330
1F
100
AcDbEntity
  8
1
  6
Continuous
 62
     4
100
AcDbLine
 10
-156.1447135375489
 20
149.442331744191
 30
0.0
 11
-156.0564782434313
 21
149.742331744191
 31
0.0
  0
LINE
  5
94
330
1F
100
AcDbEntity
  8
1
  6
Continuous
 62
     4
100
AcDbLine
 10
-156.3211841257842
 20
149.242331744191
 30
0.0
 11
-156.1447135375489
 21
149.442331744191
 31
0.0
  0
LINE
  5
95
330
1F
100
AcDbEntity
  8
1
  6
Continuous
 62
     4
100
AcDbLine
 10
-156.5858900081371
 20
149.042331744191
 30
0.0
 11
-156.3211841257842
 21
149.242331744191
 31
0.0
  0
LINE
  5
96
330
1F
100
AcDbEntity
  8
1
  6
Continuous
 62
     4
100
AcDbLine
 10
-157.0270664787254
 20
148.942331744191
 30
0.0
 11
-156.5858900081371
 21
149.042331744191
 31
0.0
  0
LINE
  5
97
330
1F
100
AcDbEntity
  8
1
  6
Continuous
 62
     4
100
AcDbLine
 10
-157.4682429493136
 20
149.042331744191
 30
0.0
 11
-157.0270664787254
 21
148.942331744191
 31
0.0
  0
LINE
  5
98
330
1F
100
AcDbEntity
  8
1
  6
Continuous
 62
     4
100
AcDbLine
 10
-157.7329488316666
 20
149.442331744191
 30
0.0
 11
-157.4682429493136
 21
149.042331744191
 31
0.0
  0
LINE
  5
99
330
1F
100
AcDbEntity
  8
1
  6
Continuous
 62
     4
100
AcDbLine
 10
-157.8211841257842
 20
149.642331744191
 30
0.0
 11
-157.7329488316666
 21
149.442331744191
 31
0.0
  0
LINE
  5
9A
330
1F
100
AcDbEntity
  8
1
  6
Continuous
 62
     4
100
AcDbLine
 10
-157.9094194199018
 20
150.042331744191
 30
0.0
 11
-157.8211841257842
 21
149.642331744191
 31
0.0
  0
LINE
  5
9B
330
1F
100
AcDbEntity
  8
1
  6
Continuous
 62
     4
100
AcDbLine
 10
-157.9976547140195
 20
150.442331744191
 30
0.0
 11
-157.9094194199018
 21
150.042331744191
 31
0.0
  0
LINE
  5
9C
330
1F
100
AcDbEntity
  8
1
  6
Continuous
 62
     4
100
AcDbLine
 10
-157.9094194199018
 20
150.842331744191
 30
0.0
 11
-157.9976547140195
 21
150.442331744191
 31
0.0
  0
LINE
  5
9D
330
1F
100
AcDbEntity
  8
1
  6
Continuous
 62
     4
100
AcDbLine
 10
-157.7329488316666
 20
151.442331744191
 30
0.0
 11
-157.9094194199018
 21
150.842331744191
 31
0.0
  0
LINE
  5
9E
330
1F
100
AcDbEntity
  8
1
  6
Continuous
 62
     4
100
AcDbLine
 10
-157.6447135375489
 20
151.642331744191
 30
0.0
 11
-157.7329488316666
 21
151.442331744191
 31
0.0
  0
LINE
  5
9F
330
1F
100
AcDbEntity
  8
1
  6
Continuous
 62
     4
100
AcDbLine
 10
-157.380007655196
 20
151.842331744191
 30
0.0
 11
-157.6447135375489
 21
151.642331744191
 31
0.0
  0
LINE
  5
A0
330
1F
100
AcDbEntity
  8
1
  6
Continuous
 62
     4
100
AcDbLine
 10
-157.0270664787254
 20
151.942331744191
 30
0.0
 11
-157.380007655196
 21
151.842331744191
 31
0.0
  0
LINE
  5
A1
330
1F
100
AcDbEntity
  8
1
  6
Continuous
 62
     4
100
AcDbLine
 10
-156.5858900081371
 20
151.842331744191
 30
0.0
 11
-157.0270664787254
 21
151.942331744191
 31
0.0
  0
LINE
  5
A2
330
1F
100
AcDbEntity
  8
1
  6
Continuous
 62
     4
100
AcDbLine
 10
-156.4094194199018
 20
151.742331744191
 30
0.0
 11
-156.5858900081371
 21
151.842331744191
 31
0.0
  0
LINE
  5
A3
330
1F
100
AcDbEntity
  8
1
  6
Continuous
 62
     4
100
AcDbLine
 10
-156.2329488316666
 20
151.542331744191
 30
0.0
 11
-156.4094194199018
 21
151.742331744191
 31
0.0
  0
LINE
  5
A4
330
1F
100
AcDbEntity
  8
1
  6
Continuous
 62
     4
100
AcDbLine
 10
-156.0564782434313
 20
151.242331744191
 30
0.0
 11
-156.2329488316666
 21
151.542331744191
 31
0.0
  0
LINE
  5
A5
330
1F
100
AcDbEntity
  8
1
  6
Continuous
 62
     4
100
AcDbLine
 10
-202.0496025692257
 20
52.2224593252663
 30
0.0
 11
-202.5790143339316
 21
52.4224593252663
 31
0.0
  0
LINE
  5
A6
330
1F
100
AcDbEntity
  8
1
  6
Continuous
 62
     4
100
AcDbLine
 10
-201.6966613927552
 20
51.7224593252663
 30
0.0
 11
-202.0496025692257
 21
52.2224593252663
 31
0.0
  0
LINE
  5
A7
330
1F
100
AcDbEntity
  8
1
  6
Continuous
 62
     4
100
AcDbLine
 10
-201.6084260986375
 20
50.9224593252663
 30
0.0
 11
-201.6966613927552
 21
51.7224593252663
 31
0.0
  0
LINE
  5
A8
330
1F
100
AcDbEntity
  8
1
  6
Continuous
 62
     4
100
AcDbLine
 10
-201.6966613927552
 20
50.12245932526631
 30
0.0
 11
-201.6084260986375
 21
50.9224593252663
 31
0.0
  0
LINE
  5
A9
330
1F
100
AcDbEntity
  8
1
  6
Continuous
 62
     4
100
AcDbLine
 10
-202.0496025692257
 20
49.62245932526631
 30
0.0
 11
-201.6966613927552
 21
50.12245932526631
 31
0.0
  0
LINE
  5
AA
330
1F
100
AcDbEntity
  8
1
  6
Continuous
 62
     4
100
AcDbLine
 10
-202.5790143339316
 20
49.4224593252663
 30
0.0
 11
-202.0496025692257
 21
49.62245932526631
 31
0.0
  0
LINE
  5
AB
330
1F
100
AcDbEntity
  8
1
  6
Continuous
 62
     4
100
AcDbLine
 10
-203.1084260986375
 20
49.62245932526631
 30
0.0
 11
-202.5790143339316
 21
49.4224593252663
 31
0.0
  0
LINE
  5
AC
330
1F
100
AcDbEntity
  8
1
  6
Continuous
 62
     4
100
AcDbLine
 10
-203.3731319809904
 20
50.12245932526631
 30
0.0
 11
-203.1084260986375
 21
49.62245932526631
 31
0.0
  0
LINE
  5
AD
330
1F
100
AcDbEntity
  8
1
  6
Continuous
 62
     4
100
AcDbLine
 10
-203.5496025692257
 20
50.9224593252663
 30
0.0
 11
-203.3731319809904
 21
50.12245932526631
 31
0.0
  0
LINE
  5
AE
330
1F
100
AcDbEntity
  8
1
  6
Continuous
 62
     4
100
AcDbLine
 10
-203.3731319809904
 20
51.7224593252663
 30
0.0
 11
-203.5496025692257
 21
50.9224593252663
 31
0.0
  0
LINE
  5
AF
330
1F
100
AcDbEntity
  8
1
  6
Continuous
 62
     4
100
AcDbLine
 10
-203.1084260986375
 20
52.2224593252663
 30
0.0
 11
-203.3731319809904
 21
51.7224593252663
 31
0.0
  0
LINE
  5
B0
330
1F
100
AcDbEntity
  8
1
  6
Continuous
 62
     4
100
AcDbLine
 10
-202.5790143339316
 20
52.4224593252663
 30
0.0
 11
-203.1084260986375
 21
52.2224593252663
 31
0.0
  0
LINE
  5
B1
330
1F
100
AcDbEntity
  8
1
  6
Continuous
 62
     4
100
AcDbLine
 10
-206.0201908045198
 20
50.9224593252663
 30
0.0
 11
-204.4319555104022
 21
50.9224593252663
 31
0.0
  0
LINE
  5
B2
330
1F
100
AcDbEntity
  8
1
  6
Continuous
 62
     4
100
AcDbLine
 10
-206.9025437456963
 20
52.4224593252663
 30
0.0
 11
-206.9025437456963
 21
49.4224593252663
 31
0.0
  0
LINE
  5
B3
330
1F
100
AcDbEntity
  8
1
  6
Continuous
 62
     4
100
AcDbLine
 10
-207.3437202162846
 20
52.12245932526631
 30
0.0
 11
-206.9025437456963
 21
52.4224593252663
 31
0.0
  0
LINE
  5
B4
330
1F
100
AcDbEntity
  8
1
  6
Continuous
 62
     4
100
AcDbLine
 10
-208.6672496280493
 20
52.2224593252663
 30
0.0
 11
-209.1966613927552
 21
52.4224593252663
 31
0.0
  0
LINE
  5
B5
330
1F
100
AcDbEntity
  8
1
  6
Continuous
 62
     4
100
AcDbLine
 10
-208.3143084515787
 20
51.7224593252663
 30
0.0
 11
-208.6672496280493
 21
52.2224593252663
 31
0.0
  0
LINE
  5
B6
330
1F
100
AcDbEntity
  8
1
  6
Continuous
 62
     4
100
AcDbLine
 10
-208.226073157461
 20
50.9224593252663
 30
0.0
 11
-208.3143084515787
 21
51.7224593252663
 31
0.0
  0
LINE
  5
B7
330
1F
100
AcDbEntity
  8
1
  6
Continuous
 62
     4
100
AcDbLine
 10
-208.3143084515787
 20
50.12245932526631
 30
0.0
 11
-208.226073157461
 21
50.9224593252663
 31
0.0
  0
LINE
  5
B8
330
1F
100
AcDbEntity
  8
1
  6
Continuous
 62
     4
100
AcDbLine
 10
-208.6672496280493
 20
49.62245932526631
 30
0.0
 11
-208.3143084515787
 21
50.12245932526631
 31
0.0
  0
LINE
  5
B9
330
1F
100
AcDbEntity
  8
1
  6
Continuous
 62
     4
100
AcDbLine
 10
-209.1966613927552
 20
49.4224593252663
 30
0.0
 11
-208.6672496280493
 21
49.62245932526631
 31
0.0
  0
LINE
  5
BA
330
1F
100
AcDbEntity
  8
1
  6
Continuous
 62
     4
100
AcDbLine
 10
-209.726073157461
 20
49.62245932526631
 30
0.0
 11
-209.1966613927552
 21
49.4224593252663
 31
0.0
  0
LINE
  5
BB
330
1F
100
AcDbEntity
  8
1
  6
Continuous
 62
     4
100
AcDbLine
 10
-209.990779039814
 20
50.12245932526631
 30
0.0
 11
-209.726073157461
 21
49.62245932526631
 31
0.0
  0
LINE
  5
BC
330
1F
100
AcDbEntity
  8
1
  6
Continuous
 62
     4
100
AcDbLine
 10
-210.1672496280493
 20
50.9224593252663
 30
0.0
 11
-209.990779039814
 21
50.12245932526631
 31
0.0
  0
LINE
  5
BD
330
1F
100
AcDbEntity
  8
1
  6
Continuous
 62
     4
100
AcDbLine
 10
-209.990779039814
 20
51.7224593252663
 30
0.0
 11
-210.1672496280493
 21
50.9224593252663
 31
0.0
  0
LINE
  5
BE
330
1F
100
AcDbEntity
  8
1
  6
Continuous
 62
     4
100
AcDbLine
 10
-209.726073157461
 20
52.2224593252663
 30
0.0
 11
-209.990779039814
 21
51.7224593252663
 31
0.0
  0
LINE
  5
BF
330
1F
100
AcDbEntity
  8
1
  6
Continuous
 62
     4
100
AcDbLine
 10
-209.1966613927552
 20
52.4224593252663
 30
0.0
 11
-209.726073157461
 21
52.2224593252663
 31
0.0
  0
LINE
  5
C0
330
1F
100
AcDbEntity
  8
1
  6
Continuous
 62
     4
100
AcDbLine
 10
-212.726073157461
 20
50.9224593252663
 30
0.0
 11
-212.726073157461
 21
49.4224593252663
 31
0.0
  0
LINE
  5
C1
330
1F
100
AcDbEntity
  8
1
  6
Continuous
 62
     4
100
AcDbLine
 10
-212.726073157461
 20
50.9224593252663
 30
0.0
 11
-211.226073157461
 21
50.9224593252663
 31
0.0
  0
LINE
  5
C2
330
1F
100
AcDbEntity
  8
1
  6
Continuous
 62
     4
100
AcDbLine
 10
-212.726073157461
 20
52.4224593252663
 30
0.0
 11
-212.726073157461
 21
50.9224593252663
 31
0.0
  0
LINE
  5
C3
330
1F
100
AcDbEntity
  8
1
  6
Continuous
 62
     4
100
AcDbLine
 10
-211.0496025692257
 20
52.4224593252663
 30
0.0
 11
-212.726073157461
 21
52.4224593252663
 31
0.0
  0
LINE
  5
C4
330
1F
100
AcDbEntity
  8
1
  6
Continuous
 62
     4
100
AcDbLine
 10
-213.6084260986375
 20
50.0224593252663
 30
0.0
 11
-213.6084260986375
 21
52.3224593252663
 31
0.0
  0
LINE
  5
C5
330
1F
100
AcDbEntity
  8
1
  6
Continuous
 62
     4
100
AcDbLine
 10
-213.7848966868728
 20
49.7224593252663
 30
0.0
 11
-213.6084260986375
 21
50.0224593252663
 31
0.0
  0
LINE
  5
C6
330
1F
100
AcDbEntity
  8
1
  6
Continuous
 62
     4
100
AcDbLine
 10
-214.0496025692257
 20
49.5224593252663
 30
0.0
 11
-213.7848966868728
 21
49.7224593252663
 31
0.0
  0
LINE
  5
C7
330
1F
100
AcDbEntity
  8
1
  6
Continuous
 62
     4
100
AcDbLine
 10
-214.490779039814
 20
49.4224593252663
 30
0.0
 11
-214.0496025692257
 21
49.5224593252663
 31
0.0
  0
LINE
  5
C8
330
1F
100
AcDbEntity
  8
1
  6
Continuous
 62
     4
100
AcDbLine
 10
-214.8437202162846
 20
49.5224593252663
 30
0.0
 11
-214.490779039814
 21
49.4224593252663
 31
0.0
  0
LINE
  5
C9
330
1F
100
AcDbEntity
  8
1
  6
Continuous
 62
     4
100
AcDbLine
 10
-215.1966613927552
 20
49.7224593252663
 30
0.0
 11
-214.8437202162846
 21
49.5224593252663
 31
0.0
  0
LINE
  5
CA
330
1F
100
AcDbEntity
  8
1
  6
Continuous
 62
     4
100
AcDbLine
 10
-215.2848966868728
 20
50.0224593252663
 30
0.0
 11
-215.1966613927552
 21
49.7224593252663
 31
0.0
  0
LINE
  5
CB
330
1F
100
AcDbEntity
  8
1
  6
Continuous
 62
     4
100
AcDbLine
 10
-215.2848966868728
 20
52.3224593252663
 30
0.0
 11
-215.2848966868728
 21
50.0224593252663
 31
0.0
  0
LINE
  5
CC
330
1F
100
AcDbEntity
  8
1
  6
Continuous
 62
     4
100
AcDbLine
 10
-217.6672496280493
 20
49.62245932526631
 30
0.0
 11
-217.9319555104022
 21
49.8224593252663
 31
0.0
  0
LINE
  5
CD
330
1F
100
AcDbEntity
  8
1
  6
Continuous
 62
     4
100
AcDbLine
 10
-217.3143084515787
 20
49.4224593252663
 30
0.0
 11
-217.6672496280493
 21
49.62245932526631
 31
0.0
  0
LINE
  5
CE
330
1F
100
AcDbEntity
  8
1
  6
Continuous
 62
     4
100
AcDbLine
 10
-216.9613672751081
 20
49.4224593252663
 30
0.0
 11
-217.3143084515787
 21
49.4224593252663
 31
0.0
  0
LINE
  5
CF
330
1F
100
AcDbEntity
  8
1
  6
Continuous
 62
     4
100
AcDbLine
 10
-216.6966613927551
 20
49.4224593252663
 30
0.0
 11
-216.9613672751081
 21
49.4224593252663
 31
0.0
  0
LINE
  5
D0
330
1F
100
AcDbEntity
  8
1
  6
Continuous
 62
     4
100
AcDbLine
 10
-216.4319555104022
 20
49.62245932526631
 30
0.0
 11
-216.6966613927551
 21
49.4224593252663
 31
0.0
  0
LINE
  5
D1
330
1F
100
AcDbEntity
  8
1
  6
Continuous
 62
     4
100
AcDbLine
 10
-216.2554849221669
 20
49.8224593252663
 30
0.0
 11
-216.4319555104022
 21
49.62245932526631
 31
0.0
  0
LINE
  5
D2
330
1F
100
AcDbEntity
  8
1
  6
Continuous
 62
     4
100
AcDbLine
 10
-216.1672496280493
 20
50.3224593252663
 30
0.0
 11
-216.2554849221669
 21
49.8224593252663
 31
0.0
  0
LINE
  5
D3
330
1F
100
AcDbEntity
  8
1
  6
Continuous
 62
     4
100
AcDbLine
 10
-216.2554849221669
 20
50.8224593252663
 30
0.0
 11
-216.1672496280493
 21
50.3224593252663
 31
0.0
  0
LINE
  5
D4
330
1F
100
AcDbEntity
  8
1
  6
Continuous
 62
     4
100
AcDbLine
 10
-216.4319555104022
 20
51.0224593252663
 30
0.0
 11
-216.2554849221669
 21
50.8224593252663
 31
0.0
  0
LINE
  5
D5
330
1F
100
AcDbEntity
  8
1
  6
Continuous
 62
     4
100
AcDbLine
 10
-216.6966613927551
 20
51.2224593252663
 30
0.0
 11
-216.4319555104022
 21
51.0224593252663
 31
0.0
  0
LINE
  5
D6
330
1F
100
AcDbEntity
  8
1
  6
Continuous
 62
     4
100
AcDbLine
 10
-217.0496025692257
 20
51.3224593252663
 30
0.0
 11
-216.6966613927551
 21
51.2224593252663
 31
0.0
  0
LINE
  5
D7
330
1F
100
AcDbEntity
  8
1
  6
Continuous
 62
     4
100
AcDbLine
 10
-217.4025437456963
 20
51.2224593252663
 30
0.0
 11
-217.0496025692257
 21
51.3224593252663
 31
0.0
  0
LINE
  5
D8
330
1F
100
AcDbEntity
  8
1
  6
Continuous
 62
     4
100
AcDbLine
 10
-217.8437202162845
 20
50.9224593252663
 30
0.0
 11
-217.4025437456963
 21
51.2224593252663
 31
0.0
  0
LINE
  5
D9
330
1F
100
AcDbEntity
  8
1
  6
Continuous
 62
     4
100
AcDbLine
 10
-217.7554849221669
 20
52.4224593252663
 30
0.0
 11
-217.8437202162845
 21
50.9224593252663
 31
0.0
  0
LINE
  5
DA
330
1F
100
AcDbEntity
  8
1
  6
Continuous
 62
     4
100
AcDbLine
 10
-216.2554849221669
 20
52.4224593252663
 30
0.0
 11
-217.7554849221669
 21
52.4224593252663
 31
0.0
  0
LINE
  5
DB
330
1F
100
AcDbEntity
  8
1
  6
Continuous
 62
     4
100
AcDbLine
 10
-218.8143084515787
 20
52.4224593252663
 30
0.0
 11
-218.8143084515787
 21
49.4224593252663
 31
0.0
  0
LINE
  5
DC
330
1F
100
AcDbEntity
  8
1
  6
Continuous
 62
     4
100
AcDbLine
 10
-219.2554849221669
 20
52.12245932526631
 30
0.0
 11
-218.8143084515787
 21
52.4224593252663
 31
0.0
  0
LINE
  5
DD
330
1F
100
AcDbEntity
  8
1
  6
Continuous
 62
     4
100
AcDbLine
 10
-220.5790143339316
 20
52.2224593252663
 30
0.0
 11
-221.1084260986375
 21
52.4224593252663
 31
0.0
  0
LINE
  5
DE
330
1F
100
AcDbEntity
  8
1
  6
Continuous
 62
     4
100
AcDbLine
 10
-220.226073157461
 20
51.7224593252663
 30
0.0
 11
-220.5790143339316
 21
52.2224593252663
 31
0.0
  0
LINE
  5
DF
330
1F
100
AcDbEntity
  8
1
  6
Continuous
 62
     4
100
AcDbLine
 10
-220.1378378633434
 20
50.9224593252663
 30
0.0
 11
-220.226073157461
 21
51.7224593252663
 31
0.0
  0
LINE
  5
E0
330
1F
100
AcDbEntity
  8
1
  6
Continuous
 62
     4
100
AcDbLine
 10
-220.226073157461
 20
50.12245932526631
 30
0.0
 11
-220.1378378633434
 21
50.9224593252663
 31
0.0
  0
LINE
  5
E1
330
1F
100
AcDbEntity
  8
1
  6
Continuous
 62
     4
100
AcDbLine
 10
-220.5790143339316
 20
49.62245932526631
 30
0.0
 11
-220.226073157461
 21
50.12245932526631
 31
0.0
  0
LINE
  5
E2
330
1F
100
AcDbEntity
  8
1
  6
Continuous
 62
     4
100
AcDbLine
 10
-221.1084260986375
 20
49.4224593252663
 30
0.0
 11
-220.5790143339316
 21
49.62245932526631
 31
0.0
  0
LINE
  5
E3
330
1F
100
AcDbEntity
  8
1
  6
Continuous
 62
     4
100
AcDbLine
 10
-221.6378378633434
 20
49.62245932526631
 30
0.0
 11
-221.1084260986375
 21
49.4224593252663
 31
0.0
  0
LINE
  5
E4
330
1F
100
AcDbEntity
  8
1
  6
Continuous
 62
     4
100
AcDbLine
 10
-221.9025437456963
 20
50.12245932526631
 30
0.0
 11
-221.6378378633434
 21
49.62245932526631
 31
0.0
  0
LINE
  5
E5
330
1F
100
AcDbEntity
  8
1
  6
Continuous
 62
     4
100
AcDbLine
 10
-222.0790143339316
 20
50.9224593252663
 30
0.0
 11
-221.9025437456963
 21
50.12245932526631
 31
0.0
  0
LINE
  5
E6
330
1F
100
AcDbEntity
  8
1
  6
Continuous
 62
     4
100
AcDbLine
 10
-221.9025437456963
 20
51.7224593252663
 30
0.0
 11
-222.0790143339316
 21
50.9224593252663
 31
0.0
  0
LINE
  5
E7
330
1F
100
AcDbEntity
  8
1
  6
Continuous
 62
     4
100
AcDbLine
 10
-221.6378378633434
 20
52.2224593252663
 30
0.0
 11
-221.9025437456963
 21
51.7224593252663
 31
0.0
  0
LINE
  5
E8
330
1F
100
AcDbEntity
  8
1
  6
Continuous
 62
     4
100
AcDbLine
 10
-221.1084260986375
 20
52.4224593252663
 30
0.0
 11
-221.6378378633434
 21
52.2224593252663
 31
0.0
  0
LINE
  5
E9
330
1F
100
AcDbEntity
  8
1
  6
Continuous
 62
     4
100
AcDbLine
 10
-223.4025437456963
 20
52.2224593252663
 30
0.0
 11
-223.9319555104022
 21
52.4224593252663
 31
0.0
  0
LINE
  5
EA
330
1F
100
AcDbEntity
  8
1
  6
Continuous
 62
     4
100
AcDbLine
 10
-223.0496025692258
 20
51.7224593252663
 30
0.0
 11
-223.4025437456963
 21
52.2224593252663
 31
0.0
  0
LINE
  5
EB
330
1F
100
AcDbEntity
  8
1
  6
Continuous
 62
     4
100
AcDbLine
 10
-222.9613672751081
 20
50.9224593252663
 30
0.0
 11
-223.0496025692258
 21
51.7224593252663
 31
0.0
  0
LINE
  5
EC
330
1F
100
AcDbEntity
  8
1
  6
Continuous
 62
     4
100
AcDbLine
 10
-223.0496025692258
 20
50.12245932526631
 30
0.0
 11
-222.9613672751081
 21
50.9224593252663
 31
0.0
  0
LINE
  5
ED
330
1F
100
AcDbEntity
  8
1
  6
Continuous
 62
     4
100
AcDbLine
 10
-223.4025437456963
 20
49.62245932526631
 30
0.0
 11
-223.0496025692258
 21
50.12245932526631
 31
0.0
  0
LINE
  5
EE
330
1F
100
AcDbEntity
  8
1
  6
Continuous
 62
     4
100
AcDbLine
 10
-223.9319555104022
 20
49.4224593252663
 30
0.0
 11
-223.4025437456963
 21
49.62245932526631
 31
0.0
  0
LINE
  5
EF
330
1F
100
AcDbEntity
  8
1
  6
Continuous
 62
     4
100
AcDbLine
 10
-224.4613672751081
 20
49.62245932526631
 30
0.0
 11
-223.9319555104022
 21
49.4224593252663
 31
0.0
  0
LINE
  5
F0
330
1F
100
AcDbEntity
  8
1
  6
Continuous
 62
     4
100
AcDbLine
 10
-224.726073157461
 20
50.12245932526631
 30
0.0
 11
-224.4613672751081
 21
49.62245932526631
 31
0.0
  0
LINE
  5
F1
330
1F
100
AcDbEntity
  8
1
  6
Continuous
 62
     4
100
AcDbLine
 10
-224.9025437456963
 20
50.9224593252663
 30
0.0
 11
-224.726073157461
 21
50.12245932526631
 31
0.0
  0
LINE
  5
F2
330
1F
100
AcDbEntity
  8
1
  6
Continuous
 62
     4
100
AcDbLine
 10
-224.726073157461
 20
51.7224593252663
 30
0.0
 11
-224.9025437456963
 21
50.9224593252663
 31
0.0
  0
LINE
  5
F3
330
1F
100
AcDbEntity
  8
1
  6
Continuous
 62
     4
100
AcDbLine
 10
-224.4613672751081
 20
52.2224593252663
 30
0.0
 11
-224.726073157461
 21
51.7224593252663
 31
0.0
  0
LINE
  5
F4
330
1F
100
AcDbEntity
  8
1
  6
Continuous
 62
     4
100
AcDbLine
 10
-223.9319555104022
 20
52.4224593252663
 30
0.0
 11
-224.4613672751081
 21
52.2224593252663
 31
0.0
  0
LINE
  5
F5
330
1F
100
AcDbEntity
  8
1
  6
Continuous
 62
     4
100
AcDbLine
 10
-228.6084260986375
 20
49.4224593252663
 30
0.0
 11
-225.7848966868728
 21
49.4224593252663
 31
0.0
  0
LINE
  5
F6
330
1F
100
AcDbEntity
  8
1
  6
Continuous
 62
     4
100
AcDbLine
 10
-229.9319555104022
 20
52.2224593252663
 30
0.0
 11
-230.4613672751081
 21
52.4224593252663
 31
0.0
  0
LINE
  5
F7
330
1F
100
AcDbEntity
  8
1
  6
Continuous
 62
     4
100
AcDbLine
 10
-229.5790143339316
 20
51.7224593252663
 30
0.0
 11
-229.9319555104022
 21
52.2224593252663
 31
0.0
  0
LINE
  5
F8
330
1F
100
AcDbEntity
  8
1
  6
Continuous
 62
     4
100
AcDbLine
 10
-229.490779039814
 20
50.9224593252663
 30
0.0
 11
-229.5790143339316
 21
51.7224593252663
 31
0.0
  0
LINE
  5
F9
330
1F
100
AcDbEntity
  8
1
  6
Continuous
 62
     4
100
AcDbLine
 10
-229.5790143339316
 20
50.12245932526631
 30
0.0
 11
-229.490779039814
 21
50.9224593252663
 31
0.0
  0
LINE
  5
FA
330
1F
100
AcDbEntity
  8
1
  6
Continuous
 62
     4
100
AcDbLine
 10
-229.9319555104022
 20
49.62245932526631
 30
0.0
 11
-229.5790143339316
 21
50.12245932526631
 31
0.0
  0
LINE
  5
FB
330
1F
100
AcDbEntity
  8
1
  6
Continuous
 62
     4
100
AcDbLine
 10
-230.4613672751081
 20
49.4224593252663
 30
0.0
 11
-229.9319555104022
 21
49.62245932526631
 31
0.0
  0
LINE
  5
FC
330
1F
100
AcDbEntity
  8
1
  6
Continuous
 62
     4
100
AcDbLine
 10
-230.990779039814
 20
49.62245932526631
 30
0.0
 11
-230.4613672751081
 21
49.4224593252663
 31
0.0
  0
LINE
  5
FD
330
1F
100
AcDbEntity
  8
1
  6
Continuous
 62
     4
100
AcDbLine
 10
-231.2554849221669
 20
50.12245932526631
 30
0.0
 11
-230.990779039814
 21
49.62245932526631
 31
0.0
  0
LINE
  5
FE
330
1F
100
AcDbEntity
  8
1
  6
Continuous
 62
     4
100
AcDbLine
 10
-231.4319555104022
 20
50.9224593252663
 30
0.0
 11
-231.2554849221669
 21
50.12245932526631
 31
0.0
  0
LINE
  5
FF
330
1F
100
AcDbEntity
  8
1
  6
Continuous
 62
     4
100
AcDbLine
 10
-231.2554849221669
 20
51.7224593252663
 30
0.0
 11
-231.4319555104022
 21
50.9224593252663
 31
0.0
  0
LINE
  5
100
330
1F
100
AcDbEntity
  8
1
  6
Continuous
 62
     4
100
AcDbLine
 10
-230.990779039814
 20
52.2224593252663
 30
0.0
 11
-231.2554849221669
 21
51.7224593252663
 31
0.0
  0
LINE
  5
101
330
1F
100
AcDbEntity
  8
1
  6
Continuous
 62
     4
100
AcDbLine
 10
-230.4613672751081
 20
52.4224593252663
 30
0.0
 11
-230.990779039814
 21
52.2224593252663
 31
0.0
  0
LINE
  5
102
330
1F
100
AcDbEntity
  8
1
  6
Continuous
 62
     4
100
AcDbLine
 10
-234.2554849221669
 20
49.4224593252663
 30
0.0
 11
-232.3143084515787
 21
49.4224593252663
 31
0.0
  0
LINE
  5
103
330
1F
100
AcDbEntity
  8
1
  6
Continuous
 62
     4
100
AcDbLine
 10
-234.0790143339316
 20
49.9224593252663
 30
0.0
 11
-234.2554849221669
 21
49.4224593252663
 31
0.0
  0
LINE
  5
104
330
1F
100
AcDbEntity
  8
1
  6
Continuous
 62
     4
100
AcDbLine
 10
-233.9025437456963
 20
50.2224593252663
 30
0.0
 11
-234.0790143339316
 21
49.9224593252663
 31
0.0
  0
LINE
  5
105
330
1F
100
AcDbEntity
  8
1
  6
Continuous
 62
     4
100
AcDbLine
 10
-233.5496025692257
 20
50.5224593252663
 30
0.0
 11
-233.9025437456963
 21
50.2224593252663
 31
0.0
  0
LINE
  5
106
330
1F
100
AcDbEntity
  8
1
  6
Continuous
 62
     4
100
AcDbLine
 10
-233.1966613927552
 20
50.7224593252663
 30
0.0
 11
-233.5496025692257
 21
50.5224593252663
 31
0.0
  0
LINE
  5
107
330
1F
100
AcDbEntity
  8
1
  6
Continuous
 62
     4
100
AcDbLine
 10
-232.7554849221669
 20
51.0224593252663
 30
0.0
 11
-233.1966613927552
 21
50.7224593252663
 31
0.0
  0
LINE
  5
108
330
1F
100
AcDbEntity
  8
1
  6
Continuous
 62
     4
100
AcDbLine
 10
-232.490779039814
 20
51.4224593252663
 30
0.0
 11
-232.7554849221669
 21
51.0224593252663
 31
0.0
  0
LINE
  5
109
330
1F
100
AcDbEntity
  8
1
  6
Continuous
 62
     4
100
AcDbLine
 10
-232.4025437456963
 20
51.8224593252663
 30
0.0
 11
-232.490779039814
 21
51.4224593252663
 31
0.0
  0
LINE
  5
10A
330
1F
100
AcDbEntity
  8
1
  6
Continuous
 62
     4
100
AcDbLine
 10
-232.7554849221669
 20
52.2224593252663
 30
0.0
 11
-232.4025437456963
 21
51.8224593252663
 31
0.0
  0
LINE
  5
10B
330
1F
100
AcDbEntity
  8
1
  6
Continuous
 62
     4
100
AcDbLine
 10
-233.2848966868728
 20
52.4224593252663
 30
0.0
 11
-232.7554849221669
 21
52.2224593252663
 31
0.0
  0
LINE
  5
10C
330
1F
100
AcDbEntity
  8
1
  6
Continuous
 62
     4
100
AcDbLine
 10
-233.8143084515787
 20
52.2224593252663
 30
0.0
 11
-233.2848966868728
 21
52.4224593252663
 31
0.0
  0
LINE
  5
10D
330
1F
100
AcDbEntity
  8
1
  6
Continuous
 62
     4
100
AcDbLine
 10
-234.1672496280493
 20
51.8224593252663
 30
0.0
 11
-233.8143084515787
 21
52.2224593252663
 31
0.0
  0
LINE
  5
10E
330
1F
100
AcDbEntity
  8
1
  6
Continuous
 62
     4
100
AcDbLine
 10
-237.9613672751081
 20
49.4224593252663
 30
0.0
 11
-235.1378378633434
 21
49.4224593252663
 31
0.0
  0
LINE
  5
10F
330
1F
100
AcDbEntity
  8
1
  6
Continuous
 62
     4
100
AcDbLine
 10
-238.8437202162846
 20
50.0224593252663
 30
0.0
 11
-238.8437202162846
 21
52.3224593252663
 31
0.0
  0
LINE
  5
110
330
1F
100
AcDbEntity
  8
1
  6
Continuous
 62
     4
100
AcDbLine
 10
-239.0201908045199
 20
49.7224593252663
 30
0.0
 11
-238.8437202162846
 21
50.0224593252663
 31
0.0
  0
LINE
  5
111
330
1F
100
AcDbEntity
  8
1
  6
Continuous
 62
     4
100
AcDbLine
 10
-239.2848966868728
 20
49.5224593252663
 30
0.0
 11
-239.0201908045199
 21
49.7224593252663
 31
0.0
  0
LINE
  5
112
330
1F
100
AcDbEntity
  8
1
  6
Continuous
 62
     4
100
AcDbLine
 10
-239.7260731574611
 20
49.4224593252663
 30
0.0
 11
-239.2848966868728
 21
49.5224593252663
 31
0.0
  0
LINE
  5
113
330
1F
100
AcDbEntity
  8
1
  6
Continuous
 62
     4
100
AcDbLine
 10
-240.0790143339316
 20
49.5224593252663
 30
0.0
 11
-239.7260731574611
 21
49.4224593252663
 31
0.0
  0
LINE
  5
114
330
1F
100
AcDbEntity
  8
1
  6
Continuous
 62
     4
100
AcDbLine
 10
-240.4319555104022
 20
49.7224593252663
 30
0.0
 11
-240.0790143339316
 21
49.5224593252663
 31
0.0
  0
LINE
  5
115
330
1F
100
AcDbEntity
  8
1
  6
Continuous
 62
     4
100
AcDbLine
 10
-240.5201908045199
 20
50.0224593252663
 30
0.0
 11
-240.4319555104022
 21
49.7224593252663
 31
0.0
  0
LINE
  5
116
330
1F
100
AcDbEntity
  8
1
  6
Continuous
 62
     4
100
AcDbLine
 10
-240.5201908045199
 20
52.3224593252663
 30
0.0
 11
-240.5201908045199
 21
50.0224593252663
 31
0.0
  0
LINE
  5
117
330
1F
100
AcDbEntity
  8
1
  6
Continuous
 62
     4
100
AcDbLine
 10
-242.3731319809905
 20
52.3224593252663
 30
0.0
 11
-241.4025437456963
 21
52.3224593252663
 31
0.0
  0
LINE
  5
118
330
1F
100
AcDbEntity
  8
1
  6
Continuous
 62
     4
100
AcDbLine
 10
-242.3731319809905
 20
52.3224593252663
 30
0.0
 11
-242.3731319809905
 21
49.4224593252663
 31
0.0
  0
LINE
  5
119
330
1F
100
AcDbEntity
  8
1
  6
Continuous
 62
     4
100
AcDbLine
 10
-243.3437202162846
 20
52.3224593252663
 30
0.0
 11
-242.3731319809905
 21
52.3224593252663
 31
0.0
  0
LINE
  5
11A
330
1F
100
AcDbEntity
  8
1
  6
Continuous
 62
     4
100
AcDbLine
 10
-245.8143084515787
 20
50.9224593252663
 30
0.0
 11
-244.226073157461
 21
50.9224593252663
 31
0.0
  0
LINE
  5
11B
330
1F
100
AcDbEntity
  8
1
  6
Continuous
 62
     4
100
AcDbLine
 10
-247.6672496280493
 20
49.4224593252663
 30
0.0
 11
-246.6966613927552
 21
52.4224593252663
 31
0.0
  0
LINE
  5
11C
330
1F
100
AcDbEntity
  8
1
  6
Continuous
 62
     4
100
AcDbLine
 10
-248.6378378633434
 20
52.4224593252663
 30
0.0
 11
-247.6672496280493
 21
49.4224593252663
 31
0.0
  0
LINE
  5
11D
330
1F
100
AcDbEntity
  8
1
  6
DOTTED
 62
     4
100
AcDbLine
 10
-174.2843956831815
 20
128.00000519802
 30
0.0
 11
-175.2843956831814
 21
128.00000519802
 31
0.0
  0
LINE
  5
11E
330
1F
100
AcDbEntity
  8
0
  6
DOTTED
 62
     4
100
AcDbLine
 10
-152.9843956831814
 20
128.00000519802
 30
0.0
 11
-151.9843956831814
 21
128.00000519802
 31
0.0
  0
LINE
  5
11F
330
1F
100
AcDbEntity
  8
3
  6
Continuous
 62
     3
100
AcDbLine
 10
-181.5322540280598
 20
140.615601037126
 30
0.0
 11
-181.5322540280598
 21
125.384409358914
 31
0.0
  0
LINE
  5
120
330
1F
100
AcDbEntity
  8
1
  6
Continuous
 62
     3
100
AcDbLine
 10
-269.8171978403946
 20
140.615601037126
 30
0.0
 11
-269.8171978403946
 21
125.384409358914
 31
0.0
  0
LINE
  5
121
330
1F
100
AcDbEntity
  8
1
  6
Continuous
 62
     3
100
AcDbLine
 10
-254.3171978403946
 20
142.00000519802
 30
0.0
 11
-254.3171978403946
 21
124.00000519802
 31
0.0
  0
LINE
  5
122
330
1F
100
AcDbEntity
  8
1
  6
Continuous
 62
     3
100
AcDbLine
 10
-254.3171978403946
 20
124.00000519802
 30
0.0
 11
-285.3171978403946
 21
124.00000519802
 31
0.0
  0
LINE
  5
123
330
1F
100
AcDbEntity
  8
1
  6
Continuous
 62
     3
100
AcDbLine
 10
-285.3171978403946
 20
124.00000519802
 30
0.0
 11
-285.3171978403946
 21
142.00000519802
 31
0.0
  0
LINE
  5
124
330
1F
100
AcDbEntity
  8
1
  6
Continuous
 62
     3
100
AcDbLine
 10
-285.3171978403946
 20
142.00000519802
 30
0.0
 11
-254.3171978403946
 21
142.00000519802
 31
0.0
  0
LINE
  5
125
330
1F
100
AcDbEntity
  8
1
  6
DOT_CENTER
 62
     1
100
AcDbLine
 10
-226.6343956831815
 20
184.344692871224
 30
0.0
 11
-142.2724357231655
 21
184.344692871224
 31
0.0
  0
LINE
  5
126
330
1F
100
AcDbEntity
  8
1
  6
DOT_CENTER
 62
     1
100
AcDbLine
 10
-163.6343956831814
 20
202.844692871224
 30
0.0
 11
-163.6343956831814
 21
165.844692871224
 31
0.0
  0
LINE
  5
127
330
1F
100
AcDbEntity
  8
1
  6
Continuous
 62
     3
100
AcDbLine
 10
-191.6343956831814
 20
170.814097256297
 30
0.0
 11
-191.6343956831814
 21
172.844692871224
 31
0.0
  0
LINE
  5
128
330
1F
100
AcDbEntity
  8
1
  6
Continuous
 62
     3
100
AcDbLine
 10
-191.6343956831814
 20
172.844692871224
 30
0.0
 11
-191.6343956831814
 21
184.344692871224
 31
0.0
  0
LINE
  5
129
330
1F
100
AcDbEntity
  8
1
  6
Continuous
 62
     3
100
AcDbLine
 10
-191.6343956831814
 20
184.344692871224
 30
0.0
 11
-191.6343956831814
 21
195.844692871224
 31
0.0
  0
LINE
  5
12A
330
1F
100
AcDbEntity
  8
1
  6
Continuous
 62
     3
100
AcDbLine
 10
-191.6343956831814
 20
195.844692871224
 30
0.0
 11
-191.6343956831814
 21
197.875288486152
 31
0.0
  0
LINE
  5
12B
330
1F
100
AcDbEntity
  8
1
  6
Continuous
 62
     3
100
AcDbLine
 10
-191.1682658047536
 20
197.944692871225
 30
0.0
 11
-173.6802903670806
 21
197.944692871225
 31
0.0
  0
LINE
  5
12C
330
1F
100
AcDbEntity
  8
1
  6
Continuous
 62
     3
100
AcDbLine
 10
-191.1682658047535
 20
170.744692871224
 30
0.0
 11
-173.6802903670808
 21
170.744692871224
 31
0.0
  0
LINE
  5
12D
330
1F
100
AcDbEntity
  8
1
  6
Continuous
 62
     3
100
AcDbLine
 10
-172.8719999902154
 20
200.344692871224
 30
0.0
 11
-174.2576406362706
 21
197.944692871225
 31
0.0
  0
LINE
  5
12E
330
1F
100
AcDbEntity
  8
1
  6
Continuous
 62
     3
100
AcDbLine
 10
-174.2576406362707
 20
170.744692871224
 30
0.0
 11
-172.8719999902154
 21
168.344692871224
 31
0.0
  0
LINE
  5
12F
330
1F
100
AcDbEntity
  8
1
  6
Continuous
 62
     3
100
AcDbLine
 10
-172.8719999902154
 20
168.344692871224
 30
0.0
 11
-154.3967913761473
 21
168.344692871224
 31
0.0
  0
LINE
  5
130
330
1F
100
AcDbEntity
  8
1
  6
Continuous
 62
     3
100
AcDbLine
 10
-154.3967913761473
 20
168.344692871224
 30
0.0
 11
-145.1591870691133
 21
184.344692871224
 31
0.0
  0
LINE
  5
131
330
1F
100
AcDbEntity
  8
1
  6
Continuous
 62
     3
100
AcDbLine
 10
-145.1591870691133
 20
184.344692871224
 30
0.0
 11
-154.3967913761473
 21
200.344692871224
 31
0.0
  0
LINE
  5
132
330
1F
100
AcDbEntity
  8
1
  6
Continuous
 62
     3
100
AcDbLine
 10
-154.3967913761473
 20
200.344692871224
 30
0.0
 11
-172.8719999902154
 21
200.344692871224
 31
0.0
  0
LINE
  5
133
330
1F
100
AcDbEntity
  8
0
  6
Continuous
 62
     3
100
AcDbLine
 10
-220.1343956831815
 20
174.140506135401
 30
0.0
 11
-219.4363651599473
 21
173.442475612167
 31
0.0
  0
LINE
  5
134
330
1F
100
AcDbEntity
  8
0
  6
Continuous
 62
     3
100
AcDbLine
 10
-213.8343956831815
 20
173.719508782044
 30
0.0
 11
-219.4773917187279
 21
173.853588269576
 31
0.0
  0
LINE
  5
135
330
1F
100
AcDbEntity
  8
1
  6
Continuous
 62
     3
100
AcDbLine
 10
-210.1343956831815
 20
193.344692871224
 30
0.0
 11
-213.6343956831815
 21
193.344692871224
 31
0.0
  0
LINE
  5
136
330
1F
100
AcDbEntity
  8
1
  6
Continuous
 62
     3
100
AcDbLine
 10
-210.1343956831815
 20
175.344692871224
 30
0.0
 11
-213.6343956831815
 21
175.344692871224
 31
0.0
  0
LINE
  5
137
330
1F
100
AcDbEntity
  8
1
  6
Continuous
 62
     3
100
AcDbLine
 10
-210.6343956831815
 20
195.844692871224
 30
0.0
 11
-213.1343956831815
 21
195.844692871224
 31
0.0
  0
LINE
  5
138
330
1F
100
AcDbEntity
  8
1
  6
Continuous
 62
     3
100
AcDbLine
 10
-210.6343956831815
 20
172.844692871224
 30
0.0
 11
-213.1343956831815
 21
172.844692871224
 31
0.0
  0
LINE
  5
139
330
1F
100
AcDbEntity
  8
1
  6
Continuous
 62
     3
100
AcDbLine
 10
-213.6343956831815
 20
195.344692871224
 30
0.0
 11
-213.6343956831815
 21
193.344692871224
 31
0.0
  0
LINE
  5
13A
330
1F
100
AcDbEntity
  8
1
  6
Continuous
 62
     3
100
AcDbLine
 10
-213.6343956831815
 20
193.344692871224
 30
0.0
 11
-213.6343956831815
 21
173.344692871224
 31
0.0
  0
LINE
  5
13B
330
1F
100
AcDbEntity
  8
0
  6
Continuous
 62
     3
100
AcDbLine
 10
-223.6343956831815
 20
177.640506135401
 30
0.0
 11
-223.6343956831815
 21
184.344692871224
 31
0.0
  0
LINE
  5
13C
330
1F
100
AcDbEntity
  8
0
  6
Continuous
 62
     3
100
AcDbLine
 10
-213.8343956831564
 20
174.182018013587
 30
0.0
 11
-219.4773917187282
 21
174.310261084537
 31
0.0
  0
LINE
  5
13D
330
1F
100
AcDbEntity
  8
0
  6
Continuous
 62
     3
100
AcDbLine
 10
-213.8343956831815
 20
173.344692871224
 30
0.0
 11
-219.4363651599473
 21
173.442475612167
 31
0.0
  0
LINE
  5
13E
330
1F
100
AcDbEntity
  8
0
  6
Continuous
 62
     3
100
AcDbLine
 10
-213.8343956831815
 20
173.344692871224
 30
0.0
 11
-213.6343956831815
 21
173.544692871224
 31
0.0
  0
LINE
  5
13F
330
1F
100
AcDbEntity
  8
0
  6
Continuous
 62
     3
100
AcDbLine
 10
-213.8343956831815
 20
176.566518278172
 30
0.0
 11
-219.4773917190347
 21
176.664671275303
 31
0.0
  0
LINE
  5
140
330
1F
100
AcDbEntity
  8
0
  6
Continuous
 62
     3
100
AcDbLine
 10
-213.8343956831815
 20
175.617806128021
 30
0.0
 11
-219.4773917185759
 21
175.727930949408
 31
0.0
  0
LINE
  5
141
330
1F
100
AcDbEntity
  8
0
  6
Continuous
 62
     3
100
AcDbLine
 10
-213.8343956831815
 20
174.818413429595
 30
0.0
 11
-219.4773917185758
 21
174.93862580938
 31
0.0
  0
LINE
  5
142
330
1F
100
AcDbEntity
  8
0
  6
Continuous
 62
     3
100
AcDbLine
 10
-213.8343956831815
 20
195.344692871224
 30
0.0
 11
-219.4363651599473
 21
195.246910130281
 31
0.0
  0
LINE
  5
143
330
1F
100
AcDbEntity
  8
0
  6
Continuous
 62
     3
100
AcDbLine
 10
-213.8343956831815
 20
195.344692871224
 30
0.0
 11
-213.6343956831815
 21
195.144692871224
 31
0.0
  0
LINE
  5
144
330
1F
100
AcDbEntity
  8
0
  6
Continuous
 62
     3
100
AcDbLine
 10
-219.4363651599473
 20
195.246910130281
 30
0.0
 11
-220.1343956831815
 21
194.548879607047
 31
0.0
  0
LINE
  5
145
330
1F
100
AcDbEntity
  8
0
  6
Continuous
 62
     3
100
AcDbLine
 10
-213.8343956831564
 20
194.969876960385
 30
0.0
 11
-219.4773917187333
 21
194.83579747287
 31
0.0
  0
LINE
  5
146
330
1F
100
AcDbEntity
  8
0
  6
Continuous
 62
     3
100
AcDbLine
 10
-213.8343956831815
 20
194.507367728848
 30
0.0
 11
-219.4773917187331
 21
194.37912465791
 31
0.0
  0
LINE
  5
147
330
1F
100
AcDbEntity
  8
0
  6
Continuous
 62
     3
100
AcDbLine
 10
-213.8343956831815
 20
193.870972312853
 30
0.0
 11
-219.4773917187329
 21
193.75075993301
 31
0.0
  0
LINE
  5
148
330
1F
100
AcDbEntity
  8
0
  6
Continuous
 62
     3
100
AcDbLine
 10
-213.8343956831563
 20
193.071579614393
 30
0.0
 11
-219.477391718733
 21
192.961454792827
 31
0.0
  0
LINE
  5
149
330
1F
100
AcDbEntity
  8
0
  6
Continuous
 62
     3
100
AcDbLine
 10
-213.8343956831564
 20
181.497683375145
 30
0.0
 11
-219.477391718728
 21
181.533609865502
 31
0.0
  0
LINE
  5
14A
330
1F
100
AcDbEntity
  8
0
  6
Continuous
 62
     3
100
AcDbLine
 10
-213.8343956831563
 20
184.344692871273
 30
0.0
 11
-219.477391718733
 21
184.344692871225
 31
0.0
  0
LINE
  5
14B
330
1F
100
AcDbEntity
  8
0
  6
Continuous
 62
     3
100
AcDbLine
 10
-213.8343956831815
 20
187.191702367351
 30
0.0
 11
-219.4773917187282
 21
187.155775876946
 31
0.0
  0
LINE
  5
14C
330
1F
100
AcDbEntity
  8
0
  6
Continuous
 62
     3
100
AcDbLine
 10
-213.8343956831815
 20
182.908904756804
 30
0.0
 11
-219.4773917185759
 21
182.927023005973
 31
0.0
  0
LINE
  5
14D
330
1F
100
AcDbEntity
  8
0
  6
Continuous
 62
     3
100
AcDbLine
 10
-213.8343956831564
 20
185.780480985692
 30
0.0
 11
-219.477391718733
 21
185.762362736307
 31
0.0
  0
LINE
  5
14E
330
1F
100
AcDbEntity
  8
0
  6
Continuous
 62
     3
100
AcDbLine
 10
-213.8343956831564
 20
192.122867464237
 30
0.0
 11
-219.4773917190347
 21
192.024714466726
 31
0.0
  0
LINE
  5
14F
330
1F
100
AcDbEntity
  8
0
  6
Continuous
 62
     3
100
AcDbLine
 10
-220.1343956866734
 20
174.140506135401
 30
0.0
 11
-220.1343956831815
 21
194.548879607047
 31
0.0
  0
LINE
  5
150
330
1F
100
AcDbEntity
  8
0
  6
Continuous
 62
     3
100
AcDbLine
 10
-223.6343956831815
 20
184.344692871224
 30
0.0
 11
-223.6343956831815
 21
191.048879607047
 31
0.0
  0
LINE
  5
151
330
1F
100
AcDbEntity
  8
4
  6
Continuous
 62
     3
100
AcDbLine
 10
-210.1343956831815
 20
173.344692871224
 30
0.0
 11
-210.1343956831815
 21
195.344692871224
 31
0.0
  0
LINE
  5
152
330
1F
100
AcDbEntity
  8
1
  6
Continuous
 62
     3
100
AcDbLine
 10
-193.6343956831816
 20
193.979692871224
 30
0.0
 11
-191.6343956831814
 21
193.917189747816
 31
0.0
  0
LINE
  5
153
330
1F
100
AcDbEntity
  8
1
  6
Continuous
 62
     3
100
AcDbLine
 10
-193.6343956831816
 20
174.709692871224
 30
0.0
 11
-191.6343956831814
 21
174.772195994633
 31
0.0
  0
LINE
  5
154
330
1F
100
AcDbEntity
  8
1
  6
Continuous
 62
     3
100
AcDbLine
 10
-193.6343956831816
 20
193.979692871224
 30
0.0
 11
-193.6343956831816
 21
195.094692871224
 31
0.0
  0
LINE
  5
155
330
1F
100
AcDbEntity
  8
1
  6
Continuous
 62
     3
100
AcDbLine
 10
-193.6343956831816
 20
193.979692871224
 30
0.0
 11
-193.6343956831816
 21
173.594692871224
 31
0.0
  0
LINE
  5
156
330
1F
100
AcDbEntity
  8
0
  6
Continuous
 62
     3
100
AcDbLine
 10
-196.1343956831816
 20
173.594692871224
 30
0.0
 11
-196.1343956831816
 21
195.094692871224
 31
0.0
  0
LINE
  5
157
330
1F
100
AcDbEntity
  8
0
  6
Continuous
 62
     3
100
AcDbLine
 10
-192.5139599270407
 20
173.594692871224
 30
0.0
 11
-196.1343956831816
 21
173.594692871224
 31
0.0
  0
LINE
  5
158
330
1F
100
AcDbEntity
  8
0
  6
Continuous
 62
     3
100
AcDbLine
 10
-191.6343956831814
 20
173.622180627464
 30
0.0
 11
-192.5139599270407
 21
173.594692871224
 31
0.0
  0
LINE
  5
159
330
1F
100
AcDbEntity
  8
0
  6
Continuous
 62
     3
100
AcDbLine
 10
-192.5139599270407
 20
195.094692871224
 30
0.0
 11
-196.1343956831816
 21
195.094692871224
 31
0.0
  0
LINE
  5
15A
330
1F
100
AcDbEntity
  8
0
  6
Continuous
 62
     3
100
AcDbLine
 10
-191.6343956831814
 20
195.067205114985
 30
0.0
 11
-192.5139599270407
 21
195.094692871224
 31
0.0
  0
LINE
  5
15B
330
1F
100
AcDbEntity
  8
0
  6
Continuous
 62
     3
100
AcDbLine
 10
-269.8171978416387
 20
120.857889030509
 30
0.0
 11
-259.1671978416386
 21
120.857889030509
 31
0.0
  0
LINE
  5
15C
330
1F
100
AcDbEntity
  8
0
  6
Continuous
 62
     3
100
AcDbLine
 10
-278.8171978416387
 20
118.000005198021
 30
0.0
 11
-260.8171978416387
 21
118.000005198021
 31
0.0
  0
LINE
  5
15D
330
1F
100
AcDbEntity
  8
0
  6
Continuous
 62
     3
100
AcDbLine
 10
-260.1101606551332
 20
109.50000450238
 30
0.0
 11
-279.5242350281454
 21
109.50000450238
 31
0.0
  0
LINE
  5
15E
330
1F
100
AcDbEntity
  8
0
  6
Continuous
 62
     3
100
AcDbLine
 10
-269.8171978416394
 20
61.6652136901583
 30
0.0
 11
-269.8171978416387
 21
71.0000051977358
 31
0.0
  0
LINE
  5
15F
330
1F
100
AcDbEntity
  8
0
  6
Continuous
 62
     3
100
AcDbLine
 10
-280.4671978416388
 20
120.857889030509
 30
0.0
 11
-269.8171978416387
 21
120.857889030509
 31
0.0
  0
LINE
  5
160
330
1F
100
AcDbEntity
  8
1
  6
Continuous
 62
     3
100
AcDbLine
 10
-277.8171978403946
 20
98.2613610186647
 30
0.0
 11
-277.4635967126112
 21
97.9077598908813
 31
0.0
  0
LINE
  5
161
330
1F
100
AcDbEntity
  8
1
  6
Continuous
 62
     3
100
AcDbLine
 10
-262.1707989681781
 20
97.9077598908813
 30
0.0
 11
-261.8171978403946
 21
98.2613610186647
 31
0.0
  0
LINE
  5
162
330
1F
100
AcDbEntity
  8
1
  6
DOT_CENTER
 62
     1
100
AcDbLine
 10
-273.3171978403946
 20
74.0000051977358
 30
0.0
 11
-266.3171978403946
 21
74.0000051977358
 31
0.0
  0
LINE
  5
163
330
1F
100
AcDbEntity
  8
1
  6
Continuous
 62
     3
100
AcDbLine
 10
-268.8171978403946
 20
71.0000051977358
 30
0.0
 11
-270.8171978403946
 21
71.0000051977358
 31
0.0
  0
LINE
  5
164
330
1F
100
AcDbEntity
  8
1
  6
Continuous
 62
     3
100
AcDbLine
 10
-272.8171978403946
 20
78.1572859154088
 30
0.0
 11
-272.8171978403946
 21
73.0000051977358
 31
0.0
  0
LINE
  5
165
330
1F
100
AcDbEntity
  8
1
  6
Continuous
 62
     3
100
AcDbLine
 10
-266.8171978403946
 20
78.1572859154088
 30
0.0
 11
-266.8171978403946
 21
73.0000051977358
 31
0.0
  0
LINE
  5
166
330
1F
100
AcDbEntity
  8
1
  6
DOT_CENTER
 62
     1
100
AcDbLine
 10
-285.8171978403946
 20
90.0000051977358
 30
0.0
 11
-253.8171978403946
 21
90.0000051977358
 31
0.0
  0
LINE
  5
167
330
1F
100
AcDbEntity
  8
1
  6
DOT_CENTER
 62
     1
100
AcDbLine
 10
-269.8171978403946
 20
56.00000519802
 30
0.0
 11
-269.8171978403946
 21
145.00000519802
 31
0.0
  0
LINE
  5
168
330
1F
100
AcDbEntity
  8
0
  6
Continuous
 62
     3
100
AcDbLine
 10
-191.1682658047536
 20
76.40000519802
 30
0.0
 11
-183.9571251586559
 21
76.40000519802
 31
0.0
  0
LINE
  5
169
330
1F
100
AcDbEntity
  8
0
  6
Continuous
 62
     3
100
AcDbLine
 10
-174.2843956831814
 20
124.00000519802
 30
0.0
 11
-174.2843956831814
 21
120.857889030509
 31
0.0
  0
LINE
  5
16A
330
1F
100
AcDbEntity
  8
0
  6
Continuous
 62
     3
100
AcDbLine
 10
-152.9843956831814
 20
124.00000519802
 30
0.0
 11
-152.9843956831814
 21
120.857889030509
 31
0.0
  0
LINE
  5
16B
330
1F
100
AcDbEntity
  8
0
  6
Continuous
 62
     3
100
AcDbLine
 10
-174.2843956831814
 20
120.857889030509
 30
0.0
 11
-152.9843956831814
 21
120.857889030509
 31
0.0
  0
LINE
  5
16C
330
1F
100
AcDbEntity
  8
0
  6
Continuous
 62
     3
100
AcDbLine
 10
-145.1591870691136
 20
61.6652136842946
 30
0.0
 11
-145.1591870691133
 21
76.1637294288068
 31
0.0
  0
LINE
  5
16D
330
1F
100
AcDbEntity
  8
0
  6
Continuous
 62
     3
100
AcDbLine
 10
-152.5816279125026
 20
79.6168290658981
 30
0.0
 11
-145.971867442265
 21
77.2110729857053
 31
0.0
  0
LINE
  5
16E
330
1F
100
AcDbEntity
  8
0
  6
Continuous
 62
     3
100
AcDbLine
 10
-148.6343956831814
 20
59.00000519802
 30
0.0
 11
-145.8138869336378
 21
60.6284226517568
 31
0.0
  0
LINE
  5
16F
330
1F
100
AcDbEntity
  8
0
  6
Continuous
 62
     3
100
AcDbLine
 10
-191.1682658047536
 20
103.60000519802
 30
0.0
 11
-175.2343956807816
 21
103.60000519802
 31
0.0
  0
LINE
  5
170
330
1F
100
AcDbEntity
  8
0
  6
Continuous
 62
     3
100
AcDbLine
 10
-173.6343956831814
 20
109.085791635647
 30
0.0
 11
-173.6343956831815
 21
105.200005194758
 31
0.0
  0
LINE
  5
171
330
1F
100
AcDbEntity
  8
0
  6
Continuous
 62
     3
100
AcDbLine
 10
-172.6343956831814
 20
117.57128649013
 30
0.0
 11
-172.6343956831814
 21
111.162746897817
 31
0.0
  0
LINE
  5
172
330
1F
100
AcDbEntity
  8
0
  6
Continuous
 62
     3
100
AcDbLine
 10
-173.103024833283
 20
110.031376047919
 30
0.0
 11
-173.3415024643679
 21
109.792898416833
 31
0.0
  0
LINE
  5
173
330
1F
100
AcDbEntity
  8
0
  6
Continuous
 62
     3
100
AcDbLine
 10
-182.1096042972493
 20
74.8210720756947
 30
0.0
 11
-182.1096042972495
 21
61.6652136842937
 31
0.0
  0
LINE
  5
174
330
1F
100
AcDbEntity
  8
0
  6
Continuous
 62
     3
100
AcDbLine
 10
-172.8719999902155
 20
61.0064178268227
 30
0.0
 11
-172.8719999902172
 21
76.748455691749
 31
0.0
  0
LINE
  5
175
330
1F
100
AcDbEntity
  8
0
  6
Continuous
 62
     3
100
AcDbLine
 10
-178.6343956831814
 20
59.00000519802
 30
0.0
 11
-181.4549044380048
 21
60.6284226335502
 31
0.0
  0
LINE
  5
176
330
1F
100
AcDbEntity
  8
0
  6
Continuous
 62
     3
100
AcDbLine
 10
-191.6343956831815
 20
76.469409583092
 30
0.0
 11
-191.6343956831815
 21
103.530600812948
 31
0.0
  0
LINE
  5
177
330
1F
100
AcDbEntity
  8
0
  6
Continuous
 62
     3
100
AcDbLine
 10
-178.6343956831814
 20
59.00000519802
 30
0.0
 11
-148.6343956831814
 21
59.00000519802
 31
0.0
  0
LINE
  5
178
330
1F
100
AcDbEntity
  8
0
  6
Continuous
 62
     3
100
AcDbLine
 10
-154.6343956831814
 20
117.57128649013
 30
0.0
 11
-154.6343956831814
 21
111.162746897817
 31
0.0
  0
LINE
  5
179
330
1F
100
AcDbEntity
  8
0
  6
Continuous
 62
     3
100
AcDbLine
 10
-154.1657665330798
 20
110.031376047919
 30
0.0
 11
-153.9272889019949
 21
109.792898416833
 31
0.0
  0
LINE
  5
17A
330
1F
100
AcDbEntity
  8
0
  6
Continuous
 62
     3
100
AcDbLine
 10
-153.6343956831814
 20
109.085791635647
 30
0.0
 11
-153.6343956831815
 21
81.1203372591555
 31
0.0
  0
LINE
  5
17B
330
1F
100
AcDbEntity
  8
0
  6
Continuous
 62
     3
100
AcDbLine
 10
-154.3967913761474
 20
61.006417826835
 30
0.0
 11
-154.3967913761474
 21
76.7484530977916
 31
0.0
  0
LINE
  5
17C
330
1F
100
AcDbEntity
  8
0
  6
Continuous
 62
     3
100
AcDbLine
 10
-153.9272889019949
 20
109.50000519802
 30
0.0
 11
-173.3415024643679
 21
109.50000519802
 31
0.0
  0
LINE
  5
17D
330
1F
100
AcDbEntity
  8
0
  6
Continuous
 62
     3
100
AcDbLine
 10
-172.6343956831814
 20
118.00000519802
 30
0.0
 11
-154.6343956831814
 21
118.00000519802
 31
0.0
  0
LINE
  5
17E
330
1F
100
AcDbEntity
  8
0
  6
Continuous
 62
     3
100
AcDbLine
 10
-165.712856652264
 20
98.9428537587769
 30
0.0
 11
-165.7128566522643
 21
81.1967955629742
 31
0.0
  0
LINE
  5
17F
330
1F
100
AcDbEntity
  8
3
  6
Continuous
 62
     3
100
AcDbLine
 10
-179.1343956831814
 20
124.00000519802
 30
0.0
 11
-174.2843956831814
 21
124.00000519802
 31
0.0
  0
LINE
  5
180
330
1F
100
AcDbEntity
  8
3
  6
Continuous
 62
     3
100
AcDbLine
 10
-181.5322540280598
 20
125.384409358914
 30
0.0
 11
-179.1343956831814
 21
124.00000519802
 31
0.0
  0
LINE
  5
181
330
1F
100
AcDbEntity
  8
3
  6
Continuous
 62
     3
100
AcDbLine
 10
-179.1343956831814
 20
142.00000519802
 30
0.0
 11
-181.5322540280598
 21
140.615601037126
 31
0.0
  0
LINE
  5
182
330
1F
100
AcDbEntity
  8
3
  6
Continuous
 62
     3
100
AcDbLine
 10
-148.1343956831814
 20
142.00000519802
 30
0.0
 11
-179.1343956831814
 21
142.00000519802
 31
0.0
  0
LINE
  5
183
330
1F
100
AcDbEntity
  8
3
  6
Continuous
 62
     3
100
AcDbLine
 10
-145.7365373383031
 20
140.615601037126
 30
0.0
 11
-148.1343956831814
 21
142.00000519802
 31
0.0
  0
LINE
  5
184
330
1F
100
AcDbEntity
  8
3
  6
Continuous
 62
     3
100
AcDbLine
 10
-145.7365373383031
 20
125.384409358914
 30
0.0
 11
-145.7365373383031
 21
140.615601037126
 31
0.0
  0
LINE
  5
185
330
1F
100
AcDbEntity
  8
3
  6
Continuous
 62
     3
100
AcDbLine
 10
-148.1343956831814
 20
124.00000519802
 30
0.0
 11
-145.7365373383031
 21
125.384409358914
 31
0.0
  0
LINE
  5
186
330
1F
100
AcDbEntity
  8
3
  6
Continuous
 62
     3
100
AcDbLine
 10
-152.9843956831814
 20
124.00000519802
 30
0.0
 11
-148.1343956831814
 21
124.00000519802
 31
0.0
  0
LINE
  5
187
330
1F
100
AcDbEntity
  8
3
  6
Continuous
 62
     3
100
AcDbLine
 10
-174.2843956831814
 20
124.00000519802
 30
0.0
 11
-152.9843956831814
 21
124.00000519802
 31
0.0
  0
LINE
  5
188
330
1F
100
AcDbEntity
  8
3
  6
DOTTED
 62
     4
100
AcDbLine
 10
-175.2843956831814
 20
131.00000519802
 30
0.0
 11
-175.2843956831814
 21
128.00000519802
 31
0.0
  0
LINE
  5
189
330
1F
100
AcDbEntity
  8
3
  6
DOTTED
 62
     4
100
AcDbLine
 10
-151.9843956831814
 20
131.00000519802
 30
0.0
 11
-175.2843956831814
 21
131.00000519802
 31
0.0
  0
LINE
  5
18A
330
1F
100
AcDbEntity
  8
3
  6
DOTTED
 62
     4
100
AcDbLine
 10
-151.9843956831814
 20
128.00000519802
 30
0.0
 11
-151.9843956831814
 21
131.00000519802
 31
0.0
  0
LINE
  5
18B
330
1F
100
AcDbEntity
  8
3
  6
Continuous
 62
     3
100
AcDbLine
 10
-172.5833248556206
 20
140.615601037126
 30
0.0
 11
-172.5833248556206
 21
125.384409358914
 31
0.0
  0
LINE
  5
18C
330
1F
100
AcDbEntity
  8
3
  6
Continuous
 62
     3
100
AcDbLine
 10
-154.6854665107422
 20
140.615601037126
 30
0.0
 11
-154.6854665107422
 21
125.384409358914
 31
0.0
  0
LINE
  5
18D
330
1F
100
AcDbEntity
  8
0
  6
Continuous
 62
     3
100
AcDbLine
 10
-154.4200363292364
 20
118.37128649013
 30
0.0
 11
-152.9843956831814
 21
120.857889030509
 31
0.0
  0
LINE
  5
18E
330
1F
100
AcDbEntity
  8
0
  6
Continuous
 62
     3
100
AcDbLine
 10
-172.8487550371264
 20
118.37128649013
 30
0.0
 11
-174.2843956831814
 21
120.857889030509
 31
0.0
  0
LINE
  5
18F
330
1F
100
AcDbEntity
  8
1
  6
DOT_CENTER
 62
     1
100
AcDbLine
 10
-163.6343956831814
 20
56.00000519802
 30
0.0
 11
-163.6343956831814
 21
145.00000519802
 31
0.0
  0
LINE
  5
190
330
1F
100
AcDbEntity
  8
1
  6
DOT_CENTER
 62
     1
100
AcDbLine
 10
-160.6343956831814
 20
90.00000519802
 30
0.0
 11
-228.6343956831815
 21
90.0000051980199
 31
0.0
  0
LINE
  5
191
330
1F
100
AcDbEntity
  8
4
  6
Continuous
 62
     3
100
AcDbLine
 10
-210.6343956831815
 20
98.2613610189491
 30
0.0
 11
-213.1343956831815
 21
98.2613610189491
 31
0.0
  0
LINE
  5
192
330
1F
100
AcDbEntity
  8
4
  6
Continuous
 62
     3
100
AcDbLine
 10
-212.6343956831815
 20
79.0821742347711
 30
0.0
 11
-212.6343956831815
 21
71.5000051980199
 31
0.0
  0
LINE
  5
193
330
1F
100
AcDbEntity
  8
4
  6
Continuous
 62
     3
100
AcDbLine
 10
-212.1343956831815
 20
71.0000051980199
 30
0.0
 11
-210.6343956831815
 21
71.0000051980199
 31
0.0
  0
LINE
  5
194
330
1F
100
AcDbEntity
  8
4
  6
Continuous
 62
     3
100
AcDbLine
 10
-213.6343956831815
 20
100.80000519802
 30
0.0
 11
-213.6343956831815
 21
79.0000051980199
 31
0.0
  0
LINE
  5
195
330
1F
100
AcDbEntity
  8
0
  6
Continuous
 62
     3
100
AcDbLine
 10
-223.6343956831815
 20
90.0000051980199
 30
0.0
 11
-223.6343956831815
 21
96.704191933843
 31
0.0
  0
LINE
  5
196
330
1F
100
AcDbEntity
  8
0
  6
Continuous
 62
     3
100
AcDbLine
 10
-219.4363651599473
 20
100.902222457077
 30
0.0
 11
-219.4363651599473
 21
100.814129466417
 31
0.0
  0
LINE
  5
197
330
1F
100
AcDbEntity
  8
0
  6
Continuous
 62
     3
100
AcDbLine
 10
-213.8343956831815
 20
97.7781797910721
 30
0.0
 11
-219.4773917190348
 21
97.6800267935222
 31
0.0
  0
LINE
  5
198
330
1F
100
AcDbEntity
  8
0
  6
Continuous
 62
     3
100
AcDbLine
 10
-213.8343956831815
 20
91.4357933124405
 30
0.0
 11
-219.4773917187331
 21
91.4176750631031
 31
0.0
  0
LINE
  5
199
330
1F
100
AcDbEntity
  8
0
  6
Continuous
 62
     3
100
AcDbLine
 10
-213.8343956831564
 20
88.5642170835521
 30
0.0
 11
-219.477391718576
 21
88.582335332769
 31
0.0
  0
LINE
  5
19A
330
1F
100
AcDbEntity
  8
0
  6
Continuous
 62
     3
100
AcDbLine
 10
-213.8343956831565
 20
92.8470146940994
 30
0.0
 11
-219.4773917187282
 21
92.8110882037416
 31
0.0
  0
LINE
  5
19B
330
1F
100
AcDbEntity
  8
0
  6
Continuous
 62
     3
100
AcDbLine
 10
-213.8343956831563
 20
90.0000051980685
 30
0.0
 11
-219.4773917187331
 21
90.0000051980204
 31
0.0
  0
LINE
  5
19C
330
1F
100
AcDbEntity
  8
0
  6
Continuous
 62
     3
100
AcDbLine
 10
-213.8343956831565
 20
87.1529957019405
 30
0.0
 11
-219.477391718728
 21
87.1889221922979
 31
0.0
  0
LINE
  5
19D
330
1F
100
AcDbEntity
  8
0
  6
Continuous
 62
     3
100
AcDbLine
 10
-213.8343956831815
 20
98.7268919412235
 30
0.0
 11
-219.4773917187331
 21
98.616767119623
 31
0.0
  0
LINE
  5
19E
330
1F
100
AcDbEntity
  8
0
  6
Continuous
 62
     3
100
AcDbLine
 10
-213.8343956831815
 20
99.5262846396489
 30
0.0
 11
-219.4773917187329
 21
99.4060722598055
 31
0.0
  0
LINE
  5
19F
330
1F
100
AcDbEntity
  8
0
  6
Continuous
 62
     3
100
AcDbLine
 10
-213.8343956831564
 20
100.162680055657
 30
0.0
 11
-219.4773917187331
 21
100.034436984706
 31
0.0
  0
LINE
  5
1A0
330
1F
100
AcDbEntity
  8
0
  6
Continuous
 62
     3
100
AcDbLine
 10
-213.8343956831815
 20
100.6251892872
 30
0.0
 11
-219.4773917187333
 21
100.491109799666
 31
0.0
  0
LINE
  5
1A1
330
1F
100
AcDbEntity
  8
0
  6
Continuous
 62
     3
100
AcDbLine
 10
-219.4363651599473
 20
100.902222457077
 30
0.0
 11
-220.1343956831815
 21
100.204191933843
 31
0.0
  0
LINE
  5
1A2
330
1F
100
AcDbEntity
  8
0
  6
Continuous
 62
     3
100
AcDbLine
 10
-213.6343956831815
 20
79.2000051980199
 30
0.0
 11
-213.8343956831815
 21
79.0000051980199
 31
0.0
  0
LINE
  5
1A3
330
1F
100
AcDbEntity
  8
0
  6
Continuous
 62
     3
100
AcDbLine
 10
-213.8343956831815
 20
101.00000519802
 30
0.0
 11
-219.4363651599473
 21
100.902222457077
 31
0.0
  0
LINE
  5
1A4
330
1F
100
AcDbEntity
  8
0
  6
Continuous
 62
     3
100
AcDbLine
 10
-219.4363651599473
 20
79.0977879389628
 30
0.0
 11
-220.1343956831815
 21
79.795818462197
 31
0.0
  0
LINE
  5
1A5
330
1F
100
AcDbEntity
  8
0
  6
Continuous
 62
     3
100
AcDbLine
 10
-213.8343956831815
 20
80.473725756391
 30
0.0
 11
-219.4773917185758
 21
80.5939381361761
 31
0.0
  0
LINE
  5
1A6
330
1F
100
AcDbEntity
  8
0
  6
Continuous
 62
     3
100
AcDbLine
 10
-213.8343956831815
 20
81.2731184548164
 30
0.0
 11
-219.477391718576
 21
81.383243276204
 31
0.0
  0
LINE
  5
1A7
330
1F
100
AcDbEntity
  8
0
  6
Continuous
 62
     3
100
AcDbLine
 10
-213.8343956831815
 20
82.2218306049679
 30
0.0
 11
-219.4773917190348
 21
82.3199836020993
 31
0.0
  0
LINE
  5
1A8
330
1F
100
AcDbEntity
  8
0
  6
Continuous
 62
     3
100
AcDbLine
 10
-213.6343956831815
 20
100.80000519802
 30
0.0
 11
-213.8343956831815
 21
101.00000519802
 31
0.0
  0
LINE
  5
1A9
330
1F
100
AcDbEntity
  8
0
  6
Continuous
 62
     3
100
AcDbLine
 10
-213.8343956831815
 20
79.0000051980199
 30
0.0
 11
-219.4363651599473
 21
79.0977879389628
 31
0.0
  0
LINE
  5
1AA
330
1F
100
AcDbEntity
  8
0
  6
Continuous
 62
     3
100
AcDbLine
 10
-213.8343956831815
 20
79.3748211088401
 30
0.0
 11
-219.4773917187279
 21
79.5089005963721
 31
0.0
  0
LINE
  5
1AB
330
1F
100
AcDbEntity
  8
0
  6
Continuous
 62
     3
100
AcDbLine
 10
-213.8343956831564
 20
79.8373303403828
 30
0.0
 11
-219.4773917187283
 21
79.9655734113328
 31
0.0
  0
LINE
  5
1AC
330
1F
100
AcDbEntity
  8
0
  6
Continuous
 62
     3
100
AcDbLine
 10
-196.1343956831816
 20
79.2500051980199
 30
0.0
 11
-196.1343956831816
 21
100.75000519802
 31
0.0
  0
LINE
  5
1AD
330
1F
100
AcDbEntity
  8
0
  6
Continuous
 62
     3
100
AcDbLine
 10
-196.8560835196687
 20
78.0000051980199
 30
0.0
 11
-196.8560835196687
 21
78.0758099947347
 31
0.0
  0
LINE
  5
1AE
330
1F
100
AcDbEntity
  8
0
  6
Continuous
 62
     3
100
AcDbLine
 10
-209.268370279397
 20
78.0000051980199
 30
0.0
 11
-196.8560835196687
 21
78.0000051980199
 31
0.0
  0
LINE
  5
1AF
330
1F
100
AcDbEntity
  8
0
  6
Continuous
 62
     3
100
AcDbLine
 10
-209.268370279397
 20
101.924200401305
 30
0.0
 11
-209.268370279397
 21
102.00000519802
 31
0.0
  0
LINE
  5
1B0
330
1F
100
AcDbEntity
  8
0
  6
Continuous
 62
     3
100
AcDbLine
 10
-210.1343956831815
 20
100.50000519802
 30
0.0
 11
-209.268370279397
 21
102.00000519802
 31
0.0
  0
LINE
  5
1B1
330
1F
100
AcDbEntity
  8
0
  6
Continuous
 62
     3
100
AcDbLine
 10
-196.8560835196687
 20
78.0758099947347
 30
0.0
 11
-209.268370279397
 21
78.0758099947347
 31
0.0
  0
LINE
  5
1B2
330
1F
100
AcDbEntity
  8
0
  6
Continuous
 62
     3
100
AcDbLine
 10
-196.8560835196687
 20
101.924200401305
 30
0.0
 11
-209.268370279397
 21
101.924200401305
 31
0.0
  0
LINE
  5
1B3
330
1F
100
AcDbEntity
  8
0
  6
Continuous
 62
     3
100
AcDbLine
 10
-196.8560835196687
 20
101.924200401305
 30
0.0
 11
-196.8560835196687
 21
102.00000519802
 31
0.0
  0
LINE
  5
1B4
330
1F
100
AcDbEntity
  8
0
  6
Continuous
 62
     3
100
AcDbLine
 10
-210.1343956831815
 20
79.5000051980201
 30
0.0
 11
-209.268370279397
 21
78.0000051980199
 31
0.0
  0
LINE
  5
1B5
330
1F
100
AcDbEntity
  8
0
  6
Continuous
 62
     3
100
AcDbLine
 10
-209.268370279397
 20
78.0000051980199
 30
0.0
 11
-209.268370279397
 21
78.0758099947347
 31
0.0
  0
LINE
  5
1B6
330
1F
100
AcDbEntity
  8
0
  6
Continuous
 62
     3
100
AcDbLine
 10
-209.268370279397
 20
102.00000519802
 30
0.0
 11
-196.8560835196687
 21
102.00000519802
 31
0.0
  0
LINE
  5
1B7
330
1F
100
AcDbEntity
  8
0
  6
Continuous
 62
     3
100
AcDbLine
 10
-196.8560835196687
 20
78.0000051980199
 30
0.0
 11
-196.1343956831816
 21
79.2500051980199
 31
0.0
  0
LINE
  5
1B8
330
1F
100
AcDbEntity
  8
0
  6
Continuous
 62
     3
100
AcDbLine
 10
-196.8560835196687
 20
102.00000519802
 30
0.0
 11
-196.1343956831816
 21
100.75000519802
 31
0.0
  0
LINE
  5
1B9
330
1F
100
AcDbEntity
  8
0
  6
Continuous
 62
     3
100
AcDbLine
 10
-196.8560835196687
 20
94.7958367213327
 30
0.0
 11
-209.2683702794109
 21
94.7958367213411
 31
0.0
  0
LINE
  5
1BA
330
1F
100
AcDbEntity
  8
0
  6
Continuous
 62
     3
100
AcDbLine
 10
-196.8560835196687
 20
94.7958367213327
 30
0.0
 11
-196.8560835196297
 21
97.128368878077
 31
0.0
  0
LINE
  5
1BB
330
1F
100
AcDbEntity
  8
0
  6
Continuous
 62
     3
100
AcDbLine
 10
-196.1343956831816
 20
100.75000519802
 30
0.0
 11
-192.5139599270425
 21
100.75000519802
 31
0.0
  0
LINE
  5
1BC
330
1F
100
AcDbEntity
  8
0
  6
Continuous
 62
     3
100
AcDbLine
 10
-196.8560835196297
 20
97.128368878077
 30
0.0
 11
-209.268370279397
 21
97.1283688779923
 31
0.0
  0
LINE
  5
1BD
330
1F
100
AcDbEntity
  8
0
  6
Continuous
 62
     3
100
AcDbLine
 10
-209.268370279397
 20
82.8716415180476
 30
0.0
 11
-209.2683702794109
 21
85.2041736746989
 31
0.0
  0
LINE
  5
1BE
330
1F
100
AcDbEntity
  8
0
  6
Continuous
 62
     3
100
AcDbLine
 10
-196.1343956831816
 20
79.2500051980199
 30
0.0
 11
-192.5139599270407
 21
79.2500051980199
 31
0.0
  0
LINE
  5
1BF
330
1F
100
AcDbEntity
  8
0
  6
Continuous
 62
     3
100
AcDbLine
 10
-196.8560835196687
 20
82.8716415180476
 30
0.0
 11
-196.8560835196687
 21
85.2041736747072
 31
0.0
  0
LINE
  5
1C0
330
1F
100
AcDbEntity
  8
0
  6
Continuous
 62
     3
100
AcDbLine
 10
-196.8560835196687
 20
82.8716415180476
 30
0.0
 11
-209.268370279397
 21
82.8716415180476
 31
0.0
  0
LINE
  5
1C1
330
1F
100
AcDbEntity
  8
0
  6
Continuous
 62
     3
100
AcDbLine
 10
-196.8560835196687
 20
85.2041736747072
 30
0.0
 11
-209.2683702794109
 21
85.2041736746989
 31
0.0
  0
LINE
  5
1C2
330
1F
100
AcDbEntity
  8
0
  6
Continuous
 62
     3
100
AcDbLine
 10
-209.2683702794109
 20
94.7958367213411
 30
0.0
 11
-209.268370279397
 21
97.1283688779923
 31
0.0
  0
LINE
  5
1C3
330
1F
100
AcDbEntity
  8
0
  6
Continuous
 62
     3
100
AcDbLine
 10
-223.6343956831815
 20
83.295818462197
 30
0.0
 11
-223.6343956831815
 21
90.0000051980199
 31
0.0
  0
LINE
  5
1C4
330
1F
100
AcDbEntity
  8
100
  6
Continuous
 62
     3
100
AcDbLine
 10
-193.6343956831816
 20
79.2618671734077
 30
0.0
 11
-193.6343956831819
 21
90.0000051980199
 31
0.0
  0
LINE
  5
1C5
330
1F
100
AcDbEntity
  8
1
  6
Continuous
 62
     3
100
AcDbLine
 10
-191.6343956831815
 20
80.4394929542598
 30
0.0
 11
-193.6343956831816
 21
80.3769898308516
 31
0.0
  0
LINE
  5
1C6
330
1F
100
AcDbEntity
  8
100
  6
Continuous
 62
     3
100
AcDbLine
 10
-193.6343956831819
 20
90.0000051980199
 30
0.0
 11
-193.6343956831817
 21
100.738143222632
 31
0.0
  0
LINE
  5
1C7
330
1F
100
AcDbEntity
  8
1
  6
Continuous
 62
     3
100
AcDbLine
 10
-191.6343956831815
 20
99.5605174417803
 30
0.0
 11
-193.6343956831816
 21
99.6230205651886
 31
0.0
  0
LINE
  5
1C8
330
1F
100
AcDbEntity
  8
100
  6
Continuous
 62
     3
100
AcDbLine
 10
-192.5139599270425
 20
100.75000519802
 30
0.0
 11
-191.6343956831815
 21
100.72251744178
 31
0.0
  0
LINE
  5
1C9
330
1F
100
AcDbEntity
  8
100
  6
Continuous
 62
     3
100
AcDbLine
 10
-191.6343956831815
 20
79.2774929542596
 30
0.0
 11
-192.5139599270407
 21
79.2500051980199
 31
0.0
  0
LINE
  5
1CA
330
1F
100
AcDbEntity
  8
0
  6
DOTTED
 62
     4
100
AcDbLine
 10
-174.2843956831814
 20
124.00000519802
 30
0.0
 11
-174.2843956831815
 21
128.00000519802
 31
0.0
  0
LINE
  5
1CB
330
1F
100
AcDbEntity
  8
0
  6
DOTTED
 62
     4
100
AcDbLine
 10
-152.9843956831814
 20
124.00000519802
 30
0.0
 11
-152.9843956831814
 21
128.00000519802
 31
0.0
  0
LINE
  5
1CC
330
1F
100
AcDbEntity
  8
1
  6
Continuous
 62
     3
100
AcDbLine
 10
-279.5242350281454
 20
109.738889448921
 30
0.0
 11
-279.2787363031774
 21
109.984339856198
 31
0.0
  0
LINE
  5
1CD
330
1F
100
AcDbEntity
  8
1
  6
Continuous
 62
     3
100
AcDbLine
 10
-278.8171978416393
 20
111.108575296594
 30
0.0
 11
-278.8171978416391
 21
117.571286490131
 31
0.0
  0
LINE
  5
1CE
330
1F
100
AcDbEntity
  8
100
  6
Continuous
 62
     3
100
AcDbLine
 10
-279.0315571955841
 20
118.371286490131
 30
0.0
 11
-280.4671978416388
 21
120.857889030509
 31
0.0
  0
LINE
  5
1CF
330
1F
100
AcDbEntity
  8
1
  6
Continuous
 62
     3
100
AcDbLine
 10
-260.8171978416393
 20
111.162595504239
 30
0.0
 11
-260.8171978416391
 21
117.57128649013
 31
0.0
  0
LINE
  5
1D0
330
1F
100
AcDbEntity
  8
1
  6
Continuous
 62
     3
100
AcDbLine
 10
-260.602838487694
 20
118.37128649013
 30
0.0
 11
-259.1671978416386
 21
120.857889030509
 31
0.0
  0
LINE
  5
1D1
330
1F
100
AcDbEntity
  8
1
  6
Continuous
 62
     3
100
AcDbLine
 10
-260.3556593801012
 20
110.038360063843
 30
0.0
 11
-260.1101606551332
 21
109.792909656565
 31
0.0
  0
LINE
  5
1D2
330
1F
100
AcDbEntity
  8
1
  6
Continuous
 62
     3
100
AcDbLine
 10
-285.5671978416387
 20
59.4330178999123
 30
0.0
 11
-284.8171978416387
 21
59.00000519802
 31
0.0
  0
LINE
  5
1D3
330
1F
100
AcDbEntity
  8
1
  6
Continuous
 62
     3
100
AcDbLine
 10
-254.0671978416388
 20
59.4330178999123
 30
0.0
 11
-254.8171978416388
 21
59.00000519802
 31
0.0
  0
LINE
  5
1D4
330
1F
100
AcDbEntity
  8
1
  6
Continuous
 62
     3
100
AcDbLine
 10
-253.8171978416388
 20
77.4660800233168
 30
0.0
 11
-253.8171978416388
 21
59.8660306018045
 31
0.0
  0
LINE
  5
1D5
330
1F
100
AcDbEntity
  8
1
  6
Continuous
 62
     3
100
AcDbLine
 10
-285.8171978416387
 20
59.8660306018045
 30
0.0
 11
-285.8171978416387
 21
77.4660800233168
 31
0.0
  0
LINE
  5
1D6
330
1F
100
AcDbEntity
  8
100
  6
Continuous
 62
     3
100
AcDbLine
 10
-259.1671978416389
 20
124.00000519802
 30
0.0
 11
-259.1671978416386
 21
120.857889030509
 31
0.0
  0
LINE
  5
1D7
330
1F
100
AcDbEntity
  8
100
  6
Continuous
 62
     3
100
AcDbLine
 10
-280.4671978416388
 20
120.857889030509
 30
0.0
 11
-280.4671978416389
 21
124.00000519802
 31
0.0
  0
LINE
  5
1D8
330
1F
100
AcDbEntity
  8
1
  6
Continuous
 62
     3
100
AcDbLine
 10
-254.146187769976
 20
77.9359263337098
 30
0.0
 11
-258.172248199953
 21
79.4012924915784
 31
0.0
  0
LINE
  5
1D9
330
1F
100
AcDbEntity
  8
1
  6
Continuous
 62
     3
100
AcDbLine
 10
-259.8171978416392
 20
99.0799044804895
 30
0.0
 11
-259.8171978416394
 21
109.085733287547
 31
0.0
  0
LINE
  5
1DA
330
1F
100
AcDbEntity
  8
1
  6
Continuous
 62
     3
100
AcDbLine
 10
-279.8171978416393
 20
109.031713079903
 30
0.0
 11
-279.8171978416386
 21
99.1811300362327
 31
0.0
  0
LINE
  5
1DB
330
1F
100
AcDbEntity
  8
1
  6
Continuous
 62
     3
100
AcDbLine
 10
-281.4621474833231
 20
79.401292491579
 30
0.0
 11
-285.4882079133017
 21
77.9359263337098
 31
0.0
  0
LINE
  5
1DC
330
1F
100
AcDbEntity
  8
1
  6
Continuous
 62
     3
100
AcDbLine
 10
-284.8171978416387
 20
59.00000519802
 30
0.0
 11
-269.8636243045164
 21
59.00000519802
 31
0.0
  0
LINE
  5
1DD
330
1F
100
AcDbEntity
  8
1
  6
Continuous
 62
     3
100
AcDbLine
 10
-254.8171978416388
 20
59.00000519802
 30
0.0
 11
-269.8636243045164
 21
59.00000519802
 31
0.0
  0
LINE
  5
1E5
330
1F
100
AcDbEntity
  8
1
  6
Continuous
 62
     3
100
AcDbLine
 10
-209.8457205485857
 20
195.344692871224
 30
0.0
 11
-196.278733250478
 21
195.344692871224
 31
0.0
  0
LINE
  5
1E6
330
1F
100
AcDbEntity
  8
2
  6
Continuous
 62
     3
100
AcDbLine
 10
-210.1343956831815
 20
194.8446928712222
 30
0.0
 11
-209.8457205485857
 21
195.344692871224
 31
0.0
  0
LINE
  5
1E7
330
1F
100
AcDbEntity
  8
1
  6
Continuous
 62
     3
100
AcDbLine
 10
-209.268370279396
 20
195.344692871224
 30
0.0
 11
-209.268370279396
 21
193.9980048026831
 31
0.0
  0
LINE
  5
1E8
330
1F
100
AcDbEntity
  8
2
  6
Continuous
 62
     3
100
AcDbLine
 10
-196.1343956831816
 20
195.094692871224
 30
0.0
 11
-196.278733250478
 21
195.344692871224
 31
0.0
  0
LINE
  5
1E9
330
1F
100
AcDbEntity
  8
1
  6
Continuous
 62
     3
100
AcDbLine
 10
-196.8560835196676
 20
193.9980048026831
 30
0.0
 11
-196.8560835196676
 21
195.344692871224
 31
0.0
  0
LINE
  5
1EA
330
1F
100
AcDbEntity
  8
1
  6
Continuous
 62
     3
100
AcDbLine
 10
-196.8560835196676
 20
193.9980048026831
 30
0.0
 11
-209.268370279396
 21
193.9980048026831
 31
0.0
  0
LINE
  5
1EB
330
1F
100
AcDbEntity
  8
1
  6
Continuous
 62
     3
100
AcDbLine
 10
-209.268370279396
 20
185.691380939765
 30
0.0
 11
-196.8560835196676
 21
185.691380939765
 31
0.0
  0
LINE
  5
1EC
330
1F
100
AcDbEntity
  8
1
  6
Continuous
 62
     3
100
AcDbLine
 10
-209.268370279396
 20
185.691380939765
 30
0.0
 11
-209.268370279396
 21
182.998004802683
 31
0.0
  0
LINE
  5
1ED
330
1F
100
AcDbEntity
  8
1
  6
Continuous
 62
     3
100
AcDbLine
 10
-196.8560835196676
 20
182.998004802683
 30
0.0
 11
-209.268370279396
 21
182.998004802683
 31
0.0
  0
LINE
  5
1EE
330
1F
100
AcDbEntity
  8
1
  6
Continuous
 62
     3
100
AcDbLine
 10
-196.8560835196676
 20
185.691380939765
 30
0.0
 11
-196.8560835196676
 21
182.998004802683
 31
0.0
  0
LINE
  5
1EF
330
1F
100
AcDbEntity
  8
1
  6
Continuous
 62
     3
100
AcDbLine
 10
-209.268370279396
 20
174.691380939765
 30
0.0
 11
-196.8560835196676
 21
174.691380939765
 31
0.0
  0
LINE
  5
1F0
330
1F
100
AcDbEntity
  8
1
  6
Continuous
 62
     3
100
AcDbLine
 10
-209.268370279396
 20
173.344692871224
 30
0.0
 11
-209.268370279396
 21
174.691380939765
 31
0.0
  0
LINE
  5
1F1
330
1F
100
AcDbEntity
  8
1
  6
Continuous
 62
     3
100
AcDbLine
 10
-209.8457205485857
 20
173.344692871224
 30
0.0
 11
-196.278733250478
 21
173.344692871224
 31
0.0
  0
LINE
  5
1F2
330
1F
100
AcDbEntity
  8
2
  6
Continuous
 62
     3
100
AcDbLine
 10
-209.8457205485857
 20
173.344692871224
 30
0.0
 11
-210.1343956831815
 21
173.8446928712258
 31
0.0
  0
LINE
  5
1F3
330
1F
100
AcDbEntity
  8
1
  6
Continuous
 62
     3
100
AcDbLine
 10
-196.8560835196676
 20
173.344692871224
 30
0.0
 11
-196.8560835196676
 21
174.691380939765
 31
0.0
  0
LINE
  5
1F4
330
1F
100
AcDbEntity
  8
2
  6
Continuous
 62
     3
100
AcDbLine
 10
-196.278733250478
 20
173.344692871224
 30
0.0
 11
-196.1343956831816
 21
173.594692871224
 31
0.0
  0
LINE
  5
1F5
330
1F
100
AcDbEntity
  8
1
  6
Continuous
 62
     3
100
AcDbLine
 10
-271.1638859089356
 20
101.924200401021
 30
0.0
 11
-277.7040637726101
 21
98.14822695088029
 31
0.0
  0
LINE
  5
1F6
330
1F
100
AcDbEntity
  8
1
  6
Continuous
 62
     3
100
AcDbLine
 10
-278.2219353500499
 20
97.84923365624002
 30
0.0
 11
-279.4705097718537
 21
97.12836887770834
 31
0.0
  0
LINE
  5
1F7
330
1F
100
AcDbEntity
  8
1
  6
Continuous
 62
     3
100
AcDbLine
 10
-280.8171978403946
 20
94.79583672104854
 30
0.0
 11
-280.8171978403946
 21
93.35410716398513
 31
0.0
  0
LINE
  5
1F8
330
1F
100
AcDbEntity
  8
1
  6
Continuous
 62
     3
100
AcDbLine
 10
-279.4705097718537
 20
82.87164151776335
 30
0.0
 11
-278.2219353500499
 21
82.15077673923162
 31
0.0
  0
LINE
  5
1F9
330
1F
100
AcDbEntity
  8
1
  6
Continuous
 62
     3
100
AcDbLine
 10
-280.8171978403946
 20
86.64590323148653
 30
0.0
 11
-280.8171978403946
 21
85.20417367442315
 31
0.0
  0
LINE
  5
1FA
330
1F
100
AcDbEntity
  8
1
  6
Continuous
 62
     3
100
AcDbLine
 10
-261.598946006095
 20
82.04310918436514
 30
0.0
 11
-260.1638859089357
 21
82.87164151776335
 31
0.0
  0
LINE
  5
1FB
330
1F
100
AcDbEntity
  8
1
  6
Continuous
 62
     3
100
AcDbLine
 10
-258.8171978403944
 20
85.20417367442315
 30
0.0
 11
-258.8171978403944
 21
86.64590323148741
 31
0.0
  0
LINE
  5
1FC
330
1F
100
AcDbEntity
  8
1
  6
Continuous
 62
     3
100
AcDbLine
 10
-258.8171978403944
 20
93.35410716398422
 30
0.0
 11
-258.8171978403944
 21
94.79583672104854
 31
0.0
  0
LINE
  5
1FD
330
1F
100
AcDbEntity
  8
1
  6
Continuous
 62
     3
100
AcDbLine
 10
-260.1638859089357
 20
97.12836887770834
 30
0.0
 11
-261.4124603307395
 21
97.84923365623999
 31
0.0
  0
LINE
  5
1FE
330
1F
100
AcDbEntity
  8
1
  6
Continuous
 62
     3
100
AcDbLine
 10
-261.930331908179
 20
98.14822695088037
 30
0.0
 11
-268.4705097718537
 21
101.924200401021
 31
0.0
  0
LINE
  5
1FF
330
1F
100
AcDbEntity
  8
0
  6
Continuous
 62
     3
100
AcDbLine
 10
-220.1343956831815
 20
79.795818462197
 30
0.0
 11
-220.1343956851784
 21
100.2041919318461
 31
0.0
  0
LINE
  5
200
330
1F
100
AcDbEntity
  8
4
  6
Continuous
 62
     3
100
AcDbLine
 10
-210.1343956831815
 20
71.5000051980199
 30
0.0
 11
-210.1343956831815
 21
100.50000519802
 31
0.0
  0
ARC
  5
201
330
1F
100
AcDbEntity
  8
1
  6
Continuous
 62
     3
100
AcDbCircle
 10
-191.1682658047535
 20
196.344692871225
 30
0.0
 40
1.599999999999994
100
AcDbArc
 50
90.00000000000306
 51
106.9376682837336
  0
ARC
  5
202
330
1F
100
AcDbEntity
  8
1
  6
Continuous
 62
     3
100
AcDbCircle
 10
-191.1682658047535
 20
172.344692871224
 30
0.0
 40
1.599999999999046
100
AcDbArc
 50
253.0623317162664
 51
270.0
  0
ARC
  5
203
330
1F
100
AcDbEntity
  8
1
  6
Continuous
 62
     3
100
AcDbCircle
 10
-177.5022878669963
 20
77.4892811684592
 30
0.0
 40
1.000000000000025
100
AcDbArc
 50
104.3769360128032
 51
134.7759943554674
  0
ARC
  5
204
330
1F
100
AcDbEntity
  8
1
  6
Continuous
 62
     3
100
AcDbCircle
 10
-166.4206948209079
 20
81.5325413077727
 30
0.0
 40
0.9999999999999136
100
AcDbArc
 50
274.1596487989927
 51
340.3821073267686
  0
ARC
  5
205
330
1F
100
AcDbEntity
  8
1
  6
Continuous
 62
     3
100
AcDbCircle
 10
-166.4698392197024
 20
98.6048148596112
 30
0.0
 40
0.9999999999999993
100
AcDbArc
 50
19.75743817096654
 51
74.93759639355618
  0
ARC
  5
206
330
1F
100
AcDbEntity
  8
1
  6
Continuous
 62
     3
100
AcDbCircle
 10
-280.4171978416392
 20
111.108575296594
 30
0.0
 40
1.599999999999742
100
AcDbArc
 50
315.3602270414194
 51
0.0
  0
ARC
  5
207
330
1F
100
AcDbEntity
  8
1
  6
Continuous
 62
     3
100
AcDbCircle
 10
-280.4171978416391
 20
117.571286490131
 30
0.0
 40
1.600000000000023
100
AcDbArc
 50
0.0
 51
30.00000000000209
  0
ARC
  5
208
330
1F
100
AcDbEntity
  8
1
  6
Continuous
 62
     3
100
AcDbCircle
 10
-259.2171978416391
 20
117.57128649013
 30
0.0
 40
1.599999999999795
100
AcDbArc
 50
149.9999999999959
 51
180.0
  0
ARC
  5
209
330
1F
100
AcDbEntity
  8
1
  6
Continuous
 62
     3
100
AcDbCircle
 10
-278.8171978416393
 20
109.031713079903
 30
0.0
 40
0.9999999999999819
100
AcDbArc
 50
134.994361127104
 51
180.0
  0
ARC
  5
20A
330
1F
100
AcDbEntity
  8
1
  6
Continuous
 62
     3
100
AcDbCircle
 10
-260.8171978416394
 20
109.085733287547
 30
0.0
 40
1.0
100
AcDbArc
 50
0.0
 51
45.00563887289141
  0
ARC
  5
20B
330
1F
100
AcDbEntity
  8
1
  6
Continuous
 62
     3
100
AcDbCircle
 10
-259.2171978416394
 20
111.162595504239
 30
0.0
 40
1.599999999999909
100
AcDbArc
 50
180.0
 51
224.6397729585806
  0
ARC
  5
20C
330
1F
100
AcDbEntity
  8
1
  6
Continuous
 62
     3
100
AcDbCircle
 10
-285.3171978416387
 20
59.8660306018045
 30
0.0
 40
0.5
100
AcDbArc
 50
180.0
 51
239.999999999999
  0
ARC
  5
20D
330
1F
100
AcDbEntity
  8
1
  6
Continuous
 62
     3
100
AcDbCircle
 10
-254.3171978416388
 20
59.8660306018045
 30
0.0
 40
0.4999999999999856
100
AcDbArc
 50
300.0000000000009
 51
0.0
  0
ARC
  5
20E
330
1F
100
AcDbEntity
  8
1
  6
Continuous
 62
     3
100
AcDbCircle
 10
-254.3171978416388
 20
77.4660800233168
 30
0.0
 40
0.5
100
AcDbArc
 50
0.0
 51
70.00000000000463
  0
ARC
  5
20F
330
1F
100
AcDbEntity
  8
1
  6
Continuous
 62
     3
100
AcDbCircle
 10
-285.3171978416387
 20
77.4660800233168
 30
0.0
 40
0.5000000000001067
100
AcDbArc
 50
110.0000000000199
 51
180.0
  0
ARC
  5
210
330
1F
100
AcDbEntity
  8
1
  6
Continuous
 62
     3
100
AcDbCircle
 10
-257.3171978416387
 20
81.7505240435432
 30
0.0
 40
2.500000000000137
100
AcDbArc
 50
198.1056750177526
 51
249.9999999999971
  0
ARC
  5
211
330
1F
100
AcDbEntity
  8
1
  6
Continuous
 62
     3
100
AcDbCircle
 10
-282.3171978416373
 20
81.7505240435438
 30
0.0
 40
2.500000000000043
100
AcDbArc
 50
290.0000000000003
 51
340.0711659511927
  0
ARC
  5
212
330
1F
100
AcDbEntity
  8
1
  6
Continuous
 62
     3
100
AcDbCircle
 10
-213.1343956831815
 20
195.344692871224
 30
0.0
 40
0.5
100
AcDbArc
 50
90.0
 51
180.0
  0
ARC
  5
213
330
1F
100
AcDbEntity
  8
1
  6
Continuous
 62
     3
100
AcDbCircle
 10
-210.6343956831815
 20
195.344692871224
 30
0.0
 40
0.5
100
AcDbArc
 50
0.0
 51
90.0
  0
ARC
  5
214
330
1F
100
AcDbEntity
  8
1
  6
Continuous
 62
     3
100
AcDbCircle
 10
-210.6343956831815
 20
173.344692871224
 30
0.0
 40
0.5
100
AcDbArc
 50
270.0
 51
0.0
  0
ARC
  5
215
330
1F
100
AcDbEntity
  8
1
  6
Continuous
 62
     3
100
AcDbCircle
 10
-213.1343956831815
 20
173.344692871224
 30
0.0
 40
0.5
100
AcDbArc
 50
180.0
 51
270.0
  0
ARC
  5
216
330
1F
100
AcDbEntity
  8
0
  6
Continuous
 62
     3
100
AcDbCircle
 10
-220.1343956831815
 20
191.048879607047
 30
0.0
 40
3.5
100
AcDbArc
 50
90.0
 51
180.0
  0
ARC
  5
217
330
1F
100
AcDbEntity
  8
0
  6
Continuous
 62
     3
100
AcDbCircle
 10
-220.1343956831815
 20
177.640506135401
 30
0.0
 40
3.5
100
AcDbArc
 50
180.0
 51
270.0
  0
ARC
  5
218
330
1F
100
AcDbEntity
  8
1
  6
Continuous
 62
     3
100
AcDbCircle
 10
-269.8171978432476
 20
90.0000052031856
 30
0.0
 40
13.59999999462542
100
AcDbArc
 50
180.0
 51
257.2564147850016
  0
ARC
  5
219
330
1F
100
AcDbEntity
  8
1
  6
Continuous
 62
     3
100
AcDbCircle
 10
-269.8171978432476
 20
90.0000052031856
 30
0.0
 40
13.59999999462541
100
AcDbArc
 50
282.7435852396442
 51
180.0
  0
ARC
  5
21A
330
1F
100
AcDbEntity
  8
1
  6
Continuous
 62
     3
100
AcDbCircle
 10
-273.8171978403946
 20
78.1572859154088
 30
0.0
 40
1.0
100
AcDbArc
 50
0.0
 51
71.33707511505486
  0
ARC
  5
21B
330
1F
100
AcDbEntity
  8
1
  6
Continuous
 62
     3
100
AcDbCircle
 10
-265.8171978403946
 20
78.1572859154088
 30
0.0
 40
0.9999999999999717
100
AcDbArc
 50
108.6629248849495
 51
180.0
  0
ARC
  5
21C
330
1F
100
AcDbEntity
  8
1
  6
Continuous
 62
     3
100
AcDbCircle
 10
-269.8171978403946
 20
90.0000051977358
 30
0.0
 40
11.49999999999982
100
AcDbArc
 50
134.0792098478884
 51
45.92079015211159
  0
ARC
  5
21D
330
1F
100
AcDbEntity
  8
1
  6
Continuous
 62
     3
100
AcDbCircle
 10
-270.8171978403946
 20
73.0000051977358
 30
0.0
 40
2.0
100
AcDbArc
 50
180.0
 51
270.0
  0
ARC
  5
21E
330
1F
100
AcDbEntity
  8
1
  6
Continuous
 62
     3
100
AcDbCircle
 10
-268.8171978403946
 20
73.0000051977358
 30
0.0
 40
2.0
100
AcDbArc
 50
270.0
 51
0.0
  0
ARC
  5
21F
330
1F
100
AcDbEntity
  8
0
  6
Continuous
 62
     3
100
AcDbCircle
 10
-152.0343956831815
 20
81.1203372591555
 30
0.0
 40
1.600000000000023
100
AcDbArc
 50
180.0
 51
249.999999999998
  0
ARC
  5
220
330
1F
100
AcDbEntity
  8
0
  6
Continuous
 62
     3
100
AcDbCircle
 10
-191.1682658047537
 20
78.00000519802
 30
0.0
 40
1.599999999999986
100
AcDbArc
 50
253.0623317162799
 51
270.0000000000041
  0
ARC
  5
221
330
1F
100
AcDbEntity
  8
0
  6
Continuous
 62
     3
100
AcDbCircle
 10
-174.2343956831814
 20
117.57128649013
 30
0.0
 40
1.599999999999994
100
AcDbArc
 50
0.0
 51
30.00000000000209
  0
ARC
  5
222
330
1F
100
AcDbEntity
  8
0
  6
Continuous
 62
     3
100
AcDbCircle
 10
-175.2343956748509
 20
105.200005189689
 30
0.0
 40
1.599999991668994
100
AcDbArc
 50
269.9999997876224
 51
0.00000018152062
  0
ARC
  5
223
330
1F
100
AcDbEntity
  8
0
  6
Continuous
 62
     3
100
AcDbCircle
 10
-191.1682658047537
 20
102.00000519802
 30
0.0
 40
1.599999999999994
100
AcDbArc
 50
89.99999999999594
 51
106.9376682837202
  0
ARC
  5
224
330
1F
100
AcDbEntity
  8
0
  6
Continuous
 62
     3
100
AcDbCircle
 10
-172.6343956831814
 20
109.085791635647
 30
0.0
 40
0.999999999999576
100
AcDbArc
 50
135.0000000000202
 51
180.0
  0
ARC
  5
225
330
1F
100
AcDbEntity
  8
0
  6
Continuous
 62
     3
100
AcDbCircle
 10
-153.0343956831814
 20
117.57128649013
 30
0.0
 40
1.599999999999918
100
AcDbArc
 50
149.9999999999984
 51
180.0
  0
ARC
  5
226
330
1F
100
AcDbEntity
  8
0
  6
Continuous
 62
     3
100
AcDbCircle
 10
-174.2343956831814
 20
111.162746897817
 30
0.0
 40
1.599999999999605
100
AcDbArc
 50
315.0000000000097
 51
0.0
  0
ARC
  5
227
330
1F
100
AcDbEntity
  8
0
  6
Continuous
 62
     3
100
AcDbCircle
 10
-153.0343956831814
 20
111.162746897817
 30
0.0
 40
1.599999999999994
100
AcDbArc
 50
180.0
 51
224.9999999999903
  0
ARC
  5
228
330
1F
100
AcDbEntity
  8
0
  6
Continuous
 62
     3
100
AcDbCircle
 10
-154.6343956831815
 20
109.085791635647
 30
0.0
 40
1.000000000000114
100
AcDbArc
 50
0.0
 51
44.99999999997524
  0
ARC
  5
229
330
1F
100
AcDbEntity
  8
3
  6
Continuous
 62
     3
100
AcDbCircle
 10
-177.0577894418403
 20
131.923055718132
 30
0.0
 40
7.923050520112014
100
AcDbArc
 50
235.61575253196
 51
304.3842474680411
  0
ARC
  5
22A
330
1F
100
AcDbEntity
  8
3
  6
Continuous
 62
     3
100
AcDbCircle
 10
-177.0577894418403
 20
134.076954677908
 30
0.0
 40
7.923050520112137
100
AcDbArc
 50
55.61575253195891
 51
124.3842474680399
  0
ARC
  5
22B
330
1F
100
AcDbEntity
  8
3
  6
Continuous
 62
     3
100
AcDbCircle
 10
-163.6343956831814
 20
153.615601037126
 30
0.0
 40
29.61559583910612
100
AcDbArc
 50
252.4120462260064
 51
287.5879537739936
  0
ARC
  5
22C
330
1F
100
AcDbEntity
  8
3
  6
Continuous
 62
     3
100
AcDbCircle
 10
-150.2110019245224
 20
131.923055718132
 30
0.0
 40
7.923050520112175
100
AcDbArc
 50
235.6157525319583
 51
304.3842474680387
  0
ARC
  5
22D
330
1F
100
AcDbEntity
  8
3
  6
Continuous
 62
     3
100
AcDbCircle
 10
-150.2110019245224
 20
134.076954677908
 30
0.0
 40
7.923050520111913
100
AcDbArc
 50
55.61575253196128
 51
124.3842474680416
  0
ARC
  5
22E
330
1F
100
AcDbEntity
  8
3
  6
Continuous
 62
     3
100
AcDbCircle
 10
-163.6343956831816
 20
112.384409358914
 30
0.0
 40
29.61559583910618
100
AcDbArc
 50
72.41204622600603
 51
107.5879537739932
  0
ARC
  5
22F
330
1F
100
AcDbEntity
  8
4
  6
Continuous
 62
     3
100
AcDbCircle
 10
-210.6343956831815
 20
97.7613610189491
 30
0.0
 40
0.5000000000000497
100
AcDbArc
 50
28.50844966366696
 51
90.0
  0
ARC
  5
230
330
1F
100
AcDbEntity
  8
4
  6
Continuous
 62
     3
100
AcDbCircle
 10
-213.1343956831815
 20
97.7613610189491
 30
0.0
 40
0.5
100
AcDbArc
 50
90.0
 51
151.4915503363368
  0
ARC
  5
231
330
1F
100
AcDbEntity
  8
4
  6
Continuous
 62
     3
100
AcDbCircle
 10
-213.1343956831815
 20
78.0000051980199
 30
0.0
 40
0.5
100
AcDbArc
 50
0.0
 51
90.0
  0
ARC
  5
232
330
1F
100
AcDbEntity
  8
4
  6
Continuous
 62
     3
100
AcDbCircle
 10
-210.6343956831815
 20
71.5000051980199
 30
0.0
 40
0.5
100
AcDbArc
 50
270.0
 51
0.0
  0
ARC
  5
233
330
1F
100
AcDbEntity
  8
4
  6
Continuous
 62
     3
100
AcDbCircle
 10
-212.1343956831815
 20
71.5000051980199
 30
0.0
 40
0.5
100
AcDbArc
 50
180.0
 51
270.0
  0
ARC
  5
234
330
1F
100
AcDbEntity
  8
4
  6
Continuous
 62
     3
100
AcDbCircle
 10
-213.1343956831815
 20
79.0000051980199
 30
0.0
 40
0.5
100
AcDbArc
 50
180.0
 51
270.0
  0
ARC
  5
235
330
1F
100
AcDbEntity
  8
0
  6
Continuous
 62
     3
100
AcDbCircle
 10
-220.1343956831815
 20
83.295818462197
 30
0.0
 40
3.5
100
AcDbArc
 50
180.0
 51
270.0
  0
ARC
  5
236
330
1F
100
AcDbEntity
  8
0
  6
Continuous
 62
     3
100
AcDbCircle
 10
-220.1343956831815
 20
96.704191933843
 30
0.0
 40
3.5
100
AcDbArc
 50
90.0
 51
180.0
  0
ARC
  5
237
330
1F
100
AcDbEntity
  8
1
  6
Continuous
 62
     3
100
AcDbCircle
 10
-211.4572198663247
 20
189.844692871224
 30
0.0
 40
15.18035515439841
100
AcDbArc
 50
344.1215297621905
 51
15.87847023780989
  0
ARC
  5
238
330
1F
100
AcDbEntity
  8
1
  6
Continuous
 62
     3
100
AcDbCircle
 10
-194.6795065472869
 20
189.844692871224
 30
0.0
 40
15.16855118309092
100
AcDbArc
 50
164.1088465795513
 51
195.8911534204483
  0
ARC
  5
239
330
1F
100
AcDbEntity
  8
1
  6
Continuous
 62
     3
100
AcDbCircle
 10
-211.4572198663247
 20
178.844692871224
 30
0.0
 40
15.18035515439841
100
AcDbArc
 50
344.1215297621905
 51
15.87847023780948
  0
ARC
  5
23A
330
1F
100
AcDbEntity
  8
1
  6
Continuous
 62
     3
100
AcDbCircle
 10
-194.6795065472869
 20
178.844692871224
 30
0.0
 40
15.16855118309089
100
AcDbArc
 50
164.1088465795517
 51
195.8911534204483
  0
ARC
  5
23B
330
1F
100
AcDbEntity
  8
1
  6
Continuous
 62
     3
100
AcDbCircle
 10
-269.8171978403946
 20
90.0000051977358
 30
0.0
 40
12.0
100
AcDbArc
 50
83.55646430910147
 51
96.4435356908988
  0
ARC
  5
23C
330
1F
100
AcDbEntity
  8
1
  6
Continuous
 62
     3
100
AcDbCircle
 10
-269.8171978403946
 20
90.0000051977358
 30
0.0
 40
12.00000000000008
100
AcDbArc
 50
143.5564643091011
 51
156.4435356908987
  0
ARC
  5
23D
330
1F
100
AcDbEntity
  8
1
  6
Continuous
 62
     3
100
AcDbCircle
 10
-269.8171978403946
 20
90.0000051977358
 30
0.0
 40
11.99999999999998
100
AcDbArc
 50
203.556464309101
 51
216.4435356908986
  0
ARC
  5
23E
330
1F
100
AcDbEntity
  8
1
  6
Continuous
 62
     3
100
AcDbCircle
 10
-269.8171978403946
 20
90.0000051977358
 30
0.0
 40
11.9999999999999
100
AcDbArc
 50
323.5564643091009
 51
336.4435356908995
  0
ARC
  5
23F
330
1F
100
AcDbEntity
  8
1
  6
Continuous
 62
     3
100
AcDbCircle
 10
-269.8171978403946
 20
90.0000051977358
 30
0.0
 40
12.00000000000022
100
AcDbArc
 50
23.5564643091009
 51
36.4435356908994
  0
CIRCLE
  5
240
330
1F
100
AcDbEntity
  8
1
  6
Continuous
 62
     3
100
AcDbCircle
 10
-163.6343956831814
 20
184.344692871224
 30
0.0
 40
8.750000000000199
  0
CIRCLE
  5
241
330
1F
100
AcDbEntity
  8
1
  6
Continuous
 62
     3
100
AcDbCircle
 10
-163.6343956831814
 20
184.344692871224
 30
0.0
 40
15.5000000000004
  0
CIRCLE
  5
242
330
1F
100
AcDbEntity
  8
1
  6
Continuous
 62
     3
100
AcDbCircle
 10
-163.6343956831814
 20
184.344692871224
 30
0.0
 40
11.65000000000001
  0
CIRCLE
  5
243
330
1F
100
AcDbEntity
  8
1
  6
Continuous
 62
     3
100
AcDbCircle
 10
-163.6343956831814
 20
184.344692871224
 30
0.0
 40
12.25
  0
CIRCLE
  5
244
330
1F
100
AcDbEntity
  8
1
  6
Continuous
 62
     3
100
AcDbCircle
 10
-163.6343956831814
 20
184.344692871224
 30
0.0
 40
6.5
  0
CIRCLE
  5
245
330
1F
100
AcDbEntity
  8
1
  6
Continuous
 62
     3
100
AcDbCircle
 10
-163.6343956831814
 20
184.344692871224
 30
0.0
 40
7.75
  0
CIRCLE
  5
246
330
1F
100
AcDbEntity
  8
1
  6
Continuous
 62
     3
100
AcDbCircle
 10
-163.6343956831814
 20
184.344692871224
 30
0.0
 40
13.22050000000002
  0
CIRCLE
  5
247
330
1F
100
AcDbEntity
  8
1
  6
Continuous
 62
     3
100
AcDbCircle
 10
-163.6343956831814
 20
184.344692871224
 30
0.0
 40
15.5000000000004
  0
CIRCLE
  5
248
330
1F
100
AcDbEntity
  8
1
  6
Continuous
 62
     3
100
AcDbCircle
 10
-269.8171978403946
 20
74.0000051977358
 30
0.0
 40
1.299999999999898
  0
CIRCLE
  5
249
330
1F
100
AcDbEntity
  8
1
  6
Continuous
 62
     3
100
AcDbCircle
 10
-269.8171978403946
 20
90.0000051977358
 30
0.0
 40
10.34999999999991
  0
CIRCLE
  5
24A
330
1F
100
AcDbEntity
  8
1
  6
Continuous
 62
     3
100
AcDbCircle
 10
-269.8171978403946
 20
90.0000051977358
 30
0.0
 40
11.0
  0
CIRCLE
  5
24B
330
1F
100
AcDbEntity
  8
1
  6
Continuous
 62
     3
100
AcDbCircle
 10
-269.8171978403946
 20
90.0000051977358
 30
0.0
 40
6.5
  0
SPLINE
  5
24C
330
1F
100
AcDbEntity
  8
1
  6
Continuous
 62
     3
100
AcDbSpline
210
0.0
220
0.0
230
1.0
 70
     8
 71
     3
 72
     9
 73
     5
 74
     3
 42
0.0000000001
 43
0.0000000001
 44
0.00000001
 40
0.0
 40
0.0
 40
0.0
 40
0.0
 40
7.87267901547497
 40
15.74535803094994
 40
15.74535803094994
 40
15.74535803094994
 40
15.74535803094994
 10
-269.8171978403946
 20
140.615601037126
 30
0.0
 10
-272.4005311737279
 20
141.3078031175729
 30
0.0
 10
-277.5671978403946
 20
142.6922072784666
 30
0.0
 10
-282.7338645070613
 20
141.3078031175729
 30
0.0
 10
-285.3171978403946
 20
140.615601037126
 30
0.0
 11
-269.8171978403946
 21
140.615601037126
 31
0.0
 11
-277.5671978403946
 21
142.0000051980197
 31
0.0
 11
-285.3171978403946
 21
140.615601037126
 31
0.0
  0
SPLINE
  5
24D
330
1F
100
AcDbEntity
  8
1
  6
Continuous
 62
     3
100
AcDbSpline
210
0.0
220
0.0
230
1.0
 70
     8
 71
     3
 72
     9
 73
     5
 74
     3
 42
0.0000000001
 43
0.0000000001
 44
0.00000001
 40
0.0
 40
0.0
 40
0.0
 40
0.0
 40
7.87267901547497
 40
15.74535803094994
 40
15.74535803094994
 40
15.74535803094994
 40
15.74535803094994
 10
-254.3171978403946
 20
140.615601037126
 30
0.0
 10
-256.9005311737279
 20
141.3078031175729
 30
0.0
 10
-262.0671978403946
 20
142.6922072784666
 30
0.0
 10
-267.2338645070613
 20
141.3078031175729
 30
0.0
 10
-269.8171978403946
 20
140.615601037126
 30
0.0
 11
-254.3171978403946
 21
140.615601037126
 31
0.0
 11
-262.0671978403946
 21
142.0000051980197
 31
0.0
 11
-269.8171978403946
 21
140.615601037126
 31
0.0
  0
SPLINE
  5
24E
330
1F
100
AcDbEntity
  8
1
  6
Continuous
 62
     3
100
AcDbSpline
210
0.0
220
0.0
230
1.0
 70
     8
 71
     3
 72
     9
 73
     5
 74
     3
 42
0.0000000001
 43
0.0000000001
 44
0.00000001
 40
0.0
 40
0.0
 40
0.0
 40
0.0
 40
7.87267901547497
 40
15.74535803094994
 40
15.74535803094994
 40
15.74535803094994
 40
15.74535803094994
 10
-269.8171978403946
 20
125.384409358914
 30
0.0
 10
-272.4005311737279
 20
124.6922072784671
 30
0.0
 10
-277.5671978403946
 20
123.3078031175734
 30
0.0
 10
-282.7338645070613
 20
124.6922072784671
 30
0.0
 10
-285.3171978403946
 20
125.384409358914
 30
0.0
 11
-269.8171978403946
 21
125.384409358914
 31
0.0
 11
-277.5671978403946
 21
124.0000051980202
 31
0.0
 11
-285.3171978403946
 21
125.384409358914
 31
0.0
  0
SPLINE
  5
24F
330
1F
100
AcDbEntity
  8
1
  6
Continuous
 62
     3
100
AcDbSpline
210
0.0
220
0.0
230
1.0
 70
     8
 71
     3
 72
     9
 73
     5
 74
     3
 42
0.0000000001
 43
0.0000000001
 44
0.00000001
 40
0.0
 40
0.0
 40
0.0
 40
0.0
 40
7.87267901547497
 40
15.74535803094994
 40
15.74535803094994
 40
15.74535803094994
 40
15.74535803094994
 10
-254.3171978403946
 20
125.384409358914
 30
0.0
 10
-256.9005311737279
 20
124.6922072784671
 30
0.0
 10
-262.0671978403946
 20
123.3078031175734
 30
0.0
 10
-267.2338645070613
 20
124.6922072784671
 30
0.0
 10
-269.8171978403946
 20
125.384409358914
 30
0.0
 11
-254.3171978403946
 21
125.384409358914
 31
0.0
 11
-262.0671978403946
 21
124.0000051980202
 31
0.0
 11
-269.8171978403946
 21
125.384409358914
 31
0.0
  0
SPLINE
  5
250
330
1F
100
AcDbEntity
  8
0
  6
Continuous
 62
     3
100
AcDbSpline
210
0.0
220
0.0
230
1.0
 70
     8
 71
     3
 72
    11
 73
     7
 74
     5
 42
0.0000000001
 43
0.0000000001
 44
0.00000001
 40
0.0
 40
0.0
 40
0.0
 40
0.0
 40
1.400678983576577
 40
2.801357967153169
 40
4.202037205062397
 40
5.602716442971676
 40
5.602716442971676
 40
5.602716442971676
 40
5.602716442971676
 10
-219.4363651599473
 20
177.73980224199
 30
0.0
 10
-218.9695343960673
 20
177.7321794975847
 30
0.0
 10
-218.0358728683072
 20
177.7169340087742
 30
0.0
 10
-216.6353805292038
 20
177.6940634897712
 30
0.0
 10
-215.2348881300908
 20
177.6711914534441
 30
0.0
 10
-214.301226498818
 20
177.6559419192334
 30
0.0
 10
-213.8343956831815
 20
177.648317152128
 30
0.0
 11
-219.4363651599473
 21
177.73980224199
 31
0.0
 11
-218.0358728745244
 21
177.7169336280404
 31
0.0
 11
-216.6353806180961
 21
177.6940632384989
 31
0.0
 11
-215.2348881362525
 21
177.6711910761767
 31
0.0
 11
-213.8343956831815
 21
177.648317152128
 31
0.0
  0
SPLINE
  5
251
330
1F
100
AcDbEntity
  8
0
  6
Continuous
 62
     3
100
AcDbSpline
210
0.0
220
0.0
230
1.0
 70
     8
 71
     3
 72
    11
 73
     7
 74
     5
 42
0.0000000001
 43
0.0000000001
 44
0.00000001
 40
0.0
 40
0.0
 40
0.0
 40
0.0
 40
1.400492280308118
 40
2.800984560616186
 40
4.201477022426461
 40
5.601969484236751
 40
5.601969484236751
 40
5.601969484236751
 40
5.601969484236751
 10
-219.4363651599473
 20
188.553926510386
 30
0.0
 10
-218.9695344008484
 20
188.5539571775522
 30
0.0
 10
-218.0358728826509
 20
188.5540185118849
 30
0.0
 10
-216.6353805438933
 20
188.5540947391689
 30
0.0
 10
-215.2348881441047
 20
188.554160498499
 30
0.0
 10
-214.3012265034893
 20
188.5541939176597
 30
0.0
 10
-213.8343956831816
 20
188.55421062724
 30
0.0
 11
-219.4363651599473
 21
188.553926510386
 31
0.0
 11
-218.0358728824908
 21
188.5540158828485
 31
0.0
 11
-216.6353806043057
 21
188.5540929945064
 31
0.0
 11
-215.2348881439991
 21
188.5541578934004
 31
0.0
 11
-213.8343956831816
 21
188.55421062724
 31
0.0
  0
SPLINE
  5
252
330
1F
100
AcDbEntity
  8
0
  6
Continuous
 62
     3
100
AcDbSpline
210
0.0
220
0.0
230
1.0
 70
     8
 71
     3
 72
    11
 73
     7
 74
     5
 42
0.0000000001
 43
0.0000000001
 44
0.00000001
 40
0.0
 40
0.0
 40
0.0
 40
0.0
 40
1.400492468968751
 40
2.800984937937546
 40
4.201477211087266
 40
5.60196948423695
 40
5.60196948423695
 40
5.60196948423695
 40
5.60196948423695
 10
-213.8343956831814
 20
180.135175115208
 30
0.0
 10
-214.3012265058753
 20
180.1351918247884
 30
0.0
 10
-215.234888151263
 20
180.1352252439492
 30
0.0
 10
-216.6353805534377
 20
180.1352910032801
 30
0.0
 10
-218.0358728898094
 20
180.1353672305643
 30
0.0
 10
-218.9695344032346
 20
180.1354285648961
 30
0.0
 10
-219.4363651599473
 20
180.135459232062
 30
0.0
 11
-213.8343956831814
 21
180.135175115208
 31
0.0
 11
-215.2348881511573
 21
180.135227849048
 31
0.0
 11
-216.6353806186224
 21
180.1352927479429
 31
0.0
 11
-218.0358728896493
 21
180.1353698596005
 31
0.0
 11
-219.4363651599473
 21
180.135459232062
 31
0.0
  0
SPLINE
  5
253
330
1F
100
AcDbEntity
  8
0
  6
Continuous
 62
     3
100
AcDbSpline
210
0.0
220
0.0
230
1.0
 70
     8
 71
     3
 72
    11
 73
     7
 74
     5
 42
0.0000000001
 43
0.0000000001
 44
0.00000001
 40
0.0
 40
0.0
 40
0.0
 40
0.0
 40
1.400678983499563
 40
2.801357966999116
 40
4.202037204908379
 40
5.602716442817622
 40
5.602716442817622
 40
5.602716442817622
 40
5.602716442817622
 10
-219.4363651597929
 20
190.949583500432
 30
0.0
 10
-218.9695343959387
 20
190.9572062448473
 30
0.0
 10
-218.0358728682303
 20
190.9724517336779
 30
0.0
 10
-216.6353805291783
 20
190.9953222526766
 30
0.0
 10
-215.2348881300909
 20
191.0181942890048
 30
0.0
 10
-214.301226498818
 20
191.0334438232149
 30
0.0
 10
-213.8343956831816
 20
191.04106859032
 30
0.0
 11
-219.4363651597929
 21
190.949583500432
 31
0.0
 11
-218.0358728744474
 21
190.9724521144059
 31
0.0
 11
-216.6353806180963
 21
190.9953225039493
 31
0.0
 11
-215.2348881362526
 21
191.0181946662718
 31
0.0
 11
-213.8343956831816
 21
191.04106859032
 31
0.0
  0
SPLINE
  5
254
330
1F
100
AcDbEntity
  8
0
  6
Continuous
 62
     3
100
AcDbSpline
210
0.0
220
0.0
230
1.0
 70
     8
 71
     3
 72
    11
 73
     7
 74
     5
 42
0.0000000001
 43
0.0000000001
 44
0.00000001
 40
0.0
 40
0.0
 40
0.0
 40
0.0
 40
2.53594620345313
 40
5.071892411043235
 40
7.614442186241803
 40
10.15699196728527
 40
10.15699196728527
 40
10.15699196728527
 40
10.15699196728527
 10
-275.7249532138231
 20
77.750171466619
 30
0.0
 10
-276.5700018250817
 20
77.78504114079524
 30
0.0
 10
-278.2600990489775
 20
77.85478048920461
 30
0.0
 10
-280.7975465720438
 20
77.70981483700588
 30
0.0
 10
-283.3215055379546
 20
77.40514466975543
 30
0.0
 10
-284.9853004064398
 20
77.07856924558325
 30
0.0
 10
-285.8171978416387
 20
76.9152815333095
 30
0.0
 11
-275.7249532138231
 21
77.750171466619
 31
0.0
 11
-278.2601158983138
 21
77.81320566348155
 31
0.0
 11
-280.7927390583875
 21
77.68342470629204
 31
0.0
 11
-283.3164299273816
 21
77.37432317423806
 31
0.0
 11
-285.8171978416387
 21
76.9152815333095
 31
0.0
  0
SPLINE
  5
255
330
1F
100
AcDbEntity
  8
0
  6
Continuous
 62
     3
100
AcDbSpline
210
0.0
220
0.0
230
1.0
 70
     8
 71
     3
 72
    11
 73
     7
 74
     5
 42
0.0000000001
 43
0.0000000001
 44
0.00000001
 40
0.0
 40
0.0
 40
0.0
 40
0.0
 40
4.076696655598925
 40
8.153393121605905
 40
12.23042135250175
 40
16.30744977316305
 40
16.30744977316305
 40
16.30744977316305
 40
16.30744977316305
 10
-269.8171978416394
 20
61.0064178268426
 30
0.0
 10
-268.513112967138
 20
60.61549837418528
 30
0.0
 10
-265.9049432787834
 20
59.83365948705087
 30
0.0
 10
-261.8174227216978
 20
59.44922523891054
 30
0.0
 10
-257.7297748566551
 20
59.83357237796194
 30
0.0
 10
-255.1213902003531
 20
60.61546933776968
 30
0.0
 10
-253.8171978418503
 20
61.0064178267719
 30
0.0
 11
-269.8171978416394
 21
61.0064178268426
 31
0.0
 11
-265.8757506872237
 21
59.96504855961824
 31
0.0
 11
-261.8175308627044
 21
59.57735546987753
 31
0.0
 11
-257.758971883994
 21
59.96498701122908
 31
0.0
 11
-253.8171978418503
 21
61.0064178267719
 31
0.0
  0
SPLINE
  5
256
330
1F
100
AcDbEntity
  8
0
  6
Continuous
 62
     3
100
AcDbSpline
210
0.0
220
0.0
230
1.0
 70
     8
 71
     3
 72
    11
 73
     7
 74
     5
 42
0.0000000001
 43
0.0000000001
 44
0.00000001
 40
0.0
 40
0.0
 40
0.0
 40
0.0
 40
4.077028420772173
 40
8.154056651778816
 40
12.2307531177851
 40
16.30744977338329
 40
16.30744977338329
 40
16.30744977338329
 40
16.30744977338329
 10
-285.8171978416386
 20
61.0064178268424
 30
0.0
 10
-284.5130054831021
 20
60.61546933782378
 30
0.0
 10
-281.904620826733
 20
59.83357237798328
 30
0.0
 10
-277.8169729616169
 20
59.44922523890519
 30
0.0
 10
-273.7294524044945
 20
59.83365948705109
 30
0.0
 10
-271.1212827161406
 20
60.61549837418537
 30
0.0
 10
-269.8171978416394
 20
61.0064178268426
 30
0.0
 11
-285.8171978416386
 21
61.0064178268424
 31
0.0
 11
-281.8754237993924
 21
59.96498701125357
 31
0.0
 11
-277.816864820573
 21
59.57735546987756
 31
0.0
 11
-273.7586449960544
 21
59.96504855961809
 31
0.0
 11
-269.8171978416394
 21
61.0064178268426
 31
0.0
  0
SPLINE
  5
257
330
1F
100
AcDbEntity
  8
0
  6
Continuous
 62
     3
100
AcDbSpline
210
0.0
220
0.0
230
1.0
 70
     8
 71
     3
 72
    11
 73
     7
 74
     5
 42
0.0000000001
 43
0.0000000001
 44
0.00000001
 40
0.0
 40
0.0
 40
0.0
 40
0.0
 40
2.542787430909267
 40
5.085574855971993
 40
7.621283455352922
 40
10.15699205060035
 40
10.15699205060035
 40
10.15699205060035
 40
10.15699205060035
 10
-253.8171978414874
 20
76.9152815332704
 30
0.0
 10
-254.6491732720824
 20
77.07858348900142
 30
0.0
 10
-256.3131241313595
 20
77.40518740008793
 30
0.0
 10
-258.8371653657034
 20
77.70984351751596
 30
0.0
 10
-261.3745346162975
 20
77.85477585533442
 30
0.0
 10
-263.0644731845246
 20
77.78503959623472
 30
0.0
 10
-263.9094424679493
 20
77.7501714667133
 30
0.0
 11
-253.8171978414874
 21
76.9152815332704
 31
0.0
 11
-256.3182006890701
 21
77.37435960416198
 31
0.0
 11
-258.8421303264988
 21
77.68346650212109
 31
0.0
 11
-261.3745175445392
 21
77.81320885788794
 31
0.0
 11
-263.9094424679493
 21
77.7501714667133
 31
0.0
  0
SPLINE
  5
258
330
1F
100
AcDbEntity
  8
0
  6
Continuous
 62
     3
100
AcDbSpline
210
0.0
220
0.0
230
1.0
 70
     8
 71
     3
 72
    27
 73
    23
 74
    21
 42
0.0000000001
 43
0.0000000001
 44
0.00000001
 40
0.0
 40
0.0
 40
0.0
 40
0.0
 40
0.1603173232258427
 40
0.3206346802840118
 40
0.3657815181978901
 40
0.4109255734031615
 40
0.456066036472847
 40
0.501206020199432
 40
0.5360888086126468
 40
0.5709707109011153
 40
0.605849525683653
 40
0.6407287062324788
 40
0.6761269832988488
 40
0.7115248852929531
 40
0.7469275334155858
 40
0.7823315000204218
 40
0.8269279362136855
 40
0.8715235381173856
 40
0.916119876879588
 40
0.9607239689680376
 40
1.121292951031391
 40
1.281861910729702
 40
1.281861910729702
 40
1.281861910729702
 40
1.281861910729702
 10
-145.8138869336378
 20
60.6284226517568
 30
0.0
 10
-145.7684451007561
 20
60.6566431881168
 30
0.0
 10
-145.6775614254029
 20
60.71308426679222
 30
0.0
 10
-145.5839040537278
 20
60.79185130181355
 30
0.0
 10
-145.523650053185
 20
60.84970147256708
 30
0.0
 10
-145.4921463591229
 20
60.88205139956747
 30
0.0
 10
-145.4617237114131
 20
60.91541107873259
 30
0.0
 10
-145.434651609647
 20
60.9471672555897
 30
0.0
 10
-145.4106845969051
 20
60.97704880213464
 30
0.0
 10
-145.389583546639
 20
61.00482886860306
 30
0.0
 10
-145.3692318575698
 20
61.03316103633934
 30
0.0
 10
-145.3495555431784
 20
61.06217470648399
 30
0.0
 10
-145.3305918649099
 20
61.09186496407929
 30
0.0
 10
-145.3123800548843
 20
61.12222603562911
 30
0.0
 10
-145.2950396592111
 20
61.15309557574523
 30
0.0
 10
-145.2771754516028
 20
61.18716933888935
 30
0.0
 10
-145.2591153050345
 20
61.22458071468586
 30
0.0
 10
-145.2412542826879
 20
61.26545341922078
 30
0.0
 10
-145.2249587005248
 20
61.30698769544222
 30
0.0
 10
-145.1977363342432
 20
61.38564580399058
 30
0.0
 10
-145.1670456486431
 20
61.50449922120222
 30
0.0
 10
-145.1618065955018
 20
61.6116421990844
 30
0.0
 10
-145.1591870691136
 20
61.6652136842946
 30
0.0
 11
-145.8138869336378
 21
60.6284226517568
 31
0.0
 11
-145.6797579419843
 21
60.71623528025821
 31
0.0
 11
-145.5563684026566
 21
60.81859091790758
 31
0.0
 11
-145.5238257693048
 21
60.84988331296058
 31
0.0
 11
-145.492325449527
 21
60.88222083875142
 31
0.0
 11
-145.461912115701
 21
60.91557785498087
 31
0.0
 11
-145.4326294233454
 21
60.94993105074552
 31
0.0
 11
-145.4108053642915
 21
60.97714353637058
 31
0.0
 11
-145.3897077087824
 21
61.00492187396086
 31
0.0
 11
-145.3693605898106
 21
61.03325077210717
 31
0.0
 11
-145.3497853222606
 21
61.06211885372166
 31
0.0
 11
-145.3307327606554
 21
61.09195235696126
 31
0.0
 11
-145.3125262425814
 21
61.12230913816757
 31
0.0
 11
-145.2951898942724
 21
61.15317657280998
 31
0.0
 11
-145.2787527408123
 21
61.18453356305913
 31
0.0
 11
-145.259370447486
 21
61.22469783607075
 31
0.0
 11
-145.241515437942
 21
61.26556305775543
 31
0.0
 11
-145.2252451306519
 21
61.30708546774906
 31
0.0
 11
-145.2106185089494
 21
61.34922318207489
 31
0.0
 11
-145.1724728345276
 21
61.50519531267445
 31
0.0
 11
-145.1591870691136
 21
61.6652136842946
 31
0.0
  0
SPLINE
  5
259
330
1F
100
AcDbEntity
  8
0
  6
Continuous
 62
     3
100
AcDbSpline
210
0.0
220
0.0
230
1.0
 70
     8
 71
     3
 72
    27
 73
    23
 74
    21
 42
0.0000000001
 43
0.0000000001
 44
0.00000001
 40
0.0
 40
0.0
 40
0.0
 40
0.0
 40
0.1603173153720861
 40
0.3206346621348558
 40
0.3609584299963647
 40
0.4012793321296682
 40
0.4415993304126428
 40
0.4819200478188495
 40
0.5216220393847675
 40
0.56132374128697
 40
0.601026367662199
 40
0.6407291768040316
 40
0.6812046327222574
 40
0.7216800433962339
 40
0.7621557942778395
 40
0.802631921017721
 40
0.8421570791144811
 40
0.8816802420794754
 40
0.9211991473534271
 40
0.9607252494533332
 40
1.121294273708561
 40
1.281863502958151
 40
1.281863502958151
 40
1.281863502958151
 40
1.281863502958151
 10
-181.4549044380048
 20
60.6284226335502
 30
0.0
 10
-181.5003464715338
 20
60.65664257860242
 30
0.0
 10
-181.5912305474897
 20
60.71308247423244
 30
0.0
 10
-181.6836501533093
 20
60.79081838109698
 30
0.0
 10
-181.7416773188701
 20
60.84634377408982
 30
0.0
 10
-181.7699665301992
 20
60.87508805129752
 30
0.0
 10
-181.7974013442418
 20
60.90464286022818
 30
0.0
 10
-181.823809409028
 20
60.93484656198547
 30
0.0
 10
-181.8491753922574
 20
60.96566358937029
 30
0.0
 10
-181.8734824718193
 20
60.99706264084254
 30
0.0
 10
-181.8968281774646
 20
61.02918342706988
 30
0.0
 10
-181.9193229405077
 20
61.06221851468709
 30
0.0
 10
-181.9409077162964
 20
61.09616153392743
 30
0.0
 10
-181.9615200728554
 20
61.13100366118209
 30
0.0
 10
-181.9809822936279
 20
61.16650162741906
 30
0.0
 10
-181.9991100037331
 20
61.20234476483176
 30
0.0
 10
-182.0158957926516
 20
61.23848617167135
 30
0.0
 10
-182.0313287911584
 20
61.27487741888828
 30
0.0
 10
-182.0455216693857
 20
61.31177798451712
 30
0.0
 10
-182.0714718778883
 20
61.38729415034757
 30
0.0
 10
-182.1017522636658
 20
61.50449931905791
 30
0.0
 10
-182.1069869516077
 20
61.61164220641735
 30
0.0
 10
-182.1096042972495
 20
61.6652136842937
 30
0.0
 11
-181.4549044380048
 21
60.6284226335502
 31
0.0
 11
-181.5890333024304
 21
60.7162354420466
 31
0.0
 11
-181.7124229725902
 21
60.8185909058524
 31
0.0
 11
-181.7415378556778
 21
60.84648946920862
 31
0.0
 11
-181.7698244580522
 21
60.87522347823904
 31
0.0
 11
-181.7972526952557
 21
60.90477671943941
 31
0.0
 11
-181.8237913736161
 21
60.93513225934618
 31
0.0
 11
-181.8490207953684
 21
60.96578718411116
 31
0.0
 11
-181.8733220309589
 21
60.99718264688378
 31
0.0
 11
-181.896662119019
 21
61.02930022509943
 31
0.0
 11
-181.9190060512996
 21
61.06211884396113
 31
0.0
 11
-181.940722608428
 21
61.09627515638326
 31
0.0
 11
-181.9613283093013
 21
61.13111283656934
 31
0.0
 11
-181.9807836460553
 21
61.16660616384673
 31
0.0
 11
-181.9990477329334
 21
61.20272734830088
 31
0.0
 11
-182.0156929935886
 21
61.23857666377964
 31
0.0
 11
-182.0311226247243
 21
61.27496356930585
 31
0.0
 11
-182.0452955266925
 21
61.31185357776141
 31
0.0
 11
-182.0581728600662
 21
61.34922317813919
 31
0.0
 11
-182.0963204545933
 21
61.50519488256686
 31
0.0
 11
-182.1096042972495
 21
61.6652136842937
 31
0.0
  0
SPLINE
  5
25A
330
1F
100
AcDbEntity
  8
0
  6
Continuous
 62
     3
100
AcDbSpline
210
0.0
220
0.0
230
1.0
 70
     8
 71
     3
 72
    27
 73
    23
 74
    21
 42
0.0000000001
 43
0.0000000001
 44
0.00000001
 40
0.0
 40
0.0
 40
0.0
 40
0.0
 40
0.1757197017869976
 40
0.3514393132056839
 40
0.4017963208533276
 40
0.4521495457889397
 40
0.5025042580422477
 40
0.5528577933685669
 40
0.590409660675849
 40
0.6279601650769907
 40
0.6655038439421572
 40
0.7030481009490102
 40
0.7413466136002391
 40
0.7796445544285008
 40
0.8179527679758143
 40
0.856263047100264
 40
0.9062488232964303
 40
0.9562339518598079
 40
1.00621055337281
 40
1.056198381537297
 40
1.232521381677548
 40
1.408844895983375
 40
1.408844895983375
 40
1.408844895983375
 40
1.408844895983375
 10
-145.971867442265
 20
77.2110729857053
 30
0.0
 10
-145.9175312852372
 20
77.18899861280423
 30
0.0
 10
-145.8088589991254
 20
77.14484987835436
 30
0.0
 10
-145.6941563772885
 20
77.07445240326321
 30
0.0
 10
-145.6195345620544
 20
77.02041211218257
 30
0.0
 10
-145.579933599802
 20
76.98928086638824
 30
0.0
 10
-145.5415667320834
 20
76.95665241015838
 30
0.0
 10
-145.5076531542722
 20
76.92542649504101
 30
0.0
 10
-145.4778911281589
 20
76.89604102429232
 30
0.0
 10
-145.4519750183521
 20
76.86886200591726
 30
0.0
 10
-145.4269013106808
 20
76.84090734796737
 30
0.0
 10
-145.4025416840302
 20
76.8120011968118
 30
0.0
 10
-145.3789513116572
 20
76.78214215858944
 30
0.0
 10
-145.3561886342257
 20
76.75133003920743
 30
0.0
 10
-145.3344490528012
 20
76.71978245260274
 30
0.0
 10
-145.3116738478003
 20
76.6842455656379
 30
0.0
 10
-145.2883309257344
 20
76.64448013327623
 30
0.0
 10
-145.2649968624455
 20
76.60026265655026
 30
0.0
 10
-145.2436993713968
 20
76.55501234262748
 30
0.0
 10
-145.2086098857004
 20
76.46989636203531
 30
0.0
 10
-145.1691872947256
 20
76.34027787412832
 30
0.0
 10
-145.1625204808908
 20
76.22257896778308
 30
0.0
 10
-145.1591870691133
 20
76.1637294288068
 30
0.0
 11
-145.971867442265
 21
77.2110729857053
 31
0.0
 11
-145.8109452992834
 21
77.14049340300366
 31
0.0
 11
-145.660489084278
 21
77.04971725413536
 31
0.0
 11
-145.61973002111
 21
77.0201448516477
 31
0.0
 11
-145.5801395149276
 21
76.98903152521613
 31
0.0
 11
-145.5417853175253
 21
76.95640404312292
 31
0.0
 11
-145.5047454534117
 21
76.92229353174736
 31
0.0
 11
-145.4780253222934
 21
76.89590835918231
 31
0.0
 11
-145.4521135855639
 21
76.86873075295146
 31
0.0
 11
-145.4270472255074
 21
76.84078070078245
 31
0.0
 11
-145.4028553686681
 21
76.81206963502616
 31
0.0
 11
-145.3791154463065
 21
76.78201647949197
 31
0.0
 11
-145.3563615172082
 21
76.75121078225469
 31
0.0
 11
-145.334627273908
 21
76.71966491258281
 31
0.0
 11
-145.3139584474644
 21
76.68740848531571
 31
0.0
 11
-145.2886605440215
 21
76.64429707263503
 31
0.0
 11
-145.2653350595889
 21
76.60008808199416
 31
0.0
 11
-145.2440764349712
 21
76.55485831769947
 31
0.0
 11
-145.2249761163317
 21
76.50866350421929
 31
0.0
 11
-145.1761526714159
 21
76.33923484193035
 31
0.0
 11
-145.1591870691133
 21
76.1637294288068
 31
0.0
  0
SPLINE
  5
25B
330
1F
100
AcDbEntity
  8
0
  6
Continuous
 62
     3
100
AcDbSpline
210
0.0
220
0.0
230
1.0
 70
     8
 71
     3
 72
    27
 73
    23
 74
    21
 42
0.0000000001
 43
0.0000000001
 44
0.00000001
 40
0.0
 40
0.0
 40
0.0
 40
0.0
 40
0.3365065981783121
 40
0.6730156950903867
 40
0.7411107110503443
 40
0.8091806075396423
 40
0.8772428743741298
 40
0.9453168655210563
 40
1.045995575660653
 40
1.146689583583885
 40
1.247434768267262
 40
1.348169889917415
 40
1.431362429115687
 40
1.514551170847435
 40
1.597708825792578
 40
1.680868547291734
 40
1.766039961749243
 40
1.851208849500821
 40
1.936370717805203
 40
2.02154288865242
 40
2.358711665333231
 40
2.695880861089865
 40
2.695880861089865
 40
2.695880861089865
 40
2.695880861089865
 10
-182.1096042972493
 20
74.8210720756947
 30
0.0
 10
-182.1175398498742
 20
74.9334906155637
 30
0.0
 10
-182.1334110140495
 20
75.15832853006688
 30
0.0
 10
-182.2263923826197
 20
75.39160104786508
 30
0.0
 10
-182.3020590721017
 20
75.52970442184
 30
0.0
 10
-182.3375980499817
 20
75.58781524337003
 30
0.0
 10
-182.3756962335878
 20
75.64424563424758
 30
0.0
 10
-182.4227501648042
 20
75.70765811235756
 30
0.0
 10
-182.4801328081411
 20
75.77683536972063
 30
0.0
 10
-182.5491788151154
 20
75.85023092171309
 30
0.0
 10
-182.6225488156207
 20
75.91932767311755
 30
0.0
 10
-182.6953929729264
 20
75.9802258817634
 30
0.0
 10
-182.7666502421416
 20
76.0336671444323
 30
0.0
 10
-182.8354728347434
 20
76.08043519101112
 30
0.0
 10
-182.9063418103967
 20
76.12401600605058
 30
0.0
 10
-182.9796530252843
 20
76.16472628437296
 30
0.0
 10
-183.0552824193096
 20
76.20247839774437
 30
0.0
 10
-183.1330900457149
 20
76.23716850285433
 30
0.0
 10
-183.2123097245791
 20
76.26853649038192
 30
0.0
 10
-183.3721089966501
 20
76.32397375873416
 30
0.0
 10
-183.6196639700932
 20
76.3851040904123
 30
0.0
 10
-183.8446380491974
 20
76.39503816009287
 30
0.0
 10
-183.9571251586559
 20
76.40000519802
 30
0.0
 11
-182.1096042972493
 21
74.8210720756947
 31
0.0
 11
-182.1505525415779
 21
75.15507796172659
 31
0.0
 11
-182.269757455525
 21
75.46976599898801
 31
0.0
 11
-182.3025376225751
 21
75.52945177490447
 31
0.0
 11
-182.3380265530712
 21
75.58753831913208
 31
0.0
 11
-182.376106728548
 21
75.64395083903953
 31
0.0
 11
-182.4166636315691
 21
75.69862446968546
 31
0.0
 11
-182.480913537089
 21
75.77613674172068
 31
0.0
 11
-182.5498852341185
 21
75.84950014022778
 31
0.0
 11
-182.6232101853857
 21
75.91858735871682
 31
0.0
 11
-182.7004820292926
 21
75.98321418652921
 31
0.0
 11
-182.7670270509581
 21
76.0331417207143
 31
0.0
 11
-182.8358241273676
 21
76.07991061025005
 31
0.0
 11
-182.9066518903618
 21
76.1234838080351
 31
0.0
 11
-182.9793472735394
 21
76.16386846532575
 31
0.0
 11
-183.0555466745454
 21
76.20191871009533
 31
0.0
 11
-183.1333275001591
 21
76.23661572160472
 31
0.0
 11
-183.2125117479703
 21
76.2679589618915
 31
0.0
 11
-183.2929519867708
 21
76.29595300891114
 31
0.0
 11
-183.6209588693005
 21
76.37401880796283
 31
0.0
 11
-183.9571251586559
 21
76.40000519802
 31
0.0
  0
SPLINE
  5
25C
330
1F
100
AcDbEntity
  8
0
  6
Continuous
 62
     3
100
AcDbSpline
210
0.0
220
0.0
230
1.0
 70
     8
 71
     3
 72
    27
 73
    23
 74
    21
 42
0.0000000001
 43
0.0000000001
 44
0.00000001
 40
0.0
 40
0.0
 40
0.0
 40
0.0
 40
2.155455247154482
 40
4.310910494830162
 40
4.944036904778193
 40
5.577173953909196
 40
6.210291114510852
 40
6.843391908427114
 40
7.425416557730177
 40
8.007446985007617
 40
8.589434793590533
 40
9.17140983770303
 40
9.753336867912788
 40
10.33527666552511
 40
10.91725881479685
 40
11.49923509300497
 40
12.13165429437304
 40
12.7640898000627
 40
13.39654436082639
 40
14.02898871904976
 40
16.12755335012724
 40
18.22611798108634
 40
18.22611798108634
 40
18.22611798108634
 40
18.22611798108634
 10
-165.5287070809191
 20
98.9428537587769
 30
0.0
 10
-165.2925228372118
 20
98.26421107542075
 30
0.0
 10
-164.82015434974
 20
96.90692570854432
 30
0.0
 10
-164.3732511823937
 20
95.31902561421242
 30
0.0
 10
-164.11579580146
 20
94.20782609385009
 30
0.0
 10
-163.9883166028009
 20
93.58758572240683
 30
0.0
 10
-163.8777654119631
 20
92.96410949853777
 30
0.0
 10
-163.7883744924863
 20
92.35444399536573
 30
0.0
 10
-163.7199913148991
 20
91.75921547854507
 30
0.0
 10
-163.6714899367606
 20
91.17912869239859
 30
0.0
 10
-163.641611884478
 20
90.59779542211749
 30
0.0
 10
-163.6310630372832
 20
90.01581506092332
 30
0.0
 10
-163.6405535024294
 20
89.43383242233367
 30
0.0
 10
-163.669385926354
 20
88.85249428590946
 30
0.0
 10
-163.7168714109488
 20
88.27237145925353
 30
0.0
 10
-163.7842329336245
 20
87.67728699296691
 30
0.0
 10
-163.8725961689966
 20
87.06794665217585
 30
0.0
 10
-163.9821040931391
 20
86.44497825925313
 30
0.0
 10
-164.1085871164115
 20
85.82522942094218
 30
0.0
 10
-164.3602748531116
 20
84.73262816358849
 30
0.0
 10
-164.7937308416491
 20
83.18066782443674
 30
0.0
 10
-165.2504050611566
 20
81.85808631678262
 30
0.0
 10
-165.4787421709039
 20
81.1967955629742
 30
0.0
 11
-165.5287070809191
 21
98.9428537587769
 31
0.0
 11
-164.8408281275319
 21
96.90010808983699
 31
0.0
 11
-164.2608866967348
 21
94.82413716962216
 31
0.0
 11
-164.1183687654725
 21
94.20725979911617
 31
0.0
 11
-163.9911364437524
 21
93.58703850047186
 31
0.0
 11
-163.8808791941187
 21
92.96359589850155
 31
0.0
 11
-163.7893065051547
 21
92.33715271840195
 31
0.0
 11
-163.722981058206
 21
91.75891952367563
 31
0.0
 11
-163.6745926987405
 21
91.17890401961992
 31
0.0
 11
-163.6448330763511
 21
90.597677579913
 31
0.0
 11
-163.634402881283
 21
90.01579600862844
 31
0.0
 11
-163.6437769256727
 21
89.43394448480082
 31
0.0
 11
-163.6724936813357
 21
88.85271365630902
 31
0.0
 11
-163.7198688576312
 21
88.27266295616124
 31
0.0
 11
-163.7852272835765
 21
87.6943683387257
 31
0.0
 11
-163.8757168489014
 21
87.06845645608858
 31
0.0
 11
-163.9849318502912
 21
86.44552246895323
 31
0.0
 11
-164.1111702531865
 21
85.82579459555616
 31
0.0
 11
-164.2527504374846
 21
85.20940111922575
 31
0.0
 11
-164.813725927183
 21
83.18720429132621
 31
0.0
 11
-165.4787421709039
 21
81.1967955629742
 31
0.0
  0
SPLINE
  5
25D
330
1F
100
AcDbEntity
  8
0
  6
Continuous
 62
     3
100
AcDbSpline
210
0.0
220
0.0
230
1.0
 70
     8
 71
     3
 72
    11
 73
     7
 74
     5
 42
0.0000000001
 43
0.0000000001
 44
0.00000001
 40
0.0
 40
0.0
 40
0.0
 40
0.0
 40
2.438694368279719
 40
4.877388659083959
 40
7.027546185228086
 40
9.177703728389902
 40
9.177703728389902
 40
9.177703728389902
 40
9.177703728389902
 10
-154.3967913761474
 20
61.006417826835
 30
0.0
 10
-153.6745478914032
 20
60.6265501604929
 30
0.0
 10
-152.2300609448599
 20
59.86681483987681
 30
0.0
 10
-149.8746752465219
 20
59.45089861433944
 30
0.0
 10
-147.6164094317549
 20
59.7984025250455
 30
0.0
 10
-146.3171271637045
 20
60.41639785302225
 30
0.0
 10
-145.6674860271084
 20
60.7253955182334
 30
0.0
 11
-154.3967913761474
 21
61.006417826835
 31
0.0
 11
-152.1825004801445
 21
59.98458317790309
 31
0.0
 11
-149.7780472292281
 21
59.57735546745253
 31
0.0
 11
-147.6518515584471
 21
59.89746381908764
 31
0.0
 11
-145.6674860271084
 21
60.7253955182334
 31
0.0
  0
SPLINE
  5
25E
330
1F
100
AcDbEntity
  8
0
  6
Continuous
 62
     3
100
AcDbSpline
210
0.0
220
0.0
230
1.0
 70
     8
 71
     3
 72
    11
 73
     7
 74
     5
 42
0.0000000001
 43
0.0000000001
 44
0.00000001
 40
0.0
 40
0.0
 40
0.0
 40
0.0
 40
2.362332790475122
 40
4.724665431898615
 40
6.745623749997588
 40
8.766582200399382
 40
8.766582200399382
 40
8.766582200399382
 40
8.766582200399382
 10
-154.3967913761419
 20
76.9152815333046
 30
0.0
 10
-153.6469357782148
 20
77.1611146896227
 30
0.0
 10
-152.1472246296729
 20
77.65278098674806
 30
0.0
 10
-149.8914943256542
 20
77.88541801957149
 30
0.0
 10
-147.7514267570727
 20
77.69879828792936
 30
0.0
 10
-146.4544197630929
 20
77.32485131396143
 30
0.0
 10
-145.8059162448757
 20
77.1378778208573
 30
0.0
 11
-154.3967913761419
 21
76.9152815333046
 31
0.0
 11
-152.1271714374057
 21
77.57059943069878
 31
0.0
 11
-149.7776387534968
 21
77.81618378683447
 31
0.0
 11
-147.764840500174
 21
77.63475690097084
 31
0.0
 11
-145.8059162448757
 21
77.1378778208573
 31
0.0
  0
SPLINE
  5
25F
330
1F
100
AcDbEntity
  8
0
  6
Continuous
 62
     3
100
AcDbSpline
210
0.0
220
0.0
230
1.0
 70
     8
 71
     3
 72
    27
 73
    23
 74
    21
 42
0.0000000001
 43
0.0000000001
 44
0.00000001
 40
0.0
 40
0.0
 40
0.0
 40
0.0
 40
0.3817237077734301
 40
0.7634474155469242
 40
1.026591244544858
 40
1.289735202874672
 40
1.552878613405155
 40
1.816022005484586
 40
2.063225844321401
 40
2.310429329284798
 40
2.55763933839638
 40
2.804850484293139
 40
3.179634009506924
 40
3.554418101638689
 40
3.929194974537677
 40
4.303973723961779
 40
4.644781375572797
 40
4.985579120969172
 40
5.326396192454945
 40
5.667247497394737
 40
7.080070221929639
 40
8.492892799462828
 40
8.492892799462828
 40
8.492892799462828
 40
8.492892799462828
 10
-173.6343956831815
 20
103.600005198058
 30
0.0
 10
-173.5317466394488
 20
103.5248144731601
 30
0.0
 10
-173.3264485519832
 20
103.3744330233644
 30
0.0
 10
-173.0485166933584
 20
103.1747930073269
 30
0.0
 10
-172.8016569833903
 20
102.9996637984652
 30
0.0
 10
-172.5861814531674
 20
102.848614963859
 30
0.0
 10
-172.369836343307
 20
102.6988146675909
 30
0.0
 10
-172.15696547146
 20
102.5533385622639
 30
0.0
 10
-171.9476005174416
 20
102.4121581733453
 30
0.0
 10
-171.7417705326231
 20
102.2752437565945
 30
0.0
 10
-171.5350384314926
 20
102.1396904464805
 30
0.0
 10
-171.2916526573833
 20
101.9824934631954
 30
0.0
 10
-171.0109213620088
 20
101.8047538901597
 30
0.0
 10
-170.6919124623541
 20
101.6080270071847
 30
0.0
 10
-170.3704196935568
 20
101.415385788772
 30
0.0
 10
-170.0561113083613
 20
101.2328536374759
 30
0.0
 10
-169.7491596402546
 20
101.0602742682176
 30
0.0
 10
-169.449704206685
 20
100.8975437696272
 30
0.0
 10
-169.1477808010148
 20
100.7393528250267
 30
0.0
 10
-168.5239220638873
 20
100.4261546290616
 30
0.0
 10
-167.5616397599163
 20
99.98608101459394
 30
0.0
 10
-166.6605254321811
 20
99.7089991471902
 30
0.0
 10
-166.2099682917533
 20
99.5704582206958
 30
0.0
 11
-173.6343956831815
 21
103.600005198058
 31
0.0
 11
-173.3261005215332
 21
103.3749117010828
 31
0.0
 11
-173.0161566068786
 21
103.1520939305954
 31
0.0
 11
-172.8015146741888
 21
102.9998654330305
 31
0.0
 11
-172.5860363534742
 21
102.8488229353437
 31
0.0
 11
-172.3696842364111
 21
102.6990356997462
 31
0.0
 11
-172.152421008026
 21
102.5505731307708
 31
0.0
 11
-171.9474556617082
 21
102.4123741989931
 31
0.0
 11
-171.7416223334814
 21
102.2754720296564
 31
0.0
 11
-171.5348837443697
 21
102.1399288838428
 31
0.0
 11
-171.3272141316965
 21
102.0058144452922
 31
0.0
 11
-171.010529822891
 21
101.8053805675966
 31
0.0
 11
-170.6914962014042
 21
101.6087065630205
 31
0.0
 11
-170.3699852891548
 21
101.4161229765845
 31
0.0
 11
-170.0458657685518
 21
101.2279590922071
 31
0.0
 11
-169.7487614308905
 21
101.0609894304735
 31
0.0
 11
-169.4493007100788
 21
100.8983045204229
 31
0.0
 11
-169.1473533985131
 21
100.7402409343115
 31
0.0
 11
-168.8428161921258
 21
100.5871504316506
 31
0.0
 11
-167.5510359612792
 21
100.0149862190717
 31
0.0
 11
-166.2099682917533
 21
99.5704582206958
 31
0.0
  0
SPLINE
  5
260
330
1F
100
AcDbEntity
  8
0
  6
Continuous
 62
     3
100
AcDbSpline
210
0.0
220
0.0
230
1.0
 70
     8
 71
     3
 72
    11
 73
     7
 74
     5
 42
0.0000000001
 43
0.0000000001
 44
0.00000001
 40
0.0
 40
0.0
 40
0.0
 40
0.0
 40
4.685562997438795
 40
9.371125830913742
 40
14.05680389561001
 40
18.7424821243081
 40
18.7424821243081
 40
18.7424821243081
 40
18.7424821243081
 10
-172.8719999902155
 20
61.0064178268227
 30
0.0
 10
-171.3579030192238
 20
60.61399907285507
 30
0.0
 10
-168.3297091302236
 20
59.82916157865186
 30
0.0
 10
-163.6344734611955
 20
59.45145896694775
 30
0.0
 10
-158.9391950615537
 20
59.82913536611834
 30
0.0
 10
-155.9109259556147
 20
60.61399033535104
 30
0.0
 10
-154.3967913761474
 20
61.006417826835
 30
0.0
 11
-172.8719999902155
 21
61.0064178268227
 31
0.0
 11
-168.3042246807608
 21
59.96242102352139
 31
0.0
 11
-163.6345112437317
 21
59.5773554674507
 31
0.0
 11
-158.9646806583653
 21
59.96240251646139
 31
0.0
 11
-154.3967913761474
 21
61.006417826835
 31
0.0
  0
SPLINE
  5
261
330
1F
100
AcDbEntity
  8
0
  6
Continuous
 62
     3
100
AcDbSpline
210
0.0
220
0.0
230
1.0
 70
     8
 71
     3
 72
    11
 73
     7
 74
     5
 42
0.0000000001
 43
0.0000000001
 44
0.00000001
 40
0.0
 40
0.0
 40
0.0
 40
0.0
 40
4.645517257958168
 40
9.291034477700082
 40
13.93660364775882
 40
18.58217285603707
 40
18.58217285603707
 40
18.58217285603707
 40
18.58217285603707
 10
-172.8719999902047
 20
76.9152815333046
 30
0.0
 10
-171.3426839406676
 20
77.16440138382063
 30
0.0
 10
-168.2840518541744
 20
77.66264108280333
 30
0.0
 10
-163.6344304856746
 20
77.8929532827201
 30
0.0
 10
-158.9847910379304
 20
77.66264853952732
 30
0.0
 10
-155.926124600932
 20
77.16440386939534
 30
0.0
 10
-154.3967913761419
 20
76.9152815333046
 30
0.0
 11
-172.8719999902047
 21
76.9152815333046
 31
0.0
 11
-168.2737758559875
 21
77.5764663830176
 31
0.0
 11
-163.6344476931431
 21
77.81618379239188
 31
0.0
 11
-158.9950672390355
 21
77.57647164033376
 31
0.0
 11
-154.3967913761419
 21
76.9152815333046
 31
0.0
  0
SPLINE
  5
262
330
1F
100
AcDbEntity
  8
0
  6
Continuous
 62
     3
100
AcDbSpline
210
0.0
220
0.0
230
1.0
 70
     8
 71
     3
 72
    11
 73
     7
 74
     5
 42
0.0000000001
 43
0.0000000001
 44
0.00000001
 40
0.0
 40
0.0
 40
0.0
 40
0.0
 40
2.150100269243944
 40
4.300200521503649
 40
6.738952021416171
 40
9.177703598735588
 40
9.177703598735588
 40
9.177703598735588
 40
9.177703598735588
 10
-181.6013054207937
 20
60.725395561362
 30
0.0
 10
-180.9516820448841
 20
60.41640566152699
 30
0.0
 10
-179.6524352981965
 20
59.7984258642978
 30
0.0
 10
-177.3941960869125
 20
59.45089736122721
 30
0.0
 10
-175.038782550311
 20
59.86678902258787
 30
0.0
 10
-173.5942608512223
 20
60.62654155472529
 30
0.0
 10
-172.8719999902155
 20
61.0064178268227
 30
0.0
 11
-181.6013054207937
 21
60.725395561362
 31
0.0
 11
-179.6169950662817
 21
59.89748035750398
 31
0.0
 11
-177.4908598049366
 21
59.57735546744951
 31
0.0
 11
-175.0863454211457
 21
59.98456481958712
 31
0.0
 11
-172.8719999902155
 21
61.0064178268227
 31
0.0
  0
SPLINE
  5
263
330
1F
100
AcDbEntity
  8
0
  6
Continuous
 62
     3
100
AcDbSpline
210
0.0
220
0.0
230
1.0
 70
     8
 71
     3
 72
    11
 73
     7
 74
     5
 42
0.0000000001
 43
0.0000000001
 44
0.00000001
 40
0.0
 40
0.0
 40
0.0
 40
0.0
 40
2.867549034137309
 40
5.735098111621938
 40
8.669725325883435
 40
11.60435254111342
 40
11.60435254111342
 40
11.60435254111342
 40
11.60435254111342
 10
-166.3481590118896
 20
80.5351754990496
 30
0.0
 10
-167.3001526206664
 20
80.44567889312484
 30
0.0
 10
-169.2041398526109
 20
80.26668567992246
 30
0.0
 10
-172.0535894839296
 20
79.77167933292615
 30
0.0
 10
-174.9033912604673
 20
79.17004852357108
 30
0.0
 10
-176.8015223121319
 20
78.69532574745845
 30
0.0
 10
-177.7505878381209
 20
78.457964359363
 30
0.0
 11
-166.3481590118896
 21
80.5351754990496
 31
0.0
 11
-169.1993769098543
 21
80.22957124268585
 31
0.0
 11
-172.0280241132948
 21
79.75883489370574
 31
0.0
 11
-174.8993104292425
 21
79.15240948317633
 31
0.0
 11
-177.7505878381209
 21
78.457964359363
 31
0.0
  0
SPLINE
  5
264
330
1F
100
AcDbEntity
  8
0
  6
Continuous
 62
     3
100
AcDbSpline
210
0.0
220
0.0
230
1.0
 70
     8
 71
     3
 72
    11
 73
     7
 74
     5
 42
0.0000000001
 43
0.0000000001
 44
0.00000001
 40
0.0
 40
0.0
 40
0.0
 40
0.0
 40
1.162651649055815
 40
2.325303323866047
 40
3.656882727260168
 40
4.988462141405323
 40
4.988462141405323
 40
4.988462141405323
 40
4.988462141405323
 10
-177.7505878381195
 20
77.8131141916647
 30
0.0
 10
-177.3626588607898
 20
77.81039884061826
 30
0.0
 10
-176.5868008975373
 20
77.80496813846524
 30
0.0
 10
-175.3768946989749
 20
77.63463322161809
 30
0.0
 10
-174.1321932959782
 20
77.34781574955915
 30
0.0
 10
-173.2920644265931
 20
77.05945960577748
 30
0.0
 10
-172.8719999902047
 20
76.9152815333046
 30
0.0
 11
-177.7505878381195
 21
77.8131141916647
 31
0.0
 11
-176.5884295254212
 21
77.77924808355367
 31
0.0
 11
-175.4357740355922
 21
77.62711577697152
 31
0.0
 11
-174.1387712306466
 21
77.32564035258903
 31
0.0
 11
-172.8719999902047
 21
76.9152815333046
 31
0.0
  0
SPLINE
  5
265
330
1F
100
AcDbEntity
  8
0
  6
Continuous
 62
     3
100
AcDbSpline
210
0.0
220
0.0
230
1.0
 70
     8
 71
     3
 72
    11
 73
     7
 74
     5
 42
0.0000000001
 43
0.0000000001
 44
0.00000001
 40
0.0
 40
0.0
 40
0.0
 40
0.0
 40
1.103715064272419
 40
2.207429963159749
 40
3.305738999185968
 40
4.404047012537051
 40
4.404047012537051
 40
4.404047012537051
 40
4.404047012537051
 10
-178.2066247209232
 20
78.1991470686125
 30
0.0
 10
-178.4780400371313
 20
77.94950149200757
 30
0.0
 10
-179.0208706288774
 20
77.45021037620558
 30
0.0
 10
-179.9700042396773
 20
76.87898976686296
 30
0.0
 10
-181.0085211022261
 20
76.47811810839946
 30
0.0
 10
-181.7425766794926
 20
76.42604282673165
 30
0.0
 10
-182.1096042972493
 20
76.40000519802
 30
0.0
 11
-178.2066247209232
 21
78.1991470686125
 31
0.0
 11
-179.0436106498941
 21
77.47967399906328
 31
0.0
 11
-179.986799289534
 21
76.90645347598321
 31
0.0
 11
-181.0192327222432
 21
76.53180171015119
 31
0.0
 11
-182.1096042972493
 21
76.40000519802
 31
0.0
  0
SPLINE
  5
266
330
1F
100
AcDbEntity
  8
0
  6
Continuous
 62
     3
100
AcDbSpline
210
0.0
220
0.0
230
1.0
 70
     8
 71
     3
 72
    11
 73
     7
 74
     5
 42
0.0000000001
 43
0.0000000001
 44
0.00000001
 40
0.0
 40
0.0
 40
0.0
 40
0.0
 40
1.400680352395613
 40
2.80136070479127
 40
4.202040897206693
 40
5.6027210896221
 40
5.6027210896221
 40
5.6027210896221
 40
5.6027210896221
 10
-219.4363651599473
 20
100.814129466417
 30
0.0
 10
-218.9695344414812
 20
100.8217828772452
 30
0.0
 10
-218.0358730045491
 20
100.8370896989015
 30
0.0
 10
-216.6353806814374
 20
100.8600364449223
 30
0.0
 10
-215.2348882650437
 20
100.8829742408696
 30
0.0
 10
-214.3012265438023
 20
100.8982571957112
 30
0.0
 10
-213.8343956831816
 20
100.905898673132
 30
0.0
 11
-219.4363651599473
 21
100.814129466417
 31
0.0
 11
-218.0358729677102
 21
100.8370874513031
 31
0.0
 11
-216.6353806036842
 21
100.8600349542624
 31
0.0
 11
-215.234888228579
 21
100.8829720137343
 31
0.0
 11
-213.8343956831816
 21
100.905898673132
 31
0.0
  0
SPLINE
  5
267
330
1F
100
AcDbEntity
  8
0
  6
Continuous
 62
     3
100
AcDbSpline
210
0.0
220
0.0
230
1.0
 70
     8
 71
     3
 72
    11
 73
     7
 74
     5
 42
0.0000000001
 43
0.0000000001
 44
0.00000001
 40
0.0
 40
0.0
 40
0.0
 40
0.0
 40
1.400678983499581
 40
2.801357966999164
 40
4.202037204908455
 40
5.60271644281773
 40
5.60271644281773
 40
5.60271644281773
 40
5.60271644281773
 10
-219.436365159793
 20
96.6048958272282
 30
0.0
 10
-218.9695343959388
 20
96.61251857164325
 30
0.0
 10
-218.0358728682304
 20
96.62776406047331
 30
0.0
 10
-216.6353805291783
 20
96.65063457947227
 30
0.0
 10
-215.234888130091
 20
96.67350661580042
 30
0.0
 10
-214.3012264988181
 20
96.68875615001076
 30
0.0
 10
-213.8343956831816
 20
96.6963809171159
 30
0.0
 11
-219.436365159793
 21
96.6048958272282
 31
0.0
 11
-218.0358728744475
 21
96.6277644412015
 31
0.0
 11
-216.6353806180963
 21
96.65063483074493
 31
0.0
 11
-215.2348881362526
 21
96.6735069930675
 31
0.0
 11
-213.8343956831816
 21
96.6963809171159
 31
0.0
  0
SPLINE
  5
268
330
1F
100
AcDbEntity
  8
0
  6
Continuous
 62
     3
100
AcDbSpline
210
0.0
220
0.0
230
1.0
 70
     8
 71
     3
 72
    11
 73
     7
 74
     5
 42
0.0000000001
 43
0.0000000001
 44
0.00000001
 40
0.0
 40
0.0
 40
0.0
 40
0.0
 40
1.400492468968751
 40
2.800984937937517
 40
4.201477211087266
 40
5.60196948423695
 40
5.60196948423695
 40
5.60196948423695
 40
5.60196948423695
 10
-213.8343956831814
 20
85.7904874420038
 30
0.0
 10
-214.3012265058753
 20
85.79050415158426
 30
0.0
 10
-215.234888151263
 20
85.79053757074514
 30
0.0
 10
-216.6353805534378
 20
85.79060333007563
 30
0.0
 10
-218.0358728898093
 20
85.79067955735997
 30
0.0
 10
-218.9695344032346
 20
85.79074089169177
 30
0.0
 10
-219.4363651599473
 20
85.7907715588577
 30
0.0
 11
-213.8343956831814
 21
85.7904874420038
 31
0.0
 11
-215.2348881511573
 21
85.79054017584386
 31
0.0
 11
-216.6353806186224
 21
85.79060507473848
 31
0.0
 11
-218.0358728896493
 21
85.79068218639613
 31
0.0
 11
-219.4363651599473
 21
85.7907715588577
 31
0.0
  0
SPLINE
  5
269
330
1F
100
AcDbEntity
  8
0
  6
Continuous
 62
     3
100
AcDbSpline
210
0.0
220
0.0
230
1.0
 70
     8
 71
     3
 72
    11
 73
     7
 74
     5
 42
0.0000000001
 43
0.0000000001
 44
0.00000001
 40
0.0
 40
0.0
 40
0.0
 40
0.0
 40
1.400492280308118
 40
2.800984560616186
 40
4.20147702242649
 40
5.601969484236751
 40
5.601969484236751
 40
5.601969484236751
 40
5.601969484236751
 10
-219.4363651599473
 20
94.2092388371821
 30
0.0
 10
-218.9695344008484
 20
94.20926950434819
 30
0.0
 10
-218.0358728826509
 20
94.20933083868042
 30
0.0
 10
-216.6353805438933
 20
94.20940706596474
 30
0.0
 10
-215.2348881441046
 20
94.20947282529502
 30
0.0
 10
-214.3012265034893
 20
94.20950624445567
 30
0.0
 10
-213.8343956831816
 20
94.209522954036
 30
0.0
 11
-219.4363651599473
 21
94.2092388371821
 31
0.0
 11
-218.0358728824908
 21
94.2093282096442
 31
0.0
 11
-216.6353806043057
 21
94.20940532130213
 31
0.0
 11
-215.2348881439991
 21
94.20947022019635
 31
0.0
 11
-213.8343956831816
 21
94.209522954036
 31
0.0
  0
SPLINE
  5
26A
330
1F
100
AcDbEntity
  8
0
  6
Continuous
 62
     3
100
AcDbSpline
210
0.0
220
0.0
230
1.0
 70
     8
 71
     3
 72
    11
 73
     7
 74
     5
 42
0.0000000001
 43
0.0000000001
 44
0.00000001
 40
0.0
 40
0.0
 40
0.0
 40
0.0
 40
1.400680352395673
 40
2.801360704791304
 40
4.20204089720673
 40
5.602721089622106
 40
5.602721089622106
 40
5.602721089622106
 40
5.602721089622106
 10
-219.4363651599473
 20
79.1858809296233
 30
0.0
 10
-218.9695344414812
 20
79.17822751879507
 30
0.0
 10
-218.0358730045489
 20
79.16292069713857
 30
0.0
 10
-216.6353806814374
 20
79.1399739511176
 30
0.0
 10
-215.2348882650437
 20
79.11703615517014
 30
0.0
 10
-214.3012265438023
 20
79.10175320032864
 30
0.0
 10
-213.8343956831816
 20
79.0941117229079
 30
0.0
 11
-219.4363651599473
 21
79.1858809296233
 31
0.0
 11
-218.0358729677101
 21
79.16292294473693
 31
0.0
 11
-216.6353806036842
 21
79.13997544177748
 31
0.0
 11
-215.234888228579
 21
79.11703838230547
 31
0.0
 11
-213.8343956831816
 21
79.0941117229079
 31
0.0
  0
SPLINE
  5
26B
330
1F
100
AcDbEntity
  8
0
  6
Continuous
 62
     3
100
AcDbSpline
210
0.0
220
0.0
230
1.0
 70
     8
 71
     3
 72
    11
 73
     7
 74
     5
 42
0.0000000001
 43
0.0000000001
 44
0.00000001
 40
0.0
 40
0.0
 40
0.0
 40
0.0
 40
1.400678983576571
 40
2.80135796715313
 40
4.202037205062418
 40
5.60271644297167
 40
5.60271644297167
 40
5.60271644297167
 40
5.60271644297167
 10
-219.4363651599473
 20
83.3951145687855
 30
0.0
 10
-218.9695343960672
 20
83.38749182438036
 30
0.0
 10
-218.0358728683072
 20
83.37224633557011
 30
0.0
 10
-216.6353805292038
 20
83.3493758165674
 30
0.0
 10
-215.2348881300908
 20
83.32650378024007
 30
0.0
 10
-214.3012264988179
 20
83.31125424602928
 30
0.0
 10
-213.8343956831815
 20
83.3036294789239
 30
0.0
 11
-219.4363651599473
 21
83.3951145687855
 31
0.0
 11
-218.0358728745244
 21
83.37224595483627
 31
0.0
 11
-216.6353806180962
 21
83.34937556529499
 31
0.0
 11
-215.2348881362524
 21
83.32650340297265
 31
0.0
 11
-213.8343956831815
 21
83.3036294789239
 31
0.0
  0
SPLINE
  5
26C
330
1F
100
AcDbEntity
  8
0
  6
Continuous
 62
     3
100
AcDbSpline
210
0.0
220
0.0
230
1.0
 70
     8
 71
     3
 72
    11
 73
     7
 74
     5
 42
0.0000000001
 43
0.0000000001
 44
0.00000001
 40
0.0
 40
0.0
 40
0.0
 40
0.0
 40
2.419085982291445
 40
4.838171898101022
 40
7.257484568579769
 40
9.676797305580168
 40
9.676797305580168
 40
9.676797305580168
 40
9.676797305580168
 10
-196.8560835196687
 20
94.7958367213327
 30
0.0
 10
-196.6950159424946
 20
94.0048478726181
 30
0.0
 10
-196.3728807925732
 20
92.42287019692706
 30
0.0
 10
-196.2316694050236
 20
90.00015744228178
 30
0.0
 10
-196.3728410954757
 20
87.57736426624308
 30
0.0
 10
-196.695002710128
 20
85.99523721246956
 30
0.0
 10
-196.8560835196687
 20
85.2041736747072
 30
0.0
 11
-196.8560835196687
 21
94.7958367213327
 31
0.0
 11
-196.4298800811682
 21
92.41459174890142
 31
0.0
 11
-196.2787332518332
 21
90.00023235062405
 31
0.0
 11
-196.4298521459831
 21
87.58564400530099
 31
0.0
 11
-196.8560835196687
 21
85.2041736747072
 31
0.0
  0
SPLINE
  5
26D
330
1F
100
AcDbEntity
  8
0
  6
Continuous
 62
     3
100
AcDbSpline
210
0.0
220
0.0
230
1.0
 70
     8
 71
     3
 72
    11
 73
     7
 74
     5
 42
0.0000000001
 43
0.0000000001
 44
0.00000001
 40
0.0
 40
0.0
 40
0.0
 40
0.0
 40
2.419354449123548
 40
4.838708831718533
 40
7.257753035406001
 40
9.676797305568602
 40
9.676797305568602
 40
9.676797305568602
 40
9.676797305568602
 10
-209.2683702794109
 20
94.7958367213411
 30
0.0
 10
-209.4294535228614
 20
94.00475944428736
 30
0.0
 10
-209.7516200053329
 20
92.42260491193332
 30
0.0
 10
-209.8927843934748
 20
89.99979694227338
 30
0.0
 10
-209.7515657046836
 20
87.57709898128955
 30
0.0
 10
-209.4294354226438
 20
85.9951487841411
 30
0.0
 10
-209.2683702794109
 20
85.2041736746989
 30
0.0
 11
-209.2683702794109
 21
94.7958367213411
 31
0.0
 11
-209.6946067912127
 21
92.41432493541585
 31
0.0
 11
-209.8457205460529
 21
89.9996944747284
 31
0.0
 11
-209.6945685793389
 21
87.58537719186096
 31
0.0
 11
-209.2683702794109
 21
85.2041736746989
 31
0.0
  0
SPLINE
  5
26E
330
1F
100
AcDbEntity
  8
0
  6
Continuous
 62
     3
100
AcDbSpline
210
0.0
220
0.0
230
1.0
 70
     8
 71
     3
 72
    11
 73
     7
 74
     5
 42
0.0000000001
 43
0.0000000001
 44
0.00000001
 40
0.0
 40
0.0
 40
0.0
 40
0.0
 40
1.240726766532609
 40
2.481453298927074
 40
3.722025515971943
 40
4.962597966853854
 40
4.962597966853854
 40
4.962597966853854
 40
4.962597966853854
 10
-209.268370279397
 20
101.924200401305
 30
0.0
 10
-209.4261712667904
 20
101.5403899608222
 30
0.0
 10
-209.7417732117985
 20
100.7727691522857
 30
0.0
 10
-209.8977076825686
 20
99.52617870537138
 30
0.0
 10
-209.7417193245993
 20
98.279653478266
 30
0.0
 10
-209.426153304378
 20
97.51213043552877
 30
0.0
 10
-209.268370279397
 20
97.1283688779923
 30
0.0
 11
-209.268370279397
 21
101.924200401305
 31
0.0
 11
-209.6888629021279
 21
100.7569005840261
 31
0.0
 11
-209.8457205460529
 21
99.52612927800297
 31
0.0
 11
-209.6888248218674
 21
98.2955183900957
 31
0.0
 11
-209.268370279397
 21
97.1283688779923
 31
0.0
  0
SPLINE
  5
26F
330
1F
100
AcDbEntity
  8
0
  6
Continuous
 62
     3
100
AcDbSpline
210
0.0
220
0.0
230
1.0
 70
     8
 71
     3
 72
    11
 73
     7
 74
     5
 42
0.0000000001
 43
0.0000000001
 44
0.00000001
 40
0.0
 40
0.0
 40
0.0
 40
0.0
 40
1.240726766533208
 40
2.48145329892857
 40
3.722025515973513
 40
4.962597966855525
 40
4.962597966855525
 40
4.962597966855525
 40
4.962597966855525
 10
-209.268370279397
 20
82.8716415180476
 30
0.0
 10
-209.4261712667937
 20
82.48783107756566
 30
0.0
 10
-209.7417732118085
 20
81.72021026903072
 30
0.0
 10
-209.8977076825659
 20
80.47361982211372
 30
0.0
 10
-209.7417193246004
 20
79.22709459500851
 30
0.0
 10
-209.4261533043784
 20
78.45957155227121
 30
0.0
 10
-209.268370279397
 20
78.0758099947347
 30
0.0
 11
-209.268370279397
 21
82.8716415180476
 31
0.0
 11
-209.6888629021342
 21
81.70434170077031
 31
0.0
 11
-209.8457205460529
 21
80.47357039474548
 31
0.0
 11
-209.6888248218676
 21
79.2429595068381
 31
0.0
 11
-209.268370279397
 21
78.0758099947347
 31
0.0
  0
SPLINE
  5
270
330
1F
100
AcDbEntity
  8
0
  6
Continuous
 62
     3
100
AcDbSpline
210
0.0
220
0.0
230
1.0
 70
     8
 71
     3
 72
    11
 73
     7
 74
     5
 42
0.0000000001
 43
0.0000000001
 44
0.00000001
 40
0.0
 40
0.0
 40
0.0
 40
0.0
 40
1.240593202818411
 40
2.481186171760281
 40
3.721891952226445
 40
4.962597966790764
 40
4.962597966790764
 40
4.962597966790764
 40
4.962597966790764
 10
-196.8560835196687
 20
101.924200401305
 30
0.0
 10
-196.6982980794284
 20
101.5404322700503
 30
0.0
 10
-196.3827272286936
 20
100.7728960798889
 30
0.0
 10
-196.226746115851
 20
99.52636208241644
 30
0.0
 10
-196.3826878331856
 20
98.27978040587297
 30
0.0
 10
-196.6982849475571
 20
97.51217274481454
 30
0.0
 10
-196.8560835196297
 20
97.128368878077
 30
0.0
 11
-196.8560835196687
 21
101.924200401305
 31
0.0
 11
-196.4356238566179
 21
100.7570306764464
 31
0.0
 11
-196.2787332518332
 21
99.52639821599436
 31
0.0
 11
-196.4355960171993
 21
98.29564848248887
 31
0.0
 11
-196.8560835196297
 21
97.128368878077
 31
0.0
  0
SPLINE
  5
271
330
1F
100
AcDbEntity
  8
0
  6
Continuous
 62
     3
100
AcDbSpline
210
0.0
220
0.0
230
1.0
 70
     8
 71
     3
 72
    11
 73
     7
 74
     5
 42
0.0000000001
 43
0.0000000001
 44
0.00000001
 40
0.0
 40
0.0
 40
0.0
 40
0.0
 40
1.240593202818626
 40
2.481186171760683
 40
3.721891952272938
 40
4.962597966883205
 40
4.962597966883205
 40
4.962597966883205
 40
4.962597966883205
 10
-196.8560835196687
 20
82.8716415180476
 30
0.0
 10
-196.6982980794286
 20
82.48787338679286
 30
0.0
 10
-196.3827272286941
 20
81.72033719663129
 30
0.0
 10
-196.226746115848
 20
80.47380319914308
 30
0.0
 10
-196.3826878331975
 20
79.22722152256921
 30
0.0
 10
-196.6982849475871
 20
78.45961386148508
 30
0.0
 10
-196.8560835196687
 20
78.0758099947347
 30
0.0
 11
-196.8560835196687
 21
82.8716415180476
 31
0.0
 11
-196.435623856618
 21
81.70447179318874
 31
0.0
 11
-196.2787332518332
 21
80.4738393327365
 31
0.0
 11
-196.435596017213
 21
79.24308959918628
 31
0.0
 11
-196.8560835196687
 21
78.0758099947347
 31
0.0
  0
LWPOLYLINE
  5
272
330
1F
100
AcDbEntity
  8
1
  6
Continuous
 62
     3
100
AcDbPolyline
 90
        8
 70
     1
 43
0.0
 10
-181.5322540280595
 20
184.344692871224
 10
-172.5833248556204
 20
168.844692871224
 10
-154.6854665107425
 20
168.844692871224
 10
-145.7365373383034
 20
184.344692871224
 10
-154.6854665107425
 20
199.844692871224
 10
-172.5833248556204
 20
199.844692871224
 10
-181.5322540280595
 20
184.344692871224
 10
-172.5833248556204
 20
199.844692871224
  0
LINE
  5
273
330
1F
100
AcDbEntity
  8
1
 62
     4
100
AcDbLine
 10
-163.6343956831814
 20
142.00000519802
 30
0.0
 11
-162.7349859428805
 21
144.3161682995016
 31
0.0
  0
LINE
  5
274
330
1F
100
AcDbEntity
  8
1
 62
     4
100
AcDbLine
 10
-163.6343956831814
 20
142.00000519802
 30
0.0
 11
-161.6974024489288
 21
143.5561564130608
 31
0.0
  0
LEADER
  5
275
330
1F
100
AcDbEntity
  8
1
  6
Continuous
 62
     4
100
AcDbLeader
  3
Standard
 71
     0
 76
     3
 10
-163.6343956831814
 20
142.00000519802
 30
0.0
 10
-158.9228691724487
 20
148.432275832293
 30
0.0
 10
-146.7839655282048
 20
148.432275832293
 30
0.0
  0
LINE
  5
276
330
1F
100
AcDbEntity
  8
1
 62
     4
100
AcDbLine
 10
-163.5879692190596
 20
59.00000519802
 30
0.0
 11
-161.309485231222
 21
58.00901573754091
 31
0.0
  0
LINE
  5
277
330
1F
100
AcDbEntity
  8
1
 62
     4
100
AcDbLine
 10
-163.5879692190596
 20
59.00000519802
 30
0.0
 11
-162.1102389337157
 21
57.00254115644367
 31
0.0
  0
LEADER
  5
278
330
1F
100
AcDbEntity
  8
1
  6
Continuous
 62
     4
100
AcDbLeader
  3
Standard
 71
     0
 76
     3
 10
-163.5879692190596
 20
59.00000519802
 30
0.0
 10
-153.1351838655755
 20
50.68374293926587
 30
0.0
 10
-139.824715824792
 20
50.68374293926587
 30
0.0
  0
ENDSEC
  0
SECTION
  2
OBJECTS
  0
DICTIONARY
  5
C
330
0
100
AcDbDictionary
281
     1
  3
ACAD_GROUP
350
D
  3
ACAD_LAYOUT
350
1A
  3
ACAD_MATERIAL
350
3B
  3
ACAD_MLEADERSTYLE
350
27B
  3
ACAD_MLINESTYLE
350
17
  3
ACAD_PLOTSETTINGS
350
19
  3
ACAD_PLOTSTYLENAME
350
E
  3
ACAD_VISUALSTYLE
350
2A
  3
AcDbVariableDictionary
350
279
  0
DICTIONARY
  5
D
102
{ACAD_REACTORS
330
C
102
}
330
C
100
AcDbDictionary
281
     1
  0
DICTIONARY
  5
1A
102
{ACAD_REACTORS
330
C
102
}
330
C
100
AcDbDictionary
281
     1
  3
Layout1
350
1E
  3
Layout2
350
26
  3
Model
350
22
  0
DICTIONARY
  5
3B
102
{ACAD_REACTORS
330
C
102
}
330
C
100
AcDbDictionary
281
     1
  3
ByBlock
350
3D
  3
ByLayer
350
3C
  3
Global
350
3E
  0
DICTIONARY
  5
27B
102
{ACAD_REACTORS
330
C
102
}
330
C
100
AcDbDictionary
281
     1
  0
DICTIONARY
  5
17
102
{ACAD_REACTORS
330
C
102
}
330
C
100
AcDbDictionary
281
     1
  3
Standard
350
18
  0
DICTIONARY
  5
19
102
{ACAD_REACTORS
330
C
102
}
330
C
100
AcDbDictionary
281
     1
  0
ACDBDICTIONARYWDFLT
  5
E
102
{ACAD_REACTORS
330
C
102
}
330
C
100
AcDbDictionary
281
     1
  3
Normal
350
F
100
AcDbDictionaryWithDefault
340
F
  0
DICTIONARY
  5
2A
102
{ACAD_REACTORS
330
C
102
}
330
C
100
AcDbDictionary
281
     1
  3
2dWireframe
350
2F
  3
3D Hidden
350
31
  3
3dWireframe
350
30
  3
Basic
350
32
  3
Brighten
350
36
  3
ColorChange
350
3A
  3
Conceptual
350
34
  3
Dim
350
35
  3
Facepattern
350
39
  3
Flat
350
2B
  3
FlatWithEdges
350
2C
  3
Gouraud
350
2D
  3
GouraudWithEdges
350
2E
  3
Linepattern
350
38
  3
Realistic
350
33
  3
Thicken
350
37
  0
DICTIONARY
  5
279
102
{ACAD_REACTORS
330
C
102
}
330
C
100
AcDbDictionary
281
     1
  3
DIMASSOC
350
27C
  3
HIDETEXT
350
27D
  0
LAYOUT
  5
1E
102
{ACAD_REACTORS
330
1A
102
}
330
1A
100
AcDbPlotSettings
  1

  2
none_device
  4

  6

 40
0.0
 41
0.0
 42
0.0
 43
0.0
 44
0.0
 45
0.0
 46
0.0
 47
0.0
 48
0.0
 49
0.0
140
0.0
141
0.0
142
1.0
143
1.0
 70
   688
 72
     0
 73
     0
 74
     5
  7

 75
    16
147
1.0
148
0.0
149
0.0
100
AcDbLayout
  1
Layout1
 70
     1
 71
     1
 10
0.0
 20
0.0
 11
12.0
 21
9.0
 12
0.0
 22
0.0
 32
0.0
 14
1.00000000000000E+20
 24
1.00000000000000E+20
 34
1.00000000000000E+20
 15
-1.00000000000000E+20
 25
-1.00000000000000E+20
 35
-1.00000000000000E+20
146
0.0
 13
0.0
 23
0.0
 33
0.0
 16
1.0
 26
0.0
 36
0.0
 17
0.0
 27
1.0
 37
0.0
 76
     0
330
1B
  0
LAYOUT
  5
26
102
{ACAD_REACTORS
330
1A
102
}
330
1A
100
AcDbPlotSettings
  1

  2
none_device
  4

  6

 40
0.0
 41
0.0
 42
0.0
 43
0.0
 44
0.0
 45
0.0
 46
0.0
 47
0.0
 48
0.0
 49
0.0
140
0.0
141
0.0
142
1.0
143
1.0
 70
   688
 72
     0
 73
     0
 74
     5
  7

 75
    16
147
1.0
148
0.0
149
0.0
100
AcDbLayout
  1
Layout2
 70
     1
 71
     2
 10
0.0
 20
0.0
 11
0.0
 21
0.0
 12
0.0
 22
0.0
 32
0.0
 14
0.0
 24
0.0
 34
0.0
 15
0.0
 25
0.0
 35
0.0
146
0.0
 13
0.0
 23
0.0
 33
0.0
 16
1.0
 26
0.0
 36
0.0
 17
0.0
 27
1.0
 37
0.0
 76
     0
330
23
  0
LAYOUT
  5
22
102
{ACAD_REACTORS
330
1A
102
}
330
1A
100
AcDbPlotSettings
  1

  2
none_device
  4

  6

 40
0.0
 41
0.0
 42
0.0
 43
0.0
 44
0.0
 45
0.0
 46
0.0
 47
0.0
 48
0.0
 49
0.0
140
0.0
141
0.0
142
1.0
143
1.0
 70
  1712
 72
     0
 73
     0
 74
     0
  7

 75
     0
147
1.0
148
0.0
149
0.0
100
AcDbLayout
  1
Model
 70
     1
 71
     0
 10
0.0
 20
0.0
 11
12.0
 21
9.0
 12
0.0
 22
0.0
 32
0.0
 14
-285.897812058843
 24
49.4224593252663
 34
0.0
 15
-139.824715824792
 25
202.844692871224
 35
0.0
146
0.0
 13
0.0
 23
0.0
 33
0.0
 16
1.0
 26
0.0
 36
0.0
 17
0.0
 27
1.0
 37
0.0
 76
     0
330
1F
331
29
  0
MATERIAL
  5
3D
102
{ACAD_REACTORS
330
3B
102
}
102
{ACAD_XDICTIONARY
360
2A0
102
}
330
3B
100
AcDbMaterial
  1
ByBlock
  0
MATERIAL
  5
3C
102
{ACAD_REACTORS
330
3B
102
}
102
{ACAD_XDICTIONARY
360
29E
102
}
330
3B
100
AcDbMaterial
  1
ByLayer
  0
MATERIAL
  5
3E
102
{ACAD_REACTORS
330
3B
102
}
102
{ACAD_XDICTIONARY
360
2A2
102
}
330
3B
100
AcDbMaterial
  1
Global
  0
MLINESTYLE
  5
18
102
{ACAD_REACTORS
330
17
102
}
330
17
100
AcDbMlineStyle
  2
Standard
 70
     0
  3

 62
   256
 51
90.0
 52
90.0
 71
     2
 49
0.5
 62
   256
  6
BYLAYER
 49
-0.5
 62
   256
  6
BYLAYER
  0
ACDBPLACEHOLDER
  5
F
102
{ACAD_REACTORS
330
E
102
}
330
E
  0
VISUALSTYLE
  5
2F
102
{ACAD_REACTORS
330
2A
102
}
102
{ACAD_XDICTIONARY
360
286
102
}
330
2A
100
AcDbVisualStyle
  2
2dWireframe
 70
     4
 71
     0
 72
     2
 73
     0
 90
        0
 40
-0.6
 41
-30.0
 62
     5
 63
     7
 74
     1
 91
        4
 64
     7
 65
   257
 75
     1
175
     1
 42
1.0
 92
        0
 66
   257
 43
1.0
 76
     1
 77
     6
 78
     2
 67
     7
 79
     5
170
     0
171
     0
290
     0
174
     0
 93
        1
 44
0.0
173
     0
291
     0
 45
0.0
1001
ACAD
1000
AcDbSavedByObjectVersion
1070
     0
  0
VISUALSTYLE
  5
31
102
{ACAD_REACTORS
330
2A
102
}
102
{ACAD_XDICTIONARY
360
28A
102
}
330
2A
100
AcDbVisualStyle
  2
3D Hidden
 70
     6
 71
     1
 72
     2
 73
     2
 90
        0
 40
-0.6
 41
-30.0
 62
     5
 63
     7
 74
     2
 91
        2
 64
     7
 65
   257
 75
     2
175
     1
 42
40.0
 92
        0
 66
   257
 43
1.0
 76
     1
 77
     6
 78
     2
 67
     7
 79
     3
170
     0
171
     0
290
     0
174
     0
 93
        1
 44
0.0
173
     0
291
     0
 45
0.0
1001
ACAD
1000
AcDbSavedByObjectVersion
1070
     0
  0
VISUALSTYLE
  5
30
102
{ACAD_REACTORS
330
2A
102
}
102
{ACAD_XDICTIONARY
360
288
102
}
330
2A
100
AcDbVisualStyle
  2
3dWireframe
 70
     5
 71
     0
 72
     2
 73
     0
 90
        0
 40
-0.6
 41
-30.0
 62
     5
 63
     7
 74
     1
 91
        4
 64
     7
 65
   257
 75
     1
175
     1
 42
1.0
 92
        0
 66
   257
 43
1.0
 76
     1
 77
     6
 78
     2
 67
     7
 79
     5
170
     0
171
     0
290
     0
174
     0
 93
        1
 44
0.0
173
     0
291
     0
 45
0.0
1001
ACAD
1000
AcDbSavedByObjectVersion
1070
     0
  0
VISUALSTYLE
  5
32
102
{ACAD_REACTORS
330
2A
102
}
102
{ACAD_XDICTIONARY
360
28C
102
}
330
2A
100
AcDbVisualStyle
  2
Basic
 70
     7
 71
     1
 72
     0
 73
     1
 90
        0
 40
-0.6
 41
-30.0
 62
     5
 63
     7
 74
     0
 91
        4
 64
     7
 65
   257
 75
     1
175
     1
 42
1.0
 92
        8
 66
     7
 43
1.0
 76
     1
 77
     6
 78
     2
 67
     7
 79
     5
170
     0
171
     0
290
     0
174
     0
 93
        1
 44
0.0
173
     0
291
     1
 45
0.0
1001
ACAD
1000
AcDbSavedByObjectVersion
1070
     0
  0
VISUALSTYLE
  5
36
102
{ACAD_REACTORS
330
2A
102
}
102
{ACAD_XDICTIONARY
360
294
102
}
330
2A
100
AcDbVisualStyle
  2
Brighten
 70
    12
 71
     2
 72
     2
 73
     0
 90
        0
 40
-0.6
 41
-30.0
 62
     5
 63
     7
 74
     1
 91
        4
 64
     7
 65
   257
 75
     1
175
     1
 42
1.0
 92
        8
 66
     7
 43
1.0
 76
     1
 77
     6
 78
     2
 67
     7
 79
     5
170
     0
171
     0
290
     0
174
     0
 93
        1
 44
50.0
173
     0
291
     1
 45
0.0
1001
ACAD
1000
AcDbSavedByObjectVersion
1070
     0
  0
VISUALSTYLE
  5
3A
102
{ACAD_REACTORS
330
2A
102
}
102
{ACAD_XDICTIONARY
360
29C
102
}
330
2A
100
AcDbVisualStyle
  2
ColorChange
 70
    16
 71
     2
 72
     2
 73
     3
 90
        0
 40
-0.6
 41
-30.0
 62
     5
 63
     8
 74
     1
 91
        4
 64
     7
 65
   257
 75
     1
175
     1
 42
1.0
 92
        8
 66
     8
 43
1.0
 76
     1
 77
     6
 78
     2
 67
     7
 79
     5
170
     0
171
     0
290
     0
174
     0
 93
        1
 44
0.0
173
     0
291
     1
 45
0.0
1001
ACAD
1000
AcDbSavedByObjectVersion
1070
     0
  0
VISUALSTYLE
  5
34
102
{ACAD_REACTORS
330
2A
102
}
102
{ACAD_XDICTIONARY
360
290
102
}
330
2A
100
AcDbVisualStyle
  2
Conceptual
 70
     9
 71
     3
 72
     2
 73
     0
 90
        0
 40
-0.6
 41
-30.0
 62
     5
 63
     7
 74
     2
 91
        2
 64
     7
 65
   257
 75
     1
175
     1
 42
40.0
 92
        8
 66
     7
 43
1.0
 76
     1
 77
     6
 78
     2
 67
     7
 79
     3
170
     0
171
     0
290
     0
174
     0
 93
        1
 44
0.0
173
     0
291
     0
 45
0.0
1001
ACAD
1000
AcDbSavedByObjectVersion
1070
     0
  0
VISUALSTYLE
  5
35
102
{ACAD_REACTORS
330
2A
102
}
102
{ACAD_XDICTIONARY
360
292
102
}
330
2A
100
AcDbVisualStyle
  2
Dim
 70
    11
 71
     2
 72
     2
 73
     0
 90
        0
 40
-0.6
 41
-30.0
 62
     5
 63
     7
 74
     1
 91
        4
 64
     7
 65
   257
 75
     1
175
     1
 42
1.0
 92
        8
 66
     7
 43
1.0
 76
     1
 77
     6
 78
     2
 67
     7
 79
     5
170
     0
171
     0
290
     0
174
     0
 93
        1
 44
-50.0
173
     0
291
     1
 45
0.0
1001
ACAD
1000
AcDbSavedByObjectVersion
1070
     0
  0
VISUALSTYLE
  5
39
102
{ACAD_REACTORS
330
2A
102
}
102
{ACAD_XDICTIONARY
360
29A
102
}
330
2A
100
AcDbVisualStyle
  2
Facepattern
 70
    15
 71
     2
 72
     2
 73
     0
 90
        0
 40
-0.6
 41
-30.0
 62
     5
 63
     7
 74
     1
 91
        4
 64
     7
 65
   257
 75
     1
175
     1
 42
1.0
 92
        8
 66
     7
 43
1.0
 76
     1
 77
     6
 78
     2
 67
     7
 79
     5
170
     0
171
     0
290
     0
174
     0
 93
        1
 44
0.0
173
     0
291
     1
 45
0.0
1001
ACAD
1000
AcDbSavedByObjectVersion
1070
     0
  0
VISUALSTYLE
  5
2B
102
{ACAD_REACTORS
330
2A
102
}
102
{ACAD_XDICTIONARY
360
27E
102
}
330
2A
100
AcDbVisualStyle
  2
Flat
 70
     0
 71
     2
 72
     1
 73
     1
 90
        2
 40
-0.6
 41
30.0
 62
     5
 63
     7
 74
     0
 91
        4
 64
     7
 65
   257
 75
     1
175
     1
 42
1.0
 92
        8
 66
     7
 43
1.0
 76
     1
 77
     6
 78
     2
 67
     7
 79
     5
170
     0
171
     0
290
     0
174
     0
 93
       13
 44
0.0
173
     0
291
     1
 45
0.0
1001
ACAD
1000
AcDbSavedByObjectVersion
1070
     0
  0
VISUALSTYLE
  5
2C
102
{ACAD_REACTORS
330
2A
102
}
102
{ACAD_XDICTIONARY
360
280
102
}
330
2A
100
AcDbVisualStyle
  2
FlatWithEdges
 70
     1
 71
     2
 72
     1
 73
     1
 90
        2
 40
-0.6
 41
30.0
 62
     5
 63
     7
 74
     1
 91
        4
 64
     7
 65
   257
 75
     1
175
     1
 42
1.0
 92
        0
 66
   257
 43
1.0
 76
     1
 77
     6
 78
     2
 67
     7
 79
     5
170
     0
171
     0
290
     0
174
     0
 93
       13
 44
0.0
173
     0
291
     1
 45
0.0
1001
ACAD
1000
AcDbSavedByObjectVersion
1070
     0
  0
VISUALSTYLE
  5
2D
102
{ACAD_REACTORS
330
2A
102
}
102
{ACAD_XDICTIONARY
360
282
102
}
330
2A
100
AcDbVisualStyle
  2
Gouraud
 70
     2
 71
     2
 72
     2
 73
     1
 90
        2
 40
-0.6
 41
30.0
 62
     5
 63
     7
 74
     0
 91
        4
 64
     7
 65
   257
 75
     1
175
     1
 42
1.0
 92
        0
 66
     7
 43
1.0
 76
     1
 77
     6
 78
     2
 67
     7
 79
     5
170
     0
171
     0
290
     0
174
     0
 93
       13
 44
0.0
173
     0
291
     1
 45
0.0
1001
ACAD
1000
AcDbSavedByObjectVersion
1070
     0
  0
VISUALSTYLE
  5
2E
102
{ACAD_REACTORS
330
2A
102
}
102
{ACAD_XDICTIONARY
360
284
102
}
330
2A
100
AcDbVisualStyle
  2
GouraudWithEdges
 70
     3
 71
     2
 72
     2
 73
     1
 90
        2
 40
-0.6
 41
30.0
 62
     5
 63
     7
 74
     1
 91
        4
 64
     7
 65
   257
 75
     1
175
     1
 42
1.0
 92
        0
 66
   257
 43
1.0
 76
     1
 77
     6
 78
     2
 67
     7
 79
     5
170
     0
171
     0
290
     0
174
     0
 93
       13
 44
0.0
173
     0
291
     1
 45
0.0
1001
ACAD
1000
AcDbSavedByObjectVersion
1070
     0
  0
VISUALSTYLE
  5
38
102
{ACAD_REACTORS
330
2A
102
}
102
{ACAD_XDICTIONARY
360
298
102
}
330
2A
100
AcDbVisualStyle
  2
Linepattern
 70
    14
 71
     2
 72
     2
 73
     0
 90
        0
 40
-0.6
 41
-30.0
 62
     5
 63
     7
 74
     1
 91
        4
 64
     7
 65
   257
 75
     7
175
     7
 42
1.0
 92
        8
 66
     7
 43
1.0
 76
     1
 77
     6
 78
     2
 67
     7
 79
     5
170
     0
171
     0
290
     0
174
     0
 93
        1
 44
0.0
173
     0
291
     1
 45
0.0
1001
ACAD
1000
AcDbSavedByObjectVersion
1070
     0
  0
VISUALSTYLE
  5
33
102
{ACAD_REACTORS
330
2A
102
}
102
{ACAD_XDICTIONARY
360
28E
102
}
330
2A
100
AcDbVisualStyle
  2
Realistic
 70
     8
 71
     2
 72
     2
 73
     0
 90
        0
 40
-0.6
 41
-30.0
 62
     5
 63
     7
 74
     1
 91
        0
 64
     7
 65
   257
 75
     1
175
     1
 42
1.0
 92
        8
 66
     8
 43
1.0
 76
     1
 77
     6
 78
     2
 67
     7
 79
     5
170
     0
171
     0
290
     0
174
     0
 93
       13
 44
0.0
173
     0
291
     0
 45
0.0
1001
ACAD
1000
AcDbSavedByObjectVersion
1070
     0
  0
VISUALSTYLE
  5
37
102
{ACAD_REACTORS
330
2A
102
}
102
{ACAD_XDICTIONARY
360
296
102
}
330
2A
100
AcDbVisualStyle
  2
Thicken
 70
    13
 71
     2
 72
     2
 73
     0
 90
        0
 40
-0.6
 41
-30.0
 62
     5
 63
     7
 74
     1
 91
        4
 64
     7
 65
   257
 75
     1
175
     1
 42
1.0
 92
       12
 66
     7
 43
1.0
 76
     1
 77
     6
 78
     2
 67
     7
 79
     5
170
     0
171
     0
290
     0
174
     0
 93
        1
 44
0.0
173
     0
291
     1
 45
0.0
1001
ACAD
1000
AcDbSavedByObjectVersion
1070
     0
  0
DICTIONARYVAR
  5
27C
102
{ACAD_REACTORS
330
279
102
}
330
279
100
DictionaryVariables
280
     0
  1
2
  0
DICTIONARYVAR
  5
27D
102
{ACAD_REACTORS
330
279
102
}
330
279
100
DictionaryVariables
280
     0
  1
1
  0
DICTIONARY
  5
2A0
330
3D
100
AcDbDictionary
280
     1
281
     1
  3
ACAD_XREC_ROUNDTRIP
360
2A1
  0
DICTIONARY
  5
29E
330
3C
100
AcDbDictionary
280
     1
281
     1
  3
ACAD_XREC_ROUNDTRIP
360
29F
  0
DICTIONARY
  5
2A2
330
3E
100
AcDbDictionary
280
     1
281
     1
  3
ACAD_XREC_ROUNDTRIP
360
2A3
  0
DICTIONARY
  5
286
330
2F
100
AcDbDictionary
280
     1
281
     1
  3
ACAD_XREC_ROUNDTRIP
360
287
  0
DICTIONARY
  5
28A
330
31
100
AcDbDictionary
280
     1
281
     1
  3
ACAD_XREC_ROUNDTRIP
360
28B
  0
DICTIONARY
  5
288
330
30
100
AcDbDictionary
280
     1
281
     1
  3
ACAD_XREC_ROUNDTRIP
360
289
  0
DICTIONARY
  5
28C
330
32
100
AcDbDictionary
280
     1
281
     1
  3
ACAD_XREC_ROUNDTRIP
360
28D
  0
DICTIONARY
  5
294
330
36
100
AcDbDictionary
280
     1
281
     1
  3
ACAD_XREC_ROUNDTRIP
360
295
  0
DICTIONARY
  5
29C
330
3A
100
AcDbDictionary
280
     1
281
     1
  3
ACAD_XREC_ROUNDTRIP
360
29D
  0
DICTIONARY
  5
290
330
34
100
AcDbDictionary
280
     1
281
     1
  3
ACAD_XREC_ROUNDTRIP
360
291
  0
DICTIONARY
  5
292
330
35
100
AcDbDictionary
280
     1
281
     1
  3
ACAD_XREC_ROUNDTRIP
360
293
  0
DICTIONARY
  5
29A
330
39
100
AcDbDictionary
280
     1
281
     1
  3
ACAD_XREC_ROUNDTRIP
360
29B
  0
DICTIONARY
  5
27E
330
2B
100
AcDbDictionary
280
     1
281
     1
  3
ACAD_XREC_ROUNDTRIP
360
27F
  0
DICTIONARY
  5
280
330
2C
100
AcDbDictionary
280
     1
281
     1
  3
ACAD_XREC_ROUNDTRIP
360
281
  0
DICTIONARY
  5
282
330
2D
100
AcDbDictionary
280
     1
281
     1
  3
ACAD_XREC_ROUNDTRIP
360
283
  0
DICTIONARY
  5
284
330
2E
100
AcDbDictionary
280
     1
281
     1
  3
ACAD_XREC_ROUNDTRIP
360
285
  0
DICTIONARY
  5
298
330
38
100
AcDbDictionary
280
     1
281
     1
  3
ACAD_XREC_ROUNDTRIP
360
299
  0
DICTIONARY
  5
28E
330
33
100
AcDbDictionary
280
     1
281
     1
  3
ACAD_XREC_ROUNDTRIP
360
28F
  0
DICTIONARY
  5
296
330
37
100
AcDbDictionary
280
     1
281
     1
  3
ACAD_XREC_ROUNDTRIP
360
297
  0
XRECORD
  5
2A1
102
{ACAD_REACTORS
330
2A0
102
}
330
2A0
100
AcDbXrecord
280
     1
102
MATERIAL
148
0.0
149
0.0
149
0.0
 93
        0
 94
      127
282
     0
 72
     1
 77
     1
171
     1
175
     1
179
     1
273
     0
  0
XRECORD
  5
29F
102
{ACAD_REACTORS
330
29E
102
}
330
29E
100
AcDbXrecord
280
     1
102
MATERIAL
148
0.0
149
0.0
149
0.0
 93
        0
 94
      127
282
     0
 72
     1
 77
     1
171
     1
175
     1
179
     1
273
     0
  0
XRECORD
  5
2A3
102
{ACAD_REACTORS
330
2A2
102
}
330
2A2
100
AcDbXrecord
280
     1
102
MATERIAL
148
0.0
149
0.0
149
0.0
 93
        0
 94
      127
282
     0
 72
     1
 77
     1
171
     1
175
     1
179
     1
273
     0
  0
XRECORD
  5
287
102
{ACAD_REACTORS
330
286
102
}
330
286
100
AcDbXrecord
280
     1
102
RTVSPropertyOp0
 70
     1
102
RTVSPropertyOp1
 70
     1
102
RTVSPropertyOp2
 70
     1
102
RTVSPropertyOp3
 70
     1
102
RTVSPropertyOp4
 70
     1
102
RTVSPropertyOp5
 70
     1
102
RTVSPropertyOp6
 70
     1
102
RTVSPropertyOp7
 70
     1
102
RTVSPropertyOp8
 70
     1
102
RTVSPropertyOp9
 70
     1
102
RTVSPropertyOp10
 70
     1
102
RTVSPropertyOp11
 70
     1
102
RTVSPropertyOp12
 70
     1
102
RTVSPropertyOp13
 70
     1
102
RTVSPropertyOp14
 70
     1
102
RTVSPropertyOp15
 70
     1
102
RTVSPropertyOp16
 70
     1
102
RTVSPropertyOp17
 70
     1
102
RTVSPropertyOp18
 70
     1
102
RTVSPropertyOp19
 70
     1
102
RTVSPropertyOp20
 70
     1
102
RTVSPropertyOp21
 70
     1
102
RTVSPropertyOp22
 70
     1
102
RTVSPropertyOp23
 70
     1
102
RTVSPropertyOp24
 70
     1
102
RTVSPropertyOp25
 70
     1
102
RTVSPropertyOp26
 70
     1
102
RTVSPropertyOp27
 70
     1
  0
XRECORD
  5
28B
102
{ACAD_REACTORS
330
28A
102
}
330
28A
100
AcDbXrecord
280
     1
102
RTVSPropertyOp0
 70
     1
102
RTVSPropertyOp1
 70
     1
102
RTVSPropertyOp2
 70
     1
102
RTVSPropertyOp3
 70
     1
102
RTVSPropertyOp4
 70
     1
102
RTVSPropertyOp5
 70
     1
102
RTVSPropertyOp6
 70
     1
102
RTVSPropertyOp7
 70
     1
102
RTVSPropertyOp8
 70
     1
102
RTVSPropertyOp9
 70
     1
102
RTVSPropertyOp10
 70
     1
102
RTVSPropertyOp11
 70
     1
102
RTVSPropertyOp12
 70
     1
102
RTVSPropertyOp13
 70
     1
102
RTVSPropertyOp14
 70
     1
102
RTVSPropertyOp15
 70
     1
102
RTVSPropertyOp16
 70
     1
102
RTVSPropertyOp17
 70
     1
102
RTVSPropertyOp18
 70
     1
102
RTVSPropertyOp19
 70
     1
102
RTVSPropertyOp20
 70
     1
102
RTVSPropertyOp21
 70
     1
102
RTVSPropertyOp22
 70
     1
102
RTVSPropertyOp23
 70
     1
102
RTVSPropertyOp24
 70
     1
102
RTVSPropertyOp25
 70
     1
102
RTVSPropertyOp26
 70
     1
102
RTVSPropertyOp27
 70
     1
  0
XRECORD
  5
289
102
{ACAD_REACTORS
330
288
102
}
330
288
100
AcDbXrecord
280
     1
102
RTVSPropertyOp0
 70
     1
102
RTVSPropertyOp1
 70
     1
102
RTVSPropertyOp2
 70
     1
102
RTVSPropertyOp3
 70
     1
102
RTVSPropertyOp4
 70
     1
102
RTVSPropertyOp5
 70
     1
102
RTVSPropertyOp6
 70
     1
102
RTVSPropertyOp7
 70
     1
102
RTVSPropertyOp8
 70
     1
102
RTVSPropertyOp9
 70
     1
102
RTVSPropertyOp10
 70
     1
102
RTVSPropertyOp11
 70
     1
102
RTVSPropertyOp12
 70
     1
102
RTVSPropertyOp13
 70
     1
102
RTVSPropertyOp14
 70
     1
102
RTVSPropertyOp15
 70
     1
102
RTVSPropertyOp16
 70
     1
102
RTVSPropertyOp17
 70
     1
102
RTVSPropertyOp18
 70
     1
102
RTVSPropertyOp19
 70
     1
102
RTVSPropertyOp20
 70
     1
102
RTVSPropertyOp21
 70
     1
102
RTVSPropertyOp22
 70
     1
102
RTVSPropertyOp23
 70
     1
102
RTVSPropertyOp24
 70
     1
102
RTVSPropertyOp25
 70
     1
102
RTVSPropertyOp26
 70
     1
102
RTVSPropertyOp27
 70
     1
  0
XRECORD
  5
28D
102
{ACAD_REACTORS
330
28C
102
}
330
28C
100
AcDbXrecord
280
     1
102
RTVSPropertyOp0
 70
     1
102
RTVSPropertyOp1
 70
     1
102
RTVSPropertyOp2
 70
     1
102
RTVSPropertyOp3
 70
     1
102
RTVSPropertyOp4
 70
     1
102
RTVSPropertyOp5
 70
     1
102
RTVSPropertyOp6
 70
     1
102
RTVSPropertyOp7
 70
     1
102
RTVSPropertyOp8
 70
     1
102
RTVSPropertyOp9
 70
     1
102
RTVSPropertyOp10
 70
     1
102
RTVSPropertyOp11
 70
     1
102
RTVSPropertyOp12
 70
     1
102
RTVSPropertyOp13
 70
     1
102
RTVSPropertyOp14
 70
     1
102
RTVSPropertyOp15
 70
     1
102
RTVSPropertyOp16
 70
     1
102
RTVSPropertyOp17
 70
     1
102
RTVSPropertyOp18
 70
     1
102
RTVSPropertyOp19
 70
     1
102
RTVSPropertyOp20
 70
     1
102
RTVSPropertyOp21
 70
     1
102
RTVSPropertyOp22
 70
     1
102
RTVSPropertyOp23
 70
     1
102
RTVSPropertyOp24
 70
     1
102
RTVSPropertyOp25
 70
     1
102
RTVSPropertyOp26
 70
     1
102
RTVSPropertyOp27
 70
     1
  0
XRECORD
  5
295
102
{ACAD_REACTORS
330
294
102
}
330
294
100
AcDbXrecord
280
     1
102
RTVSPropertyOp0
 70
     1
102
RTVSPropertyOp1
 70
     1
102
RTVSPropertyOp2
 70
     1
102
RTVSPropertyOp3
 70
     1
102
RTVSPropertyOp4
 70
     1
102
RTVSPropertyOp5
 70
     1
102
RTVSPropertyOp6
 70
     1
102
RTVSPropertyOp7
 70
     1
102
RTVSPropertyOp8
 70
     1
102
RTVSPropertyOp9
 70
     1
102
RTVSPropertyOp10
 70
     1
102
RTVSPropertyOp11
 70
     1
102
RTVSPropertyOp12
 70
     1
102
RTVSPropertyOp13
 70
     1
102
RTVSPropertyOp14
 70
     1
102
RTVSPropertyOp15
 70
     1
102
RTVSPropertyOp16
 70
     1
102
RTVSPropertyOp17
 70
     1
102
RTVSPropertyOp18
 70
     1
102
RTVSPropertyOp19
 70
     1
102
RTVSPropertyOp20
 70
     1
102
RTVSPropertyOp21
 70
     1
102
RTVSPropertyOp22
 70
     1
102
RTVSPropertyOp23
 70
     1
102
RTVSPropertyOp24
 70
     1
102
RTVSPropertyOp25
 70
     1
102
RTVSPropertyOp26
 70
     1
102
RTVSPropertyOp27
 70
     1
  0
XRECORD
  5
29D
102
{ACAD_REACTORS
330
29C
102
}
330
29C
100
AcDbXrecord
280
     1
102
RTVSPropertyOp0
 70
     1
102
RTVSPropertyOp1
 70
     1
102
RTVSPropertyOp2
 70
     1
102
RTVSPropertyOp3
 70
     1
102
RTVSPropertyOp4
 70
     1
102
RTVSPropertyOp5
 70
     1
102
RTVSPropertyOp6
 70
     1
102
RTVSPropertyOp7
 70
     1
102
RTVSPropertyOp8
 70
     1
102
RTVSPropertyOp9
 70
     1
102
RTVSPropertyOp10
 70
     1
102
RTVSPropertyOp11
 70
     1
102
RTVSPropertyOp12
 70
     1
102
RTVSPropertyOp13
 70
     1
102
RTVSPropertyOp14
 70
     1
102
RTVSPropertyOp15
 70
     1
102
RTVSPropertyOp16
 70
     1
102
RTVSPropertyOp17
 70
     1
102
RTVSPropertyOp18
 70
     1
102
RTVSPropertyOp19
 70
     1
102
RTVSPropertyOp20
 70
     1
102
RTVSPropertyOp21
 70
     1
102
RTVSPropertyOp22
 70
     1
102
RTVSPropertyOp23
 70
     1
102
RTVSPropertyOp24
 70
     1
102
RTVSPropertyOp25
 70
     1
102
RTVSPropertyOp26
 70
     1
102
RTVSPropertyOp27
 70
     1
  0
XRECORD
  5
291
102
{ACAD_REACTORS
330
290
102
}
330
290
100
AcDbXrecord
280
     1
102
RTVSPropertyOp0
 70
     1
102
RTVSPropertyOp1
 70
     1
102
RTVSPropertyOp2
 70
     1
102
RTVSPropertyOp3
 70
     1
102
RTVSPropertyOp4
 70
     1
102
RTVSPropertyOp5
 70
     1
102
RTVSPropertyOp6
 70
     1
102
RTVSPropertyOp7
 70
     1
102
RTVSPropertyOp8
 70
     1
102
RTVSPropertyOp9
 70
     1
102
RTVSPropertyOp10
 70
     1
102
RTVSPropertyOp11
 70
     1
102
RTVSPropertyOp12
 70
     1
102
RTVSPropertyOp13
 70
     1
102
RTVSPropertyOp14
 70
     1
102
RTVSPropertyOp15
 70
     1
102
RTVSPropertyOp16
 70
     1
102
RTVSPropertyOp17
 70
     1
102
RTVSPropertyOp18
 70
     1
102
RTVSPropertyOp19
 70
     1
102
RTVSPropertyOp20
 70
     1
102
RTVSPropertyOp21
 70
     1
102
RTVSPropertyOp22
 70
     1
102
RTVSPropertyOp23
 70
     1
102
RTVSPropertyOp24
 70
     1
102
RTVSPropertyOp25
 70
     1
102
RTVSPropertyOp26
 70
     1
102
RTVSPropertyOp27
 70
     1
  0
XRECORD
  5
293
102
{ACAD_REACTORS
330
292
102
}
330
292
100
AcDbXrecord
280
     1
102
RTVSPropertyOp0
 70
     1
102
RTVSPropertyOp1
 70
     1
102
RTVSPropertyOp2
 70
     1
102
RTVSPropertyOp3
 70
     1
102
RTVSPropertyOp4
 70
     1
102
RTVSPropertyOp5
 70
     1
102
RTVSPropertyOp6
 70
     1
102
RTVSPropertyOp7
 70
     1
102
RTVSPropertyOp8
 70
     1
102
RTVSPropertyOp9
 70
     1
102
RTVSPropertyOp10
 70
     1
102
RTVSPropertyOp11
 70
     1
102
RTVSPropertyOp12
 70
     1
102
RTVSPropertyOp13
 70
     1
102
RTVSPropertyOp14
 70
     1
102
RTVSPropertyOp15
 70
     1
102
RTVSPropertyOp16
 70
     1
102
RTVSPropertyOp17
 70
     1
102
RTVSPropertyOp18
 70
     1
102
RTVSPropertyOp19
 70
     1
102
RTVSPropertyOp20
 70
     1
102
RTVSPropertyOp21
 70
     1
102
RTVSPropertyOp22
 70
     1
102
RTVSPropertyOp23
 70
     1
102
RTVSPropertyOp24
 70
     1
102
RTVSPropertyOp25
 70
     1
102
RTVSPropertyOp26
 70
     1
102
RTVSPropertyOp27
 70
     1
  0
XRECORD
  5
29B
102
{ACAD_REACTORS
330
29A
102
}
330
29A
100
AcDbXrecord
280
     1
102
RTVSPropertyOp0
 70
     1
102
RTVSPropertyOp1
 70
     1
102
RTVSPropertyOp2
 70
     1
102
RTVSPropertyOp3
 70
     1
102
RTVSPropertyOp4
 70
     1
102
RTVSPropertyOp5
 70
     1
102
RTVSPropertyOp6
 70
     1
102
RTVSPropertyOp7
 70
     1
102
RTVSPropertyOp8
 70
     1
102
RTVSPropertyOp9
 70
     1
102
RTVSPropertyOp10
 70
     1
102
RTVSPropertyOp11
 70
     1
102
RTVSPropertyOp12
 70
     1
102
RTVSPropertyOp13
 70
     1
102
RTVSPropertyOp14
 70
     1
102
RTVSPropertyOp15
 70
     1
102
RTVSPropertyOp16
 70
     1
102
RTVSPropertyOp17
 70
     1
102
RTVSPropertyOp18
 70
     1
102
RTVSPropertyOp19
 70
     1
102
RTVSPropertyOp20
 70
     1
102
RTVSPropertyOp21
 70
     1
102
RTVSPropertyOp22
 70
     1
102
RTVSPropertyOp23
 70
     1
102
RTVSPropertyOp24
 70
     1
102
RTVSPropertyOp25
 70
     1
102
RTVSPropertyOp26
 70
     1
102
RTVSPropertyOp27
 70
     1
  0
XRECORD
  5
27F
102
{ACAD_REACTORS
330
27E
102
}
330
27E
100
AcDbXrecord
280
     1
102
RTVSPropertyOp0
 70
     1
102
RTVSPropertyOp1
 70
     1
102
RTVSPropertyOp2
 70
     1
102
RTVSPropertyOp3
 70
     1
102
RTVSPropertyOp4
 70
     1
102
RTVSPropertyOp5
 70
     1
102
RTVSPropertyOp6
 70
     1
102
RTVSPropertyOp7
 70
     1
102
RTVSPropertyOp8
 70
     1
102
RTVSPropertyOp9
 70
     1
102
RTVSPropertyOp10
 70
     1
102
RTVSPropertyOp11
 70
     1
102
RTVSPropertyOp12
 70
     1
102
RTVSPropertyOp13
 70
     1
102
RTVSPropertyOp14
 70
     1
102
RTVSPropertyOp15
 70
     1
102
RTVSPropertyOp16
 70
     1
102
RTVSPropertyOp17
 70
     1
102
RTVSPropertyOp18
 70
     1
102
RTVSPropertyOp19
 70
     1
102
RTVSPropertyOp20
 70
     1
102
RTVSPropertyOp21
 70
     1
102
RTVSPropertyOp22
 70
     1
102
RTVSPropertyOp23
 70
     1
102
RTVSPropertyOp24
 70
     1
102
RTVSPropertyOp25
 70
     1
102
RTVSPropertyOp26
 70
     1
102
RTVSPropertyOp27
 70
     1
  0
XRECORD
  5
281
102
{ACAD_REACTORS
330
280
102
}
330
280
100
AcDbXrecord
280
     1
102
RTVSPropertyOp0
 70
     1
102
RTVSPropertyOp1
 70
     1
102
RTVSPropertyOp2
 70
     1
102
RTVSPropertyOp3
 70
     1
102
RTVSPropertyOp4
 70
     1
102
RTVSPropertyOp5
 70
     1
102
RTVSPropertyOp6
 70
     1
102
RTVSPropertyOp7
 70
     1
102
RTVSPropertyOp8
 70
     1
102
RTVSPropertyOp9
 70
     1
102
RTVSPropertyOp10
 70
     1
102
RTVSPropertyOp11
 70
     1
102
RTVSPropertyOp12
 70
     1
102
RTVSPropertyOp13
 70
     1
102
RTVSPropertyOp14
 70
     1
102
RTVSPropertyOp15
 70
     1
102
RTVSPropertyOp16
 70
     1
102
RTVSPropertyOp17
 70
     1
102
RTVSPropertyOp18
 70
     1
102
RTVSPropertyOp19
 70
     1
102
RTVSPropertyOp20
 70
     1
102
RTVSPropertyOp21
 70
     1
102
RTVSPropertyOp22
 70
     1
102
RTVSPropertyOp23
 70
     1
102
RTVSPropertyOp24
 70
     1
102
RTVSPropertyOp25
 70
     1
102
RTVSPropertyOp26
 70
     1
102
RTVSPropertyOp27
 70
     1
  0
XRECORD
  5
283
102
{ACAD_REACTORS
330
282
102
}
330
282
100
AcDbXrecord
280
     1
102
RTVSPropertyOp0
 70
     1
102
RTVSPropertyOp1
 70
     1
102
RTVSPropertyOp2
 70
     1
102
RTVSPropertyOp3
 70
     1
102
RTVSPropertyOp4
 70
     1
102
RTVSPropertyOp5
 70
     1
102
RTVSPropertyOp6
 70
     1
102
RTVSPropertyOp7
 70
     1
102
RTVSPropertyOp8
 70
     1
102
RTVSPropertyOp9
 70
     1
102
RTVSPropertyOp10
 70
     1
102
RTVSPropertyOp11
 70
     1
102
RTVSPropertyOp12
 70
     1
102
RTVSPropertyOp13
 70
     1
102
RTVSPropertyOp14
 70
     1
102
RTVSPropertyOp15
 70
     1
102
RTVSPropertyOp16
 70
     1
102
RTVSPropertyOp17
 70
     1
102
RTVSPropertyOp18
 70
     1
102
RTVSPropertyOp19
 70
     1
102
RTVSPropertyOp20
 70
     1
102
RTVSPropertyOp21
 70
     1
102
RTVSPropertyOp22
 70
     1
102
RTVSPropertyOp23
 70
     1
102
RTVSPropertyOp24
 70
     1
102
RTVSPropertyOp25
 70
     1
102
RTVSPropertyOp26
 70
     1
102
RTVSPropertyOp27
 70
     1
  0
XRECORD
  5
285
102
{ACAD_REACTORS
330
284
102
}
330
284
100
AcDbXrecord
280
     1
102
RTVSPropertyOp0
 70
     1
102
RTVSPropertyOp1
 70
     1
102
RTVSPropertyOp2
 70
     1
102
RTVSPropertyOp3
 70
     1
102
RTVSPropertyOp4
 70
     1
102
RTVSPropertyOp5
 70
     1
102
RTVSPropertyOp6
 70
     1
102
RTVSPropertyOp7
 70
     1
102
RTVSPropertyOp8
 70
     1
102
RTVSPropertyOp9
 70
     1
102
RTVSPropertyOp10
 70
     1
102
RTVSPropertyOp11
 70
     1
102
RTVSPropertyOp12
 70
     1
102
RTVSPropertyOp13
 70
     1
102
RTVSPropertyOp14
 70
     1
102
RTVSPropertyOp15
 70
     1
102
RTVSPropertyOp16
 70
     1
102
RTVSPropertyOp17
 70
     1
102
RTVSPropertyOp18
 70
     1
102
RTVSPropertyOp19
 70
     1
102
RTVSPropertyOp20
 70
     1
102
RTVSPropertyOp21
 70
     1
102
RTVSPropertyOp22
 70
     1
102
RTVSPropertyOp23
 70
     1
102
RTVSPropertyOp24
 70
     1
102
RTVSPropertyOp25
 70
     1
102
RTVSPropertyOp26
 70
     1
102
RTVSPropertyOp27
 70
     1
  0
XRECORD
  5
299
102
{ACAD_REACTORS
330
298
102
}
330
298
100
AcDbXrecord
280
     1
102
RTVSPropertyOp0
 70
     1
102
RTVSPropertyOp1
 70
     1
102
RTVSPropertyOp2
 70
     1
102
RTVSPropertyOp3
 70
     1
102
RTVSPropertyOp4
 70
     1
102
RTVSPropertyOp5
 70
     1
102
RTVSPropertyOp6
 70
     1
102
RTVSPropertyOp7
 70
     1
102
RTVSPropertyOp8
 70
     1
102
RTVSPropertyOp9
 70
     1
102
RTVSPropertyOp10
 70
     1
102
RTVSPropertyOp11
 70
     1
102
RTVSPropertyOp12
 70
     1
102
RTVSPropertyOp13
 70
     1
102
RTVSPropertyOp14
 70
     1
102
RTVSPropertyOp15
 70
     1
102
RTVSPropertyOp16
 70
     1
102
RTVSPropertyOp17
 70
     1
102
RTVSPropertyOp18
 70
     1
102
RTVSPropertyOp19
 70
     1
102
RTVSPropertyOp20
 70
     1
102
RTVSPropertyOp21
 70
     1
102
RTVSPropertyOp22
 70
     1
102
RTVSPropertyOp23
 70
     1
102
RTVSPropertyOp24
 70
     1
102
RTVSPropertyOp25
 70
     1
102
RTVSPropertyOp26
 70
     1
102
RTVSPropertyOp27
 70
     1
  0
XRECORD
  5
28F
102
{ACAD_REACTORS
330
28E
102
}
330
28E
100
AcDbXrecord
280
     1
102
RTVSPropertyOp0
 70
     1
102
RTVSPropertyOp1
 70
     1
102
RTVSPropertyOp2
 70
     1
102
RTVSPropertyOp3
 70
     1
102
RTVSPropertyOp4
 70
     1
102
RTVSPropertyOp5
 70
     1
102
RTVSPropertyOp6
 70
     1
102
RTVSPropertyOp7
 70
     1
102
RTVSPropertyOp8
 70
     1
102
RTVSPropertyOp9
 70
     1
102
RTVSPropertyOp10
 70
     1
102
RTVSPropertyOp11
 70
     1
102
RTVSPropertyOp12
 70
     1
102
RTVSPropertyOp13
 70
     1
102
RTVSPropertyOp14
 70
     1
102
RTVSPropertyOp15
 70
     1
102
RTVSPropertyOp16
 70
     1
102
RTVSPropertyOp17
 70
     1
102
RTVSPropertyOp18
 70
     1
102
RTVSPropertyOp19
 70
     1
102
RTVSPropertyOp20
 70
     1
102
RTVSPropertyOp21
 70
     1
102
RTVSPropertyOp22
 70
     1
102
RTVSPropertyOp23
 70
     1
102
RTVSPropertyOp24
 70
     1
102
RTVSPropertyOp25
 70
     1
102
RTVSPropertyOp26
 70
     1
102
RTVSPropertyOp27
 70
     1
  0
XRECORD
  5
297
102
{ACAD_REACTORS
330
296
102
}
330
296
100
AcDbXrecord
280
     1
102
RTVSPropertyOp0
 70
     1
102
RTVSPropertyOp1
 70
     1
102
RTVSPropertyOp2
 70
     1
102
RTVSPropertyOp3
 70
     1
102
RTVSPropertyOp4
 70
     1
102
RTVSPropertyOp5
 70
     1
102
RTVSPropertyOp6
 70
     1
102
RTVSPropertyOp7
 70
     1
102
RTVSPropertyOp8
 70
     1
102
RTVSPropertyOp9
 70
     1
102
RTVSPropertyOp10
 70
     1
102
RTVSPropertyOp11
 70
     1
102
RTVSPropertyOp12
 70
     1
102
RTVSPropertyOp13
 70
     1
102
RTVSPropertyOp14
 70
     1
102
RTVSPropertyOp15
 70
     1
102
RTVSPropertyOp16
 70
     1
102
RTVSPropertyOp17
 70
     1
102
RTVSPropertyOp18
 70
     1
102
RTVSPropertyOp19
 70
     1
102
RTVSPropertyOp20
 70
     1
102
RTVSPropertyOp21
 70
     1
102
RTVSPropertyOp22
 70
     1
102
RTVSPropertyOp23
 70
     1
102
RTVSPropertyOp24
 70
     1
102
RTVSPropertyOp25
 70
     1
102
RTVSPropertyOp26
 70
     1
102
RTVSPropertyOp27
 70
     1
  0
ENDSEC
  0
EOF
