  0
SECTION
  2
HEADER
  9
$ACADVER
  1
AC1015
  9
$ACADMAINTVER
 70
     6
  9
$DWGCODEPAGE
  3
ANSI_932
  9
$INSBASE
 10
0.0
 20
0.0
 30
0.0
  9
$EXTMIN
 10
14.7170716390314
 20
-5.49497934366642
 30
0.0
  9
$EXTMAX
 10
159.2460046511732
 20
153.1522146282979
 30
0.0
  9
$LIMMIN
 10
0.0
 20
0.0
  9
$LIMMAX
 10
12.0
 20
9.0
  9
$ORTHOMODE
 70
     0
  9
$REGENMODE
 70
     1
  9
$FILLMODE
 70
     1
  9
$QTEXTMODE
 70
     0
  9
$MIRRTEXT
 70
     1
  9
$LTSCALE
 40
1.0
  9
$ATTMODE
 70
     1
  9
$TEXTSIZE
 40
0.2
  9
$TRACEWID
 40
0.05
  9
$TEXTSTYLE
  7
Standard
  9
$CLAYER
  8
0
  9
$CELTYPE
  6
ByLayer
  9
$CECOLOR
 62
   256
  9
$CELTSCALE
 40
1.0
  9
$DISPSILH
 70
     0
  9
$DIMSCALE
 40
1.0
  9
$DIMASZ
 40
0.18
  9
$DIMEXO
 40
0.0625
  9
$DIMDLI
 40
0.38
  9
$DIMRND
 40
0.0
  9
$DIMDLE
 40
0.0
  9
$DIMEXE
 40
0.18
  9
$DIMTP
 40
0.0
  9
$DIMTM
 40
0.0
  9
$DIMTXT
 40
0.18
  9
$DIMCEN
 40
0.09
  9
$DIMTSZ
 40
0.0
  9
$DIMTOL
 70
     0
  9
$DIMLIM
 70
     0
  9
$DIMTIH
 70
     1
  9
$DIMTOH
 70
     1
  9
$DIMSE1
 70
     0
  9
$DIMSE2
 70
     0
  9
$DIMTAD
 70
     0
  9
$DIMZIN
 70
     0
  9
$DIMBLK
  1

  9
$DIMASO
 70
     1
  9
$DIMSHO
 70
     1
  9
$DIMPOST
  1

  9
$DIMAPOST
  1

  9
$DIMALT
 70
     0
  9
$DIMALTD
 70
     2
  9
$DIMALTF
 40
25.4
  9
$DIMLFAC
 40
1.0
  9
$DIMTOFL
 70
     0
  9
$DIMTVP
 40
0.0
  9
$DIMTIX
 70
     0
  9
$DIMSOXD
 70
     0
  9
$DIMSAH
 70
     0
  9
$DIMBLK1
  1

  9
$DIMBLK2
  1

  9
$DIMSTYLE
  2
Standard
  9
$DIMCLRD
 70
     0
  9
$DIMCLRE
 70
     0
  9
$DIMCLRT
 70
     0
  9
$DIMTFAC
 40
1.0
  9
$DIMGAP
 40
0.09
  9
$DIMJUST
 70
     0
  9
$DIMSD1
 70
     0
  9
$DIMSD2
 70
     0
  9
$DIMTOLJ
 70
     1
  9
$DIMTZIN
 70
     0
  9
$DIMALTZ
 70
     0
  9
$DIMALTTZ
 70
     0
  9
$DIMUPT
 70
     0
  9
$DIMDEC
 70
     4
  9
$DIMTDEC
 70
     4
  9
$DIMALTU
 70
     2
  9
$DIMALTTD
 70
     2
  9
$DIMTXSTY
  7
Standard
  9
$DIMAUNIT
 70
     0
  9
$DIMADEC
 70
     0
  9
$DIMALTRND
 40
0.0
  9
$DIMAZIN
 70
     0
  9
$DIMDSEP
 70
    46
  9
$DIMATFIT
 70
     3
  9
$DIMFRAC
 70
     0
  9
$DIMLDRBLK
  1

  9
$DIMLUNIT
 70
     2
  9
$DIMLWD
 70
    -2
  9
$DIMLWE
 70
    -2
  9
$DIMTMOVE
 70
     0
  9
$LUNITS
 70
     2
  9
$LUPREC
 70
     4
  9
$SKETCHINC
 40
0.1
  9
$FILLETRAD
 40
0.5
  9
$AUNITS
 70
     0
  9
$AUPREC
 70
     0
  9
$MENU
  1
.
  9
$ELEVATION
 40
0.0
  9
$PELEVATION
 40
0.0
  9
$THICKNESS
 40
0.0
  9
$LIMCHECK
 70
     0
  9
$CHAMFERA
 40
0.5
  9
$CHAMFERB
 40
0.5
  9
$CHAMFERC
 40
1.0
  9
$CHAMFERD
 40
0.0
  9
$SKPOLY
 70
     0
  9
$TDCREATE
 40
2458179.4824675
  9
$TDUCREATE
 40
2458179.1074675
  9
$TDUPDATE
 40
2458179.482467512
  9
$TDUUPDATE
 40
2458179.107467512
  9
$TDINDWG
 40
0.0000000116
  9
$TDUSRTIMER
 40
0.0000000116
  9
$USRTIMER
 70
     1
  9
$ANGBASE
 50
0.0
  9
$ANGDIR
 70
     0
  9
$PDMODE
 70
     0
  9
$PDSIZE
 40
0.0
  9
$PLINEWID
 40
0.0
  9
$SPLFRAME
 70
     0
  9
$SPLINETYPE
 70
     6
  9
$SPLINESEGS
 70
     8
  9
$HANDSEED
  5
2CB
  9
$SURFTAB1
 70
     6
  9
$SURFTAB2
 70
     6
  9
$SURFTYPE
 70
     6
  9
$SURFU
 70
     6
  9
$SURFV
 70
     6
  9
$UCSBASE
  2

  9
$UCSNAME
  2

  9
$UCSORG
 10
0.0
 20
0.0
 30
0.0
  9
$UCSXDIR
 10
1.0
 20
0.0
 30
0.0
  9
$UCSYDIR
 10
0.0
 20
1.0
 30
0.0
  9
$UCSORTHOREF
  2

  9
$UCSORTHOVIEW
 70
     0
  9
$UCSORGTOP
 10
0.0
 20
0.0
 30
0.0
  9
$UCSORGBOTTOM
 10
0.0
 20
0.0
 30
0.0
  9
$UCSORGLEFT
 10
0.0
 20
0.0
 30
0.0
  9
$UCSORGRIGHT
 10
0.0
 20
0.0
 30
0.0
  9
$UCSORGFRONT
 10
0.0
 20
0.0
 30
0.0
  9
$UCSORGBACK
 10
0.0
 20
0.0
 30
0.0
  9
$PUCSBASE
  2

  9
$PUCSNAME
  2

  9
$PUCSORG
 10
0.0
 20
0.0
 30
0.0
  9
$PUCSXDIR
 10
1.0
 20
0.0
 30
0.0
  9
$PUCSYDIR
 10
0.0
 20
1.0
 30
0.0
  9
$PUCSORTHOREF
  2

  9
$PUCSORTHOVIEW
 70
     0
  9
$PUCSORGTOP
 10
0.0
 20
0.0
 30
0.0
  9
$PUCSORGBOTTOM
 10
0.0
 20
0.0
 30
0.0
  9
$PUCSORGLEFT
 10
0.0
 20
0.0
 30
0.0
  9
$PUCSORGRIGHT
 10
0.0
 20
0.0
 30
0.0
  9
$PUCSORGFRONT
 10
0.0
 20
0.0
 30
0.0
  9
$PUCSORGBACK
 10
0.0
 20
0.0
 30
0.0
  9
$USERI1
 70
     0
  9
$USERI2
 70
     0
  9
$USERI3
 70
     0
  9
$USERI4
 70
     0
  9
$USERI5
 70
     0
  9
$USERR1
 40
18.0
  9
$USERR2
 40
0.0
  9
$USERR3
 40
0.0
  9
$USERR4
 40
0.0
  9
$USERR5
 40
0.0
  9
$WORLDVIEW
 70
     1
  9
$SHADEDGE
 70
     3
  9
$SHADEDIF
 70
    70
  9
$TILEMODE
 70
     1
  9
$MAXACTVP
 70
    64
  9
$PINSBASE
 10
0.0
 20
0.0
 30
0.0
  9
$PLIMCHECK
 70
     0
  9
$PEXTMIN
 10
1.00000000000000E+20
 20
1.00000000000000E+20
 30
1.00000000000000E+20
  9
$PEXTMAX
 10
-1.00000000000000E+20
 20
-1.00000000000000E+20
 30
-1.00000000000000E+20
  9
$PLIMMIN
 10
0.0
 20
0.0
  9
$PLIMMAX
 10
12.0
 20
9.0
  9
$UNITMODE
 70
     0
  9
$VISRETAIN
 70
     1
  9
$PLINEGEN
 70
     0
  9
$PSLTSCALE
 70
     1
  9
$TREEDEPTH
 70
  3020
  9
$CMLSTYLE
  2
Standard
  9
$CMLJUST
 70
     0
  9
$CMLSCALE
 40
1.0
  9
$PROXYGRAPHICS
 70
     1
  9
$MEASUREMENT
 70
     1
  9
$CELWEIGHT
370
    -1
  9
$ENDCAPS
280
     0
  9
$JOINSTYLE
280
     0
  9
$LWDISPLAY
290
     0
  9
$INSUNITS
 70
     1
  9
$HYPERLINKBASE
  1

  9
$STYLESHEET
  1

  9
$XEDIT
290
     1
  9
$CEPSNTYPE
380
     0
  9
$PSTYLEMODE
290
     1
  9
$FINGERPRINTGUID
  2
{B1F4324F-D378-4F2C-A4CF-EE1DBC5CAB42}
  9
$VERSIONGUID
  2
{FAEB1C32-E019-11D5-929B-00C0DF256EC4}
  9
$EXTNAMES
290
     1
  9
$PSVPSCALE
 40
0.0
  9
$OLESTARTUP
290
     0
  0
ENDSEC
  0
SECTION
  2
CLASSES
  0
CLASS
  1
ACDBDICTIONARYWDFLT
  2
AcDbDictionaryWithDefault
  3
ObjectDBX Classes
 90
        0
280
     0
281
     0
  0
CLASS
  1
VISUALSTYLE
  2
AcDbVisualStyle
  3
ObjectDBX Classes
 90
     4095
280
     0
281
     0
  0
CLASS
  1
MATERIAL
  2
AcDbMaterial
  3
ObjectDBX Classes
 90
     1153
280
     0
281
     0
  0
CLASS
  1

  2
exOdDbCircle
  3

 90
        0
280
     0
281
     1
  0
CLASS
  1

  2
exOdDbSpline
  3

 90
        0
280
     0
281
     1
  0
CLASS
  1
DICTIONARYVAR
  2
AcDbDictionaryVar
  3
ObjectDBX Classes
 90
        0
280
     0
281
     0
  0
CLASS
  1
ACDBPLACEHOLDER
  2
AcDbPlaceHolder
  3
ObjectDBX Classes
 90
        0
280
     0
281
     0
  0
CLASS
  1
LAYOUT
  2
AcDbLayout
  3
ObjectDBX Classes
 90
        0
280
     0
281
     0
  0
ENDSEC
  0
SECTION
  2
TABLES
  0
TABLE
  2
VPORT
  5
8
330
0
100
AcDbSymbolTable
 70
     1
  0
VPORT
  5
29
330
8
100
AcDbSymbolTableRecord
100
AcDbViewportTableRecord
  2
*Active
 70
     0
 10
0.0
 20
0.0
 11
1.0
 21
1.0
 12
86.98153814510229
 22
73.82861764231575
 13
0.0
 23
0.0
 14
0.5
 24
0.5
 15
0.5
 25
0.5
 16
0.0
 26
0.0
 36
1.0
 17
0.0
 27
0.0
 37
0.0
 40
174.5119133691608
 41
1.60267857142857
 42
50.0
 43
0.0
 44
0.0
 50
0.0
 51
0.0
 71
     0
 72
   100
 73
     1
 74
     3
 75
     0
 76
     0
 77
     0
 78
     0
281
     0
 65
     1
110
0.0
120
0.0
130
0.0
111
1.0
121
0.0
131
0.0
112
0.0
122
1.0
132
0.0
 79
     0
146
0.0
  0
ENDTAB
  0
TABLE
  2
LTYPE
  5
5
330
0
100
AcDbSymbolTable
 70
     8
  0
LTYPE
  5
14
330
5
100
AcDbSymbolTableRecord
100
AcDbLinetypeTableRecord
  2
ByBlock
 70
     0
  3

 72
    65
 73
     0
 40
0.0
  0
LTYPE
  5
15
330
5
100
AcDbSymbolTableRecord
100
AcDbLinetypeTableRecord
  2
ByLayer
 70
     0
  3

 72
    65
 73
     0
 40
0.0
  0
LTYPE
  5
16
330
5
100
AcDbSymbolTableRecord
100
AcDbLinetypeTableRecord
  2
Continuous
 70
     0
  3
Solid line
 72
    65
 73
     0
 40
0.0
  0
LTYPE
  5
3F
330
5
100
AcDbSymbolTableRecord
100
AcDbLinetypeTableRecord
  2
DASHED
 70
     0
  3
Dashed
 72
    65
 73
     2
 40
15.0
 49
7.0
 74
     0
 49
-8.0
 74
     0
  0
LTYPE
  5
40
330
5
100
AcDbSymbolTableRecord
100
AcDbLinetypeTableRecord
  2
DOTTED
 70
     0
  3
Dotted
 72
    65
 73
     2
 40
1.0
 49
0.0
 74
     0
 49
-1.0
 74
     0
  0
LTYPE
  5
41
330
5
100
AcDbSymbolTableRecord
100
AcDbLinetypeTableRecord
  2
DOT_CENTER
 70
     0
  3
Dot_Center
 72
    65
 73
     4
 40
14.0
 49
12.0
 74
     0
 49
-1.0
 74
     0
 49
0.0
 74
     0
 49
-1.0
 74
     0
  0
LTYPE
  5
42
330
5
100
AcDbSymbolTableRecord
100
AcDbLinetypeTableRecord
  2
LONG_DASHED
 70
     0
  3
Long_Dashed
 72
    65
 73
     2
 40
15.0
 49
10.0
 74
     0
 49
-5.0
 74
     0
  0
LTYPE
  5
43
330
5
100
AcDbSymbolTableRecord
100
AcDbLinetypeTableRecord
  2
DASH_CENTER
 70
     0
  3
Dash_Center
 72
    65
 73
     4
 40
14.0
 49
11.0
 74
     0
 49
-1.0
 74
     0
 49
1.0
 74
     0
 49
-1.0
 74
     0
  0
LTYPE
  5
44
330
5
100
AcDbSymbolTableRecord
100
AcDbLinetypeTableRecord
  2
PHANTOM
 70
     0
  3
Phantom
 72
    65
 73
     6
 40
13.0
 49
10.0
 74
     0
 49
-1.0
 74
     0
 49
0.0
 74
     0
 49
-1.0
 74
     0
 49
0.0
 74
     0
 49
-1.0
 74
     0
  0
LTYPE
  5
45
330
5
100
AcDbSymbolTableRecord
100
AcDbLinetypeTableRecord
  2
CENTER_DASH_DASH
 70
     0
  3
Center_Dash_Dash
 72
    65
 73
     6
 40
14.0
 49
9.0
 74
     0
 49
-1.0
 74
     0
 49
1.0
 74
     0
 49
-1.0
 74
     0
 49
1.0
 74
     0
 49
-1.0
 74
     0
  0
ENDTAB
  0
TABLE
  2
LAYER
  5
2
330
0
100
AcDbSymbolTable
 70
     6
  0
LAYER
  5
10
330
2
100
AcDbSymbolTableRecord
100
AcDbLayerTableRecord
  2
0
 70
     0
 62
     7
  6
Continuous
370
    -3
390
F
  0
LAYER
  5
46
330
2
100
AcDbSymbolTableRecord
100
AcDbLayerTableRecord
  2
1
 70
     0
 62
     7
  6
Continuous
370
    -3
390
F
  0
LAYER
  5
47
330
2
100
AcDbSymbolTableRecord
100
AcDbLayerTableRecord
  2
100
 70
     0
 62
     7
  6
Continuous
370
    -3
390
F
  0
LAYER
  5
48
330
2
100
AcDbSymbolTableRecord
100
AcDbLayerTableRecord
  2
2
 70
     0
 62
     7
  6
Continuous
370
    -3
390
F
  0
LAYER
  5
49
330
2
100
AcDbSymbolTableRecord
100
AcDbLayerTableRecord
  2
3
 70
     0
 62
     7
  6
Continuous
370
    -3
390
F
  0
LAYER
  5
4A
330
2
100
AcDbSymbolTableRecord
100
AcDbLayerTableRecord
  2
4
 70
     0
 62
     7
  6
Continuous
370
    -3
390
F
  0
ENDTAB
  0
TABLE
  2
STYLE
  5
3
330
0
100
AcDbSymbolTable
 70
     1
  0
STYLE
  5
11
330
3
100
AcDbSymbolTableRecord
100
AcDbTextStyleTableRecord
  2
Standard
 70
     0
 40
0.0
 41
1.0
 50
0.0
 71
     0
 42
0.2
  3
txt
  4

  0
ENDTAB
  0
TABLE
  2
VIEW
  5
6
330
0
100
AcDbSymbolTable
 70
     0
  0
ENDTAB
  0
TABLE
  2
UCS
  5
7
330
0
100
AcDbSymbolTable
 70
     0
  0
ENDTAB
  0
TABLE
  2
APPID
  5
9
330
0
100
AcDbSymbolTable
 70
     1
  0
APPID
  5
12
330
9
100
AcDbSymbolTableRecord
100
AcDbRegAppTableRecord
  2
ACAD
 70
     0
  0
ENDTAB
  0
TABLE
  2
DIMSTYLE
  5
A
330
0
100
AcDbSymbolTable
 70
     1
100
AcDbDimStyleTable
  0
DIMSTYLE
105
27
330
A
100
AcDbSymbolTableRecord
100
AcDbDimStyleTableRecord
  2
Standard
 70
     0
340
11
  0
ENDTAB
  0
TABLE
  2
BLOCK_RECORD
  5
1
330
0
100
AcDbSymbolTable
 70
     1
  0
BLOCK_RECORD
  5
1F
330
1
100
AcDbSymbolTableRecord
100
AcDbBlockTableRecord
  2
*Model_Space
340
22
  0
BLOCK_RECORD
  5
1B
330
1
100
AcDbSymbolTableRecord
100
AcDbBlockTableRecord
  2
*Paper_Space
340
1E
  0
BLOCK_RECORD
  5
23
330
1
100
AcDbSymbolTableRecord
100
AcDbBlockTableRecord
  2
*Paper_Space0
340
26
  0
ENDTAB
  0
ENDSEC
  0
SECTION
  2
BLOCKS
  0
BLOCK
  5
20
330
1F
100
AcDbEntity
  8
0
100
AcDbBlockBegin
  2
*Model_Space
 70
     0
 10
0.0
 20
0.0
 30
0.0
  3
*Model_Space
  1

  0
ENDBLK
  5
21
330
1F
100
AcDbEntity
  8
0
100
AcDbBlockEnd
  0
BLOCK
  5
1C
330
1B
100
AcDbEntity
 67
     1
  8
0
100
AcDbBlockBegin
  2
*Paper_Space
 70
     0
 10
0.0
 20
0.0
 30
0.0
  3
*Paper_Space
  1

  0
ENDBLK
  5
1D
330
1B
100
AcDbEntity
 67
     1
  8
0
100
AcDbBlockEnd
  0
BLOCK
  5
24
330
23
100
AcDbEntity
  8
0
100
AcDbBlockBegin
  2
*Paper_Space0
 70
     0
 10
0.0
 20
0.0
 30
0.0
  3
*Paper_Space0
  1

  0
ENDBLK
  5
25
330
23
100
AcDbEntity
  8
0
100
AcDbBlockEnd
  0
ENDSEC
  0
SECTION
  2
ENTITIES
  0
POINT
  5
4B
330
1F
100
AcDbEntity
  8
1
 62
     3
100
AcDbPoint
 10
131.296826242911
 20
146.1522146283143
 30
0.0
  0
POINT
  5
4C
330
1F
100
AcDbEntity
  8
1
 62
     3
100
AcDbPoint
 10
131.296826242911
 20
122.1522146283143
 30
0.0
  0
LINE
  5
4D
330
1F
100
AcDbEntity
  8
1
  6
Continuous
 62
     4
100
AcDbLine
 10
156.2176566708945
 20
0.84729150945578
 30
0.0
 11
158.3353037297181
 21
0.84729150945578
 31
0.0
  0
LINE
  5
4E
330
1F
100
AcDbEntity
  8
1
  6
Continuous
 62
     4
100
AcDbLine
 10
157.8058919650122
 20
3.14729150945578
 30
0.0
 11
156.2176566708945
 21
0.84729150945578
 31
0.0
  0
LINE
  5
4F
330
1F
100
AcDbEntity
  8
1
  6
Continuous
 62
     4
100
AcDbLine
 10
157.8058919650122
 20
0.14729150945578
 30
0.0
 11
157.8058919650122
 21
3.14729150945578
 31
0.0
  0
LINE
  5
50
330
1F
100
AcDbEntity
  8
1
  6
Continuous
 62
     4
100
AcDbLine
 10
155.335303729718
 20
2.84729150945578
 30
0.0
 11
153.4823625532474
 21
0.64729150945578
 31
0.0
  0
LINE
  5
51
330
1F
100
AcDbEntity
  8
1
  6
Continuous
 62
     4
100
AcDbLine
 10
150.8353037297181
 20
0.44729150945578
 30
0.0
 11
150.6588331414828
 21
0.64729150945578
 31
0.0
  0
LINE
  5
52
330
1F
100
AcDbEntity
  8
1
  6
Continuous
 62
     4
100
AcDbLine
 10
151.1882449061886
 20
0.24729150945578
 30
0.0
 11
150.8353037297181
 21
0.44729150945578
 31
0.0
  0
LINE
  5
53
330
1F
100
AcDbEntity
  8
1
  6
Continuous
 62
     4
100
AcDbLine
 10
151.6294213767769
 20
0.14729150945578
 30
0.0
 11
151.1882449061886
 21
0.24729150945578
 31
0.0
  0
LINE
  5
54
330
1F
100
AcDbEntity
  8
1
  6
Continuous
 62
     4
100
AcDbLine
 10
152.1588331414828
 20
0.24729150945578
 30
0.0
 11
151.6294213767769
 21
0.14729150945578
 31
0.0
  0
LINE
  5
55
330
1F
100
AcDbEntity
  8
1
  6
Continuous
 62
     4
100
AcDbLine
 10
152.4235390238357
 20
0.44729150945578
 30
0.0
 11
152.1588331414828
 21
0.24729150945578
 31
0.0
  0
LINE
  5
56
330
1F
100
AcDbEntity
  8
1
  6
Continuous
 62
     4
100
AcDbLine
 10
152.600009612071
 20
0.94729150945578
 30
0.0
 11
152.4235390238357
 21
0.44729150945578
 31
0.0
  0
LINE
  5
57
330
1F
100
AcDbEntity
  8
1
  6
Continuous
 62
     4
100
AcDbLine
 10
152.4235390238357
 20
1.44729150945578
 30
0.0
 11
152.600009612071
 21
0.94729150945578
 31
0.0
  0
LINE
  5
58
330
1F
100
AcDbEntity
  8
1
  6
Continuous
 62
     4
100
AcDbLine
 10
151.9823625532474
 20
1.74729150945578
 30
0.0
 11
152.4235390238357
 21
1.44729150945578
 31
0.0
  0
LINE
  5
59
330
1F
100
AcDbEntity
  8
1
  6
Continuous
 62
     4
100
AcDbLine
 10
151.5411860826592
 20
1.74729150945578
 30
0.0
 11
151.9823625532474
 21
1.74729150945578
 31
0.0
  0
LINE
  5
5A
330
1F
100
AcDbEntity
  8
1
  6
Continuous
 62
     4
100
AcDbLine
 10
151.9823625532474
 20
1.74729150945578
 30
0.0
 11
151.5411860826592
 21
1.74729150945578
 31
0.0
  0
LINE
  5
5B
330
1F
100
AcDbEntity
  8
1
  6
Continuous
 62
     4
100
AcDbLine
 10
152.3353037297181
 20
1.94729150945578
 30
0.0
 11
151.9823625532474
 21
1.74729150945578
 31
0.0
  0
LINE
  5
5C
330
1F
100
AcDbEntity
  8
1
  6
Continuous
 62
     4
100
AcDbLine
 10
152.5117743179533
 20
2.34729150945578
 30
0.0
 11
152.3353037297181
 21
1.94729150945578
 31
0.0
  0
LINE
  5
5D
330
1F
100
AcDbEntity
  8
1
  6
Continuous
 62
     4
100
AcDbLine
 10
152.4235390238357
 20
2.64729150945578
 30
0.0
 11
152.5117743179533
 21
2.34729150945578
 31
0.0
  0
LINE
  5
5E
330
1F
100
AcDbEntity
  8
1
  6
Continuous
 62
     4
100
AcDbLine
 10
152.1588331414828
 20
3.04729150945578
 30
0.0
 11
152.4235390238357
 21
2.64729150945578
 31
0.0
  0
LINE
  5
5F
330
1F
100
AcDbEntity
  8
1
  6
Continuous
 62
     4
100
AcDbLine
 10
151.6294213767769
 20
3.14729150945578
 30
0.0
 11
152.1588331414828
 21
3.04729150945578
 31
0.0
  0
LINE
  5
60
330
1F
100
AcDbEntity
  8
1
  6
Continuous
 62
     4
100
AcDbLine
 10
151.100009612071
 20
3.04729150945578
 30
0.0
 11
151.6294213767769
 21
3.14729150945578
 31
0.0
  0
LINE
  5
61
330
1F
100
AcDbEntity
  8
1
  6
Continuous
 62
     4
100
AcDbLine
 10
150.7470684356004
 20
2.64729150945578
 30
0.0
 11
151.100009612071
 21
3.04729150945578
 31
0.0
  0
LINE
  5
62
330
1F
100
AcDbEntity
  8
1
  6
Continuous
 62
     4
100
AcDbLine
 10
149.600009612071
 20
0.44729150945578
 30
0.0
 11
149.7764802003063
 21
0.74729150945578
 31
0.0
  0
LINE
  5
63
330
1F
100
AcDbEntity
  8
1
  6
Continuous
 62
     4
100
AcDbLine
 10
149.3353037297181
 20
0.24729150945578
 30
0.0
 11
149.600009612071
 21
0.44729150945578
 31
0.0
  0
LINE
  5
64
330
1F
100
AcDbEntity
  8
1
  6
Continuous
 62
     4
100
AcDbLine
 10
148.9823625532475
 20
0.14729150945578
 30
0.0
 11
149.3353037297181
 21
0.24729150945578
 31
0.0
  0
LINE
  5
65
330
1F
100
AcDbEntity
  8
1
  6
Continuous
 62
     4
100
AcDbLine
 10
148.7176566708945
 20
0.14729150945578
 30
0.0
 11
148.9823625532475
 21
0.14729150945578
 31
0.0
  0
LINE
  5
66
330
1F
100
AcDbEntity
  8
1
  6
Continuous
 62
     4
100
AcDbLine
 10
148.5411860826592
 20
0.24729150945578
 30
0.0
 11
148.7176566708945
 21
0.14729150945578
 31
0.0
  0
LINE
  5
67
330
1F
100
AcDbEntity
  8
1
  6
Continuous
 62
     4
100
AcDbLine
 10
148.4529507885416
 20
0.44729150945578
 30
0.0
 11
148.5411860826592
 21
0.24729150945578
 31
0.0
  0
LINE
  5
68
330
1F
100
AcDbEntity
  8
1
  6
Continuous
 62
     4
100
AcDbLine
 10
148.3647154944239
 20
0.74729150945578
 30
0.0
 11
148.4529507885416
 21
0.44729150945578
 31
0.0
  0
LINE
  5
69
330
1F
100
AcDbEntity
  8
1
  6
Continuous
 62
     4
100
AcDbLine
 10
148.2764802003063
 20
1.14729150945578
 30
0.0
 11
148.3647154944239
 21
0.74729150945578
 31
0.0
  0
LINE
  5
6A
330
1F
100
AcDbEntity
  8
1
  6
Continuous
 62
     4
100
AcDbLine
 10
148.3647154944239
 20
1.64729150945578
 30
0.0
 11
148.2764802003063
 21
1.14729150945578
 31
0.0
  0
LINE
  5
6B
330
1F
100
AcDbEntity
  8
1
  6
Continuous
 62
     4
100
AcDbLine
 10
148.4529507885416
 20
1.94729150945578
 30
0.0
 11
148.3647154944239
 21
1.64729150945578
 31
0.0
  0
LINE
  5
6C
330
1F
100
AcDbEntity
  8
1
  6
Continuous
 62
     4
100
AcDbLine
 10
148.6294213767769
 20
2.24729150945578
 30
0.0
 11
148.4529507885416
 21
1.94729150945578
 31
0.0
  0
LINE
  5
6D
330
1F
100
AcDbEntity
  8
1
  6
Continuous
 62
     4
100
AcDbLine
 10
148.9823625532475
 20
2.34729150945578
 30
0.0
 11
148.6294213767769
 21
2.24729150945578
 31
0.0
  0
LINE
  5
6E
330
1F
100
AcDbEntity
  8
1
  6
Continuous
 62
     4
100
AcDbLine
 10
149.3353037297181
 20
2.24729150945578
 30
0.0
 11
148.9823625532475
 21
2.34729150945578
 31
0.0
  0
LINE
  5
6F
330
1F
100
AcDbEntity
  8
1
  6
Continuous
 62
     4
100
AcDbLine
 10
149.600009612071
 20
2.04729150945578
 30
0.0
 11
149.3353037297181
 21
2.24729150945578
 31
0.0
  0
LINE
  5
70
330
1F
100
AcDbEntity
  8
1
  6
Continuous
 62
     4
100
AcDbLine
 10
149.7764802003063
 20
1.84729150945578
 30
0.0
 11
149.600009612071
 21
2.04729150945578
 31
0.0
  0
LINE
  5
71
330
1F
100
AcDbEntity
  8
1
  6
Continuous
 62
     4
100
AcDbLine
 10
145.5411860826592
 20
1.54729150945578
 30
0.0
 11
145.5411860826592
 21
3.14729150945578
 31
0.0
  0
LINE
  5
72
330
1F
100
AcDbEntity
  8
1
  6
Continuous
 62
     4
100
AcDbLine
 10
146.6882449061886
 20
1.54729150945578
 30
0.0
 11
147.3941272591298
 21
0.14729150945578
 31
0.0
  0
LINE
  5
73
330
1F
100
AcDbEntity
  8
1
  6
Continuous
 62
     4
100
AcDbLine
 10
146.6882449061886
 20
1.54729150945578
 30
0.0
 11
145.5411860826592
 21
1.54729150945578
 31
0.0
  0
LINE
  5
74
330
1F
100
AcDbEntity
  8
1
  6
Continuous
 62
     4
100
AcDbLine
 10
147.0411860826592
 20
1.74729150945578
 30
0.0
 11
146.6882449061886
 21
1.54729150945578
 31
0.0
  0
LINE
  5
75
330
1F
100
AcDbEntity
  8
1
  6
Continuous
 62
     4
100
AcDbLine
 10
147.2176566708945
 20
1.94729150945578
 30
0.0
 11
147.0411860826592
 21
1.74729150945578
 31
0.0
  0
LINE
  5
76
330
1F
100
AcDbEntity
  8
1
  6
Continuous
 62
     4
100
AcDbLine
 10
147.3058919650121
 20
2.34729150945578
 30
0.0
 11
147.2176566708945
 21
1.94729150945578
 31
0.0
  0
LINE
  5
77
330
1F
100
AcDbEntity
  8
1
  6
Continuous
 62
     4
100
AcDbLine
 10
147.2176566708945
 20
2.64729150945578
 30
0.0
 11
147.3058919650121
 21
2.34729150945578
 31
0.0
  0
LINE
  5
78
330
1F
100
AcDbEntity
  8
1
  6
Continuous
 62
     4
100
AcDbLine
 10
147.0411860826592
 20
2.94729150945578
 30
0.0
 11
147.2176566708945
 21
2.64729150945578
 31
0.0
  0
LINE
  5
79
330
1F
100
AcDbEntity
  8
1
  6
Continuous
 62
     4
100
AcDbLine
 10
146.6882449061886
 20
3.14729150945578
 30
0.0
 11
147.0411860826592
 21
2.94729150945578
 31
0.0
  0
LINE
  5
7A
330
1F
100
AcDbEntity
  8
1
  6
Continuous
 62
     4
100
AcDbLine
 10
145.5411860826592
 20
3.14729150945578
 30
0.0
 11
146.6882449061886
 21
3.14729150945578
 31
0.0
  0
LINE
  5
7B
330
1F
100
AcDbEntity
  8
1
  6
Continuous
 62
     4
100
AcDbLine
 10
145.5411860826592
 20
0.14729150945578
 30
0.0
 11
145.5411860826592
 21
1.54729150945578
 31
0.0
  0
LINE
  5
7C
330
1F
100
AcDbEntity
  8
1
  6
Continuous
 62
     4
100
AcDbLine
 10
96.32749078871154
 20
-2.69497934366642
 30
0.0
 11
95.79807902400566
 21
-2.49497934366642
 31
0.0
  0
LINE
  5
7D
330
1F
100
AcDbEntity
  8
1
  6
Continuous
 62
     4
100
AcDbLine
 10
96.68043196518214
 20
-3.19497934366642
 30
0.0
 11
96.32749078871154
 21
-2.69497934366642
 31
0.0
  0
LINE
  5
7E
330
1F
100
AcDbEntity
  8
1
  6
Continuous
 62
     4
100
AcDbLine
 10
96.76866725929978
 20
-3.99497934366642
 30
0.0
 11
96.68043196518214
 21
-3.19497934366642
 31
0.0
  0
LINE
  5
7F
330
1F
100
AcDbEntity
  8
1
  6
Continuous
 62
     4
100
AcDbLine
 10
96.68043196518214
 20
-4.79497934366642
 30
0.0
 11
96.76866725929978
 21
-3.99497934366642
 31
0.0
  0
LINE
  5
80
330
1F
100
AcDbEntity
  8
1
  6
Continuous
 62
     4
100
AcDbLine
 10
96.32749078871154
 20
-5.29497934366642
 30
0.0
 11
96.68043196518214
 21
-4.79497934366642
 31
0.0
  0
LINE
  5
81
330
1F
100
AcDbEntity
  8
1
  6
Continuous
 62
     4
100
AcDbLine
 10
95.79807902400566
 20
-5.49497934366642
 30
0.0
 11
96.32749078871154
 21
-5.29497934366642
 31
0.0
  0
LINE
  5
82
330
1F
100
AcDbEntity
  8
1
  6
Continuous
 62
     4
100
AcDbLine
 10
95.26866725929978
 20
-5.29497934366642
 30
0.0
 11
95.79807902400566
 21
-5.49497934366642
 31
0.0
  0
LINE
  5
83
330
1F
100
AcDbEntity
  8
1
  6
Continuous
 62
     4
100
AcDbLine
 10
95.00396137694683
 20
-4.79497934366642
 30
0.0
 11
95.26866725929978
 21
-5.29497934366642
 31
0.0
  0
LINE
  5
84
330
1F
100
AcDbEntity
  8
1
  6
Continuous
 62
     4
100
AcDbLine
 10
94.82749078871154
 20
-3.99497934366642
 30
0.0
 11
95.00396137694683
 21
-4.79497934366642
 31
0.0
  0
LINE
  5
85
330
1F
100
AcDbEntity
  8
1
  6
Continuous
 62
     4
100
AcDbLine
 10
95.00396137694683
 20
-3.19497934366642
 30
0.0
 11
94.82749078871154
 21
-3.99497934366642
 31
0.0
  0
LINE
  5
86
330
1F
100
AcDbEntity
  8
1
  6
Continuous
 62
     4
100
AcDbLine
 10
95.26866725929978
 20
-2.69497934366642
 30
0.0
 11
95.00396137694683
 21
-3.19497934366642
 31
0.0
  0
LINE
  5
87
330
1F
100
AcDbEntity
  8
1
  6
Continuous
 62
     4
100
AcDbLine
 10
95.79807902400566
 20
-2.49497934366642
 30
0.0
 11
95.26866725929978
 21
-2.69497934366642
 31
0.0
  0
LINE
  5
88
330
1F
100
AcDbEntity
  8
1
  6
Continuous
 62
     4
100
AcDbLine
 10
92.35690255341743
 20
-3.99497934366642
 30
0.0
 11
93.94513784753508
 21
-3.99497934366642
 31
0.0
  0
LINE
  5
89
330
1F
100
AcDbEntity
  8
1
  6
Continuous
 62
     4
100
AcDbLine
 10
91.47454961224095
 20
-2.49497934366642
 30
0.0
 11
91.47454961224095
 21
-5.49497934366642
 31
0.0
  0
LINE
  5
8A
330
1F
100
AcDbEntity
  8
1
  6
Continuous
 62
     4
100
AcDbLine
 10
91.03337314165272
 20
-2.79497934366642
 30
0.0
 11
91.47454961224095
 21
-2.49497934366642
 31
0.0
  0
LINE
  5
8B
330
1F
100
AcDbEntity
  8
1
  6
Continuous
 62
     4
100
AcDbLine
 10
89.70984372988801
 20
-2.69497934366642
 30
0.0
 11
89.18043196518212
 21
-2.49497934366642
 31
0.0
  0
LINE
  5
8C
330
1F
100
AcDbEntity
  8
1
  6
Continuous
 62
     4
100
AcDbLine
 10
90.0627849063586
 20
-3.19497934366642
 30
0.0
 11
89.70984372988801
 21
-2.69497934366642
 31
0.0
  0
LINE
  5
8D
330
1F
100
AcDbEntity
  8
1
  6
Continuous
 62
     4
100
AcDbLine
 10
90.15102020047624
 20
-3.99497934366642
 30
0.0
 11
90.0627849063586
 21
-3.19497934366642
 31
0.0
  0
LINE
  5
8E
330
1F
100
AcDbEntity
  8
1
  6
Continuous
 62
     4
100
AcDbLine
 10
90.0627849063586
 20
-4.79497934366642
 30
0.0
 11
90.15102020047624
 21
-3.99497934366642
 31
0.0
  0
LINE
  5
8F
330
1F
100
AcDbEntity
  8
1
  6
Continuous
 62
     4
100
AcDbLine
 10
89.70984372988801
 20
-5.29497934366642
 30
0.0
 11
90.0627849063586
 21
-4.79497934366642
 31
0.0
  0
LINE
  5
90
330
1F
100
AcDbEntity
  8
1
  6
Continuous
 62
     4
100
AcDbLine
 10
89.18043196518212
 20
-5.49497934366642
 30
0.0
 11
89.70984372988801
 21
-5.29497934366642
 31
0.0
  0
LINE
  5
91
330
1F
100
AcDbEntity
  8
1
  6
Continuous
 62
     4
100
AcDbLine
 10
88.65102020047624
 20
-5.29497934366642
 30
0.0
 11
89.18043196518212
 21
-5.49497934366642
 31
0.0
  0
LINE
  5
92
330
1F
100
AcDbEntity
  8
1
  6
Continuous
 62
     4
100
AcDbLine
 10
88.3863143181233
 20
-4.79497934366642
 30
0.0
 11
88.65102020047624
 21
-5.29497934366642
 31
0.0
  0
LINE
  5
93
330
1F
100
AcDbEntity
  8
1
  6
Continuous
 62
     4
100
AcDbLine
 10
88.20984372988801
 20
-3.99497934366642
 30
0.0
 11
88.3863143181233
 21
-4.79497934366642
 31
0.0
  0
LINE
  5
94
330
1F
100
AcDbEntity
  8
1
  6
Continuous
 62
     4
100
AcDbLine
 10
88.3863143181233
 20
-3.19497934366642
 30
0.0
 11
88.20984372988801
 21
-3.99497934366642
 31
0.0
  0
LINE
  5
95
330
1F
100
AcDbEntity
  8
1
  6
Continuous
 62
     4
100
AcDbLine
 10
88.65102020047624
 20
-2.69497934366642
 30
0.0
 11
88.3863143181233
 21
-3.19497934366642
 31
0.0
  0
LINE
  5
96
330
1F
100
AcDbEntity
  8
1
  6
Continuous
 62
     4
100
AcDbLine
 10
89.18043196518212
 20
-2.49497934366642
 30
0.0
 11
88.65102020047624
 21
-2.69497934366642
 31
0.0
  0
LINE
  5
97
330
1F
100
AcDbEntity
  8
1
  6
Continuous
 62
     4
100
AcDbLine
 10
85.65102020047624
 20
-3.99497934366642
 30
0.0
 11
85.65102020047624
 21
-5.49497934366642
 31
0.0
  0
LINE
  5
98
330
1F
100
AcDbEntity
  8
1
  6
Continuous
 62
     4
100
AcDbLine
 10
85.65102020047624
 20
-3.99497934366642
 30
0.0
 11
87.15102020047624
 21
-3.99497934366642
 31
0.0
  0
LINE
  5
99
330
1F
100
AcDbEntity
  8
1
  6
Continuous
 62
     4
100
AcDbLine
 10
85.65102020047624
 20
-2.49497934366642
 30
0.0
 11
85.65102020047624
 21
-3.99497934366642
 31
0.0
  0
LINE
  5
9A
330
1F
100
AcDbEntity
  8
1
  6
Continuous
 62
     4
100
AcDbLine
 10
87.32749078871153
 20
-2.49497934366642
 30
0.0
 11
85.65102020047624
 21
-2.49497934366642
 31
0.0
  0
LINE
  5
9B
330
1F
100
AcDbEntity
  8
1
  6
Continuous
 62
     4
100
AcDbLine
 10
84.76866725929978
 20
-4.89497934366642
 30
0.0
 11
84.76866725929978
 21
-2.59497934366642
 31
0.0
  0
LINE
  5
9C
330
1F
100
AcDbEntity
  8
1
  6
Continuous
 62
     4
100
AcDbLine
 10
84.59219667106449
 20
-5.19497934366642
 30
0.0
 11
84.76866725929978
 21
-4.89497934366642
 31
0.0
  0
LINE
  5
9D
330
1F
100
AcDbEntity
  8
1
  6
Continuous
 62
     4
100
AcDbLine
 10
84.32749078871154
 20
-5.39497934366642
 30
0.0
 11
84.59219667106449
 21
-5.19497934366642
 31
0.0
  0
LINE
  5
9E
330
1F
100
AcDbEntity
  8
1
  6
Continuous
 62
     4
100
AcDbLine
 10
83.88631431812331
 20
-5.49497934366642
 30
0.0
 11
84.32749078871154
 21
-5.39497934366642
 31
0.0
  0
LINE
  5
9F
330
1F
100
AcDbEntity
  8
1
  6
Continuous
 62
     4
100
AcDbLine
 10
83.53337314165272
 20
-5.39497934366642
 30
0.0
 11
83.88631431812331
 21
-5.49497934366642
 31
0.0
  0
LINE
  5
A0
330
1F
100
AcDbEntity
  8
1
  6
Continuous
 62
     4
100
AcDbLine
 10
83.18043196518214
 20
-5.19497934366642
 30
0.0
 11
83.53337314165272
 21
-5.39497934366642
 31
0.0
  0
LINE
  5
A1
330
1F
100
AcDbEntity
  8
1
  6
Continuous
 62
     4
100
AcDbLine
 10
83.09219667106449
 20
-4.89497934366642
 30
0.0
 11
83.18043196518214
 21
-5.19497934366642
 31
0.0
  0
LINE
  5
A2
330
1F
100
AcDbEntity
  8
1
  6
Continuous
 62
     4
100
AcDbLine
 10
83.09219667106449
 20
-2.59497934366642
 30
0.0
 11
83.09219667106449
 21
-4.89497934366642
 31
0.0
  0
LINE
  5
A3
330
1F
100
AcDbEntity
  8
1
  6
Continuous
 62
     4
100
AcDbLine
 10
81.59219667106447
 20
-2.59497934366642
 30
0.0
 11
81.15102020047624
 21
-2.49497934366642
 31
0.0
  0
LINE
  5
A4
330
1F
100
AcDbEntity
  8
1
  6
Continuous
 62
     4
100
AcDbLine
 10
81.85690255341741
 20
-2.69497934366642
 30
0.0
 11
81.59219667106447
 21
-2.59497934366642
 31
0.0
  0
LINE
  5
A5
330
1F
100
AcDbEntity
  8
1
  6
Continuous
 62
     4
100
AcDbLine
 10
81.94513784753507
 20
-2.89497934366642
 30
0.0
 11
81.85690255341741
 21
-2.69497934366642
 31
0.0
  0
LINE
  5
A6
330
1F
100
AcDbEntity
  8
1
  6
Continuous
 62
     4
100
AcDbLine
 10
82.03337314165272
 20
-3.19497934366642
 30
0.0
 11
81.94513784753507
 21
-2.89497934366642
 31
0.0
  0
LINE
  5
A7
330
1F
100
AcDbEntity
  8
1
  6
Continuous
 62
     4
100
AcDbLine
 10
81.94513784753507
 20
-3.49497934366642
 30
0.0
 11
82.03337314165272
 21
-3.19497934366642
 31
0.0
  0
LINE
  5
A8
330
1F
100
AcDbEntity
  8
1
  6
Continuous
 62
     4
100
AcDbLine
 10
81.68043196518212
 20
-3.79497934366642
 30
0.0
 11
81.94513784753507
 21
-3.49497934366642
 31
0.0
  0
LINE
  5
A9
330
1F
100
AcDbEntity
  8
1
  6
Continuous
 62
     4
100
AcDbLine
 10
81.32749078871153
 20
-3.89497934366642
 30
0.0
 11
81.68043196518212
 21
-3.79497934366642
 31
0.0
  0
LINE
  5
AA
330
1F
100
AcDbEntity
  8
1
  6
Continuous
 62
     4
100
AcDbLine
 10
81.06278490635859
 20
-3.89497934366642
 30
0.0
 11
81.32749078871153
 21
-3.89497934366642
 31
0.0
  0
LINE
  5
AB
330
1F
100
AcDbEntity
  8
1
  6
Continuous
 62
     4
100
AcDbLine
 10
80.70984372988801
 20
-3.99497934366642
 30
0.0
 11
81.06278490635859
 21
-3.89497934366642
 31
0.0
  0
LINE
  5
AC
330
1F
100
AcDbEntity
  8
1
  6
Continuous
 62
     4
100
AcDbLine
 10
80.53337314165272
 20
-4.09497934366642
 30
0.0
 11
80.70984372988801
 21
-3.99497934366642
 31
0.0
  0
LINE
  5
AD
330
1F
100
AcDbEntity
  8
1
  6
Continuous
 62
     4
100
AcDbLine
 10
80.26866725929978
 20
-4.29497934366642
 30
0.0
 11
80.53337314165272
 21
-4.09497934366642
 31
0.0
  0
LINE
  5
AE
330
1F
100
AcDbEntity
  8
1
  6
Continuous
 62
     4
100
AcDbLine
 10
80.18043196518212
 20
-4.69497934366642
 30
0.0
 11
80.26866725929978
 21
-4.29497934366642
 31
0.0
  0
LINE
  5
AF
330
1F
100
AcDbEntity
  8
1
  6
Continuous
 62
     4
100
AcDbLine
 10
80.35690255341741
 20
-5.19497934366642
 30
0.0
 11
80.18043196518212
 21
-4.69497934366642
 31
0.0
  0
LINE
  5
B0
330
1F
100
AcDbEntity
  8
1
  6
Continuous
 62
     4
100
AcDbLine
 10
80.62160843577036
 20
-5.39497934366642
 30
0.0
 11
80.35690255341741
 21
-5.19497934366642
 31
0.0
  0
LINE
  5
B1
330
1F
100
AcDbEntity
  8
1
  6
Continuous
 62
     4
100
AcDbLine
 10
81.15102020047624
 20
-5.49497934366642
 30
0.0
 11
80.62160843577036
 21
-5.39497934366642
 31
0.0
  0
LINE
  5
B2
330
1F
100
AcDbEntity
  8
1
  6
Continuous
 62
     4
100
AcDbLine
 10
81.68043196518212
 20
-5.39497934366642
 30
0.0
 11
81.15102020047624
 21
-5.49497934366642
 31
0.0
  0
LINE
  5
B3
330
1F
100
AcDbEntity
  8
1
  6
Continuous
 62
     4
100
AcDbLine
 10
82.03337314165272
 20
-5.19497934366642
 30
0.0
 11
81.68043196518212
 21
-5.39497934366642
 31
0.0
  0
LINE
  5
B4
330
1F
100
AcDbEntity
  8
1
  6
Continuous
 62
     4
100
AcDbLine
 10
82.20984372988801
 20
-4.69497934366642
 30
0.0
 11
82.03337314165272
 21
-5.19497934366642
 31
0.0
  0
LINE
  5
B5
330
1F
100
AcDbEntity
  8
1
  6
Continuous
 62
     4
100
AcDbLine
 10
82.03337314165272
 20
-4.29497934366642
 30
0.0
 11
82.20984372988801
 21
-4.69497934366642
 31
0.0
  0
LINE
  5
B6
330
1F
100
AcDbEntity
  8
1
  6
Continuous
 62
     4
100
AcDbLine
 10
81.68043196518212
 20
-3.99497934366642
 30
0.0
 11
82.03337314165272
 21
-4.29497934366642
 31
0.0
  0
LINE
  5
B7
330
1F
100
AcDbEntity
  8
1
  6
Continuous
 62
     4
100
AcDbLine
 10
81.32749078871153
 20
-3.89497934366642
 30
0.0
 11
81.68043196518212
 21
-3.99497934366642
 31
0.0
  0
LINE
  5
B8
330
1F
100
AcDbEntity
  8
1
  6
Continuous
 62
     4
100
AcDbLine
 10
81.06278490635859
 20
-3.89497934366642
 30
0.0
 11
81.32749078871153
 21
-3.89497934366642
 31
0.0
  0
LINE
  5
B9
330
1F
100
AcDbEntity
  8
1
  6
Continuous
 62
     4
100
AcDbLine
 10
80.70984372988801
 20
-3.79497934366642
 30
0.0
 11
81.06278490635859
 21
-3.89497934366642
 31
0.0
  0
LINE
  5
BA
330
1F
100
AcDbEntity
  8
1
  6
Continuous
 62
     4
100
AcDbLine
 10
80.44513784753507
 20
-3.49497934366642
 30
0.0
 11
80.70984372988801
 21
-3.79497934366642
 31
0.0
  0
LINE
  5
BB
330
1F
100
AcDbEntity
  8
1
  6
Continuous
 62
     4
100
AcDbLine
 10
80.35690255341741
 20
-3.19497934366642
 30
0.0
 11
80.44513784753507
 21
-3.49497934366642
 31
0.0
  0
LINE
  5
BC
330
1F
100
AcDbEntity
  8
1
  6
Continuous
 62
     4
100
AcDbLine
 10
80.44513784753507
 20
-2.89497934366642
 30
0.0
 11
80.35690255341741
 21
-3.19497934366642
 31
0.0
  0
LINE
  5
BD
330
1F
100
AcDbEntity
  8
1
  6
Continuous
 62
     4
100
AcDbLine
 10
80.70984372988801
 20
-2.59497934366642
 30
0.0
 11
80.44513784753507
 21
-2.89497934366642
 31
0.0
  0
LINE
  5
BE
330
1F
100
AcDbEntity
  8
1
  6
Continuous
 62
     4
100
AcDbLine
 10
81.15102020047624
 20
-2.49497934366642
 30
0.0
 11
80.70984372988801
 21
-2.59497934366642
 31
0.0
  0
LINE
  5
BF
330
1F
100
AcDbEntity
  8
1
  6
Continuous
 62
     4
100
AcDbLine
 10
78.85690255341743
 20
-2.69497934366642
 30
0.0
 11
78.32749078871154
 21
-2.49497934366642
 31
0.0
  0
LINE
  5
C0
330
1F
100
AcDbEntity
  8
1
  6
Continuous
 62
     4
100
AcDbLine
 10
79.20984372988802
 20
-3.19497934366642
 30
0.0
 11
78.85690255341743
 21
-2.69497934366642
 31
0.0
  0
LINE
  5
C1
330
1F
100
AcDbEntity
  8
1
  6
Continuous
 62
     4
100
AcDbLine
 10
79.29807902400566
 20
-3.99497934366642
 30
0.0
 11
79.20984372988802
 21
-3.19497934366642
 31
0.0
  0
LINE
  5
C2
330
1F
100
AcDbEntity
  8
1
  6
Continuous
 62
     4
100
AcDbLine
 10
79.20984372988802
 20
-4.79497934366642
 30
0.0
 11
79.29807902400566
 21
-3.99497934366642
 31
0.0
  0
LINE
  5
C3
330
1F
100
AcDbEntity
  8
1
  6
Continuous
 62
     4
100
AcDbLine
 10
78.85690255341743
 20
-5.29497934366642
 30
0.0
 11
79.20984372988802
 21
-4.79497934366642
 31
0.0
  0
LINE
  5
C4
330
1F
100
AcDbEntity
  8
1
  6
Continuous
 62
     4
100
AcDbLine
 10
78.32749078871154
 20
-5.49497934366642
 30
0.0
 11
78.85690255341743
 21
-5.29497934366642
 31
0.0
  0
LINE
  5
C5
330
1F
100
AcDbEntity
  8
1
  6
Continuous
 62
     4
100
AcDbLine
 10
77.79807902400566
 20
-5.29497934366642
 30
0.0
 11
78.32749078871154
 21
-5.49497934366642
 31
0.0
  0
LINE
  5
C6
330
1F
100
AcDbEntity
  8
1
  6
Continuous
 62
     4
100
AcDbLine
 10
77.53337314165272
 20
-4.79497934366642
 30
0.0
 11
77.79807902400566
 21
-5.29497934366642
 31
0.0
  0
LINE
  5
C7
330
1F
100
AcDbEntity
  8
1
  6
Continuous
 62
     4
100
AcDbLine
 10
77.35690255341743
 20
-3.99497934366642
 30
0.0
 11
77.53337314165272
 21
-4.79497934366642
 31
0.0
  0
LINE
  5
C8
330
1F
100
AcDbEntity
  8
1
  6
Continuous
 62
     4
100
AcDbLine
 10
77.53337314165272
 20
-3.19497934366642
 30
0.0
 11
77.35690255341743
 21
-3.99497934366642
 31
0.0
  0
LINE
  5
C9
330
1F
100
AcDbEntity
  8
1
  6
Continuous
 62
     4
100
AcDbLine
 10
77.79807902400566
 20
-2.69497934366642
 30
0.0
 11
77.53337314165272
 21
-3.19497934366642
 31
0.0
  0
LINE
  5
CA
330
1F
100
AcDbEntity
  8
1
  6
Continuous
 62
     4
100
AcDbLine
 10
78.32749078871154
 20
-2.49497934366642
 30
0.0
 11
77.79807902400566
 21
-2.69497934366642
 31
0.0
  0
LINE
  5
CB
330
1F
100
AcDbEntity
  8
1
  6
Continuous
 62
     4
100
AcDbLine
 10
76.47454961224096
 20
-2.49497934366642
 30
0.0
 11
76.47454961224096
 21
-5.49497934366642
 31
0.0
  0
LINE
  5
CC
330
1F
100
AcDbEntity
  8
1
  6
Continuous
 62
     4
100
AcDbLine
 10
76.03337314165273
 20
-2.79497934366642
 30
0.0
 11
76.47454961224096
 21
-2.49497934366642
 31
0.0
  0
LINE
  5
CD
330
1F
100
AcDbEntity
  8
1
  6
Continuous
 62
     4
100
AcDbLine
 10
74.70984372988802
 20
-2.69497934366642
 30
0.0
 11
74.18043196518214
 21
-2.49497934366642
 31
0.0
  0
LINE
  5
CE
330
1F
100
AcDbEntity
  8
1
  6
Continuous
 62
     4
100
AcDbLine
 10
75.06278490635862
 20
-3.19497934366642
 30
0.0
 11
74.70984372988802
 21
-2.69497934366642
 31
0.0
  0
LINE
  5
CF
330
1F
100
AcDbEntity
  8
1
  6
Continuous
 62
     4
100
AcDbLine
 10
75.15102020047625
 20
-3.99497934366642
 30
0.0
 11
75.06278490635862
 21
-3.19497934366642
 31
0.0
  0
LINE
  5
D0
330
1F
100
AcDbEntity
  8
1
  6
Continuous
 62
     4
100
AcDbLine
 10
75.06278490635862
 20
-4.79497934366642
 30
0.0
 11
75.15102020047625
 21
-3.99497934366642
 31
0.0
  0
LINE
  5
D1
330
1F
100
AcDbEntity
  8
1
  6
Continuous
 62
     4
100
AcDbLine
 10
74.70984372988802
 20
-5.29497934366642
 30
0.0
 11
75.06278490635862
 21
-4.79497934366642
 31
0.0
  0
LINE
  5
D2
330
1F
100
AcDbEntity
  8
1
  6
Continuous
 62
     4
100
AcDbLine
 10
74.18043196518214
 20
-5.49497934366642
 30
0.0
 11
74.70984372988802
 21
-5.29497934366642
 31
0.0
  0
LINE
  5
D3
330
1F
100
AcDbEntity
  8
1
  6
Continuous
 62
     4
100
AcDbLine
 10
73.65102020047625
 20
-5.29497934366642
 30
0.0
 11
74.18043196518214
 21
-5.49497934366642
 31
0.0
  0
LINE
  5
D4
330
1F
100
AcDbEntity
  8
1
  6
Continuous
 62
     4
100
AcDbLine
 10
73.38631431812331
 20
-4.79497934366642
 30
0.0
 11
73.65102020047625
 21
-5.29497934366642
 31
0.0
  0
LINE
  5
D5
330
1F
100
AcDbEntity
  8
1
  6
Continuous
 62
     4
100
AcDbLine
 10
73.20984372988802
 20
-3.99497934366642
 30
0.0
 11
73.38631431812331
 21
-4.79497934366642
 31
0.0
  0
LINE
  5
D6
330
1F
100
AcDbEntity
  8
1
  6
Continuous
 62
     4
100
AcDbLine
 10
73.38631431812331
 20
-3.19497934366642
 30
0.0
 11
73.20984372988802
 21
-3.99497934366642
 31
0.0
  0
LINE
  5
D7
330
1F
100
AcDbEntity
  8
1
  6
Continuous
 62
     4
100
AcDbLine
 10
73.65102020047625
 20
-2.69497934366642
 30
0.0
 11
73.38631431812331
 21
-3.19497934366642
 31
0.0
  0
LINE
  5
D8
330
1F
100
AcDbEntity
  8
1
  6
Continuous
 62
     4
100
AcDbLine
 10
74.18043196518214
 20
-2.49497934366642
 30
0.0
 11
73.65102020047625
 21
-2.69497934366642
 31
0.0
  0
LINE
  5
D9
330
1F
100
AcDbEntity
  8
1
  6
Continuous
 62
     4
100
AcDbLine
 10
69.50396137694685
 20
-5.49497934366642
 30
0.0
 11
72.32749078871156
 21
-5.49497934366642
 31
0.0
  0
LINE
  5
DA
330
1F
100
AcDbEntity
  8
1
  6
Continuous
 62
     4
100
AcDbLine
 10
68.62160843577037
 20
-4.89497934366642
 30
0.0
 11
68.62160843577037
 21
-2.59497934366642
 31
0.0
  0
LINE
  5
DB
330
1F
100
AcDbEntity
  8
1
  6
Continuous
 62
     4
100
AcDbLine
 10
68.44513784753508
 20
-5.19497934366642
 30
0.0
 11
68.62160843577037
 21
-4.89497934366642
 31
0.0
  0
LINE
  5
DC
330
1F
100
AcDbEntity
  8
1
  6
Continuous
 62
     4
100
AcDbLine
 10
68.18043196518214
 20
-5.39497934366642
 30
0.0
 11
68.44513784753508
 21
-5.19497934366642
 31
0.0
  0
LINE
  5
DD
330
1F
100
AcDbEntity
  8
1
  6
Continuous
 62
     4
100
AcDbLine
 10
67.7392554945939
 20
-5.49497934366642
 30
0.0
 11
68.18043196518214
 21
-5.39497934366642
 31
0.0
  0
LINE
  5
DE
330
1F
100
AcDbEntity
  8
1
  6
Continuous
 62
     4
100
AcDbLine
 10
67.38631431812331
 20
-5.39497934366642
 30
0.0
 11
67.7392554945939
 21
-5.49497934366642
 31
0.0
  0
LINE
  5
DF
330
1F
100
AcDbEntity
  8
1
  6
Continuous
 62
     4
100
AcDbLine
 10
67.03337314165273
 20
-5.19497934366642
 30
0.0
 11
67.38631431812331
 21
-5.39497934366642
 31
0.0
  0
LINE
  5
E0
330
1F
100
AcDbEntity
  8
1
  6
Continuous
 62
     4
100
AcDbLine
 10
66.94513784753508
 20
-4.89497934366642
 30
0.0
 11
67.03337314165273
 21
-5.19497934366642
 31
0.0
  0
LINE
  5
E1
330
1F
100
AcDbEntity
  8
1
  6
Continuous
 62
     4
100
AcDbLine
 10
66.94513784753508
 20
-2.59497934366642
 30
0.0
 11
66.94513784753508
 21
-4.89497934366642
 31
0.0
  0
LINE
  5
E2
330
1F
100
AcDbEntity
  8
1
  6
Continuous
 62
     4
100
AcDbLine
 10
64.29807902400566
 20
-5.19497934366642
 30
0.0
 11
64.12160843577037
 21
-4.99497934366642
 31
0.0
  0
LINE
  5
E3
330
1F
100
AcDbEntity
  8
1
  6
Continuous
 62
     4
100
AcDbLine
 10
64.65102020047625
 20
-5.39497934366642
 30
0.0
 11
64.29807902400566
 21
-5.19497934366642
 31
0.0
  0
LINE
  5
E4
330
1F
100
AcDbEntity
  8
1
  6
Continuous
 62
     4
100
AcDbLine
 10
65.09219667106449
 20
-5.49497934366642
 30
0.0
 11
64.65102020047625
 21
-5.39497934366642
 31
0.0
  0
LINE
  5
E5
330
1F
100
AcDbEntity
  8
1
  6
Continuous
 62
     4
100
AcDbLine
 10
65.62160843577037
 20
-5.39497934366642
 30
0.0
 11
65.09219667106449
 21
-5.49497934366642
 31
0.0
  0
LINE
  5
E6
330
1F
100
AcDbEntity
  8
1
  6
Continuous
 62
     4
100
AcDbLine
 10
65.88631431812331
 20
-5.19497934366642
 30
0.0
 11
65.62160843577037
 21
-5.39497934366642
 31
0.0
  0
LINE
  5
E7
330
1F
100
AcDbEntity
  8
1
  6
Continuous
 62
     4
100
AcDbLine
 10
66.0627849063586
 20
-4.69497934366642
 30
0.0
 11
65.88631431812331
 21
-5.19497934366642
 31
0.0
  0
LINE
  5
E8
330
1F
100
AcDbEntity
  8
1
  6
Continuous
 62
     4
100
AcDbLine
 10
65.88631431812331
 20
-4.19497934366642
 30
0.0
 11
66.0627849063586
 21
-4.69497934366642
 31
0.0
  0
LINE
  5
E9
330
1F
100
AcDbEntity
  8
1
  6
Continuous
 62
     4
100
AcDbLine
 10
65.44513784753508
 20
-3.89497934366642
 30
0.0
 11
65.88631431812331
 21
-4.19497934366642
 31
0.0
  0
LINE
  5
EA
330
1F
100
AcDbEntity
  8
1
  6
Continuous
 62
     4
100
AcDbLine
 10
65.00396137694683
 20
-3.89497934366642
 30
0.0
 11
65.44513784753508
 21
-3.89497934366642
 31
0.0
  0
LINE
  5
EB
330
1F
100
AcDbEntity
  8
1
  6
Continuous
 62
     4
100
AcDbLine
 10
65.44513784753508
 20
-3.89497934366642
 30
0.0
 11
65.00396137694683
 21
-3.89497934366642
 31
0.0
  0
LINE
  5
EC
330
1F
100
AcDbEntity
  8
1
  6
Continuous
 62
     4
100
AcDbLine
 10
65.79807902400566
 20
-3.69497934366642
 30
0.0
 11
65.44513784753508
 21
-3.89497934366642
 31
0.0
  0
LINE
  5
ED
330
1F
100
AcDbEntity
  8
1
  6
Continuous
 62
     4
100
AcDbLine
 10
65.97454961224096
 20
-3.29497934366642
 30
0.0
 11
65.79807902400566
 21
-3.69497934366642
 31
0.0
  0
LINE
  5
EE
330
1F
100
AcDbEntity
  8
1
  6
Continuous
 62
     4
100
AcDbLine
 10
65.88631431812331
 20
-2.99497934366642
 30
0.0
 11
65.97454961224096
 21
-3.29497934366642
 31
0.0
  0
LINE
  5
EF
330
1F
100
AcDbEntity
  8
1
  6
Continuous
 62
     4
100
AcDbLine
 10
65.62160843577037
 20
-2.59497934366642
 30
0.0
 11
65.88631431812331
 21
-2.99497934366642
 31
0.0
  0
LINE
  5
F0
330
1F
100
AcDbEntity
  8
1
  6
Continuous
 62
     4
100
AcDbLine
 10
65.09219667106449
 20
-2.49497934366642
 30
0.0
 11
65.62160843577037
 21
-2.59497934366642
 31
0.0
  0
LINE
  5
F1
330
1F
100
AcDbEntity
  8
1
  6
Continuous
 62
     4
100
AcDbLine
 10
64.5627849063586
 20
-2.59497934366642
 30
0.0
 11
65.09219667106449
 21
-2.49497934366642
 31
0.0
  0
LINE
  5
F2
330
1F
100
AcDbEntity
  8
1
  6
Continuous
 62
     4
100
AcDbLine
 10
64.20984372988802
 20
-2.99497934366642
 30
0.0
 11
64.5627849063586
 21
-2.59497934366642
 31
0.0
  0
LINE
  5
F3
330
1F
100
AcDbEntity
  8
1
  6
Continuous
 62
     4
100
AcDbLine
 10
63.2392554945939
 20
-2.49497934366642
 30
0.0
 11
63.2392554945939
 21
-5.49497934366642
 31
0.0
  0
LINE
  5
F4
330
1F
100
AcDbEntity
  8
1
  6
Continuous
 62
     4
100
AcDbLine
 10
62.79807902400567
 20
-2.79497934366642
 30
0.0
 11
63.2392554945939
 21
-2.49497934366642
 31
0.0
  0
LINE
  5
F5
330
1F
100
AcDbEntity
  8
1
  6
Continuous
 62
     4
100
AcDbLine
 10
60.06278490635861
 20
-3.39497934366642
 30
0.0
 11
61.29807902400567
 21
-4.79497934366642
 31
0.0
  0
LINE
  5
F6
330
1F
100
AcDbEntity
  8
1
  6
Continuous
 62
     4
100
AcDbLine
 10
61.29807902400567
 20
-3.39497934366642
 30
0.0
 11
60.06278490635861
 21
-4.79497934366642
 31
0.0
  0
LINE
  5
F7
330
1F
100
AcDbEntity
  8
1
  6
Continuous
 62
     4
100
AcDbLine
 10
57.94513784753508
 20
-2.69497934366642
 30
0.0
 11
57.4157260828292
 21
-2.49497934366642
 31
0.0
  0
LINE
  5
F8
330
1F
100
AcDbEntity
  8
1
  6
Continuous
 62
     4
100
AcDbLine
 10
58.29807902400567
 20
-3.19497934366642
 30
0.0
 11
57.94513784753508
 21
-2.69497934366642
 31
0.0
  0
LINE
  5
F9
330
1F
100
AcDbEntity
  8
1
  6
Continuous
 62
     4
100
AcDbLine
 10
58.38631431812331
 20
-3.99497934366642
 30
0.0
 11
58.29807902400567
 21
-3.19497934366642
 31
0.0
  0
LINE
  5
FA
330
1F
100
AcDbEntity
  8
1
  6
Continuous
 62
     4
100
AcDbLine
 10
58.29807902400567
 20
-4.79497934366642
 30
0.0
 11
58.38631431812331
 21
-3.99497934366642
 31
0.0
  0
LINE
  5
FB
330
1F
100
AcDbEntity
  8
1
  6
Continuous
 62
     4
100
AcDbLine
 10
57.94513784753508
 20
-5.29497934366642
 30
0.0
 11
58.29807902400567
 21
-4.79497934366642
 31
0.0
  0
LINE
  5
FC
330
1F
100
AcDbEntity
  8
1
  6
Continuous
 62
     4
100
AcDbLine
 10
57.4157260828292
 20
-5.49497934366642
 30
0.0
 11
57.94513784753508
 21
-5.29497934366642
 31
0.0
  0
LINE
  5
FD
330
1F
100
AcDbEntity
  8
1
  6
Continuous
 62
     4
100
AcDbLine
 10
56.88631431812331
 20
-5.29497934366642
 30
0.0
 11
57.4157260828292
 21
-5.49497934366642
 31
0.0
  0
LINE
  5
FE
330
1F
100
AcDbEntity
  8
1
  6
Continuous
 62
     4
100
AcDbLine
 10
56.62160843577038
 20
-4.79497934366642
 30
0.0
 11
56.88631431812331
 21
-5.29497934366642
 31
0.0
  0
LINE
  5
FF
330
1F
100
AcDbEntity
  8
1
  6
Continuous
 62
     4
100
AcDbLine
 10
56.44513784753508
 20
-3.99497934366642
 30
0.0
 11
56.62160843577038
 21
-4.79497934366642
 31
0.0
  0
LINE
  5
100
330
1F
100
AcDbEntity
  8
1
  6
Continuous
 62
     4
100
AcDbLine
 10
56.62160843577038
 20
-3.19497934366642
 30
0.0
 11
56.44513784753508
 21
-3.99497934366642
 31
0.0
  0
LINE
  5
101
330
1F
100
AcDbEntity
  8
1
  6
Continuous
 62
     4
100
AcDbLine
 10
56.88631431812331
 20
-2.69497934366642
 30
0.0
 11
56.62160843577038
 21
-3.19497934366642
 31
0.0
  0
LINE
  5
102
330
1F
100
AcDbEntity
  8
1
  6
Continuous
 62
     4
100
AcDbLine
 10
57.4157260828292
 20
-2.49497934366642
 30
0.0
 11
56.88631431812331
 21
-2.69497934366642
 31
0.0
  0
LINE
  5
103
330
1F
100
AcDbEntity
  8
1
  6
Continuous
 62
     4
100
AcDbLine
 10
53.62160843577037
 20
-5.49497934366642
 30
0.0
 11
55.5627849063586
 21
-5.49497934366642
 31
0.0
  0
LINE
  5
104
330
1F
100
AcDbEntity
  8
1
  6
Continuous
 62
     4
100
AcDbLine
 10
53.79807902400567
 20
-4.99497934366642
 30
0.0
 11
53.62160843577037
 21
-5.49497934366642
 31
0.0
  0
LINE
  5
105
330
1F
100
AcDbEntity
  8
1
  6
Continuous
 62
     4
100
AcDbLine
 10
53.97454961224096
 20
-4.69497934366642
 30
0.0
 11
53.79807902400567
 21
-4.99497934366642
 31
0.0
  0
LINE
  5
106
330
1F
100
AcDbEntity
  8
1
  6
Continuous
 62
     4
100
AcDbLine
 10
54.32749078871154
 20
-4.39497934366642
 30
0.0
 11
53.97454961224096
 21
-4.69497934366642
 31
0.0
  0
LINE
  5
107
330
1F
100
AcDbEntity
  8
1
  6
Continuous
 62
     4
100
AcDbLine
 10
54.68043196518214
 20
-4.19497934366642
 30
0.0
 11
54.32749078871154
 21
-4.39497934366642
 31
0.0
  0
LINE
  5
108
330
1F
100
AcDbEntity
  8
1
  6
Continuous
 62
     4
100
AcDbLine
 10
55.12160843577037
 20
-3.89497934366642
 30
0.0
 11
54.68043196518214
 21
-4.19497934366642
 31
0.0
  0
LINE
  5
109
330
1F
100
AcDbEntity
  8
1
  6
Continuous
 62
     4
100
AcDbLine
 10
55.38631431812331
 20
-3.49497934366642
 30
0.0
 11
55.12160843577037
 21
-3.89497934366642
 31
0.0
  0
LINE
  5
10A
330
1F
100
AcDbEntity
  8
1
  6
Continuous
 62
     4
100
AcDbLine
 10
55.47454961224096
 20
-3.09497934366642
 30
0.0
 11
55.38631431812331
 21
-3.49497934366642
 31
0.0
  0
LINE
  5
10B
330
1F
100
AcDbEntity
  8
1
  6
Continuous
 62
     4
100
AcDbLine
 10
55.12160843577037
 20
-2.69497934366642
 30
0.0
 11
55.47454961224096
 21
-3.09497934366642
 31
0.0
  0
LINE
  5
10C
330
1F
100
AcDbEntity
  8
1
  6
Continuous
 62
     4
100
AcDbLine
 10
54.59219667106449
 20
-2.49497934366642
 30
0.0
 11
55.12160843577037
 21
-2.69497934366642
 31
0.0
  0
LINE
  5
10D
330
1F
100
AcDbEntity
  8
1
  6
Continuous
 62
     4
100
AcDbLine
 10
54.0627849063586
 20
-2.69497934366642
 30
0.0
 11
54.59219667106449
 21
-2.49497934366642
 31
0.0
  0
LINE
  5
10E
330
1F
100
AcDbEntity
  8
1
  6
Continuous
 62
     4
100
AcDbLine
 10
53.70984372988801
 20
-3.09497934366642
 30
0.0
 11
54.0627849063586
 21
-2.69497934366642
 31
0.0
  0
LINE
  5
10F
330
1F
100
AcDbEntity
  8
1
  6
Continuous
 62
     4
100
AcDbLine
 10
49.9157260828292
 20
-5.49497934366642
 30
0.0
 11
52.7392554945939
 21
-5.49497934366642
 31
0.0
  0
LINE
  5
110
330
1F
100
AcDbEntity
  8
1
  6
Continuous
 62
     4
100
AcDbLine
 10
49.03337314165272
 20
-4.89497934366642
 30
0.0
 11
49.03337314165272
 21
-2.59497934366642
 31
0.0
  0
LINE
  5
111
330
1F
100
AcDbEntity
  8
1
  6
Continuous
 62
     4
100
AcDbLine
 10
48.85690255341743
 20
-5.19497934366642
 30
0.0
 11
49.03337314165272
 21
-4.89497934366642
 31
0.0
  0
LINE
  5
112
330
1F
100
AcDbEntity
  8
1
  6
Continuous
 62
     4
100
AcDbLine
 10
48.59219667106449
 20
-5.39497934366642
 30
0.0
 11
48.85690255341743
 21
-5.19497934366642
 31
0.0
  0
LINE
  5
113
330
1F
100
AcDbEntity
  8
1
  6
Continuous
 62
     4
100
AcDbLine
 10
48.15102020047625
 20
-5.49497934366642
 30
0.0
 11
48.59219667106449
 21
-5.39497934366642
 31
0.0
  0
LINE
  5
114
330
1F
100
AcDbEntity
  8
1
  6
Continuous
 62
     4
100
AcDbLine
 10
47.79807902400566
 20
-5.39497934366642
 30
0.0
 11
48.15102020047625
 21
-5.49497934366642
 31
0.0
  0
LINE
  5
115
330
1F
100
AcDbEntity
  8
1
  6
Continuous
 62
     4
100
AcDbLine
 10
47.44513784753507
 20
-5.19497934366642
 30
0.0
 11
47.79807902400566
 21
-5.39497934366642
 31
0.0
  0
LINE
  5
116
330
1F
100
AcDbEntity
  8
1
  6
Continuous
 62
     4
100
AcDbLine
 10
47.35690255341743
 20
-4.89497934366642
 30
0.0
 11
47.44513784753507
 21
-5.19497934366642
 31
0.0
  0
LINE
  5
117
330
1F
100
AcDbEntity
  8
1
  6
Continuous
 62
     4
100
AcDbLine
 10
47.35690255341743
 20
-2.59497934366642
 30
0.0
 11
47.35690255341743
 21
-4.89497934366642
 31
0.0
  0
LINE
  5
118
330
1F
100
AcDbEntity
  8
1
  6
Continuous
 62
     4
100
AcDbLine
 10
45.50396137694684
 20
-2.59497934366642
 30
0.0
 11
46.47454961224096
 21
-2.59497934366642
 31
0.0
  0
LINE
  5
119
330
1F
100
AcDbEntity
  8
1
  6
Continuous
 62
     4
100
AcDbLine
 10
45.50396137694684
 20
-2.59497934366642
 30
0.0
 11
45.50396137694684
 21
-5.49497934366642
 31
0.0
  0
LINE
  5
11A
330
1F
100
AcDbEntity
  8
1
  6
Continuous
 62
     4
100
AcDbLine
 10
44.53337314165272
 20
-2.59497934366642
 30
0.0
 11
45.50396137694684
 21
-2.59497934366642
 31
0.0
  0
LINE
  5
11B
330
1F
100
AcDbEntity
  8
1
  6
Continuous
 62
     4
100
AcDbLine
 10
42.0627849063586
 20
-3.99497934366642
 30
0.0
 11
43.65102020047625
 21
-3.99497934366642
 31
0.0
  0
LINE
  5
11C
330
1F
100
AcDbEntity
  8
1
  6
Continuous
 62
     4
100
AcDbLine
 10
40.20984372988801
 20
-5.49497934366642
 30
0.0
 11
41.18043196518214
 21
-2.49497934366642
 31
0.0
  0
LINE
  5
11D
330
1F
100
AcDbEntity
  8
1
  6
Continuous
 62
     4
100
AcDbLine
 10
39.2392554945939
 20
-2.49497934366642
 30
0.0
 11
40.20984372988801
 21
-5.49497934366642
 31
0.0
  0
LINE
  5
11E
330
1F
100
AcDbEntity
  8
1
  6
Continuous
 62
     4
100
AcDbLine
 10
151.1644500040565
 20
90.75329696147011
 30
0.0
 11
153.1056264746447
 21
90.75329696147011
 31
0.0
  0
LINE
  5
11F
330
1F
100
AcDbEntity
  8
1
  6
Continuous
 62
     4
100
AcDbLine
 10
151.3409205922918
 20
91.25329696147011
 30
0.0
 11
151.1644500040565
 21
90.75329696147011
 31
0.0
  0
LINE
  5
120
330
1F
100
AcDbEntity
  8
1
  6
Continuous
 62
     4
100
AcDbLine
 10
151.5173911805271
 20
91.55329696147011
 30
0.0
 11
151.3409205922918
 21
91.25329696147011
 31
0.0
  0
LINE
  5
121
330
1F
100
AcDbEntity
  8
1
  6
Continuous
 62
     4
100
AcDbLine
 10
151.8703323569977
 20
91.85329696147011
 30
0.0
 11
151.5173911805271
 21
91.55329696147011
 31
0.0
  0
LINE
  5
122
330
1F
100
AcDbEntity
  8
1
  6
Continuous
 62
     4
100
AcDbLine
 10
152.2232735334682
 20
92.05329696147011
 30
0.0
 11
151.8703323569977
 21
91.85329696147011
 31
0.0
  0
LINE
  5
123
330
1F
100
AcDbEntity
  8
1
  6
Continuous
 62
     4
100
AcDbLine
 10
152.6644500040565
 20
92.35329696147011
 30
0.0
 11
152.2232735334682
 21
92.05329696147011
 31
0.0
  0
LINE
  5
124
330
1F
100
AcDbEntity
  8
1
  6
Continuous
 62
     4
100
AcDbLine
 10
152.9291558864094
 20
92.75329696147011
 30
0.0
 11
152.6644500040565
 21
92.35329696147011
 31
0.0
  0
LINE
  5
125
330
1F
100
AcDbEntity
  8
1
  6
Continuous
 62
     4
100
AcDbLine
 10
153.0173911805271
 20
93.15329696147012
 30
0.0
 11
152.9291558864094
 21
92.75329696147011
 31
0.0
  0
LINE
  5
126
330
1F
100
AcDbEntity
  8
1
  6
Continuous
 62
     4
100
AcDbLine
 10
152.6644500040565
 20
93.55329696147011
 30
0.0
 11
153.0173911805271
 21
93.15329696147012
 31
0.0
  0
LINE
  5
127
330
1F
100
AcDbEntity
  8
1
  6
Continuous
 62
     4
100
AcDbLine
 10
152.1350382393506
 20
93.75329696147011
 30
0.0
 11
152.6644500040565
 21
93.55329696147011
 31
0.0
  0
LINE
  5
128
330
1F
100
AcDbEntity
  8
1
  6
Continuous
 62
     4
100
AcDbLine
 10
151.6056264746447
 20
93.55329696147011
 30
0.0
 11
152.1350382393506
 21
93.75329696147011
 31
0.0
  0
LINE
  5
129
330
1F
100
AcDbEntity
  8
1
  6
Continuous
 62
     4
100
AcDbLine
 10
151.2526852981741
 20
93.15329696147012
 30
0.0
 11
151.6056264746447
 21
93.55329696147011
 31
0.0
  0
LINE
  5
12A
330
1F
100
AcDbEntity
  8
1
  6
Continuous
 62
     4
100
AcDbLine
 10
150.28209706288
 20
93.45329696147012
 30
0.0
 11
148.4291558864094
 21
91.25329696147011
 31
0.0
  0
LINE
  5
12B
330
1F
100
AcDbEntity
  8
1
  6
Continuous
 62
     4
100
AcDbLine
 10
147.5468029452329
 20
93.75329696147011
 30
0.0
 11
147.5468029452329
 21
90.75329696147011
 31
0.0
  0
LINE
  5
12C
330
1F
100
AcDbEntity
  8
1
  6
Continuous
 62
     4
100
AcDbLine
 10
147.1056264746447
 20
93.45329696147012
 30
0.0
 11
147.5468029452329
 21
93.75329696147011
 31
0.0
  0
LINE
  5
12D
330
1F
100
AcDbEntity
  8
1
  6
Continuous
 62
     4
100
AcDbLine
 10
146.2232735334682
 20
92.15329696147012
 30
0.0
 11
145.4291558864094
 21
92.15329696147012
 31
0.0
  0
LINE
  5
12E
330
1F
100
AcDbEntity
  8
1
  6
Continuous
 62
     4
100
AcDbLine
 10
146.2232735334682
 20
91.55329696147011
 30
0.0
 11
146.2232735334682
 21
92.15329696147012
 31
0.0
  0
LINE
  5
12F
330
1F
100
AcDbEntity
  8
1
  6
Continuous
 62
     4
100
AcDbLine
 10
146.1350382393506
 20
91.25329696147011
 30
0.0
 11
146.2232735334682
 21
91.55329696147011
 31
0.0
  0
LINE
  5
130
330
1F
100
AcDbEntity
  8
1
  6
Continuous
 62
     4
100
AcDbLine
 10
145.9585676511153
 20
91.05329696147011
 30
0.0
 11
146.1350382393506
 21
91.25329696147011
 31
0.0
  0
LINE
  5
131
330
1F
100
AcDbEntity
  8
1
  6
Continuous
 62
     4
100
AcDbLine
 10
145.6938617687624
 20
90.85329696147011
 30
0.0
 11
145.9585676511153
 21
91.05329696147011
 31
0.0
  0
LINE
  5
132
330
1F
100
AcDbEntity
  8
1
  6
Continuous
 62
     4
100
AcDbLine
 10
145.2526852981741
 20
90.75329696147011
 30
0.0
 11
145.6938617687624
 21
90.85329696147011
 31
0.0
  0
LINE
  5
133
330
1F
100
AcDbEntity
  8
1
  6
Continuous
 62
     4
100
AcDbLine
 10
144.8115088275859
 20
90.85329696147011
 30
0.0
 11
145.2526852981741
 21
90.75329696147011
 31
0.0
  0
LINE
  5
134
330
1F
100
AcDbEntity
  8
1
  6
Continuous
 62
     4
100
AcDbLine
 10
144.5468029452329
 20
91.25329696147011
 30
0.0
 11
144.8115088275859
 21
90.85329696147011
 31
0.0
  0
LINE
  5
135
330
1F
100
AcDbEntity
  8
1
  6
Continuous
 62
     4
100
AcDbLine
 10
144.4585676511153
 20
91.45329696147012
 30
0.0
 11
144.5468029452329
 21
91.25329696147011
 31
0.0
  0
LINE
  5
136
330
1F
100
AcDbEntity
  8
1
  6
Continuous
 62
     4
100
AcDbLine
 10
144.3703323569977
 20
91.85329696147011
 30
0.0
 11
144.4585676511153
 21
91.45329696147012
 31
0.0
  0
LINE
  5
137
330
1F
100
AcDbEntity
  8
1
  6
Continuous
 62
     4
100
AcDbLine
 10
144.28209706288
 20
92.25329696147011
 30
0.0
 11
144.3703323569977
 21
91.85329696147011
 31
0.0
  0
LINE
  5
138
330
1F
100
AcDbEntity
  8
1
  6
Continuous
 62
     4
100
AcDbLine
 10
144.3703323569977
 20
92.65329696147012
 30
0.0
 11
144.28209706288
 21
92.25329696147011
 31
0.0
  0
LINE
  5
139
330
1F
100
AcDbEntity
  8
1
  6
Continuous
 62
     4
100
AcDbLine
 10
144.5468029452329
 20
93.25329696147011
 30
0.0
 11
144.3703323569977
 21
92.65329696147012
 31
0.0
  0
LINE
  5
13A
330
1F
100
AcDbEntity
  8
1
  6
Continuous
 62
     4
100
AcDbLine
 10
144.6350382393506
 20
93.45329696147012
 30
0.0
 11
144.5468029452329
 21
93.25329696147011
 31
0.0
  0
LINE
  5
13B
330
1F
100
AcDbEntity
  8
1
  6
Continuous
 62
     4
100
AcDbLine
 10
144.8997441217036
 20
93.65329696147012
 30
0.0
 11
144.6350382393506
 21
93.45329696147012
 31
0.0
  0
LINE
  5
13C
330
1F
100
AcDbEntity
  8
1
  6
Continuous
 62
     4
100
AcDbLine
 10
145.2526852981741
 20
93.75329696147011
 30
0.0
 11
144.8997441217036
 21
93.65329696147012
 31
0.0
  0
LINE
  5
13D
330
1F
100
AcDbEntity
  8
1
  6
Continuous
 62
     4
100
AcDbLine
 10
145.6938617687624
 20
93.65329696147012
 30
0.0
 11
145.2526852981741
 21
93.75329696147011
 31
0.0
  0
LINE
  5
13E
330
1F
100
AcDbEntity
  8
1
  6
Continuous
 62
     4
100
AcDbLine
 10
145.8703323569977
 20
93.55329696147011
 30
0.0
 11
145.6938617687624
 21
93.65329696147012
 31
0.0
  0
LINE
  5
13F
330
1F
100
AcDbEntity
  8
1
  6
Continuous
 62
     4
100
AcDbLine
 10
146.0468029452329
 20
93.35329696147011
 30
0.0
 11
145.8703323569977
 21
93.55329696147011
 31
0.0
  0
LINE
  5
140
330
1F
100
AcDbEntity
  8
1
  6
Continuous
 62
     4
100
AcDbLine
 10
146.2232735334682
 20
93.05329696147011
 30
0.0
 11
146.0468029452329
 21
93.35329696147011
 31
0.0
  0
LINE
  5
141
330
1F
100
AcDbEntity
  8
1
  6
Continuous
 62
     3
100
AcDbLine
 10
108.296826242911
 20
26.18230878496644
 30
0.0
 11
108.296826242911
 21
53.26540299747745
 31
0.0
  0
LINE
  5
142
330
1F
100
AcDbEntity
  8
1
  6
Continuous
 62
     3
100
AcDbLine
 10
115.8216176288429
 20
26.11290439989438
 30
0.0
 11
108.7629561213389
 21
26.11290439989438
 31
0.0
  0
LINE
  5
143
330
1F
100
AcDbEntity
  8
0
  6
Continuous
 62
     3
100
AcDbLine
 10
127.0592219358878
 20
26.62818073517855
 30
0.0
 11
127.0592219358771
 21
10.71931702870933
 31
0.0
  0
LINE
  5
144
330
1F
100
AcDbEntity
  8
0
  6
Continuous
 62
     3
100
AcDbLine
 10
145.5344305499343
 20
26.62818073517855
 30
0.0
 11
145.5344305499452
 21
10.71931702869694
 31
0.0
  0
LINE
  5
145
330
1F
100
AcDbEntity
  8
1
  6
Continuous
 62
     3
100
AcDbLine
 10
146.296826242911
 20
31.46342324541791
 30
0.0
 11
146.2968262429106
 21
58.79869014188085
 31
0.0
  0
LINE
  5
146
330
1F
100
AcDbEntity
  8
1
  6
Continuous
 62
     3
100
AcDbLine
 10
108.6713230039371
 20
53.31290439989442
 30
0.0
 11
124.2968262429115
 21
53.31290439989442
 31
0.0
  0
LINE
  5
147
330
1F
100
AcDbEntity
  8
1
  6
Continuous
 62
     3
100
AcDbLine
 10
108.7629561213389
 20
26.11290439989438
 30
0.0
 11
115.8216176288429
 21
26.11290439989438
 31
0.0
  0
LINE
  5
148
330
1F
100
AcDbEntity
  8
1
  6
Continuous
 62
     3
100
AcDbLine
 10
118.0716176288429
 20
10.57497946141922
 30
0.0
 11
121.2968262429112
 21
8.71290439989428
 31
0.0
  0
LINE
  5
149
330
1F
100
AcDbEntity
  8
1
  6
Continuous
 62
     3
100
AcDbLine
 10
151.2968262429112
 20
8.71290439989428
 30
0.0
 11
154.522034856979
 21
10.57497946141922
 31
0.0
  0
LINE
  5
14A
330
1F
100
AcDbEntity
  8
1
  6
DOT_CENTER
 62
     1
100
AcDbLine
 10
73.29682624291101
 20
39.71290439989429
 30
0.0
 11
149.2968262429109
 21
39.71290439989429
 31
0.0
  0
LINE
  5
14B
330
1F
100
AcDbEntity
  8
1
  6
Continuous
 62
     3
100
AcDbLine
 10
151.2968262429112
 20
8.71290439989428
 30
0.0
 11
121.2968262429112
 21
8.71290439989428
 31
0.0
  0
LINE
  5
14C
330
1F
100
AcDbEntity
  8
1
  6
DOT_CENTER
 62
     1
100
AcDbLine
 10
136.296826242911
 20
85.91290439989392
 30
0.0
 11
136.296826242911
 21
5.71290439989428
 31
0.0
  0
LINE
  5
14D
330
1F
100
AcDbEntity
  8
1
  6
Continuous
 62
     3
100
AcDbLine
 10
154.772034856979
 20
11.00799216331137
 30
0.0
 11
154.772034856979
 21
26.27807696607164
 31
0.0
  0
LINE
  5
14E
330
1F
100
AcDbEntity
  8
1
  6
Continuous
 62
     3
100
AcDbLine
 10
117.8216176288429
 20
11.00799216331137
 30
0.0
 11
117.8216176288429
 21
24.11290439989438
 31
0.0
  0
LINE
  5
14F
330
1F
100
AcDbEntity
  8
1
  6
Continuous
 62
     3
100
AcDbLine
 10
154.4430449286419
 20
26.74792327646441
 30
0.0
 11
147.941775884597
 21
29.11419169345328
 31
0.0
  0
LINE
  5
150
330
1F
100
AcDbEntity
  8
1
  6
Continuous
 62
     3
100
AcDbLine
 10
126.2968262429107
 20
58.79869014188085
 30
0.0
 11
126.2968262429115
 21
55.31290439989442
 31
0.0
  0
LINE
  5
151
330
1F
100
AcDbEntity
  8
1
  6
DOTTED
 62
     6
100
AcDbLine
 10
144.2968262429109
 20
68.91290439989399
 30
0.0
 11
145.096826242911
 21
69.71290439989406
 31
0.0
  0
LINE
  5
152
330
1F
100
AcDbEntity
  8
1
  6
DOTTED
 62
     6
100
AcDbLine
 10
128.2968262429112
 20
68.91290439989399
 30
0.0
 11
127.496826242911
 21
69.71290439989406
 31
0.0
  0
LINE
  5
153
330
1F
100
AcDbEntity
  8
1
  6
DOTTED
 62
     6
100
AcDbLine
 10
126.896826242911
 20
73.4129043998941
 30
0.0
 11
127.196826242911
 21
73.71290439989406
 31
0.0
  0
LINE
  5
154
330
1F
100
AcDbEntity
  8
1
  6
DOTTED
 62
     6
100
AcDbLine
 10
145.396826242911
 20
73.71290439989406
 30
0.0
 11
145.696826242911
 21
73.4129043998941
 31
0.0
  0
LINE
  5
155
330
1F
100
AcDbEntity
  8
3
  6
DOTTED
 62
     6
100
AcDbLine
 10
145.396826242911
 20
73.71290439989406
 30
0.0
 11
127.196826242911
 21
73.71290439989406
 31
0.0
  0
LINE
  5
156
330
1F
100
AcDbEntity
  8
3
  6
DOTTED
 62
     6
100
AcDbLine
 10
126.896826242911
 20
73.4129043998941
 30
0.0
 11
126.896826242911
 21
71.21290439989406
 31
0.0
  0
LINE
  5
157
330
1F
100
AcDbEntity
  8
3
  6
DOTTED
 62
     6
100
AcDbLine
 10
127.496826242911
 20
71.21290439989406
 30
0.0
 11
127.496826242911
 21
69.71290439989406
 31
0.0
  0
LINE
  5
158
330
1F
100
AcDbEntity
  8
3
  6
DOTTED
 62
     6
100
AcDbLine
 10
145.096826242911
 20
69.71290439989406
 30
0.0
 11
145.096826242911
 21
71.21290439989406
 31
0.0
  0
LINE
  5
159
330
1F
100
AcDbEntity
  8
3
  6
DOTTED
 62
     6
100
AcDbLine
 10
145.696826242911
 20
71.21290439989406
 30
0.0
 11
145.696826242911
 21
73.4129043998941
 31
0.0
  0
LINE
  5
15A
330
1F
100
AcDbEntity
  8
1
  6
Continuous
 62
     3
100
AcDbLine
 10
146.0039330240966
 20
59.50579692306764
 30
0.0
 11
145.796805858098
 21
59.71292408906601
 31
0.0
  0
LINE
  5
15B
330
1F
100
AcDbEntity
  8
1
  6
Continuous
 62
     3
100
AcDbLine
 10
126.799581603565
 20
59.71292408906624
 30
0.0
 11
126.5897194617247
 21
59.50306194722629
 31
0.0
  0
LINE
  5
15C
330
1F
100
AcDbEntity
  8
1
  6
Continuous
 62
     3
100
AcDbLine
 10
126.799581603565
 20
59.71292408906624
 30
0.0
 11
145.796805858098
 21
59.71292408906601
 31
0.0
  0
LINE
  5
15D
330
1F
100
AcDbEntity
  8
1
  6
Continuous
 62
     3
100
AcDbLine
 10
144.2968262429109
 20
59.71292408906635
 30
0.0
 11
144.2968262429109
 21
67.91290439989392
 31
0.0
  0
LINE
  5
15E
330
1F
100
AcDbEntity
  8
1
  6
Continuous
 62
     3
100
AcDbLine
 10
128.296826242911
 20
59.71292408906601
 30
0.0
 11
128.2968262429112
 21
67.91290439989392
 31
0.0
  0
LINE
  5
15F
330
1F
100
AcDbEntity
  8
1
  6
Continuous
 62
     3
100
AcDbLine
 10
134.0740277065326
 20
49.05251873582239
 30
0.0
 11
134.0740277065326
 21
30.55827300413972
 31
0.0
  0
LINE
  5
160
330
1F
100
AcDbEntity
  8
0
  6
Continuous
 62
     3
100
AcDbLine
 10
108.2968262429831
 20
123.429702384538
 30
0.0
 11
107.4172619991238
 21
123.4022146282979
 31
0.0
  0
LINE
  5
161
330
1F
100
AcDbEntity
  8
0
  6
Continuous
 62
     3
100
AcDbLine
 10
108.2968262429831
 20
144.8747268720589
 30
0.0
 11
107.4172619991238
 21
144.9022146282979
 31
0.0
  0
LINE
  5
162
330
1F
100
AcDbEntity
  8
2
  6
Continuous
 62
     3
100
AcDbLine
 10
103.7968262429829
 20
144.9022146282979
 30
0.0
 11
103.6524886756864
 21
145.1522146282979
 31
0.0
  0
LINE
  5
163
330
1F
100
AcDbEntity
  8
1
  6
Continuous
 62
     3
100
AcDbLine
 10
103.0751384064968
 20
143.8055265597571
 30
0.0
 11
103.0751384064968
 21
145.1522146282979
 31
0.0
  0
LINE
  5
164
330
1F
100
AcDbEntity
  8
1
  6
Continuous
 62
     3
100
AcDbLine
 10
103.0751384064968
 20
143.8055265597571
 30
0.0
 11
90.66285164676839
 21
143.8055265597571
 31
0.0
  0
LINE
  5
165
330
1F
100
AcDbEntity
  8
1
  6
Continuous
 62
     3
100
AcDbLine
 10
90.66285164676839
 20
145.1522146282979
 30
0.0
 11
90.66285164676839
 21
143.8055265597571
 31
0.0
  0
LINE
  5
166
330
1F
100
AcDbEntity
  8
2
  6
Continuous
 62
     3
100
AcDbLine
 10
89.79682624298289
 20
144.6522146282961
 30
0.0
 11
90.0855013775788
 21
145.1522146282979
 31
0.0
  0
LINE
  5
167
330
1F
100
AcDbEntity
  8
1
  6
Continuous
 62
     3
100
AcDbLine
 10
90.0855013775788
 20
145.1522146282979
 30
0.0
 11
103.6524886756864
 21
145.1522146282979
 31
0.0
  0
LINE
  5
168
330
1F
100
AcDbEntity
  8
1
  6
Continuous
 62
     3
100
AcDbLine
 10
103.0751384064968
 20
135.4989026968389
 30
0.0
 11
103.0751384064968
 21
132.805526559757
 31
0.0
  0
LINE
  5
169
330
1F
100
AcDbEntity
  8
1
  6
Continuous
 62
     3
100
AcDbLine
 10
90.66285164676839
 20
135.4989026968389
 30
0.0
 11
103.0751384064968
 21
135.4989026968389
 31
0.0
  0
LINE
  5
16A
330
1F
100
AcDbEntity
  8
1
  6
Continuous
 62
     3
100
AcDbLine
 10
90.66285164676839
 20
135.4989026968389
 30
0.0
 11
90.66285164676839
 21
132.805526559757
 31
0.0
  0
LINE
  5
16B
330
1F
100
AcDbEntity
  8
1
  6
Continuous
 62
     3
100
AcDbLine
 10
103.0751384064968
 20
132.805526559757
 30
0.0
 11
90.66285164676839
 21
132.805526559757
 31
0.0
  0
LINE
  5
16C
330
1F
100
AcDbEntity
  8
1
  6
Continuous
 62
     3
100
AcDbLine
 10
90.66285164676839
 20
123.1522146282979
 30
0.0
 11
90.66285164676839
 21
124.4989026968389
 31
0.0
  0
LINE
  5
16D
330
1F
100
AcDbEntity
  8
2
  6
Continuous
 62
     3
100
AcDbLine
 10
90.0855013775788
 20
123.1522146282979
 30
0.0
 11
89.79682624298289
 21
123.6522146282998
 31
0.0
  0
LINE
  5
16E
330
1F
100
AcDbEntity
  8
1
  6
Continuous
 62
     3
100
AcDbLine
 10
90.66285164676839
 20
124.4989026968389
 30
0.0
 11
103.0751384064968
 21
124.4989026968389
 31
0.0
  0
LINE
  5
16F
330
1F
100
AcDbEntity
  8
1
  6
Continuous
 62
     3
100
AcDbLine
 10
103.0751384064968
 20
123.1522146282979
 30
0.0
 11
103.0751384064968
 21
124.4989026968389
 31
0.0
  0
LINE
  5
170
330
1F
100
AcDbEntity
  8
2
  6
Continuous
 62
     3
100
AcDbLine
 10
103.6524886756864
 20
123.1522146282979
 30
0.0
 11
103.7968262429829
 21
123.4022146282979
 31
0.0
  0
LINE
  5
171
330
1F
100
AcDbEntity
  8
1
  6
Continuous
 62
     3
100
AcDbLine
 10
90.0855013775788
 20
123.1522146282979
 30
0.0
 11
103.6524886756864
 21
123.1522146282979
 31
0.0
  0
LINE
  5
172
330
1F
100
AcDbEntity
  8
0
  6
Continuous
 62
     3
100
AcDbLine
 10
79.796826242983
 20
123.948027892475
 30
0.0
 11
80.4948567662172
 21
123.2499973692409
 31
0.0
  0
LINE
  5
173
330
1F
100
AcDbEntity
  8
0
  6
Continuous
 62
     3
100
AcDbLine
 10
86.09682624298296
 20
123.5270305391179
 30
0.0
 11
80.45383020743657
 21
123.66111002665
 31
0.0
  0
LINE
  5
174
330
1F
100
AcDbEntity
  8
1
  6
Continuous
 62
     3
100
AcDbLine
 10
89.796826242983
 20
143.1522146282979
 30
0.0
 11
86.296826242983
 21
143.1522146282979
 31
0.0
  0
LINE
  5
175
330
1F
100
AcDbEntity
  8
1
  6
Continuous
 62
     3
100
AcDbLine
 10
89.796826242983
 20
125.1522146282979
 30
0.0
 11
86.296826242983
 21
125.1522146282979
 31
0.0
  0
LINE
  5
176
330
1F
100
AcDbEntity
  8
1
  6
Continuous
 62
     3
100
AcDbLine
 10
89.296826242983
 20
145.6522146282979
 30
0.0
 11
86.796826242983
 21
145.6522146282979
 31
0.0
  0
LINE
  5
177
330
1F
100
AcDbEntity
  8
1
  6
Continuous
 62
     3
100
AcDbLine
 10
89.296826242983
 20
122.6522146282979
 30
0.0
 11
86.796826242983
 21
122.6522146282979
 31
0.0
  0
LINE
  5
178
330
1F
100
AcDbEntity
  8
1
  6
Continuous
 62
     3
100
AcDbLine
 10
86.296826242983
 20
145.1522146282979
 30
0.0
 11
86.296826242983
 21
123.1522146282979
 31
0.0
  0
LINE
  5
179
330
1F
100
AcDbEntity
  8
0
  6
Continuous
 62
     3
100
AcDbLine
 10
86.09682624300808
 20
123.989539770661
 30
0.0
 11
80.45383020743628
 21
124.1177828416109
 31
0.0
  0
LINE
  5
17A
330
1F
100
AcDbEntity
  8
0
  6
Continuous
 62
     3
100
AcDbLine
 10
86.09682624298296
 20
123.1522146282979
 30
0.0
 11
80.4948567662172
 21
123.2499973692409
 31
0.0
  0
LINE
  5
17B
330
1F
100
AcDbEntity
  8
0
  6
Continuous
 62
     3
100
AcDbLine
 10
86.09682624298296
 20
123.1522146282979
 30
0.0
 11
86.296826242983
 21
123.352214628298
 31
0.0
  0
LINE
  5
17C
330
1F
100
AcDbEntity
  8
0
  6
Continuous
 62
     3
100
AcDbLine
 10
86.09682624298296
 20
126.374040035246
 30
0.0
 11
80.45383020712978
 21
126.472193032377
 31
0.0
  0
LINE
  5
17D
330
1F
100
AcDbEntity
  8
0
  6
Continuous
 62
     3
100
AcDbLine
 10
86.09682624298296
 20
125.425327885095
 30
0.0
 11
80.45383020758857
 21
125.535452706482
 31
0.0
  0
LINE
  5
17E
330
1F
100
AcDbEntity
  8
0
  6
Continuous
 62
     3
100
AcDbLine
 10
86.09682624298296
 20
124.625935186669
 30
0.0
 11
80.45383020758868
 21
124.746147566454
 31
0.0
  0
LINE
  5
17F
330
1F
100
AcDbEntity
  8
0
  6
Continuous
 62
     3
100
AcDbLine
 10
86.09682624298296
 20
145.1522146282979
 30
0.0
 11
80.4948567662172
 21
145.054431887355
 31
0.0
  0
LINE
  5
180
330
1F
100
AcDbEntity
  8
0
  6
Continuous
 62
     3
100
AcDbLine
 10
86.09682624298296
 20
145.1522146282979
 30
0.0
 11
86.296826242983
 21
144.9522146282979
 31
0.0
  0
LINE
  5
181
330
1F
100
AcDbEntity
  8
0
  6
Continuous
 62
     3
100
AcDbLine
 10
80.4948567662172
 20
145.054431887355
 30
0.0
 11
79.796826242983
 21
144.3564013641209
 31
0.0
  0
LINE
  5
182
330
1F
100
AcDbEntity
  8
0
  6
Continuous
 62
     3
100
AcDbLine
 10
86.09682624300808
 20
144.777398717459
 30
0.0
 11
80.45383020743117
 21
144.643319229944
 31
0.0
  0
LINE
  5
183
330
1F
100
AcDbEntity
  8
0
  6
Continuous
 62
     3
100
AcDbLine
 10
86.09682624298296
 20
144.3148894859219
 30
0.0
 11
80.4538302074314
 21
144.186646414984
 31
0.0
  0
LINE
  5
184
330
1F
100
AcDbEntity
  8
0
  6
Continuous
 62
     3
100
AcDbLine
 10
86.09682624298296
 20
143.6784940699269
 30
0.0
 11
80.45383020743157
 21
143.5582816900839
 31
0.0
  0
LINE
  5
185
330
1F
100
AcDbEntity
  8
0
  6
Continuous
 62
     3
100
AcDbLine
 10
86.0968262430082
 20
142.8791013714669
 30
0.0
 11
80.45383020743145
 21
142.768976549901
 31
0.0
  0
LINE
  5
186
330
1F
100
AcDbEntity
  8
0
  6
Continuous
 62
     3
100
AcDbLine
 10
86.09682624300808
 20
131.305205132219
 30
0.0
 11
80.45383020743645
 21
131.341131622576
 31
0.0
  0
LINE
  5
187
330
1F
100
AcDbEntity
  8
0
  6
Continuous
 62
     3
100
AcDbLine
 10
86.0968262430082
 20
134.1522146283469
 30
0.0
 11
80.45383020743145
 21
134.152214628299
 31
0.0
  0
LINE
  5
188
330
1F
100
AcDbEntity
  8
0
  6
Continuous
 62
     3
100
AcDbLine
 10
86.09682624298296
 20
136.999224124425
 30
0.0
 11
80.45383020743628
 21
136.96329763402
 31
0.0
  0
LINE
  5
189
330
1F
100
AcDbEntity
  8
0
  6
Continuous
 62
     3
100
AcDbLine
 10
86.09682624298296
 20
132.7164265138779
 30
0.0
 11
80.45383020758857
 21
132.7345447630469
 31
0.0
  0
LINE
  5
18A
330
1F
100
AcDbEntity
  8
0
  6
Continuous
 62
     3
100
AcDbLine
 10
86.09682624300808
 20
135.5880027427659
 30
0.0
 11
80.45383020743145
 21
135.5698844933809
 31
0.0
  0
LINE
  5
18B
330
1F
100
AcDbEntity
  8
0
  6
Continuous
 62
     3
100
AcDbLine
 10
86.09682624300808
 20
141.9303892213109
 30
0.0
 11
80.45383020712978
 21
141.8322362238
 31
0.0
  0
LINE
  5
18C
330
1F
100
AcDbEntity
  8
0
  6
Continuous
 62
     3
100
AcDbLine
 10
79.79682623949105
 20
123.948027892475
 30
0.0
 11
79.796826242983
 21
144.3564013641209
 31
0.0
  0
LINE
  5
18D
330
1F
100
AcDbEntity
  8
0
  6
Continuous
 62
     3
100
AcDbLine
 10
76.296826242983
 20
127.448027892475
 30
0.0
 11
76.296826242983
 21
140.8564013641209
 31
0.0
  0
LINE
  5
18E
330
1F
100
AcDbEntity
  8
4
  6
Continuous
 62
     3
100
AcDbLine
 10
89.796826242983
 20
123.1522146282979
 30
0.0
 11
89.796826242983
 21
145.1522146282979
 31
0.0
  0
LINE
  5
18F
330
1F
100
AcDbEntity
  8
1
  6
Continuous
 62
     3
100
AcDbLine
 10
106.2968262429829
 20
143.7872146282979
 30
0.0
 11
108.2968262429831
 21
143.72471150489
 31
0.0
  0
LINE
  5
190
330
1F
100
AcDbEntity
  8
1
  6
Continuous
 62
     3
100
AcDbLine
 10
106.2968262429829
 20
124.517214628298
 30
0.0
 11
108.2968262429831
 21
124.5797177517069
 31
0.0
  0
LINE
  5
191
330
1F
100
AcDbEntity
  8
1
  6
Continuous
 62
     3
100
AcDbLine
 10
106.2968262429829
 20
144.9022146282979
 30
0.0
 11
106.2968262429829
 21
123.4022146282979
 31
0.0
  0
LINE
  5
192
330
1F
100
AcDbEntity
  8
0
  6
Continuous
 62
     3
100
AcDbLine
 10
103.7968262429829
 20
123.4022146282979
 30
0.0
 11
103.7968262429829
 21
144.9022146282979
 31
0.0
  0
LINE
  5
193
330
1F
100
AcDbEntity
  8
0
  6
Continuous
 62
     3
100
AcDbLine
 10
107.4172619991238
 20
123.4022146282979
 30
0.0
 11
103.7968262429829
 21
123.4022146282979
 31
0.0
  0
LINE
  5
194
330
1F
100
AcDbEntity
  8
0
  6
Continuous
 62
     3
100
AcDbLine
 10
107.4172619991238
 20
144.9022146282979
 30
0.0
 11
103.7968262429829
 21
144.9022146282979
 31
0.0
  0
LINE
  5
195
330
1F
100
AcDbEntity
  8
1
  6
DOT_CENTER
 62
     1
100
AcDbLine
 10
14.7170716390314
 20
39.71290439989429
 30
0.0
 11
47.91707163901837
 21
39.71290439989429
 31
0.0
  0
LINE
  5
196
330
1F
100
AcDbEntity
  8
1
  6
Continuous
 62
     3
100
AcDbLine
 10
34.3170716389759
 20
27.8701851175673
 30
0.0
 11
34.3170716389759
 21
22.71290439989431
 31
0.0
  0
LINE
  5
197
330
1F
100
AcDbEntity
  8
1
  6
Continuous
 62
     3
100
AcDbLine
 10
28.3170716389759
 20
27.8701851175673
 30
0.0
 11
28.3170716389759
 21
22.71290439989431
 31
0.0
  0
LINE
  5
198
330
1F
100
AcDbEntity
  8
1
  6
Continuous
 62
     3
100
AcDbLine
 10
32.3170716389759
 20
20.71290439989431
 30
0.0
 11
30.3170716389759
 21
20.71290439989431
 31
0.0
  0
LINE
  5
199
330
1F
100
AcDbEntity
  8
1
  6
DOT_CENTER
 62
     1
100
AcDbLine
 10
28.01707163897603
 20
23.71290439989431
 30
0.0
 11
34.61707163897577
 21
23.71290439989431
 31
0.0
  0
LINE
  5
19A
330
1F
100
AcDbEntity
  8
1
  6
Continuous
 62
     3
100
AcDbLine
 10
38.96347051119244
 20
47.62065909303982
 30
0.0
 11
39.3170716389759
 21
47.97426022082323
 31
0.0
  0
LINE
  5
19B
330
1F
100
AcDbEntity
  8
1
  6
Continuous
 62
     3
100
AcDbLine
 10
23.3170716389759
 20
47.97426022082323
 30
0.0
 11
23.67067276675934
 21
47.62065909303982
 31
0.0
  0
LINE
  5
19C
330
1F
100
AcDbEntity
  8
1
  6
Continuous
 62
     3
100
AcDbLine
 10
39.72180914863112
 20
31.86367594139017
 30
0.0
 11
40.97038357043485
 21
32.5845407199219
 31
0.0
  0
LINE
  5
19D
330
1F
100
AcDbEntity
  8
1
  6
Continuous
 62
     3
100
AcDbLine
 10
42.31707163897613
 20
43.06700636614272
 30
0.0
 11
42.31707163897613
 21
44.50873592320698
 31
0.0
  0
LINE
  5
19E
330
1F
100
AcDbEntity
  8
1
  6
Continuous
 62
     3
100
AcDbLine
 10
40.97038357043485
 20
46.84126807986678
 30
0.0
 11
39.72180914863105
 21
47.5621328583984
 31
0.0
  0
LINE
  5
19F
330
1F
100
AcDbEntity
  8
1
  6
Continuous
 62
     3
100
AcDbLine
 10
39.20393757119154
 20
47.86112615303892
 30
0.0
 11
32.66375970751685
 21
51.63709960317942
 31
0.0
  0
LINE
  5
1A0
330
1F
100
AcDbEntity
  8
1
  6
Continuous
 62
     3
100
AcDbLine
 10
29.97038357043485
 20
51.63709960317942
 30
0.0
 11
23.43020570676035
 21
47.86112615303881
 31
0.0
  0
LINE
  5
1A1
330
1F
100
AcDbEntity
  8
1
  6
Continuous
 62
     3
100
AcDbLine
 10
22.91233412932064
 20
47.56213285839851
 30
0.0
 11
21.66375970751685
 21
46.84126807986678
 31
0.0
  0
LINE
  5
1A2
330
1F
100
AcDbEntity
  8
1
  6
Continuous
 62
     3
100
AcDbLine
 10
20.3170716389759
 20
44.50873592320698
 30
0.0
 11
20.3170716389759
 21
43.06700636614357
 31
0.0
  0
LINE
  5
1A3
330
1F
100
AcDbEntity
  8
1
  6
Continuous
 62
     3
100
AcDbLine
 10
20.3170716389759
 20
36.358802433645
 30
0.0
 11
20.3170716389759
 21
34.91707287658159
 31
0.0
  0
LINE
  5
1A4
330
1F
100
AcDbEntity
  8
1
  6
Continuous
 62
     3
100
AcDbLine
 10
21.66375970751685
 20
32.5845407199219
 30
0.0
 11
22.91233412932064
 21
31.86367594139011
 31
0.0
  0
LINE
  5
1A5
330
1F
100
AcDbEntity
  8
1
  6
Continuous
 62
     3
100
AcDbLine
 10
42.31707163897613
 20
34.91707287658159
 30
0.0
 11
42.31707163897613
 21
36.35880243364591
 31
0.0
  0
LINE
  5
1A6
330
1F
100
AcDbEntity
  8
0
  6
Continuous
 62
     3
100
AcDbLine
 10
15.31707163902733
 20
27.52908299432943
 30
0.0
 11
15.31707163902732
 21
9.29025466911691
 31
0.0
  0
LINE
  5
1A7
330
1F
100
AcDbEntity
  8
0
  6
Continuous
 62
     3
100
AcDbLine
 10
21.81709202384042
 20
59.71292408909898
 30
0.0
 11
40.81705125421422
 21
59.71292408909898
 31
0.0
  0
LINE
  5
1A8
330
1F
100
AcDbEntity
  8
0
  6
Continuous
 62
     3
100
AcDbLine
 10
39.31707163902721
 20
59.71292408909932
 30
0.0
 11
39.31707163902721
 21
67.91290439989388
 31
0.0
  0
LINE
  5
1A9
330
1F
100
AcDbEntity
  8
0
  6
Continuous
 62
     3
100
AcDbLine
 10
23.31707163902744
 20
59.71292408909932
 30
0.0
 11
23.31707163902744
 21
67.91290439989396
 31
0.0
  0
LINE
  5
1AA
330
1F
100
AcDbEntity
  8
0
  6
Continuous
 62
     3
100
AcDbLine
 10
21.81709202384042
 20
59.71292408909898
 30
0.0
 11
21.60996485784174
 21
59.5057969231006
 31
0.0
  0
LINE
  5
1AB
330
1F
100
AcDbEntity
  8
0
  6
Continuous
 62
     3
100
AcDbLine
 10
40.81705125421422
 20
59.71292408909898
 30
0.0
 11
41.0241784202129
 21
59.5057969231006
 31
0.0
  0
LINE
  5
1AC
330
1F
100
AcDbEntity
  8
0
  6
Continuous
 62
     3
100
AcDbLine
 10
21.31707163902752
 20
48.93027929737008
 30
0.0
 11
21.31707163902796
 21
58.79869014191382
 31
0.0
  0
LINE
  5
1AD
330
1F
100
AcDbEntity
  8
0
  6
Continuous
 62
     3
100
AcDbLine
 10
19.67212199734135
 20
29.11419169348551
 30
0.0
 11
15.31707163902733
 21
27.52908299432943
 31
0.0
  0
LINE
  5
1AE
330
1F
100
AcDbEntity
  8
0
  6
Continuous
 62
     3
100
AcDbLine
 10
47.31707163902732
 20
9.29025466911691
 30
0.0
 11
47.31707163902732
 21
27.52908299432943
 31
0.0
  0
LINE
  5
1AF
330
1F
100
AcDbEntity
  8
0
  6
Continuous
 62
     3
100
AcDbLine
 10
42.96202128071329
 20
29.11419169348551
 30
0.0
 11
47.31707163902732
 21
27.52908299432943
 31
0.0
  0
LINE
  5
1B0
330
1F
100
AcDbEntity
  8
0
  6
Continuous
 62
     3
100
AcDbLine
 10
16.31707163902725
 20
8.7129043999272
 30
0.0
 11
46.31707163902739
 21
8.7129043999272
 31
0.0
  0
LINE
  5
1B1
330
1F
100
AcDbEntity
  8
0
  6
Continuous
 62
     3
100
AcDbLine
 10
46.31707163902739
 20
8.7129043999272
 30
0.0
 11
47.31707163902732
 21
9.29025466911691
 31
0.0
  0
LINE
  5
1B2
330
1F
100
AcDbEntity
  8
0
  6
Continuous
 62
     3
100
AcDbLine
 10
16.31707163902725
 20
8.7129043999272
 30
0.0
 11
15.31707163902732
 21
9.29025466911691
 31
0.0
  0
LINE
  5
1B3
330
1F
100
AcDbEntity
  8
0
  6
Continuous
 62
     3
100
AcDbLine
 10
41.31707163902712
 20
48.93027929737008
 30
0.0
 11
41.31707163902668
 21
58.79869014191382
 31
0.0
  0
LINE
  5
1B4
330
1F
100
AcDbEntity
  8
1
  6
DOT_CENTER
 62
     1
100
AcDbLine
 10
158.2361364721887
 20
134.1522146282979
 30
0.0
 11
73.296826242983
 21
134.1522146282979
 31
0.0
  0
LINE
  5
1B5
330
1F
100
AcDbEntity
  8
0
  6
Continuous
 62
     3
100
AcDbLine
 10
145.5344305500168
 20
118.152214628298
 30
0.0
 11
145.872892396081
 21
118.7384477421046
 31
0.0
  0
LINE
  5
1B6
330
1F
100
AcDbEntity
  8
0
  6
Continuous
 62
     3
100
AcDbLine
 10
144.8575068578857
 20
118.152214628298
 30
0.0
 11
145.5344305500168
 21
118.152214628298
 31
0.0
  0
LINE
  5
1B7
330
1F
100
AcDbEntity
  8
0
  6
Continuous
 62
     3
100
AcDbLine
 10
127.73614562808
 20
118.152214628298
 30
0.0
 11
144.8575068578857
 21
118.152214628298
 31
0.0
  0
LINE
  5
1B8
330
1F
100
AcDbEntity
  8
0
  6
Continuous
 62
     3
100
AcDbLine
 10
133.6410150047107
 20
120.5522146282974
 30
0.0
 11
108.6713230040091
 21
120.5522146282974
 31
0.0
  0
LINE
  5
1B9
330
1F
100
AcDbEntity
  8
0
  6
Continuous
 62
     3
100
AcDbLine
 10
154.4335730109868
 20
134.7384477421046
 30
0.0
 11
145.872892396081
 21
149.5659815144913
 31
0.0
  0
LINE
  5
1BA
330
1F
100
AcDbEntity
  8
0
  6
Continuous
 62
     3
100
AcDbLine
 10
154.7720348570509
 20
134.1522146282979
 30
0.0
 11
154.4335730109868
 21
134.7384477421046
 31
0.0
  0
LINE
  5
1BB
330
1F
100
AcDbEntity
  8
0
  6
Continuous
 62
     3
100
AcDbLine
 10
127.0592219359489
 20
150.1522146282979
 30
0.0
 11
126.7207600898833
 21
149.5659815144888
 31
0.0
  0
LINE
  5
1BC
330
1F
100
AcDbEntity
  8
0
  6
Continuous
 62
     3
100
AcDbLine
 10
127.73614562808
 20
150.1522146282979
 30
0.0
 11
127.0592219359489
 21
150.1522146282979
 31
0.0
  0
LINE
  5
1BD
330
1F
100
AcDbEntity
  8
0
  6
Continuous
 62
     3
100
AcDbLine
 10
145.5344305500168
 20
150.1522146282979
 30
0.0
 11
144.8575068578886
 21
150.1522146282979
 31
0.0
  0
LINE
  5
1BE
330
1F
100
AcDbEntity
  8
0
  6
Continuous
 62
     3
100
AcDbLine
 10
145.872892396081
 20
149.5659815144913
 30
0.0
 11
145.5344305500168
 21
150.1522146282979
 31
0.0
  0
LINE
  5
1BF
330
1F
100
AcDbEntity
  8
0
  6
Continuous
 62
     3
100
AcDbLine
 10
108.296826242983
 20
147.7047132258816
 30
0.0
 11
108.296826242983
 21
120.5997160307143
 31
0.0
  0
LINE
  5
1C0
330
1F
100
AcDbEntity
  8
0
  6
Continuous
 62
     3
100
AcDbLine
 10
125.6735812898944
 20
120.5522146282974
 30
0.0
 11
126.7207600898848
 21
118.7384477421045
 31
0.0
  0
LINE
  5
1C1
330
1F
100
AcDbEntity
  8
0
  6
Continuous
 62
     3
100
AcDbLine
 10
133.6410150047107
 20
147.7522146282985
 30
0.0
 11
108.6713230040091
 21
147.7522146282985
 31
0.0
  0
LINE
  5
1C2
330
1F
100
AcDbEntity
  8
0
  6
Continuous
 62
     3
100
AcDbLine
 10
144.8575068578886
 20
150.1522146282979
 30
0.0
 11
127.73614562808
 21
150.1522146282979
 31
0.0
  0
LINE
  5
1C3
330
1F
100
AcDbEntity
  8
0
  6
Continuous
 62
     3
100
AcDbLine
 10
126.7207600898833
 20
149.5659815144888
 30
0.0
 11
125.6735812898944
 21
147.7522146282985
 31
0.0
  0
LINE
  5
1C4
330
1F
100
AcDbEntity
  8
0
  6
Continuous
 62
     3
100
AcDbLine
 10
126.7207600898848
 20
118.7384477421045
 30
0.0
 11
127.0592219359489
 21
118.152214628298
 31
0.0
  0
LINE
  5
1C5
330
1F
100
AcDbEntity
  8
0
  6
Continuous
 62
     3
100
AcDbLine
 10
127.0592219359489
 20
118.152214628298
 30
0.0
 11
127.73614562808
 21
118.152214628298
 31
0.0
  0
LINE
  5
1C6
330
1F
100
AcDbEntity
  8
0
  6
Continuous
 62
     3
100
AcDbLine
 10
135.1421257046131
 20
122.1522146283143
 30
0.0
 11
134.5070404084952
 21
121.0522146282979
 31
0.0
  0
LINE
  5
1C7
330
1F
100
AcDbEntity
  8
0
  6
Continuous
 62
     3
100
AcDbLine
 10
145.872892396081
 20
118.7384477421046
 30
0.0
 11
154.4335730109853
 21
133.5659815144888
 31
0.0
  0
LINE
  5
1C8
330
1F
100
AcDbEntity
  8
0
  6
Continuous
 62
     3
100
AcDbLine
 10
154.4335730109853
 20
133.5659815144888
 30
0.0
 11
154.7720348570509
 21
134.1522146282979
 31
0.0
  0
LINE
  5
1C9
330
1F
100
AcDbEntity
  8
0
  6
Continuous
 62
     3
100
AcDbLine
 10
135.1421257045942
 20
146.1522146283143
 30
0.0
 11
134.5070404084952
 21
147.252214628298
 31
0.0
  0
LINE
  5
1CA
330
1F
100
AcDbEntity
  8
4
  6
Continuous
 62
     3
100
AcDbLine
 10
89.29682624291101
 20
47.9742602208234
 30
0.0
 11
86.79682624291101
 21
47.9742602208234
 31
0.0
  0
LINE
  5
1CB
330
1F
100
AcDbEntity
  8
4
  6
Continuous
 62
     3
100
AcDbLine
 10
87.29682624291101
 20
28.7950734366454
 30
0.0
 11
87.29682624291101
 21
21.21290439989417
 31
0.0
  0
LINE
  5
1CC
330
1F
100
AcDbEntity
  8
4
  6
Continuous
 62
     3
100
AcDbLine
 10
87.79682624291101
 20
20.71290439989417
 30
0.0
 11
89.29682624291101
 21
20.71290439989417
 31
0.0
  0
LINE
  5
1CD
330
1F
100
AcDbEntity
  8
4
  6
Continuous
 62
     3
100
AcDbLine
 10
86.29682624291101
 20
28.91290439989422
 30
0.0
 11
86.29682624291101
 21
28.71290439989417
 31
0.0
  0
LINE
  5
1CE
330
1F
100
AcDbEntity
  8
0
  6
Continuous
 62
     3
100
AcDbLine
 10
86.29682624291101
 20
45.36975864938671
 30
0.0
 11
86.29682624291101
 21
45.37438568967531
 31
0.0
  0
LINE
  5
1CF
330
1F
100
AcDbEntity
  8
0
  6
Continuous
 62
     3
100
AcDbLine
 10
76.29682624291101
 20
33.0087176640713
 30
0.0
 11
76.29682624291101
 21
46.41709113571739
 31
0.0
  0
LINE
  5
1D0
330
1F
100
AcDbEntity
  8
0
  6
Continuous
 62
     3
100
AcDbLine
 10
79.7968262394113
 20
29.50871766757103
 30
0.0
 11
79.79682624291101
 21
49.91709113571739
 31
0.0
  0
LINE
  5
1D1
330
1F
100
AcDbEntity
  8
0
  6
Continuous
 62
     3
100
AcDbLine
 10
86.09682624291099
 20
47.49107899294637
 30
0.0
 11
80.45383020705779
 21
47.39292599539652
 31
0.0
  0
LINE
  5
1D2
330
1F
100
AcDbEntity
  8
0
  6
Continuous
 62
     3
100
AcDbLine
 10
86.09682624291099
 20
41.14869251431486
 30
0.0
 11
80.45383020735949
 21
41.13057426497738
 31
0.0
  0
LINE
  5
1D3
330
1F
100
AcDbEntity
  8
0
  6
Continuous
 62
     3
100
AcDbLine
 10
86.09682624293609
 20
38.27711628542642
 30
0.0
 11
80.45383020751649
 21
38.29523453464327
 31
0.0
  0
LINE
  5
1D4
330
1F
100
AcDbEntity
  8
0
  6
Continuous
 62
     3
100
AcDbLine
 10
86.096826242936
 20
42.55991389597369
 30
0.0
 11
80.4538302073644
 21
42.52398740561597
 31
0.0
  0
LINE
  5
1D5
330
1F
100
AcDbEntity
  8
0
  6
Continuous
 62
     3
100
AcDbLine
 10
86.0968262429362
 20
39.71290439994283
 30
0.0
 11
80.45383020735949
 21
39.71290439989474
 31
0.0
  0
LINE
  5
1D6
330
1F
100
AcDbEntity
  8
0
  6
Continuous
 62
     3
100
AcDbLine
 10
86.096826242936
 20
36.86589490381488
 30
0.0
 11
80.45383020736449
 21
36.90182139417226
 31
0.0
  0
LINE
  5
1D7
330
1F
100
AcDbEntity
  8
0
  6
Continuous
 62
     3
100
AcDbLine
 10
86.09682624291099
 20
48.43979114309781
 30
0.0
 11
80.45383020735949
 21
48.32966632149731
 31
0.0
  0
LINE
  5
1D8
330
1F
100
AcDbEntity
  8
0
  6
Continuous
 62
     3
100
AcDbLine
 10
86.09682624291099
 20
49.23918384152324
 30
0.0
 11
80.4538302073596
 21
49.11897146167979
 31
0.0
  0
LINE
  5
1D9
330
1F
100
AcDbEntity
  8
0
  6
Continuous
 62
     3
100
AcDbLine
 10
86.09682624293609
 20
49.87557925753134
 30
0.0
 11
80.45383020735949
 21
49.7473361865803
 31
0.0
  0
LINE
  5
1DA
330
1F
100
AcDbEntity
  8
0
  6
Continuous
 62
     3
100
AcDbLine
 10
86.09682624291099
 20
50.33808848907432
 30
0.0
 11
80.45383020735929
 21
50.20400900154033
 31
0.0
  0
LINE
  5
1DB
330
1F
100
AcDbEntity
  8
0
  6
Continuous
 62
     3
100
AcDbLine
 10
80.49485676614529
 20
50.6151216589513
 30
0.0
 11
79.79682624291101
 21
49.91709113571739
 31
0.0
  0
LINE
  5
1DC
330
1F
100
AcDbEntity
  8
0
  6
Continuous
 62
     3
100
AcDbLine
 10
86.29682624291101
 20
28.91290439989422
 30
0.0
 11
86.09682624291099
 21
28.71290439989417
 31
0.0
  0
LINE
  5
1DD
330
1F
100
AcDbEntity
  8
0
  6
Continuous
 62
     3
100
AcDbLine
 10
86.09682624291099
 20
31.9347298068422
 30
0.0
 11
86.09682624291099
 21
31.93136239248673
 31
0.0
  0
LINE
  5
1DE
330
1F
100
AcDbEntity
  8
0
  6
Continuous
 62
     3
100
AcDbLine
 10
86.09682624291099
 20
50.71290439989429
 30
0.0
 11
80.49485676614529
 21
50.6151216589513
 31
0.0
  0
LINE
  5
1DF
330
1F
100
AcDbEntity
  8
0
  6
Continuous
 62
     3
100
AcDbLine
 10
80.49485676614529
 20
28.81068714083716
 30
0.0
 11
79.79682624291101
 21
29.5087176640713
 31
0.0
  0
LINE
  5
1E0
330
1F
100
AcDbEntity
  8
0
  6
Continuous
 62
     3
100
AcDbLine
 10
86.09682624291099
 20
30.18662495826533
 30
0.0
 11
80.45383020751669
 21
30.30683733805046
 31
0.0
  0
LINE
  5
1E1
330
1F
100
AcDbEntity
  8
0
  6
Continuous
 62
     3
100
AcDbLine
 10
86.09682624291099
 20
30.98601765669076
 30
0.0
 11
80.45383020751649
 21
31.09614247807832
 31
0.0
  0
LINE
  5
1E2
330
1F
100
AcDbEntity
  8
0
  6
Continuous
 62
     3
100
AcDbLine
 10
86.09682624291099
 20
31.9347298068422
 30
0.0
 11
80.45383020705779
 21
32.03288280397368
 31
0.0
  0
LINE
  5
1E3
330
1F
100
AcDbEntity
  8
0
  6
Continuous
 62
     3
100
AcDbLine
 10
86.09682624291099
 20
47.49444640730184
 30
0.0
 11
86.09682624291099
 21
47.49107899294637
 31
0.0
  0
LINE
  5
1E4
330
1F
100
AcDbEntity
  8
0
  6
Continuous
 62
     3
100
AcDbLine
 10
86.29682624291101
 20
50.51290439989435
 30
0.0
 11
86.09682624291099
 21
50.71290439989429
 31
0.0
  0
LINE
  5
1E5
330
1F
100
AcDbEntity
  8
0
  6
Continuous
 62
     3
100
AcDbLine
 10
86.09682624291099
 20
28.71290439989417
 30
0.0
 11
80.49485676614529
 21
28.81068714083716
 31
0.0
  0
LINE
  5
1E6
330
1F
100
AcDbEntity
  8
0
  6
Continuous
 62
     3
100
AcDbLine
 10
86.09682624291099
 20
29.08772031071436
 30
0.0
 11
80.4538302073646
 21
29.22179979824642
 31
0.0
  0
LINE
  5
1E7
330
1F
100
AcDbEntity
  8
0
  6
Continuous
 62
     3
100
AcDbLine
 10
86.09682624293609
 20
29.55022954225711
 30
0.0
 11
80.45383020736429
 21
29.67847261320713
 31
0.0
  0
LINE
  5
1E8
330
1F
100
AcDbEntity
  8
0
  6
Continuous
 62
     3
100
AcDbLine
 10
86.29682624291101
 20
50.51290439989435
 30
0.0
 11
86.29682624291101
 21
28.91290439989422
 31
0.0
  0
LINE
  5
1E9
330
1F
100
AcDbEntity
  8
0
  6
Continuous
 62
     3
100
AcDbLine
 10
86.29682624291101
 20
45.36975864938671
 30
0.0
 11
86.29682624291101
 21
45.37438568967531
 31
0.0
  0
LINE
  5
1EA
330
1F
100
AcDbEntity
  8
0
  6
Continuous
 62
     3
100
AcDbLine
 10
103.7968262429109
 20
28.96290439989417
 30
0.0
 11
103.7968262429109
 21
50.46290439989429
 31
0.0
  0
LINE
  5
1EB
330
1F
100
AcDbEntity
  8
0
  6
Continuous
 62
     3
100
AcDbLine
 10
103.0751384064239
 20
27.71290439989417
 30
0.0
 11
103.0751384064239
 21
27.78870919660898
 31
0.0
  0
LINE
  5
1EC
330
1F
100
AcDbEntity
  8
0
  6
Continuous
 62
     3
100
AcDbLine
 10
90.6628516466956
 20
27.71290439989417
 30
0.0
 11
103.0751384064239
 21
27.71290439989417
 31
0.0
  0
LINE
  5
1ED
330
1F
100
AcDbEntity
  8
0
  6
Continuous
 62
     3
100
AcDbLine
 10
90.6628516466956
 20
51.63709960317937
 30
0.0
 11
90.6628516466956
 21
51.71290439989429
 31
0.0
  0
LINE
  5
1EE
330
1F
100
AcDbEntity
  8
0
  6
Continuous
 62
     3
100
AcDbLine
 10
89.79682624291101
 20
50.21290439989429
 30
0.0
 11
90.6628516466956
 21
51.71290439989429
 31
0.0
  0
LINE
  5
1EF
330
1F
100
AcDbEntity
  8
0
  6
Continuous
 62
     3
100
AcDbLine
 10
103.0751384064239
 20
27.78870919660898
 30
0.0
 11
90.6628516466956
 21
27.78870919660898
 31
0.0
  0
LINE
  5
1F0
330
1F
100
AcDbEntity
  8
0
  6
Continuous
 62
     3
100
AcDbLine
 10
103.0751384064239
 20
51.63709960317937
 30
0.0
 11
90.6628516466956
 21
51.63709960317937
 31
0.0
  0
LINE
  5
1F1
330
1F
100
AcDbEntity
  8
0
  6
Continuous
 62
     3
100
AcDbLine
 10
103.0751384064239
 20
51.63709960317937
 30
0.0
 11
103.0751384064239
 21
51.71290439989429
 31
0.0
  0
LINE
  5
1F2
330
1F
100
AcDbEntity
  8
0
  6
Continuous
 62
     3
100
AcDbLine
 10
89.79682624291101
 20
29.2129043998944
 30
0.0
 11
90.6628516466956
 21
27.71290439989417
 31
0.0
  0
LINE
  5
1F3
330
1F
100
AcDbEntity
  8
0
  6
Continuous
 62
     3
100
AcDbLine
 10
90.6628516466956
 20
27.71290439989417
 30
0.0
 11
90.6628516466956
 21
27.78870919660898
 31
0.0
  0
LINE
  5
1F4
330
1F
100
AcDbEntity
  8
0
  6
Continuous
 62
     3
100
AcDbLine
 10
90.6628516466956
 20
51.71290439989429
 30
0.0
 11
103.0751384064239
 21
51.71290439989429
 31
0.0
  0
LINE
  5
1F5
330
1F
100
AcDbEntity
  8
0
  6
Continuous
 62
     3
100
AcDbLine
 10
103.0751384064239
 20
27.71290439989417
 30
0.0
 11
103.7968262429109
 21
28.96290439989417
 31
0.0
  0
LINE
  5
1F6
330
1F
100
AcDbEntity
  8
0
  6
Continuous
 62
     3
100
AcDbLine
 10
103.0751384064239
 20
51.71290439989429
 30
0.0
 11
103.7968262429109
 21
50.46290439989429
 31
0.0
  0
LINE
  5
1F7
330
1F
100
AcDbEntity
  8
0
  6
Continuous
 62
     3
100
AcDbLine
 10
103.0751384064239
 20
44.50873592320698
 30
0.0
 11
90.66285164668159
 21
44.5087359232154
 31
0.0
  0
LINE
  5
1F8
330
1F
100
AcDbEntity
  8
0
  6
Continuous
 62
     3
100
AcDbLine
 10
103.0751384064239
 20
44.50873592320698
 30
0.0
 11
103.0751384064629
 21
46.84126807995136
 31
0.0
  0
LINE
  5
1F9
330
1F
100
AcDbEntity
  8
0
  6
Continuous
 62
     3
100
AcDbLine
 10
103.7968262429109
 20
50.46290439989429
 30
0.0
 11
107.4172619990501
 21
50.46290439989429
 31
0.0
  0
LINE
  5
1FA
330
1F
100
AcDbEntity
  8
0
  6
Continuous
 62
     3
100
AcDbLine
 10
103.0751384064629
 20
46.84126807995136
 30
0.0
 11
90.6628516466956
 21
46.84126807986667
 31
0.0
  0
LINE
  5
1FB
330
1F
100
AcDbEntity
  8
0
  6
Continuous
 62
     3
100
AcDbLine
 10
90.6628516466956
 20
32.5845407199219
 30
0.0
 11
90.66285164668159
 21
34.91707287657317
 31
0.0
  0
LINE
  5
1FC
330
1F
100
AcDbEntity
  8
0
  6
Continuous
 62
     3
100
AcDbLine
 10
103.7968262429109
 20
28.96290439989417
 30
0.0
 11
107.4172619990518
 21
28.96290439989417
 31
0.0
  0
LINE
  5
1FD
330
1F
100
AcDbEntity
  8
0
  6
Continuous
 62
     3
100
AcDbLine
 10
103.0751384064239
 20
32.5845407199219
 30
0.0
 11
103.0751384064239
 21
34.91707287658147
 31
0.0
  0
LINE
  5
1FE
330
1F
100
AcDbEntity
  8
0
  6
Continuous
 62
     3
100
AcDbLine
 10
103.0751384064239
 20
32.5845407199219
 30
0.0
 11
90.6628516466956
 21
32.5845407199219
 31
0.0
  0
LINE
  5
1FF
330
1F
100
AcDbEntity
  8
0
  6
Continuous
 62
     3
100
AcDbLine
 10
103.0751384064239
 20
34.91707287658147
 30
0.0
 11
90.66285164668159
 21
34.91707287657317
 31
0.0
  0
LINE
  5
200
330
1F
100
AcDbEntity
  8
0
  6
Continuous
 62
     3
100
AcDbLine
 10
90.66285164668159
 20
44.5087359232154
 30
0.0
 11
90.6628516466956
 21
46.84126807986667
 31
0.0
  0
LINE
  5
201
330
1F
100
AcDbEntity
  8
1
  6
Continuous
 62
     3
100
AcDbLine
 10
108.296826242911
 20
30.15239215613411
 30
0.0
 11
106.2968262429109
 21
30.08988903272592
 31
0.0
  0
LINE
  5
202
330
1F
100
AcDbEntity
  8
100
  6
Continuous
 62
     3
100
AcDbLine
 10
106.2968262429109
 20
28.97476637528206
 30
0.0
 11
106.2968262429108
 21
50.45104242450628
 31
0.0
  0
LINE
  5
203
330
1F
100
AcDbEntity
  8
1
  6
Continuous
 62
     3
100
AcDbLine
 10
108.296826242911
 20
49.27341664365468
 30
0.0
 11
106.2968262429109
 21
49.33591976706288
 31
0.0
  0
LINE
  5
204
330
1F
100
AcDbEntity
  8
100
  6
Continuous
 62
     3
100
AcDbLine
 10
107.4172619990501
 20
50.46290439989429
 30
0.0
 11
108.296826242911
 21
50.43541664365438
 31
0.0
  0
LINE
  5
205
330
1F
100
AcDbEntity
  8
100
  6
Continuous
 62
     3
100
AcDbLine
 10
108.296826242911
 20
28.99039215613396
 30
0.0
 11
107.4172619990518
 21
28.96290439989417
 31
0.0
  0
LINE
  5
206
330
1F
100
AcDbEntity
  8
4
  6
Continuous
 62
     3
100
AcDbLine
 10
89.79682624291101
 20
21.21290439989417
 30
0.0
 11
89.79682624291101
 21
50.21290439989429
 31
0.0
  0
LINE
  5
207
330
1F
100
AcDbEntity
  8
1
  6
DOTTED
 62
     6
100
AcDbLine
 10
144.2968262429109
 20
67.91290439989392
 30
0.0
 11
144.2968262429109
 21
68.91290439989399
 31
0.0
  0
LINE
  5
208
330
1F
100
AcDbEntity
  8
1
  6
DOTTED
 62
     6
100
AcDbLine
 10
128.2968262429112
 20
67.91290439989392
 30
0.0
 11
128.2968262429112
 21
68.91290439989399
 31
0.0
  0
LINE
  5
209
330
1F
100
AcDbEntity
  8
3
  6
DOTTED
 62
     6
100
AcDbLine
 10
126.896826242911
 20
71.21290439989406
 30
0.0
 11
127.496826242911
 21
71.21290439989406
 31
0.0
  0
LINE
  5
20A
330
1F
100
AcDbEntity
  8
3
  6
DOTTED
 62
     6
100
AcDbLine
 10
145.096826242911
 20
71.21290439989406
 30
0.0
 11
145.696826242911
 21
71.21290439989406
 31
0.0
  0
LINE
  5
20B
330
1F
100
AcDbEntity
  8
0
  6
Continuous
 62
     3
100
AcDbLine
 10
42.81707163902721
 20
82.91290439989386
 30
0.0
 11
43.31707163902715
 21
82.62422926529904
 31
0.0
  0
LINE
  5
20C
330
1F
100
AcDbEntity
  8
0
  6
Continuous
 62
     3
100
AcDbLine
 10
43.31707163902721
 20
68.20157953448874
 30
0.0
 11
43.31707163885892
 21
82.62422926539618
 31
0.0
  0
LINE
  5
20D
330
1F
100
AcDbEntity
  8
0
  6
Continuous
 62
     3
100
AcDbLine
 10
42.81707163902721
 20
67.91290439989386
 30
0.0
 11
19.81707163902721
 21
67.91290439989397
 31
0.0
  0
LINE
  5
20E
330
1F
100
AcDbEntity
  8
0
  6
Continuous
 62
     3
100
AcDbLine
 10
42.81707163902721
 20
67.91290439989386
 30
0.0
 11
43.31707163902721
 21
68.20157953448874
 31
0.0
  0
LINE
  5
20F
330
1F
100
AcDbEntity
  8
0
  6
Continuous
 62
     3
100
AcDbLine
 10
31.31707163902732
 20
69.27337630421344
 30
0.0
 11
31.31707163902715
 21
81.55243249557434
 31
0.0
  0
LINE
  5
210
330
1F
100
AcDbEntity
  8
0
  6
Continuous
 62
     3
100
AcDbLine
 10
19.31707163903026
 20
82.62422926530085
 30
0.0
 11
19.31707163902721
 21
68.20157953448874
 31
0.0
  0
LINE
  5
211
330
1F
100
AcDbEntity
  8
0
  6
Continuous
 62
     3
100
AcDbLine
 10
19.81707163902726
 20
82.91290439989397
 30
0.0
 11
19.31707163902721
 21
82.62422926529909
 31
0.0
  0
LINE
  5
212
330
1F
100
AcDbEntity
  8
0
  6
Continuous
 62
     3
100
AcDbLine
 10
19.81707163902721
 20
67.91290439989397
 30
0.0
 11
19.31707163902721
 21
68.20157953448874
 31
0.0
  0
LINE
  5
213
330
1F
100
AcDbEntity
  8
0
  6
Continuous
 62
     3
100
AcDbLine
 10
42.81707163902721
 20
82.91290439989386
 30
0.0
 11
19.81707163902726
 21
82.91290439989397
 31
0.0
  0
LINE
  5
214
330
1F
100
AcDbEntity
  8
1
  6
Continuous
 62
     3
100
AcDbLine
 10
31.31707163902732
 20
11.0079921633444
 30
0.0
 11
31.31707163902732
 21
20.71290439989431
 31
0.0
  0
LINE
  5
215
330
1F
100
AcDbEntity
  8
1
  6
DOT_CENTER
 62
     1
100
AcDbLine
 10
136.296826242911
 20
153.1522146282979
 30
0.0
 11
136.296826242911
 21
115.152214628298
 31
0.0
  0
LINE
  5
216
330
1F
100
AcDbEntity
  8
1
  6
Continuous
 62
     3
100
AcDbLine
 10
143.2250294731866
 20
146.1522146283143
 30
0.0
 11
129.3686230126353
 21
146.1522146283143
 31
0.0
  0
LINE
  5
217
330
1F
100
AcDbEntity
  8
1
  6
Continuous
 62
     3
100
AcDbLine
 10
150.1532327034622
 20
134.1522146283143
 30
0.0
 11
143.2250294731866
 21
146.1522146283143
 31
0.0
  0
LINE
  5
218
330
1F
100
AcDbEntity
  8
1
  6
Continuous
 62
     3
100
AcDbLine
 10
143.2250294731868
 20
122.1522146283143
 30
0.0
 11
150.1532327034622
 21
134.1522146283143
 31
0.0
  0
LINE
  5
219
330
1F
100
AcDbEntity
  8
1
  6
Continuous
 62
     3
100
AcDbLine
 10
129.3686230126358
 20
122.1522146283143
 30
0.0
 11
143.2250294731868
 21
122.1522146283143
 31
0.0
  0
LINE
  5
21A
330
1F
100
AcDbEntity
  8
1
  6
Continuous
 62
     3
100
AcDbLine
 10
122.4404197823599
 20
134.1522146283142
 30
0.0
 11
129.3686230126358
 21
122.1522146283143
 31
0.0
  0
LINE
  5
21B
330
1F
100
AcDbEntity
  8
1
  6
Continuous
 62
     3
100
AcDbLine
 10
129.3686230126353
 20
146.1522146283143
 30
0.0
 11
122.4404197823599
 21
134.1522146283142
 31
0.0
  0
LINE
  5
21C
330
1F
100
AcDbEntity
  8
1
  6
DOT_CENTER
 62
     1
100
AcDbLine
 10
31.31707163902732
 20
85.91290439989392
 30
0.0
 11
31.31707163902732
 21
5.71290439989428
 31
0.0
  0
LINE
  5
21D
330
1F
100
AcDbEntity
  8
0
  6
Continuous
 62
     3
100
AcDbLine
 10
122.4404197829853
 20
69.27337630421344
 30
0.0
 11
122.4404197829937
 21
81.55243249558497
 31
0.0
  0
LINE
  5
21E
330
1F
100
AcDbEntity
  8
0
  6
Continuous
 62
     3
100
AcDbLine
 10
124.7968262435365
 20
67.91290439989392
 30
0.0
 11
122.4404197829853
 21
69.27337630421344
 31
0.0
  0
LINE
  5
21F
330
1F
100
AcDbEntity
  8
0
  6
Continuous
 62
     3
100
AcDbLine
 10
129.3686230132528
 20
69.27337630420287
 30
0.0
 11
129.3686230120096
 21
81.5524324952131
 31
0.0
  0
LINE
  5
220
330
1F
100
AcDbEntity
  8
0
  6
Continuous
 62
     3
100
AcDbLine
 10
150.1532327040877
 20
69.27337630421344
 30
0.0
 11
150.1532327040877
 21
81.5524324955744
 31
0.0
  0
LINE
  5
221
330
1F
100
AcDbEntity
  8
0
  6
Continuous
 62
     3
100
AcDbLine
 10
147.7968262435365
 20
82.91290439989392
 30
0.0
 11
124.7968262435365
 21
82.91290439989392
 31
0.0
  0
LINE
  5
222
330
1F
100
AcDbEntity
  8
0
  6
Continuous
 62
     3
100
AcDbLine
 10
147.7968262435365
 20
82.91290439989392
 30
0.0
 11
150.1532327040877
 21
81.5524324955744
 31
0.0
  0
LINE
  5
223
330
1F
100
AcDbEntity
  8
0
  6
Continuous
 62
     3
100
AcDbLine
 10
124.7968262435365
 20
82.91290439989392
 30
0.0
 11
122.4404197829937
 21
81.55243249558497
 31
0.0
  0
LINE
  5
224
330
1F
100
AcDbEntity
  8
0
  6
Continuous
 62
     3
100
AcDbLine
 10
143.2250294737977
 20
69.27337630420924
 30
0.0
 11
143.2250294738124
 21
81.5524324955744
 31
0.0
  0
LINE
  5
225
330
1F
100
AcDbEntity
  8
0
  6
Continuous
 62
     3
100
AcDbLine
 10
147.7968262435365
 20
67.91290439989392
 30
0.0
 11
124.7968262435365
 21
67.91290439989392
 31
0.0
  0
LINE
  5
226
330
1F
100
AcDbEntity
  8
0
  6
Continuous
 62
     3
100
AcDbLine
 10
147.7968262435365
 20
67.91290439989392
 30
0.0
 11
150.1532327040877
 21
69.27337630421344
 31
0.0
  0
ARC
  5
227
330
1F
100
AcDbEntity
  8
1
  6
Continuous
 62
     3
100
AcDbCircle
 10
105.2517153788775
 20
139.6522146282979
 30
0.0
 40
15.16855118309096
100
AcDbArc
 50
164.108846579551
 51
195.8911534204483
  0
ARC
  5
228
330
1F
100
AcDbEntity
  8
1
  6
Continuous
 62
     3
100
AcDbCircle
 10
88.47400205983979
 20
139.6522146282979
 30
0.0
 40
15.18035515439834
100
AcDbArc
 50
344.1215297621904
 51
15.87847023781027
  0
ARC
  5
229
330
1F
100
AcDbEntity
  8
1
  6
Continuous
 62
     3
100
AcDbCircle
 10
105.2517153788775
 20
128.6522146282979
 30
0.0
 40
15.16855118309093
100
AcDbArc
 50
164.1088465795514
 51
195.8911534204483
  0
ARC
  5
22A
330
1F
100
AcDbEntity
  8
1
  6
Continuous
 62
     3
100
AcDbCircle
 10
88.47400205983979
 20
128.6522146282979
 30
0.0
 40
15.18035515439834
100
AcDbArc
 50
344.1215297621904
 51
15.87847023780986
  0
ARC
  5
22B
330
1F
100
AcDbEntity
  8
1
  6
Continuous
 62
     3
100
AcDbCircle
 10
86.796826242983
 20
145.1522146282979
 30
0.0
 40
0.5
100
AcDbArc
 50
90.0
 51
180.0
  0
ARC
  5
22C
330
1F
100
AcDbEntity
  8
1
  6
Continuous
 62
     3
100
AcDbCircle
 10
89.296826242983
 20
145.1522146282979
 30
0.0
 40
0.5
100
AcDbArc
 50
0.0
 51
90.0
  0
ARC
  5
22D
330
1F
100
AcDbEntity
  8
1
  6
Continuous
 62
     3
100
AcDbCircle
 10
89.296826242983
 20
123.1522146282979
 30
0.0
 40
0.5
100
AcDbArc
 50
270.0
 51
0.0
  0
ARC
  5
22E
330
1F
100
AcDbEntity
  8
1
  6
Continuous
 62
     3
100
AcDbCircle
 10
86.796826242983
 20
123.1522146282979
 30
0.0
 40
0.5
100
AcDbArc
 50
180.0
 51
270.0
  0
ARC
  5
22F
330
1F
100
AcDbEntity
  8
0
  6
Continuous
 62
     3
100
AcDbCircle
 10
79.796826242983
 20
140.8564013641209
 30
0.0
 40
3.5
100
AcDbArc
 50
90.0
 51
180.0
  0
ARC
  5
230
330
1F
100
AcDbEntity
  8
0
  6
Continuous
 62
     3
100
AcDbCircle
 10
79.796826242983
 20
127.448027892475
 30
0.0
 40
3.5
100
AcDbArc
 50
180.0
 51
270.0
  0
ARC
  5
231
330
1F
100
AcDbEntity
  8
1
  6
Continuous
 62
     3
100
AcDbCircle
 10
32.3170716389759
 20
22.71290439989431
 30
0.0
 40
2.0
100
AcDbArc
 50
270.0
 51
0.0
  0
ARC
  5
232
330
1F
100
AcDbEntity
  8
1
  6
Continuous
 62
     3
100
AcDbCircle
 10
30.3170716389759
 20
22.71290439989431
 30
0.0
 40
2.0
100
AcDbArc
 50
180.0
 51
270.0
  0
ARC
  5
233
330
1F
100
AcDbEntity
  8
1
  6
Continuous
 62
     3
100
AcDbCircle
 10
31.3170716389759
 20
39.71290439989429
 30
0.0
 40
11.49999999999985
100
AcDbArc
 50
134.0792098478883
 51
45.92079015211175
  0
ARC
  5
234
330
1F
100
AcDbEntity
  8
1
  6
Continuous
 62
     3
100
AcDbCircle
 10
35.3170716389759
 20
27.8701851175673
 30
0.0
 40
0.9999999999999601
100
AcDbArc
 50
108.6629248849463
 51
180.0
  0
ARC
  5
235
330
1F
100
AcDbEntity
  8
1
  6
Continuous
 62
     3
100
AcDbCircle
 10
27.3170716389759
 20
27.8701851175673
 30
0.0
 40
1.0
100
AcDbArc
 50
0.0
 51
71.33707511505152
  0
ARC
  5
236
330
1F
100
AcDbEntity
  8
1
  6
Continuous
 62
     3
100
AcDbCircle
 10
31.3170716389759
 20
39.71290439989429
 30
0.0
 40
11.99999999999989
100
AcDbArc
 50
323.5564643091013
 51
336.4435356908993
  0
ARC
  5
237
330
1F
100
AcDbEntity
  8
1
  6
Continuous
 62
     3
100
AcDbCircle
 10
31.3170716389759
 20
39.71290439989429
 30
0.0
 40
12.0000000000002
100
AcDbArc
 50
23.55646430910064
 51
36.44353569089912
  0
ARC
  5
238
330
1F
100
AcDbEntity
  8
1
  6
Continuous
 62
     3
100
AcDbCircle
 10
31.3170716389759
 20
39.71290439989429
 30
0.0
 40
11.99999999999994
100
AcDbArc
 50
83.55646430910124
 51
96.4435356908992
  0
ARC
  5
239
330
1F
100
AcDbEntity
  8
1
  6
Continuous
 62
     3
100
AcDbCircle
 10
31.3170716389759
 20
39.71290439989429
 30
0.0
 40
12.00000000000002
100
AcDbArc
 50
143.5564643091012
 51
156.4435356908989
  0
ARC
  5
23A
330
1F
100
AcDbEntity
  8
1
  6
Continuous
 62
     3
100
AcDbCircle
 10
31.3170716389759
 20
39.71290439989429
 30
0.0
 40
11.99999999999999
100
AcDbArc
 50
203.5564643091011
 51
216.4435356908984
  0
ARC
  5
23B
330
1F
100
AcDbEntity
  8
0
  6
Continuous
 62
     3
100
AcDbCircle
 10
40.31707163902681
 20
58.79869014191382
 30
0.0
 40
0.9999999999998721
100
AcDbArc
 50
0.0
 51
45.00000000002764
  0
ARC
  5
23C
330
1F
100
AcDbEntity
  8
0
  6
Continuous
 62
     3
100
AcDbCircle
 10
22.31707163902782
 20
58.79869014191382
 30
0.0
 40
0.9999999999998297
100
AcDbArc
 50
134.9999999999719
 51
180.0
  0
ARC
  5
23D
330
1F
100
AcDbEntity
  8
0
  6
Continuous
 62
     3
100
AcDbCircle
 10
31.31707163902976
 20
39.71290439993379
 30
0.0
 40
13.59999999999349
100
AcDbArc
 50
90.00000000001029
 51
231.1980931639827
  0
ARC
  5
23E
330
1F
100
AcDbEntity
  8
0
  6
Continuous
 62
     3
100
AcDbCircle
 10
31.31707163907879
 20
39.71290439989429
 30
0.0
 40
13.59999999999365
100
AcDbArc
 50
231.1980931637174
 51
244.2532747279173
  0
ARC
  5
23F
330
1F
100
AcDbEntity
  8
0
  6
Continuous
 62
     3
100
AcDbCircle
 10
31.3170716389759
 20
39.71290439989429
 30
0.0
 40
13.59999999999358
100
AcDbArc
 50
295.7467252720779
 51
308.8019068363865
  0
ARC
  5
240
330
1F
100
AcDbEntity
  8
0
  6
Continuous
 62
     3
100
AcDbCircle
 10
31.31707163902489
 20
39.71290439993379
 30
0.0
 40
13.59999999999367
100
AcDbArc
 50
308.8019068361214
 51
89.99999999998977
  0
ARC
  5
241
330
1F
100
AcDbEntity
  8
0
  6
Continuous
 62
     3
100
AcDbCircle
 10
31.31707163902732
 20
39.71290439992691
 30
0.0
 40
13.60000000000061
100
AcDbArc
 50
282.7435852219778
 51
295.746725271823
  0
ARC
  5
242
330
1F
100
AcDbEntity
  8
0
  6
Continuous
 62
     3
100
AcDbCircle
 10
31.31707163902732
 20
39.71290439992691
 30
0.0
 40
13.60000000000059
100
AcDbArc
 50
244.2532747281723
 51
257.256414777578
  0
ARC
  5
243
330
1F
100
AcDbEntity
  8
0
  6
Continuous
 62
     3
100
AcDbCircle
 10
18.8170716390272
 20
31.46342324545037
 30
0.0
 40
2.500000000000078
100
AcDbArc
 50
289.9999999999987
 51
340.9303970729214
  0
ARC
  5
244
330
1F
100
AcDbEntity
  8
0
  6
Continuous
 62
     3
100
AcDbCircle
 10
43.81707163902743
 20
31.46342324545037
 30
0.0
 40
2.500000000000017
100
AcDbArc
 50
199.0696029270786
 51
250.0000000000013
  0
ARC
  5
245
330
1F
100
AcDbEntity
  8
0
  6
Continuous
 62
     3
100
AcDbCircle
 10
108.6713230040091
 20
122.0522146282974
 30
0.0
 40
1.499999999999971
100
AcDbArc
 50
255.5423396458437
 51
270.0
  0
ARC
  5
246
330
1F
100
AcDbEntity
  8
0
  6
Continuous
 62
     3
100
AcDbCircle
 10
108.6713230040091
 20
146.2522146282985
 30
0.0
 40
1.5
100
AcDbArc
 50
90.0
 51
104.4576603541564
  0
ARC
  5
247
330
1F
100
AcDbEntity
  8
0
  6
Continuous
 62
     3
100
AcDbCircle
 10
133.6410150047107
 20
121.5522146282979
 30
0.0
 40
1.000000000000497
100
AcDbArc
 50
270.0
 51
330.0000000000011
  0
ARC
  5
248
330
1F
100
AcDbEntity
  8
0
  6
Continuous
 62
     3
100
AcDbCircle
 10
133.6410150047107
 20
146.752214628298
 30
0.0
 40
1.000000000000033
100
AcDbArc
 50
29.99999999999891
 51
90.0
  0
ARC
  5
249
330
1F
100
AcDbEntity
  8
4
  6
Continuous
 62
     3
100
AcDbCircle
 10
89.29682624291101
 20
47.4742602208234
 30
0.0
 40
0.5000000000000532
100
AcDbArc
 50
28.50844966366768
 51
90.0
  0
ARC
  5
24A
330
1F
100
AcDbEntity
  8
4
  6
Continuous
 62
     3
100
AcDbCircle
 10
86.79682624291101
 20
47.4742602208234
 30
0.0
 40
0.5
100
AcDbArc
 50
90.0
 51
151.4915503363391
  0
ARC
  5
24B
330
1F
100
AcDbEntity
  8
4
  6
Continuous
 62
     3
100
AcDbCircle
 10
86.79682624291101
 20
27.71290439989417
 30
0.0
 40
0.5
100
AcDbArc
 50
0.0
 51
90.0
  0
ARC
  5
24C
330
1F
100
AcDbEntity
  8
4
  6
Continuous
 62
     3
100
AcDbCircle
 10
89.29682624291101
 20
21.21290439989417
 30
0.0
 40
0.5
100
AcDbArc
 50
270.0
 51
0.0
  0
ARC
  5
24D
330
1F
100
AcDbEntity
  8
4
  6
Continuous
 62
     3
100
AcDbCircle
 10
87.79682624291101
 20
21.21290439989417
 30
0.0
 40
0.5
100
AcDbArc
 50
180.0
 51
270.0
  0
ARC
  5
24E
330
1F
100
AcDbEntity
  8
4
  6
Continuous
 62
     3
100
AcDbCircle
 10
86.79682624291101
 20
28.71290439989417
 30
0.0
 40
0.5
100
AcDbArc
 50
180.0
 51
270.0
  0
ARC
  5
24F
330
1F
100
AcDbEntity
  8
0
  6
Continuous
 62
     3
100
AcDbCircle
 10
79.79682624291101
 20
33.0087176640713
 30
0.0
 40
3.5
100
AcDbArc
 50
180.0
 51
270.0
  0
ARC
  5
250
330
1F
100
AcDbEntity
  8
0
  6
Continuous
 62
     3
100
AcDbCircle
 10
79.79682624291101
 20
46.41709113571739
 30
0.0
 40
3.5
100
AcDbArc
 50
90.0
 51
180.0
  0
CIRCLE
  5
251
330
1F
100
AcDbEntity
  8
1
  6
Continuous
 62
     3
100
AcDbCircle
 10
31.3170716389759
 20
39.71290439989429
 30
0.0
 40
6.5
  0
CIRCLE
  5
252
330
1F
100
AcDbEntity
  8
1
  6
Continuous
 62
     3
100
AcDbCircle
 10
31.3170716389759
 20
39.71290439989429
 30
0.0
 40
11.0
  0
CIRCLE
  5
253
330
1F
100
AcDbEntity
  8
1
  6
Continuous
 62
     3
100
AcDbCircle
 10
31.3170716389759
 20
39.71290439989429
 30
0.0
 40
10.34999999999985
  0
CIRCLE
  5
254
330
1F
100
AcDbEntity
  8
1
  6
Continuous
 62
     3
100
AcDbCircle
 10
31.3170716389759
 20
23.71290439989431
 30
0.0
 40
1.299999999999869
  0
CIRCLE
  5
255
330
1F
100
AcDbEntity
  8
0
  6
Continuous
 62
     3
100
AcDbCircle
 10
136.2968262429829
 20
134.1522146282979
 30
0.0
 40
6.500000000000114
  0
CIRCLE
  5
256
330
1F
100
AcDbEntity
  8
0
  6
Continuous
 62
     3
100
AcDbCircle
 10
136.2968262429829
 20
134.1522146282979
 30
0.0
 40
5.500000000000114
  0
CIRCLE
  5
257
330
1F
100
AcDbEntity
  8
0
  6
Continuous
 62
     3
100
AcDbCircle
 10
136.2968262429829
 20
134.1522146282979
 30
0.0
 40
9.400000000000006
  0
CIRCLE
  5
258
330
1F
100
AcDbEntity
  8
0
  6
Continuous
 62
     3
100
AcDbCircle
 10
136.2968262429829
 20
134.1522146282979
 30
0.0
 40
9.100000000000108
  0
CIRCLE
  5
259
330
1F
100
AcDbEntity
  8
1
  6
Continuous
 62
     3
100
AcDbCircle
 10
136.296826242911
 20
134.1522146283143
 30
0.0
 40
11.5
  0
CIRCLE
  5
25A
330
1F
100
AcDbEntity
  8
1
  6
Continuous
 62
     3
100
AcDbCircle
 10
136.296826242911
 20
134.1522146283143
 30
0.0
 40
9.500000000000014
  0
CIRCLE
  5
25B
330
1F
100
AcDbEntity
  8
1
  6
Continuous
 62
     3
100
AcDbCircle
 10
136.296826242911
 20
134.1522146283143
 30
0.0
 40
10.50000000000001
  0
SPLINE
  5
25C
330
1F
100
AcDbEntity
  8
0
  6
Continuous
 62
     3
100
AcDbSpline
210
0.0
220
0.0
230
1.0
 70
     8
 71
     3
 72
    11
 73
     7
 74
     5
 42
0.0000000001
 43
0.0000000001
 44
0.00000001
 40
0.0
 40
0.0
 40
0.0
 40
0.0
 40
4.908315039655217
 40
9.371240625213332
 40
13.8342750798385
 40
18.74271171651548
 40
18.74271171651548
 40
18.74271171651548
 40
18.74271171651548
 10
145.5344305499452
 20
10.71931702869694
 30
0.0
 10
143.9474630764429
 20
10.3102219369638
 30
0.0
 10
140.917532450877
 20
9.529153787863432
 30
0.0
 10
136.2969060804734
 20
9.176488491747058
 30
0.0
 10
131.6762351345099
 20
9.529127500378243
 30
0.0
 10
128.6462291608459
 20
10.31021285263659
 30
0.0
 10
127.0592219358771
 20
10.71931702870933
 30
0.0
 11
145.5344305499452
 21
10.71931702869694
 31
0.0
 11
140.7460818049533
 21
9.640765766660422
 31
0.0
 11
136.2969418034616
 21
9.290254669324952
 31
0.0
 11
131.8476911279095
 21
9.640747136106484
 31
0.0
 11
127.0592219358771
 21
10.71931702870933
 31
0.0
  0
SPLINE
  5
25D
330
1F
100
AcDbEntity
  8
0
  6
Continuous
 62
     3
100
AcDbSpline
210
0.0
220
0.0
230
1.0
 70
     8
 71
     3
 72
    11
 73
     7
 74
     5
 42
0.0000000001
 43
0.0000000001
 44
0.00000001
 40
0.0
 40
0.0
 40
0.0
 40
0.0
 40
2.288612873506112
 40
4.300475161252718
 40
6.552341980270015
 40
9.17850318880889
 40
9.17850318880889
 40
9.17850318880889
 40
9.17850318880889
 10
154.2637359805234
 20
10.43829476323623
 30
0.0
 10
153.5706619694569
 20
10.1111130646119
 30
0.0
 10
152.2683239445313
 20
9.496314124852887
 30
0.0
 10
150.0729682185306
 20
9.18139426954835
 30
0.0
 10
147.7638558104568
 20
9.55661904079265
 30
0.0
 10
146.3146387712852
 20
10.31241999331922
 30
0.0
 10
145.5344305499452
 20
10.71931702869694
 30
0.0
 11
154.2637359805234
 21
10.43829476323623
 31
0.0
 11
152.1452800268916
 21
9.572330989571256
 31
0.0
 11
150.1532903646663
 21
9.290254669323701
 31
0.0
 11
147.928857627265
 21
9.640687497934792
 31
0.0
 11
145.5344305499452
 21
10.71931702869694
 31
0.0
  0
SPLINE
  5
25E
330
1F
100
AcDbEntity
  8
0
  6
Continuous
 62
     3
100
AcDbSpline
210
0.0
220
0.0
230
1.0
 70
     8
 71
     3
 72
   383
 73
   379
 74
   377
 42
0.0000000001
 43
0.0000000001
 44
0.00000001
 40
0.0
 40
0.0
 40
0.0
 40
0.0
 40
0.0550872836550325
 40
0.1100969450284253
 40
0.1650293392133153
 40
0.2198848215044858
 40
0.2746637473983459
 40
0.3293664725927064
 40
0.3839933529868421
 40
0.4385447446814337
 40
0.4930210039781872
 40
0.5474224873798846
 40
0.601749551590145
 40
0.6560025535133297
 40
0.7101818502542262
 40
0.7642877991180052
 40
0.8183207576098421
 40
0.8722810834349114
 40
0.9261691344978303
 40
0.9799852689026525
 40
1.033729844952509
 40
1.087403221149318
 40
1.141005756193451
 40
1.194537808983495
 40
1.247999738615836
 40
1.301391904384244
 40
1.35471466577974
 40
1.407968382489924
 40
1.461153414398887
 40
1.514270121586547
 40
1.567318864328186
 40
1.620300003094312
 40
1.673213898549837
 40
1.726060911553899
 40
1.778841403159146
 40
1.831555734611335
 40
1.884204267348694
 40
1.936787363001627
 40
1.989305383391925
 40
2.041758690532085
 40
2.09414764662507
 40
2.146472614063475
 40
2.198733955428821
 40
2.25093203349115
 40
2.30306721120812
 40
2.355139851724543
 40
2.407150318371466
 40
2.459098974665598
 40
2.510986184308602
 40
2.562812311186213
 40
2.61457771936769
 40
2.666282773104724
 40
2.717927836830893
 40
2.769513275160784
 40
2.821039452889045
 40
2.872506734989671
 40
2.923915486615162
 40
2.975266073095297
 40
3.026558859936729
 40
3.077794212821726
 40
3.128972497607286
 40
3.1800940803242
 40
3.231159327176135
 40
3.282168604538523
 40
3.33312227895763
 40
3.384020717149474
 40
3.434864285998853
 40
3.485653352558139
 40
3.536388284046364
 40
3.587069447847973
 40
3.637697211511789
 40
3.688271942749843
 40
3.738794009436221
 40
3.789263779605803
 40
3.839681621453319
 40
3.890047903331839
 40
3.940362993751759
 40
3.990627261379393
 40
4.040841075035901
 40
4.09100480369573
 40
4.141118816485679
 40
4.191183482683267
 40
4.241199171715519
 40
4.291166253157637
 40
4.341085096731597
 40
4.390956072304744
 40
4.440779549888463
 40
4.490555899636616
 40
4.540285491844243
 40
4.58996869694611
 40
4.639605885515028
 40
4.689197428260592
 40
4.738743696027643
 40
4.788245059794542
 40
4.837701890671855
 40
4.887114559900736
 40
4.936483438851263
 40
4.98580889902093
 40
5.035091312033011
 40
5.084331049634844
 40
5.13352848369647
 40
5.182683986208609
 40
5.231797929281123
 40
5.280870685141549
 40
5.329902626132995
 40
5.378894124712698
 40
5.427845553450229
 40
5.476757285025621
 40
5.525629692227739
 40
5.574463147952494
 40
5.623258025200784
 40
5.672014697077157
 40
5.720733536787499
 40
5.7694149176373
 40
5.818059213030236
 40
5.866666796465482
 40
5.915238041536602
 40
5.963773321929225
 40
6.012273011419038
 40
6.060737483870243
 40
6.109167113233275
 40
6.157562273542947
 40
6.205923338916532
 40
6.254250683551667
 40
6.302544681724365
 40
6.35080570778721
 40
6.399034136166925
 40
6.447230341362615
 40
6.495394697943883
 40
6.543527580548226
 40
6.591629363879411
 40
6.639700422705294
 40
6.687741131855527
 40
6.735751866219693
 40
6.783733000745043
 40
6.831684910434356
 40
6.879607970343883
 40
6.927502555581037
 40
6.975369041302407
 40
7.023207802711398
 40
7.071019215056191
 40
7.118803653627542
 40
7.166561493756402
 40
7.214293110811871
 40
7.261998880198886
 40
7.309679177356069
 40
7.35733437775334
 40
7.404964856889838
 40
7.45257099029154
 40
7.500153153509026
 40
7.547711722115083
 40
7.595247071702794
 40
7.642759577882761
 40
7.69024961628109
 40
7.737717562537057
 40
7.785163792300797
 40
7.832588681230872
 40
7.879992604992142
 40
7.927375939253186
 40
7.974739059684242
 40
8.022082341954674
 40
8.069406161730567
 40
8.11671089467272
 40
8.16399691643386
 40
8.21126460265657
 40
8.258514328970842
 40
8.305746470991766
 40
8.352961404316936
 40
8.40015950452444
 40
8.447341147170096
 40
8.494506707785435
 40
8.54165656187507
 40
8.588791084914511
 40
8.635910652347413
 40
8.683015639583727
 40
8.730106421996869
 40
8.777183374921492
 40
8.824246873651303
 40
8.871297293436136
 40
8.918335009480218
 40
8.965360396939351
 40
9.01237383091856
 40
9.059375686469933
 40
9.106366338589973
 40
9.153346162217428
 40
9.200315532230755
 40
9.247274823445863
 40
9.29422441061356
 40
9.294250415589596
 40
9.294276420568446
 40
9.29430242554846
 40
9.294328430525661
 40
9.341278017693359
 40
9.388237308908439
 40
9.435206678921766
 40
9.48218650254922
 40
9.529177154669261
 40
9.576179010220605
 40
9.623192444199871
 40
9.670217831658976
 40
9.717255547703058
 40
9.764305967487948
 40
9.811369466217702
 40
9.858446419142382
 40
9.905537201555495
 40
9.952642188791781
 40
9.99976175622471
 40
10.04689627926409
 40
10.09404613335376
 40
10.1412116939691
 40
10.18839333661478
 40
10.23559143682226
 40
10.28280637014743
 40
10.33003851216835
 40
10.3772882384826
 40
10.42455592470533
 40
10.47184194646653
 40
10.51914667940862
 40
10.56647049918458
 40
10.61381378145498
 40
10.66117690188601
 40
10.70856023614708
 40
10.75596415990835
 40
10.80338904883842
 40
10.85083527860219
 40
10.89830322485822
 40
10.94579326325652
 40
10.99330576943649
 40
11.04084111902414
 40
11.08839968763025
 40
11.13598185084768
 40
11.18358798424941
 40
11.23121846338594
 40
11.27887366378327
 40
11.32655396094042
 40
11.37425973032746
 40
11.42199134738293
 40
11.46974918751179
 40
11.51753362608314
 40
11.565345038428
 40
11.61318379983702
 40
11.66105028555839
 40
11.70894487079551
 40
11.75686793070506
 40
11.80481984039441
 40
11.85280097491976
 40
11.90081170928392
 40
11.94885241843421
 40
11.99692347726004
 40
12.04502526059128
 40
12.09315814319565
 40
12.14132249977689
 40
12.1895187049727
 40
12.23774713335238
 40
12.2860081594152
 40
12.33430215758795
 40
12.38262950222312
 40
12.4309905675967
 40
12.4793857279064
 40
12.52781535726946
 40
12.57627982972069
 40
12.62477951921053
 40
12.67331479960316
 40
12.72188604467431
 40
12.77049362810964
 40
12.81913792350252
 40
12.86781930435243
 40
12.91653814406277
 40
12.96529481593918
 40
13.01408969318755
 40
13.06292314891228
 40
13.11179555611445
 40
13.1607072876899
 40
13.20965871642743
 40
13.25865021500716
 40
13.30768215599866
 40
13.35675491185909
 40
13.40586885493169
 40
13.45502435744386
 40
13.50422179150551
 40
13.5534615291074
 40
13.60274394211954
 40
13.65206940228923
 40
13.70143828123982
 40
13.75085095046873
 40
13.80030778134607
 40
13.84980914511305
 40
13.8993554128801
 40
13.94894695562575
 40
13.9985841441947
 40
14.04826734929659
 40
14.09799694150425
 40
14.14777329125248
 40
14.19759676883626
 40
14.24746774440946
 40
14.29738658798348
 40
14.34735366942565
 40
14.39736935845793
 40
14.44743402465558
 40
14.49754803744561
 40
14.54771176610555
 40
14.59792557976209
 40
14.64818984738978
 40
14.69850493780973
 40
14.74887121968833
 40
14.79928906153594
 40
14.84975883170563
 40
14.90028089839203
 40
14.95085562963017
 40
15.00148339329402
 40
15.05216455709571
 40
15.10289948858402
 40
15.15368855514339
 40
15.20453212399286
 40
15.25543056218476
 40
15.30638423660395
 40
15.35739351396639
 40
15.40845876081838
 40
15.45958034353544
 40
15.51075862832108
 40
15.56199398120617
 40
15.61328676804768
 40
15.6646373545279
 40
15.71604610615342
 40
15.76751338825422
 40
15.81903956598256
 40
15.87062500431254
 40
15.92227006803879
 40
15.97397512177594
 40
16.0257405299575
 40
16.07756665683525
 40
16.12945386647834
 40
16.18140252277261
 40
16.23341298941959
 40
16.28548562993607
 40
16.33762080765318
 40
16.38981888571565
 40
16.44208022708114
 40
16.49440519451963
 40
16.54679415061272
 40
16.59924745775299
 40
16.65176547814335
 40
16.70434857379642
 40
16.75699710653398
 40
16.80971143798623
 40
16.86249192959162
 40
16.91533894259579
 40
16.96825283805146
 40
17.02123397681772
 40
17.0742827195595
 40
17.12739942674722
 40
17.18058445865635
 40
17.23383817536665
 40
17.28716093676228
 40
17.34055310253083
 40
17.39401503216331
 40
17.4475470849535
 40
17.50114961999777
 40
17.55482299619472
 40
17.60856757224472
 40
17.66238370664972
 40
17.71627175771275
 40
17.77023208353794
 40
17.82426504202998
 40
17.87837099089393
 40
17.93255028763495
 40
17.98680328955829
 40
18.04113035376871
 40
18.09553183717055
 40
18.15000809646745
 40
18.20455948816222
 40
18.25918636855653
 40
18.31388909375103
 40
18.36866801964503
 40
18.4235235019364
 40
18.47845589612145
 40
18.53346555749507
 40
18.58855284115026
 40
18.58855284115026
 40
18.58855284115026
 40
18.58855284115026
 10
145.5344305499343
 20
26.62818073517855
 30
0.0
 10
145.5163641049081
 20
26.63146438495925
 30
0.0
 10
145.4802566718865
 20
26.63802705760186
 30
0.0
 10
145.4261239158131
 20
26.64781079486763
 30
0.0
 10
145.3720601285599
 20
26.65754158763226
 30
0.0
 10
145.3180642952252
 20
26.66721565554061
 30
0.0
 10
145.2641362801531
 20
26.6768340496206
 30
0.0
 10
145.21027571259
 20
26.68639652905722
 30
0.0
 10
145.1564822846443
 20
26.69590319845819
 30
0.0
 10
145.102755671616
 20
26.70535407006879
 30
0.0
 10
145.0490955532994
 20
26.71474918083124
 30
0.0
 10
144.9955016082868
 20
26.72408856108394
 30
0.0
 10
144.9419735154926
 20
26.7333722429312
 30
0.0
 10
144.8885109537445
 20
26.74260025800496
 30
0.0
 10
144.8351136018935
 20
26.75177263806362
 30
0.0
 10
144.7817811387847
 20
26.76088941483169
 30
0.0
 10
144.7285132432644
 20
26.76995062004272
 30
0.0
 10
144.6753095941788
 20
26.77895628542785
 30
0.0
 10
144.6221698703741
 20
26.78790644271891
 30
0.0
 10
144.5690937506966
 20
26.79680112364748
 30
0.0
 10
144.5160809139924
 20
26.80564035994521
 30
0.0
 10
144.4631310391078
 20
26.81442418334373
 30
0.0
 10
144.410243804889
 20
26.82315262557469
 30
0.0
 10
144.3574188901824
 20
26.83182571836974
 30
0.0
 10
144.3046559738341
 20
26.84044349346047
 30
0.0
 10
144.2519547346905
 20
26.8490059825785
 30
0.0
 10
144.1993148515978
 20
26.85751321745547
 30
0.0
 10
144.1467360034026
 20
26.86596522982302
 30
0.0
 10
144.0942178689508
 20
26.87436205141272
 30
0.0
 10
144.041760127089
 20
26.88270371395619
 30
0.0
 10
143.9893624566635
 20
26.89099024918507
 30
0.0
 10
143.9370245365208
 20
26.89922168883092
 30
0.0
 10
143.884746045507
 20
26.90739806462539
 30
0.0
 10
143.8325266624687
 20
26.91551940830004
 30
0.0
 10
143.7803660662523
 20
26.92358575158648
 30
0.0
 10
143.7282639357041
 20
26.93159712621632
 30
0.0
 10
143.6762199496706
 20
26.93955356392117
 30
0.0
 10
143.6242337869983
 20
26.94745509643258
 30
0.0
 10
143.5723051265335
 20
26.95530175548215
 30
0.0
 10
143.5204336471229
 20
26.9630935728015
 30
0.0
 10
143.4686190276128
 20
26.97083058012223
 30
0.0
 10
143.4168609468499
 20
26.97851280917587
 30
0.0
 10
143.3651590836804
 20
26.98614029169405
 30
0.0
 10
143.3135131169511
 20
26.99371305940835
 30
0.0
 10
143.2619227255084
 20
27.00123114405037
 30
0.0
 10
143.210387588199
 20
27.00869457735167
 30
0.0
 10
143.1589073838694
 20
27.01610339104385
 30
0.0
 10
143.107481791366
 20
27.0234576168585
 30
0.0
 10
143.0561104895357
 20
27.03075728652718
 30
0.0
 10
143.004793157225
 20
27.03800243178155
 30
0.0
 10
142.9535294732806
 20
27.04519308435312
 30
0.0
 10
142.9023191165489
 20
27.05232927597351
 30
0.0
 10
142.8511617658768
 20
27.05941103837431
 30
0.0
 10
142.800057100111
 20
27.06643840328713
 30
0.0
 10
142.7490047980979
 20
27.07341140244355
 30
0.0
 10
142.6980045386846
 20
27.08033006757517
 30
0.0
 10
142.6470560007174
 20
27.08719443041351
 30
0.0
 10
142.5961588630434
 20
27.09400452269031
 30
0.0
 10
142.5453128045091
 20
27.10076037613708
 30
0.0
 10
142.4945175039614
 20
27.10746202248544
 30
0.0
 10
142.443772640247
 20
27.11410949346699
 30
0.0
 10
142.3930778922128
 20
27.12070282081337
 30
0.0
 10
142.3424329387056
 20
27.12724203625616
 30
0.0
 10
142.291837458572
 20
27.13372717152699
 30
0.0
 10
142.2412911306591
 20
27.14015825835747
 30
0.0
 10
142.1907936338137
 20
27.14653532847925
 30
0.0
 10
142.1403446468826
 20
27.15285841362391
 30
0.0
 10
142.0899438487128
 20
27.15912754552314
 30
0.0
 10
142.0395909181511
 20
27.16534275590853
 30
0.0
 10
141.9892855340443
 20
27.17150407651173
 30
0.0
 10
141.9390273752397
 20
27.17761153906441
 30
0.0
 10
141.8888161205838
 20
27.18366517529818
 30
0.0
 10
141.8386514489239
 20
27.18966501694471
 30
0.0
 10
141.788533039107
 20
27.19561109573571
 30
0.0
 10
141.7384605699798
 20
27.20150344340276
 30
0.0
 10
141.6884337203896
 20
27.20734209167761
 30
0.0
 10
141.6384521691832
 20
27.21312707229189
 30
0.0
 10
141.5885155952077
 20
27.2188584169773
 30
0.0
 10
141.5386236773103
 20
27.22453615746554
 30
0.0
 10
141.488776094338
 20
27.2301603254883
 30
0.0
 10
141.4389725251378
 20
27.2357309527773
 30
0.0
 10
141.3892126485569
 20
27.24124807106422
 30
0.0
 10
141.3394961434424
 20
27.24671171208082
 30
0.0
 10
141.2898226886414
 20
27.25212190755881
 30
0.0
 10
141.2401919630011
 20
27.2574786892299
 30
0.0
 10
141.1906036453686
 20
27.26278208882589
 30
0.0
 10
141.1410574145911
 20
27.26803213807849
 30
0.0
 10
141.0915529495159
 20
27.27322886871949
 30
0.0
 10
141.0420899289901
 20
27.27837231248063
 30
0.0
 10
140.992668031861
 20
27.28346250109372
 30
0.0
 10
140.9432869369758
 20
27.28849946629053
 30
0.0
 10
140.8939463231816
 20
27.29348323980287
 30
0.0
 10
140.844645869326
 20
27.29841385336253
 30
0.0
 10
140.7953852542561
 20
27.30329133870134
 30
0.0
 10
140.7461641568191
 20
27.30811572755115
 30
0.0
 10
140.6969822558626
 20
27.31288705164375
 30
0.0
 10
140.6478392302338
 20
27.31760534271105
 30
0.0
 10
140.5987347587799
 20
27.32227063248487
 30
0.0
 10
140.5496685203485
 20
27.32688295269708
 30
0.0
 10
140.5006401937869
 20
27.33144233507961
 30
0.0
 10
140.4516494579423
 20
27.3359488113643
 30
0.0
 10
140.4026959916624
 20
27.34040241328307
 30
0.0
 10
140.3537794737945
 20
27.34480317256789
 30
0.0
 10
140.304899583186
 20
27.34915112095061
 30
0.0
 10
140.2560559986844
 20
27.35344629016323
 30
0.0
 10
140.2072483991371
 20
27.3576887119377
 30
0.0
 10
140.1584764633918
 20
27.36187841800597
 30
0.0
 10
140.1097398702956
 20
27.36601544010005
 30
0.0
 10
140.0610382986964
 20
27.37009980995195
 30
0.0
 10
140.0123714274415
 20
27.3741315592936
 30
0.0
 10
139.9637389353786
 20
27.37811071985714
 30
0.0
 10
139.9151405013551
 20
27.38203732337453
 30
0.0
 10
139.8665758042185
 20
27.3859114015778
 30
0.0
 10
139.8180445228167
 20
27.38973298619914
 30
0.0
 10
139.7695463359969
 20
27.39350210897049
 30
0.0
 10
139.721080922607
 20
27.39721880162406
 30
0.0
 10
139.6726479614945
 20
27.40088309589191
 30
0.0
 10
139.624247131507
 20
27.40449502350614
 30
0.0
 10
139.5758781114922
 20
27.40805461619897
 30
0.0
 10
139.5275405802978
 20
27.41156190570251
 30
0.0
 10
139.4792342167714
 20
27.41501692374894
 30
0.0
 10
139.4309586997607
 20
27.41841970207048
 30
0.0
 10
139.3827137081134
 20
27.42177027239929
 30
0.0
 10
139.3344989206771
 20
27.42506866646765
 30
0.0
 10
139.2863140162997
 20
27.4283149160078
 30
0.0
 10
139.2381586738289
 20
27.43150905275195
 30
0.0
 10
139.1900325721124
 20
27.43465110843241
 30
0.0
 10
139.1419353899979
 20
27.43774111478152
 30
0.0
 10
139.0938668063332
 20
27.4407791035315
 30
0.0
 10
139.0458264999662
 20
27.44376510641474
 30
0.0
 10
138.9978141497446
 20
27.4466991551636
 30
0.0
 10
138.9498294345161
 20
27.4495812815104
 30
0.0
 10
138.9018720331287
 20
27.4524115171876
 30
0.0
 10
138.8539416244301
 20
27.45518989392751
 30
0.0
 10
138.8060378872682
 20
27.45791644346266
 30
0.0
 10
138.7581605004907
 20
27.46059119752538
 30
0.0
 10
138.7103091429457
 20
27.46321418784823
 30
0.0
 10
138.6624834934808
 20
27.46578544616363
 30
0.0
 10
138.6146832309442
 20
27.46830500420412
 30
0.0
 10
138.5669080341834
 20
27.47077289370219
 30
0.0
 10
138.5191575820466
 20
27.47318914639043
 30
0.0
 10
138.4714315533816
 20
27.47555379400135
 30
0.0
 10
138.4237296270362
 20
27.47786686826754
 30
0.0
 10
138.3760514818585
 20
27.48012840092163
 30
0.0
 10
138.3283967966964
 20
27.48233842369624
 30
0.0
 10
138.2807652503978
 20
27.48449696832398
 30
0.0
 10
138.2331565218105
 20
27.48660406653754
 30
0.0
 10
138.1855702897827
 20
27.48865975006964
 30
0.0
 10
138.1380062331623
 20
27.4906640506529
 30
0.0
 10
138.0904640307971
 20
27.49261700002013
 30
0.0
 10
138.0429433615353
 20
27.49451862990405
 30
0.0
 10
137.9954439042248
 20
27.49636897203742
 30
0.0
 10
137.9479653377136
 20
27.49816805815306
 30
0.0
 10
137.9005073408496
 20
27.49991591998376
 30
0.0
 10
137.853069592481
 20
27.50161258926239
 30
0.0
 10
137.8056517714557
 20
27.50325809772178
 30
0.0
 10
137.7582535566217
 20
27.50485247709483
 30
0.0
 10
137.710874626827
 20
27.50639575911443
 30
0.0
 10
137.6635146609198
 20
27.50788797551353
 30
0.0
 10
137.616173337748
 20
27.50932915802507
 30
0.0
 10
137.5688503361596
 20
27.510719338382
 30
0.0
 10
137.5215453350027
 20
27.51205854831736
 30
0.0
 10
137.4742580131254
 20
27.51334681956412
 30
0.0
 10
137.4269880493757
 20
27.51458418385538
 30
0.0
 10
137.3797351226017
 20
27.51577067292415
 30
0.0
 10
137.3324989116515
 20
27.51690631850356
 30
0.0
 10
137.285279095373
 20
27.51799115232667
 30
0.0
 10
137.2380753526144
 20
27.5190252061267
 30
0.0
 10
137.1908873622238
 20
27.5200085116367
 30
0.0
 10
137.1437148030492
 20
27.52094110058995
 30
0.0
 10
137.0965573539388
 20
27.52182300471961
 30
0.0
 10
137.0494146937405
 20
27.52265425575892
 30
0.0
 10
137.0022865013026
 20
27.52343488544112
 30
0.0
 10
136.955172455473
 20
27.52416492549952
 30
0.0
 10
136.9080722350999
 20
27.52484440766737
 30
0.0
 10
136.8609855190313
 20
27.52547336367805
 30
0.0
 10
136.8139119861153
 20
27.52605182526488
 30
0.0
 10
136.7668513152002
 20
27.52657982416123
 30
0.0
 10
136.7198031851339
 20
27.52705739210052
 30
0.0
 10
136.6727672747644
 20
27.52748456081615
 30
0.0
 10
136.6257432629402
 20
27.52786136204155
 30
0.0
 10
136.5787308285084
 20
27.52818782751028
 30
0.0
 10
136.5317296503206
 20
27.52846398895562
 30
0.0
 10
136.4847394072113
 20
27.52868987811175
 30
0.0
 10
136.4377597780802
 20
27.52886552670972
 30
0.0
 10
136.3907904415823
 20
27.52899096649261
 30
0.0
 10
136.3438310772863
 20
27.52906622915828
 30
0.0
 10
136.3125194469176
 20
27.5290829804253
 30
0.0
 10
136.2968522478957
 20
27.52908299429152
 30
0.0
 10
136.2968262429174
 20
27.52908299429918
 30
0.0
 10
136.2968002379387
 20
27.52908299429152
 30
0.0
 10
136.281133038894
 20
27.52908298041415
 30
0.0
 10
136.2498214085572
 20
27.52906622916346
 30
0.0
 10
136.2028620442482
 20
27.52899096649122
 30
0.0
 10
136.1558927077538
 20
27.52886552671008
 30
0.0
 10
136.1089130786218
 20
27.52868987811166
 30
0.0
 10
136.0619228355127
 20
27.52846398895565
 30
0.0
 10
136.014921657325
 20
27.52818782751026
 30
0.0
 10
135.9679092228931
 20
27.52786136204157
 30
0.0
 10
135.9208852110689
 20
27.52748456081614
 30
0.0
 10
135.8738493006994
 20
27.52705739210051
 30
0.0
 10
135.8268011706331
 20
27.52657982416124
 30
0.0
 10
135.7797404997179
 20
27.52605182526487
 30
0.0
 10
135.7326669668021
 20
27.52547336367806
 30
0.0
 10
135.6855802507334
 20
27.52484440766736
 30
0.0
 10
135.6384800303603
 20
27.52416492549952
 30
0.0
 10
135.5913659845307
 20
27.52343488544113
 30
0.0
 10
135.5442377920927
 20
27.52265425575892
 30
0.0
 10
135.4970951318945
 20
27.52182300471961
 30
0.0
 10
135.449937682784
 20
27.52094110058995
 30
0.0
 10
135.4027651236094
 20
27.52000851163671
 30
0.0
 10
135.3555771332188
 20
27.51902520612667
 30
0.0
 10
135.3083733904603
 20
27.51799115232669
 30
0.0
 10
135.2611535741818
 20
27.51690631850355
 30
0.0
 10
135.2139173632316
 20
27.51577067292414
 30
0.0
 10
135.1666644364575
 20
27.51458418385538
 30
0.0
 10
135.1193944727079
 20
27.51334681956412
 30
0.0
 10
135.0721071508305
 20
27.51205854831737
 30
0.0
 10
135.0248021496737
 20
27.510719338382
 30
0.0
 10
134.9774791480853
 20
27.50932915802506
 30
0.0
 10
134.9301378249135
 20
27.50788797551354
 30
0.0
 10
134.8827778590063
 20
27.50639575911445
 30
0.0
 10
134.8353989292115
 20
27.50485247709482
 30
0.0
 10
134.7880007143776
 20
27.50325809772178
 30
0.0
 10
134.7405828933522
 20
27.50161258926239
 30
0.0
 10
134.6931451449836
 20
27.49991591998377
 30
0.0
 10
134.6456871481196
 20
27.49816805815305
 30
0.0
 10
134.5982085816084
 20
27.49636897203743
 30
0.0
 10
134.5507091242979
 20
27.49451862990404
 30
0.0
 10
134.5031884550361
 20
27.49261700002013
 30
0.0
 10
134.455646252671
 20
27.49066405065291
 30
0.0
 10
134.4080821960505
 20
27.48865975006962
 30
0.0
 10
134.3604959640227
 20
27.48660406653756
 30
0.0
 10
134.3128872354354
 20
27.48449696832398
 30
0.0
 10
134.2652556891368
 20
27.48233842369623
 30
0.0
 10
134.2176010039746
 20
27.48012840092164
 30
0.0
 10
134.1699228587969
 20
27.47786686826754
 30
0.0
 10
134.1222209324516
 20
27.47555379400136
 30
0.0
 10
134.0744949037865
 20
27.47318914639042
 30
0.0
 10
134.0267444516497
 20
27.47077289370219
 30
0.0
 10
133.978969254889
 20
27.46830500420413
 30
0.0
 10
133.9311689923522
 20
27.46578544616363
 30
0.0
 10
133.8833433428874
 20
27.46321418784822
 30
0.0
 10
133.8354919853423
 20
27.46059119752539
 30
0.0
 10
133.7876145985649
 20
27.45791644346265
 30
0.0
 10
133.739710861403
 20
27.45518989392752
 30
0.0
 10
133.6917804527044
 20
27.45241151718759
 30
0.0
 10
133.6438230513169
 20
27.44958128151043
 30
0.0
 10
133.5958383360885
 20
27.44669915516358
 30
0.0
 10
133.5478259858668
 20
27.44376510641475
 30
0.0
 10
133.4997856794997
 20
27.4407791035315
 30
0.0
 10
133.4517170958351
 20
27.43774111478151
 30
0.0
 10
133.4036199137206
 20
27.43465110843242
 30
0.0
 10
133.355493812004
 20
27.43150905275195
 30
0.0
 10
133.3073384695332
 20
27.42831491600779
 30
0.0
 10
133.2591535651557
 20
27.42506866646765
 30
0.0
 10
133.2109387777195
 20
27.42177027239931
 30
0.0
 10
133.1626937860722
 20
27.41841970207047
 30
0.0
 10
133.1144182690614
 20
27.41501692374894
 30
0.0
 10
133.066111905535
 20
27.41156190570251
 30
0.0
 10
133.0177743743405
 20
27.40805461619896
 30
0.0
 10
132.9694053543257
 20
27.40449502350615
 30
0.0
 10
132.9210045243382
 20
27.40088309589188
 30
0.0
 10
132.8725715632257
 20
27.39721880162405
 30
0.0
 10
132.8241061498357
 20
27.39350210897049
 30
0.0
 10
132.775607963016
 20
27.38973298619914
 30
0.0
 10
132.7270766816141
 20
27.38591140157781
 30
0.0
 10
132.6785119844775
 20
27.38203732337452
 30
0.0
 10
132.6299135504539
 20
27.37811071985713
 30
0.0
 10
132.5812810583909
 20
27.37413155929362
 30
0.0
 10
132.5326141871361
 20
27.37009980995194
 30
0.0
 10
132.4839126155367
 20
27.36601544010005
 30
0.0
 10
132.4351760224407
 20
27.36187841800599
 30
0.0
 10
132.3864040866952
 20
27.35768871193769
 30
0.0
 10
132.3375964871479
 20
27.35344629016323
 30
0.0
 10
132.2887529026463
 20
27.34915112095061
 30
0.0
 10
132.2398730120378
 20
27.34480317256787
 30
0.0
 10
132.1909564941698
 20
27.34040241328308
 30
0.0
 10
132.1420030278898
 20
27.3359488113643
 30
0.0
 10
132.0930122920453
 20
27.3314423350796
 30
0.0
 10
132.0439839654836
 20
27.3268829526971
 30
0.0
 10
131.9949177270521
 20
27.32227063248488
 30
0.0
 10
131.9458132555982
 20
27.31760534271104
 30
0.0
 10
131.8966702299693
 20
27.31288705164377
 30
0.0
 10
131.8474883290127
 20
27.30811572755114
 30
0.0
 10
131.7982672315758
 20
27.30329133870134
 30
0.0
 10
131.7490066165059
 20
27.29841385336254
 30
0.0
 10
131.6997061626501
 20
27.29348323980285
 30
0.0
 10
131.650365548856
 20
27.28849946629053
 30
0.0
 10
131.6009844539707
 20
27.28346250109372
 30
0.0
 10
131.5515625568415
 20
27.27837231248063
 30
0.0
 10
131.5020995363157
 20
27.27322886871948
 30
0.0
 10
131.4525950712404
 20
27.2680321380785
 30
0.0
 10
131.4030488404629
 20
27.26278208882589
 30
0.0
 10
131.3534605228303
 20
27.25747868922989
 30
0.0
 10
131.3038297971899
 20
27.25212190755878
 30
0.0
 10
131.2541563423889
 20
27.24671171208082
 30
0.0
 10
131.2044398372744
 20
27.24124807106423
 30
0.0
 10
131.1546799606934
 20
27.2357309527773
 30
0.0
 10
131.1048763914931
 20
27.2301603254883
 30
0.0
 10
131.0550288085207
 20
27.22453615746554
 30
0.0
 10
131.0051368906232
 20
27.2188584169773
 30
0.0
 10
130.9552003166478
 20
27.21312707229189
 30
0.0
 10
130.9052187654413
 20
27.20734209167761
 30
0.0
 10
130.855191915851
 20
27.20150344340277
 30
0.0
 10
130.8051194467238
 20
27.1956110957357
 30
0.0
 10
130.7550010369067
 20
27.18966501694473
 30
0.0
 10
130.7048363652467
 20
27.18366517529817
 30
0.0
 10
130.6546251105909
 20
27.1776115390644
 30
0.0
 10
130.6043669517861
 20
27.17150407651174
 30
0.0
 10
130.5540615676793
 20
27.16534275590853
 30
0.0
 10
130.5037086371176
 20
27.15912754552314
 30
0.0
 10
130.4533078389476
 20
27.15285841362391
 30
0.0
 10
130.4028588520164
 20
27.14653532847924
 30
0.0
 10
130.3523613551709
 20
27.14015825835747
 30
0.0
 10
130.3018150272579
 20
27.13372717152699
 30
0.0
 10
130.2512195471244
 20
27.12724203625617
 30
0.0
 10
130.200574593617
 20
27.12070282081335
 30
0.0
 10
130.1498798455827
 20
27.11410949346701
 30
0.0
 10
130.0991349818682
 20
27.10746202248543
 30
0.0
 10
130.0483396813205
 20
27.10076037613707
 30
0.0
 10
129.9974936227862
 20
27.09400452269031
 30
0.0
 10
129.9465964851121
 20
27.08719443041355
 30
0.0
 10
129.8956479471448
 20
27.08033006757515
 30
0.0
 10
129.8446476877313
 20
27.07341140244354
 30
0.0
 10
129.7935953857182
 20
27.06643840328714
 30
0.0
 10
129.7424907199522
 20
27.05941103837431
 30
0.0
 10
129.69133336928
 20
27.05232927597352
 30
0.0
 10
129.6401230125483
 20
27.04519308435313
 30
0.0
 10
129.5888593286037
 20
27.03800243178153
 30
0.0
 10
129.5375419962928
 20
27.03075728652719
 30
0.0
 10
129.4861706944625
 20
27.02345761685849
 30
0.0
 10
129.4347451019591
 20
27.01610339104384
 30
0.0
 10
129.3832648976293
 20
27.00869457735166
 30
0.0
 10
129.3317297603198
 20
27.00123114405037
 30
0.0
 10
129.280139368877
 20
26.99371305940835
 30
0.0
 10
129.2284934021476
 20
26.98614029169407
 30
0.0
 10
129.176791538978
 20
26.97851280917586
 30
0.0
 10
129.1250334582149
 20
26.97083058012222
 30
0.0
 10
129.0732188387048
 20
26.96309357280151
 30
0.0
 10
129.021347359294
 20
26.95530175548216
 30
0.0
 10
128.9694186988291
 20
26.94745509643258
 30
0.0
 10
128.9174325361567
 20
26.93955356392116
 30
0.0
 10
128.8653885501231
 20
26.93159712621633
 30
0.0
 10
128.8132864195748
 20
26.92358575158648
 30
0.0
 10
128.7611258233582
 20
26.91551940830004
 30
0.0
 10
128.7089064403198
 20
26.90739806462538
 30
0.0
 10
128.6566279493059
 20
26.89922168883094
 30
0.0
 10
128.604290029163
 20
26.89099024918506
 30
0.0
 10
128.5518923587374
 20
26.88270371395619
 30
0.0
 10
128.4994346168755
 20
26.87436205141272
 30
0.0
 10
128.4469164824237
 20
26.86596522982301
 30
0.0
 10
128.3943376342282
 20
26.85751321745548
 30
0.0
 10
128.3416977511355
 20
26.84900598257851
 30
0.0
 10
128.2889965119917
 20
26.84044349346046
 30
0.0
 10
128.2362335956433
 20
26.83182571836973
 30
0.0
 10
128.1834086809364
 20
26.8231526255747
 30
0.0
 10
128.1305214467176
 20
26.81442418334372
 30
0.0
 10
128.0775715718328
 20
26.80564035994521
 30
0.0
 10
128.0245587351284
 20
26.79680112364747
 30
0.0
 10
127.9714826154507
 20
26.78790644271891
 30
0.0
 10
127.9183428916459
 20
26.77895628542786
 30
0.0
 10
127.8651392425602
 20
26.76995062004271
 30
0.0
 10
127.8118713470398
 20
26.76088941483169
 30
0.0
 10
127.7585388839308
 20
26.75177263806363
 30
0.0
 10
127.7051415320797
 20
26.74260025800497
 30
0.0
 10
127.6516789703314
 20
26.73337224293118
 30
0.0
 10
127.5981508775369
 20
26.72408856108396
 30
0.0
 10
127.5445569325243
 20
26.71474918083123
 30
0.0
 10
127.4908968142075
 20
26.70535407006879
 30
0.0
 10
127.437170201179
 20
26.69590319845818
 30
0.0
 10
127.3833767732332
 20
26.68639652905723
 30
0.0
 10
127.3295162056699
 20
26.6768340496206
 30
0.0
 10
127.2755881905977
 20
26.66721565554061
 30
0.0
 10
127.2215923572628
 20
26.65754158763224
 30
0.0
 10
127.1675285700094
 20
26.64781079486764
 30
0.0
 10
127.1133958139358
 20
26.63802705760187
 30
0.0
 10
127.0772883809141
 20
26.63146438495925
 30
0.0
 10
127.0592219358878
 20
26.62818073517855
 30
0.0
 11
145.5344305499343
 21
26.62818073517855
 31
0.0
 11
145.4802295988399
 21
26.63802277363337
 31
0.0
 11
145.4260973904876
 21
26.64780882816654
 31
0.0
 11
145.3720336037238
 21
26.65753893051158
 31
0.0
 11
145.3180379173948
 21
26.66721311240202
 31
0.0
 11
145.2641100103466
 21
26.67683140557135
 31
0.0
 11
145.2102495614257
 21
26.68639384175312
 31
0.0
 11
145.1564562494784
 21
26.69590045268082
 31
0.0
 11
145.1027297533508
 21
26.70535127008799
 31
0.0
 11
145.0490697518891
 21
26.71474632570815
 31
0.0
 11
144.9954759239398
 21
26.7240856512748
 31
0.0
 11
144.941947948349
 21
26.73336927852148
 31
0.0
 11
144.8884855039629
 21
26.74259723918169
 31
0.0
 11
144.835088269628
 21
26.75176956498897
 31
0.0
 11
144.7817559241903
 21
26.76088628767683
 31
0.0
 11
144.7284881464962
 21
26.76994743897877
 31
0.0
 11
144.6752846153919
 21
26.77895305062833
 31
0.0
 11
144.6221450097238
 21
26.78790315435903
 31
0.0
 11
144.5690690083379
 21
26.79679778190438
 31
0.0
 11
144.5160562900807
 21
26.8056369649979
 31
0.0
 11
144.4631065337984
 21
26.81442073537311
 31
0.0
 11
144.4102194183372
 21
26.82314912476353
 31
0.0
 11
144.3573946225434
 21
26.83182216490268
 31
0.0
 11
144.3046318252631
 21
26.84043988752408
 31
0.0
 11
144.2519307053429
 21
26.84900232436124
 31
0.0
 11
144.1992909416287
 21
26.85750950714769
 31
0.0
 11
144.1467122129671
 21
26.86596146761694
 31
0.0
 11
144.0941941982041
 21
26.87435823750251
 31
0.0
 11
144.041736576186
 21
26.88269984853792
 31
0.0
 11
143.9893390257592
 21
26.8909863324567
 31
0.0
 11
143.9370012257698
 21
26.89921772099235
 31
0.0
 11
143.8847228550641
 21
26.90739404587841
 31
0.0
 11
143.8325035924885
 21
26.91551533884838
 31
0.0
 11
143.780343116889
 21
26.92358163163578
 31
0.0
 11
143.7282411071121
 21
26.93159295597414
 31
0.0
 11
143.676197242004
 21
26.93954934359698
 31
0.0
 11
143.6242112004108
 21
26.94745082623781
 31
0.0
 11
143.5722826611789
 21
26.95529743563014
 31
0.0
 11
143.5204113031546
 21
26.96308920350751
 31
0.0
 11
143.4685968051841
 21
26.97082616160343
 31
0.0
 11
143.4168388461136
 21
26.97850834165142
 31
0.0
 11
143.3651371047895
 21
26.98613577538499
 31
0.0
 11
143.313491260058
 21
26.99370849453767
 31
0.0
 11
143.2619009907653
 21
27.00122653084298
 31
0.0
 11
143.2103659757577
 21
27.00868991603443
 31
0.0
 11
143.1588858938814
 21
27.01609868184554
 31
0.0
 11
143.1074604239828
 21
27.02345286000983
 31
0.0
 11
143.056089244908
 21
27.03075248226082
 31
0.0
 11
143.0047720355035
 21
27.03799758033204
 31
0.0
 11
142.9535084746152
 21
27.04518818595699
 31
0.0
 11
142.9022982410897
 21
27.05232433086919
 31
0.0
 11
142.8511410137731
 21
27.05940604680217
 31
0.0
 11
142.8000364715116
 21
27.06643336548946
 31
0.0
 11
142.7489842931516
 21
27.07340631866455
 31
0.0
 11
142.6979841575393
 21
27.08032493806098
 31
0.0
 11
142.6470357435209
 21
27.08718925541225
 31
0.0
 11
142.5961387299427
 21
27.0939993024519
 31
0.0
 11
142.5452927956511
 21
27.10075511091343
 31
0.0
 11
142.4944976194921
 21
27.10745671253038
 31
0.0
 11
142.4437528803122
 21
27.11410413903625
 31
0.0
 11
142.3930582569575
 21
27.12069742216457
 31
0.0
 11
142.3424134282743
 21
27.12723659364885
 31
0.0
 11
142.2918180731089
 21
27.13372168522262
 31
0.0
 11
142.2412718703076
 21
27.14015272861938
 31
0.0
 11
142.1907744987165
 21
27.14652975557268
 31
0.0
 11
142.140325637182
 21
27.152852797816
 31
0.0
 11
142.0899249645503
 21
27.15912188708289
 31
0.0
 11
142.0395721596676
 21
27.16533705510686
 31
0.0
 11
141.9892669013803
 21
27.17149833362142
 31
0.0
 11
141.9390088685346
 21
27.17760575436011
 31
0.0
 11
141.8887977399768
 21
27.18365934905642
 31
0.0
 11
141.838633194553
 21
27.18965914944389
 31
0.0
 11
141.7885149111097
 21
27.19560518725604
 31
0.0
 11
141.7384425684929
 21
27.20149749422636
 31
0.0
 11
141.6884158455491
 21
27.20733610208841
 31
0.0
 11
141.6384344211244
 21
27.21312104257568
 31
0.0
 11
141.5884979740651
 21
27.2188523474217
 31
0.0
 11
141.5386061832174
 21
27.22453004835999
 31
0.0
 11
141.4887587274278
 21
27.23015417712406
 31
0.0
 11
141.4389552855423
 21
27.23572476544744
 31
0.0
 11
141.3891955364072
 21
27.24124184506364
 31
0.0
 11
141.3394791588689
 21
27.24670544770619
 31
0.0
 11
141.2898058317735
 21
27.2521156051086
 31
0.0
 11
141.2401752339673
 21
27.25747234900438
 31
0.0
 11
141.1905870442967
 21
27.26277571112707
 31
0.0
 11
141.1410409416077
 21
27.26802572321017
 31
0.0
 11
141.0915366047468
 21
27.27322241698722
 31
0.0
 11
141.0420737125602
 21
27.27836582419171
 31
0.0
 11
140.9926519438941
 21
27.28345597655718
 31
0.0
 11
140.9432709775947
 21
27.28849290581715
 31
0.0
 11
140.8939304925084
 21
27.29347664370513
 31
0.0
 11
140.8446301674814
 21
27.29840722195463
 31
0.0
 11
140.79536968136
 21
27.30328467229919
 31
0.0
 11
140.7461487129904
 21
27.30810902647232
 31
0.0
 11
140.6969669412189
 21
27.31288031620754
 31
0.0
 11
140.6478240448917
 21
27.31759857323836
 31
0.0
 11
140.5987197028552
 21
27.32226382929831
 31
0.0
 11
140.5496535939554
 21
27.3268761161209
 31
0.0
 11
140.5006253970389
 21
27.33143546543966
 31
0.0
 11
140.4516347909517
 21
27.3359419089881
 31
0.0
 11
140.4026814545401
 21
27.34039547849974
 31
0.0
 11
140.3537650666505
 21
27.34479620570811
 31
0.0
 11
140.304885306129
 21
27.34914412234671
 31
0.0
 11
140.2560418518219
 21
27.35343926014907
 31
0.0
 11
140.2072343825755
 21
27.3576816508487
 31
0.0
 11
140.158462577236
 21
27.36187132617913
 31
0.0
 11
140.1097261146498
 21
27.36600831787388
 31
0.0
 11
140.061024673663
 21
27.37009265766646
 31
0.0
 11
140.0123579331219
 21
27.37412437729039
 31
0.0
 11
139.9637255718729
 21
27.37810350847921
 31
0.0
 11
139.915127268762
 21
27.3820300829664
 31
0.0
 11
139.8665627026356
 21
27.3859041324855
 31
0.0
 11
139.81803155234
 21
27.38972568877004
 31
0.0
 11
139.7695334967214
 21
27.39349478355351
 31
0.0
 11
139.7210682146261
 21
27.39721144856946
 31
0.0
 11
139.6726353849004
 21
27.40087571555139
 31
0.0
 11
139.6242346863904
 21
27.40448761623282
 31
0.0
 11
139.5758657979425
 21
27.40804718234727
 31
0.0
 11
139.5275283984029
 21
27.41155444562827
 31
0.0
 11
139.4792221666178
 21
27.41500943780933
 31
0.0
 11
139.4309467814336
 21
27.41841219062397
 31
0.0
 11
139.3827019216965
 21
27.4217627358057
 31
0.0
 11
139.3344872662528
 21
27.42506110508805
 31
0.0
 11
139.2863024939487
 21
27.42830733020454
 31
0.0
 11
139.2381472836304
 21
27.43150144288868
 31
0.0
 11
139.1900213141442
 21
27.43464347487399
 31
0.0
 11
139.1419242643366
 21
27.43773345789401
 31
0.0
 11
139.0938558130535
 21
27.44077142368222
 31
0.0
 11
139.0458156391413
 21
27.44375740397217
 31
0.0
 11
138.9978034214463
 21
27.44669143049737
 31
0.0
 11
138.9498188388147
 21
27.44957353499133
 31
0.0
 11
138.9018615700929
 21
27.45240374918759
 31
0.0
 11
138.853931294127
 21
27.45518210481964
 31
0.0
 11
138.8060276897633
 21
27.45790863362103
 31
0.0
 11
138.758150435848
 21
27.46058336732526
 31
0.0
 11
138.7102992112275
 21
27.46320633766585
 31
0.0
 11
138.662473694748
 21
27.46577757637631
 31
0.0
 11
138.6146735652557
 21
27.46829711519018
 31
0.0
 11
138.5668985015969
 21
27.47076498584097
 31
0.0
 11
138.519148182618
 21
27.47318122006221
 31
0.0
 11
138.471422287165
 21
27.47554584958739
 31
0.0
 11
138.4237204940843
 21
27.47785890615005
 31
0.0
 11
138.3760424822222
 21
27.4801204214837
 31
0.0
 11
138.3283879304249
 21
27.48233042732188
 31
0.0
 11
138.2807565175386
 21
27.48448895539807
 31
0.0
 11
138.2331479224097
 21
27.48659603744583
 31
0.0
 11
138.1855618238844
 21
27.48865170519866
 31
0.0
 11
138.1379979008089
 21
27.49065599039006
 31
0.0
 11
138.0904558320295
 21
27.49260892475358
 31
0.0
 11
138.0429352963925
 21
27.49451054002273
 31
0.0
 11
137.9954359727441
 21
27.49636086793102
 31
0.0
 11
137.9479575399305
 21
27.49815994021198
 31
0.0
 11
137.9004996767982
 21
27.49990778859912
 31
0.0
 11
137.8530620621932
 21
27.50160444482596
 31
0.0
 11
137.8056443749619
 21
27.50324994062603
 31
0.0
 11
137.7582462939506
 21
27.50484430773283
 31
0.0
 11
137.7108674980054
 21
27.50638757787989
 31
0.0
 11
137.6635076659726
 21
27.50787978280074
 31
0.0
 11
137.6161664766986
 21
27.50932095422888
 31
0.0
 11
137.5688436090295
 21
27.51071112389782
 31
0.0
 11
137.5215387418116
 21
27.51205032354112
 31
0.0
 11
137.4742515538912
 21
27.51333858489225
 31
0.0
 11
137.4269817241146
 21
27.51457593968478
 31
0.0
 11
137.379728931328
 21
27.51576241965218
 31
0.0
 11
137.3324928543776
 21
27.516898056528
 31
0.0
 11
137.2852731721097
 21
27.51798288204574
 31
0.0
 11
137.2380695633707
 21
27.51901692793894
 31
0.0
 11
137.1908817070066
 21
27.52000022594109
 31
0.0
 11
137.1437092818639
 21
27.52093280778573
 31
0.0
 11
137.0965519667887
 21
27.52181470520638
 31
0.0
 11
137.0494094406274
 21
27.52264594993656
 31
0.0
 11
137.002281382226
 21
27.52342657370977
 31
0.0
 11
136.9551674704311
 21
27.52415660825955
 31
0.0
 11
136.9080673840887
 21
27.52483608531941
 31
0.0
 11
136.8609808020452
 21
27.52546503662286
 31
0.0
 11
136.8139074031469
 21
27.52604349390344
 31
0.0
 11
136.7668468662398
 21
27.52657148889465
 31
0.0
 11
136.7197988701705
 21
27.52704905333002
 31
0.0
 11
136.6727630937851
 21
27.52747621894306
 31
0.0
 11
136.6257392159297
 21
27.52785301746729
 31
0.0
 11
136.5787269154508
 21
27.52817948063623
 31
0.0
 11
136.5317258711946
 21
27.52845564018342
 31
0.0
 11
136.4847357620073
 21
27.52868152784234
 31
0.0
 11
136.4377562667352
 21
27.52885717534654
 31
0.0
 11
136.3907870642246
 21
27.52898261442953
 31
0.0
 11
136.3438278333216
 21
27.52905787682481
 31
0.0
 11
136.2968782528727
 21
27.52908299426593
 31
0.0
 11
136.2968522478967
 21
27.52908299428896
 31
0.0
 11
136.2968262429178
 21
27.52908299429663
 31
0.0
 11
136.2968002379378
 21
27.52908299428896
 31
0.0
 11
136.2967742329606
 21
27.52908299426593
 31
0.0
 11
136.2498246525116
 21
27.52905787682481
 31
0.0
 11
136.2028654216087
 21
27.52898261442952
 31
0.0
 11
136.1558962190981
 21
27.52885717534653
 31
0.0
 11
136.108916723826
 21
27.52868152784234
 31
0.0
 11
136.0619266146387
 21
27.52845564018342
 31
0.0
 11
136.0149255703825
 21
27.52817948063623
 31
0.0
 11
135.9679132699036
 21
27.52785301746729
 31
0.0
 11
135.9208893920483
 21
27.52747621894305
 31
0.0
 11
135.8738536156628
 21
27.52704905333001
 31
0.0
 11
135.8268056195934
 21
27.52657148889465
 31
0.0
 11
135.7797450826864
 21
27.52604349390344
 31
0.0
 11
135.732671683788
 21
27.52546503662286
 31
0.0
 11
135.6855851017446
 21
27.5248360853194
 31
0.0
 11
135.6384850154022
 21
27.52415660825955
 31
0.0
 11
135.5913711036073
 21
27.52342657370978
 31
0.0
 11
135.544243045206
 21
27.52264594993656
 31
0.0
 11
135.4971005190446
 21
27.52181470520638
 31
0.0
 11
135.4499432039694
 21
27.52093280778573
 31
0.0
 11
135.4027707788267
 21
27.52000022594109
 31
0.0
 11
135.3555829224626
 21
27.51901692793893
 31
0.0
 11
135.3083793137236
 21
27.51798288204574
 31
0.0
 11
135.2611596314557
 21
27.516898056528
 31
0.0
 11
135.2139235545054
 21
27.51576241965218
 31
0.0
 11
135.1666707617187
 21
27.51457593968478
 31
0.0
 11
135.119400931942
 21
27.51333858489226
 31
0.0
 11
135.0721137440217
 21
27.51205032354112
 31
0.0
 11
135.0248088768038
 21
27.51071112389783
 31
0.0
 11
134.9774860091347
 21
27.50932095422888
 31
0.0
 11
134.9301448198607
 21
27.50787978280074
 31
0.0
 11
134.8827849878279
 21
27.5063875778799
 31
0.0
 11
134.8354061918827
 21
27.50484430773283
 31
0.0
 11
134.7880081108713
 21
27.50324994062603
 31
0.0
 11
134.74059042364
 21
27.50160444482596
 31
0.0
 11
134.693152809035
 21
27.49990778859912
 31
0.0
 11
134.6456949459027
 21
27.49815994021198
 31
0.0
 11
134.5982165130891
 21
27.49636086793102
 31
0.0
 11
134.5507171894408
 21
27.49451054002273
 31
0.0
 11
134.5031966538037
 21
27.49260892475358
 31
0.0
 11
134.4556545850244
 21
27.49065599039007
 31
0.0
 11
134.4080906619488
 21
27.48865170519865
 31
0.0
 11
134.3605045634235
 21
27.48659603744583
 31
0.0
 11
134.3128959682945
 21
27.48448895539808
 31
0.0
 11
134.2652645554083
 21
27.48233042732187
 31
0.0
 11
134.217610003611
 21
27.4801204214837
 31
0.0
 11
134.1699319917488
 21
27.47785890615005
 31
0.0
 11
134.1222301986681
 21
27.47554584958739
 31
0.0
 11
134.0745043032152
 21
27.47318122006221
 31
0.0
 11
134.0267539842362
 21
27.47076498584098
 31
0.0
 11
133.9789789205774
 21
27.46829711519019
 31
0.0
 11
133.9311787910851
 21
27.46577757637631
 31
0.0
 11
133.8833532746056
 21
27.46320633766585
 31
0.0
 11
133.8355020499851
 21
27.46058336732526
 31
0.0
 11
133.7876247960698
 21
27.45790863362103
 31
0.0
 11
133.7397211917061
 21
27.45518210481965
 31
0.0
 11
133.6917909157402
 21
27.45240374918759
 31
0.0
 11
133.6438336470183
 21
27.44957353499133
 31
0.0
 11
133.5958490643867
 21
27.44669143049736
 31
0.0
 11
133.5478368466917
 21
27.44375740397217
 31
0.0
 11
133.4997966727795
 21
27.44077142368222
 31
0.0
 11
133.4517282214964
 21
27.43773345789401
 31
0.0
 11
133.4036311716886
 21
27.43464347487399
 31
0.0
 11
133.3555052022025
 21
27.43150144288868
 31
0.0
 11
133.3073499918843
 21
27.42830733020453
 31
0.0
 11
133.2591652195801
 21
27.42506110508805
 31
0.0
 11
133.2109505641363
 21
27.4217627358057
 31
0.0
 11
133.1627057043992
 21
27.41841219062397
 31
0.0
 11
133.114430319215
 21
27.41500943780933
 31
0.0
 11
133.0661240874299
 21
27.41155444562827
 31
0.0
 11
133.0177866878903
 21
27.40804718234727
 31
0.0
 11
132.9694177994424
 21
27.40448761623282
 31
0.0
 11
132.9210171009323
 21
27.40087571555139
 31
0.0
 11
132.8725842712066
 21
27.39721144856945
 31
0.0
 11
132.8241189891112
 21
27.39349478355351
 31
0.0
 11
132.7756209334926
 21
27.38972568877004
 31
0.0
 11
132.727089783197
 21
27.3859041324855
 31
0.0
 11
132.6785252170706
 21
27.3820300829664
 31
0.0
 11
132.6299269139597
 21
27.3781035084792
 31
0.0
 11
132.5812945527105
 21
27.3741243772904
 31
0.0
 11
132.5326278121695
 21
27.37009265766646
 31
0.0
 11
132.4839263711826
 21
27.36600831787388
 31
0.0
 11
132.4351899085963
 21
27.36187132617914
 31
0.0
 11
132.3864181032569
 21
27.3576816508487
 31
0.0
 11
132.3376106340104
 21
27.35343926014907
 31
0.0
 11
132.2887671797033
 21
27.34914412234671
 31
0.0
 11
132.2398874191818
 21
27.34479620570811
 31
0.0
 11
132.1909710312921
 21
27.34039547849974
 31
0.0
 11
132.1420176948805
 21
27.3359419089881
 31
0.0
 11
132.0930270887932
 21
27.33143546543966
 31
0.0
 11
132.0439988918766
 21
27.32687611612091
 31
0.0
 11
131.9949327829769
 21
27.32226382929831
 31
0.0
 11
131.9458284409403
 21
27.31759857323836
 31
0.0
 11
131.896685544613
 21
27.31288031620754
 31
0.0
 11
131.8475037728415
 21
27.30810902647232
 31
0.0
 11
131.7982828044719
 21
27.30328467229919
 31
0.0
 11
131.7490223183504
 21
27.29840722195464
 31
0.0
 11
131.6997219933234
 21
27.29347664370512
 31
0.0
 11
131.650381508237
 21
27.28849290581714
 31
0.0
 11
131.6010005419376
 21
27.28345597655718
 31
0.0
 11
131.5515787732714
 21
27.27836582419171
 31
0.0
 11
131.5021158810848
 21
27.27322241698722
 31
0.0
 11
131.4526115442238
 21
27.26802572321017
 31
0.0
 11
131.4030654415348
 21
27.26277571112707
 31
0.0
 11
131.3534772518641
 21
27.25747234900437
 31
0.0
 11
131.3038466540579
 21
27.25211560510859
 31
0.0
 11
131.2541733269624
 21
27.24670544770619
 31
0.0
 11
131.2044569494241
 21
27.24124184506365
 31
0.0
 11
131.154697200289
 21
27.23572476544745
 31
0.0
 11
131.1048937584034
 21
27.23015417712406
 31
0.0
 11
131.0550463026136
 21
27.22453004835999
 31
0.0
 11
131.0051545117659
 21
27.2188523474217
 31
0.0
 11
130.9552180647066
 21
27.21312104257568
 31
0.0
 11
130.9052366402818
 21
27.20733610208841
 31
0.0
 11
130.8552099173379
 21
27.20149749422637
 31
0.0
 11
130.8051375747211
 21
27.19560518725603
 31
0.0
 11
130.7550192912776
 21
27.18965914944389
 31
0.0
 11
130.7048547458538
 21
27.18365934905642
 31
0.0
 11
130.6546436172959
 21
27.1776057543601
 31
0.0
 11
130.6043855844501
 21
27.17149833362143
 31
0.0
 11
130.5540803261628
 21
27.16533705510686
 31
0.0
 11
130.50372752128
 21
27.15912188708289
 31
0.0
 11
130.4533268486483
 21
27.152852797816
 31
0.0
 11
130.4028779871136
 21
27.14652975557267
 31
0.0
 11
130.3523806155225
 21
27.14015272861938
 31
0.0
 11
130.3018344127211
 21
27.13372168522262
 31
0.0
 11
130.2512390575556
 21
27.12723659364885
 31
0.0
 11
130.2005942288724
 21
27.12069742216457
 31
0.0
 11
130.1498996055176
 21
27.11410413903625
 31
0.0
 11
130.0991548663375
 21
27.10745671253037
 31
0.0
 11
130.0483596901785
 21
27.10075511091343
 31
0.0
 11
129.9975137558868
 21
27.0939993024519
 31
0.0
 11
129.9466167423085
 21
27.08718925541226
 31
0.0
 11
129.8956683282901
 21
27.08032493806098
 31
0.0
 11
129.8446681926776
 21
27.07340631866455
 31
0.0
 11
129.7936160143175
 21
27.06643336548946
 31
0.0
 11
129.742511472056
 21
27.05940604680217
 31
0.0
 11
129.6913542447393
 21
27.0523243308692
 31
0.0
 11
129.6401440112136
 21
27.04518818595699
 31
0.0
 11
129.5888804503253
 21
27.03799758033204
 31
0.0
 11
129.5375632409206
 21
27.03075248226082
 31
0.0
 11
129.4861920618457
 21
27.02345286000983
 31
0.0
 11
129.434766591947
 21
27.01609868184553
 31
0.0
 11
129.3832865100707
 21
27.00868991603443
 31
0.0
 11
129.331751495063
 21
27.00122653084298
 31
0.0
 11
129.2801612257701
 21
26.99370849453768
 31
0.0
 11
129.2285153810384
 21
26.98613577538499
 31
0.0
 11
129.1768136397142
 21
26.97850834165141
 31
0.0
 11
129.1250556806436
 21
26.97082616160343
 31
0.0
 11
129.073241182673
 21
26.96308920350751
 31
0.0
 11
129.0213698246486
 21
26.95529743563015
 31
0.0
 11
128.9694412854167
 21
26.94745082623781
 31
0.0
 11
128.9174552438234
 21
26.93954934359698
 31
0.0
 11
128.8654113787151
 21
26.93159295597414
 31
0.0
 11
128.8133093689381
 21
26.92358163163578
 31
0.0
 11
128.7611488933385
 21
26.91551533884837
 31
0.0
 11
128.7089296307627
 21
26.90739404587841
 31
0.0
 11
128.6566512600569
 21
26.89921772099236
 31
0.0
 11
128.6043134600674
 21
26.89098633245669
 31
0.0
 11
128.5519159096404
 21
26.88269984853792
 31
0.0
 11
128.4994582876222
 21
26.87435823750251
 31
0.0
 11
128.4469402728591
 21
26.86596146761693
 31
0.0
 11
128.3943615441973
 21
26.85750950714769
 31
0.0
 11
128.3417217804831
 21
26.84900232436124
 31
0.0
 11
128.2890206605626
 21
26.84043988752408
 31
0.0
 11
128.2362578632823
 21
26.83182216490268
 31
0.0
 11
128.1834330674883
 21
26.82314912476353
 31
0.0
 11
128.1305459520269
 21
26.8144207353731
 31
0.0
 11
128.0775961957445
 21
26.8056369649979
 31
0.0
 11
128.0245834774871
 21
26.79679778190438
 31
0.0
 11
127.9715074761011
 21
26.78790315435903
 31
0.0
 11
127.9183678704328
 21
26.77895305062833
 31
0.0
 11
127.8651643393284
 21
26.76994743897877
 31
0.0
 11
127.8118965616341
 21
26.76088628767683
 31
0.0
 11
127.7585642161963
 21
26.75176956498897
 31
0.0
 11
127.7051669818612
 21
26.7425972391817
 31
0.0
 11
127.651704537475
 21
26.73336927852148
 31
0.0
 11
127.598176561884
 21
26.7240856512748
 31
0.0
 11
127.5445827339345
 21
26.71474632570815
 31
0.0
 11
127.4909227324728
 21
26.705351270088
 31
0.0
 11
127.4371962363449
 21
26.69590045268082
 31
0.0
 11
127.3834029243974
 21
26.68639384175312
 31
0.0
 11
127.3295424754764
 21
26.67683140557136
 31
0.0
 11
127.2756145684281
 21
26.66721311240202
 31
0.0
 11
127.2216188820988
 21
26.65753893051158
 31
0.0
 11
127.1675550953349
 21
26.64780882816655
 31
0.0
 11
127.1134228869824
 21
26.63802277363337
 31
0.0
 11
127.0592219358878
 21
26.62818073517855
 31
0.0
  0
SPLINE
  5
25F
330
1F
100
AcDbEntity
  8
0
  6
Continuous
 62
     3
100
AcDbSpline
210
0.0
220
0.0
230
1.0
 70
     8
 71
     3
 72
    11
 73
     7
 74
     5
 42
0.0000000001
 43
0.0000000001
 44
0.00000001
 40
0.0
 40
0.0
 40
0.0
 40
0.0
 40
2.489103704937796
 40
4.724775522339927
 40
6.660013384565204
 40
8.766739426416013
 40
8.766739426416013
 40
8.766739426416013
 40
8.766739426416013
 10
145.5344305499505
 20
26.62818073517855
 30
0.0
 10
146.3253014630582
 20
26.88588604356783
 30
0.0
 10
147.8265195618336
 20
27.37505800158601
 30
0.0
 10
150.0533977206396
 20
27.59157949154633
 30
0.0
 10
152.1510114130675
 20
27.4171123001225
 30
0.0
 10
153.4488531058608
 20
27.04482051618947
 30
0.0
 10
154.1253056812167
 20
26.85077702273128
 30
0.0
 11
145.5344305499505
 21
26.62818073517855
 31
0.0
 11
147.9288532396883
 21
27.3081639973284
 31
0.0
 11
150.1535831725956
 21
27.52908298870847
 31
0.0
 11
152.0816196029526
 21
27.36228638620557
 31
0.0
 11
154.1253056812167
 21
26.85077702273128
 31
0.0
  0
SPLINE
  5
260
330
1F
100
AcDbEntity
  8
0
  6
Continuous
 62
     3
100
AcDbSpline
210
0.0
220
0.0
230
1.0
 70
     8
 71
     3
 72
    11
 73
     7
 74
     5
 42
0.0000000001
 43
0.0000000001
 44
0.00000001
 40
0.0
 40
0.0
 40
0.0
 40
0.0
 40
2.626098598416769
 40
4.877913597028862
 40
6.889828717779633
 40
9.178503310652045
 40
9.178503310652045
 40
9.178503310652045
 40
9.178503310652045
 10
127.0592219358771
 20
10.71931702870933
 30
0.0
 10
126.2790329465615
 20
10.31242920866906
 30
0.0
 10
124.8298510759611
 20
9.556645084251018
 30
0.0
 10
122.5207671649982
 20
9.181395293728315
 30
0.0
 10
120.3253837175666
 20
9.496290656552272
 30
0.0
 10
119.0230098838407
 20
10.11110481447335
 30
0.0
 10
118.3299165868382
 20
10.43829472010765
 30
0.0
 11
127.0592219358771
 21
10.71931702870933
 31
0.0
 11
124.664855129577
 21
9.64070614173724
 31
0.0
 11
122.4404777889579
 21
9.290254669326657
 31
0.0
 11
120.4484323986232
 21
9.572314265780406
 31
0.0
 11
118.3299165868382
 21
10.43829472010765
 31
0.0
  0
SPLINE
  5
261
330
1F
100
AcDbEntity
  8
0
  6
Continuous
 62
     3
100
AcDbSpline
210
0.0
220
0.0
230
1.0
 70
     8
 71
     3
 72
    11
 73
     7
 74
     5
 42
0.0000000001
 43
0.0000000001
 44
0.00000001
 40
0.0
 40
0.0
 40
0.0
 40
0.0
 40
2.489103704937742
 40
4.724775522339844
 40
5.325934398165418
 40
5.934610574731865
 40
5.934610574731865
 40
5.934610574731865
 40
5.934610574731865
 10
127.0592219358715
 20
26.62818073517855
 30
0.0
 10
126.2685777943775
 20
26.88596365473008
 30
0.0
 10
124.767790149732
 20
27.375282932974
 30
0.0
 10
122.9847039642351
 20
27.54765302419189
 30
0.0
 10
121.8362349773982
 20
27.51940098636091
 30
0.0
 10
121.4345646515643
 20
27.48192856225347
 30
0.0
 10
121.2324816009159
 20
27.46307593289106
 30
0.0
 11
127.0592219358715
 21
26.62818073517855
 31
0.0
 11
124.6647992461338
 21
27.3081639973284
 31
0.0
 11
122.4400693132265
 21
27.52908298870847
 31
0.0
 11
121.8391348104419
 21
27.51265991509702
 31
0.0
 11
121.2324816009159
 21
27.46307593289106
 31
0.0
  0
SPLINE
  5
262
330
1F
100
AcDbEntity
  8
0
  6
Continuous
 62
     3
100
AcDbSpline
210
0.0
220
0.0
230
1.0
 70
     8
 71
     3
 72
     9
 73
     5
 74
     3
 42
0.0000000001
 43
0.0000000001
 44
0.00000001
 40
0.0
 40
0.0
 40
0.0
 40
0.0
 40
1.943487431312048
 40
3.725966086428537
 40
3.725966086428537
 40
3.725966086428537
 40
3.725966086428537
 10
121.2324617841498
 20
27.46307066858805
 30
0.0
 10
120.7000273435227
 20
27.07170519921067
 30
0.0
 10
119.6792681469049
 20
26.32139704552486
 30
0.0
 10
118.4227351043687
 20
26.18037057374523
 30
0.0
 10
117.8216176288427
 20
26.11290439989324
 30
0.0
 11
121.2324617841498
 21
27.46307066858805
 31
0.0
 11
119.5710107304133
 21
26.45474344406932
 31
0.0
 11
117.8216176288427
 21
26.11290439989324
 31
0.0
  0
SPLINE
  5
263
330
1F
100
AcDbEntity
  8
0
  6
Continuous
 62
     3
100
AcDbSpline
210
0.0
220
0.0
230
1.0
 70
     8
 71
     3
 72
    11
 73
     7
 74
     5
 42
0.0000000001
 43
0.0000000001
 44
0.00000001
 40
0.0
 40
0.0
 40
0.0
 40
0.0
 40
1.797876925539605
 40
3.741101032076509
 40
5.463617504048624
 40
7.318839901328388
 40
7.318839901328388
 40
7.318839901328388
 40
7.318839901328388
 10
128.3609858217216
 20
29.11419169343532
 30
0.0
 10
127.7727130432542
 20
28.99963054867793
 30
0.0
 10
126.5486092865377
 20
28.7612467022647
 30
0.0
 10
124.7724949890814
 20
28.35739565245915
 30
0.0
 10
122.9842891604262
 20
27.92232660972656
 30
0.0
 10
121.8306676658403
 20
27.61989525582239
 30
0.0
 10
121.2324617841498
 20
27.46307066858805
 30
0.0
 11
128.3609858217216
 21
29.11419169343532
 31
0.0
 11
126.5980025340095
 21
28.76169862026173
 31
0.0
 11
124.7019694659175
 21
28.33604790320845
 31
0.0
 11
123.0284739038441
 21
27.92803368784837
 31
0.0
 11
121.2324617841498
 21
27.46307066858805
 31
0.0
  0
SPLINE
  5
264
330
1F
100
AcDbEntity
  8
0
  6
Continuous
 62
     3
100
AcDbSpline
210
0.0
220
0.0
230
1.0
 70
     8
 71
     3
 72
    11
 73
     7
 74
     5
 42
0.0000000001
 43
0.0000000001
 44
0.00000001
 40
0.0
 40
0.0
 40
0.0
 40
0.0
 40
1.301632547680983
 40
2.702350731115731
 40
4.060474305791183
 40
5.43132972377621
 40
5.43132972377621
 40
5.43132972377621
 40
5.43132972377621
 10
128.3609858217216
 20
29.11419169343532
 30
0.0
 10
128.7853155348113
 20
29.20515397054495
 30
0.0
 10
129.6662766881298
 20
29.39400294830684
 30
0.0
 10
130.9719371107636
 20
29.75174670940233
 30
0.0
 10
132.3026982652768
 20
30.10512798199387
 30
0.0
 10
133.1935240649055
 20
30.29019207585854
 30
0.0
 10
133.6410150046255
 20
30.38315582399702
 30
0.0
 11
128.3609858217216
 21
29.11419169343532
 31
0.0
 11
129.6311885245388
 21
29.39850205719014
 31
0.0
 11
130.9861229589062
 21
29.75369792987198
 31
0.0
 11
132.301427578578
 21
30.09203711110783
 31
0.0
 11
133.6410150046255
 21
30.38315582399702
 31
0.0
  0
SPLINE
  5
265
330
1F
100
AcDbEntity
  8
0
  6
Continuous
 62
     3
100
AcDbSpline
210
0.0
220
0.0
230
1.0
 70
     8
 71
     3
 72
    11
 73
     7
 74
     5
 42
0.0000000001
 43
0.0000000001
 44
0.00000001
 40
0.0
 40
0.0
 40
0.0
 40
0.0
 40
1.301632547680983
 40
2.702350731115731
 40
4.060474305791183
 40
5.43132972377621
 40
5.43132972377621
 40
5.43132972377621
 40
5.43132972377621
 10
128.3609858217216
 20
29.11419169343532
 30
0.0
 10
128.7853155348113
 20
29.20515397054495
 30
0.0
 10
129.6662766881298
 20
29.39400294830684
 30
0.0
 10
130.9719371107636
 20
29.75174670940233
 30
0.0
 10
132.3026982652768
 20
30.10512798199387
 30
0.0
 10
133.1935240649055
 20
30.29019207585854
 30
0.0
 10
133.6410150046255
 20
30.38315582399702
 30
0.0
 11
128.3609858217216
 21
29.11419169343532
 31
0.0
 11
129.6311885245388
 21
29.39850205719014
 31
0.0
 11
130.9861229589062
 21
29.75369792987198
 31
0.0
 11
132.301427578578
 21
30.09203711110783
 31
0.0
 11
133.6410150046255
 21
30.38315582399702
 31
0.0
  0
SPLINE
  5
266
330
1F
100
AcDbEntity
  8
0
  6
Continuous
 62
     3
100
AcDbSpline
210
0.0
220
0.0
230
1.0
 70
     8
 71
     3
 72
    15
 73
    11
 74
     9
 42
0.0000000001
 43
0.0000000001
 44
0.00000001
 40
0.0
 40
0.0
 40
0.0
 40
0.0
 40
0.1670595231928622
 40
0.291744871397598
 40
0.4255932352882522
 40
0.5850206935628108
 40
0.7428212457074448
 40
0.8773002821634788
 40
1.029227203825772
 40
1.169568441310259
 40
1.169568441310259
 40
1.169568441310259
 40
1.169568441310259
 10
133.6410150046255
 20
30.38315582399702
 30
0.0
 10
133.6953949414559
 20
30.39559062413488
 30
0.0
 10
133.7903614981296
 20
30.41730617256781
 30
0.0
 10
133.9222231312244
 20
30.47080030189712
 30
0.0
 10
134.04552492995
 20
30.5361584696753
 30
0.0
 10
134.1685133660333
 20
30.6235789888552
 30
0.0
 10
134.2782022200879
 20
30.72749277660949
 30
0.0
 10
134.3715624292056
 20
30.84276357445754
 30
0.0
 10
134.4480347769619
 20
30.96335360062498
 30
0.0
 10
134.4878986065983
 20
31.05234689133324
 30
0.0
 10
134.5070404084229
 20
31.09507966312157
 30
0.0
 11
133.6410150046255
 21
30.38315582399702
 31
0.0
 11
133.8026546297505
 21
30.42536383128082
 31
0.0
 11
133.9184928349531
 21
30.47149349930891
 31
0.0
 11
134.0366134581558
 21
30.53444509095202
 31
0.0
 11
134.1665674068106
 21
30.62679814006748
 31
0.0
 11
134.2810830271157
 21
30.73536695217892
 31
0.0
 11
134.3659395081734
 21
30.83969330967619
 31
0.0
 11
134.4467305147974
 21
30.96835800092621
 31
0.0
 11
134.5070404084229
 21
31.09507966312157
 31
0.0
  0
SPLINE
  5
267
330
1F
100
AcDbEntity
  8
0
  6
Continuous
 62
     3
100
AcDbSpline
210
0.0
220
0.0
230
1.0
 70
     8
 71
     3
 72
    11
 73
     7
 74
     5
 42
0.0000000001
 43
0.0000000001
 44
0.00000001
 40
0.0
 40
0.0
 40
0.0
 40
0.0
 40
0.9565741848848179
 40
1.96982457112758
 40
2.924219250051429
 40
3.937907910421499
 40
3.937907910421499
 40
3.937907910421499
 40
3.937907910421499
 10
135.7535560894281
 20
35.24076844489326
 30
0.0
 10
135.6790427389552
 20
34.93070852980244
 30
0.0
 10
135.5256011857984
 20
34.29221791515015
 30
0.0
 10
135.2588368456108
 20
33.35445611382612
 30
0.0
 10
134.9657940255428
 20
32.40478187619671
 30
0.0
 10
134.7551767115469
 20
31.78344924654795
 30
0.0
 10
134.6466953385213
 20
31.4634232454037
 30
0.0
 11
135.7535560894281
 21
35.24076844489326
 31
0.0
 11
135.523824010462
 21
34.31219031512605
 31
0.0
 11
135.2497804319634
 21
33.33670250776771
 31
0.0
 11
134.9675845648101
 21
32.42498177436315
 31
0.0
 11
134.6466953385213
 21
31.4634232454037
 31
0.0
  0
SPLINE
  5
268
330
1F
100
AcDbEntity
  8
0
  6
Continuous
 62
     3
100
AcDbSpline
210
0.0
220
0.0
230
1.0
 70
     8
 71
     3
 72
    11
 73
     7
 74
     5
 42
0.0000000001
 43
0.0000000001
 44
0.00000001
 40
0.0
 40
0.0
 40
0.0
 40
0.0
 40
0.101278824581191
 40
0.1967796864197885
 40
0.295412420493827
 40
0.3939841263634251
 40
0.3939841263634251
 40
0.3939841263634251
 40
0.3939841263634251
 10
134.5070404084229
 20
31.09507966312157
 30
0.0
 10
134.5197991243876
 20
31.1263362548445
 30
0.0
 10
134.5445886708406
 20
31.18706624794252
 30
0.0
 10
134.5800933713481
 20
31.27891799489379
 30
0.0
 10
134.6141322524128
 20
31.37036160134476
 30
0.0
 10
134.6358432160918
 20
31.43240909792843
 30
0.0
 10
134.6466953385213
 20
31.4634232454037
 30
0.0
 11
134.5070404084229
 21
31.09507966312157
 31
0.0
 11
134.5450147838122
 21
31.18896974312123
 31
0.0
 11
134.5795339141683
 21
31.2780138010441
 31
0.0
 11
134.6138336445629
 21
31.37049052636338
 31
0.0
 11
134.6466953385213
 21
31.4634232454037
 31
0.0
  0
SPLINE
  5
269
330
1F
100
AcDbEntity
  8
0
  6
Continuous
 62
     3
100
AcDbSpline
210
0.0
220
0.0
230
1.0
 70
     8
 71
     3
 72
    11
 73
     7
 74
     5
 42
0.0000000001
 43
0.0000000001
 44
0.00000001
 40
0.0
 40
0.0
 40
0.0
 40
0.0
 40
1.164023534662198
 40
2.366390832694114
 40
3.54231162005494
 40
4.73253462029191
 40
4.73253462029191
 40
4.73253462029191
 40
4.73253462029191
 10
135.7535560894281
 20
35.24076844489326
 30
0.0
 10
135.8493778949755
 20
35.61690279654587
 30
0.0
 10
136.0441779445169
 20
36.38156163299318
 30
0.0
 10
136.4255418790472
 20
37.50002180255684
 30
0.0
 10
136.8434679720231
 20
38.61367025209786
 30
0.0
 10
137.1388786436994
 20
39.34501946467623
 30
0.0
 10
137.2874767879828
 20
39.71290439989383
 30
0.0
 11
135.7535560894281
 21
35.24076844489326
 31
0.0
 11
136.0555307977133
 21
36.3649401687876
 31
0.0
 11
136.4341367147998
 21
37.50614334041114
 31
0.0
 11
136.8463127782912
 21
38.60746100159342
 31
0.0
 11
137.2874767879828
 21
39.71290439989383
 31
0.0
  0
SPLINE
  5
26A
330
1F
100
AcDbEntity
  8
0
  6
Continuous
 62
     3
100
AcDbSpline
210
0.0
220
0.0
230
1.0
 70
     8
 71
     3
 72
    11
 73
     7
 74
     5
 42
0.0000000001
 43
0.0000000001
 44
0.00000001
 40
0.0
 40
0.0
 40
0.0
 40
0.0
 40
1.190222999540252
 40
2.36614378759776
 40
3.568511085630539
 40
4.732534620291655
 40
4.732534620291655
 40
4.732534620291655
 40
4.732534620291655
 10
137.2874767879828
 20
39.71290439989383
 30
0.0
 10
137.1388786437861
 20
40.08078933489593
 30
0.0
 10
136.8434679721092
 20
40.81213854747393
 30
0.0
 10
136.4255418791217
 20
41.92578699701104
 30
0.0
 10
136.044177944517
 20
43.0442471667947
 30
0.0
 10
135.8493778949755
 20
43.80890600324192
 30
0.0
 10
135.7535560894281
 20
44.18504035489417
 30
0.0
 11
137.2874767879828
 21
39.71290439989383
 31
0.0
 11
136.846312778544
 21
40.81834779754498
 31
0.0
 11
136.4341367147998
 21
41.91966545937652
 31
0.0
 11
136.055530797713
 21
43.06086863100089
 31
0.0
 11
135.7535560894281
 21
44.18504035489417
 31
0.0
  0
SPLINE
  5
26B
330
1F
100
AcDbEntity
  8
0
  6
Continuous
 62
     3
100
AcDbSpline
210
0.0
220
0.0
230
1.0
 70
     8
 71
     3
 72
    15
 73
    11
 74
     9
 42
0.0000000001
 43
0.0000000001
 44
0.00000001
 40
0.0
 40
0.0
 40
0.0
 40
0.0
 40
0.0595219886452513
 40
0.1272009975362567
 40
0.2484873542586305
 40
0.4262598997610279
 40
0.6590513212580227
 40
0.926830480409065
 40
1.155744857143526
 40
1.327665578683361
 40
1.327665578683361
 40
1.327665578683361
 40
1.327665578683361
 10
133.6410150046387
 20
49.30526246938592
 30
0.0
 10
133.6600308965701
 20
49.29957386434599
 30
0.0
 10
133.7006686588117
 20
49.28741707570135
 30
0.0
 10
133.7776702027515
 20
49.25661534965982
 30
0.0
 10
133.8866701456508
 20
49.20065613807822
 30
0.0
 10
134.0318423663339
 20
49.09760072982213
 30
0.0
 10
134.1932034506515
 20
48.93756544656677
 30
0.0
 10
134.3349133705847
 20
48.73869734719483
 30
0.0
 10
134.4391957092528
 20
48.54094427614486
 30
0.0
 10
134.4866758669862
 20
48.41597474487292
 30
0.0
 10
134.5070404084435
 20
48.36237451854726
 30
0.0
 11
133.6410150046387
 21
49.30526246938592
 31
0.0
 11
133.6977954183197
 21
49.28740604884595
 31
0.0
 11
133.7607512701917
 21
49.26256638380113
 31
0.0
 11
133.868688392943
 21
49.2072494979601
 31
0.0
 11
134.0141241853132
 21
49.10501687972087
 31
0.0
 11
134.1801589566579
 21
48.94184733407241
 31
0.0
 11
134.3369351345861
 21
48.7247600057691
 31
0.0
 11
134.4431805239858
 21
48.52199484824192
 31
0.0
 11
134.5070404084435
 21
48.36237451854726
 31
0.0
  0
SPLINE
  5
26C
330
1F
100
AcDbEntity
  8
0
  6
Continuous
 62
     3
100
AcDbSpline
210
0.0
220
0.0
230
1.0
 70
     8
 71
     3
 72
    11
 73
     7
 74
     5
 42
0.0000000001
 43
0.0000000001
 44
0.00000001
 40
0.0
 40
0.0
 40
0.0
 40
0.0
 40
1.126687924188305
 40
2.180644174938914
 40
3.305992515672793
 40
4.361543611985761
 40
4.361543611985761
 40
4.361543611985761
 40
4.361543611985761
 10
134.5070404084435
 20
48.36237451854726
 30
0.0
 10
134.6302487004472
 20
48.00757587342039
 30
0.0
 10
134.8687117552948
 20
47.3208820852274
 30
0.0
 10
135.2001984166564
 20
46.26982492221143
 30
0.0
 10
135.5003160977659
 20
45.23383601252615
 30
0.0
 10
135.6709632155145
 20
44.52709947021532
 30
0.0
 10
135.7535560894281
 20
44.18504035489417
 30
0.0
 11
134.5070404084435
 21
48.36237451854726
 31
0.0
 11
134.871376030053
 21
47.29622010508825
 31
0.0
 11
135.1892211564785
 21
46.29133292032378
 31
0.0
 11
135.498354308995
 21
45.20927673786019
 31
0.0
 11
135.7535560894281
 21
44.18504035489417
 31
0.0
  0
SPLINE
  5
26D
330
1F
100
AcDbEntity
  8
0
  6
Continuous
 62
     3
100
AcDbSpline
210
0.0
220
0.0
230
1.0
 70
     8
 71
     3
 72
    15
 73
    11
 74
     9
 42
0.0000000001
 43
0.0000000001
 44
0.00000001
 40
0.0
 40
0.0
 40
0.0
 40
0.0
 40
0.3505574051062631
 40
0.7011148102126441
 40
1.673189966383398
 40
2.590944426033471
 40
3.985976231121069
 40
5.263295412214675
 40
6.914633696553131
 40
8.40915733704434
 40
8.40915733704434
 40
8.40915733704434
 40
8.40915733704434
 10
126.2968262429108
 20
53.31290439989431
 30
0.0
 10
126.3910857795041
 20
53.2438408414307
 30
0.0
 10
126.5796048526907
 20
53.10571372450347
 30
0.0
 10
127.0322571253569
 20
52.7798740130481
 30
0.0
 10
127.6438103849308
 20
52.35113917797781
 30
0.0
 10
128.5544737195761
 20
51.74311112884194
 30
0.0
 10
129.5707869317324
 20
51.11011584725308
 30
0.0
 10
130.8315525699429
 20
50.41188440098507
 30
0.0
 10
132.1653258777337
 20
49.77400470233994
 30
0.0
 10
133.165741505243
 20
49.45622974108892
 30
0.0
 10
133.6410150046387
 20
49.30526246938592
 30
0.0
 11
126.2968262429108
 21
53.31290439989431
 31
0.0
 11
126.5798936708395
 21
53.10611144662782
 31
0.0
 11
126.8643426326521
 21
52.90122298331511
 31
0.0
 11
127.6607695546303
 21
52.34387724932888
 31
0.0
 11
128.4242909268378
 21
51.83465395607726
 31
0.0
 11
129.6103054484475
 21
51.10015869282705
 31
0.0
 11
130.7280318240933
 21
50.48190952010197
 31
0.0
 11
132.2268872595529
 21
49.78883628233053
 31
0.0
 11
133.6410150046387
 21
49.30526246938592
 31
0.0
  0
SPLINE
  5
26E
330
1F
100
AcDbEntity
  8
0
  6
Continuous
 62
     3
100
AcDbSpline
210
0.0
220
0.0
230
1.0
 70
     8
 71
     3
 72
    11
 73
     7
 74
     5
 42
0.0000000001
 43
0.0000000001
 44
0.00000001
 40
0.0
 40
0.0
 40
0.0
 40
0.0
 40
1.40067898349952
 40
2.801357966999015
 40
4.202037204908292
 40
5.60271644281765
 40
5.60271644281765
 40
5.60271644281765
 40
5.60271644281765
 10
80.49485676637158
 20
140.757105257506
 30
0.0
 10
80.96168753022576
 20
140.7647280019213
 30
0.0
 10
81.89534905793408
 20
140.7799734907519
 30
0.0
 10
83.29584139698622
 20
140.8028440097505
 30
0.0
 10
84.69633379607352
 20
140.8257160460787
 30
0.0
 10
85.62999542734643
 20
140.8409655802889
 30
0.0
 10
86.0968262429829
 20
140.848590347394
 30
0.0
 11
80.49485676637158
 21
140.757105257506
 31
0.0
 11
81.89534905171705
 21
140.7799738714799
 31
0.0
 11
83.29584130806812
 21
140.8028442610232
 31
0.0
 11
84.69633378991185
 21
140.8257164233457
 31
0.0
 11
86.0968262429829
 21
140.848590347394
 31
0.0
  0
SPLINE
  5
26F
330
1F
100
AcDbEntity
  8
0
  6
Continuous
 62
     3
100
AcDbSpline
210
0.0
220
0.0
230
1.0
 70
     8
 71
     3
 72
    11
 73
     7
 74
     5
 42
0.0000000001
 43
0.0000000001
 44
0.00000001
 40
0.0
 40
0.0
 40
0.0
 40
0.0
 40
1.40049246896868
 40
2.80098493793746
 40
4.201477211087152
 40
5.601969484236836
 40
5.601969484236836
 40
5.601969484236836
 40
5.601969484236836
 10
86.09682624298296
 20
129.9426968722819
 30
0.0
 10
85.6299954202891
 20
129.9427135818623
 30
0.0
 10
84.69633377490142
 20
129.9427470010233
 30
0.0
 10
83.29584137272667
 20
129.9428127603541
 30
0.0
 10
81.89534903635513
 20
129.9428889876384
 30
0.0
 10
80.96168752292985
 20
129.9429503219701
 30
0.0
 10
80.4948567662172
 20
129.942980989136
 30
0.0
 11
86.09682624298296
 21
129.9426968722819
 31
0.0
 11
84.69633377500709
 21
129.942749606122
 31
0.0
 11
83.29584130754202
 21
129.9428145050169
 31
0.0
 11
81.89534903651523
 21
129.9428916166745
 31
0.0
 11
80.4948567662172
 21
129.942980989136
 31
0.0
  0
SPLINE
  5
270
330
1F
100
AcDbEntity
  8
0
  6
Continuous
 62
     3
100
AcDbSpline
210
0.0
220
0.0
230
1.0
 70
     8
 71
     3
 72
    11
 73
     7
 74
     5
 42
0.0000000001
 43
0.0000000001
 44
0.00000001
 40
0.0
 40
0.0
 40
0.0
 40
0.0
 40
1.400492280308047
 40
2.800984560616143
 40
4.201477022426461
 40
5.601969484236779
 40
5.601969484236779
 40
5.601969484236779
 40
5.601969484236779
 10
80.4948567662172
 20
138.3614482674599
 30
0.0
 10
80.96168752531597
 20
138.3614789346262
 30
0.0
 10
81.89534904351349
 20
138.3615402689587
 30
0.0
 10
83.29584138227119
 20
138.3616164962429
 30
0.0
 10
84.69633378205975
 20
138.361682255573
 30
0.0
 10
85.6299954226752
 20
138.3617156747336
 30
0.0
 10
86.0968262429829
 20
138.3617323843139
 30
0.0
 11
80.4948567662172
 21
138.3614482674599
 31
0.0
 11
81.89534904367359
 21
138.3615376399224
 31
0.0
 11
83.29584132185879
 21
138.3616147515803
 31
0.0
 11
84.6963337821654
 21
138.3616796504743
 31
0.0
 11
86.0968262429829
 21
138.3617323843139
 31
0.0
  0
SPLINE
  5
271
330
1F
100
AcDbEntity
  8
0
  6
Continuous
 62
     3
100
AcDbSpline
210
0.0
220
0.0
230
1.0
 70
     8
 71
     3
 72
    11
 73
     7
 74
     5
 42
0.0000000001
 43
0.0000000001
 44
0.00000001
 40
0.0
 40
0.0
 40
0.0
 40
0.0
 40
1.400678983576549
 40
2.801357967153098
 40
4.202037205062341
 40
5.602716442971648
 40
5.602716442971648
 40
5.602716442971648
 40
5.602716442971648
 10
80.4948567662172
 20
127.547323999064
 30
0.0
 10
80.96168753009721
 20
127.5397012546587
 30
0.0
 10
81.89534905785726
 20
127.5244557658482
 30
0.0
 10
83.29584139696063
 20
127.5015852468452
 30
0.0
 10
84.69633379607365
 20
127.478713210518
 30
0.0
 10
85.62999542734653
 20
127.4634636763074
 30
0.0
 10
86.09682624298296
 20
127.455838909202
 30
0.0
 11
80.4948567662172
 21
127.547323999064
 31
0.0
 11
81.8953490516401
 21
127.5244553851144
 31
0.0
 11
83.29584130806826
 21
127.5015849955728
 31
0.0
 11
84.69633378991196
 21
127.4787128332506
 31
0.0
 11
86.09682624298296
 21
127.455838909202
 31
0.0
  0
SPLINE
  5
272
330
1F
100
AcDbEntity
  8
0
  6
Continuous
 62
     3
100
AcDbSpline
210
0.0
220
0.0
230
1.0
 70
     8
 71
     3
 72
    17
 73
    13
 74
    11
 42
0.0000000001
 43
0.0000000001
 44
0.00000001
 40
0.0
 40
0.0
 40
0.0
 40
0.0
 40
0.0543430933252792
 40
0.1099767862915121
 40
0.1618520645751811
 40
0.2164273023094492
 40
0.3274915939044791
 40
0.419485089157
 40
0.5039095555540406
 40
0.6153749614025051
 40
0.7008789114810567
 40
0.8082365400192587
 40
0.8082365400192587
 40
0.8082365400192587
 40
0.8082365400192587
 10
15.31707163902732
 20
26.27807696610472
 30
0.0
 10
15.31806882277688
 20
26.29621666545404
 30
0.0
 10
15.3200868724941
 20
26.3329268657143
 30
0.0
 10
15.33568318374381
 20
26.38505700261378
 30
0.0
 10
15.35885559423326
 20
26.43401171227971
 30
0.0
 10
15.39922659712521
 20
26.494526326014
 30
0.0
 10
15.46004068155069
 20
26.55626345599763
 30
0.0
 10
15.53809193449585
 20
26.61227118651255
 30
0.0
 10
15.62218859353626
 20
26.65885048844248
 30
0.0
 10
15.70888346416274
 20
26.69513804880562
 30
0.0
 10
15.80551781943146
 20
26.72637850917782
 30
0.0
 10
15.86833639297747
 20
26.74021892223984
 30
0.0
 10
15.9033047528365
 20
26.74792327649737
 30
0.0
 11
15.31707163902732
 21
26.27807696610472
 31
0.0
 11
15.32215801488623
 21
26.33218149985913
 31
0.0
 11
15.33738703909647
 21
26.3856902338627
 31
0.0
 11
15.35954741991542
 21
26.43259398658002
 31
0.0
 11
15.3896492977598
 21
26.47811687669031
 31
0.0
 11
15.46669583920323
 21
26.5581112972402
 31
0.0
 11
15.54113612456208
 21
26.61216170967589
 31
0.0
 11
15.61487046047409
 21
26.6532802971278
 31
0.0
 11
15.71747764947611
 21
26.69682684080311
 31
0.0
 11
15.79888874899944
 21
26.72296413893122
 31
0.0
 11
15.9033047528365
 21
26.74792327649737
 31
0.0
  0
SPLINE
  5
273
330
1F
100
AcDbEntity
  8
0
  6
Continuous
 62
     3
100
AcDbSpline
210
0.0
220
0.0
230
1.0
 70
     8
 71
     3
 72
    11
 73
     7
 74
     5
 42
0.0000000001
 43
0.0000000001
 44
0.00000001
 40
0.0
 40
0.0
 40
0.0
 40
0.0
 40
2.381898465394876
 40
4.773796466666516
 40
7.091765152655092
 40
9.558933688783283
 40
9.558933688783283
 40
9.558933688783283
 40
9.558933688783283
 10
37.2248270127177
 20
27.46307066862062
 30
0.0
 10
38.0184481331036
 20
27.49688206670331
 30
0.0
 10
39.60902210399792
 20
27.56464680774713
 30
0.0
 10
41.9728409263811
 20
27.4463999055999
 30
0.0
 10
44.35259815442809
 20
27.1856829616024
 30
0.0
 10
45.92178275595744
 20
26.89684514458702
 30
0.0
 10
46.73083852522073
 20
26.74792327649709
 30
0.0
 11
37.2248270127177
 21
27.46307066862062
 31
0.0
 11
39.60584528646814
 21
27.52781848338629
 31
0.0
 11
41.99537007590946
 21
27.42129464036202
 31
0.0
 11
44.29902752551474
 21
27.16411535639513
 31
0.0
 11
46.73083852522073
 21
26.74792327649709
 31
0.0
  0
SPLINE
  5
274
330
1F
100
AcDbEntity
  8
0
  6
Continuous
 62
     3
100
AcDbSpline
210
0.0
220
0.0
230
1.0
 70
     8
 71
     3
 72
    17
 73
    13
 74
    11
 42
0.0000000001
 43
0.0000000001
 44
0.00000001
 40
0.0
 40
0.0
 40
0.0
 40
0.0
 40
0.0985765661397644
 40
0.1928621869369676
 40
0.2942911079579962
 40
0.3887532985970759
 40
0.480746793736286
 40
0.5918110851345922
 40
0.6416332145837781
 40
0.6982584039739794
 40
0.7538920970186004
 40
0.8082351912911702
 40
0.8082351912911702
 40
0.8082351912911702
 40
0.8082351912911702
 10
46.73083852522073
 20
26.74792327649709
 30
0.0
 10
46.76295269870499
 20
26.74089738993128
 30
0.0
 10
46.82578314586286
 20
26.72715144704328
 30
0.0
 10
46.91937005693926
 20
26.69728592877864
 30
0.0
 10
47.00888363239012
 20
26.66027396864531
 30
0.0
 10
47.09332835934399
 20
26.61422398817068
 30
0.0
 10
47.17410058224946
 20
26.55626671873002
 30
0.0
 10
47.23379963259943
 20
26.49565625669248
 30
0.0
 10
47.27447216177374
 20
26.43540690432525
 30
0.0
 10
47.2980091507039
 20
26.38658415622927
 30
0.0
 10
47.31405477193419
 20
26.3329275238049
 30
0.0
 10
47.31607391500714
 20
26.29621688319306
 30
0.0
 10
47.31707163902728
 20
26.27807696610472
 30
0.0
 11
46.73083852522073
 21
26.74792327649709
 31
0.0
 11
46.82678950289939
 21
26.72532351378998
 31
0.0
 11
46.91666562833251
 21
26.69682684089219
 31
0.0
 11
47.01023701805275
 21
26.65768324569051
 31
0.0
 11
47.09300715303698
 21
26.61216170996261
 31
0.0
 11
47.16744743835257
 21
26.55811129766019
 31
0.0
 11
47.24449397977938
 21
26.47811687736743
 31
0.0
 11
47.27222595875004
 21
26.43672627547253
 31
0.0
 11
47.29675623858837
 21
26.38569023482938
 31
0.0
 11
47.31198526296403
 21
26.33218150079139
 31
0.0
 11
47.31707163902728
 21
26.27807696610472
 31
0.0
  0
SPLINE
  5
275
330
1F
100
AcDbEntity
  8
0
  6
Continuous
 62
     3
100
AcDbSpline
210
0.0
220
0.0
230
1.0
 70
     8
 71
     3
 72
    11
 73
     7
 74
     5
 42
0.0000000001
 43
0.0000000001
 44
0.00000001
 40
0.0
 40
0.0
 40
0.0
 40
0.0
 40
2.466654904592319
 40
4.784159430453679
 40
7.176553819981792
 40
9.558933546311158
 40
9.558933546311158
 40
9.558933546311158
 40
9.558933546311158
 10
15.9033047528365
 20
26.74792327649737
 30
0.0
 10
16.7121915746328
 20
26.89681642383293
 30
0.0
 10
18.28105453534197
 20
27.18559964747283
 30
0.0
 10
20.66064561542436
 20
27.4463471582181
 30
0.0
 10
23.02463424493279
 20
27.56465770123632
 30
0.0
 10
24.61553451571596
 20
27.49688563086685
 30
0.0
 10
25.40931626533597
 20
27.46307066862113
 30
0.0
 11
15.9033047528365
 21
26.74792327649737
 31
0.0
 11
18.33460703372174
 21
27.16404301564893
 31
0.0
 11
20.63779804762935
 21
27.42121684954952
 31
0.0
 11
23.02781643803904
 21
27.52781426297523
 31
0.0
 11
25.40931626533597
 21
27.46307066862113
 31
0.0
  0
SPLINE
  5
276
330
1F
100
AcDbEntity
  8
0
  6
Continuous
 62
     3
100
AcDbSpline
210
0.0
220
0.0
230
1.0
 70
     8
 71
     3
 72
    17
 73
    13
 74
    11
 42
0.0000000001
 43
0.0000000001
 44
0.00000001
 40
0.0
 40
0.0
 40
0.0
 40
0.0
 40
0.074003756260966
 40
0.1571271800638642
 40
0.2320224959302418
 40
0.3173505988510935
 40
0.3936464600843141
 40
0.4838043126608671
 40
0.5604382504513635
 40
0.6184040615938365
 40
0.6390825000548763
 40
0.6596889511087983
 40
0.6596889511087983
 40
0.6596889511087983
 40
0.6596889511087983
 10
15.7593820602135
 20
10.57497946141939
 30
0.0
 10
15.73601407495716
 20
10.58290763476198
 30
0.0
 10
15.68639840931237
 20
10.59974099003095
 30
0.0
 10
15.61560414215729
 20
10.63120436395676
 30
0.0
 10
15.54438557617156
 20
10.67020720132653
 30
0.0
 10
15.47943507583087
 20
10.71528387357923
 30
0.0
 10
15.41709788622655
 20
10.77182151021999
 30
0.0
 10
15.36654355251267
 20
10.83589638672456
 30
0.0
 10
15.33350503172007
 20
10.90384129779897
 30
0.0
 10
15.3211482002855
 20
10.95444051349022
 30
0.0
 10
15.31750019053327
 20
10.98735661686811
 30
0.0
 10
15.31721432337622
 20
11.00112164843026
 30
0.0
 10
15.31707163902732
 20
11.0079921633444
 30
0.0
 11
15.7593820602135
 21
10.57497946141939
 31
0.0
 11
15.68964928304431
 21
10.59975638069934
 31
0.0
 11
15.613638217105
 21
10.633398934697
 31
0.0
 11
15.54807088889451
 21
10.66959608665765
 31
0.0
 11
15.47817219113575
 21
10.7185354082682
 31
0.0
 11
15.42191533089983
 21
10.77007397749276
 31
0.0
 11
15.36670239450711
 21
10.84134788601551
 31
0.0
 11
15.33370240259792
 21
10.91051262381789
 31
0.0
 11
15.32001051847668
 21
10.9668381737097
 31
0.0
 11
15.31780651423776
 21
10.98739882016116
 31
0.0
 11
15.31707163902732
 21
11.0079921633444
 31
0.0
  0
SPLINE
  5
277
330
1F
100
AcDbEntity
  8
0
  6
Continuous
 62
     3
100
AcDbSpline
210
0.0
220
0.0
230
1.0
 70
     8
 71
     3
 72
    17
 73
    13
 74
    11
 42
0.0000000001
 43
0.0000000001
 44
0.00000001
 40
0.0
 40
0.0
 40
0.0
 40
0.0
 40
0.0206064506803444
 40
0.0412848895148757
 40
0.1148823091945294
 40
0.1758768642641953
 40
0.2660347167317489
 40
0.3423305780737479
 40
0.4123988710104222
 40
0.5025568357257623
 40
0.5730362520942522
 40
0.6596848699497323
 40
0.6596848699497323
 40
0.6596848699497323
 40
0.6596848699497323
 10
31.31707163902732
 20
11.0079921633444
 30
0.0
 10
31.31692867516772
 20
11.00112151158433
 30
0.0
 10
31.3166422480076
 20
10.98735620560272
 30
0.0
 10
31.31242749851175
 20
10.9492597670111
 30
0.0
 10
31.29864479747562
 20
10.89879020943836
 30
0.0
 10
31.26435654983935
 20
10.83181619050064
 30
0.0
 10
31.21704393347871
 20
10.77181169138131
 30
0.0
 10
31.15848387714805
 20
10.71870950282277
 30
0.0
 10
31.09414965715825
 20
10.67288696456423
 30
0.0
 10
31.02687240976931
 20
10.63532665703297
 30
0.0
 10
30.95168723468625
 20
10.60130304553948
 30
0.0
 10
30.90210400480902
 20
10.58433598582757
 30
0.0
 10
30.8747612180244
 20
10.57497946151051
 30
0.0
 11
31.31707163902732
 21
11.0079921633444
 31
0.0
 11
31.31633676384348
 21
10.98739882053402
 31
0.0
 11
31.31413275957792
 21
10.96683817370979
 31
0.0
 11
31.29495865714799
 21
10.8957823225819
 31
0.0
 11
31.26744088354897
 21
10.84134788601551
 31
0.0
 11
31.21222794723148
 21
10.77007397757237
 31
0.0
 11
31.15597108692096
 21
10.7185354082682
 31
0.0
 11
31.09901305778733
 21
10.67772672546328
 31
0.0
 11
31.02050506095011
 21
10.633398934697
 31
0.0
 11
30.9562392168998
 21
10.60446367212443
 31
0.0
 11
30.8747612180244
 21
10.57497946151051
 31
0.0
  0
SPLINE
  5
278
330
1F
100
AcDbEntity
  8
0
  6
Continuous
 62
     3
100
AcDbSpline
210
0.0
220
0.0
230
1.0
 70
     8
 71
     3
 72
    11
 73
     7
 74
     5
 42
0.0000000001
 43
0.0000000001
 44
0.00000001
 40
0.0
 40
0.0
 40
0.0
 40
0.0
 40
4.023586146803952
 40
7.691400076559726
 40
11.35767657720531
 40
15.37952421837281
 40
15.37952421837281
 40
15.37952421837281
 40
15.37952421837281
 10
46.87476121784202
 20
10.5749794614519
 30
0.0
 10
45.58208445201637
 20
10.20739868521534
 30
0.0
 10
43.11103156216191
 20
9.504739239801573
 30
0.0
 10
39.31593087174615
 20
9.187874873854302
 30
0.0
 10
35.52147867289897
 20
9.505149336565225
 30
0.0
 10
33.05149272179143
 20
10.20754102146537
 30
0.0
 10
31.75938206021252
 20
10.57497946145199
 30
0.0
 11
46.87476121784202
 21
10.5749794614519
 31
0.0
 11
42.96964292146399
 21
9.605806323129244
 31
0.0
 11
39.31542806489463
 21
9.290254734100898
 31
0.0
 11
35.66278161035383
 21
9.606098457034363
 31
0.0
 11
31.75938206021252
 21
10.57497946145199
 31
0.0
  0
SPLINE
  5
279
330
1F
100
AcDbEntity
  8
0
  6
Continuous
 62
     3
100
AcDbSpline
210
0.0
220
0.0
230
1.0
 70
     8
 71
     3
 72
    17
 73
    13
 74
    11
 42
0.0000000001
 43
0.0000000001
 44
0.00000001
 40
0.0
 40
0.0
 40
0.0
 40
0.0
 40
0.0866486180310435
 40
0.1571280344141228
 40
0.2472859991016522
 40
0.3173542920665186
 40
0.4041890070581045
 40
0.4838232321129543
 40
0.5604571703472281
 40
0.6184229810446706
 40
0.6398641585201696
 40
0.659707837716338
 40
0.659707837716338
 40
0.659707837716338
 40
0.659707837716338
 10
31.75938206021252
 20
10.57497946145199
 30
0.0
 10
31.73203920208252
 20
10.58433606623238
 30
0.0
 10
31.68245584286851
 20
10.60130327184212
 30
0.0
 10
31.6072715710962
 20
10.63532586394814
 30
0.0
 10
31.53999045945842
 20
10.6728905321171
 30
0.0
 10
31.47280255901645
 20
10.72074025836163
 30
0.0
 10
31.4145998922516
 20
10.77443171469878
 30
0.0
 10
31.36500131325802
 20
10.83907094436216
 30
0.0
 10
31.33350429964185
 20
10.90384292016781
 30
0.0
 10
31.32108712710579
 20
10.9546883777931
 30
0.0
 10
31.31748125140839
 20
10.98761144014948
 30
0.0
 10
31.31720460829559
 20
11.00137612834333
 30
0.0
 10
31.31707163902732
 20
11.0079921633444
 30
0.0
 11
31.75938206021252
 21
10.57497946145199
 31
0.0
 11
31.67790406117005
 21
10.60446367212016
 31
0.0
 11
31.61363821710543
 21
10.63339893469649
 31
0.0
 11
31.53513022029161
 21
10.67772672544765
 31
0.0
 11
31.47817219113421
 21
10.7185354082678
 31
0.0
 11
31.41473227070872
 21
10.77782827650739
 31
0.0
 11
31.36670239450586
 21
10.8413478860152
 31
0.0
 11
31.33370240245178
 21
10.91051262424014
 31
0.0
 11
31.32001051847675
 21
10.96683817370951
 31
0.0
 11
31.31775315688335
 21
10.98816019073822
 31
0.0
 11
31.31707163902732
 21
11.0079921633444
 31
0.0
  0
SPLINE
  5
27A
330
1F
100
AcDbEntity
  8
0
  6
Continuous
 62
     3
100
AcDbSpline
210
0.0
220
0.0
230
1.0
 70
     8
 71
     3
 72
    17
 73
    13
 74
    11
 42
0.0000000001
 43
0.0000000001
 44
0.00000001
 40
0.0
 40
0.0
 40
0.0
 40
0.0
 40
0.0198436792679206
 40
0.0412848566716786
 40
0.0992506677993577
 40
0.175884605604857
 40
0.2458647386504755
 40
0.3423502428832212
 40
0.4276783458025847
 40
0.5025736616708604
 40
0.5730530778336305
 40
0.6597016960846119
 40
0.6597016960846119
 40
0.6597016960846119
 40
0.6597016960846119
 10
47.31707163902732
 20
11.0079921633444
 30
0.0
 10
47.31693867248313
 20
11.00137613227892
 30
0.0
 10
47.31666203503877
 20
10.98761145232287
 30
0.0
 10
47.31305608788382
 20
10.95468828602092
 30
0.0
 10
47.30063979362185
 20
10.90384410465428
 30
0.0
 10
47.27055747101116
 20
10.84198418468323
 30
0.0
 10
47.22183439933177
 20
10.77682567431262
 30
0.0
 10
47.16022780007904
 20
10.71910919745676
 30
0.0
 10
47.0897638389217
 20
10.67021150824571
 30
0.0
 10
47.02223587988573
 20
10.6332318981411
 30
0.0
 10
46.9516860112963
 20
10.60130143369638
 30
0.0
 10
46.90210356990567
 20
10.58433541289227
 30
0.0
 10
46.87476121784202
 20
10.5749794614519
 30
0.0
 11
47.31707163902732
 21
11.0079921633444
 31
0.0
 11
47.31639012116639
 21
10.98816019066659
 31
0.0
 11
47.31413275957786
 21
10.96683817370951
 31
0.0
 11
47.3004408754615
 21
10.91051262383173
 31
0.0
 11
47.26744088354738
 21
10.84134788601509
 31
0.0
 11
47.22584504038947
 21
10.78507173784319
 31
0.0
 11
47.15597108691837
 21
10.7185354082678
 31
0.0
 11
47.08607238916085
 21
10.66959608665807
 31
0.0
 11
47.02050506094871
 21
10.63339893469649
 31
0.0
 11
46.95623921708829
 21
10.60446367220324
 31
0.0
 11
46.87476121784202
 21
10.5749794614519
 31
0.0
  0
SPLINE
  5
27B
330
1F
100
AcDbEntity
  8
0
  6
Continuous
 62
     3
100
AcDbSpline
210
0.0
220
0.0
230
1.0
 70
     8
 71
     3
 72
    11
 73
     7
 74
     5
 42
0.0000000001
 43
0.0000000001
 44
0.00000001
 40
0.0
 40
0.0
 40
0.0
 40
0.0
 40
4.023586146821111
 40
7.691400076656388
 40
11.35767657995099
 40
15.37952421855434
 40
15.37952421855434
 40
15.37952421855434
 40
15.37952421855434
 10
30.8747612180244
 20
10.57497946151051
 30
0.0
 10
29.5820844521955
 20
10.20739868526493
 30
0.0
 10
27.11103156231429
 20
9.504739239828103
 30
0.0
 10
23.31593087098354
 20
9.187874873773438
 30
0.0
 10
19.52147867207612
 20
9.50514933672343
 30
0.0
 10
17.05149272095923
 20
10.20754102165477
 30
0.0
 10
15.7593820602135
 20
10.57497946141939
 30
0.0
 11
30.8747612180244
 21
10.57497946151051
 31
0.0
 11
26.96964292163598
 21
9.60580632315846
 31
0.0
 11
23.31542806498935
 21
9.290254734100898
 31
0.0
 11
19.66278160782637
 21
9.606098457459119
 31
0.0
 11
15.7593820602135
 21
10.57497946141939
 31
0.0
  0
SPLINE
  5
27C
330
1F
100
AcDbEntity
  8
0
  6
Continuous
 62
     3
100
AcDbSpline
210
0.0
220
0.0
230
1.0
 70
     8
 71
     3
 72
    11
 73
     7
 74
     5
 42
0.0000000001
 43
0.0000000001
 44
0.00000001
 40
0.0
 40
0.0
 40
0.0
 40
0.0
 40
1.240593085937852
 40
2.481186171560473
 40
3.72189206886375
 40
4.962597966482788
 40
4.962597966482788
 40
4.962597966482788
 40
4.962597966482788
 10
103.0751384064239
 20
32.5845407199219
 30
0.0
 10
103.2329238332365
 20
32.20077262586481
 30
0.0
 10
103.5484946868217
 20
31.43323643784818
 30
0.0
 10
103.704475820431
 20
30.18670240098087
 30
0.0
 10
103.5485340823092
 20
28.94012068506315
 30
0.0
 10
103.2329369650657
 20
28.17251302612626
 30
0.0
 10
103.0751384064239
 20
27.78870919660898
 30
0.0
 11
103.0751384064239
 21
32.5845407199219
 31
0.0
 11
103.4955980410821
 21
31.41737110906841
 31
0.0
 11
103.6524886742593
 21
30.1867385346109
 31
0.0
 11
103.4956258804628
 21
28.9559886869467
 31
0.0
 11
103.0751384064239
 21
27.78870919660898
 31
0.0
  0
SPLINE
  5
27D
330
1F
100
AcDbEntity
  8
0
  6
Continuous
 62
     3
100
AcDbSpline
210
0.0
220
0.0
230
1.0
 70
     8
 71
     3
 72
    11
 73
     7
 74
     5
 42
0.0000000001
 43
0.0000000001
 44
0.00000001
 40
0.0
 40
0.0
 40
0.0
 40
0.0
 40
1.240593085937715
 40
2.481186171560186
 40
3.721892068817422
 40
4.962597966390338
 40
4.962597966390338
 40
4.962597966390338
 40
4.962597966390338
 10
103.0751384064239
 20
51.63709960317937
 30
0.0
 10
103.2329238332367
 20
51.25333150912235
 30
0.0
 10
103.5484946868221
 20
50.48579532110582
 30
0.0
 10
103.704475820428
 20
49.23926128425415
 30
0.0
 10
103.5485340823211
 20
47.99267956836682
 30
0.0
 10
103.2329369650957
 20
47.22507190945574
 30
0.0
 10
103.0751384064629
 20
46.84126807995136
 30
0.0
 11
103.0751384064239
 21
51.63709960317937
 31
0.0
 11
103.4955980410822
 21
50.46992999232607
 31
0.0
 11
103.6524886742594
 21
49.23929741786871
 31
0.0
 11
103.4956258804764
 21
48.00854757024918
 31
0.0
 11
103.0751384064629
 21
46.84126807995136
 31
0.0
  0
SPLINE
  5
27E
330
1F
100
AcDbEntity
  8
0
  6
Continuous
 62
     3
100
AcDbSpline
210
0.0
220
0.0
230
1.0
 70
     8
 71
     3
 72
    11
 73
     7
 74
     5
 42
0.0000000001
 43
0.0000000001
 44
0.00000001
 40
0.0
 40
0.0
 40
0.0
 40
0.0
 40
1.240726649522039
 40
2.481453298728226
 40
3.722025632434055
 40
4.962597966455201
 40
4.962597966455201
 40
4.962597966455201
 40
4.962597966455201
 10
90.6628516466956
 20
32.5845407199219
 30
0.0
 10
90.50505067274082
 20
32.20073031667948
 30
0.0
 10
90.18944872487143
 20
31.43310951029233
 30
0.0
 10
90.03351423334017
 20
30.18651902403775
 30
0.0
 10
90.18950261206727
 20
28.93999375754708
 30
0.0
 10
90.50506863513945
 20
28.17247071695419
 30
0.0
 10
90.6628516466956
 20
27.78870919660898
 30
0.0
 11
90.6628516466956
 21
32.5845407199219
 31
0.0
 11
90.24235905237953
 21
31.41724101677813
 31
0.0
 11
90.08550138003956
 21
30.18646959661982
 31
0.0
 11
90.24239713261298
 21
28.95585859472656
 31
0.0
 11
90.6628516466956
 21
27.78870919660898
 31
0.0
  0
SPLINE
  5
27F
330
1F
100
AcDbEntity
  8
0
  6
Continuous
 62
     3
100
AcDbSpline
210
0.0
220
0.0
230
1.0
 70
     8
 71
     3
 72
    11
 73
     7
 74
     5
 42
0.0000000001
 43
0.0000000001
 44
0.00000001
 40
0.0
 40
0.0
 40
0.0
 40
0.0
 40
1.240726649521583
 40
2.48145329872692
 40
3.722025632432603
 40
4.962597966453506
 40
4.962597966453506
 40
4.962597966453506
 40
4.962597966453506
 10
90.6628516466956
 20
51.63709960317937
 30
0.0
 10
90.50505067274418
 20
51.25328919993607
 30
0.0
 10
90.18944872488152
 20
50.48566839354729
 30
0.0
 10
90.03351423333751
 20
49.23907790729528
 30
0.0
 10
90.18950261206824
 20
47.99255264080453
 30
0.0
 10
90.50506863513976
 20
47.2250296002118
 30
0.0
 10
90.6628516466956
 20
46.84126807986667
 30
0.0
 11
90.6628516466956
 21
51.63709960317937
 31
0.0
 11
90.2423590523858
 21
50.46979990003383
 31
0.0
 11
90.08550138003964
 21
49.23902847987717
 31
0.0
 11
90.24239713261319
 21
48.00841747798407
 31
0.0
 11
90.6628516466956
 21
46.84126807986667
 31
0.0
  0
SPLINE
  5
280
330
1F
100
AcDbEntity
  8
0
  6
Continuous
 62
     3
100
AcDbSpline
210
0.0
220
0.0
230
1.0
 70
     8
 71
     3
 72
    11
 73
     7
 74
     5
 42
0.0000000001
 43
0.0000000001
 44
0.00000001
 40
0.0
 40
0.0
 40
0.0
 40
0.0
 40
2.419354415877135
 40
4.838708831708916
 40
7.257753068606428
 40
9.676797305549428
 40
9.676797305549428
 40
9.676797305549428
 40
9.676797305549428
 10
90.66285164668159
 20
44.5087359232154
 30
0.0
 10
90.50176840518307
 20
43.71765865711809
 30
0.0
 10
90.17960192218905
 20
42.13550412493832
 30
0.0
 10
90.03843753125692
 20
39.71269614415656
 30
0.0
 10
90.17965622283738
 20
37.28999817204222
 30
0.0
 10
90.50178650539917
 20
35.70804797506781
 30
0.0
 10
90.66285164668159
 20
34.91707287657317
 30
0.0
 11
90.66285164668159
 21
44.5087359232154
 31
0.0
 11
90.23661513894234
 21
42.12722417033773
 31
0.0
 11
90.08550138003969
 21
39.71259367660271
 31
0.0
 11
90.23665335081333
 21
37.29827636071436
 31
0.0
 11
90.66285164668159
 21
34.91707287657317
 31
0.0
  0
SPLINE
  5
281
330
1F
100
AcDbEntity
  8
0
  6
Continuous
 62
     3
100
AcDbSpline
210
0.0
220
0.0
230
1.0
 70
     8
 71
     3
 72
    11
 73
     7
 74
     5
 42
0.0000000001
 43
0.0000000001
 44
0.00000001
 40
0.0
 40
0.0
 40
0.0
 40
0.0
 40
2.419085949068298
 40
4.838171898091352
 40
7.257484601803459
 40
9.676797305560983
 40
9.676797305560983
 40
9.676797305560983
 40
9.676797305560983
 10
103.0751384064239
 20
44.50873592320698
 30
0.0
 10
103.2362059816472
 20
43.71774708544113
 30
0.0
 10
103.5583411320906
 20
42.13576940992419
 30
0.0
 10
103.6995525224299
 20
39.71305664414949
 30
0.0
 10
103.5583808291874
 20
37.29026345698789
 30
0.0
 10
103.2362192140127
 20
35.70813640338856
 30
0.0
 10
103.0751384064239
 20
34.91707287658147
 30
0.0
 11
103.0751384064239
 21
44.50873592320698
 31
0.0
 11
103.5013418408642
 21
42.12749098380009
 31
0.0
 11
103.6524886742593
 21
39.7131315524984
 31
0.0
 11
103.5013697760473
 21
37.29854317413119
 31
0.0
 11
103.0751384064239
 21
34.91707287658147
 31
0.0
  0
SPLINE
  5
282
330
1F
100
AcDbEntity
  8
0
  6
Continuous
 62
     3
100
AcDbSpline
210
0.0
220
0.0
230
1.0
 70
     8
 71
     3
 72
    11
 73
     7
 74
     5
 42
0.0000000001
 43
0.0000000001
 44
0.00000001
 40
0.0
 40
0.0
 40
0.0
 40
0.0
 40
1.400678983576528
 40
2.801357967153088
 40
4.202037205062375
 40
5.602716442971585
 40
5.602716442971585
 40
5.602716442971585
 40
5.602716442971585
 10
80.49485676614529
 20
33.10801377065985
 30
0.0
 10
80.9616875300253
 20
33.10039102625471
 30
0.0
 10
81.89534905778535
 20
33.08514553744443
 30
0.0
 10
83.29584139688873
 20
33.06227501844172
 30
0.0
 10
84.69633379600172
 20
33.03940298211442
 30
0.0
 10
85.6299954272746
 20
33.02415344790363
 30
0.0
 10
86.09682624291099
 20
33.01652868079822
 30
0.0
 11
80.49485676614529
 21
33.10801377065985
 31
0.0
 11
81.89534905156818
 21
33.0851451567106
 31
0.0
 11
83.29584130799635
 21
33.06227476716932
 31
0.0
 11
84.6963337898401
 21
33.039402604847
 31
0.0
 11
86.09682624291099
 21
33.01652868079822
 31
0.0
  0
SPLINE
  5
283
330
1F
100
AcDbEntity
  8
0
  6
Continuous
 62
     3
100
AcDbSpline
210
0.0
220
0.0
230
1.0
 70
     8
 71
     3
 72
    11
 73
     7
 74
     5
 42
0.0000000001
 43
0.0000000001
 44
0.00000001
 40
0.0
 40
0.0
 40
0.0
 40
0.0
 40
1.40049228030809
 40
2.800984560616101
 40
4.201477022426376
 40
5.601969484236694
 40
5.601969484236694
 40
5.601969484236694
 40
5.601969484236694
 10
80.49485676614529
 20
43.92213803905639
 30
0.0
 10
80.96168752524406
 20
43.92216870622252
 30
0.0
 10
81.8953490434416
 20
43.9222300405548
 30
0.0
 10
83.29584138219924
 20
43.92230626783903
 30
0.0
 10
84.69633378198776
 20
43.9223720271694
 30
0.0
 10
85.62999542260317
 20
43.92240544632999
 30
0.0
 10
86.09682624291091
 20
43.92242215591028
 30
0.0
 11
80.49485676614529
 21
43.92213803905639
 31
0.0
 11
81.89534904360173
 21
43.92222741151856
 31
0.0
 11
83.29584132178684
 21
43.92230452317648
 31
0.0
 11
84.6963337820934
 21
43.92236942207068
 31
0.0
 11
86.09682624291091
 21
43.92242215591028
 31
0.0
  0
SPLINE
  5
284
330
1F
100
AcDbEntity
  8
0
  6
Continuous
 62
     3
100
AcDbSpline
210
0.0
220
0.0
230
1.0
 70
     8
 71
     3
 72
    11
 73
     7
 74
     5
 42
0.0000000001
 43
0.0000000001
 44
0.00000001
 40
0.0
 40
0.0
 40
0.0
 40
0.0
 40
1.400492468968723
 40
2.800984937937503
 40
4.201477211087266
 40
5.601969484236893
 40
5.601969484236893
 40
5.601969484236893
 40
5.601969484236893
 10
86.0968262429111
 20
35.50338664387806
 30
0.0
 10
85.62999542021726
 20
35.50340335345853
 30
0.0
 10
84.69633377482954
 20
35.50343677261949
 30
0.0
 10
83.29584137265478
 20
35.50350253194996
 30
0.0
 10
81.89534903628319
 20
35.5035787592343
 30
0.0
 10
80.96168752285791
 20
35.50364009356614
 30
0.0
 10
80.49485676614529
 20
35.50367076073206
 30
0.0
 11
86.0968262429111
 21
35.50338664387806
 31
0.0
 11
84.6963337749352
 21
35.50343937771817
 31
0.0
 11
83.29584130747013
 21
35.5035042766128
 31
0.0
 11
81.89534903644326
 21
35.50358138827047
 31
0.0
 11
80.49485676614529
 21
35.50367076073206
 31
0.0
  0
SPLINE
  5
285
330
1F
100
AcDbEntity
  8
0
  6
Continuous
 62
     3
100
AcDbSpline
210
0.0
220
0.0
230
1.0
 70
     8
 71
     3
 72
    11
 73
     7
 74
     5
 42
0.0000000001
 43
0.0000000001
 44
0.00000001
 40
0.0
 40
0.0
 40
0.0
 40
0.0
 40
1.40067898349951
 40
2.801357966999149
 40
4.202037204908468
 40
5.602716442817644
 40
5.602716442817644
 40
5.602716442817644
 40
5.602716442817644
 10
80.49485676629959
 20
46.31779502910257
 30
0.0
 10
80.96168753015377
 20
46.32541777351761
 30
0.0
 10
81.89534905786212
 20
46.34066326234769
 30
0.0
 10
83.29584139691434
 20
46.36353378134655
 30
0.0
 10
84.69633379600162
 20
46.38640581767472
 30
0.0
 10
85.62999542727451
 20
46.40165535188507
 30
0.0
 10
86.09682624291091
 20
46.40928011899024
 30
0.0
 11
80.49485676629959
 21
46.31779502910257
 31
0.0
 11
81.89534905164506
 21
46.34066364307587
 31
0.0
 11
83.29584130799627
 21
46.36353403261926
 31
0.0
 11
84.69633378984004
 21
46.38640619494182
 31
0.0
 11
86.09682624291091
 21
46.40928011899024
 31
0.0
  0
SPLINE
  5
286
330
1F
100
AcDbEntity
  8
0
  6
Continuous
 62
     3
100
AcDbSpline
210
0.0
220
0.0
230
1.0
 70
     8
 71
     3
 72
    11
 73
     7
 74
     5
 42
0.0000000001
 43
0.0000000001
 44
0.00000001
 40
0.0
 40
0.0
 40
0.0
 40
0.0
 40
3.214294835973869
 40
6.116583231633465
 40
9.01777356330446
 40
12.23081259398935
 40
12.23081259398935
 40
12.23081259398935
 40
12.23081259398935
 10
31.31707163902732
 20
69.27337630421344
 30
0.0
 10
30.28804245370001
 20
68.96669094424152
 30
0.0
 10
28.32987029432263
 20
68.38308967991526
 30
0.0
 10
25.31624851622637
 20
68.11537992667915
 30
0.0
 10
22.30310056845058
 20
68.38340027994761
 30
0.0
 10
20.3456929987547
 20
68.96679911763448
 30
0.0
 10
19.31707163902743
 20
69.27337630420276
 30
0.0
 11
31.31707163902732
 21
69.27337630421344
 31
0.0
 11
28.20625961680246
 21
68.46433992990782
 31
0.0
 11
25.31589027540261
 21
68.20157957925322
 31
0.0
 11
22.42664367766793
 21
68.46456140003141
 31
0.0
 11
19.31707163902743
 21
69.27337630420276
 31
0.0
  0
SPLINE
  5
287
330
1F
100
AcDbEntity
  8
0
  6
Continuous
 62
     3
100
AcDbSpline
210
0.0
220
0.0
230
1.0
 70
     8
 71
     3
 72
    11
 73
     7
 74
     5
 42
0.0000000001
 43
0.0000000001
 44
0.00000001
 40
0.0
 40
0.0
 40
0.0
 40
0.0
 40
3.214294835977156
 40
6.116583231626677
 40
9.017773562482546
 40
12.23081259397912
 40
12.23081259397912
 40
12.23081259397912
 40
12.23081259397912
 10
43.3170716390147
 20
69.27337630420918
 30
0.0
 10
42.28804245368615
 20
68.9666909442374
 30
0.0
 10
40.3298702943106
 20
68.38308967991267
 30
0.0
 10
37.31624851648863
 20
68.11537992670536
 30
0.0
 10
34.30310056871846
 20
68.38340027989203
 30
0.0
 10
32.34569299901762
 20
68.96679911757147
 30
0.0
 10
31.31707163902732
 20
69.27337630421344
 30
0.0
 11
43.3170716390147
 21
69.27337630420918
 31
0.0
 11
40.20625961678608
 21
68.46433992990495
 31
0.0
 11
37.31589027539607
 21
68.20157957925339
 31
0.0
 11
34.42664367846703
 21
68.46456139989036
 31
0.0
 11
31.31707163902732
 21
69.27337630421344
 31
0.0
  0
SPLINE
  5
288
330
1F
100
AcDbEntity
  8
0
  6
Continuous
 62
     3
100
AcDbSpline
210
0.0
220
0.0
230
1.0
 70
     8
 71
     3
 72
    11
 73
     7
 74
     5
 42
0.0000000001
 43
0.0000000001
 44
0.00000001
 40
0.0
 40
0.0
 40
0.0
 40
0.0
 40
3.213039030686513
 40
6.114229362349574
 40
9.01651775800061
 40
12.2308125939897
 40
12.2308125939897
 40
12.2308125939897
 40
12.2308125939897
 10
19.31707163902692
 20
81.55243249558491
 30
0.0
 10
20.34569299875471
 20
81.85900968215336
 30
0.0
 10
22.30310056844856
 20
82.44240851983969
 30
0.0
 10
25.31624851621925
 20
82.71042887310817
 30
0.0
 10
28.32987029431517
 20
82.44271911987391
 30
0.0
 10
30.28804245369486
 20
81.85911785554747
 30
0.0
 10
31.31707163902715
 20
81.55243249557434
 30
0.0
 11
19.31707163902692
 21
81.55243249558491
 31
0.0
 11
22.42664367766899
 21
82.36124739975665
 31
0.0
 11
25.31589027539573
 21
82.62422922053456
 31
0.0
 11
28.20625961678721
 21
82.36146886988244
 31
0.0
 11
31.31707163902715
 21
81.55243249557434
 31
0.0
  0
SPLINE
  5
289
330
1F
100
AcDbEntity
  8
0
  6
Continuous
 62
     3
100
AcDbSpline
210
0.0
220
0.0
230
1.0
 70
     8
 71
     3
 72
    11
 73
     7
 74
     5
 42
0.0000000001
 43
0.0000000001
 44
0.00000001
 40
0.0
 40
0.0
 40
0.0
 40
0.0
 40
3.213039031473421
 40
6.114229362352431
 40
9.016517758011588
 40
12.23081259399247
 40
12.23081259399247
 40
12.23081259399247
 40
12.23081259399247
 10
31.31707163902715
 20
81.55243249557434
 30
0.0
 10
32.34569299900992
 20
81.8590096822143
 30
0.0
 10
34.30310056871053
 20
82.44240851989413
 30
0.0
 10
37.31624851648397
 20
82.71042887308363
 30
0.0
 10
40.32987029431808
 20
82.44271911987357
 30
0.0
 10
42.28804245369766
 20
81.8591178555468
 30
0.0
 10
43.31707163902726
 20
81.55243249557428
 30
0.0
 11
31.31707163902715
 21
81.55243249557434
 31
0.0
 11
34.42664367844399
 21
82.36124739989339
 31
0.0
 11
37.3158902753959
 21
82.62422922053445
 31
0.0
 11
40.20625961679541
 21
82.36146886988087
 31
0.0
 11
43.31707163902726
 21
81.55243249557428
 31
0.0
  0
SPLINE
  5
28A
330
1F
100
AcDbEntity
  8
0
  6
Continuous
 62
     3
100
AcDbSpline
210
0.0
220
0.0
230
1.0
 70
     8
 71
     3
 72
    11
 73
     7
 74
     5
 42
0.0000000001
 43
0.0000000001
 44
0.00000001
 40
0.0
 40
0.0
 40
0.0
 40
0.0
 40
1.969968272101366
 40
3.659153005036792
 40
5.347731765666564
 40
7.316956465536094
 40
7.316956465536094
 40
7.316956465536094
 40
7.316956465536094
 10
129.3686230132528
 20
69.27337630420287
 30
0.0
 10
128.7833512717915
 20
68.96824712681129
 30
0.0
 10
127.6962277470828
 20
68.40147944725584
 30
0.0
 10
125.9040273117104
 20
68.10922765304743
 30
0.0
 10
124.1121716948973
 20
68.4017874990228
 30
0.0
 10
123.0254630888243
 20
68.96835664651927
 30
0.0
 10
122.4404197829853
 20
69.27337630421344
 30
0.0
 11
129.3686230132528
 21
69.27337630420287
 31
0.0
 11
127.5724683136716
 21
68.46430072784527
 31
0.0
 11
125.9038393375164
 21
68.20157957925345
 31
0.0
 11
124.2358586913306
 21
68.46452214864767
 31
0.0
 11
122.4404197829853
 21
69.27337630421344
 31
0.0
  0
SPLINE
  5
28B
330
1F
100
AcDbEntity
  8
0
  6
Continuous
 62
     3
100
AcDbSpline
210
0.0
220
0.0
230
1.0
 70
     8
 71
     3
 72
    11
 73
     7
 74
     5
 42
0.0000000001
 43
0.0000000001
 44
0.00000001
 40
0.0
 40
0.0
 40
0.0
 40
0.0
 40
3.681281953587591
 40
7.028516894403159
 40
10.37575183498637
 40
14.05703378877351
 40
14.05703378877351
 40
14.05703378877351
 40
14.05703378877351
 10
129.3686230120096
 20
81.5524324952131
 30
0.0
 10
130.5588635484459
 20
81.85925722635574
 30
0.0
 10
132.8313397739067
 20
82.44506478840769
 30
0.0
 10
136.2968262428207
 20
82.70955389435144
 30
0.0
 10
139.7623127118207
 20
82.44506478863522
 30
0.0
 10
142.0347889372976
 20
81.85925722668294
 30
0.0
 10
143.2250294738124
 20
81.5524324955744
 30
0.0
 11
129.3686230120096
 21
81.5524324952131
 31
0.0
 11
132.9599298125985
 21
82.36135293991302
 31
0.0
 11
136.2968262429014
 21
82.62422926529904
 31
0.0
 11
139.6337226729893
 21
82.36135294014268
 31
0.0
 11
143.2250294738124
 21
81.5524324955744
 31
0.0
  0
SPLINE
  5
28C
330
1F
100
AcDbEntity
  8
0
  6
Continuous
 62
     3
100
AcDbSpline
210
0.0
220
0.0
230
1.0
 70
     8
 71
     3
 72
    11
 73
     7
 74
     5
 42
0.0000000001
 43
0.0000000001
 44
0.00000001
 40
0.0
 40
0.0
 40
0.0
 40
0.0
 40
1.969224699859609
 40
3.657803460483781
 40
5.346988193277003
 40
7.31695646451983
 40
7.31695646451983
 40
7.31695646451983
 40
7.31695646451983
 10
122.4404197829937
 20
81.55243249558497
 30
0.0
 10
123.0254630888323
 20
81.85745215327698
 30
0.0
 10
124.1121716949054
 20
82.42402130076992
 30
0.0
 10
125.9040273116458
 20
82.71658114671828
 30
0.0
 10
127.696227746756
 20
82.42432935266093
 30
0.0
 10
128.7833512709308
 20
81.85756167274772
 30
0.0
 10
129.3686230120096
 20
81.5524324952131
 30
0.0
 11
122.4404197829937
 21
81.55243249558497
 31
0.0
 11
124.2358586913323
 21
82.3612866511416
 31
0.0
 11
125.9038393375126
 21
82.62422922053439
 31
0.0
 11
127.5724683135165
 21
82.36150807189581
 31
0.0
 11
129.3686230120096
 21
81.5524324952131
 31
0.0
  0
SPLINE
  5
28D
330
1F
100
AcDbEntity
  8
0
  6
Continuous
 62
     3
100
AcDbSpline
210
0.0
220
0.0
230
1.0
 70
     8
 71
     3
 72
    11
 73
     7
 74
     5
 42
0.0000000001
 43
0.0000000001
 44
0.00000001
 40
0.0
 40
0.0
 40
0.0
 40
0.0
 40
1.969224701408668
 40
3.657803460499035
 40
5.346988193436664
 40
7.316956465551346
 40
7.316956465551346
 40
7.316956465551346
 40
7.316956465551346
 10
143.2250294738124
 20
81.5524324955744
 30
0.0
 10
143.8100727801278
 20
81.85745215349287
 30
0.0
 10
144.8967813862363
 20
82.4240213009631
 30
0.0
 10
146.6886370030496
 20
82.71658114665271
 30
0.0
 10
148.4808374379117
 20
82.42432935253262
 30
0.0
 10
149.5679609626234
 20
81.85756167297038
 30
0.0
 10
150.1532327040877
 20
81.5524324955744
 30
0.0
 11
143.2250294738124
 21
81.5524324955744
 31
0.0
 11
145.0204683836396
 21
82.36128665159795
 31
0.0
 11
146.6884490283391
 21
82.62422922053462
 31
0.0
 11
148.3570780044964
 21
82.36150807194198
 31
0.0
 11
150.1532327040877
 21
81.5524324955744
 31
0.0
  0
SPLINE
  5
28E
330
1F
100
AcDbEntity
  8
0
  6
Continuous
 62
     3
100
AcDbSpline
210
0.0
220
0.0
230
1.0
 70
     8
 71
     3
 72
    11
 73
     7
 74
     5
 42
0.0000000001
 43
0.0000000001
 44
0.00000001
 40
0.0
 40
0.0
 40
0.0
 40
0.0
 40
3.682003057958083
 40
7.02987714981408
 40
10.37647623170112
 40
14.05703378407232
 40
14.05703378407232
 40
14.05703378407232
 40
14.05703378407232
 10
143.2250294737977
 20
69.27337630420924
 30
0.0
 10
142.0345531981403
 20
68.96649770058723
 30
0.0
 10
139.7616322266187
 20
68.38058865884796
 30
0.0
 10
136.2958804322512
 20
68.11625483843115
 30
0.0
 10
132.8306581895287
 20
68.38089957037617
 30
0.0
 10
130.5586267332371
 20
68.96660569697998
 30
0.0
 10
129.3686230132528
 20
69.27337630420287
 30
0.0
 11
143.2250294737977
 21
69.27337630420924
 31
0.0
 11
139.6330083865805
 21
68.46434538527016
 31
0.0
 11
136.2954621223155
 21
68.20157957925322
 31
0.0
 11
132.9592122659025
 21
68.4645668612109
 31
0.0
 11
129.3686230132528
 21
69.27337630420287
 31
0.0
  0
SPLINE
  5
28F
330
1F
100
AcDbEntity
  8
0
  6
Continuous
 62
     3
100
AcDbSpline
210
0.0
220
0.0
230
1.0
 70
     8
 71
     3
 72
    11
 73
     7
 74
     5
 42
0.0000000001
 43
0.0000000001
 44
0.00000001
 40
0.0
 40
0.0
 40
0.0
 40
0.0
 40
1.969968272109256
 40
3.659153005048527
 40
5.347731764143536
 40
7.316956465563389
 40
7.316956465563389
 40
7.316956465563389
 40
7.316956465563389
 10
150.1532327040877
 20
69.27337630421344
 30
0.0
 10
149.5679609626251
 20
68.96824712681811
 30
0.0
 10
148.4808374379149
 20
68.40147944725614
 30
0.0
 10
146.6886370030524
 20
68.10922765313472
 30
0.0
 10
144.8967813862339
 20
68.40178749882546
 30
0.0
 10
143.8100727801179
 20
68.96835664629222
 30
0.0
 10
143.2250294737977
 20
69.27337630420924
 30
0.0
 11
150.1532327040877
 21
69.27337630421344
 31
0.0
 11
148.3570780045017
 21
68.4643007278472
 31
0.0
 11
146.688449028343
 21
68.20157957925322
 31
0.0
 11
145.0204683836387
 21
68.46452214818905
 31
0.0
 11
143.2250294737977
 21
69.27337630420924
 31
0.0
  0
ARC
  5
290
330
1F
100
AcDbEntity
  8
1
  6
Continuous
 62
     3
100
AcDbCircle
 10
115.8216176288429
 20
24.11290439989438
 30
0.0
 40
2.0
100
AcDbArc
 50
0.0
 51
90.0
  0
ARC
  5
291
330
1F
100
AcDbEntity
  8
1
  6
Continuous
 62
     3
100
AcDbCircle
 10
148.796826242911
 20
31.46342324541803
 30
0.0
 40
2.5
100
AcDbArc
 50
180.0000000000028
 51
250.0000000000035
  0
ARC
  5
292
330
1F
100
AcDbEntity
  8
1
  6
Continuous
 62
     3
100
AcDbCircle
 10
108.6713230039371
 20
51.81290439989442
 30
0.0
 40
1.5
100
AcDbArc
 50
90.0
 51
104.4576603541575
  0
ARC
  5
293
330
1F
100
AcDbEntity
  8
1
  6
Continuous
 62
     3
100
AcDbCircle
 10
124.2968262429115
 20
55.31290439989442
 30
0.0
 40
2.0
100
AcDbArc
 50
270.0
 51
0.0
  0
ARC
  5
294
330
1F
100
AcDbEntity
  8
1
  6
Continuous
 62
     3
100
AcDbCircle
 10
108.7629561213389
 20
27.71290439989429
 30
0.0
 40
1.599999999999866
100
AcDbArc
 50
253.0623317162749
 51
270.0
  0
ARC
  5
295
330
1F
100
AcDbEntity
  8
1
  6
Continuous
 62
     3
100
AcDbCircle
 10
154.272034856979
 20
26.27807696607164
 30
0.0
 40
0.5
100
AcDbArc
 50
0.0
 51
69.99999999998349
  0
ARC
  5
296
330
1F
100
AcDbEntity
  8
1
  6
Continuous
 62
     3
100
AcDbCircle
 10
118.3216176288429
 20
11.00799216331137
 30
0.0
 40
0.5
100
AcDbArc
 50
180.0
 51
239.999999999996
  0
ARC
  5
297
330
1F
100
AcDbEntity
  8
1
  6
Continuous
 62
     3
100
AcDbCircle
 10
154.272034856979
 20
11.00799216331137
 30
0.0
 40
0.4999999999999395
100
AcDbArc
 50
300.000000000004
 51
0.0
  0
ARC
  5
298
330
1F
100
AcDbEntity
  8
1
  6
Continuous
 62
     3
100
AcDbCircle
 10
145.2968262429105
 20
58.79869014188085
 30
0.0
 40
1.000000000000114
100
AcDbArc
 50
0.0
 51
45.00000000002821
  0
ARC
  5
299
330
1F
100
AcDbEntity
  8
1
  6
Continuous
 62
     3
100
AcDbCircle
 10
127.296826242911
 20
58.79595516603939
 30
0.0
 40
1.000000000000073
100
AcDbArc
 50
134.9999999999755
 51
180.0
  0
LINE
  5
29A
330
1F
100
AcDbEntity
  8
1
 62
     4
100
AcDbLine
 10
136.2968262429112
 20
8.71290439989428
 30
0.0
 11
138.3942430122569
 21
7.38084122974036
 31
0.0
  0
LINE
  5
29B
330
1F
100
AcDbEntity
  8
1
 62
     4
100
AcDbLine
 10
136.2968262429112
 20
8.71290439989428
 30
0.0
 11
137.4472108624111
 21
6.5105954704225
 31
0.0
  0
LEADER
  5
29C
330
1F
100
AcDbEntity
  8
1
  6
Continuous
 62
     4
100
AcDbLeader
  3
Standard
 71
     0
 76
     3
 10
136.2968262429112
 20
8.71290439989428
 30
0.0
 10
144.7635546700552
 20
-0.50088830023216
 30
0.0
 10
159.2460046511732
 20
-0.50088830023216
 30
0.0
  0
LINE
  5
29D
330
1F
100
AcDbEntity
  8
1
 62
     4
100
AcDbLine
 10
136.296826242911
 20
82.91290439989392
 30
0.0
 11
137.6024961031204
 21
85.02685227289217
 31
0.0
  0
LINE
  5
29E
330
1F
100
AcDbEntity
  8
1
 62
     4
100
AcDbLine
 10
136.296826242911
 20
82.91290439989392
 30
0.0
 11
138.4845434473071
 21
84.09080203008179
 31
0.0
  0
LEADER
  5
29F
330
1F
100
AcDbEntity
  8
1
  6
Continuous
 62
     4
100
AcDbLeader
  3
Standard
 71
     0
 76
     3
 10
136.296826242911
 20
82.91290439989392
 30
0.0
 10
143.533609529397
 20
89.73218095831382
 30
0.0
 10
154.017256839168
 20
89.73218095831382
 30
0.0
  0
ENDSEC
  0
SECTION
  2
OBJECTS
  0
DICTIONARY
  5
C
330
0
100
AcDbDictionary
281
     1
  3
ACAD_GROUP
350
D
  3
ACAD_LAYOUT
350
1A
  3
ACAD_MATERIAL
350
3B
  3
ACAD_MLEADERSTYLE
350
2A2
  3
ACAD_MLINESTYLE
350
17
  3
ACAD_PLOTSETTINGS
350
19
  3
ACAD_PLOTSTYLENAME
350
E
  3
ACAD_VISUALSTYLE
350
2A
  3
AcDbVariableDictionary
350
2A0
  0
DICTIONARY
  5
D
102
{ACAD_REACTORS
330
C
102
}
330
C
100
AcDbDictionary
281
     1
  0
DICTIONARY
  5
1A
102
{ACAD_REACTORS
330
C
102
}
330
C
100
AcDbDictionary
281
     1
  3
Layout1
350
1E
  3
Layout2
350
26
  3
Model
350
22
  0
DICTIONARY
  5
3B
102
{ACAD_REACTORS
330
C
102
}
330
C
100
AcDbDictionary
281
     1
  3
ByBlock
350
3D
  3
ByLayer
350
3C
  3
Global
350
3E
  0
DICTIONARY
  5
2A2
102
{ACAD_REACTORS
330
C
102
}
330
C
100
AcDbDictionary
281
     1
  0
DICTIONARY
  5
17
102
{ACAD_REACTORS
330
C
102
}
330
C
100
AcDbDictionary
281
     1
  3
Standard
350
18
  0
DICTIONARY
  5
19
102
{ACAD_REACTORS
330
C
102
}
330
C
100
AcDbDictionary
281
     1
  0
ACDBDICTIONARYWDFLT
  5
E
102
{ACAD_REACTORS
330
C
102
}
330
C
100
AcDbDictionary
281
     1
  3
Normal
350
F
100
AcDbDictionaryWithDefault
340
F
  0
DICTIONARY
  5
2A
102
{ACAD_REACTORS
330
C
102
}
330
C
100
AcDbDictionary
281
     1
  3
2dWireframe
350
2F
  3
3D Hidden
350
31
  3
3dWireframe
350
30
  3
Basic
350
32
  3
Brighten
350
36
  3
ColorChange
350
3A
  3
Conceptual
350
34
  3
Dim
350
35
  3
Facepattern
350
39
  3
Flat
350
2B
  3
FlatWithEdges
350
2C
  3
Gouraud
350
2D
  3
GouraudWithEdges
350
2E
  3
Linepattern
350
38
  3
Realistic
350
33
  3
Thicken
350
37
  0
DICTIONARY
  5
2A0
102
{ACAD_REACTORS
330
C
102
}
330
C
100
AcDbDictionary
281
     1
  3
DIMASSOC
350
2A3
  3
HIDETEXT
350
2A4
  0
LAYOUT
  5
1E
102
{ACAD_REACTORS
330
1A
102
}
330
1A
100
AcDbPlotSettings
  1

  2
none_device
  4

  6

 40
0.0
 41
0.0
 42
0.0
 43
0.0
 44
0.0
 45
0.0
 46
0.0
 47
0.0
 48
0.0
 49
0.0
140
0.0
141
0.0
142
1.0
143
1.0
 70
   688
 72
     0
 73
     0
 74
     5
  7

 75
    16
147
1.0
148
0.0
149
0.0
100
AcDbLayout
  1
Layout1
 70
     1
 71
     1
 10
0.0
 20
0.0
 11
12.0
 21
9.0
 12
0.0
 22
0.0
 32
0.0
 14
1.00000000000000E+20
 24
1.00000000000000E+20
 34
1.00000000000000E+20
 15
-1.00000000000000E+20
 25
-1.00000000000000E+20
 35
-1.00000000000000E+20
146
0.0
 13
0.0
 23
0.0
 33
0.0
 16
1.0
 26
0.0
 36
0.0
 17
0.0
 27
1.0
 37
0.0
 76
     0
330
1B
  0
LAYOUT
  5
26
102
{ACAD_REACTORS
330
1A
102
}
330
1A
100
AcDbPlotSettings
  1

  2
none_device
  4

  6

 40
0.0
 41
0.0
 42
0.0
 43
0.0
 44
0.0
 45
0.0
 46
0.0
 47
0.0
 48
0.0
 49
0.0
140
0.0
141
0.0
142
1.0
143
1.0
 70
   688
 72
     0
 73
     0
 74
     5
  7

 75
    16
147
1.0
148
0.0
149
0.0
100
AcDbLayout
  1
Layout2
 70
     1
 71
     2
 10
0.0
 20
0.0
 11
0.0
 21
0.0
 12
0.0
 22
0.0
 32
0.0
 14
0.0
 24
0.0
 34
0.0
 15
0.0
 25
0.0
 35
0.0
146
0.0
 13
0.0
 23
0.0
 33
0.0
 16
1.0
 26
0.0
 36
0.0
 17
0.0
 27
1.0
 37
0.0
 76
     0
330
23
  0
LAYOUT
  5
22
102
{ACAD_REACTORS
330
1A
102
}
330
1A
100
AcDbPlotSettings
  1

  2
none_device
  4

  6

 40
0.0
 41
0.0
 42
0.0
 43
0.0
 44
0.0
 45
0.0
 46
0.0
 47
0.0
 48
0.0
 49
0.0
140
0.0
141
0.0
142
1.0
143
1.0
 70
  1712
 72
     0
 73
     0
 74
     0
  7

 75
     0
147
1.0
148
0.0
149
0.0
100
AcDbLayout
  1
Model
 70
     1
 71
     0
 10
0.0
 20
0.0
 11
12.0
 21
9.0
 12
0.0
 22
0.0
 32
0.0
 14
14.7170716390314
 24
-5.49497934366642
 34
0.0
 15
159.2460046511732
 25
153.1522146282979
 35
0.0
146
0.0
 13
0.0
 23
0.0
 33
0.0
 16
1.0
 26
0.0
 36
0.0
 17
0.0
 27
1.0
 37
0.0
 76
     0
330
1F
331
29
  0
MATERIAL
  5
3D
102
{ACAD_REACTORS
330
3B
102
}
102
{ACAD_XDICTIONARY
360
2C7
102
}
330
3B
100
AcDbMaterial
  1
ByBlock
  0
MATERIAL
  5
3C
102
{ACAD_REACTORS
330
3B
102
}
102
{ACAD_XDICTIONARY
360
2C5
102
}
330
3B
100
AcDbMaterial
  1
ByLayer
  0
MATERIAL
  5
3E
102
{ACAD_REACTORS
330
3B
102
}
102
{ACAD_XDICTIONARY
360
2C9
102
}
330
3B
100
AcDbMaterial
  1
Global
  0
MLINESTYLE
  5
18
102
{ACAD_REACTORS
330
17
102
}
330
17
100
AcDbMlineStyle
  2
Standard
 70
     0
  3

 62
   256
 51
90.0
 52
90.0
 71
     2
 49
0.5
 62
   256
  6
BYLAYER
 49
-0.5
 62
   256
  6
BYLAYER
  0
ACDBPLACEHOLDER
  5
F
102
{ACAD_REACTORS
330
E
102
}
330
E
  0
VISUALSTYLE
  5
2F
102
{ACAD_REACTORS
330
2A
102
}
102
{ACAD_XDICTIONARY
360
2AD
102
}
330
2A
100
AcDbVisualStyle
  2
2dWireframe
 70
     4
 71
     0
 72
     2
 73
     0
 90
        0
 40
-0.6
 41
-30.0
 62
     5
 63
     7
 74
     1
 91
        4
 64
     7
 65
   257
 75
     1
175
     1
 42
1.0
 92
        0
 66
   257
 43
1.0
 76
     1
 77
     6
 78
     2
 67
     7
 79
     5
170
     0
171
     0
290
     0
174
     0
 93
        1
 44
0.0
173
     0
291
     0
 45
0.0
1001
ACAD
1000
AcDbSavedByObjectVersion
1070
     0
  0
VISUALSTYLE
  5
31
102
{ACAD_REACTORS
330
2A
102
}
102
{ACAD_XDICTIONARY
360
2B1
102
}
330
2A
100
AcDbVisualStyle
  2
3D Hidden
 70
     6
 71
     1
 72
     2
 73
     2
 90
        0
 40
-0.6
 41
-30.0
 62
     5
 63
     7
 74
     2
 91
        2
 64
     7
 65
   257
 75
     2
175
     1
 42
40.0
 92
        0
 66
   257
 43
1.0
 76
     1
 77
     6
 78
     2
 67
     7
 79
     3
170
     0
171
     0
290
     0
174
     0
 93
        1
 44
0.0
173
     0
291
     0
 45
0.0
1001
ACAD
1000
AcDbSavedByObjectVersion
1070
     0
  0
VISUALSTYLE
  5
30
102
{ACAD_REACTORS
330
2A
102
}
102
{ACAD_XDICTIONARY
360
2AF
102
}
330
2A
100
AcDbVisualStyle
  2
3dWireframe
 70
     5
 71
     0
 72
     2
 73
     0
 90
        0
 40
-0.6
 41
-30.0
 62
     5
 63
     7
 74
     1
 91
        4
 64
     7
 65
   257
 75
     1
175
     1
 42
1.0
 92
        0
 66
   257
 43
1.0
 76
     1
 77
     6
 78
     2
 67
     7
 79
     5
170
     0
171
     0
290
     0
174
     0
 93
        1
 44
0.0
173
     0
291
     0
 45
0.0
1001
ACAD
1000
AcDbSavedByObjectVersion
1070
     0
  0
VISUALSTYLE
  5
32
102
{ACAD_REACTORS
330
2A
102
}
102
{ACAD_XDICTIONARY
360
2B3
102
}
330
2A
100
AcDbVisualStyle
  2
Basic
 70
     7
 71
     1
 72
     0
 73
     1
 90
        0
 40
-0.6
 41
-30.0
 62
     5
 63
     7
 74
     0
 91
        4
 64
     7
 65
   257
 75
     1
175
     1
 42
1.0
 92
        8
 66
     7
 43
1.0
 76
     1
 77
     6
 78
     2
 67
     7
 79
     5
170
     0
171
     0
290
     0
174
     0
 93
        1
 44
0.0
173
     0
291
     1
 45
0.0
1001
ACAD
1000
AcDbSavedByObjectVersion
1070
     0
  0
VISUALSTYLE
  5
36
102
{ACAD_REACTORS
330
2A
102
}
102
{ACAD_XDICTIONARY
360
2BB
102
}
330
2A
100
AcDbVisualStyle
  2
Brighten
 70
    12
 71
     2
 72
     2
 73
     0
 90
        0
 40
-0.6
 41
-30.0
 62
     5
 63
     7
 74
     1
 91
        4
 64
     7
 65
   257
 75
     1
175
     1
 42
1.0
 92
        8
 66
     7
 43
1.0
 76
     1
 77
     6
 78
     2
 67
     7
 79
     5
170
     0
171
     0
290
     0
174
     0
 93
        1
 44
50.0
173
     0
291
     1
 45
0.0
1001
ACAD
1000
AcDbSavedByObjectVersion
1070
     0
  0
VISUALSTYLE
  5
3A
102
{ACAD_REACTORS
330
2A
102
}
102
{ACAD_XDICTIONARY
360
2C3
102
}
330
2A
100
AcDbVisualStyle
  2
ColorChange
 70
    16
 71
     2
 72
     2
 73
     3
 90
        0
 40
-0.6
 41
-30.0
 62
     5
 63
     8
 74
     1
 91
        4
 64
     7
 65
   257
 75
     1
175
     1
 42
1.0
 92
        8
 66
     8
 43
1.0
 76
     1
 77
     6
 78
     2
 67
     7
 79
     5
170
     0
171
     0
290
     0
174
     0
 93
        1
 44
0.0
173
     0
291
     1
 45
0.0
1001
ACAD
1000
AcDbSavedByObjectVersion
1070
     0
  0
VISUALSTYLE
  5
34
102
{ACAD_REACTORS
330
2A
102
}
102
{ACAD_XDICTIONARY
360
2B7
102
}
330
2A
100
AcDbVisualStyle
  2
Conceptual
 70
     9
 71
     3
 72
     2
 73
     0
 90
        0
 40
-0.6
 41
-30.0
 62
     5
 63
     7
 74
     2
 91
        2
 64
     7
 65
   257
 75
     1
175
     1
 42
40.0
 92
        8
 66
     7
 43
1.0
 76
     1
 77
     6
 78
     2
 67
     7
 79
     3
170
     0
171
     0
290
     0
174
     0
 93
        1
 44
0.0
173
     0
291
     0
 45
0.0
1001
ACAD
1000
AcDbSavedByObjectVersion
1070
     0
  0
VISUALSTYLE
  5
35
102
{ACAD_REACTORS
330
2A
102
}
102
{ACAD_XDICTIONARY
360
2B9
102
}
330
2A
100
AcDbVisualStyle
  2
Dim
 70
    11
 71
     2
 72
     2
 73
     0
 90
        0
 40
-0.6
 41
-30.0
 62
     5
 63
     7
 74
     1
 91
        4
 64
     7
 65
   257
 75
     1
175
     1
 42
1.0
 92
        8
 66
     7
 43
1.0
 76
     1
 77
     6
 78
     2
 67
     7
 79
     5
170
     0
171
     0
290
     0
174
     0
 93
        1
 44
-50.0
173
     0
291
     1
 45
0.0
1001
ACAD
1000
AcDbSavedByObjectVersion
1070
     0
  0
VISUALSTYLE
  5
39
102
{ACAD_REACTORS
330
2A
102
}
102
{ACAD_XDICTIONARY
360
2C1
102
}
330
2A
100
AcDbVisualStyle
  2
Facepattern
 70
    15
 71
     2
 72
     2
 73
     0
 90
        0
 40
-0.6
 41
-30.0
 62
     5
 63
     7
 74
     1
 91
        4
 64
     7
 65
   257
 75
     1
175
     1
 42
1.0
 92
        8
 66
     7
 43
1.0
 76
     1
 77
     6
 78
     2
 67
     7
 79
     5
170
     0
171
     0
290
     0
174
     0
 93
        1
 44
0.0
173
     0
291
     1
 45
0.0
1001
ACAD
1000
AcDbSavedByObjectVersion
1070
     0
  0
VISUALSTYLE
  5
2B
102
{ACAD_REACTORS
330
2A
102
}
102
{ACAD_XDICTIONARY
360
2A5
102
}
330
2A
100
AcDbVisualStyle
  2
Flat
 70
     0
 71
     2
 72
     1
 73
     1
 90
        2
 40
-0.6
 41
30.0
 62
     5
 63
     7
 74
     0
 91
        4
 64
     7
 65
   257
 75
     1
175
     1
 42
1.0
 92
        8
 66
     7
 43
1.0
 76
     1
 77
     6
 78
     2
 67
     7
 79
     5
170
     0
171
     0
290
     0
174
     0
 93
       13
 44
0.0
173
     0
291
     1
 45
0.0
1001
ACAD
1000
AcDbSavedByObjectVersion
1070
     0
  0
VISUALSTYLE
  5
2C
102
{ACAD_REACTORS
330
2A
102
}
102
{ACAD_XDICTIONARY
360
2A7
102
}
330
2A
100
AcDbVisualStyle
  2
FlatWithEdges
 70
     1
 71
     2
 72
     1
 73
     1
 90
        2
 40
-0.6
 41
30.0
 62
     5
 63
     7
 74
     1
 91
        4
 64
     7
 65
   257
 75
     1
175
     1
 42
1.0
 92
        0
 66
   257
 43
1.0
 76
     1
 77
     6
 78
     2
 67
     7
 79
     5
170
     0
171
     0
290
     0
174
     0
 93
       13
 44
0.0
173
     0
291
     1
 45
0.0
1001
ACAD
1000
AcDbSavedByObjectVersion
1070
     0
  0
VISUALSTYLE
  5
2D
102
{ACAD_REACTORS
330
2A
102
}
102
{ACAD_XDICTIONARY
360
2A9
102
}
330
2A
100
AcDbVisualStyle
  2
Gouraud
 70
     2
 71
     2
 72
     2
 73
     1
 90
        2
 40
-0.6
 41
30.0
 62
     5
 63
     7
 74
     0
 91
        4
 64
     7
 65
   257
 75
     1
175
     1
 42
1.0
 92
        0
 66
     7
 43
1.0
 76
     1
 77
     6
 78
     2
 67
     7
 79
     5
170
     0
171
     0
290
     0
174
     0
 93
       13
 44
0.0
173
     0
291
     1
 45
0.0
1001
ACAD
1000
AcDbSavedByObjectVersion
1070
     0
  0
VISUALSTYLE
  5
2E
102
{ACAD_REACTORS
330
2A
102
}
102
{ACAD_XDICTIONARY
360
2AB
102
}
330
2A
100
AcDbVisualStyle
  2
GouraudWithEdges
 70
     3
 71
     2
 72
     2
 73
     1
 90
        2
 40
-0.6
 41
30.0
 62
     5
 63
     7
 74
     1
 91
        4
 64
     7
 65
   257
 75
     1
175
     1
 42
1.0
 92
        0
 66
   257
 43
1.0
 76
     1
 77
     6
 78
     2
 67
     7
 79
     5
170
     0
171
     0
290
     0
174
     0
 93
       13
 44
0.0
173
     0
291
     1
 45
0.0
1001
ACAD
1000
AcDbSavedByObjectVersion
1070
     0
  0
VISUALSTYLE
  5
38
102
{ACAD_REACTORS
330
2A
102
}
102
{ACAD_XDICTIONARY
360
2BF
102
}
330
2A
100
AcDbVisualStyle
  2
Linepattern
 70
    14
 71
     2
 72
     2
 73
     0
 90
        0
 40
-0.6
 41
-30.0
 62
     5
 63
     7
 74
     1
 91
        4
 64
     7
 65
   257
 75
     7
175
     7
 42
1.0
 92
        8
 66
     7
 43
1.0
 76
     1
 77
     6
 78
     2
 67
     7
 79
     5
170
     0
171
     0
290
     0
174
     0
 93
        1
 44
0.0
173
     0
291
     1
 45
0.0
1001
ACAD
1000
AcDbSavedByObjectVersion
1070
     0
  0
VISUALSTYLE
  5
33
102
{ACAD_REACTORS
330
2A
102
}
102
{ACAD_XDICTIONARY
360
2B5
102
}
330
2A
100
AcDbVisualStyle
  2
Realistic
 70
     8
 71
     2
 72
     2
 73
     0
 90
        0
 40
-0.6
 41
-30.0
 62
     5
 63
     7
 74
     1
 91
        0
 64
     7
 65
   257
 75
     1
175
     1
 42
1.0
 92
        8
 66
     8
 43
1.0
 76
     1
 77
     6
 78
     2
 67
     7
 79
     5
170
     0
171
     0
290
     0
174
     0
 93
       13
 44
0.0
173
     0
291
     0
 45
0.0
1001
ACAD
1000
AcDbSavedByObjectVersion
1070
     0
  0
VISUALSTYLE
  5
37
102
{ACAD_REACTORS
330
2A
102
}
102
{ACAD_XDICTIONARY
360
2BD
102
}
330
2A
100
AcDbVisualStyle
  2
Thicken
 70
    13
 71
     2
 72
     2
 73
     0
 90
        0
 40
-0.6
 41
-30.0
 62
     5
 63
     7
 74
     1
 91
        4
 64
     7
 65
   257
 75
     1
175
     1
 42
1.0
 92
       12
 66
     7
 43
1.0
 76
     1
 77
     6
 78
     2
 67
     7
 79
     5
170
     0
171
     0
290
     0
174
     0
 93
        1
 44
0.0
173
     0
291
     1
 45
0.0
1001
ACAD
1000
AcDbSavedByObjectVersion
1070
     0
  0
DICTIONARYVAR
  5
2A3
102
{ACAD_REACTORS
330
2A0
102
}
330
2A0
100
DictionaryVariables
280
     0
  1
2
  0
DICTIONARYVAR
  5
2A4
102
{ACAD_REACTORS
330
2A0
102
}
330
2A0
100
DictionaryVariables
280
     0
  1
1
  0
DICTIONARY
  5
2C7
330
3D
100
AcDbDictionary
280
     1
281
     1
  3
ACAD_XREC_ROUNDTRIP
360
2C8
  0
DICTIONARY
  5
2C5
330
3C
100
AcDbDictionary
280
     1
281
     1
  3
ACAD_XREC_ROUNDTRIP
360
2C6
  0
DICTIONARY
  5
2C9
330
3E
100
AcDbDictionary
280
     1
281
     1
  3
ACAD_XREC_ROUNDTRIP
360
2CA
  0
DICTIONARY
  5
2AD
330
2F
100
AcDbDictionary
280
     1
281
     1
  3
ACAD_XREC_ROUNDTRIP
360
2AE
  0
DICTIONARY
  5
2B1
330
31
100
AcDbDictionary
280
     1
281
     1
  3
ACAD_XREC_ROUNDTRIP
360
2B2
  0
DICTIONARY
  5
2AF
330
30
100
AcDbDictionary
280
     1
281
     1
  3
ACAD_XREC_ROUNDTRIP
360
2B0
  0
DICTIONARY
  5
2B3
330
32
100
AcDbDictionary
280
     1
281
     1
  3
ACAD_XREC_ROUNDTRIP
360
2B4
  0
DICTIONARY
  5
2BB
330
36
100
AcDbDictionary
280
     1
281
     1
  3
ACAD_XREC_ROUNDTRIP
360
2BC
  0
DICTIONARY
  5
2C3
330
3A
100
AcDbDictionary
280
     1
281
     1
  3
ACAD_XREC_ROUNDTRIP
360
2C4
  0
DICTIONARY
  5
2B7
330
34
100
AcDbDictionary
280
     1
281
     1
  3
ACAD_XREC_ROUNDTRIP
360
2B8
  0
DICTIONARY
  5
2B9
330
35
100
AcDbDictionary
280
     1
281
     1
  3
ACAD_XREC_ROUNDTRIP
360
2BA
  0
DICTIONARY
  5
2C1
330
39
100
AcDbDictionary
280
     1
281
     1
  3
ACAD_XREC_ROUNDTRIP
360
2C2
  0
DICTIONARY
  5
2A5
330
2B
100
AcDbDictionary
280
     1
281
     1
  3
ACAD_XREC_ROUNDTRIP
360
2A6
  0
DICTIONARY
  5
2A7
330
2C
100
AcDbDictionary
280
     1
281
     1
  3
ACAD_XREC_ROUNDTRIP
360
2A8
  0
DICTIONARY
  5
2A9
330
2D
100
AcDbDictionary
280
     1
281
     1
  3
ACAD_XREC_ROUNDTRIP
360
2AA
  0
DICTIONARY
  5
2AB
330
2E
100
AcDbDictionary
280
     1
281
     1
  3
ACAD_XREC_ROUNDTRIP
360
2AC
  0
DICTIONARY
  5
2BF
330
38
100
AcDbDictionary
280
     1
281
     1
  3
ACAD_XREC_ROUNDTRIP
360
2C0
  0
DICTIONARY
  5
2B5
330
33
100
AcDbDictionary
280
     1
281
     1
  3
ACAD_XREC_ROUNDTRIP
360
2B6
  0
DICTIONARY
  5
2BD
330
37
100
AcDbDictionary
280
     1
281
     1
  3
ACAD_XREC_ROUNDTRIP
360
2BE
  0
XRECORD
  5
2C8
102
{ACAD_REACTORS
330
2C7
102
}
330
2C7
100
AcDbXrecord
280
     1
102
MATERIAL
148
0.0
149
0.0
149
0.0
 93
        0
 94
      127
282
     0
 72
     1
 77
     1
171
     1
175
     1
179
     1
273
     0
  0
XRECORD
  5
2C6
102
{ACAD_REACTORS
330
2C5
102
}
330
2C5
100
AcDbXrecord
280
     1
102
MATERIAL
148
0.0
149
0.0
149
0.0
 93
        0
 94
      127
282
     0
 72
     1
 77
     1
171
     1
175
     1
179
     1
273
     0
  0
XRECORD
  5
2CA
102
{ACAD_REACTORS
330
2C9
102
}
330
2C9
100
AcDbXrecord
280
     1
102
MATERIAL
148
0.0
149
0.0
149
0.0
 93
        0
 94
      127
282
     0
 72
     1
 77
     1
171
     1
175
     1
179
     1
273
     0
  0
XRECORD
  5
2AE
102
{ACAD_REACTORS
330
2AD
102
}
330
2AD
100
AcDbXrecord
280
     1
102
RTVSPropertyOp0
 70
     1
102
RTVSPropertyOp1
 70
     1
102
RTVSPropertyOp2
 70
     1
102
RTVSPropertyOp3
 70
     1
102
RTVSPropertyOp4
 70
     1
102
RTVSPropertyOp5
 70
     1
102
RTVSPropertyOp6
 70
     1
102
RTVSPropertyOp7
 70
     1
102
RTVSPropertyOp8
 70
     1
102
RTVSPropertyOp9
 70
     1
102
RTVSPropertyOp10
 70
     1
102
RTVSPropertyOp11
 70
     1
102
RTVSPropertyOp12
 70
     1
102
RTVSPropertyOp13
 70
     1
102
RTVSPropertyOp14
 70
     1
102
RTVSPropertyOp15
 70
     1
102
RTVSPropertyOp16
 70
     1
102
RTVSPropertyOp17
 70
     1
102
RTVSPropertyOp18
 70
     1
102
RTVSPropertyOp19
 70
     1
102
RTVSPropertyOp20
 70
     1
102
RTVSPropertyOp21
 70
     1
102
RTVSPropertyOp22
 70
     1
102
RTVSPropertyOp23
 70
     1
102
RTVSPropertyOp24
 70
     1
102
RTVSPropertyOp25
 70
     1
102
RTVSPropertyOp26
 70
     1
102
RTVSPropertyOp27
 70
     1
  0
XRECORD
  5
2B2
102
{ACAD_REACTORS
330
2B1
102
}
330
2B1
100
AcDbXrecord
280
     1
102
RTVSPropertyOp0
 70
     1
102
RTVSPropertyOp1
 70
     1
102
RTVSPropertyOp2
 70
     1
102
RTVSPropertyOp3
 70
     1
102
RTVSPropertyOp4
 70
     1
102
RTVSPropertyOp5
 70
     1
102
RTVSPropertyOp6
 70
     1
102
RTVSPropertyOp7
 70
     1
102
RTVSPropertyOp8
 70
     1
102
RTVSPropertyOp9
 70
     1
102
RTVSPropertyOp10
 70
     1
102
RTVSPropertyOp11
 70
     1
102
RTVSPropertyOp12
 70
     1
102
RTVSPropertyOp13
 70
     1
102
RTVSPropertyOp14
 70
     1
102
RTVSPropertyOp15
 70
     1
102
RTVSPropertyOp16
 70
     1
102
RTVSPropertyOp17
 70
     1
102
RTVSPropertyOp18
 70
     1
102
RTVSPropertyOp19
 70
     1
102
RTVSPropertyOp20
 70
     1
102
RTVSPropertyOp21
 70
     1
102
RTVSPropertyOp22
 70
     1
102
RTVSPropertyOp23
 70
     1
102
RTVSPropertyOp24
 70
     1
102
RTVSPropertyOp25
 70
     1
102
RTVSPropertyOp26
 70
     1
102
RTVSPropertyOp27
 70
     1
  0
XRECORD
  5
2B0
102
{ACAD_REACTORS
330
2AF
102
}
330
2AF
100
AcDbXrecord
280
     1
102
RTVSPropertyOp0
 70
     1
102
RTVSPropertyOp1
 70
     1
102
RTVSPropertyOp2
 70
     1
102
RTVSPropertyOp3
 70
     1
102
RTVSPropertyOp4
 70
     1
102
RTVSPropertyOp5
 70
     1
102
RTVSPropertyOp6
 70
     1
102
RTVSPropertyOp7
 70
     1
102
RTVSPropertyOp8
 70
     1
102
RTVSPropertyOp9
 70
     1
102
RTVSPropertyOp10
 70
     1
102
RTVSPropertyOp11
 70
     1
102
RTVSPropertyOp12
 70
     1
102
RTVSPropertyOp13
 70
     1
102
RTVSPropertyOp14
 70
     1
102
RTVSPropertyOp15
 70
     1
102
RTVSPropertyOp16
 70
     1
102
RTVSPropertyOp17
 70
     1
102
RTVSPropertyOp18
 70
     1
102
RTVSPropertyOp19
 70
     1
102
RTVSPropertyOp20
 70
     1
102
RTVSPropertyOp21
 70
     1
102
RTVSPropertyOp22
 70
     1
102
RTVSPropertyOp23
 70
     1
102
RTVSPropertyOp24
 70
     1
102
RTVSPropertyOp25
 70
     1
102
RTVSPropertyOp26
 70
     1
102
RTVSPropertyOp27
 70
     1
  0
XRECORD
  5
2B4
102
{ACAD_REACTORS
330
2B3
102
}
330
2B3
100
AcDbXrecord
280
     1
102
RTVSPropertyOp0
 70
     1
102
RTVSPropertyOp1
 70
     1
102
RTVSPropertyOp2
 70
     1
102
RTVSPropertyOp3
 70
     1
102
RTVSPropertyOp4
 70
     1
102
RTVSPropertyOp5
 70
     1
102
RTVSPropertyOp6
 70
     1
102
RTVSPropertyOp7
 70
     1
102
RTVSPropertyOp8
 70
     1
102
RTVSPropertyOp9
 70
     1
102
RTVSPropertyOp10
 70
     1
102
RTVSPropertyOp11
 70
     1
102
RTVSPropertyOp12
 70
     1
102
RTVSPropertyOp13
 70
     1
102
RTVSPropertyOp14
 70
     1
102
RTVSPropertyOp15
 70
     1
102
RTVSPropertyOp16
 70
     1
102
RTVSPropertyOp17
 70
     1
102
RTVSPropertyOp18
 70
     1
102
RTVSPropertyOp19
 70
     1
102
RTVSPropertyOp20
 70
     1
102
RTVSPropertyOp21
 70
     1
102
RTVSPropertyOp22
 70
     1
102
RTVSPropertyOp23
 70
     1
102
RTVSPropertyOp24
 70
     1
102
RTVSPropertyOp25
 70
     1
102
RTVSPropertyOp26
 70
     1
102
RTVSPropertyOp27
 70
     1
  0
XRECORD
  5
2BC
102
{ACAD_REACTORS
330
2BB
102
}
330
2BB
100
AcDbXrecord
280
     1
102
RTVSPropertyOp0
 70
     1
102
RTVSPropertyOp1
 70
     1
102
RTVSPropertyOp2
 70
     1
102
RTVSPropertyOp3
 70
     1
102
RTVSPropertyOp4
 70
     1
102
RTVSPropertyOp5
 70
     1
102
RTVSPropertyOp6
 70
     1
102
RTVSPropertyOp7
 70
     1
102
RTVSPropertyOp8
 70
     1
102
RTVSPropertyOp9
 70
     1
102
RTVSPropertyOp10
 70
     1
102
RTVSPropertyOp11
 70
     1
102
RTVSPropertyOp12
 70
     1
102
RTVSPropertyOp13
 70
     1
102
RTVSPropertyOp14
 70
     1
102
RTVSPropertyOp15
 70
     1
102
RTVSPropertyOp16
 70
     1
102
RTVSPropertyOp17
 70
     1
102
RTVSPropertyOp18
 70
     1
102
RTVSPropertyOp19
 70
     1
102
RTVSPropertyOp20
 70
     1
102
RTVSPropertyOp21
 70
     1
102
RTVSPropertyOp22
 70
     1
102
RTVSPropertyOp23
 70
     1
102
RTVSPropertyOp24
 70
     1
102
RTVSPropertyOp25
 70
     1
102
RTVSPropertyOp26
 70
     1
102
RTVSPropertyOp27
 70
     1
  0
XRECORD
  5
2C4
102
{ACAD_REACTORS
330
2C3
102
}
330
2C3
100
AcDbXrecord
280
     1
102
RTVSPropertyOp0
 70
     1
102
RTVSPropertyOp1
 70
     1
102
RTVSPropertyOp2
 70
     1
102
RTVSPropertyOp3
 70
     1
102
RTVSPropertyOp4
 70
     1
102
RTVSPropertyOp5
 70
     1
102
RTVSPropertyOp6
 70
     1
102
RTVSPropertyOp7
 70
     1
102
RTVSPropertyOp8
 70
     1
102
RTVSPropertyOp9
 70
     1
102
RTVSPropertyOp10
 70
     1
102
RTVSPropertyOp11
 70
     1
102
RTVSPropertyOp12
 70
     1
102
RTVSPropertyOp13
 70
     1
102
RTVSPropertyOp14
 70
     1
102
RTVSPropertyOp15
 70
     1
102
RTVSPropertyOp16
 70
     1
102
RTVSPropertyOp17
 70
     1
102
RTVSPropertyOp18
 70
     1
102
RTVSPropertyOp19
 70
     1
102
RTVSPropertyOp20
 70
     1
102
RTVSPropertyOp21
 70
     1
102
RTVSPropertyOp22
 70
     1
102
RTVSPropertyOp23
 70
     1
102
RTVSPropertyOp24
 70
     1
102
RTVSPropertyOp25
 70
     1
102
RTVSPropertyOp26
 70
     1
102
RTVSPropertyOp27
 70
     1
  0
XRECORD
  5
2B8
102
{ACAD_REACTORS
330
2B7
102
}
330
2B7
100
AcDbXrecord
280
     1
102
RTVSPropertyOp0
 70
     1
102
RTVSPropertyOp1
 70
     1
102
RTVSPropertyOp2
 70
     1
102
RTVSPropertyOp3
 70
     1
102
RTVSPropertyOp4
 70
     1
102
RTVSPropertyOp5
 70
     1
102
RTVSPropertyOp6
 70
     1
102
RTVSPropertyOp7
 70
     1
102
RTVSPropertyOp8
 70
     1
102
RTVSPropertyOp9
 70
     1
102
RTVSPropertyOp10
 70
     1
102
RTVSPropertyOp11
 70
     1
102
RTVSPropertyOp12
 70
     1
102
RTVSPropertyOp13
 70
     1
102
RTVSPropertyOp14
 70
     1
102
RTVSPropertyOp15
 70
     1
102
RTVSPropertyOp16
 70
     1
102
RTVSPropertyOp17
 70
     1
102
RTVSPropertyOp18
 70
     1
102
RTVSPropertyOp19
 70
     1
102
RTVSPropertyOp20
 70
     1
102
RTVSPropertyOp21
 70
     1
102
RTVSPropertyOp22
 70
     1
102
RTVSPropertyOp23
 70
     1
102
RTVSPropertyOp24
 70
     1
102
RTVSPropertyOp25
 70
     1
102
RTVSPropertyOp26
 70
     1
102
RTVSPropertyOp27
 70
     1
  0
XRECORD
  5
2BA
102
{ACAD_REACTORS
330
2B9
102
}
330
2B9
100
AcDbXrecord
280
     1
102
RTVSPropertyOp0
 70
     1
102
RTVSPropertyOp1
 70
     1
102
RTVSPropertyOp2
 70
     1
102
RTVSPropertyOp3
 70
     1
102
RTVSPropertyOp4
 70
     1
102
RTVSPropertyOp5
 70
     1
102
RTVSPropertyOp6
 70
     1
102
RTVSPropertyOp7
 70
     1
102
RTVSPropertyOp8
 70
     1
102
RTVSPropertyOp9
 70
     1
102
RTVSPropertyOp10
 70
     1
102
RTVSPropertyOp11
 70
     1
102
RTVSPropertyOp12
 70
     1
102
RTVSPropertyOp13
 70
     1
102
RTVSPropertyOp14
 70
     1
102
RTVSPropertyOp15
 70
     1
102
RTVSPropertyOp16
 70
     1
102
RTVSPropertyOp17
 70
     1
102
RTVSPropertyOp18
 70
     1
102
RTVSPropertyOp19
 70
     1
102
RTVSPropertyOp20
 70
     1
102
RTVSPropertyOp21
 70
     1
102
RTVSPropertyOp22
 70
     1
102
RTVSPropertyOp23
 70
     1
102
RTVSPropertyOp24
 70
     1
102
RTVSPropertyOp25
 70
     1
102
RTVSPropertyOp26
 70
     1
102
RTVSPropertyOp27
 70
     1
  0
XRECORD
  5
2C2
102
{ACAD_REACTORS
330
2C1
102
}
330
2C1
100
AcDbXrecord
280
     1
102
RTVSPropertyOp0
 70
     1
102
RTVSPropertyOp1
 70
     1
102
RTVSPropertyOp2
 70
     1
102
RTVSPropertyOp3
 70
     1
102
RTVSPropertyOp4
 70
     1
102
RTVSPropertyOp5
 70
     1
102
RTVSPropertyOp6
 70
     1
102
RTVSPropertyOp7
 70
     1
102
RTVSPropertyOp8
 70
     1
102
RTVSPropertyOp9
 70
     1
102
RTVSPropertyOp10
 70
     1
102
RTVSPropertyOp11
 70
     1
102
RTVSPropertyOp12
 70
     1
102
RTVSPropertyOp13
 70
     1
102
RTVSPropertyOp14
 70
     1
102
RTVSPropertyOp15
 70
     1
102
RTVSPropertyOp16
 70
     1
102
RTVSPropertyOp17
 70
     1
102
RTVSPropertyOp18
 70
     1
102
RTVSPropertyOp19
 70
     1
102
RTVSPropertyOp20
 70
     1
102
RTVSPropertyOp21
 70
     1
102
RTVSPropertyOp22
 70
     1
102
RTVSPropertyOp23
 70
     1
102
RTVSPropertyOp24
 70
     1
102
RTVSPropertyOp25
 70
     1
102
RTVSPropertyOp26
 70
     1
102
RTVSPropertyOp27
 70
     1
  0
XRECORD
  5
2A6
102
{ACAD_REACTORS
330
2A5
102
}
330
2A5
100
AcDbXrecord
280
     1
102
RTVSPropertyOp0
 70
     1
102
RTVSPropertyOp1
 70
     1
102
RTVSPropertyOp2
 70
     1
102
RTVSPropertyOp3
 70
     1
102
RTVSPropertyOp4
 70
     1
102
RTVSPropertyOp5
 70
     1
102
RTVSPropertyOp6
 70
     1
102
RTVSPropertyOp7
 70
     1
102
RTVSPropertyOp8
 70
     1
102
RTVSPropertyOp9
 70
     1
102
RTVSPropertyOp10
 70
     1
102
RTVSPropertyOp11
 70
     1
102
RTVSPropertyOp12
 70
     1
102
RTVSPropertyOp13
 70
     1
102
RTVSPropertyOp14
 70
     1
102
RTVSPropertyOp15
 70
     1
102
RTVSPropertyOp16
 70
     1
102
RTVSPropertyOp17
 70
     1
102
RTVSPropertyOp18
 70
     1
102
RTVSPropertyOp19
 70
     1
102
RTVSPropertyOp20
 70
     1
102
RTVSPropertyOp21
 70
     1
102
RTVSPropertyOp22
 70
     1
102
RTVSPropertyOp23
 70
     1
102
RTVSPropertyOp24
 70
     1
102
RTVSPropertyOp25
 70
     1
102
RTVSPropertyOp26
 70
     1
102
RTVSPropertyOp27
 70
     1
  0
XRECORD
  5
2A8
102
{ACAD_REACTORS
330
2A7
102
}
330
2A7
100
AcDbXrecord
280
     1
102
RTVSPropertyOp0
 70
     1
102
RTVSPropertyOp1
 70
     1
102
RTVSPropertyOp2
 70
     1
102
RTVSPropertyOp3
 70
     1
102
RTVSPropertyOp4
 70
     1
102
RTVSPropertyOp5
 70
     1
102
RTVSPropertyOp6
 70
     1
102
RTVSPropertyOp7
 70
     1
102
RTVSPropertyOp8
 70
     1
102
RTVSPropertyOp9
 70
     1
102
RTVSPropertyOp10
 70
     1
102
RTVSPropertyOp11
 70
     1
102
RTVSPropertyOp12
 70
     1
102
RTVSPropertyOp13
 70
     1
102
RTVSPropertyOp14
 70
     1
102
RTVSPropertyOp15
 70
     1
102
RTVSPropertyOp16
 70
     1
102
RTVSPropertyOp17
 70
     1
102
RTVSPropertyOp18
 70
     1
102
RTVSPropertyOp19
 70
     1
102
RTVSPropertyOp20
 70
     1
102
RTVSPropertyOp21
 70
     1
102
RTVSPropertyOp22
 70
     1
102
RTVSPropertyOp23
 70
     1
102
RTVSPropertyOp24
 70
     1
102
RTVSPropertyOp25
 70
     1
102
RTVSPropertyOp26
 70
     1
102
RTVSPropertyOp27
 70
     1
  0
XRECORD
  5
2AA
102
{ACAD_REACTORS
330
2A9
102
}
330
2A9
100
AcDbXrecord
280
     1
102
RTVSPropertyOp0
 70
     1
102
RTVSPropertyOp1
 70
     1
102
RTVSPropertyOp2
 70
     1
102
RTVSPropertyOp3
 70
     1
102
RTVSPropertyOp4
 70
     1
102
RTVSPropertyOp5
 70
     1
102
RTVSPropertyOp6
 70
     1
102
RTVSPropertyOp7
 70
     1
102
RTVSPropertyOp8
 70
     1
102
RTVSPropertyOp9
 70
     1
102
RTVSPropertyOp10
 70
     1
102
RTVSPropertyOp11
 70
     1
102
RTVSPropertyOp12
 70
     1
102
RTVSPropertyOp13
 70
     1
102
RTVSPropertyOp14
 70
     1
102
RTVSPropertyOp15
 70
     1
102
RTVSPropertyOp16
 70
     1
102
RTVSPropertyOp17
 70
     1
102
RTVSPropertyOp18
 70
     1
102
RTVSPropertyOp19
 70
     1
102
RTVSPropertyOp20
 70
     1
102
RTVSPropertyOp21
 70
     1
102
RTVSPropertyOp22
 70
     1
102
RTVSPropertyOp23
 70
     1
102
RTVSPropertyOp24
 70
     1
102
RTVSPropertyOp25
 70
     1
102
RTVSPropertyOp26
 70
     1
102
RTVSPropertyOp27
 70
     1
  0
XRECORD
  5
2AC
102
{ACAD_REACTORS
330
2AB
102
}
330
2AB
100
AcDbXrecord
280
     1
102
RTVSPropertyOp0
 70
     1
102
RTVSPropertyOp1
 70
     1
102
RTVSPropertyOp2
 70
     1
102
RTVSPropertyOp3
 70
     1
102
RTVSPropertyOp4
 70
     1
102
RTVSPropertyOp5
 70
     1
102
RTVSPropertyOp6
 70
     1
102
RTVSPropertyOp7
 70
     1
102
RTVSPropertyOp8
 70
     1
102
RTVSPropertyOp9
 70
     1
102
RTVSPropertyOp10
 70
     1
102
RTVSPropertyOp11
 70
     1
102
RTVSPropertyOp12
 70
     1
102
RTVSPropertyOp13
 70
     1
102
RTVSPropertyOp14
 70
     1
102
RTVSPropertyOp15
 70
     1
102
RTVSPropertyOp16
 70
     1
102
RTVSPropertyOp17
 70
     1
102
RTVSPropertyOp18
 70
     1
102
RTVSPropertyOp19
 70
     1
102
RTVSPropertyOp20
 70
     1
102
RTVSPropertyOp21
 70
     1
102
RTVSPropertyOp22
 70
     1
102
RTVSPropertyOp23
 70
     1
102
RTVSPropertyOp24
 70
     1
102
RTVSPropertyOp25
 70
     1
102
RTVSPropertyOp26
 70
     1
102
RTVSPropertyOp27
 70
     1
  0
XRECORD
  5
2C0
102
{ACAD_REACTORS
330
2BF
102
}
330
2BF
100
AcDbXrecord
280
     1
102
RTVSPropertyOp0
 70
     1
102
RTVSPropertyOp1
 70
     1
102
RTVSPropertyOp2
 70
     1
102
RTVSPropertyOp3
 70
     1
102
RTVSPropertyOp4
 70
     1
102
RTVSPropertyOp5
 70
     1
102
RTVSPropertyOp6
 70
     1
102
RTVSPropertyOp7
 70
     1
102
RTVSPropertyOp8
 70
     1
102
RTVSPropertyOp9
 70
     1
102
RTVSPropertyOp10
 70
     1
102
RTVSPropertyOp11
 70
     1
102
RTVSPropertyOp12
 70
     1
102
RTVSPropertyOp13
 70
     1
102
RTVSPropertyOp14
 70
     1
102
RTVSPropertyOp15
 70
     1
102
RTVSPropertyOp16
 70
     1
102
RTVSPropertyOp17
 70
     1
102
RTVSPropertyOp18
 70
     1
102
RTVSPropertyOp19
 70
     1
102
RTVSPropertyOp20
 70
     1
102
RTVSPropertyOp21
 70
     1
102
RTVSPropertyOp22
 70
     1
102
RTVSPropertyOp23
 70
     1
102
RTVSPropertyOp24
 70
     1
102
RTVSPropertyOp25
 70
     1
102
RTVSPropertyOp26
 70
     1
102
RTVSPropertyOp27
 70
     1
  0
XRECORD
  5
2B6
102
{ACAD_REACTORS
330
2B5
102
}
330
2B5
100
AcDbXrecord
280
     1
102
RTVSPropertyOp0
 70
     1
102
RTVSPropertyOp1
 70
     1
102
RTVSPropertyOp2
 70
     1
102
RTVSPropertyOp3
 70
     1
102
RTVSPropertyOp4
 70
     1
102
RTVSPropertyOp5
 70
     1
102
RTVSPropertyOp6
 70
     1
102
RTVSPropertyOp7
 70
     1
102
RTVSPropertyOp8
 70
     1
102
RTVSPropertyOp9
 70
     1
102
RTVSPropertyOp10
 70
     1
102
RTVSPropertyOp11
 70
     1
102
RTVSPropertyOp12
 70
     1
102
RTVSPropertyOp13
 70
     1
102
RTVSPropertyOp14
 70
     1
102
RTVSPropertyOp15
 70
     1
102
RTVSPropertyOp16
 70
     1
102
RTVSPropertyOp17
 70
     1
102
RTVSPropertyOp18
 70
     1
102
RTVSPropertyOp19
 70
     1
102
RTVSPropertyOp20
 70
     1
102
RTVSPropertyOp21
 70
     1
102
RTVSPropertyOp22
 70
     1
102
RTVSPropertyOp23
 70
     1
102
RTVSPropertyOp24
 70
     1
102
RTVSPropertyOp25
 70
     1
102
RTVSPropertyOp26
 70
     1
102
RTVSPropertyOp27
 70
     1
  0
XRECORD
  5
2BE
102
{ACAD_REACTORS
330
2BD
102
}
330
2BD
100
AcDbXrecord
280
     1
102
RTVSPropertyOp0
 70
     1
102
RTVSPropertyOp1
 70
     1
102
RTVSPropertyOp2
 70
     1
102
RTVSPropertyOp3
 70
     1
102
RTVSPropertyOp4
 70
     1
102
RTVSPropertyOp5
 70
     1
102
RTVSPropertyOp6
 70
     1
102
RTVSPropertyOp7
 70
     1
102
RTVSPropertyOp8
 70
     1
102
RTVSPropertyOp9
 70
     1
102
RTVSPropertyOp10
 70
     1
102
RTVSPropertyOp11
 70
     1
102
RTVSPropertyOp12
 70
     1
102
RTVSPropertyOp13
 70
     1
102
RTVSPropertyOp14
 70
     1
102
RTVSPropertyOp15
 70
     1
102
RTVSPropertyOp16
 70
     1
102
RTVSPropertyOp17
 70
     1
102
RTVSPropertyOp18
 70
     1
102
RTVSPropertyOp19
 70
     1
102
RTVSPropertyOp20
 70
     1
102
RTVSPropertyOp21
 70
     1
102
RTVSPropertyOp22
 70
     1
102
RTVSPropertyOp23
 70
     1
102
RTVSPropertyOp24
 70
     1
102
RTVSPropertyOp25
 70
     1
102
RTVSPropertyOp26
 70
     1
102
RTVSPropertyOp27
 70
     1
  0
ENDSEC
  0
EOF
