  0
SECTION
  2
HEADER
  9
$ACADVER
  1
AC1015
  9
$ACADMAINTVER
 70
     6
  9
$DWGCODEPAGE
  3
ANSI_932
  9
$INSBASE
 10
0.0
 20
0.0
 30
0.0
  9
$EXTMIN
 10
5.97063140424944
 20
-3.5253946644149
 30
0.0
  9
$EXTMAX
 10
152.043727638329
 20
153.7107915670418
 30
0.0
  9
$LIMMIN
 10
0.0
 20
0.0
  9
$LIMMAX
 10
12.0
 20
9.0
  9
$ORTHOMODE
 70
     0
  9
$REGENMODE
 70
     1
  9
$FILLMODE
 70
     1
  9
$QTEXTMODE
 70
     0
  9
$MIRRTEXT
 70
     1
  9
$LTSCALE
 40
1.0
  9
$ATTMODE
 70
     1
  9
$TEXTSIZE
 40
0.2
  9
$TRACEWID
 40
0.05
  9
$TEXTSTYLE
  7
Standard
  9
$CLAYER
  8
0
  9
$CELTYPE
  6
ByLayer
  9
$CECOLOR
 62
   256
  9
$CELTSCALE
 40
1.0
  9
$DISPSILH
 70
     0
  9
$DIMSCALE
 40
1.0
  9
$DIMASZ
 40
0.18
  9
$DIMEXO
 40
0.0625
  9
$DIMDLI
 40
0.38
  9
$DIMRND
 40
0.0
  9
$DIMDLE
 40
0.0
  9
$DIMEXE
 40
0.18
  9
$DIMTP
 40
0.0
  9
$DIMTM
 40
0.0
  9
$DIMTXT
 40
0.18
  9
$DIMCEN
 40
0.09
  9
$DIMTSZ
 40
0.0
  9
$DIMTOL
 70
     0
  9
$DIMLIM
 70
     0
  9
$DIMTIH
 70
     1
  9
$DIMTOH
 70
     1
  9
$DIMSE1
 70
     0
  9
$DIMSE2
 70
     0
  9
$DIMTAD
 70
     0
  9
$DIMZIN
 70
     0
  9
$DIMBLK
  1

  9
$DIMASO
 70
     1
  9
$DIMSHO
 70
     1
  9
$DIMPOST
  1

  9
$DIMAPOST
  1

  9
$DIMALT
 70
     0
  9
$DIMALTD
 70
     2
  9
$DIMALTF
 40
25.4
  9
$DIMLFAC
 40
1.0
  9
$DIMTOFL
 70
     0
  9
$DIMTVP
 40
0.0
  9
$DIMTIX
 70
     0
  9
$DIMSOXD
 70
     0
  9
$DIMSAH
 70
     0
  9
$DIMBLK1
  1

  9
$DIMBLK2
  1

  9
$DIMSTYLE
  2
Standard
  9
$DIMCLRD
 70
     0
  9
$DIMCLRE
 70
     0
  9
$DIMCLRT
 70
     0
  9
$DIMTFAC
 40
1.0
  9
$DIMGAP
 40
0.09
  9
$DIMJUST
 70
     0
  9
$DIMSD1
 70
     0
  9
$DIMSD2
 70
     0
  9
$DIMTOLJ
 70
     1
  9
$DIMTZIN
 70
     0
  9
$DIMALTZ
 70
     0
  9
$DIMALTTZ
 70
     0
  9
$DIMUPT
 70
     0
  9
$DIMDEC
 70
     4
  9
$DIMTDEC
 70
     4
  9
$DIMALTU
 70
     2
  9
$DIMALTTD
 70
     2
  9
$DIMTXSTY
  7
Standard
  9
$DIMAUNIT
 70
     0
  9
$DIMADEC
 70
     0
  9
$DIMALTRND
 40
0.0
  9
$DIMAZIN
 70
     0
  9
$DIMDSEP
 70
    46
  9
$DIMATFIT
 70
     3
  9
$DIMFRAC
 70
     0
  9
$DIMLDRBLK
  1

  9
$DIMLUNIT
 70
     2
  9
$DIMLWD
 70
    -2
  9
$DIMLWE
 70
    -2
  9
$DIMTMOVE
 70
     0
  9
$LUNITS
 70
     2
  9
$LUPREC
 70
     4
  9
$SKETCHINC
 40
0.1
  9
$FILLETRAD
 40
0.5
  9
$AUNITS
 70
     0
  9
$AUPREC
 70
     0
  9
$MENU
  1
.
  9
$ELEVATION
 40
0.0
  9
$PELEVATION
 40
0.0
  9
$THICKNESS
 40
0.0
  9
$LIMCHECK
 70
     0
  9
$CHAMFERA
 40
0.5
  9
$CHAMFERB
 40
0.5
  9
$CHAMFERC
 40
1.0
  9
$CHAMFERD
 40
0.0
  9
$SKPOLY
 70
     0
  9
$TDCREATE
 40
2458179.469553542
  9
$TDUCREATE
 40
2458179.094553542
  9
$TDUPDATE
 40
2458179.469553553
  9
$TDUUPDATE
 40
2458179.094553553
  9
$TDINDWG
 40
0.0000000116
  9
$TDUSRTIMER
 40
0.0000000116
  9
$USRTIMER
 70
     1
  9
$ANGBASE
 50
0.0
  9
$ANGDIR
 70
     0
  9
$PDMODE
 70
     0
  9
$PDSIZE
 40
0.0
  9
$PLINEWID
 40
0.0
  9
$SPLFRAME
 70
     0
  9
$SPLINETYPE
 70
     6
  9
$SPLINESEGS
 70
     8
  9
$HANDSEED
  5
2A6
  9
$SURFTAB1
 70
     6
  9
$SURFTAB2
 70
     6
  9
$SURFTYPE
 70
     6
  9
$SURFU
 70
     6
  9
$SURFV
 70
     6
  9
$UCSBASE
  2

  9
$UCSNAME
  2

  9
$UCSORG
 10
0.0
 20
0.0
 30
0.0
  9
$UCSXDIR
 10
1.0
 20
0.0
 30
0.0
  9
$UCSYDIR
 10
0.0
 20
1.0
 30
0.0
  9
$UCSORTHOREF
  2

  9
$UCSORTHOVIEW
 70
     0
  9
$UCSORGTOP
 10
0.0
 20
0.0
 30
0.0
  9
$UCSORGBOTTOM
 10
0.0
 20
0.0
 30
0.0
  9
$UCSORGLEFT
 10
0.0
 20
0.0
 30
0.0
  9
$UCSORGRIGHT
 10
0.0
 20
0.0
 30
0.0
  9
$UCSORGFRONT
 10
0.0
 20
0.0
 30
0.0
  9
$UCSORGBACK
 10
0.0
 20
0.0
 30
0.0
  9
$PUCSBASE
  2

  9
$PUCSNAME
  2

  9
$PUCSORG
 10
0.0
 20
0.0
 30
0.0
  9
$PUCSXDIR
 10
1.0
 20
0.0
 30
0.0
  9
$PUCSYDIR
 10
0.0
 20
1.0
 30
0.0
  9
$PUCSORTHOREF
  2

  9
$PUCSORTHOVIEW
 70
     0
  9
$PUCSORGTOP
 10
0.0
 20
0.0
 30
0.0
  9
$PUCSORGBOTTOM
 10
0.0
 20
0.0
 30
0.0
  9
$PUCSORGLEFT
 10
0.0
 20
0.0
 30
0.0
  9
$PUCSORGRIGHT
 10
0.0
 20
0.0
 30
0.0
  9
$PUCSORGFRONT
 10
0.0
 20
0.0
 30
0.0
  9
$PUCSORGBACK
 10
0.0
 20
0.0
 30
0.0
  9
$USERI1
 70
     0
  9
$USERI2
 70
     0
  9
$USERI3
 70
     0
  9
$USERI4
 70
     0
  9
$USERI5
 70
     0
  9
$USERR1
 40
18.0
  9
$USERR2
 40
0.0
  9
$USERR3
 40
0.0
  9
$USERR4
 40
0.0
  9
$USERR5
 40
0.0
  9
$WORLDVIEW
 70
     1
  9
$SHADEDGE
 70
     3
  9
$SHADEDIF
 70
    70
  9
$TILEMODE
 70
     1
  9
$MAXACTVP
 70
    64
  9
$PINSBASE
 10
0.0
 20
0.0
 30
0.0
  9
$PLIMCHECK
 70
     0
  9
$PEXTMIN
 10
1.00000000000000E+20
 20
1.00000000000000E+20
 30
1.00000000000000E+20
  9
$PEXTMAX
 10
-1.00000000000000E+20
 20
-1.00000000000000E+20
 30
-1.00000000000000E+20
  9
$PLIMMIN
 10
0.0
 20
0.0
  9
$PLIMMAX
 10
12.0
 20
9.0
  9
$UNITMODE
 70
     0
  9
$VISRETAIN
 70
     1
  9
$PLINEGEN
 70
     0
  9
$PSLTSCALE
 70
     1
  9
$TREEDEPTH
 70
  3020
  9
$CMLSTYLE
  2
Standard
  9
$CMLJUST
 70
     0
  9
$CMLSCALE
 40
1.0
  9
$PROXYGRAPHICS
 70
     1
  9
$MEASUREMENT
 70
     1
  9
$CELWEIGHT
370
    -1
  9
$ENDCAPS
280
     0
  9
$JOINSTYLE
280
     0
  9
$LWDISPLAY
290
     0
  9
$INSUNITS
 70
     1
  9
$HYPERLINKBASE
  1

  9
$STYLESHEET
  1

  9
$XEDIT
290
     1
  9
$CEPSNTYPE
380
     0
  9
$PSTYLEMODE
290
     1
  9
$FINGERPRINTGUID
  2
{36985A37-A8CC-4C5C-B278-C070A6C80972}
  9
$VERSIONGUID
  2
{FAEB1C32-E019-11D5-929B-00C0DF256EC4}
  9
$EXTNAMES
290
     1
  9
$PSVPSCALE
 40
0.0
  9
$OLESTARTUP
290
     0
  0
ENDSEC
  0
SECTION
  2
CLASSES
  0
CLASS
  1
ACDBDICTIONARYWDFLT
  2
AcDbDictionaryWithDefault
  3
ObjectDBX Classes
 90
        0
280
     0
281
     0
  0
CLASS
  1
VISUALSTYLE
  2
AcDbVisualStyle
  3
ObjectDBX Classes
 90
     4095
280
     0
281
     0
  0
CLASS
  1
MATERIAL
  2
AcDbMaterial
  3
ObjectDBX Classes
 90
     1153
280
     0
281
     0
  0
CLASS
  1

  2
exOdDbCircle
  3

 90
        0
280
     0
281
     1
  0
CLASS
  1

  2
exOdDbSpline
  3

 90
        0
280
     0
281
     1
  0
CLASS
  1
DICTIONARYVAR
  2
AcDbDictionaryVar
  3
ObjectDBX Classes
 90
        0
280
     0
281
     0
  0
CLASS
  1
ACDBPLACEHOLDER
  2
AcDbPlaceHolder
  3
ObjectDBX Classes
 90
        0
280
     0
281
     0
  0
CLASS
  1
LAYOUT
  2
AcDbLayout
  3
ObjectDBX Classes
 90
        0
280
     0
281
     0
  0
ENDSEC
  0
SECTION
  2
TABLES
  0
TABLE
  2
VPORT
  5
8
330
0
100
AcDbSymbolTable
 70
     1
  0
VPORT
  5
29
330
8
100
AcDbSymbolTableRecord
100
AcDbViewportTableRecord
  2
*Active
 70
     0
 10
0.0
 20
0.0
 11
1.0
 21
1.0
 12
79.00717952128922
 22
75.09269845131345
 13
0.0
 23
0.0
 14
0.5
 24
0.5
 15
0.5
 25
0.5
 16
0.0
 26
0.0
 36
1.0
 17
0.0
 27
0.0
 37
0.0
 40
172.9598048546024
 41
1.60267857142857
 42
50.0
 43
0.0
 44
0.0
 50
0.0
 51
0.0
 71
     0
 72
   100
 73
     1
 74
     3
 75
     0
 76
     0
 77
     0
 78
     0
281
     0
 65
     1
110
0.0
120
0.0
130
0.0
111
1.0
121
0.0
131
0.0
112
0.0
122
1.0
132
0.0
 79
     0
146
0.0
  0
ENDTAB
  0
TABLE
  2
LTYPE
  5
5
330
0
100
AcDbSymbolTable
 70
     8
  0
LTYPE
  5
14
330
5
100
AcDbSymbolTableRecord
100
AcDbLinetypeTableRecord
  2
ByBlock
 70
     0
  3

 72
    65
 73
     0
 40
0.0
  0
LTYPE
  5
15
330
5
100
AcDbSymbolTableRecord
100
AcDbLinetypeTableRecord
  2
ByLayer
 70
     0
  3

 72
    65
 73
     0
 40
0.0
  0
LTYPE
  5
16
330
5
100
AcDbSymbolTableRecord
100
AcDbLinetypeTableRecord
  2
Continuous
 70
     0
  3
Solid line
 72
    65
 73
     0
 40
0.0
  0
LTYPE
  5
3F
330
5
100
AcDbSymbolTableRecord
100
AcDbLinetypeTableRecord
  2
DASHED
 70
     0
  3
Dashed
 72
    65
 73
     2
 40
15.0
 49
7.0
 74
     0
 49
-8.0
 74
     0
  0
LTYPE
  5
40
330
5
100
AcDbSymbolTableRecord
100
AcDbLinetypeTableRecord
  2
DOTTED
 70
     0
  3
Dotted
 72
    65
 73
     2
 40
1.0
 49
0.0
 74
     0
 49
-1.0
 74
     0
  0
LTYPE
  5
41
330
5
100
AcDbSymbolTableRecord
100
AcDbLinetypeTableRecord
  2
DOT_CENTER
 70
     0
  3
Dot_Center
 72
    65
 73
     4
 40
14.0
 49
12.0
 74
     0
 49
-1.0
 74
     0
 49
0.0
 74
     0
 49
-1.0
 74
     0
  0
LTYPE
  5
42
330
5
100
AcDbSymbolTableRecord
100
AcDbLinetypeTableRecord
  2
LONG_DASHED
 70
     0
  3
Long_Dashed
 72
    65
 73
     2
 40
15.0
 49
10.0
 74
     0
 49
-5.0
 74
     0
  0
LTYPE
  5
43
330
5
100
AcDbSymbolTableRecord
100
AcDbLinetypeTableRecord
  2
DASH_CENTER
 70
     0
  3
Dash_Center
 72
    65
 73
     4
 40
14.0
 49
11.0
 74
     0
 49
-1.0
 74
     0
 49
1.0
 74
     0
 49
-1.0
 74
     0
  0
LTYPE
  5
44
330
5
100
AcDbSymbolTableRecord
100
AcDbLinetypeTableRecord
  2
PHANTOM
 70
     0
  3
Phantom
 72
    65
 73
     6
 40
13.0
 49
10.0
 74
     0
 49
-1.0
 74
     0
 49
0.0
 74
     0
 49
-1.0
 74
     0
 49
0.0
 74
     0
 49
-1.0
 74
     0
  0
LTYPE
  5
45
330
5
100
AcDbSymbolTableRecord
100
AcDbLinetypeTableRecord
  2
CENTER_DASH_DASH
 70
     0
  3
Center_Dash_Dash
 72
    65
 73
     6
 40
14.0
 49
9.0
 74
     0
 49
-1.0
 74
     0
 49
1.0
 74
     0
 49
-1.0
 74
     0
 49
1.0
 74
     0
 49
-1.0
 74
     0
  0
ENDTAB
  0
TABLE
  2
LAYER
  5
2
330
0
100
AcDbSymbolTable
 70
     6
  0
LAYER
  5
10
330
2
100
AcDbSymbolTableRecord
100
AcDbLayerTableRecord
  2
0
 70
     0
 62
     7
  6
Continuous
370
    -3
390
F
  0
LAYER
  5
46
330
2
100
AcDbSymbolTableRecord
100
AcDbLayerTableRecord
  2
1
 70
     0
 62
     7
  6
Continuous
370
    -3
390
F
  0
LAYER
  5
47
330
2
100
AcDbSymbolTableRecord
100
AcDbLayerTableRecord
  2
100
 70
     0
 62
     7
  6
Continuous
370
    -3
390
F
  0
LAYER
  5
48
330
2
100
AcDbSymbolTableRecord
100
AcDbLayerTableRecord
  2
2
 70
     0
 62
     7
  6
Continuous
370
    -3
390
F
  0
LAYER
  5
49
330
2
100
AcDbSymbolTableRecord
100
AcDbLayerTableRecord
  2
3
 70
     0
 62
     7
  6
Continuous
370
    -3
390
F
  0
LAYER
  5
4A
330
2
100
AcDbSymbolTableRecord
100
AcDbLayerTableRecord
  2
4
 70
     0
 62
     7
  6
Continuous
370
    -3
390
F
  0
ENDTAB
  0
TABLE
  2
STYLE
  5
3
330
0
100
AcDbSymbolTable
 70
     1
  0
STYLE
  5
11
330
3
100
AcDbSymbolTableRecord
100
AcDbTextStyleTableRecord
  2
Standard
 70
     0
 40
0.0
 41
1.0
 50
0.0
 71
     0
 42
0.2
  3
txt
  4

  0
ENDTAB
  0
TABLE
  2
VIEW
  5
6
330
0
100
AcDbSymbolTable
 70
     0
  0
ENDTAB
  0
TABLE
  2
UCS
  5
7
330
0
100
AcDbSymbolTable
 70
     0
  0
ENDTAB
  0
TABLE
  2
APPID
  5
9
330
0
100
AcDbSymbolTable
 70
     1
  0
APPID
  5
12
330
9
100
AcDbSymbolTableRecord
100
AcDbRegAppTableRecord
  2
ACAD
 70
     0
  0
ENDTAB
  0
TABLE
  2
DIMSTYLE
  5
A
330
0
100
AcDbSymbolTable
 70
     1
100
AcDbDimStyleTable
  0
DIMSTYLE
105
27
330
A
100
AcDbSymbolTableRecord
100
AcDbDimStyleTableRecord
  2
Standard
 70
     0
340
11
  0
ENDTAB
  0
TABLE
  2
BLOCK_RECORD
  5
1
330
0
100
AcDbSymbolTable
 70
     1
  0
BLOCK_RECORD
  5
1F
330
1
100
AcDbSymbolTableRecord
100
AcDbBlockTableRecord
  2
*Model_Space
340
22
  0
BLOCK_RECORD
  5
1B
330
1
100
AcDbSymbolTableRecord
100
AcDbBlockTableRecord
  2
*Paper_Space
340
1E
  0
BLOCK_RECORD
  5
23
330
1
100
AcDbSymbolTableRecord
100
AcDbBlockTableRecord
  2
*Paper_Space0
340
26
  0
ENDTAB
  0
ENDSEC
  0
SECTION
  2
BLOCKS
  0
BLOCK
  5
20
330
1F
100
AcDbEntity
  8
0
100
AcDbBlockBegin
  2
*Model_Space
 70
     0
 10
0.0
 20
0.0
 30
0.0
  3
*Model_Space
  1

  0
ENDBLK
  5
21
330
1F
100
AcDbEntity
  8
0
100
AcDbBlockEnd
  0
BLOCK
  5
1C
330
1B
100
AcDbEntity
 67
     1
  8
0
100
AcDbBlockBegin
  2
*Paper_Space
 70
     0
 10
0.0
 20
0.0
 30
0.0
  3
*Paper_Space
  1

  0
ENDBLK
  5
1D
330
1B
100
AcDbEntity
 67
     1
  8
0
100
AcDbBlockEnd
  0
BLOCK
  5
24
330
23
100
AcDbEntity
  8
0
100
AcDbBlockBegin
  2
*Paper_Space0
 70
     0
 10
0.0
 20
0.0
 30
0.0
  3
*Paper_Space0
  1

  0
ENDBLK
  5
25
330
23
100
AcDbEntity
  8
0
100
AcDbBlockEnd
  0
ENDSEC
  0
SECTION
  2
ENTITIES
  0
POINT
  5
4B
330
1F
100
AcDbEntity
  8
1
 62
     3
 60
     1
100
AcDbPoint
 10
-405.498697369847
 20
162.344692871224
 30
0.0
  0
POINT
  5
4C
330
1F
100
AcDbEntity
  8
1
 62
     3
 60
     1
100
AcDbPoint
 10
-388.498697369847
 20
162.344692871224
 30
0.0
  0
LINE
  5
4D
330
1F
100
AcDbEntity
  8
1
  6
Continuous
 62
     4
100
AcDbLine
 10
93.08977634432615
 20
-0.7253946644149
 30
0.0
 11
92.56036457962027
 21
-0.5253946644149
 31
0.0
  0
LINE
  5
4E
330
1F
100
AcDbEntity
  8
1
  6
Continuous
 62
     4
100
AcDbLine
 10
93.44271752079675
 20
-1.2253946644149
 30
0.0
 11
93.08977634432615
 21
-0.7253946644149
 31
0.0
  0
LINE
  5
4F
330
1F
100
AcDbEntity
  8
1
  6
Continuous
 62
     4
100
AcDbLine
 10
93.53095281491439
 20
-2.0253946644149
 30
0.0
 11
93.44271752079675
 21
-1.2253946644149
 31
0.0
  0
LINE
  5
50
330
1F
100
AcDbEntity
  8
1
  6
Continuous
 62
     4
100
AcDbLine
 10
93.44271752079675
 20
-2.8253946644149
 30
0.0
 11
93.53095281491439
 21
-2.0253946644149
 31
0.0
  0
LINE
  5
51
330
1F
100
AcDbEntity
  8
1
  6
Continuous
 62
     4
100
AcDbLine
 10
93.08977634432615
 20
-3.3253946644149
 30
0.0
 11
93.44271752079675
 21
-2.8253946644149
 31
0.0
  0
LINE
  5
52
330
1F
100
AcDbEntity
  8
1
  6
Continuous
 62
     4
100
AcDbLine
 10
92.56036457962027
 20
-3.5253946644149
 30
0.0
 11
93.08977634432615
 21
-3.3253946644149
 31
0.0
  0
LINE
  5
53
330
1F
100
AcDbEntity
  8
1
  6
Continuous
 62
     4
100
AcDbLine
 10
92.03095281491439
 20
-3.3253946644149
 30
0.0
 11
92.56036457962027
 21
-3.5253946644149
 31
0.0
  0
LINE
  5
54
330
1F
100
AcDbEntity
  8
1
  6
Continuous
 62
     4
100
AcDbLine
 10
91.76624693256144
 20
-2.8253946644149
 30
0.0
 11
92.03095281491439
 21
-3.3253946644149
 31
0.0
  0
LINE
  5
55
330
1F
100
AcDbEntity
  8
1
  6
Continuous
 62
     4
100
AcDbLine
 10
91.58977634432615
 20
-2.0253946644149
 30
0.0
 11
91.76624693256144
 21
-2.8253946644149
 31
0.0
  0
LINE
  5
56
330
1F
100
AcDbEntity
  8
1
  6
Continuous
 62
     4
100
AcDbLine
 10
91.76624693256144
 20
-1.2253946644149
 30
0.0
 11
91.58977634432615
 21
-2.0253946644149
 31
0.0
  0
LINE
  5
57
330
1F
100
AcDbEntity
  8
1
  6
Continuous
 62
     4
100
AcDbLine
 10
92.03095281491439
 20
-0.7253946644149
 30
0.0
 11
91.76624693256144
 21
-1.2253946644149
 31
0.0
  0
LINE
  5
58
330
1F
100
AcDbEntity
  8
1
  6
Continuous
 62
     4
100
AcDbLine
 10
92.56036457962027
 20
-0.5253946644149
 30
0.0
 11
92.03095281491439
 21
-0.7253946644149
 31
0.0
  0
LINE
  5
59
330
1F
100
AcDbEntity
  8
1
  6
Continuous
 62
     4
100
AcDbLine
 10
89.11918810903204
 20
-2.0253946644149
 30
0.0
 11
90.70742340314969
 21
-2.0253946644149
 31
0.0
  0
LINE
  5
5A
330
1F
100
AcDbEntity
  8
1
  6
Continuous
 62
     4
100
AcDbLine
 10
88.23683516785556
 20
-0.5253946644149
 30
0.0
 11
88.23683516785556
 21
-3.5253946644149
 31
0.0
  0
LINE
  5
5B
330
1F
100
AcDbEntity
  8
1
  6
Continuous
 62
     4
100
AcDbLine
 10
87.79565869726733
 20
-0.8253946644149
 30
0.0
 11
88.23683516785556
 21
-0.5253946644149
 31
0.0
  0
LINE
  5
5C
330
1F
100
AcDbEntity
  8
1
  6
Continuous
 62
     4
100
AcDbLine
 10
86.47212928550263
 20
-0.7253946644149
 30
0.0
 11
85.94271752079675
 21
-0.5253946644149
 31
0.0
  0
LINE
  5
5D
330
1F
100
AcDbEntity
  8
1
  6
Continuous
 62
     4
100
AcDbLine
 10
86.82507046197323
 20
-1.2253946644149
 30
0.0
 11
86.47212928550263
 21
-0.7253946644149
 31
0.0
  0
LINE
  5
5E
330
1F
100
AcDbEntity
  8
1
  6
Continuous
 62
     4
100
AcDbLine
 10
86.91330575609086
 20
-2.0253946644149
 30
0.0
 11
86.82507046197323
 21
-1.2253946644149
 31
0.0
  0
LINE
  5
5F
330
1F
100
AcDbEntity
  8
1
  6
Continuous
 62
     4
100
AcDbLine
 10
86.82507046197323
 20
-2.8253946644149
 30
0.0
 11
86.91330575609086
 21
-2.0253946644149
 31
0.0
  0
LINE
  5
60
330
1F
100
AcDbEntity
  8
1
  6
Continuous
 62
     4
100
AcDbLine
 10
86.47212928550263
 20
-3.3253946644149
 30
0.0
 11
86.82507046197323
 21
-2.8253946644149
 31
0.0
  0
LINE
  5
61
330
1F
100
AcDbEntity
  8
1
  6
Continuous
 62
     4
100
AcDbLine
 10
85.94271752079675
 20
-3.5253946644149
 30
0.0
 11
86.47212928550263
 21
-3.3253946644149
 31
0.0
  0
LINE
  5
62
330
1F
100
AcDbEntity
  8
1
  6
Continuous
 62
     4
100
AcDbLine
 10
85.41330575609086
 20
-3.3253946644149
 30
0.0
 11
85.94271752079675
 21
-3.5253946644149
 31
0.0
  0
LINE
  5
63
330
1F
100
AcDbEntity
  8
1
  6
Continuous
 62
     4
100
AcDbLine
 10
85.14859987373792
 20
-2.8253946644149
 30
0.0
 11
85.41330575609086
 21
-3.3253946644149
 31
0.0
  0
LINE
  5
64
330
1F
100
AcDbEntity
  8
1
  6
Continuous
 62
     4
100
AcDbLine
 10
84.97212928550263
 20
-2.0253946644149
 30
0.0
 11
85.14859987373792
 21
-2.8253946644149
 31
0.0
  0
LINE
  5
65
330
1F
100
AcDbEntity
  8
1
  6
Continuous
 62
     4
100
AcDbLine
 10
85.14859987373792
 20
-1.2253946644149
 30
0.0
 11
84.97212928550263
 21
-2.0253946644149
 31
0.0
  0
LINE
  5
66
330
1F
100
AcDbEntity
  8
1
  6
Continuous
 62
     4
100
AcDbLine
 10
85.41330575609086
 20
-0.7253946644149
 30
0.0
 11
85.14859987373792
 21
-1.2253946644149
 31
0.0
  0
LINE
  5
67
330
1F
100
AcDbEntity
  8
1
  6
Continuous
 62
     4
100
AcDbLine
 10
85.94271752079675
 20
-0.5253946644149
 30
0.0
 11
85.41330575609086
 21
-0.7253946644149
 31
0.0
  0
LINE
  5
68
330
1F
100
AcDbEntity
  8
1
  6
Continuous
 62
     4
100
AcDbLine
 10
82.41330575609086
 20
-2.0253946644149
 30
0.0
 11
82.41330575609086
 21
-3.5253946644149
 31
0.0
  0
LINE
  5
69
330
1F
100
AcDbEntity
  8
1
  6
Continuous
 62
     4
100
AcDbLine
 10
82.41330575609086
 20
-2.0253946644149
 30
0.0
 11
83.91330575609086
 21
-2.0253946644149
 31
0.0
  0
LINE
  5
6A
330
1F
100
AcDbEntity
  8
1
  6
Continuous
 62
     4
100
AcDbLine
 10
82.41330575609086
 20
-0.5253946644149
 30
0.0
 11
82.41330575609086
 21
-2.0253946644149
 31
0.0
  0
LINE
  5
6B
330
1F
100
AcDbEntity
  8
1
  6
Continuous
 62
     4
100
AcDbLine
 10
84.08977634432615
 20
-0.5253946644149
 30
0.0
 11
82.41330575609086
 21
-0.5253946644149
 31
0.0
  0
LINE
  5
6C
330
1F
100
AcDbEntity
  8
1
  6
Continuous
 62
     4
100
AcDbLine
 10
81.53095281491439
 20
-2.9253946644149
 30
0.0
 11
81.53095281491439
 21
-0.6253946644149
 31
0.0
  0
LINE
  5
6D
330
1F
100
AcDbEntity
  8
1
  6
Continuous
 62
     4
100
AcDbLine
 10
81.3544822266791
 20
-3.2253946644149
 30
0.0
 11
81.53095281491439
 21
-2.9253946644149
 31
0.0
  0
LINE
  5
6E
330
1F
100
AcDbEntity
  8
1
  6
Continuous
 62
     4
100
AcDbLine
 10
81.08977634432615
 20
-3.4253946644149
 30
0.0
 11
81.3544822266791
 21
-3.2253946644149
 31
0.0
  0
LINE
  5
6F
330
1F
100
AcDbEntity
  8
1
  6
Continuous
 62
     4
100
AcDbLine
 10
80.64859987373792
 20
-3.5253946644149
 30
0.0
 11
81.08977634432615
 21
-3.4253946644149
 31
0.0
  0
LINE
  5
70
330
1F
100
AcDbEntity
  8
1
  6
Continuous
 62
     4
100
AcDbLine
 10
80.29565869726733
 20
-3.4253946644149
 30
0.0
 11
80.64859987373792
 21
-3.5253946644149
 31
0.0
  0
LINE
  5
71
330
1F
100
AcDbEntity
  8
1
  6
Continuous
 62
     4
100
AcDbLine
 10
79.94271752079675
 20
-3.2253946644149
 30
0.0
 11
80.29565869726733
 21
-3.4253946644149
 31
0.0
  0
LINE
  5
72
330
1F
100
AcDbEntity
  8
1
  6
Continuous
 62
     4
100
AcDbLine
 10
79.8544822266791
 20
-2.9253946644149
 30
0.0
 11
79.94271752079675
 21
-3.2253946644149
 31
0.0
  0
LINE
  5
73
330
1F
100
AcDbEntity
  8
1
  6
Continuous
 62
     4
100
AcDbLine
 10
79.8544822266791
 20
-0.6253946644149
 30
0.0
 11
79.8544822266791
 21
-2.9253946644149
 31
0.0
  0
LINE
  5
74
330
1F
100
AcDbEntity
  8
1
  6
Continuous
 62
     4
100
AcDbLine
 10
78.5309528149144
 20
-0.7253946644149
 30
0.0
 11
78.00154105020852
 21
-0.5253946644149
 31
0.0
  0
LINE
  5
75
330
1F
100
AcDbEntity
  8
1
  6
Continuous
 62
     4
100
AcDbLine
 10
78.883893991385
 20
-1.2253946644149
 30
0.0
 11
78.5309528149144
 21
-0.7253946644149
 31
0.0
  0
LINE
  5
76
330
1F
100
AcDbEntity
  8
1
  6
Continuous
 62
     4
100
AcDbLine
 10
78.97212928550263
 20
-2.0253946644149
 30
0.0
 11
78.883893991385
 21
-1.2253946644149
 31
0.0
  0
LINE
  5
77
330
1F
100
AcDbEntity
  8
1
  6
Continuous
 62
     4
100
AcDbLine
 10
78.883893991385
 20
-2.8253946644149
 30
0.0
 11
78.97212928550263
 21
-2.0253946644149
 31
0.0
  0
LINE
  5
78
330
1F
100
AcDbEntity
  8
1
  6
Continuous
 62
     4
100
AcDbLine
 10
78.5309528149144
 20
-3.3253946644149
 30
0.0
 11
78.883893991385
 21
-2.8253946644149
 31
0.0
  0
LINE
  5
79
330
1F
100
AcDbEntity
  8
1
  6
Continuous
 62
     4
100
AcDbLine
 10
78.00154105020852
 20
-3.5253946644149
 30
0.0
 11
78.5309528149144
 21
-3.3253946644149
 31
0.0
  0
LINE
  5
7A
330
1F
100
AcDbEntity
  8
1
  6
Continuous
 62
     4
100
AcDbLine
 10
77.47212928550263
 20
-3.3253946644149
 30
0.0
 11
78.00154105020852
 21
-3.5253946644149
 31
0.0
  0
LINE
  5
7B
330
1F
100
AcDbEntity
  8
1
  6
Continuous
 62
     4
100
AcDbLine
 10
77.20742340314969
 20
-2.8253946644149
 30
0.0
 11
77.47212928550263
 21
-3.3253946644149
 31
0.0
  0
LINE
  5
7C
330
1F
100
AcDbEntity
  8
1
  6
Continuous
 62
     4
100
AcDbLine
 10
77.0309528149144
 20
-2.0253946644149
 30
0.0
 11
77.20742340314969
 21
-2.8253946644149
 31
0.0
  0
LINE
  5
7D
330
1F
100
AcDbEntity
  8
1
  6
Continuous
 62
     4
100
AcDbLine
 10
77.20742340314969
 20
-1.2253946644149
 30
0.0
 11
77.0309528149144
 21
-2.0253946644149
 31
0.0
  0
LINE
  5
7E
330
1F
100
AcDbEntity
  8
1
  6
Continuous
 62
     4
100
AcDbLine
 10
77.47212928550263
 20
-0.7253946644149
 30
0.0
 11
77.20742340314969
 21
-1.2253946644149
 31
0.0
  0
LINE
  5
7F
330
1F
100
AcDbEntity
  8
1
  6
Continuous
 62
     4
100
AcDbLine
 10
78.00154105020852
 20
-0.5253946644149
 30
0.0
 11
77.47212928550263
 21
-0.7253946644149
 31
0.0
  0
LINE
  5
80
330
1F
100
AcDbEntity
  8
1
  6
Continuous
 62
     4
100
AcDbLine
 10
74.20742340314969
 20
-3.5253946644149
 30
0.0
 11
76.14859987373792
 21
-3.5253946644149
 31
0.0
  0
LINE
  5
81
330
1F
100
AcDbEntity
  8
1
  6
Continuous
 62
     4
100
AcDbLine
 10
74.38389399138498
 20
-3.0253946644149
 30
0.0
 11
74.20742340314969
 21
-3.5253946644149
 31
0.0
  0
LINE
  5
82
330
1F
100
AcDbEntity
  8
1
  6
Continuous
 62
     4
100
AcDbLine
 10
74.56036457962028
 20
-2.7253946644149
 30
0.0
 11
74.38389399138498
 21
-3.0253946644149
 31
0.0
  0
LINE
  5
83
330
1F
100
AcDbEntity
  8
1
  6
Continuous
 62
     4
100
AcDbLine
 10
74.91330575609086
 20
-2.4253946644149
 30
0.0
 11
74.56036457962028
 21
-2.7253946644149
 31
0.0
  0
LINE
  5
84
330
1F
100
AcDbEntity
  8
1
  6
Continuous
 62
     4
100
AcDbLine
 10
75.26624693256146
 20
-2.2253946644149
 30
0.0
 11
74.91330575609086
 21
-2.4253946644149
 31
0.0
  0
LINE
  5
85
330
1F
100
AcDbEntity
  8
1
  6
Continuous
 62
     4
100
AcDbLine
 10
75.70742340314969
 20
-1.9253946644149
 30
0.0
 11
75.26624693256146
 21
-2.2253946644149
 31
0.0
  0
LINE
  5
86
330
1F
100
AcDbEntity
  8
1
  6
Continuous
 62
     4
100
AcDbLine
 10
75.97212928550263
 20
-1.5253946644149
 30
0.0
 11
75.70742340314969
 21
-1.9253946644149
 31
0.0
  0
LINE
  5
87
330
1F
100
AcDbEntity
  8
1
  6
Continuous
 62
     4
100
AcDbLine
 10
76.06036457962028
 20
-1.1253946644149
 30
0.0
 11
75.97212928550263
 21
-1.5253946644149
 31
0.0
  0
LINE
  5
88
330
1F
100
AcDbEntity
  8
1
  6
Continuous
 62
     4
100
AcDbLine
 10
75.70742340314969
 20
-0.7253946644149
 30
0.0
 11
76.06036457962028
 21
-1.1253946644149
 31
0.0
  0
LINE
  5
89
330
1F
100
AcDbEntity
  8
1
  6
Continuous
 62
     4
100
AcDbLine
 10
75.1780116384438
 20
-0.5253946644149
 30
0.0
 11
75.70742340314969
 21
-0.7253946644149
 31
0.0
  0
LINE
  5
8A
330
1F
100
AcDbEntity
  8
1
  6
Continuous
 62
     4
100
AcDbLine
 10
74.64859987373792
 20
-0.7253946644149
 30
0.0
 11
75.1780116384438
 21
-0.5253946644149
 31
0.0
  0
LINE
  5
8B
330
1F
100
AcDbEntity
  8
1
  6
Continuous
 62
     4
100
AcDbLine
 10
74.29565869726734
 20
-1.1253946644149
 30
0.0
 11
74.64859987373792
 21
-0.7253946644149
 31
0.0
  0
LINE
  5
8C
330
1F
100
AcDbEntity
  8
1
  6
Continuous
 62
     4
100
AcDbLine
 10
72.88389399138498
 20
-0.7253946644149
 30
0.0
 11
72.3544822266791
 21
-0.5253946644149
 31
0.0
  0
LINE
  5
8D
330
1F
100
AcDbEntity
  8
1
  6
Continuous
 62
     4
100
AcDbLine
 10
73.23683516785557
 20
-1.2253946644149
 30
0.0
 11
72.88389399138498
 21
-0.7253946644149
 31
0.0
  0
LINE
  5
8E
330
1F
100
AcDbEntity
  8
1
  6
Continuous
 62
     4
100
AcDbLine
 10
73.32507046197321
 20
-2.0253946644149
 30
0.0
 11
73.23683516785557
 21
-1.2253946644149
 31
0.0
  0
LINE
  5
8F
330
1F
100
AcDbEntity
  8
1
  6
Continuous
 62
     4
100
AcDbLine
 10
73.23683516785557
 20
-2.8253946644149
 30
0.0
 11
73.32507046197321
 21
-2.0253946644149
 31
0.0
  0
LINE
  5
90
330
1F
100
AcDbEntity
  8
1
  6
Continuous
 62
     4
100
AcDbLine
 10
72.88389399138498
 20
-3.3253946644149
 30
0.0
 11
73.23683516785557
 21
-2.8253946644149
 31
0.0
  0
LINE
  5
91
330
1F
100
AcDbEntity
  8
1
  6
Continuous
 62
     4
100
AcDbLine
 10
72.3544822266791
 20
-3.5253946644149
 30
0.0
 11
72.88389399138498
 21
-3.3253946644149
 31
0.0
  0
LINE
  5
92
330
1F
100
AcDbEntity
  8
1
  6
Continuous
 62
     4
100
AcDbLine
 10
71.82507046197321
 20
-3.3253946644149
 30
0.0
 11
72.3544822266791
 21
-3.5253946644149
 31
0.0
  0
LINE
  5
93
330
1F
100
AcDbEntity
  8
1
  6
Continuous
 62
     4
100
AcDbLine
 10
71.56036457962027
 20
-2.8253946644149
 30
0.0
 11
71.82507046197321
 21
-3.3253946644149
 31
0.0
  0
LINE
  5
94
330
1F
100
AcDbEntity
  8
1
  6
Continuous
 62
     4
100
AcDbLine
 10
71.38389399138498
 20
-2.0253946644149
 30
0.0
 11
71.56036457962027
 21
-2.8253946644149
 31
0.0
  0
LINE
  5
95
330
1F
100
AcDbEntity
  8
1
  6
Continuous
 62
     4
100
AcDbLine
 10
71.56036457962027
 20
-1.2253946644149
 30
0.0
 11
71.38389399138498
 21
-2.0253946644149
 31
0.0
  0
LINE
  5
96
330
1F
100
AcDbEntity
  8
1
  6
Continuous
 62
     4
100
AcDbLine
 10
71.82507046197321
 20
-0.7253946644149
 30
0.0
 11
71.56036457962027
 21
-1.2253946644149
 31
0.0
  0
LINE
  5
97
330
1F
100
AcDbEntity
  8
1
  6
Continuous
 62
     4
100
AcDbLine
 10
72.3544822266791
 20
-0.5253946644149
 30
0.0
 11
71.82507046197321
 21
-0.7253946644149
 31
0.0
  0
LINE
  5
98
330
1F
100
AcDbEntity
  8
1
  6
Continuous
 62
     4
100
AcDbLine
 10
70.06036457962027
 20
-0.7253946644149
 30
0.0
 11
69.53095281491439
 21
-0.5253946644149
 31
0.0
  0
LINE
  5
99
330
1F
100
AcDbEntity
  8
1
  6
Continuous
 62
     4
100
AcDbLine
 10
70.41330575609086
 20
-1.2253946644149
 30
0.0
 11
70.06036457962027
 21
-0.7253946644149
 31
0.0
  0
LINE
  5
9A
330
1F
100
AcDbEntity
  8
1
  6
Continuous
 62
     4
100
AcDbLine
 10
70.5015410502085
 20
-2.0253946644149
 30
0.0
 11
70.41330575609086
 21
-1.2253946644149
 31
0.0
  0
LINE
  5
9B
330
1F
100
AcDbEntity
  8
1
  6
Continuous
 62
     4
100
AcDbLine
 10
70.41330575609086
 20
-2.8253946644149
 30
0.0
 11
70.5015410502085
 21
-2.0253946644149
 31
0.0
  0
LINE
  5
9C
330
1F
100
AcDbEntity
  8
1
  6
Continuous
 62
     4
100
AcDbLine
 10
70.06036457962027
 20
-3.3253946644149
 30
0.0
 11
70.41330575609086
 21
-2.8253946644149
 31
0.0
  0
LINE
  5
9D
330
1F
100
AcDbEntity
  8
1
  6
Continuous
 62
     4
100
AcDbLine
 10
69.53095281491439
 20
-3.5253946644149
 30
0.0
 11
70.06036457962027
 21
-3.3253946644149
 31
0.0
  0
LINE
  5
9E
330
1F
100
AcDbEntity
  8
1
  6
Continuous
 62
     4
100
AcDbLine
 10
69.0015410502085
 20
-3.3253946644149
 30
0.0
 11
69.53095281491439
 21
-3.5253946644149
 31
0.0
  0
LINE
  5
9F
330
1F
100
AcDbEntity
  8
1
  6
Continuous
 62
     4
100
AcDbLine
 10
68.73683516785556
 20
-2.8253946644149
 30
0.0
 11
69.0015410502085
 21
-3.3253946644149
 31
0.0
  0
LINE
  5
A0
330
1F
100
AcDbEntity
  8
1
  6
Continuous
 62
     4
100
AcDbLine
 10
68.56036457962027
 20
-2.0253946644149
 30
0.0
 11
68.73683516785556
 21
-2.8253946644149
 31
0.0
  0
LINE
  5
A1
330
1F
100
AcDbEntity
  8
1
  6
Continuous
 62
     4
100
AcDbLine
 10
68.73683516785556
 20
-1.2253946644149
 30
0.0
 11
68.56036457962027
 21
-2.0253946644149
 31
0.0
  0
LINE
  5
A2
330
1F
100
AcDbEntity
  8
1
  6
Continuous
 62
     4
100
AcDbLine
 10
69.0015410502085
 20
-0.7253946644149
 30
0.0
 11
68.73683516785556
 21
-1.2253946644149
 31
0.0
  0
LINE
  5
A3
330
1F
100
AcDbEntity
  8
1
  6
Continuous
 62
     4
100
AcDbLine
 10
69.53095281491439
 20
-0.5253946644149
 30
0.0
 11
69.0015410502085
 21
-0.7253946644149
 31
0.0
  0
LINE
  5
A4
330
1F
100
AcDbEntity
  8
1
  6
Continuous
 62
     4
100
AcDbLine
 10
64.8544822266791
 20
-3.5253946644149
 30
0.0
 11
67.6780116384438
 21
-3.5253946644149
 31
0.0
  0
LINE
  5
A5
330
1F
100
AcDbEntity
  8
1
  6
Continuous
 62
     4
100
AcDbLine
 10
62.20742340314968
 20
-3.2253946644149
 30
0.0
 11
62.03095281491439
 21
-3.0253946644149
 31
0.0
  0
LINE
  5
A6
330
1F
100
AcDbEntity
  8
1
  6
Continuous
 62
     4
100
AcDbLine
 10
62.56036457962027
 20
-3.4253946644149
 30
0.0
 11
62.20742340314968
 21
-3.2253946644149
 31
0.0
  0
LINE
  5
A7
330
1F
100
AcDbEntity
  8
1
  6
Continuous
 62
     4
100
AcDbLine
 10
63.0015410502085
 20
-3.5253946644149
 30
0.0
 11
62.56036457962027
 21
-3.4253946644149
 31
0.0
  0
LINE
  5
A8
330
1F
100
AcDbEntity
  8
1
  6
Continuous
 62
     4
100
AcDbLine
 10
63.53095281491439
 20
-3.4253946644149
 30
0.0
 11
63.0015410502085
 21
-3.5253946644149
 31
0.0
  0
LINE
  5
A9
330
1F
100
AcDbEntity
  8
1
  6
Continuous
 62
     4
100
AcDbLine
 10
63.79565869726733
 20
-3.2253946644149
 30
0.0
 11
63.53095281491439
 21
-3.4253946644149
 31
0.0
  0
LINE
  5
AA
330
1F
100
AcDbEntity
  8
1
  6
Continuous
 62
     4
100
AcDbLine
 10
63.97212928550262
 20
-2.7253946644149
 30
0.0
 11
63.79565869726733
 21
-3.2253946644149
 31
0.0
  0
LINE
  5
AB
330
1F
100
AcDbEntity
  8
1
  6
Continuous
 62
     4
100
AcDbLine
 10
63.79565869726733
 20
-2.2253946644149
 30
0.0
 11
63.97212928550262
 21
-2.7253946644149
 31
0.0
  0
LINE
  5
AC
330
1F
100
AcDbEntity
  8
1
  6
Continuous
 62
     4
100
AcDbLine
 10
63.35448222667909
 20
-1.9253946644149
 30
0.0
 11
63.79565869726733
 21
-2.2253946644149
 31
0.0
  0
LINE
  5
AD
330
1F
100
AcDbEntity
  8
1
  6
Continuous
 62
     4
100
AcDbLine
 10
62.91330575609086
 20
-1.9253946644149
 30
0.0
 11
63.35448222667909
 21
-1.9253946644149
 31
0.0
  0
LINE
  5
AE
330
1F
100
AcDbEntity
  8
1
  6
Continuous
 62
     4
100
AcDbLine
 10
63.35448222667909
 20
-1.9253946644149
 30
0.0
 11
62.91330575609086
 21
-1.9253946644149
 31
0.0
  0
LINE
  5
AF
330
1F
100
AcDbEntity
  8
1
  6
Continuous
 62
     4
100
AcDbLine
 10
63.70742340314968
 20
-1.7253946644149
 30
0.0
 11
63.35448222667909
 21
-1.9253946644149
 31
0.0
  0
LINE
  5
B0
330
1F
100
AcDbEntity
  8
1
  6
Continuous
 62
     4
100
AcDbLine
 10
63.88389399138497
 20
-1.3253946644149
 30
0.0
 11
63.70742340314968
 21
-1.7253946644149
 31
0.0
  0
LINE
  5
B1
330
1F
100
AcDbEntity
  8
1
  6
Continuous
 62
     4
100
AcDbLine
 10
63.79565869726733
 20
-1.0253946644149
 30
0.0
 11
63.88389399138497
 21
-1.3253946644149
 31
0.0
  0
LINE
  5
B2
330
1F
100
AcDbEntity
  8
1
  6
Continuous
 62
     4
100
AcDbLine
 10
63.53095281491439
 20
-0.6253946644149
 30
0.0
 11
63.79565869726733
 21
-1.0253946644149
 31
0.0
  0
LINE
  5
B3
330
1F
100
AcDbEntity
  8
1
  6
Continuous
 62
     4
100
AcDbLine
 10
63.0015410502085
 20
-0.5253946644149
 30
0.0
 11
63.53095281491439
 21
-0.6253946644149
 31
0.0
  0
LINE
  5
B4
330
1F
100
AcDbEntity
  8
1
  6
Continuous
 62
     4
100
AcDbLine
 10
62.47212928550262
 20
-0.6253946644149
 30
0.0
 11
63.0015410502085
 21
-0.5253946644149
 31
0.0
  0
LINE
  5
B5
330
1F
100
AcDbEntity
  8
1
  6
Continuous
 62
     4
100
AcDbLine
 10
62.11918810903203
 20
-1.0253946644149
 30
0.0
 11
62.47212928550262
 21
-0.6253946644149
 31
0.0
  0
LINE
  5
B6
330
1F
100
AcDbEntity
  8
1
  6
Continuous
 62
     4
100
AcDbLine
 10
61.14859987373792
 20
-0.5253946644149
 30
0.0
 11
61.14859987373792
 21
-3.5253946644149
 31
0.0
  0
LINE
  5
B7
330
1F
100
AcDbEntity
  8
1
  6
Continuous
 62
     4
100
AcDbLine
 10
60.70742340314968
 20
-0.8253946644149
 30
0.0
 11
61.14859987373792
 21
-0.5253946644149
 31
0.0
  0
LINE
  5
B8
330
1F
100
AcDbEntity
  8
1
  6
Continuous
 62
     4
100
AcDbLine
 10
57.00154105020851
 20
-3.5253946644149
 30
0.0
 11
59.82507046197321
 21
-3.5253946644149
 31
0.0
  0
LINE
  5
B9
330
1F
100
AcDbEntity
  8
1
  6
Continuous
 62
     4
100
AcDbLine
 10
56.11918810903204
 20
-2.9253946644149
 30
0.0
 11
56.11918810903204
 21
-0.6253946644149
 31
0.0
  0
LINE
  5
BA
330
1F
100
AcDbEntity
  8
1
  6
Continuous
 62
     4
100
AcDbLine
 10
55.94271752079674
 20
-3.2253946644149
 30
0.0
 11
56.11918810903204
 21
-2.9253946644149
 31
0.0
  0
LINE
  5
BB
330
1F
100
AcDbEntity
  8
1
  6
Continuous
 62
     4
100
AcDbLine
 10
55.6780116384438
 20
-3.4253946644149
 30
0.0
 11
55.94271752079674
 21
-3.2253946644149
 31
0.0
  0
LINE
  5
BC
330
1F
100
AcDbEntity
  8
1
  6
Continuous
 62
     4
100
AcDbLine
 10
55.23683516785557
 20
-3.5253946644149
 30
0.0
 11
55.6780116384438
 21
-3.4253946644149
 31
0.0
  0
LINE
  5
BD
330
1F
100
AcDbEntity
  8
1
  6
Continuous
 62
     4
100
AcDbLine
 10
54.88389399138497
 20
-3.4253946644149
 30
0.0
 11
55.23683516785557
 21
-3.5253946644149
 31
0.0
  0
LINE
  5
BE
330
1F
100
AcDbEntity
  8
1
  6
Continuous
 62
     4
100
AcDbLine
 10
54.53095281491439
 20
-3.2253946644149
 30
0.0
 11
54.88389399138497
 21
-3.4253946644149
 31
0.0
  0
LINE
  5
BF
330
1F
100
AcDbEntity
  8
1
  6
Continuous
 62
     4
100
AcDbLine
 10
54.44271752079674
 20
-2.9253946644149
 30
0.0
 11
54.53095281491439
 21
-3.2253946644149
 31
0.0
  0
LINE
  5
C0
330
1F
100
AcDbEntity
  8
1
  6
Continuous
 62
     4
100
AcDbLine
 10
54.44271752079674
 20
-0.6253946644149
 30
0.0
 11
54.44271752079674
 21
-2.9253946644149
 31
0.0
  0
LINE
  5
C1
330
1F
100
AcDbEntity
  8
1
  6
Continuous
 62
     4
100
AcDbLine
 10
52.58977634432615
 20
-0.6253946644149
 30
0.0
 11
53.56036457962027
 21
-0.6253946644149
 31
0.0
  0
LINE
  5
C2
330
1F
100
AcDbEntity
  8
1
  6
Continuous
 62
     4
100
AcDbLine
 10
52.58977634432615
 20
-0.6253946644149
 30
0.0
 11
52.58977634432615
 21
-3.5253946644149
 31
0.0
  0
LINE
  5
C3
330
1F
100
AcDbEntity
  8
1
  6
Continuous
 62
     4
100
AcDbLine
 10
51.61918810903204
 20
-0.6253946644149
 30
0.0
 11
52.58977634432615
 21
-0.6253946644149
 31
0.0
  0
LINE
  5
C4
330
1F
100
AcDbEntity
  8
1
  6
Continuous
 62
     4
100
AcDbLine
 10
49.14859987373792
 20
-2.0253946644149
 30
0.0
 11
50.73683516785556
 21
-2.0253946644149
 31
0.0
  0
LINE
  5
C5
330
1F
100
AcDbEntity
  8
1
  6
Continuous
 62
     4
100
AcDbLine
 10
47.29565869726733
 20
-3.5253946644149
 30
0.0
 11
48.26624693256144
 21
-0.5253946644149
 31
0.0
  0
LINE
  5
C6
330
1F
100
AcDbEntity
  8
1
  6
Continuous
 62
     4
100
AcDbLine
 10
46.32507046197321
 20
-0.5253946644149
 30
0.0
 11
47.29565869726733
 21
-3.5253946644149
 31
0.0
  0
LINE
  5
C7
330
1F
100
AcDbEntity
  8
1
  6
Continuous
 62
     4
100
AcDbLine
 10
140.4296122785132
 20
91.90843044000879
 30
0.0
 11
142.3707887491014
 21
91.90843044000879
 31
0.0
  0
LINE
  5
C8
330
1F
100
AcDbEntity
  8
1
  6
Continuous
 62
     4
100
AcDbLine
 10
140.6060828667485
 20
92.40843044000879
 30
0.0
 11
140.4296122785132
 21
91.90843044000879
 31
0.0
  0
LINE
  5
C9
330
1F
100
AcDbEntity
  8
1
  6
Continuous
 62
     4
100
AcDbLine
 10
140.7825534549837
 20
92.70843044000878
 30
0.0
 11
140.6060828667485
 21
92.40843044000879
 31
0.0
  0
LINE
  5
CA
330
1F
100
AcDbEntity
  8
1
  6
Continuous
 62
     4
100
AcDbLine
 10
141.1354946314544
 20
93.00843044000878
 30
0.0
 11
140.7825534549837
 21
92.70843044000878
 31
0.0
  0
LINE
  5
CB
330
1F
100
AcDbEntity
  8
1
  6
Continuous
 62
     4
100
AcDbLine
 10
141.4884358079249
 20
93.20843044000878
 30
0.0
 11
141.1354946314544
 21
93.00843044000878
 31
0.0
  0
LINE
  5
CC
330
1F
100
AcDbEntity
  8
1
  6
Continuous
 62
     4
100
AcDbLine
 10
141.9296122785132
 20
93.50843044000878
 30
0.0
 11
141.4884358079249
 21
93.20843044000878
 31
0.0
  0
LINE
  5
CD
330
1F
100
AcDbEntity
  8
1
  6
Continuous
 62
     4
100
AcDbLine
 10
142.1943181608661
 20
93.90843044000879
 30
0.0
 11
141.9296122785132
 21
93.50843044000878
 31
0.0
  0
LINE
  5
CE
330
1F
100
AcDbEntity
  8
1
  6
Continuous
 62
     4
100
AcDbLine
 10
142.2825534549837
 20
94.30843044000879
 30
0.0
 11
142.1943181608661
 21
93.90843044000879
 31
0.0
  0
LINE
  5
CF
330
1F
100
AcDbEntity
  8
1
  6
Continuous
 62
     4
100
AcDbLine
 10
141.9296122785132
 20
94.70843044000878
 30
0.0
 11
142.2825534549837
 21
94.30843044000879
 31
0.0
  0
LINE
  5
D0
330
1F
100
AcDbEntity
  8
1
  6
Continuous
 62
     4
100
AcDbLine
 10
141.4002005138073
 20
94.90843044000879
 30
0.0
 11
141.9296122785132
 21
94.70843044000878
 31
0.0
  0
LINE
  5
D1
330
1F
100
AcDbEntity
  8
1
  6
Continuous
 62
     4
100
AcDbLine
 10
140.8707887491014
 20
94.70843044000878
 30
0.0
 11
141.4002005138073
 21
94.90843044000879
 31
0.0
  0
LINE
  5
D2
330
1F
100
AcDbEntity
  8
1
  6
Continuous
 62
     4
100
AcDbLine
 10
140.5178475726308
 20
94.30843044000879
 30
0.0
 11
140.8707887491014
 21
94.70843044000878
 31
0.0
  0
LINE
  5
D3
330
1F
100
AcDbEntity
  8
1
  6
Continuous
 62
     4
100
AcDbLine
 10
139.5472593373367
 20
94.60843044000879
 30
0.0
 11
137.6943181608661
 21
92.40843044000879
 31
0.0
  0
LINE
  5
D4
330
1F
100
AcDbEntity
  8
1
  6
Continuous
 62
     4
100
AcDbLine
 10
136.8119652196896
 20
94.90843044000879
 30
0.0
 11
136.8119652196896
 21
91.90843044000879
 31
0.0
  0
LINE
  5
D5
330
1F
100
AcDbEntity
  8
1
  6
Continuous
 62
     4
100
AcDbLine
 10
136.3707887491014
 20
94.60843044000879
 30
0.0
 11
136.8119652196896
 21
94.90843044000879
 31
0.0
  0
LINE
  5
D6
330
1F
100
AcDbEntity
  8
1
  6
Continuous
 62
     4
100
AcDbLine
 10
135.4884358079249
 20
93.30843044000879
 30
0.0
 11
134.6943181608661
 21
93.30843044000879
 31
0.0
  0
LINE
  5
D7
330
1F
100
AcDbEntity
  8
1
  6
Continuous
 62
     4
100
AcDbLine
 10
135.4884358079249
 20
92.70843044000878
 30
0.0
 11
135.4884358079249
 21
93.30843044000879
 31
0.0
  0
LINE
  5
D8
330
1F
100
AcDbEntity
  8
1
  6
Continuous
 62
     4
100
AcDbLine
 10
135.4002005138073
 20
92.40843044000879
 30
0.0
 11
135.4884358079249
 21
92.70843044000878
 31
0.0
  0
LINE
  5
D9
330
1F
100
AcDbEntity
  8
1
  6
Continuous
 62
     4
100
AcDbLine
 10
135.223729925572
 20
92.20843044000878
 30
0.0
 11
135.4002005138073
 21
92.40843044000879
 31
0.0
  0
LINE
  5
DA
330
1F
100
AcDbEntity
  8
1
  6
Continuous
 62
     4
100
AcDbLine
 10
134.9590240432191
 20
92.00843044000878
 30
0.0
 11
135.223729925572
 21
92.20843044000878
 31
0.0
  0
LINE
  5
DB
330
1F
100
AcDbEntity
  8
1
  6
Continuous
 62
     4
100
AcDbLine
 10
134.5178475726308
 20
91.90843044000879
 30
0.0
 11
134.9590240432191
 21
92.00843044000878
 31
0.0
  0
LINE
  5
DC
330
1F
100
AcDbEntity
  8
1
  6
Continuous
 62
     4
100
AcDbLine
 10
134.0766711020426
 20
92.00843044000878
 30
0.0
 11
134.5178475726308
 21
91.90843044000879
 31
0.0
  0
LINE
  5
DD
330
1F
100
AcDbEntity
  8
1
  6
Continuous
 62
     4
100
AcDbLine
 10
133.8119652196896
 20
92.40843044000879
 30
0.0
 11
134.0766711020426
 21
92.00843044000878
 31
0.0
  0
LINE
  5
DE
330
1F
100
AcDbEntity
  8
1
  6
Continuous
 62
     4
100
AcDbLine
 10
133.723729925572
 20
92.60843044000879
 30
0.0
 11
133.8119652196896
 21
92.40843044000879
 31
0.0
  0
LINE
  5
DF
330
1F
100
AcDbEntity
  8
1
  6
Continuous
 62
     4
100
AcDbLine
 10
133.6354946314544
 20
93.00843044000878
 30
0.0
 11
133.723729925572
 21
92.60843044000879
 31
0.0
  0
LINE
  5
E0
330
1F
100
AcDbEntity
  8
1
  6
Continuous
 62
     4
100
AcDbLine
 10
133.5472593373367
 20
93.40843044000879
 30
0.0
 11
133.6354946314544
 21
93.00843044000878
 31
0.0
  0
LINE
  5
E1
330
1F
100
AcDbEntity
  8
1
  6
Continuous
 62
     4
100
AcDbLine
 10
133.6354946314544
 20
93.80843044000879
 30
0.0
 11
133.5472593373367
 21
93.40843044000879
 31
0.0
  0
LINE
  5
E2
330
1F
100
AcDbEntity
  8
1
  6
Continuous
 62
     4
100
AcDbLine
 10
133.8119652196896
 20
94.40843044000879
 30
0.0
 11
133.6354946314544
 21
93.80843044000879
 31
0.0
  0
LINE
  5
E3
330
1F
100
AcDbEntity
  8
1
  6
Continuous
 62
     4
100
AcDbLine
 10
133.9002005138073
 20
94.60843044000879
 30
0.0
 11
133.8119652196896
 21
94.40843044000879
 31
0.0
  0
LINE
  5
E4
330
1F
100
AcDbEntity
  8
1
  6
Continuous
 62
     4
100
AcDbLine
 10
134.1649063961602
 20
94.80843044000879
 30
0.0
 11
133.9002005138073
 21
94.60843044000879
 31
0.0
  0
LINE
  5
E5
330
1F
100
AcDbEntity
  8
1
  6
Continuous
 62
     4
100
AcDbLine
 10
134.5178475726308
 20
94.90843044000879
 30
0.0
 11
134.1649063961602
 21
94.80843044000879
 31
0.0
  0
LINE
  5
E6
330
1F
100
AcDbEntity
  8
1
  6
Continuous
 62
     4
100
AcDbLine
 10
134.9590240432191
 20
94.80843044000879
 30
0.0
 11
134.5178475726308
 21
94.90843044000879
 31
0.0
  0
LINE
  5
E7
330
1F
100
AcDbEntity
  8
1
  6
Continuous
 62
     4
100
AcDbLine
 10
135.1354946314544
 20
94.70843044000878
 30
0.0
 11
134.9590240432191
 21
94.80843044000879
 31
0.0
  0
LINE
  5
E8
330
1F
100
AcDbEntity
  8
1
  6
Continuous
 62
     4
100
AcDbLine
 10
135.3119652196896
 20
94.50843044000878
 30
0.0
 11
135.1354946314544
 21
94.70843044000878
 31
0.0
  0
LINE
  5
E9
330
1F
100
AcDbEntity
  8
1
  6
Continuous
 62
     4
100
AcDbLine
 10
135.4884358079249
 20
94.20843044000878
 30
0.0
 11
135.3119652196896
 21
94.50843044000878
 31
0.0
  0
LINE
  5
EA
330
1F
100
AcDbEntity
  8
1
  6
Continuous
 62
     4
100
AcDbLine
 10
149.8710956495742
 20
2.4223675811923
 30
0.0
 11
151.8122721201624
 21
2.4223675811923
 31
0.0
  0
LINE
  5
EB
330
1F
100
AcDbEntity
  8
1
  6
Continuous
 62
     4
100
AcDbLine
 10
150.0475662378095
 20
2.9223675811923
 30
0.0
 11
149.8710956495742
 21
2.4223675811923
 31
0.0
  0
LINE
  5
EC
330
1F
100
AcDbEntity
  8
1
  6
Continuous
 62
     4
100
AcDbLine
 10
150.2240368260447
 20
3.2223675811923
 30
0.0
 11
150.0475662378095
 21
2.9223675811923
 31
0.0
  0
LINE
  5
ED
330
1F
100
AcDbEntity
  8
1
  6
Continuous
 62
     4
100
AcDbLine
 10
150.5769780025154
 20
3.5223675811923
 30
0.0
 11
150.2240368260447
 21
3.2223675811923
 31
0.0
  0
LINE
  5
EE
330
1F
100
AcDbEntity
  8
1
  6
Continuous
 62
     4
100
AcDbLine
 10
150.9299191789859
 20
3.7223675811923
 30
0.0
 11
150.5769780025154
 21
3.5223675811923
 31
0.0
  0
LINE
  5
EF
330
1F
100
AcDbEntity
  8
1
  6
Continuous
 62
     4
100
AcDbLine
 10
151.3710956495742
 20
4.0223675811923
 30
0.0
 11
150.9299191789859
 21
3.7223675811923
 31
0.0
  0
LINE
  5
F0
330
1F
100
AcDbEntity
  8
1
  6
Continuous
 62
     4
100
AcDbLine
 10
151.6358015319271
 20
4.4223675811923
 30
0.0
 11
151.3710956495742
 21
4.0223675811923
 31
0.0
  0
LINE
  5
F1
330
1F
100
AcDbEntity
  8
1
  6
Continuous
 62
     4
100
AcDbLine
 10
151.7240368260447
 20
4.8223675811923
 30
0.0
 11
151.6358015319271
 21
4.4223675811923
 31
0.0
  0
LINE
  5
F2
330
1F
100
AcDbEntity
  8
1
  6
Continuous
 62
     4
100
AcDbLine
 10
151.3710956495742
 20
5.2223675811923
 30
0.0
 11
151.7240368260447
 21
4.8223675811923
 31
0.0
  0
LINE
  5
F3
330
1F
100
AcDbEntity
  8
1
  6
Continuous
 62
     4
100
AcDbLine
 10
150.8416838848683
 20
5.4223675811923
 30
0.0
 11
151.3710956495742
 21
5.2223675811923
 31
0.0
  0
LINE
  5
F4
330
1F
100
AcDbEntity
  8
1
  6
Continuous
 62
     4
100
AcDbLine
 10
150.3122721201624
 20
5.2223675811923
 30
0.0
 11
150.8416838848683
 21
5.4223675811923
 31
0.0
  0
LINE
  5
F5
330
1F
100
AcDbEntity
  8
1
  6
Continuous
 62
     4
100
AcDbLine
 10
149.9593309436918
 20
4.8223675811923
 30
0.0
 11
150.3122721201624
 21
5.2223675811923
 31
0.0
  0
LINE
  5
F6
330
1F
100
AcDbEntity
  8
1
  6
Continuous
 62
     4
100
AcDbLine
 10
148.9887427083977
 20
5.1223675811923
 30
0.0
 11
147.1358015319271
 21
2.9223675811923
 31
0.0
  0
LINE
  5
F7
330
1F
100
AcDbEntity
  8
1
  6
Continuous
 62
     4
100
AcDbLine
 10
146.2534485907506
 20
5.4223675811923
 30
0.0
 11
146.2534485907506
 21
2.4223675811923
 31
0.0
  0
LINE
  5
F8
330
1F
100
AcDbEntity
  8
1
  6
Continuous
 62
     4
100
AcDbLine
 10
145.8122721201624
 20
5.1223675811923
 30
0.0
 11
146.2534485907506
 21
5.4223675811923
 31
0.0
  0
LINE
  5
F9
330
1F
100
AcDbEntity
  8
1
  6
Continuous
 62
     4
100
AcDbLine
 10
144.7534485907506
 20
2.7223675811923
 30
0.0
 11
144.9299191789859
 21
3.0223675811923
 31
0.0
  0
LINE
  5
FA
330
1F
100
AcDbEntity
  8
1
  6
Continuous
 62
     4
100
AcDbLine
 10
144.4887427083977
 20
2.5223675811923
 30
0.0
 11
144.7534485907506
 21
2.7223675811923
 31
0.0
  0
LINE
  5
FB
330
1F
100
AcDbEntity
  8
1
  6
Continuous
 62
     4
100
AcDbLine
 10
144.1358015319271
 20
2.4223675811923
 30
0.0
 11
144.4887427083977
 21
2.5223675811923
 31
0.0
  0
LINE
  5
FC
330
1F
100
AcDbEntity
  8
1
  6
Continuous
 62
     4
100
AcDbLine
 10
143.8710956495742
 20
2.4223675811923
 30
0.0
 11
144.1358015319271
 21
2.4223675811923
 31
0.0
  0
LINE
  5
FD
330
1F
100
AcDbEntity
  8
1
  6
Continuous
 62
     4
100
AcDbLine
 10
143.6946250613389
 20
2.5223675811923
 30
0.0
 11
143.8710956495742
 21
2.4223675811923
 31
0.0
  0
LINE
  5
FE
330
1F
100
AcDbEntity
  8
1
  6
Continuous
 62
     4
100
AcDbLine
 10
143.6063897672212
 20
2.7223675811923
 30
0.0
 11
143.6946250613389
 21
2.5223675811923
 31
0.0
  0
LINE
  5
FF
330
1F
100
AcDbEntity
  8
1
  6
Continuous
 62
     4
100
AcDbLine
 10
143.5181544731036
 20
3.0223675811923
 30
0.0
 11
143.6063897672212
 21
2.7223675811923
 31
0.0
  0
LINE
  5
100
330
1F
100
AcDbEntity
  8
1
  6
Continuous
 62
     4
100
AcDbLine
 10
143.4299191789859
 20
3.4223675811923
 30
0.0
 11
143.5181544731036
 21
3.0223675811923
 31
0.0
  0
LINE
  5
101
330
1F
100
AcDbEntity
  8
1
  6
Continuous
 62
     4
100
AcDbLine
 10
143.5181544731036
 20
3.9223675811923
 30
0.0
 11
143.4299191789859
 21
3.4223675811923
 31
0.0
  0
LINE
  5
102
330
1F
100
AcDbEntity
  8
1
  6
Continuous
 62
     4
100
AcDbLine
 10
143.6063897672212
 20
4.2223675811923
 30
0.0
 11
143.5181544731036
 21
3.9223675811923
 31
0.0
  0
LINE
  5
103
330
1F
100
AcDbEntity
  8
1
  6
Continuous
 62
     4
100
AcDbLine
 10
143.7828603554565
 20
4.5223675811923
 30
0.0
 11
143.6063897672212
 21
4.2223675811923
 31
0.0
  0
LINE
  5
104
330
1F
100
AcDbEntity
  8
1
  6
Continuous
 62
     4
100
AcDbLine
 10
144.1358015319271
 20
4.6223675811923
 30
0.0
 11
143.7828603554565
 21
4.5223675811923
 31
0.0
  0
LINE
  5
105
330
1F
100
AcDbEntity
  8
1
  6
Continuous
 62
     4
100
AcDbLine
 10
144.4887427083977
 20
4.5223675811923
 30
0.0
 11
144.1358015319271
 21
4.6223675811923
 31
0.0
  0
LINE
  5
106
330
1F
100
AcDbEntity
  8
1
  6
Continuous
 62
     4
100
AcDbLine
 10
144.7534485907506
 20
4.3223675811923
 30
0.0
 11
144.4887427083977
 21
4.5223675811923
 31
0.0
  0
LINE
  5
107
330
1F
100
AcDbEntity
  8
1
  6
Continuous
 62
     4
100
AcDbLine
 10
144.9299191789859
 20
4.1223675811923
 30
0.0
 11
144.7534485907506
 21
4.3223675811923
 31
0.0
  0
LINE
  5
108
330
1F
100
AcDbEntity
  8
1
  6
Continuous
 62
     4
100
AcDbLine
 10
140.6946250613389
 20
3.8223675811923
 30
0.0
 11
140.6946250613389
 21
5.4223675811923
 31
0.0
  0
LINE
  5
109
330
1F
100
AcDbEntity
  8
1
  6
Continuous
 62
     4
100
AcDbLine
 10
141.8416838848683
 20
3.8223675811923
 30
0.0
 11
142.5475662378094
 21
2.4223675811923
 31
0.0
  0
LINE
  5
10A
330
1F
100
AcDbEntity
  8
1
  6
Continuous
 62
     4
100
AcDbLine
 10
141.8416838848683
 20
3.8223675811923
 30
0.0
 11
140.6946250613389
 21
3.8223675811923
 31
0.0
  0
LINE
  5
10B
330
1F
100
AcDbEntity
  8
1
  6
Continuous
 62
     4
100
AcDbLine
 10
142.1946250613389
 20
4.0223675811923
 30
0.0
 11
141.8416838848683
 21
3.8223675811923
 31
0.0
  0
LINE
  5
10C
330
1F
100
AcDbEntity
  8
1
  6
Continuous
 62
     4
100
AcDbLine
 10
142.3710956495742
 20
4.2223675811923
 30
0.0
 11
142.1946250613389
 21
4.0223675811923
 31
0.0
  0
LINE
  5
10D
330
1F
100
AcDbEntity
  8
1
  6
Continuous
 62
     4
100
AcDbLine
 10
142.4593309436918
 20
4.6223675811923
 30
0.0
 11
142.3710956495742
 21
4.2223675811923
 31
0.0
  0
LINE
  5
10E
330
1F
100
AcDbEntity
  8
1
  6
Continuous
 62
     4
100
AcDbLine
 10
142.3710956495742
 20
4.9223675811923
 30
0.0
 11
142.4593309436918
 21
4.6223675811923
 31
0.0
  0
LINE
  5
10F
330
1F
100
AcDbEntity
  8
1
  6
Continuous
 62
     4
100
AcDbLine
 10
142.1946250613389
 20
5.2223675811923
 30
0.0
 11
142.3710956495742
 21
4.9223675811923
 31
0.0
  0
LINE
  5
110
330
1F
100
AcDbEntity
  8
1
  6
Continuous
 62
     4
100
AcDbLine
 10
141.8416838848683
 20
5.4223675811923
 30
0.0
 11
142.1946250613389
 21
5.2223675811923
 31
0.0
  0
LINE
  5
111
330
1F
100
AcDbEntity
  8
1
  6
Continuous
 62
     4
100
AcDbLine
 10
140.6946250613389
 20
5.4223675811923
 30
0.0
 11
141.8416838848683
 21
5.4223675811923
 31
0.0
  0
LINE
  5
112
330
1F
100
AcDbEntity
  8
1
  6
Continuous
 62
     4
100
AcDbLine
 10
140.6946250613389
 20
2.4223675811923
 30
0.0
 11
140.6946250613389
 21
3.8223675811923
 31
0.0
  0
LINE
  5
113
330
1F
100
AcDbEntity
  8
1
  6
DOT_CENTER
 62
     1
100
AcDbLine
 10
22.05124562272638
 20
6.8661038938378
 30
0.0
 11
22.05124562272638
 21
87.9661038938378
 31
0.0
  0
LINE
  5
114
330
1F
100
AcDbEntity
  8
4
  6
Continuous
 62
     3
100
AcDbLine
 10
81.73404777993949
 20
22.3661038938377
 30
0.0
 11
81.73404777993949
 21
51.3661038938378
 31
0.0
  0
LINE
  5
115
330
1F
100
AcDbEntity
  8
1
  6
DOT_CENTER
 62
     1
100
AcDbLine
 10
65.23404777993949
 20
40.8661038935536
 30
0.0
 11
131.2340477799396
 21
40.8661038935536
 31
0.0
  0
LINE
  5
116
330
1F
100
AcDbEntity
  8
1
  6
Continuous
 62
     3
100
AcDbLine
 10
120.2340477786949
 20
60.8661235830096
 30
0.0
 11
136.2340477786948
 21
60.8661235830096
 31
0.0
  0
LINE
  5
117
330
1F
100
AcDbEntity
  8
1
  6
Continuous
 62
     3
100
AcDbLine
 10
14.0512456214818
 20
60.8661235830096
 30
0.0
 11
30.0512456214816
 21
60.8661235830096
 31
0.0
  0
LINE
  5
118
330
1F
100
AcDbEntity
  8
1
  6
Continuous
 62
     3
100
AcDbLine
 10
34.05124562272638
 20
69.2547790284328
 30
0.0
 11
33.55124562272638
 21
68.9661038938378
 31
0.0
  0
LINE
  5
119
330
1F
100
AcDbEntity
  8
1
  6
Continuous
 62
     3
100
AcDbLine
 10
10.05124562272638
 20
69.2547790284328
 30
0.0
 11
10.55124562272638
 21
68.9661038938378
 31
0.0
  0
LINE
  5
11A
330
1F
100
AcDbEntity
  8
1
  6
Continuous
 62
     3
100
AcDbLine
 10
34.05124562272638
 20
84.6774287592428
 30
0.0
 11
33.55124562272638
 21
84.9661038938378
 31
0.0
  0
LINE
  5
11B
330
1F
100
AcDbEntity
  8
1
  6
Continuous
 62
     3
100
AcDbLine
 10
10.05124562272638
 20
84.6774287592428
 30
0.0
 11
10.55124562272638
 21
84.9661038938378
 31
0.0
  0
LINE
  5
11C
330
1F
100
AcDbEntity
  8
1
  6
Continuous
 62
     3
100
AcDbLine
 10
114.3776413193885
 20
83.60563198951878
 30
0.0
 11
116.7340477799396
 21
84.9661038938378
 31
0.0
  0
LINE
  5
11D
330
1F
100
AcDbEntity
  8
1
  6
Continuous
 62
     3
100
AcDbLine
 10
114.3776413193885
 20
70.3265757981568
 30
0.0
 11
116.7340477799396
 21
68.9661038938378
 31
0.0
  0
LINE
  5
11E
330
1F
100
AcDbEntity
  8
1
  6
Continuous
 62
     3
100
AcDbLine
 10
142.0904542404906
 20
70.3265757981568
 30
0.0
 11
139.7340477799395
 21
68.9661038938378
 31
0.0
  0
LINE
  5
11F
330
1F
100
AcDbEntity
  8
1
  6
Continuous
 62
     3
100
AcDbLine
 10
142.0904542404906
 20
83.60563198951878
 30
0.0
 11
139.7340477799396
 21
84.9661038938378
 31
0.0
  0
LINE
  5
120
330
1F
100
AcDbEntity
  8
1
  6
Continuous
 62
     3
100
AcDbLine
 10
22.05124562272638
 20
83.60563198951878
 30
0.0
 11
22.05124562272638
 21
70.3265757981568
 31
0.0
  0
LINE
  5
121
330
1F
100
AcDbEntity
  8
1
  6
Continuous
 62
     3
100
AcDbLine
 10
34.05124562272638
 20
84.6774287592428
 30
0.0
 11
34.05124562272638
 21
69.2547790284328
 31
0.0
  0
LINE
  5
122
330
1F
100
AcDbEntity
  8
1
  6
Continuous
 62
     3
100
AcDbLine
 10
33.55124562272638
 20
68.9661038938378
 30
0.0
 11
10.55124562272638
 21
68.9661038938378
 31
0.0
  0
LINE
  5
123
330
1F
100
AcDbEntity
  8
1
  6
Continuous
 62
     3
100
AcDbLine
 10
10.05124562272638
 20
69.2547790284328
 30
0.0
 11
10.05124562272638
 21
84.6774287592428
 31
0.0
  0
LINE
  5
124
330
1F
100
AcDbEntity
  8
1
  6
Continuous
 62
     3
100
AcDbLine
 10
10.55124562272638
 20
84.9661038938378
 30
0.0
 11
33.55124562272638
 21
84.9661038938378
 31
0.0
  0
LINE
  5
125
330
1F
100
AcDbEntity
  8
1
  6
Continuous
 62
     3
100
AcDbLine
 10
121.3058445496641
 20
83.60563198951878
 30
0.0
 11
121.305844549664
 21
70.3265757981568
 31
0.0
  0
LINE
  5
126
330
1F
100
AcDbEntity
  8
1
  6
Continuous
 62
     3
100
AcDbLine
 10
135.1622510102151
 20
83.60563198951878
 30
0.0
 11
135.1622510102151
 21
70.3265757981568
 31
0.0
  0
LINE
  5
127
330
1F
100
AcDbEntity
  8
1
  6
Continuous
 62
     3
100
AcDbLine
 10
142.0904542404906
 20
83.60563198951878
 30
0.0
 11
142.0904542404906
 21
70.3265757981568
 31
0.0
  0
LINE
  5
128
330
1F
100
AcDbEntity
  8
1
  6
Continuous
 62
     3
100
AcDbLine
 10
139.7340477799395
 20
68.9661038938378
 30
0.0
 11
116.7340477799396
 21
68.9661038938378
 31
0.0
  0
LINE
  5
129
330
1F
100
AcDbEntity
  8
1
  6
Continuous
 62
     3
100
AcDbLine
 10
114.3776413193885
 20
70.3265757981568
 30
0.0
 11
114.3776413193885
 21
83.60563198951878
 31
0.0
  0
LINE
  5
12A
330
1F
100
AcDbEntity
  8
1
  6
Continuous
 62
     3
100
AcDbLine
 10
116.7340477799396
 20
84.9661038938378
 30
0.0
 11
139.7340477799396
 21
84.9661038938378
 31
0.0
  0
LINE
  5
12B
330
1F
100
AcDbEntity
  8
1
  6
Continuous
 62
     3
100
AcDbLine
 10
126.4442619454518
 20
148.3107915670418
 30
0.0
 11
127.0793472415601
 21
147.2107915670418
 31
0.0
  0
LINE
  5
12C
330
1F
100
AcDbEntity
  8
1
  6
Continuous
 62
     3
100
AcDbLine
 10
126.4442619454512
 20
122.1107915670408
 30
0.0
 11
127.0793472415604
 21
123.2107915670418
 31
0.0
  0
LINE
  5
12D
330
1F
100
AcDbEntity
  8
1
  6
Continuous
 62
     3
100
AcDbLine
 10
135.1622510102151
 20
147.2107915670418
 30
0.0
 11
121.3058445496641
 21
147.2107915670418
 31
0.0
  0
LINE
  5
12E
330
1F
100
AcDbEntity
  8
1
  6
Continuous
 62
     3
100
AcDbLine
 10
121.3058445496641
 20
147.2107915670418
 30
0.0
 11
114.3776413193885
 21
135.2107915670418
 31
0.0
  0
LINE
  5
12F
330
1F
100
AcDbEntity
  8
1
  6
Continuous
 62
     3
100
AcDbLine
 10
114.3776413193885
 20
135.2107915670418
 30
0.0
 11
121.3058445496641
 21
123.2107915670418
 31
0.0
  0
LINE
  5
130
330
1F
100
AcDbEntity
  8
1
  6
Continuous
 62
     3
100
AcDbLine
 10
121.3058445496641
 20
123.2107915670418
 30
0.0
 11
135.1622510102151
 21
123.2107915670418
 31
0.0
  0
LINE
  5
131
330
1F
100
AcDbEntity
  8
1
  6
Continuous
 62
     3
100
AcDbLine
 10
135.1622510102151
 20
123.2107915670418
 30
0.0
 11
142.0904542404906
 21
135.2107915670418
 31
0.0
  0
LINE
  5
132
330
1F
100
AcDbEntity
  8
1
  6
Continuous
 62
     3
100
AcDbLine
 10
142.0904542404906
 20
135.2107915670418
 30
0.0
 11
135.1622510102151
 21
147.2107915670418
 31
0.0
  0
LINE
  5
133
330
1F
100
AcDbEntity
  8
1
  6
Continuous
 62
     3
100
AcDbLine
 10
136.2340477786948
 20
60.8661235830096
 30
0.0
 11
137.7340273938818
 21
60.8661235830096
 31
0.0
  0
LINE
  5
134
330
1F
100
AcDbEntity
  8
1
  6
Continuous
 62
     3
100
AcDbLine
 10
136.2340477786948
 20
60.8661235830096
 30
0.0
 11
136.2340477786948
 21
68.98178892483159
 31
0.0
  0
LINE
  5
135
330
1F
100
AcDbEntity
  8
1
  6
Continuous
 62
     3
100
AcDbLine
 10
120.2340477786949
 20
60.8661235830096
 30
0.0
 11
120.234047778695
 21
68.98178892483159
 31
0.0
  0
LINE
  5
136
330
1F
100
AcDbEntity
  8
1
  6
Continuous
 62
     3
100
AcDbLine
 10
118.7725093171567
 20
60.8661235830096
 30
0.0
 11
120.2340477786949
 21
60.8661235830096
 31
0.0
  0
LINE
  5
137
330
1F
100
AcDbEntity
  8
1
  6
Continuous
 62
     3
100
AcDbLine
 10
12.60539527858549
 20
60.8661235830096
 30
0.0
 11
14.0512456214818
 21
60.8661235830096
 31
0.0
  0
LINE
  5
138
330
1F
100
AcDbEntity
  8
1
  6
Continuous
 62
     3
100
AcDbLine
 10
31.75835240266738
 20
60.64331138601679
 30
0.0
 11
31.53554020567489
 21
60.8661235830096
 31
0.0
  0
LINE
  5
139
330
1F
100
AcDbEntity
  8
1
  6
Continuous
 62
     3
100
AcDbLine
 10
14.0512456214818
 20
60.8661235830096
 30
0.0
 11
14.05124562148188
 21
68.9661038938378
 31
0.0
  0
LINE
  5
13A
330
1F
100
AcDbEntity
  8
1
  6
Continuous
 62
     3
100
AcDbLine
 10
30.0512456214816
 20
60.8661235830096
 30
0.0
 11
30.05124562148168
 21
68.9661038938378
 31
0.0
  0
LINE
  5
13B
330
1F
100
AcDbEntity
  8
1
  6
Continuous
 62
     3
100
AcDbLine
 10
30.0512456214816
 20
60.8661235830096
 30
0.0
 11
31.53554020567489
 21
60.8661235830096
 31
0.0
  0
LINE
  5
13C
330
1F
100
AcDbEntity
  8
1
  6
Continuous
 62
     3
100
AcDbLine
 10
37.0512456214822
 20
9.8661038938378
 30
0.0
 11
22.00481915860459
 21
9.8661038938378
 31
0.0
  0
LINE
  5
13D
330
1F
100
AcDbEntity
  8
1
  6
Continuous
 62
     3
100
AcDbLine
 10
7.0512456214822
 20
9.8661038938378
 30
0.0
 11
22.00481915860459
 21
9.8661038938378
 31
0.0
  0
LINE
  5
13E
330
1F
100
AcDbEntity
  8
1
  6
Continuous
 62
     3
100
AcDbLine
 10
10.4062959797979
 20
30.2673911873968
 30
0.0
 11
6.3802355498193
 21
28.8020250295276
 31
0.0
  0
LINE
  5
13F
330
1F
100
AcDbEntity
  8
1
  6
Continuous
 62
     3
100
AcDbLine
 10
12.05124562148168
 20
59.8978117757208
 30
0.0
 11
12.05124562148239
 21
50.0472287320505
 31
0.0
  0
LINE
  5
140
330
1F
100
AcDbEntity
  8
1
  6
Continuous
 62
     3
100
AcDbLine
 10
32.0512456214818
 20
49.9460031763073
 30
0.0
 11
32.0512456214816
 21
59.93620460483079
 31
0.0
  0
LINE
  5
141
330
1F
100
AcDbEntity
  8
1
  6
Continuous
 62
     3
100
AcDbLine
 10
37.722255693145
 20
28.8020250295276
 30
0.0
 11
33.69619526316799
 21
30.2673911873962
 31
0.0
  0
LINE
  5
142
330
1F
100
AcDbEntity
  8
1
  6
Continuous
 62
     3
100
AcDbLine
 10
6.0512456214822
 20
10.7321292976223
 30
0.0
 11
6.0512456214822
 21
28.3321787191346
 31
0.0
  0
LINE
  5
143
330
1F
100
AcDbEntity
  8
1
  6
Continuous
 62
     3
100
AcDbLine
 10
38.0512456214822
 20
28.3321787191346
 30
0.0
 11
38.0512456214822
 21
10.7321292976223
 31
0.0
  0
LINE
  5
144
330
1F
100
AcDbEntity
  8
1
  6
Continuous
 62
     3
100
AcDbLine
 10
37.8012456214822
 20
10.2991165957301
 30
0.0
 11
37.0512456214822
 21
9.8661038938378
 31
0.0
  0
LINE
  5
145
330
1F
100
AcDbEntity
  8
1
  6
Continuous
 62
     3
100
AcDbLine
 10
6.3012456214822
 20
10.2991165957301
 30
0.0
 11
7.0512456214822
 21
9.8661038938378
 31
0.0
  0
LINE
  5
146
330
1F
100
AcDbEntity
  8
1
  6
Continuous
 62
     3
100
AcDbLine
 10
12.3442084349756
 20
60.6049881447388
 30
0.0
 11
12.60539527858549
 21
60.8661235830096
 31
0.0
  0
LINE
  5
147
330
1F
100
AcDbEntity
  8
100
  6
Continuous
 62
     3
100
AcDbLine
 10
100.2340477799395
 20
30.1435916500774
 30
0.0
 11
99.3544835360803
 21
30.1161038938377
 31
0.0
  0
LINE
  5
148
330
1F
100
AcDbEntity
  8
100
  6
Continuous
 62
     3
100
AcDbLine
 10
99.3544835360785
 20
51.6161038938378
 30
0.0
 11
100.2340477799395
 21
51.5886161375978
 31
0.0
  0
LINE
  5
149
330
1F
100
AcDbEntity
  8
1
  6
Continuous
 62
     3
100
AcDbLine
 10
100.2340477799395
 20
50.4266161375981
 30
0.0
 11
98.2340477799394
 21
50.48911926100639
 31
0.0
  0
LINE
  5
14A
330
1F
100
AcDbEntity
  8
100
  6
Continuous
 62
     3
100
AcDbLine
 10
98.23404777993909
 20
40.8661038938377
 30
0.0
 11
98.23404777993929
 21
51.6042419184498
 31
0.0
  0
LINE
  5
14B
330
1F
100
AcDbEntity
  8
1
  6
Continuous
 62
     3
100
AcDbLine
 10
100.2340477799395
 20
31.3055916500776
 30
0.0
 11
98.2340477799394
 21
31.2430885266694
 31
0.0
  0
LINE
  5
14C
330
1F
100
AcDbEntity
  8
100
  6
Continuous
 62
     3
100
AcDbLine
 10
98.2340477799394
 20
30.12796586922549
 30
0.0
 11
98.23404777993909
 21
40.8661038938377
 31
0.0
  0
LINE
  5
14D
330
1F
100
AcDbEntity
  8
0
  6
Continuous
 62
     3
100
AcDbLine
 10
68.23404777993949
 20
34.1619171580148
 30
0.0
 11
68.23404777993949
 21
40.8661038938377
 31
0.0
  0
LINE
  5
14E
330
1F
100
AcDbEntity
  8
0
  6
Continuous
 62
     3
100
AcDbLine
 10
82.6000731837101
 20
45.6619354171589
 30
0.0
 11
82.60007318372399
 21
47.9944675738101
 31
0.0
  0
LINE
  5
14F
330
1F
100
AcDbEntity
  8
0
  6
Continuous
 62
     3
100
AcDbLine
 10
95.01235994345231
 20
36.070272370525
 30
0.0
 11
82.6000731837101
 21
36.07027237051669
 31
0.0
  0
LINE
  5
150
330
1F
100
AcDbEntity
  8
0
  6
Continuous
 62
     3
100
AcDbLine
 10
95.01235994345231
 20
33.73774021386539
 30
0.0
 11
82.60007318372399
 21
33.73774021386539
 31
0.0
  0
LINE
  5
151
330
1F
100
AcDbEntity
  8
0
  6
Continuous
 62
     3
100
AcDbLine
 10
95.01235994345231
 20
33.73774021386539
 30
0.0
 11
95.01235994345231
 21
36.070272370525
 31
0.0
  0
LINE
  5
152
330
1F
100
AcDbEntity
  8
0
  6
Continuous
 62
     3
100
AcDbLine
 10
95.7340477799394
 20
30.1161038938377
 30
0.0
 11
99.3544835360803
 21
30.1161038938377
 31
0.0
  0
LINE
  5
153
330
1F
100
AcDbEntity
  8
0
  6
Continuous
 62
     3
100
AcDbLine
 10
82.60007318372399
 20
33.73774021386539
 30
0.0
 11
82.6000731837101
 21
36.07027237051669
 31
0.0
  0
LINE
  5
154
330
1F
100
AcDbEntity
  8
0
  6
Continuous
 62
     3
100
AcDbLine
 10
95.0123599434913
 20
47.9944675738948
 30
0.0
 11
82.60007318372399
 21
47.9944675738101
 31
0.0
  0
LINE
  5
155
330
1F
100
AcDbEntity
  8
0
  6
Continuous
 62
     3
100
AcDbLine
 10
95.7340477799394
 20
51.6161038938378
 30
0.0
 11
99.3544835360785
 21
51.6161038938378
 31
0.0
  0
LINE
  5
156
330
1F
100
AcDbEntity
  8
0
  6
Continuous
 62
     3
100
AcDbLine
 10
95.01235994345231
 20
45.6619354171505
 30
0.0
 11
95.0123599434913
 21
47.9944675738948
 31
0.0
  0
LINE
  5
157
330
1F
100
AcDbEntity
  8
0
  6
Continuous
 62
     3
100
AcDbLine
 10
95.01235994345231
 20
45.6619354171505
 30
0.0
 11
82.6000731837101
 21
45.6619354171589
 31
0.0
  0
LINE
  5
158
330
1F
100
AcDbEntity
  8
0
  6
Continuous
 62
     3
100
AcDbLine
 10
95.01235994345231
 20
52.8661038938378
 30
0.0
 11
95.7340477799394
 21
51.6161038938378
 31
0.0
  0
LINE
  5
159
330
1F
100
AcDbEntity
  8
0
  6
Continuous
 62
     3
100
AcDbLine
 10
95.01235994345231
 20
28.8661038938377
 30
0.0
 11
95.7340477799394
 21
30.1161038938377
 31
0.0
  0
LINE
  5
15A
330
1F
100
AcDbEntity
  8
0
  6
Continuous
 62
     3
100
AcDbLine
 10
82.60007318372399
 20
52.8661038938378
 30
0.0
 11
95.01235994345231
 21
52.8661038938378
 31
0.0
  0
LINE
  5
15B
330
1F
100
AcDbEntity
  8
0
  6
Continuous
 62
     3
100
AcDbLine
 10
82.60007318372399
 20
28.8661038938377
 30
0.0
 11
82.60007318372399
 21
28.9419086905525
 31
0.0
  0
LINE
  5
15C
330
1F
100
AcDbEntity
  8
0
  6
Continuous
 62
     3
100
AcDbLine
 10
81.73404777993949
 20
30.3661038938379
 30
0.0
 11
82.60007318372399
 21
28.8661038938377
 31
0.0
  0
LINE
  5
15D
330
1F
100
AcDbEntity
  8
0
  6
Continuous
 62
     3
100
AcDbLine
 10
95.01235994345231
 20
52.7902990971228
 30
0.0
 11
95.01235994345231
 21
52.8661038938378
 31
0.0
  0
LINE
  5
15E
330
1F
100
AcDbEntity
  8
0
  6
Continuous
 62
     3
100
AcDbLine
 10
95.01235994345231
 20
52.7902990971228
 30
0.0
 11
82.60007318372399
 21
52.7902990971228
 31
0.0
  0
LINE
  5
15F
330
1F
100
AcDbEntity
  8
0
  6
Continuous
 62
     3
100
AcDbLine
 10
95.01235994345231
 20
28.9419086905525
 30
0.0
 11
82.60007318372399
 21
28.9419086905525
 31
0.0
  0
LINE
  5
160
330
1F
100
AcDbEntity
  8
0
  6
Continuous
 62
     3
100
AcDbLine
 10
81.73404777993949
 20
51.3661038938378
 30
0.0
 11
82.60007318372399
 21
52.8661038938378
 31
0.0
  0
LINE
  5
161
330
1F
100
AcDbEntity
  8
0
  6
Continuous
 62
     3
100
AcDbLine
 10
82.60007318372399
 20
52.7902990971228
 30
0.0
 11
82.60007318372399
 21
52.8661038938378
 31
0.0
  0
LINE
  5
162
330
1F
100
AcDbEntity
  8
0
  6
Continuous
 62
     3
100
AcDbLine
 10
82.60007318372399
 20
28.8661038938377
 30
0.0
 11
95.01235994345231
 21
28.8661038938377
 31
0.0
  0
LINE
  5
163
330
1F
100
AcDbEntity
  8
0
  6
Continuous
 62
     3
100
AcDbLine
 10
95.01235994345231
 20
28.8661038938377
 30
0.0
 11
95.01235994345231
 21
28.9419086905525
 31
0.0
  0
LINE
  5
164
330
1F
100
AcDbEntity
  8
0
  6
Continuous
 62
     3
100
AcDbLine
 10
95.7340477799394
 20
30.1161038938377
 30
0.0
 11
95.7340477799394
 21
51.6161038938378
 31
0.0
  0
LINE
  5
165
330
1F
100
AcDbEntity
  8
0
  6
Continuous
 62
     3
100
AcDbLine
 10
78.23404777993949
 20
46.5229581433302
 30
0.0
 11
78.23404777993949
 21
46.5275851836188
 31
0.0
  0
LINE
  5
166
330
1F
100
AcDbEntity
  8
0
  6
Continuous
 62
     3
100
AcDbLine
 10
78.23404777993949
 20
51.6661038938378
 30
0.0
 11
78.23404777993949
 21
30.06610389383769
 31
0.0
  0
LINE
  5
167
330
1F
100
AcDbEntity
  8
0
  6
Continuous
 62
     3
100
AcDbLine
 10
71.7340477799201
 20
34.13801607305099
 30
0.0
 11
71.73404777990581
 21
37.58607556559559
 31
0.0
  0
LINE
  5
168
330
1F
100
AcDbEntity
  8
0
  6
Continuous
 62
     3
100
AcDbLine
 10
78.0340477799646
 20
30.7034290362006
 30
0.0
 11
72.39105174439268
 21
30.8316721071506
 31
0.0
  0
LINE
  5
169
330
1F
100
AcDbEntity
  8
0
  6
Continuous
 62
     3
100
AcDbLine
 10
78.0340477799395
 20
30.24091980465789
 30
0.0
 11
72.39105174439311
 21
30.3749992921899
 31
0.0
  0
LINE
  5
16A
330
1F
100
AcDbEntity
  8
0
  6
Continuous
 62
     3
100
AcDbLine
 10
78.0340477799395
 20
29.8661038938377
 30
0.0
 11
72.43207830317371
 21
29.96388663478059
 31
0.0
  0
LINE
  5
16B
330
1F
100
AcDbEntity
  8
0
  6
Continuous
 62
     3
100
AcDbLine
 10
78.23404777993949
 20
51.6661038938378
 30
0.0
 11
78.0340477799395
 21
51.8661038938378
 31
0.0
  0
LINE
  5
16C
330
1F
100
AcDbEntity
  8
0
  6
Continuous
 62
     3
100
AcDbLine
 10
78.0340477799395
 20
48.6476459012453
 30
0.0
 11
78.0340477799395
 21
48.6442784868899
 31
0.0
  0
LINE
  5
16D
330
1F
100
AcDbEntity
  8
0
  6
Continuous
 62
     3
100
AcDbLine
 10
78.0340477799395
 20
33.0879293007857
 30
0.0
 11
72.39105174408618
 21
33.1860822979171
 31
0.0
  0
LINE
  5
16E
330
1F
100
AcDbEntity
  8
0
  6
Continuous
 62
     3
100
AcDbLine
 10
78.0340477799395
 20
32.1392171506342
 30
0.0
 11
72.391051744545
 21
32.2493419720218
 31
0.0
  0
LINE
  5
16F
330
1F
100
AcDbEntity
  8
0
  6
Continuous
 62
     3
100
AcDbLine
 10
78.0340477799395
 20
31.3398244522088
 30
0.0
 11
72.3910517445452
 21
31.4600368319939
 31
0.0
  0
LINE
  5
170
330
1F
100
AcDbEntity
  8
0
  6
Continuous
 62
     3
100
AcDbLine
 10
71.7340477799201
 20
33.19419010287849
 30
0.0
 11
71.7340477799201
 21
34.13801607305099
 31
0.0
  0
LINE
  5
171
330
1F
100
AcDbEntity
  8
0
  6
Continuous
 62
     3
100
AcDbLine
 10
71.73404777992039
 20
32.3816327047638
 30
0.0
 11
71.7340477799201
 21
33.19419010287849
 31
0.0
  0
LINE
  5
172
330
1F
100
AcDbEntity
  8
0
  6
Continuous
 62
     3
100
AcDbLine
 10
71.7340477799203
 20
31.7142469609887
 30
0.0
 11
71.73404777992039
 21
32.3816327047638
 31
0.0
  0
LINE
  5
173
330
1F
100
AcDbEntity
  8
0
  6
Continuous
 62
     3
100
AcDbLine
 10
72.43207830317371
 20
29.96388663478059
 30
0.0
 11
71.73404777993949
 21
30.6619171580148
 31
0.0
  0
LINE
  5
174
330
1F
100
AcDbEntity
  8
0
  6
Continuous
 62
     3
100
AcDbLine
 10
71.73404777993949
 20
30.6619171580148
 30
0.0
 11
71.7340477799203
 21
30.85798774485529
 31
0.0
  0
LINE
  5
175
330
1F
100
AcDbEntity
  8
0
  6
Continuous
 62
     3
100
AcDbLine
 10
71.7340477799203
 20
30.85798774485529
 30
0.0
 11
71.7340477799201
 21
31.2034520266869
 31
0.0
  0
LINE
  5
176
330
1F
100
AcDbEntity
  8
0
  6
Continuous
 62
     3
100
AcDbLine
 10
71.7340477799201
 20
31.2034520266869
 30
0.0
 11
71.7340477799203
 21
31.7142469609887
 31
0.0
  0
LINE
  5
177
330
1F
100
AcDbEntity
  8
0
  6
Continuous
 62
     3
100
AcDbLine
 10
78.0340477799395
 20
51.8661038938378
 30
0.0
 11
72.43207830317371
 21
51.7683211528948
 31
0.0
  0
LINE
  5
178
330
1F
100
AcDbEntity
  8
0
  6
Continuous
 62
     3
100
AcDbLine
 10
78.0340477799395
 20
33.0879293007857
 30
0.0
 11
78.0340477799395
 21
33.08456188643019
 31
0.0
  0
LINE
  5
179
330
1F
100
AcDbEntity
  8
0
  6
Continuous
 62
     3
100
AcDbLine
 10
78.23404777993949
 20
30.06610389383769
 30
0.0
 11
78.0340477799395
 21
29.8661038938377
 31
0.0
  0
LINE
  5
17A
330
1F
100
AcDbEntity
  8
0
  6
Continuous
 62
     3
100
AcDbLine
 10
72.43207830317371
 20
51.7683211528948
 30
0.0
 11
71.73404777993949
 21
51.0702906296608
 31
0.0
  0
LINE
  5
17B
330
1F
100
AcDbEntity
  8
0
  6
Continuous
 62
     3
100
AcDbLine
 10
78.0340477799395
 20
51.4912879830178
 30
0.0
 11
72.39105174438771
 21
51.3572084954838
 31
0.0
  0
LINE
  5
17C
330
1F
100
AcDbEntity
  8
0
  6
Continuous
 62
     3
100
AcDbLine
 10
78.0340477799646
 20
51.0287787514748
 30
0.0
 11
72.39105174438791
 21
50.9005356805238
 31
0.0
  0
LINE
  5
17D
330
1F
100
AcDbEntity
  8
0
  6
Continuous
 62
     3
100
AcDbLine
 10
78.0340477799395
 20
50.3923833354667
 30
0.0
 11
72.39105174438811
 21
50.2721709556233
 31
0.0
  0
LINE
  5
17E
330
1F
100
AcDbEntity
  8
0
  6
Continuous
 62
     3
100
AcDbLine
 10
78.0340477799395
 20
49.5929906370413
 30
0.0
 11
72.39105174438791
 21
49.4828658154408
 31
0.0
  0
LINE
  5
17F
330
1F
100
AcDbEntity
  8
0
  6
Continuous
 62
     3
100
AcDbLine
 10
78.03404777996451
 20
38.0190943977583
 30
0.0
 11
72.391051744393
 21
38.05502088811569
 31
0.0
  0
LINE
  5
180
330
1F
100
AcDbEntity
  8
0
  6
Continuous
 62
     3
100
AcDbLine
 10
78.03404777996471
 20
40.86610389388629
 30
0.0
 11
72.39105174438791
 21
40.8661038938382
 31
0.0
  0
LINE
  5
181
330
1F
100
AcDbEntity
  8
0
  6
Continuous
 62
     3
100
AcDbLine
 10
78.03404777996451
 20
43.7131133899172
 30
0.0
 11
72.3910517443928
 21
43.6771868995594
 31
0.0
  0
LINE
  5
182
330
1F
100
AcDbEntity
  8
0
  6
Continuous
 62
     3
100
AcDbLine
 10
78.0340477799646
 20
39.43031577936989
 30
0.0
 11
72.391051744545
 21
39.4484340285868
 31
0.0
  0
LINE
  5
183
330
1F
100
AcDbEntity
  8
0
  6
Continuous
 62
     3
100
AcDbLine
 10
78.0340477799395
 20
42.30189200825829
 30
0.0
 11
72.39105174438791
 21
42.2837737589209
 31
0.0
  0
LINE
  5
184
330
1F
100
AcDbEntity
  8
0
  6
Continuous
 62
     3
100
AcDbLine
 10
71.7340477799201
 20
47.5941917145724
 30
0.0
 11
71.73404777990581
 21
48.5380176847281
 31
0.0
  0
LINE
  5
185
330
1F
100
AcDbEntity
  8
0
  6
Continuous
 62
     3
100
AcDbLine
 10
71.7340477799201
 20
44.1461322220197
 30
0.0
 11
71.7340477799201
 21
47.5941917145724
 31
0.0
  0
LINE
  5
186
330
1F
100
AcDbEntity
  8
0
  6
Continuous
 62
     3
100
AcDbLine
 10
71.73404777990581
 20
37.58607556559559
 30
0.0
 11
71.7340477799059
 21
38.8753658176026
 31
0.0
  0
LINE
  5
187
330
1F
100
AcDbEntity
  8
0
  6
Continuous
 62
     3
100
AcDbLine
 10
71.7340477799059
 20
38.8753658176026
 30
0.0
 11
71.7340477799201
 21
40.19871815003219
 31
0.0
  0
LINE
  5
188
330
1F
100
AcDbEntity
  8
0
  6
Continuous
 62
     3
100
AcDbLine
 10
71.7340477799201
 20
40.19871815003219
 30
0.0
 11
71.7340477799201
 21
41.5334896375746
 31
0.0
  0
LINE
  5
189
330
1F
100
AcDbEntity
  8
0
  6
Continuous
 62
     3
100
AcDbLine
 10
71.7340477799201
 20
41.5334896375746
 30
0.0
 11
71.7340477799201
 21
42.85684197000749
 31
0.0
  0
LINE
  5
18A
330
1F
100
AcDbEntity
  8
0
  6
Continuous
 62
     3
100
AcDbLine
 10
71.7340477799201
 20
42.85684197000749
 30
0.0
 11
71.7340477799201
 21
44.1461322220197
 31
0.0
  0
LINE
  5
18B
330
1F
100
AcDbEntity
  8
0
  6
Continuous
 62
     3
100
AcDbLine
 10
78.0340477799395
 20
48.6442784868899
 30
0.0
 11
72.39105174408618
 21
48.54612548934
 31
0.0
  0
LINE
  5
18C
330
1F
100
AcDbEntity
  8
0
  6
Continuous
 62
     3
100
AcDbLine
 10
71.73404777990581
 20
48.5380176847281
 30
0.0
 11
71.7340477799059
 21
49.3505750829285
 31
0.0
  0
LINE
  5
18D
330
1F
100
AcDbEntity
  8
0
  6
Continuous
 62
     3
100
AcDbLine
 10
71.7340477799059
 20
49.3505750829285
 30
0.0
 11
71.73404777993949
 21
50.017960826707
 31
0.0
  0
LINE
  5
18E
330
1F
100
AcDbEntity
  8
0
  6
Continuous
 62
     3
100
AcDbLine
 10
71.73404777993949
 20
50.017960826707
 30
0.0
 11
71.73404777990729
 21
50.5287557609406
 31
0.0
  0
LINE
  5
18F
330
1F
100
AcDbEntity
  8
0
  6
Continuous
 62
     3
100
AcDbLine
 10
71.73404777990729
 20
50.5287557609406
 30
0.0
 11
71.7340477799059
 21
50.8742200427788
 31
0.0
  0
LINE
  5
190
330
1F
100
AcDbEntity
  8
0
  6
Continuous
 62
     3
100
AcDbLine
 10
71.7340477799059
 20
50.8742200427788
 30
0.0
 11
71.73404777993949
 21
51.0702906296608
 31
0.0
  0
LINE
  5
191
330
1F
100
AcDbEntity
  8
0
  6
Continuous
 62
     3
100
AcDbLine
 10
68.23404777993949
 20
40.8661038938377
 30
0.0
 11
68.23404777993949
 21
47.5702906296608
 31
0.0
  0
LINE
  5
192
330
1F
100
AcDbEntity
  8
0
  6
Continuous
 62
     3
100
AcDbLine
 10
78.23404777993949
 20
46.5229581433302
 30
0.0
 11
78.23404777993949
 21
46.5275851836188
 31
0.0
  0
LINE
  5
193
330
1F
100
AcDbEntity
  8
4
  6
Continuous
 62
     3
100
AcDbLine
 10
78.23404777993949
 20
30.06610389383769
 30
0.0
 11
78.23404777993949
 21
29.8661038938377
 31
0.0
  0
LINE
  5
194
330
1F
100
AcDbEntity
  8
4
  6
Continuous
 62
     3
100
AcDbLine
 10
79.73404777993949
 20
21.8661038938377
 30
0.0
 11
81.23404777993949
 21
21.8661038938377
 31
0.0
  0
LINE
  5
195
330
1F
100
AcDbEntity
  8
4
  6
Continuous
 62
     3
100
AcDbLine
 10
79.23404777993949
 20
29.9482729305889
 30
0.0
 11
79.23404777993949
 21
22.3661038938377
 31
0.0
  0
LINE
  5
196
330
1F
100
AcDbEntity
  8
4
  6
Continuous
 62
     3
100
AcDbLine
 10
81.23404777993949
 20
49.1274597147669
 30
0.0
 11
78.73404777993949
 21
49.1274597147669
 31
0.0
  0
LINE
  5
197
330
1F
100
AcDbEntity
  8
1
  6
DOT_CENTER
 62
     1
100
AcDbLine
 10
128.2340477799396
 20
6.8661038938378
 30
0.0
 11
128.2340477799396
 21
87.9661038938378
 31
0.0
  0
LINE
  5
198
330
1F
100
AcDbEntity
  8
0
  6
Continuous
 62
     3
100
AcDbLine
 10
126.155586810857
 20
49.8089524545947
 30
0.0
 11
126.1555868108567
 21
32.062894258792
 31
0.0
  0
LINE
  5
199
330
1F
100
AcDbEntity
  8
0
  6
Continuous
 62
     3
100
AcDbLine
 10
137.4716520869737
 20
11.87251652264051
 30
0.0
 11
137.4716520869736
 21
27.61455179360939
 31
0.0
  0
LINE
  5
19A
330
1F
100
AcDbEntity
  8
0
  6
Continuous
 62
     3
100
AcDbLine
 10
138.2340477799396
 20
59.9518903314648
 30
0.0
 11
138.2340477799396
 21
32.61662273936149
 31
0.0
  0
LINE
  5
19B
330
1F
100
AcDbEntity
  8
0
  6
Continuous
 62
     3
100
AcDbLine
 10
113.2340477799396
 20
9.8661038938378
 30
0.0
 11
143.2340477799396
 21
9.8661038938378
 31
0.0
  0
LINE
  5
19C
330
1F
100
AcDbEntity
  8
0
  6
Continuous
 62
     3
100
AcDbLine
 10
100.2340477799395
 20
27.3355082789098
 30
0.0
 11
100.2340477799395
 21
54.39669950876579
 31
0.0
  0
LINE
  5
19D
330
1F
100
AcDbEntity
  8
0
  6
Continuous
 62
     3
100
AcDbLine
 10
118.9964434729056
 20
11.87251652265284
 30
0.0
 11
118.9964434729038
 21
27.6145543875668
 31
0.0
  0
LINE
  5
19E
330
1F
100
AcDbEntity
  8
0
  6
Continuous
 62
     3
100
AcDbLine
 10
118.2340477799396
 20
59.949154659983
 30
0.0
 11
118.23404777994
 21
56.466103893838
 31
0.0
  0
LINE
  5
19F
330
1F
100
AcDbEntity
  8
0
  6
Continuous
 62
     3
100
AcDbLine
 10
100.7001776583674
 20
54.4661038938378
 30
0.0
 11
116.23404777994
 21
54.4661038938379
 31
0.0
  0
LINE
  5
1A0
330
1F
100
AcDbEntity
  8
0
  6
Continuous
 62
     3
100
AcDbLine
 10
143.2340477799396
 20
9.8661038938378
 30
0.0
 11
146.4705255351109
 21
11.73468057029893
 31
0.0
  0
LINE
  5
1A1
330
1F
100
AcDbEntity
  8
0
  6
Continuous
 62
     3
100
AcDbLine
 10
146.7092563940076
 20
12.16119165725494
 30
0.0
 11
146.7092563940076
 21
27.4312764600151
 31
0.0
  0
LINE
  5
1A2
330
1F
100
AcDbEntity
  8
0
  6
Continuous
 62
     3
100
AcDbLine
 10
100.7001776583674
 20
27.26610389383779
 30
0.0
 11
107.7588391658716
 21
27.26610389383789
 31
0.0
  0
LINE
  5
1A3
330
1F
100
AcDbEntity
  8
1
  6
DOT_CENTER
 62
     1
100
AcDbLine
 10
6.05124562272638
 20
40.8661038935536
 30
0.0
 11
38.05124562272638
 21
40.8661038935536
 31
0.0
  0
LINE
  5
1A4
330
1F
100
AcDbEntity
  8
1
  6
Continuous
 62
     3
100
AcDbLine
 10
25.05124562272638
 20
29.0233846112266
 30
0.0
 11
25.05124562272638
 21
23.8661038935536
 31
0.0
  0
LINE
  5
1A5
330
1F
100
AcDbEntity
  8
1
  6
Continuous
 62
     3
100
AcDbLine
 10
19.05124562272638
 20
29.0233846112266
 30
0.0
 11
19.05124562272638
 21
23.8661038935536
 31
0.0
  0
LINE
  5
1A6
330
1F
100
AcDbEntity
  8
1
  6
Continuous
 62
     3
100
AcDbLine
 10
23.05124562272638
 20
21.8661038935536
 30
0.0
 11
21.05124562272638
 21
21.8661038935536
 31
0.0
  0
LINE
  5
1A7
330
1F
100
AcDbEntity
  8
1
  6
DOT_CENTER
 62
     1
100
AcDbLine
 10
18.55124562272638
 20
24.8661038935536
 30
0.0
 11
25.55124562272638
 21
24.8661038935536
 31
0.0
  0
LINE
  5
1A8
330
1F
100
AcDbEntity
  8
1
  6
Continuous
 62
     3
100
AcDbLine
 10
29.69764449494289
 20
48.77385858669909
 30
0.0
 11
30.05124562272638
 21
49.1274597144825
 31
0.0
  0
LINE
  5
1A9
330
1F
100
AcDbEntity
  8
1
  6
Continuous
 62
     3
100
AcDbLine
 10
14.05124562272638
 20
49.1274597144825
 30
0.0
 11
14.40484675050979
 21
48.77385858669909
 31
0.0
  0
LINE
  5
1AA
330
1F
100
AcDbEntity
  8
0
  6
Continuous
 62
     3
100
AcDbLine
 10
22.0512456214816
 20
11.8725165226604
 30
0.0
 11
22.0512456214822
 21
21.8661038935536
 31
0.0
  0
LINE
  5
1AB
330
1F
100
AcDbEntity
  8
0
  6
Continuous
 62
     3
100
AcDbLine
 10
100.2340477799396
 20
145.9333038108028
 30
0.0
 11
99.3544835360803
 21
145.9607915670418
 31
0.0
  0
LINE
  5
1AC
330
1F
100
AcDbEntity
  8
0
  6
Continuous
 62
     3
100
AcDbLine
 10
99.3544835360803
 20
145.9607915670418
 30
0.0
 11
95.7340477799394
 21
145.9607915670418
 31
0.0
  0
LINE
  5
1AD
330
1F
100
AcDbEntity
  8
0
  6
Continuous
 62
     3
100
AcDbLine
 10
100.2340477799396
 20
124.4882793232818
 30
0.0
 11
99.3544835360803
 21
124.4607915670418
 31
0.0
  0
LINE
  5
1AE
330
1F
100
AcDbEntity
  8
0
  6
Continuous
 62
     3
100
AcDbLine
 10
99.3544835360803
 20
124.4607915670418
 30
0.0
 11
95.7340477799394
 21
124.4607915670418
 31
0.0
  0
LINE
  5
1AF
330
1F
100
AcDbEntity
  8
0
  6
Continuous
 62
     3
100
AcDbLine
 10
95.7340477799394
 20
124.4607915670418
 30
0.0
 11
95.7340477799394
 21
145.9607915670418
 31
0.0
  0
LINE
  5
1B0
330
1F
100
AcDbEntity
  8
1
  6
Continuous
 62
     3
100
AcDbLine
 10
98.2340477799394
 20
144.8457915670418
 30
0.0
 11
98.2340477799394
 21
124.4607915670418
 31
0.0
  0
LINE
  5
1B1
330
1F
100
AcDbEntity
  8
1
  6
Continuous
 62
     3
100
AcDbLine
 10
98.2340477799394
 20
144.8457915670418
 30
0.0
 11
98.2340477799394
 21
145.9607915670418
 31
0.0
  0
LINE
  5
1B2
330
1F
100
AcDbEntity
  8
1
  6
Continuous
 62
     3
100
AcDbLine
 10
98.2340477799394
 20
125.5757915670418
 30
0.0
 11
100.2340477799396
 21
125.6382946904508
 31
0.0
  0
LINE
  5
1B3
330
1F
100
AcDbEntity
  8
1
  6
Continuous
 62
     3
100
AcDbLine
 10
98.2340477799394
 20
144.8457915670418
 30
0.0
 11
100.2340477799396
 21
144.7832884436338
 31
0.0
  0
LINE
  5
1B4
330
1F
100
AcDbEntity
  8
4
  6
Continuous
 62
     3
100
AcDbLine
 10
81.73404777993949
 20
124.2107915670418
 30
0.0
 11
81.73404777993949
 21
146.2107915670418
 31
0.0
  0
LINE
  5
1B5
330
1F
100
AcDbEntity
  8
0
  6
Continuous
 62
     3
100
AcDbLine
 10
68.23404777993949
 20
128.5066048312188
 30
0.0
 11
68.23404777993949
 21
141.9149783028648
 31
0.0
  0
LINE
  5
1B6
330
1F
100
AcDbEntity
  8
0
  6
Continuous
 62
     3
100
AcDbLine
 10
71.7340477764476
 20
125.0066048312188
 30
0.0
 11
71.73404777993949
 21
145.4149783028648
 31
0.0
  0
LINE
  5
1B7
330
1F
100
AcDbEntity
  8
0
  6
Continuous
 62
     3
100
AcDbLine
 10
78.0340477799646
 20
142.9889661600548
 30
0.0
 11
72.3910517440863
 21
142.8908131625438
 31
0.0
  0
LINE
  5
1B8
330
1F
100
AcDbEntity
  8
0
  6
Continuous
 62
     3
100
AcDbLine
 10
78.0340477799646
 20
136.6465796815098
 30
0.0
 11
72.391051744388
 21
136.6284614321248
 31
0.0
  0
LINE
  5
1B9
330
1F
100
AcDbEntity
  8
0
  6
Continuous
 62
     3
100
AcDbLine
 10
78.0340477799395
 20
133.7750034526218
 30
0.0
 11
72.39105174454511
 21
133.7931217017908
 31
0.0
  0
LINE
  5
1BA
330
1F
100
AcDbEntity
  8
0
  6
Continuous
 62
     3
100
AcDbLine
 10
78.0340477799395
 20
138.0578010631688
 30
0.0
 11
72.3910517443928
 21
138.0218745727638
 31
0.0
  0
LINE
  5
1BB
330
1F
100
AcDbEntity
  8
0
  6
Continuous
 62
     3
100
AcDbLine
 10
78.03404777996471
 20
135.2107915670908
 30
0.0
 11
72.391051744388
 21
135.2107915670428
 31
0.0
  0
LINE
  5
1BC
330
1F
100
AcDbEntity
  8
0
  6
Continuous
 62
     3
100
AcDbLine
 10
78.0340477799646
 20
132.3637820709628
 30
0.0
 11
72.391051744393
 21
132.3997085613198
 31
0.0
  0
LINE
  5
1BD
330
1F
100
AcDbEntity
  8
0
  6
Continuous
 62
     3
100
AcDbLine
 10
78.03404777996471
 20
143.9376783102108
 30
0.0
 11
72.391051744388
 21
143.8275534886448
 31
0.0
  0
LINE
  5
1BE
330
1F
100
AcDbEntity
  8
0
  6
Continuous
 62
     3
100
AcDbLine
 10
78.0340477799395
 20
144.7370710086708
 30
0.0
 11
72.39105174438811
 21
144.6168586288278
 31
0.0
  0
LINE
  5
1BF
330
1F
100
AcDbEntity
  8
0
  6
Continuous
 62
     3
100
AcDbLine
 10
78.0340477799395
 20
145.3734664246658
 30
0.0
 11
72.39105174438791
 21
145.2452233537278
 31
0.0
  0
LINE
  5
1C0
330
1F
100
AcDbEntity
  8
0
  6
Continuous
 62
     3
100
AcDbLine
 10
78.0340477799646
 20
145.8359756562028
 30
0.0
 11
72.39105174438771
 21
145.7018961686878
 31
0.0
  0
LINE
  5
1C1
330
1F
100
AcDbEntity
  8
0
  6
Continuous
 62
     3
100
AcDbLine
 10
72.43207830317371
 20
146.1130088260988
 30
0.0
 11
71.73404777993949
 21
145.4149783028648
 31
0.0
  0
LINE
  5
1C2
330
1F
100
AcDbEntity
  8
0
  6
Continuous
 62
     3
100
AcDbLine
 10
78.0340477799395
 20
146.2107915670418
 30
0.0
 11
78.23404777993949
 21
146.0107915670418
 31
0.0
  0
LINE
  5
1C3
330
1F
100
AcDbEntity
  8
0
  6
Continuous
 62
     3
100
AcDbLine
 10
78.0340477799395
 20
146.2107915670418
 30
0.0
 11
72.43207830317371
 21
146.1130088260988
 31
0.0
  0
LINE
  5
1C4
330
1F
100
AcDbEntity
  8
0
  6
Continuous
 62
     3
100
AcDbLine
 10
78.0340477799395
 20
125.6845121254128
 30
0.0
 11
72.3910517445452
 21
125.8047245051978
 31
0.0
  0
LINE
  5
1C5
330
1F
100
AcDbEntity
  8
0
  6
Continuous
 62
     3
100
AcDbLine
 10
78.0340477799395
 20
126.4839048238388
 30
0.0
 11
72.39105174454511
 21
126.5940296452258
 31
0.0
  0
LINE
  5
1C6
330
1F
100
AcDbEntity
  8
0
  6
Continuous
 62
     3
100
AcDbLine
 10
78.0340477799395
 20
127.4326169739898
 30
0.0
 11
72.3910517440863
 21
127.5307699711208
 31
0.0
  0
LINE
  5
1C7
330
1F
100
AcDbEntity
  8
0
  6
Continuous
 62
     3
100
AcDbLine
 10
78.0340477799395
 20
124.2107915670418
 30
0.0
 11
78.23404777993949
 21
124.4107915670418
 31
0.0
  0
LINE
  5
1C8
330
1F
100
AcDbEntity
  8
0
  6
Continuous
 62
     3
100
AcDbLine
 10
78.0340477799395
 20
124.2107915670418
 30
0.0
 11
72.43207830317371
 21
124.3085743079848
 31
0.0
  0
LINE
  5
1C9
330
1F
100
AcDbEntity
  8
0
  6
Continuous
 62
     3
100
AcDbLine
 10
78.0340477799646
 20
125.0481167094048
 30
0.0
 11
72.3910517443928
 21
125.1763597803548
 31
0.0
  0
LINE
  5
1CA
330
1F
100
AcDbEntity
  8
1
  6
Continuous
 62
     3
100
AcDbLine
 10
78.23404777993949
 20
144.2107915670418
 30
0.0
 11
78.23404777993949
 21
124.2107915670418
 31
0.0
  0
LINE
  5
1CB
330
1F
100
AcDbEntity
  8
1
  6
Continuous
 62
     3
100
AcDbLine
 10
78.23404777993949
 20
146.2107915670418
 30
0.0
 11
78.23404777993949
 21
144.2107915670418
 31
0.0
  0
LINE
  5
1CC
330
1F
100
AcDbEntity
  8
1
  6
Continuous
 62
     3
100
AcDbLine
 10
81.23404777993949
 20
123.7107915670418
 30
0.0
 11
78.73404777993949
 21
123.7107915670418
 31
0.0
  0
LINE
  5
1CD
330
1F
100
AcDbEntity
  8
1
  6
Continuous
 62
     3
100
AcDbLine
 10
81.23404777993949
 20
146.7107915670418
 30
0.0
 11
78.73404777993949
 21
146.7107915670418
 31
0.0
  0
LINE
  5
1CE
330
1F
100
AcDbEntity
  8
1
  6
Continuous
 62
     3
100
AcDbLine
 10
81.73404777993949
 20
126.2107915670418
 30
0.0
 11
78.23404777993949
 21
126.2107915670418
 31
0.0
  0
LINE
  5
1CF
330
1F
100
AcDbEntity
  8
1
  6
Continuous
 62
     3
100
AcDbLine
 10
81.73404777993949
 20
144.2107915670418
 30
0.0
 11
78.23404777993949
 21
144.2107915670418
 31
0.0
  0
LINE
  5
1D0
330
1F
100
AcDbEntity
  8
0
  6
Continuous
 62
     3
100
AcDbLine
 10
78.0340477799395
 20
124.5856074778618
 30
0.0
 11
72.39105174439311
 21
124.7196869653938
 31
0.0
  0
LINE
  5
1D1
330
1F
100
AcDbEntity
  8
0
  6
Continuous
 62
     3
100
AcDbLine
 10
71.73404777993949
 20
125.0066048312188
 30
0.0
 11
72.43207830317371
 21
124.3085743079848
 31
0.0
  0
LINE
  5
1D2
330
1F
100
AcDbEntity
  8
1
  6
DOT_CENTER
 62
     1
100
AcDbLine
 10
65.23404777993949
 20
135.2107915670418
 30
0.0
 11
149.2340477799396
 21
135.2107915670418
 31
0.0
  0
LINE
  5
1D3
330
1F
100
AcDbEntity
  8
1
  6
Continuous
 62
     3
100
AcDbLine
 10
137.4716520869737
 20
151.2107915670418
 30
0.0
 11
118.9964434729056
 21
151.2107915670418
 31
0.0
  0
LINE
  5
1D4
330
1F
100
AcDbEntity
  8
1
  6
Continuous
 62
     3
100
AcDbLine
 10
146.7092563940077
 20
135.2107915670418
 30
0.0
 11
137.4716520869737
 21
151.2107915670418
 31
0.0
  0
LINE
  5
1D5
330
1F
100
AcDbEntity
  8
1
  6
Continuous
 62
     3
100
AcDbLine
 10
137.4716520869737
 20
119.2107915670418
 30
0.0
 11
146.7092563940077
 21
135.2107915670418
 31
0.0
  0
LINE
  5
1D6
330
1F
100
AcDbEntity
  8
1
  6
Continuous
 62
     3
100
AcDbLine
 10
118.9964434729056
 20
119.2107915670418
 30
0.0
 11
137.4716520869737
 21
119.2107915670418
 31
0.0
  0
LINE
  5
1D7
330
1F
100
AcDbEntity
  8
1
  6
Continuous
 62
     3
100
AcDbLine
 10
117.6108028268503
 20
121.6107915670418
 30
0.0
 11
118.9964434729056
 21
119.2107915670418
 31
0.0
  0
LINE
  5
1D8
330
1F
100
AcDbEntity
  8
1
  6
Continuous
 62
     3
100
AcDbLine
 10
118.9964434729056
 20
151.2107915670418
 30
0.0
 11
117.6108028268504
 21
148.8107915670428
 31
0.0
  0
LINE
  5
1D9
330
1F
100
AcDbEntity
  8
1
  6
Continuous
 62
     3
100
AcDbLine
 10
100.7001776583675
 20
121.6107915670418
 30
0.0
 11
125.5782365416668
 21
121.6107915670418
 31
0.0
  0
LINE
  5
1DA
330
1F
100
AcDbEntity
  8
1
  6
Continuous
 62
     3
100
AcDbLine
 10
100.7001776583674
 20
148.8107915670428
 30
0.0
 11
125.5782365416674
 21
148.8107915670418
 31
0.0
  0
LINE
  5
1DB
330
1F
100
AcDbEntity
  8
1
  6
Continuous
 62
     3
100
AcDbLine
 10
100.2340477799396
 20
146.7107915670418
 30
0.0
 11
100.2340477799396
 21
148.7413871819698
 31
0.0
  0
LINE
  5
1DC
330
1F
100
AcDbEntity
  8
1
  6
Continuous
 62
     3
100
AcDbLine
 10
100.2340477799396
 20
135.2107915670418
 30
0.0
 11
100.2340477799396
 21
146.7107915670418
 31
0.0
  0
LINE
  5
1DD
330
1F
100
AcDbEntity
  8
1
  6
Continuous
 62
     3
100
AcDbLine
 10
100.2340477799396
 20
123.7107915670418
 30
0.0
 11
100.2340477799396
 21
135.2107915670418
 31
0.0
  0
LINE
  5
1DE
330
1F
100
AcDbEntity
  8
1
  6
Continuous
 62
     3
100
AcDbLine
 10
100.2340477799396
 20
121.6801959521148
 30
0.0
 11
100.2340477799396
 21
123.7107915670418
 31
0.0
  0
LINE
  5
1DF
330
1F
100
AcDbEntity
  8
1
  6
DOT_CENTER
 62
     1
100
AcDbLine
 10
128.2340477799396
 20
153.7107915670418
 30
0.0
 11
128.2340477799396
 21
116.7107915670418
 31
0.0
  0
LINE
  5
1E0
330
1F
100
AcDbEntity
  8
1
  6
Continuous
 62
     3
100
AcDbLine
 10
30.26949745702601
 20
32.90920788018291
 30
0.0
 11
31.7045575541853
 21
33.73774021358111
 31
0.0
  0
LINE
  5
1E1
330
1F
100
AcDbEntity
  8
1
  6
Continuous
 62
     3
100
AcDbLine
 10
33.05124562272658
 20
44.22020585980201
 30
0.0
 11
33.05124562272658
 21
45.6619354168663
 31
0.0
  0
LINE
  5
1E2
330
1F
100
AcDbEntity
  8
1
  6
Continuous
 62
     3
100
AcDbLine
 10
31.7045575541853
 20
47.99446757352611
 30
0.0
 11
30.45598313238151
 21
48.71533235205776
 31
0.0
  0
LINE
  5
1E3
330
1F
100
AcDbEntity
  8
1
  6
Continuous
 62
     3
100
AcDbLine
 10
29.938111554942
 20
49.01432564669815
 30
0.0
 11
23.3979336912673
 21
52.79029909683879
 31
0.0
  0
LINE
  5
1E4
330
1F
100
AcDbEntity
  8
1
  6
Continuous
 62
     3
100
AcDbLine
 10
20.7045575541853
 20
52.79029909683879
 30
0.0
 11
14.1643796905108
 21
49.01432564669806
 31
0.0
  0
LINE
  5
1E5
330
1F
100
AcDbEntity
  8
1
  6
Continuous
 62
     3
100
AcDbLine
 10
13.64650811307109
 20
48.7153323520578
 30
0.0
 11
12.3979336912673
 21
47.99446757352611
 31
0.0
  0
LINE
  5
1E6
330
1F
100
AcDbEntity
  8
1
  6
Continuous
 62
     3
100
AcDbLine
 10
11.05124562272638
 20
45.6619354168663
 30
0.0
 11
11.05124562272638
 21
44.2202058598029
 31
0.0
  0
LINE
  5
1E7
330
1F
100
AcDbEntity
  8
1
  6
Continuous
 62
     3
100
AcDbLine
 10
11.05124562272638
 20
37.5120019273043
 30
0.0
 11
11.05124562272638
 21
36.0702723702409
 31
0.0
  0
LINE
  5
1E8
330
1F
100
AcDbEntity
  8
1
  6
Continuous
 62
     3
100
AcDbLine
 10
12.3979336912673
 20
33.73774021358111
 30
0.0
 11
13.64650811307109
 21
33.0168754350494
 31
0.0
  0
LINE
  5
1E9
330
1F
100
AcDbEntity
  8
1
  6
Continuous
 62
     3
100
AcDbLine
 10
33.05124562272658
 20
36.0702723702409
 30
0.0
 11
33.05124562272658
 21
37.51200192730519
 31
0.0
  0
LINE
  5
1EA
330
1F
100
AcDbEntity
  8
1
  6
Continuous
 62
     3
100
AcDbLine
 10
82.02272291453531
 20
124.2107915670418
 30
0.0
 11
95.58971021264298
 21
124.2107915670418
 31
0.0
  0
LINE
  5
1EB
330
1F
100
AcDbEntity
  8
2
  6
Continuous
 62
     3
100
AcDbLine
 10
95.58971021264298
 20
124.2107915670418
 30
0.0
 11
95.7340477799394
 21
124.4607915670418
 31
0.0
  0
LINE
  5
1EC
330
1F
100
AcDbEntity
  8
1
  6
Continuous
 62
     3
100
AcDbLine
 10
95.0123599434533
 20
124.2107915670418
 30
0.0
 11
95.0123599434533
 21
125.5574796355827
 31
0.0
  0
LINE
  5
1ED
330
1F
100
AcDbEntity
  8
1
  6
Continuous
 62
     3
100
AcDbLine
 10
82.6000731837249
 20
125.5574796355827
 30
0.0
 11
95.0123599434533
 21
125.5574796355827
 31
0.0
  0
LINE
  5
1EE
330
1F
100
AcDbEntity
  8
2
  6
Continuous
 62
     3
100
AcDbLine
 10
82.02272291453531
 20
124.2107915670418
 30
0.0
 11
81.7340477799394
 21
124.7107915670436
 31
0.0
  0
LINE
  5
1EF
330
1F
100
AcDbEntity
  8
1
  6
Continuous
 62
     3
100
AcDbLine
 10
82.6000731837249
 20
124.2107915670418
 30
0.0
 11
82.6000731837249
 21
125.5574796355827
 31
0.0
  0
LINE
  5
1F0
330
1F
100
AcDbEntity
  8
1
  6
Continuous
 62
     3
100
AcDbLine
 10
95.0123599434533
 20
133.8641034985008
 30
0.0
 11
82.6000731837249
 21
133.8641034985008
 31
0.0
  0
LINE
  5
1F1
330
1F
100
AcDbEntity
  8
1
  6
Continuous
 62
     3
100
AcDbLine
 10
82.6000731837249
 20
136.5574796355827
 30
0.0
 11
82.6000731837249
 21
133.8641034985008
 31
0.0
  0
LINE
  5
1F2
330
1F
100
AcDbEntity
  8
1
  6
Continuous
 62
     3
100
AcDbLine
 10
82.6000731837249
 20
136.5574796355827
 30
0.0
 11
95.0123599434533
 21
136.5574796355827
 31
0.0
  0
LINE
  5
1F3
330
1F
100
AcDbEntity
  8
1
  6
Continuous
 62
     3
100
AcDbLine
 10
95.0123599434533
 20
136.5574796355827
 30
0.0
 11
95.0123599434533
 21
133.8641034985008
 31
0.0
  0
LINE
  5
1F4
330
1F
100
AcDbEntity
  8
1
  6
Continuous
 62
     3
100
AcDbLine
 10
82.02272291453531
 20
146.2107915670418
 30
0.0
 11
95.58971021264298
 21
146.2107915670418
 31
0.0
  0
LINE
  5
1F5
330
1F
100
AcDbEntity
  8
2
  6
Continuous
 62
     3
100
AcDbLine
 10
81.7340477799394
 20
145.71079156704
 30
0.0
 11
82.02272291453531
 21
146.2107915670418
 31
0.0
  0
LINE
  5
1F6
330
1F
100
AcDbEntity
  8
1
  6
Continuous
 62
     3
100
AcDbLine
 10
82.6000731837249
 20
146.2107915670418
 30
0.0
 11
82.6000731837249
 21
144.8641034985009
 31
0.0
  0
LINE
  5
1F7
330
1F
100
AcDbEntity
  8
1
  6
Continuous
 62
     3
100
AcDbLine
 10
95.0123599434533
 20
144.8641034985009
 30
0.0
 11
82.6000731837249
 21
144.8641034985009
 31
0.0
  0
LINE
  5
1F8
330
1F
100
AcDbEntity
  8
1
  6
Continuous
 62
     3
100
AcDbLine
 10
95.0123599434533
 20
144.8641034985009
 30
0.0
 11
95.0123599434533
 21
146.2107915670418
 31
0.0
  0
LINE
  5
1F9
330
1F
100
AcDbEntity
  8
2
  6
Continuous
 62
     3
100
AcDbLine
 10
95.7340477799394
 20
145.9607915670418
 30
0.0
 11
95.58971021264298
 21
146.2107915670418
 31
0.0
  0
LINE
  5
1FA
330
1F
100
AcDbEntity
  8
1
  6
Continuous
 62
     3
100
AcDbLine
 10
118.7368031405936
 20
60.8661235830098
 30
0.0
 11
118.5269409987534
 21
60.6562614411699
 31
0.0
  0
LINE
  5
1FB
330
1F
100
AcDbEntity
  8
1
  6
Continuous
 62
     3
100
AcDbLine
 10
137.9411545611252
 20
60.6589964170112
 30
0.0
 11
137.7340273951265
 21
60.8661235830097
 31
0.0
  0
LINE
  5
1FC
330
1F
100
AcDbEntity
  8
1
  6
Continuous
 62
     3
100
AcDbLine
 10
109.7588391658716
 20
12.16119165725494
 30
0.0
 11
109.7588391658716
 21
25.26610389383789
 31
0.0
  0
LINE
  5
1FD
330
1F
100
AcDbEntity
  8
1
  6
Continuous
 62
     3
100
AcDbLine
 10
110.0088391658716
 20
11.72817895536273
 30
0.0
 11
113.2340477799396
 21
9.8661038938378
 31
0.0
  0
LINE
  5
1FE
330
1F
100
AcDbEntity
  8
1
  6
Continuous
 62
     3
100
AcDbLine
 10
146.3802664656704
 20
27.90112277040801
 30
0.0
 11
139.8789974216254
 21
30.2673911873968
 31
0.0
  0
LINE
  5
1FF
330
1F
100
AcDbEntity
  8
3
  6
DOTTED
 62
     4
100
AcDbLine
 10
137.6340477799396
 20
72.3661038938376
 30
0.0
 11
137.6340477799396
 21
74.56610389383759
 31
0.0
  0
LINE
  5
200
330
1F
100
AcDbEntity
  8
3
  6
DOTTED
 62
     4
100
AcDbLine
 10
137.0340477799396
 20
70.8661038938376
 30
0.0
 11
137.0340477799396
 21
72.3661038938376
 31
0.0
  0
LINE
  5
201
330
1F
100
AcDbEntity
  8
3
  6
DOTTED
 62
     4
100
AcDbLine
 10
137.0340477799396
 20
72.3661038938376
 30
0.0
 11
137.6340477799396
 21
72.3661038938376
 31
0.0
  0
LINE
  5
202
330
1F
100
AcDbEntity
  8
3
  6
DOTTED
 62
     4
100
AcDbLine
 10
118.8340477799396
 20
72.3661038938376
 30
0.0
 11
119.4340477799397
 21
72.3661038938376
 31
0.0
  0
LINE
  5
203
330
1F
100
AcDbEntity
  8
3
  6
DOTTED
 62
     4
100
AcDbLine
 10
137.3340477799396
 20
74.8661038938376
 30
0.0
 11
119.1340477799396
 21
74.8661038938376
 31
0.0
  0
LINE
  5
204
330
1F
100
AcDbEntity
  8
3
  6
DOTTED
 62
     4
100
AcDbLine
 10
119.4340477799397
 20
72.3661038938376
 30
0.0
 11
119.4340477799397
 21
70.8661038938376
 31
0.0
  0
LINE
  5
205
330
1F
100
AcDbEntity
  8
3
  6
DOTTED
 62
     4
100
AcDbLine
 10
118.8340477799396
 20
74.56610389383759
 30
0.0
 11
118.8340477799396
 21
72.3661038938376
 31
0.0
  0
LINE
  5
206
330
1F
100
AcDbEntity
  8
1
  6
DOTTED
 62
     4
100
AcDbLine
 10
137.3340477799396
 20
74.8661038938376
 30
0.0
 11
137.6340477799396
 21
74.56610389383759
 31
0.0
  0
LINE
  5
207
330
1F
100
AcDbEntity
  8
1
  6
DOTTED
 62
     4
100
AcDbLine
 10
118.8340477799396
 20
74.56610389383759
 30
0.0
 11
119.1340477799396
 21
74.8661038938376
 31
0.0
  0
LINE
  5
208
330
1F
100
AcDbEntity
  8
1
  6
DOTTED
 62
     4
100
AcDbLine
 10
120.2340477799397
 20
70.06610389383759
 30
0.0
 11
119.4340477799397
 21
70.8661038938376
 31
0.0
  0
LINE
  5
209
330
1F
100
AcDbEntity
  8
1
  6
DOTTED
 62
     4
100
AcDbLine
 10
136.2340477799395
 20
70.06610389383759
 30
0.0
 11
137.0340477799396
 21
70.8661038938376
 31
0.0
  0
LINE
  5
20A
330
1F
100
AcDbEntity
  8
1
  6
Continuous
 62
     3
100
AcDbLine
 10
120.2340477799396
 20
60.8661235830095
 30
0.0
 11
120.2340477799397
 21
68.9661038938378
 31
0.0
  0
LINE
  5
20B
330
1F
100
AcDbEntity
  8
1
  6
Continuous
 62
     3
100
AcDbLine
 10
136.2340477799395
 20
60.8661235830099
 30
0.0
 11
136.2340477799395
 21
68.9661038938378
 31
0.0
  0
LINE
  5
20C
330
1F
100
AcDbEntity
  8
1
  6
DOTTED
 62
     4
100
AcDbLine
 10
136.2340477799395
 20
68.98178892483159
 30
0.0
 11
136.2340477799395
 21
70.06610389383759
 31
0.0
  0
LINE
  5
20D
330
1F
100
AcDbEntity
  8
1
  6
DOTTED
 62
     4
100
AcDbLine
 10
120.2340477799397
 20
68.98178892483159
 30
0.0
 11
120.2340477799397
 21
70.06610389383759
 31
0.0
  0
ARC
  5
20E
330
1F
100
AcDbEntity
  8
0
  6
Continuous
 62
     3
100
AcDbCircle
 10
71.73404777993949
 20
47.5702906296608
 30
0.0
 40
3.5
100
AcDbArc
 50
90.0
 51
180.0
  0
ARC
  5
20F
330
1F
100
AcDbEntity
  8
0
  6
Continuous
 62
     3
100
AcDbCircle
 10
71.73404777993949
 20
34.1619171580148
 30
0.0
 40
3.5
100
AcDbArc
 50
180.0
 51
270.0
  0
ARC
  5
210
330
1F
100
AcDbEntity
  8
4
  6
Continuous
 62
     3
100
AcDbCircle
 10
78.73404777993949
 20
29.8661038938377
 30
0.0
 40
0.5
100
AcDbArc
 50
180.0
 51
270.0
  0
ARC
  5
211
330
1F
100
AcDbEntity
  8
4
  6
Continuous
 62
     3
100
AcDbCircle
 10
79.73404777993949
 20
22.3661038938377
 30
0.0
 40
0.5
100
AcDbArc
 50
180.0
 51
270.0
  0
ARC
  5
212
330
1F
100
AcDbEntity
  8
4
  6
Continuous
 62
     3
100
AcDbCircle
 10
81.23404777993949
 20
22.3661038938377
 30
0.0
 40
0.5
100
AcDbArc
 50
270.0
 51
0.0
  0
ARC
  5
213
330
1F
100
AcDbEntity
  8
4
  6
Continuous
 62
     3
100
AcDbCircle
 10
78.73404777993949
 20
28.8661038938377
 30
0.0
 40
0.5
100
AcDbArc
 50
0.0
 51
90.0
  0
ARC
  5
214
330
1F
100
AcDbEntity
  8
4
  6
Continuous
 62
     3
100
AcDbCircle
 10
78.73404777993949
 20
48.6274597147669
 30
0.0
 40
0.5
100
AcDbArc
 50
90.0
 51
151.4915503363368
  0
ARC
  5
215
330
1F
100
AcDbEntity
  8
4
  6
Continuous
 62
     3
100
AcDbCircle
 10
81.23404777993949
 20
48.6274597147669
 30
0.0
 40
0.5000000000000497
100
AcDbArc
 50
28.50844966366696
 51
90.0
  0
ARC
  5
216
330
1F
100
AcDbEntity
  8
0
  6
Continuous
 62
     3
100
AcDbCircle
 10
100.7001776583673
 20
52.8661038938378
 30
0.0
 40
1.599999999999994
100
AcDbArc
 50
89.99999999999643
 51
106.9376682837198
  0
ARC
  5
217
330
1F
100
AcDbEntity
  8
0
  6
Continuous
 62
     3
100
AcDbCircle
 10
100.7001776583673
 20
28.8661038938378
 30
0.0
 40
1.599999999999979
100
AcDbArc
 50
253.0623317162803
 51
270.0000000000036
  0
ARC
  5
218
330
1F
100
AcDbEntity
  8
1
  6
Continuous
 62
     3
100
AcDbCircle
 10
23.05124562272638
 20
23.8661038935536
 30
0.0
 40
2.0
100
AcDbArc
 50
270.0
 51
0.0
  0
ARC
  5
219
330
1F
100
AcDbEntity
  8
1
  6
Continuous
 62
     3
100
AcDbCircle
 10
21.05124562272638
 20
23.8661038935536
 30
0.0
 40
2.0
100
AcDbArc
 50
180.0
 51
270.0
  0
ARC
  5
21A
330
1F
100
AcDbEntity
  8
1
  6
Continuous
 62
     3
100
AcDbCircle
 10
22.05124562272638
 20
40.8661038935536
 30
0.0
 40
11.49999999999982
100
AcDbArc
 50
134.0792098478884
 51
45.92079015211159
  0
ARC
  5
21B
330
1F
100
AcDbEntity
  8
1
  6
Continuous
 62
     3
100
AcDbCircle
 10
26.05124562272638
 20
29.0233846112266
 30
0.0
 40
0.9999999999999637
100
AcDbArc
 50
108.6629248849475
 51
180.0
  0
ARC
  5
21C
330
1F
100
AcDbEntity
  8
1
  6
Continuous
 62
     3
100
AcDbCircle
 10
18.05124562272638
 20
29.0233846112266
 30
0.0
 40
1.0
100
AcDbArc
 50
0.0
 51
71.337075115053
  0
ARC
  5
21D
330
1F
100
AcDbEntity
  8
1
  6
Continuous
 62
     3
100
AcDbCircle
 10
22.05124561987338
 20
40.86610389900339
 30
0.0
 40
13.59999999462541
100
AcDbArc
 50
282.7435852396443
 51
180.0
  0
ARC
  5
21E
330
1F
100
AcDbEntity
  8
1
  6
Continuous
 62
     3
100
AcDbCircle
 10
22.05124561987338
 20
40.86610389900339
 30
0.0
 40
13.59999999462539
100
AcDbArc
 50
180.0
 51
257.2564147850017
  0
ARC
  5
21F
330
1F
100
AcDbEntity
  8
0
  6
Continuous
 62
     3
100
AcDbCircle
 10
71.73404777993949
 20
128.5066048312188
 30
0.0
 40
3.5
100
AcDbArc
 50
180.0
 51
270.0
  0
ARC
  5
220
330
1F
100
AcDbEntity
  8
0
  6
Continuous
 62
     3
100
AcDbCircle
 10
71.73404777993949
 20
141.9149783028648
 30
0.0
 40
3.5
100
AcDbArc
 50
90.0
 51
180.0
  0
ARC
  5
221
330
1F
100
AcDbEntity
  8
1
  6
Continuous
 62
     3
100
AcDbCircle
 10
78.73404777993949
 20
124.2107915670418
 30
0.0
 40
0.5
100
AcDbArc
 50
180.0
 51
270.0
  0
ARC
  5
222
330
1F
100
AcDbEntity
  8
1
  6
Continuous
 62
     3
100
AcDbCircle
 10
81.23404777993949
 20
124.2107915670418
 30
0.0
 40
0.5
100
AcDbArc
 50
270.0
 51
0.0
  0
ARC
  5
223
330
1F
100
AcDbEntity
  8
1
  6
Continuous
 62
     3
100
AcDbCircle
 10
81.23404777993949
 20
146.2107915670418
 30
0.0
 40
0.5
100
AcDbArc
 50
0.0
 51
90.0
  0
ARC
  5
224
330
1F
100
AcDbEntity
  8
1
  6
Continuous
 62
     3
100
AcDbCircle
 10
78.73404777993949
 20
146.2107915670418
 30
0.0
 40
0.5
100
AcDbArc
 50
90.0
 51
180.0
  0
ARC
  5
225
330
1F
100
AcDbEntity
  8
1
  6
Continuous
 62
     3
100
AcDbCircle
 10
125.5782365416674
 20
147.8107915670418
 30
0.0
 40
0.9999999999999712
100
AcDbArc
 50
30.00000000000095
 51
90.0
  0
ARC
  5
226
330
1F
100
AcDbEntity
  8
1
  6
Continuous
 62
     3
100
AcDbCircle
 10
125.5782365416668
 20
122.6107915670408
 30
0.0
 40
0.9999999999990052
100
AcDbArc
 50
270.0
 51
329.9999999999991
  0
ARC
  5
227
330
1F
100
AcDbEntity
  8
1
  6
Continuous
 62
     3
100
AcDbCircle
 10
31.05124562148129
 20
59.93620460483079
 30
0.0
 40
1.000000000000309
100
AcDbArc
 50
0.0
 51
44.99999999999626
  0
ARC
  5
228
330
1F
100
AcDbEntity
  8
1
  6
Continuous
 62
     3
100
AcDbCircle
 10
9.5512456214837
 20
32.6166227393616
 30
0.0
 40
2.500000000000039
100
AcDbArc
 50
290.0000000000003
 51
340.0711659511928
  0
ARC
  5
229
330
1F
100
AcDbEntity
  8
1
  6
Continuous
 62
     3
100
AcDbCircle
 10
34.5512456214822
 20
32.61662273936099
 30
0.0
 40
2.500000000000036
100
AcDbArc
 50
198.1056750177535
 51
249.9999999999993
  0
ARC
  5
22A
330
1F
100
AcDbEntity
  8
1
  6
Continuous
 62
     3
100
AcDbCircle
 10
6.5512456214822
 20
28.3321787191346
 30
0.0
 40
0.5000000000000615
100
AcDbArc
 50
110.0000000000044
 51
180.0
  0
ARC
  5
22B
330
1F
100
AcDbEntity
  8
1
  6
Continuous
 62
     3
100
AcDbCircle
 10
37.5512456214822
 20
28.3321787191346
 30
0.0
 40
0.5
100
AcDbArc
 50
0.0
 51
70.00000000000554
  0
ARC
  5
22C
330
1F
100
AcDbEntity
  8
1
  6
Continuous
 62
     3
100
AcDbCircle
 10
37.5512456214822
 20
10.7321292976223
 30
0.0
 40
0.4999999999999841
100
AcDbArc
 50
300.0000000000011
 51
0.0
  0
ARC
  5
22D
330
1F
100
AcDbEntity
  8
1
  6
Continuous
 62
     3
100
AcDbCircle
 10
6.5512456214822
 20
10.7321292976223
 30
0.0
 40
0.5
100
AcDbArc
 50
180.0
 51
239.9999999999989
  0
ARC
  5
22E
330
1F
100
AcDbEntity
  8
1
  6
Continuous
 62
     3
100
AcDbCircle
 10
13.05124562148168
 20
59.8978117757208
 30
0.0
 40
0.999999999999958
100
AcDbArc
 50
134.9943611271026
 51
180.0
  0
ARC
  5
22F
330
1F
100
AcDbEntity
  8
1
  6
Continuous
 62
     3
100
AcDbCircle
 10
125.3986042434186
 20
49.47091355542899
 30
0.0
 40
0.9999999999999993
100
AcDbArc
 50
19.75743817096654
 51
74.93759639355628
  0
ARC
  5
230
330
1F
100
AcDbEntity
  8
1
  6
Continuous
 62
     3
100
AcDbCircle
 10
125.4477486422131
 20
32.3986400035905
 30
0.0
 40
0.9999999999999111
100
AcDbArc
 50
274.1596487989937
 51
340.3821073267686
  0
ARC
  5
231
330
1F
100
AcDbEntity
  8
1
  6
Continuous
 62
     3
100
AcDbCircle
 10
114.3661555961247
 20
28.355379864277
 30
0.0
 40
1.000000000000021
100
AcDbArc
 50
104.3769360128033
 51
134.7759943554681
  0
ARC
  5
232
330
1F
100
AcDbEntity
  8
1
  6
Continuous
 62
     3
100
AcDbCircle
 10
100.7001776583675
 20
123.2107915670418
 30
0.0
 40
1.599999999999046
100
AcDbArc
 50
253.0623317162664
 51
270.0
  0
ARC
  5
233
330
1F
100
AcDbEntity
  8
1
  6
Continuous
 62
     3
100
AcDbCircle
 10
100.7001776583675
 20
147.2107915670428
 30
0.0
 40
1.599999999999994
100
AcDbArc
 50
90.00000000000355
 51
106.9376682837336
  0
ARC
  5
234
330
1F
100
AcDbEntity
  8
1
  6
Continuous
 62
     3
100
AcDbCircle
 10
22.05124562272638
 20
40.8661038935536
 30
0.0
 40
11.99999999999992
100
AcDbArc
 50
323.5564643091008
 51
336.4435356908992
  0
ARC
  5
235
330
1F
100
AcDbEntity
  8
1
  6
Continuous
 62
     3
100
AcDbCircle
 10
22.05124562272638
 20
40.8661038935536
 30
0.0
 40
12.00000000000018
100
AcDbArc
 50
23.55646430910076
 51
36.44353569089927
  0
ARC
  5
236
330
1F
100
AcDbEntity
  8
1
  6
Continuous
 62
     3
100
AcDbCircle
 10
22.05124562272638
 20
40.8661038935536
 30
0.0
 40
12.0
100
AcDbArc
 50
83.55646430910144
 51
96.44353569089934
  0
ARC
  5
237
330
1F
100
AcDbEntity
  8
1
  6
Continuous
 62
     3
100
AcDbCircle
 10
22.05124562272638
 20
40.8661038935536
 30
0.0
 40
12.00000000000006
100
AcDbArc
 50
143.5564643091012
 51
156.4435356908989
  0
ARC
  5
238
330
1F
100
AcDbEntity
  8
1
  6
Continuous
 62
     3
100
AcDbCircle
 10
22.05124562272638
 20
40.8661038935536
 30
0.0
 40
11.99999999999999
100
AcDbArc
 50
203.5564643091011
 51
216.4435356908987
  0
ARC
  5
239
330
1F
100
AcDbEntity
  8
1
  6
Continuous
 62
     3
100
AcDbCircle
 10
80.4112235967963
 20
129.7107915670418
 30
0.0
 40
15.18035515439836
100
AcDbArc
 50
344.1215297621901
 51
15.87847023780957
  0
ARC
  5
23A
330
1F
100
AcDbEntity
  8
1
  6
Continuous
 62
     3
100
AcDbCircle
 10
97.18893691583409
 20
129.7107915670418
 30
0.0
 40
15.16855118309097
100
AcDbArc
 50
164.1088465795518
 51
195.8911534204486
  0
ARC
  5
23B
330
1F
100
AcDbEntity
  8
1
  6
Continuous
 62
     3
100
AcDbCircle
 10
80.4112235967963
 20
140.7107915670418
 30
0.0
 40
15.18035515439836
100
AcDbArc
 50
344.1215297621901
 51
15.87847023780987
  0
ARC
  5
23C
330
1F
100
AcDbEntity
  8
1
  6
Continuous
 62
     3
100
AcDbCircle
 10
97.18893691583409
 20
140.7107915670418
 30
0.0
 40
15.168551183091
100
AcDbArc
 50
164.1088465795515
 51
195.8911534204486
  0
ARC
  5
23D
330
1F
100
AcDbEntity
  8
1
  6
Continuous
 62
     3
100
AcDbCircle
 10
128.2340477799395
 20
91.89960036446719
 30
0.0
 40
22.65823004867396
100
AcDbArc
 50
252.195515077511
 51
287.8044849224893
  0
CIRCLE
  5
23E
330
1F
100
AcDbEntity
  8
1
  6
Continuous
 62
     3
100
AcDbCircle
 10
128.2340477799396
 20
135.2107915670418
 30
0.0
 40
9.400000000000006
  0
CIRCLE
  5
23F
330
1F
100
AcDbEntity
  8
1
  6
Continuous
 62
     3
100
AcDbCircle
 10
128.2340477799396
 20
135.2107915670418
 30
0.0
 40
11.5
  0
CIRCLE
  5
240
330
1F
100
AcDbEntity
  8
1
  6
Continuous
 62
     3
100
AcDbCircle
 10
128.2340477799396
 20
135.2107915670418
 30
0.0
 40
10.47750000000011
  0
CIRCLE
  5
241
330
1F
100
AcDbEntity
  8
1
  6
Continuous
 62
     3
100
AcDbCircle
 10
128.2340477799396
 20
135.2107915670418
 30
0.0
 40
5.500000000000099
  0
CIRCLE
  5
242
330
1F
100
AcDbEntity
  8
1
  6
Continuous
 62
     3
100
AcDbCircle
 10
22.05124562272638
 20
40.8661038935536
 30
0.0
 40
6.5
  0
CIRCLE
  5
243
330
1F
100
AcDbEntity
  8
1
  6
Continuous
 62
     3
100
AcDbCircle
 10
22.05124562272638
 20
40.8661038935536
 30
0.0
 40
11.0
  0
CIRCLE
  5
244
330
1F
100
AcDbEntity
  8
1
  6
Continuous
 62
     3
100
AcDbCircle
 10
22.05124562272638
 20
40.8661038935536
 30
0.0
 40
10.34999999999988
  0
CIRCLE
  5
245
330
1F
100
AcDbEntity
  8
1
  6
Continuous
 62
     3
100
AcDbCircle
 10
22.05124562272638
 20
24.8661038935536
 30
0.0
 40
1.299999999999891
  0
CIRCLE
  5
246
330
1F
100
AcDbEntity
  8
1
  6
Continuous
 62
     3
100
AcDbCircle
 10
128.2340477799396
 20
135.2107915670418
 30
0.0
 40
6.5
  0
SPLINE
  5
247
330
1F
100
AcDbEntity
  8
0
  6
Continuous
 62
     3
100
AcDbSpline
210
0.0
220
0.0
230
1.0
 70
     8
 71
     3
 72
    11
 73
     7
 74
     5
 42
0.0000000001
 43
0.0000000001
 44
0.00000001
 40
0.0
 40
0.0
 40
0.0
 40
0.0
 40
1.162651661919363
 40
2.32530332386389
 40
3.656882732631138
 40
4.988462141401564
 40
4.988462141401564
 40
4.988462141401564
 40
4.988462141401564
 10
142.3502399348778
 20
28.67921288748249
 30
0.0
 10
141.9623109532482
 20
28.67649753628523
 30
0.0
 10
141.1864529899804
 20
28.67106683389065
 30
0.0
 10
139.9765467897774
 20
28.50073191621386
 30
0.0
 10
138.731845391002
 20
28.21391444487601
 30
0.0
 10
137.891716521643
 20
27.92555830104038
 30
0.0
 10
137.471652086963
 20
27.78138022912239
 30
0.0
 11
142.3502399348778
 21
28.67921288748249
 31
0.0
 11
141.1880816093413
 21
28.6453467783181
 31
0.0
 11
140.0354261323505
 21
28.49321447278929
 31
0.0
 11
138.7384233222271
 21
28.19173904695003
 31
0.0
 11
137.471652086963
 21
27.78138022912239
 31
0.0
  0
SPLINE
  5
248
330
1F
100
AcDbEntity
  8
0
  6
Continuous
 62
     3
100
AcDbSpline
210
0.0
220
0.0
230
1.0
 70
     8
 71
     3
 72
    11
 73
     7
 74
     5
 42
0.0000000001
 43
0.0000000001
 44
0.00000001
 40
0.0
 40
0.0
 40
0.0
 40
0.0
 40
0.1748215719501567
 40
0.3492754323245106
 40
2.28451329454976
 40
4.391239336400597
 40
4.391239336400597
 40
4.391239336400597
 40
4.391239336400597
 10
141.7415841058214
 20
28.67674909751092
 30
0.0
 10
141.7998395646406
 20
28.67832940819882
 30
0.0
 10
141.9162279504523
 20
28.68148670562252
 30
0.0
 10
142.6776437089037
 20
28.68684011289237
 30
0.0
 10
144.0889902257066
 20
28.57060092185684
 30
0.0
 10
145.3863341082819
 20
28.19811907511313
 30
0.0
 10
146.0625272182453
 20
28.00397651835742
 30
0.0
 11
141.7415841058214
 21
28.67674909751092
 31
0.0
 11
141.9163562948032
 21
28.68090409181259
 31
0.0
 11
142.0908047096242
 21
28.68228248433461
 31
0.0
 11
144.0188411399812
 21
28.5154858818317
 31
0.0
 11
146.0625272182453
 21
28.00397651835742
 31
0.0
  0
SPLINE
  5
249
330
1F
100
AcDbEntity
  8
0
  6
Continuous
 62
     3
100
AcDbSpline
210
0.0
220
0.0
230
1.0
 70
     8
 71
     3
 72
    11
 73
     7
 74
     5
 42
0.0000000001
 43
0.0000000001
 44
0.00000001
 40
0.0
 40
0.0
 40
0.0
 40
0.0
 40
2.288612873506179
 40
4.300475161252697
 40
6.552341980269958
 40
9.178503188808854
 40
9.178503188808854
 40
9.178503188808854
 40
9.178503188808854
 10
146.2009575175519
 20
11.5914942571798
 30
0.0
 10
145.5078835064854
 20
11.26431255855548
 30
0.0
 10
144.2055454815598
 20
10.64951361879651
 30
0.0
 10
142.0101897555592
 20
10.334593763492
 30
0.0
 10
139.7010773474853
 20
10.70981853473622
 30
0.0
 10
138.2518603083137
 20
11.46561948726279
 30
0.0
 10
137.4716520869737
 20
11.87251652264051
 30
0.0
 11
146.2009575175519
 21
11.5914942571798
 31
0.0
 11
144.0825015639201
 21
10.72553048351485
 31
0.0
 11
142.0905119016948
 21
10.44345416326733
 31
0.0
 11
139.8660791642935
 21
10.79388699187837
 31
0.0
 11
137.4716520869737
 21
11.87251652264051
 31
0.0
  0
SPLINE
  5
24A
330
1F
100
AcDbEntity
  8
0
  6
Continuous
 62
     3
100
AcDbSpline
210
0.0
220
0.0
230
1.0
 70
     8
 71
     3
 72
    11
 73
     7
 74
     5
 42
0.0000000001
 43
0.0000000001
 44
0.00000001
 40
0.0
 40
0.0
 40
0.0
 40
0.0
 40
4.908315039655236
 40
9.371240625213526
 40
13.83427507983858
 40
18.74271171651548
 40
18.74271171651548
 40
18.74271171651548
 40
18.74271171651548
 10
137.4716520869737
 20
11.87251652264051
 30
0.0
 10
135.8846846134714
 20
11.46342143090739
 30
0.0
 10
132.8547539879053
 20
10.68235328180705
 30
0.0
 10
128.2341276175019
 20
10.32968798569063
 30
0.0
 10
123.6134566715382
 20
10.68232699432179
 30
0.0
 10
120.5834506978743
 20
11.46341234658011
 30
0.0
 10
118.9964434729056
 20
11.87251652265284
 30
0.0
 11
137.4716520869737
 21
11.87251652264051
 31
0.0
 11
132.6833033419818
 21
10.79396526060403
 31
0.0
 11
128.2341633404899
 21
10.44345416326852
 31
0.0
 11
123.7849126649379
 21
10.79394663005002
 31
0.0
 11
118.9964434729056
 21
11.87251652265284
 31
0.0
  0
SPLINE
  5
24B
330
1F
100
AcDbEntity
  8
0
  6
Continuous
 62
     3
100
AcDbSpline
210
0.0
220
0.0
230
1.0
 70
     8
 71
     3
 72
    11
 73
     7
 74
     5
 42
0.0000000001
 43
0.0000000001
 44
0.00000001
 40
0.0
 40
0.0
 40
0.0
 40
0.0
 40
2.626098598416828
 40
4.877913597028932
 40
6.889828717779634
 40
9.178503310652072
 40
9.178503310652072
 40
9.178503310652072
 40
9.178503310652072
 10
118.9964434729056
 20
11.87251652265284
 30
0.0
 10
118.21625448359
 20
11.46562870261256
 30
0.0
 10
116.7670726129896
 20
10.7098445781945
 30
0.0
 10
114.4579887020267
 20
10.33459478767201
 30
0.0
 10
112.262605254595
 20
10.64949015049581
 30
0.0
 10
110.9602314208691
 20
11.26430430841686
 30
0.0
 10
110.2671381238666
 20
11.59149421405116
 30
0.0
 11
118.9964434729056
 21
11.87251652265284
 31
0.0
 11
116.6020766666054
 21
10.79390563568076
 31
0.0
 11
114.3776993259863
 21
10.44345416327029
 31
0.0
 11
112.3856539356516
 21
10.72551375972396
 31
0.0
 11
110.2671381238666
 21
11.59149421405116
 31
0.0
  0
SPLINE
  5
24C
330
1F
100
AcDbEntity
  8
0
  6
Continuous
 62
     3
100
AcDbSpline
210
0.0
220
0.0
230
1.0
 70
     8
 71
     3
 72
    11
 73
     7
 74
     5
 42
0.0000000001
 43
0.0000000001
 44
0.00000001
 40
0.0
 40
0.0
 40
0.0
 40
0.0
 40
1.400678983576549
 40
2.801357967153141
 40
4.202037205062426
 40
5.602716442971677
 40
5.602716442971677
 40
5.602716442971677
 40
5.602716442971677
 10
72.43207830317371
 20
128.6059009378078
 30
0.0
 10
72.89890906705374
 20
128.5982781934025
 30
0.0
 10
73.83257059481379
 20
128.583032704592
 30
0.0
 10
75.2330629339172
 20
128.560162185589
 30
0.0
 10
76.63355533303023
 20
128.5372901492619
 30
0.0
 10
77.56721696430307
 20
128.5220406150511
 30
0.0
 10
78.0340477799395
 20
128.5144158479458
 30
0.0
 11
72.43207830317371
 21
128.6059009378078
 31
0.0
 11
73.83257058859661
 21
128.5830323238582
 31
0.0
 11
75.23306284502482
 21
128.5601619343167
 31
0.0
 11
76.63355532686856
 21
128.5372897719944
 31
0.0
 11
78.0340477799395
 21
128.5144158479458
 31
0.0
  0
SPLINE
  5
24D
330
1F
100
AcDbEntity
  8
0
  6
Continuous
 62
     3
100
AcDbSpline
210
0.0
220
0.0
230
1.0
 70
     8
 71
     3
 72
    11
 73
     7
 74
     5
 42
0.0000000001
 43
0.0000000001
 44
0.00000001
 40
0.0
 40
0.0
 40
0.0
 40
0.0
 40
1.400492280308033
 40
2.800984560616143
 40
4.201477022426433
 40
5.601969484236751
 40
5.601969484236751
 40
5.601969484236751
 40
5.601969484236751
 10
72.43207830317371
 20
139.4200252062038
 30
0.0
 10
72.89890906227247
 20
139.4200558733701
 30
0.0
 10
73.83257058047002
 20
139.4201172077026
 30
0.0
 10
75.23306291922768
 20
139.4201934349867
 30
0.0
 10
76.63355531901627
 20
139.4202591943169
 30
0.0
 10
77.56721695963165
 20
139.4202926134775
 30
0.0
 10
78.03404777993939
 20
139.4203093230578
 30
0.0
 11
72.43207830317371
 21
139.4200252062038
 31
0.0
 11
73.83257058063009
 21
139.4201145786663
 31
0.0
 11
75.2330628588153
 21
139.4201916903241
 31
0.0
 11
76.63355531912188
 21
139.4202565892182
 31
0.0
 11
78.03404777993939
 21
139.4203093230578
 31
0.0
  0
SPLINE
  5
24E
330
1F
100
AcDbEntity
  8
0
  6
Continuous
 62
     3
100
AcDbSpline
210
0.0
220
0.0
230
1.0
 70
     8
 71
     3
 72
    11
 73
     7
 74
     5
 42
0.0000000001
 43
0.0000000001
 44
0.00000001
 40
0.0
 40
0.0
 40
0.0
 40
0.0
 40
1.400492468968765
 40
2.800984937937588
 40
4.201477211087251
 40
5.60196948423695
 40
5.60196948423695
 40
5.60196948423695
 40
5.60196948423695
 10
78.03404777993958
 20
131.0012738110258
 30
0.0
 10
77.56721695724573
 20
131.0012905206062
 30
0.0
 10
76.63355531185799
 20
131.001323939767
 30
0.0
 10
75.23306290968318
 20
131.0013896990978
 30
0.0
 10
73.83257057331167
 20
131.0014659263822
 30
0.0
 10
72.89890905988636
 20
131.0015272607139
 30
0.0
 10
72.43207830317371
 20
131.0015579278798
 30
0.0
 11
78.03404777993958
 21
131.0012738110258
 31
0.0
 11
76.63355531196363
 21
131.0013265448658
 31
0.0
 11
75.23306284449852
 21
131.0013914437606
 31
0.0
 11
73.83257057347176
 21
131.0014685554183
 31
0.0
 11
72.43207830317371
 21
131.0015579278798
 31
0.0
  0
SPLINE
  5
24F
330
1F
100
AcDbEntity
  8
0
  6
Continuous
 62
     3
100
AcDbSpline
210
0.0
220
0.0
230
1.0
 70
     8
 71
     3
 72
    11
 73
     7
 74
     5
 42
0.0000000001
 43
0.0000000001
 44
0.00000001
 40
0.0
 40
0.0
 40
0.0
 40
0.0
 40
1.400678983499549
 40
2.801357966999087
 40
4.202037204908348
 40
5.602716442817621
 40
5.602716442817621
 40
5.602716442817621
 40
5.602716442817621
 10
72.4320783033281
 20
141.8156821962498
 30
0.0
 10
72.89890906718227
 20
141.8233049406651
 30
0.0
 10
73.83257059489067
 20
141.8385504294957
 30
0.0
 10
75.23306293394278
 20
141.8614209484944
 30
0.0
 10
76.63355533303009
 20
141.8842929848225
 30
0.0
 10
77.56721696430296
 20
141.8995425190327
 30
0.0
 10
78.03404777993939
 20
141.9071672861378
 30
0.0
 11
72.4320783033281
 21
141.8156821962498
 31
0.0
 11
73.83257058867359
 21
141.8385508102237
 31
0.0
 11
75.2330628450247
 21
141.8614211997671
 31
0.0
 11
76.63355532686842
 21
141.8842933620895
 31
0.0
 11
78.03404777993939
 21
141.9071672861378
 31
0.0
  0
SPLINE
  5
250
330
1F
100
AcDbEntity
  8
0
  6
Continuous
 62
     3
100
AcDbSpline
210
0.0
220
0.0
230
1.0
 70
     8
 71
     3
 72
    11
 73
     7
 74
     5
 42
0.0000000001
 43
0.0000000001
 44
0.00000001
 40
0.0
 40
0.0
 40
0.0
 40
0.0
 40
2.535946205520506
 40
5.071892411043086
 40
7.614442189163496
 40
10.15699196728488
 40
10.15699196728488
 40
10.15699196728488
 40
10.15699196728488
 10
16.14349024929788
 20
28.61627016243679
 30
0.0
 10
15.29844163734898
 20
28.65113983662757
 30
0.0
 10
13.6083444134505
 20
28.72087918500914
 30
0.0
 10
11.07089688941935
 20
28.57591353268601
 30
0.0
 10
8.546937924201137
 20
28.27124336541893
 30
0.0
 10
6.88314305572195
 20
27.94466794122453
 30
0.0
 10
6.051245621482195
 20
27.78138022912729
 30
0.0
 11
16.14349024929788
 21
28.61627016243679
 31
0.0
 11
13.60832756273842
 21
28.67930435927066
 31
0.0
 11
11.07570440473351
 21
28.54952340210986
 31
0.0
 11
8.55201353285058
 21
28.2404218696081
 31
0.0
 11
6.051245621482195
 21
27.78138022912729
 31
0.0
  0
SPLINE
  5
251
330
1F
100
AcDbEntity
  8
0
  6
Continuous
 62
     3
100
AcDbSpline
210
0.0
220
0.0
230
1.0
 70
     8
 71
     3
 72
    11
 73
     7
 74
     5
 42
0.0000000001
 43
0.0000000001
 44
0.00000001
 40
0.0
 40
0.0
 40
0.0
 40
0.0
 40
4.076696560813637
 40
8.153393121505484
 40
12.23042144717283
 40
16.30744977296217
 40
16.30744977296217
 40
16.30744977296217
 40
16.30744977296217
 10
22.0512456214816
 20
11.8725165226604
 30
0.0
 10
23.35533046519612
 20
11.48159707819967
 30
0.0
 10
25.9635001525862
 20
10.69975818928988
 30
0.0
 10
30.05102074145191
 20
10.31532392853767
 30
0.0
 10
34.1386686382466
 20
10.69967108020633
 30
0.0
 10
36.747053293583
 20
11.48156804179135
 30
0.0
 10
38.05124562127071
 20
11.8725165225897
 30
0.0
 11
22.0512456214816
 21
11.8725165226604
 31
0.0
 11
25.99269268243616
 21
10.83114727275794
 31
0.0
 11
30.05091260041656
 21
10.44345416569535
 31
0.0
 11
34.10947167267399
 21
10.83108572438329
 31
0.0
 11
38.05124562127071
 21
11.8725165225897
 31
0.0
  0
SPLINE
  5
252
330
1F
100
AcDbEntity
  8
0
  6
Continuous
 62
     3
100
AcDbSpline
210
0.0
220
0.0
230
1.0
 70
     8
 71
     3
 72
    11
 73
     7
 74
     5
 42
0.0000000001
 43
0.0000000001
 44
0.00000001
 40
0.0
 40
0.0
 40
0.0
 40
0.0
 40
4.077028325900224
 40
8.154056651678436
 40
12.23075321236956
 40
16.3074497731825
 40
16.3074497731825
 40
16.3074497731825
 40
16.3074497731825
 10
6.051245621482394
 20
11.8725165226602
 30
0.0
 10
7.35543794920375
 20
11.48156804184545
 30
0.0
 10
9.96382260460743
 20
10.69967108022764
 30
0.0
 10
14.05147050147532
 20
10.31532392853233
 30
0.0
 10
18.13899109037783
 20
10.69975818929011
 30
0.0
 10
20.74716077776735
 20
11.48159707819974
 30
0.0
 10
22.0512456214816
 20
11.8725165226604
 30
0.0
 11
6.051245621482394
 21
11.8725165226602
 31
0.0
 11
9.993019570181646
 21
10.83108572440777
 31
0.0
 11
14.05157864254811
 21
10.44345416569538
 31
0.0
 11
18.10979856052781
 21
10.83114727275779
 31
0.0
 11
22.0512456214816
 21
11.8725165226604
 31
0.0
  0
SPLINE
  5
253
330
1F
100
AcDbEntity
  8
0
  6
Continuous
 62
     3
100
AcDbSpline
210
0.0
220
0.0
230
1.0
 70
     8
 71
     3
 72
    11
 73
     7
 74
     5
 42
0.0000000001
 43
0.0000000001
 44
0.00000001
 40
0.0
 40
0.0
 40
0.0
 40
0.0
 40
2.542787427986338
 40
5.085574855971653
 40
7.62128345328678
 40
10.15699205059988
 40
10.15699205059988
 40
10.15699205059988
 40
10.15699205059988
 10
38.0512456216336
 20
27.7813802290882
 30
0.0
 10
37.21927019199796
 20
27.94468218464261
 30
0.0
 10
35.55531933272701
 20
28.27128609575137
 30
0.0
 10
33.03127809907504
 20
28.57594221319614
 30
0.0
 10
30.49390884751587
 20
28.720874551139
 30
0.0
 10
28.80397027928619
 20
28.65113829206705
 30
0.0
 10
27.95900099517169
 20
28.61627016253109
 30
0.0
 11
38.0512456216336
 21
27.7813802290882
 31
0.0
 11
35.55024277694048
 21
28.24045829953189
 31
0.0
 11
33.02631313662216
 21
28.5495651979389
 31
0.0
 11
30.49392592064879
 21
28.67930755367711
 31
0.0
 11
27.95900099517169
 21
28.61627016253109
 31
0.0
  0
SPLINE
  5
254
330
1F
100
AcDbEntity
  8
0
  6
Continuous
 62
     3
100
AcDbSpline
210
0.0
220
0.0
230
1.0
 70
     8
 71
     3
 72
    43
 73
    39
 74
    37
 42
0.0000000001
 43
0.0000000001
 44
0.00000001
 40
0.0
 40
0.0
 40
0.0
 40
0.0
 40
2.155455247415087
 40
4.310910494830145
 40
4.627478135431731
 40
4.944047767889567
 40
5.260623285528354
 40
5.577198191422127
 40
5.89376462393588
 40
6.210331519852842
 40
6.526892167847857
 40
6.84345157458256
 40
7.134472394959607
 40
7.425493066252064
 40
7.716517314313534
 40
8.007541560205416
 40
8.298545065874494
 40
8.589548751773302
 40
8.880547047868477
 40
9.171544607725313
 40
9.462518166964504
 40
9.753492460828213
 40
10.04447216235462
 40
10.33545168360545
 40
10.62645182516011
 40
10.91745197100744
 40
11.2084485106208
 40
11.49944519069366
 40
11.81566384521189
 40
12.1318837379474
 40
12.44810984388159
 40
12.76433550176387
 40
13.08056923952156
 40
13.39680353070499
 40
13.71303207621085
 40
14.02925884751771
 40
16.12782347853599
 40
18.22638810955429
 40
18.22638810955429
 40
18.22638810955429
 40
18.22638810955429
 10
126.3397363822019
 20
49.8089524545947
 30
0.0
 10
126.57593168198
 20
49.13031625864301
 30
0.0
 10
127.0483222815361
 20
47.77304386673963
 30
0.0
 10
127.4664922750775
 20
46.28674483488341
 30
0.0
 10
127.6812317459292
 20
45.38235734336929
 30
0.0
 10
127.7507101389104
 20
45.07349506226065
 30
0.0
 10
127.8163789189094
 20
44.76379951316512
 30
0.0
 10
127.8780133748289
 20
44.45327539656701
 30
0.0
 10
127.9354059694145
 20
44.14194154527238
 30
0.0
 10
127.9883422481583
 20
43.8298228344199
 30
0.0
 10
128.0366082844118
 20
43.51694933077012
 30
0.0
 10
128.078821146783
 20
43.21179495549895
 30
0.0
 10
128.115232323759
 20
42.91447129972684
 30
0.0
 10
128.1462099064469
 20
42.62509125323465
 30
0.0
 10
128.1727032986502
 20
42.33526474933484
 30
0.0
 10
128.1946262489251
 20
42.04506205081778
 30
0.0
 10
128.2118930369451
 20
41.75455156531478
 30
0.0
 10
128.2244156678951
 20
41.46380613084168
 30
0.0
 10
128.2321061714178
 20
41.17289431978411
 30
0.0
 10
128.2348755451577
 20
40.88190346393212
 30
0.0
 10
128.2326350838783
 20
40.59091605378078
 30
0.0
 10
128.225472376697
 20
40.30001475923844
 30
0.0
 10
128.2134742150294
 20
40.00927119702485
 30
0.0
 10
128.1967265213262
 20
39.71875435506342
 30
0.0
 10
128.1753152390226
 20
39.42853754302357
 30
0.0
 10
128.1493240298403
 20
39.13868972936444
 30
0.0
 10
128.1188370860876
 20
38.84928177832054
 30
0.0
 10
128.0829294954139
 20
38.55202743052431
 30
0.0
 10
128.0412352430603
 20
38.2470391071813
 30
0.0
 10
127.9935063028395
 20
37.93442787113913
 30
0.0
 10
127.9410968978983
 20
37.62256574424329
 30
0.0
 10
127.8842200125846
 20
37.3114837616502
 30
0.0
 10
127.8230892022436
 20
37.00120764158733
 30
0.0
 10
127.757910905776
 20
36.69175708128785
 30
0.0
 10
127.6889093695518
 20
36.38313727966727
 30
0.0
 10
127.4797017394297
 20
35.49716170823677
 30
0.0
 10
127.0747459849483
 20
34.04674723010573
 30
0.0
 10
126.6180495231275
 20
32.72417858256324
 30
0.0
 10
126.3897012922171
 20
32.062894258792
 30
0.0
 11
126.3397363822019
 21
49.8089524545947
 31
0.0
 11
127.0276153356667
 21
47.76620678540596
 31
0.0
 11
127.6075567663862
 21
45.69023586544004
 31
0.0
 11
127.6806223391263
 21
45.38221558500997
 31
0.0
 11
127.7500746976485
 21
45.07335849493401
 31
0.0
 11
127.8157066032245
 21
44.76366104363883
 31
0.0
 11
127.8773070193686
 21
44.45313719628967
 31
0.0
 11
127.9346633620912
 21
44.14181010761287
 31
0.0
 11
127.9875642690023
 21
43.82969459431934
 31
0.0
 11
128.0357939699474
 21
43.51682954384906
 31
0.0
 11
128.0791369579663
 21
43.20325141421974
 31
0.0
 11
128.114499180133
 21
42.91438703230954
 31
0.0
 11
128.145462404915
 21
42.62501821949342
 31
0.0
 11
128.1719416271097
 21
42.33520109827435
 31
0.0
 11
128.1938507643805
 21
42.04500271543773
 31
0.0
 11
128.2111024217647
 21
41.75451102772672
 31
0.0
 11
128.2236103867699
 21
41.46377627573082
 31
0.0
 11
128.2312860088696
 21
41.17287922666418
 31
0.0
 11
128.2340405818381
 21
40.88189470444625
 31
0.0
 11
128.2318147113063
 21
40.59092965899114
 31
0.0
 11
128.2246665374483
 21
40.30004318061859
 31
0.0
 11
128.2126827012149
 21
40.00931035761862
 31
0.0
 11
128.1959497817854
 21
39.7188123521268
 31
0.0
 11
128.1745519844089
 21
39.42859998737943
 31
0.0
 11
128.1485746054899
 21
39.13876165197905
 31
0.0
 11
128.1181016788383
 21
38.84936506110721
 31
0.0
 11
128.0832161795446
 21
38.56046703454342
 31
0.0
 11
128.0404193834019
 21
38.2471578075723
 31
0.0
 11
127.9927266142197
 21
37.93455515190637
 31
0.0
 11
127.9403524256715
 21
37.62269637866402
 31
0.0
 11
127.8835116128297
 21
37.31162116477104
 31
0.0
 11
127.8224146851869
 21
37.00134557383807
 31
0.0
 11
127.7572732099345
 21
36.69189329137399
 31
0.0
 11
127.6882972274694
 21
36.38327895788358
 31
0.0
 11
127.6156930256364
 21
36.07549981504354
 31
0.0
 11
127.0547175359555
 21
34.05330298720058
 31
0.0
 11
126.3897012922171
 21
32.062894258792
 31
0.0
  0
SPLINE
  5
255
330
1F
100
AcDbEntity
  8
0
  6
Continuous
 62
     3
100
AcDbSpline
210
0.0
220
0.0
230
1.0
 70
     8
 71
     3
 72
    43
 73
    39
 74
    37
 42
0.0000000001
 43
0.0000000001
 44
0.00000001
 40
0.0
 40
0.0
 40
0.0
 40
0.0
 40
0.3817237077735085
 40
0.763447415546866
 40
0.8950194670842997
 40
1.026591481376721
 40
1.158163587705278
 40
1.289735703476487
 40
1.421307555090891
 40
1.552879406201591
 40
1.68445126702386
 40
1.816023120395458
 40
1.939625191549664
 40
2.063227252930287
 40
2.186829151645443
 40
2.31043106016661
 40
2.434036255566791
 40
2.557641421459108
 40
2.681247131936802
 40
2.804852950713725
 40
2.99224538478871
 40
3.179637988740343
 40
3.367030943299075
 40
3.554423851107342
 40
3.741813303108324
 40
3.929202772774008
 40
4.116593334206392
 40
4.303983871076243
 40
4.474388866230035
 40
4.64479355842272
 40
4.815193196893158
 40
4.985593659562434
 40
5.156005043831375
 40
5.326413431557494
 40
5.496835035966709
 40
5.667267806981503
 40
7.080090458076199
 40
8.492913109020302
 40
8.492913109020302
 40
8.492913109020302
 40
8.492913109020302
 10
118.2340477799395
 20
54.4661038938758
 30
0.0
 10
118.3366963251214
 20
54.39091251825205
 30
0.0
 10
118.5419934154851
 20
54.24052976700456
 30
0.0
 10
118.7843103312396
 20
54.06648399159057
 30
0.0
 10
118.9594707446332
 20
53.94188515549595
 30
0.0
 10
119.0668942126498
 20
53.86591502555245
 30
0.0
 10
119.1745253063048
 20
53.79023939698669
 30
0.0
 10
119.2823706247499
 20
53.71486941900192
 30
0.0
 10
119.3904343492921
 20
53.63981306461396
 30
0.0
 10
119.4987212630393
 20
53.56507920415245
 30
0.0
 10
119.6072359752934
 20
53.49067648081642
 30
0.0
 10
119.7137872678247
 20
53.41810911234957
 30
0.0
 10
119.8183631066184
 20
53.34736172790197
 30
0.0
 10
119.9209515744111
 20
53.2784189041161
 30
0.0
 10
120.02375708887
 20
53.20980023571223
 30
0.0
 10
120.1267845463024
 20
53.14151334724581
 30
0.0
 10
120.2300378979482
 20
53.07356650521675
 30
0.0
 10
120.3335211120152
 20
53.00596792867209
 30
0.0
 10
120.4372370535883
 20
52.93872655070103
 30
0.0
 10
120.559070835791
 20
52.86034707365145
 30
0.0
 10
120.699191791592
 20
52.77109635804744
 30
0.0
 10
120.8578158326901
 20
52.67132255237311
 30
0.0
 10
121.0170274474929
 20
52.57248855749521
 30
0.0
 10
121.1768427638108
 20
52.47463560957392
 30
0.0
 10
121.3372781690295
 20
52.37780475101233
 30
0.0
 10
121.4983498199007
 20
52.28203731648296
 30
0.0
 10
121.6600737872668
 20
52.18737472420302
 30
0.0
 10
121.8175579148024
 20
52.09668487616506
 30
0.0
 10
121.970745139203
 20
52.0098883384603
 30
0.0
 10
122.1195819793027
 20
51.92691066678412
 30
0.0
 10
122.2690089695962
 20
51.84500337437566
 30
0.0
 10
122.4190430639961
 20
51.76420885510261
 30
0.0
 10
122.5696971351213
 20
51.68456884289743
 30
0.0
 10
122.7209880564102
 20
51.60613361786861
 30
0.0
 10
122.8729208943856
 20
51.52891915639818
 30
0.0
 10
123.3963527293068
 20
51.26879462565913
 30
0.0
 10
124.3067870998239
 20
50.85209065278394
 30
0.0
 10
125.2079124808691
 20
50.57506816193213
 30
0.0
 10
125.6584751713677
 20
50.4365569165136
 30
0.0
 11
118.2340477799395
 21
54.4661038938758
 31
0.0
 11
118.5423429415879
 21
54.24101039690054
 31
0.0
 11
118.8522868562424
 21
54.01819262641332
 31
0.0
 11
118.9595057192244
 21
53.94193437986511
 31
0.0
 11
119.0669287889323
 21
53.86596412884865
 31
0.0
 11
119.1745610152757
 21
53.79029033539223
 31
0.0
 11
119.2824071096469
 21
53.71492163116164
 31
0.0
 11
119.3904715592632
 21
53.63986680542496
 31
0.0
 11
119.4987592267099
 21
53.56513439556385
 31
0.0
 11
119.6072746961689
 21
53.49073313584108
 31
0.0
 11
119.7160224550949
 21
53.41667182658852
 31
0.0
 11
119.818398616815
 21
53.34741438290868
 31
0.0
 11
119.9209878014128
 21
53.27847289481108
 31
0.0
 11
120.0237939314996
 21
53.20985563034682
 31
0.0
 11
120.1268211296396
 21
53.14157072547398
 31
0.0
 11
120.2300760400792
 21
53.07362466009837
 31
0.0
 11
120.3335597187513
 21
53.00602757966028
 31
0.0
 11
120.4372763852952
 21
52.93878752653921
 31
0.0
 11
120.5412293314246
 21
52.87191314110997
 31
0.0
 11
120.6992866671969
 21
52.77124634938058
 31
0.0
 11
120.85791364023
 21
52.67147926341455
 31
0.0
 11
121.0171282270754
 21
52.57265196579946
 31
0.0
 11
121.1769472617168
 21
52.47480525883844
 31
0.0
 11
121.3373843163159
 21
52.37798192367184
 31
0.0
 11
121.4984581739661
 21
52.28222167240198
 31
0.0
 11
121.6601848524913
 21
52.18756595959414
 31
0.0
 11
121.8225776945691
 21
52.09405778802466
 31
0.0
 11
121.9708414400292
 21
52.01005942997229
 31
0.0
 11
122.1196820322304
 21
51.9270881262915
 31
0.0
 11
122.2691095839541
 21
51.845189142313
 31
0.0
 11
122.4191427530422
 21
51.76440321624106
 31
0.0
 11
122.5698031209263
 21
51.68476972179626
 31
0.0
 11
122.7210900646079
 21
51.60633963012931
 31
0.0
 11
122.8730287752028
 21
51.52915056696518
 31
0.0
 11
123.0256272709952
 21
51.45324912746827
 31
0.0
 11
124.3174074333744
 21
50.88108494165304
 31
0.0
 11
125.6584751713677
 21
50.4365569165136
 31
0.0
  0
SPLINE
  5
256
330
1F
100
AcDbEntity
  8
0
  6
Continuous
 62
     3
100
AcDbSpline
210
0.0
220
0.0
230
1.0
 70
     8
 71
     3
 72
    11
 73
     7
 74
     5
 42
0.0000000001
 43
0.0000000001
 44
0.00000001
 40
0.0
 40
0.0
 40
0.0
 40
0.0
 40
4.645517238853328
 40
9.291034477694897
 40
13.93660366685491
 40
18.58217285602675
 40
18.58217285602675
 40
18.58217285602675
 40
18.58217285602675
 10
118.9964434729163
 20
27.78138022912239
 30
0.0
 10
120.5257595161338
 20
28.030500078726
 30
0.0
 10
123.5843916025648
 20
28.52873977793259
 30
0.0
 10
128.2340129774469
 20
28.75905197919785
 30
0.0
 10
132.8836524315729
 20
28.5287472346566
 30
0.0
 10
135.9423188685091
 20
28.03050256430068
 30
0.0
 10
137.4716520869791
 20
27.78138022912239
 30
0.0
 11
118.9964434729163
 21
27.78138022912239
 31
0.0
 11
123.5946675881071
 21
28.44256507692297
 31
0.0
 11
128.2339957699779
 21
28.68228248820968
 31
0.0
 11
132.8733762431134
 21
28.44257033423903
 31
0.0
 11
137.4716520869791
 21
27.78138022912239
 31
0.0
  0
SPLINE
  5
257
330
1F
100
AcDbEntity
  8
0
  6
Continuous
 62
     3
100
AcDbSpline
210
0.0
220
0.0
230
1.0
 70
     8
 71
     3
 72
    11
 73
     7
 74
     5
 42
0.0000000001
 43
0.0000000001
 44
0.00000001
 40
0.0
 40
0.0
 40
0.0
 40
0.0
 40
2.867549055800319
 40
5.735098111618601
 40
8.669725326364285
 40
11.60435254111003
 40
11.60435254111003
 40
11.60435254111003
 40
11.60435254111003
 10
125.5202844512314
 20
31.4012741948674
 30
0.0
 10
124.5682908352708
 20
31.31177758813334
 30
0.0
 10
122.6643036033437
 20
31.13278437466467
 30
0.0
 10
119.8148539719699
 20
30.63777802721471
 30
0.0
 10
116.9650522024952
 20
30.03614721935431
 30
0.0
 10
115.0669211508318
 20
29.56142444323864
 30
0.0
 10
114.1178556250001
 20
29.3240630551808
 30
0.0
 11
125.5202844512314
 21
31.4012741948674
 31
0.0
 11
122.6690665318004
 21
31.09566993551106
 31
0.0
 11
119.8404193498262
 21
30.62493358952351
 31
0.0
 11
116.9691330334065
 21
30.01850817888583
 31
0.0
 11
114.1178556250001
 21
29.3240630551808
 31
0.0
  0
SPLINE
  5
258
330
1F
100
AcDbEntity
  8
0
  6
Continuous
 62
     3
100
AcDbSpline
210
0.0
220
0.0
230
1.0
 70
     8
 71
     3
 72
    11
 73
     7
 74
     5
 42
0.0000000001
 43
0.0000000001
 44
0.00000001
 40
0.0
 40
0.0
 40
0.0
 40
0.0
 40
1.162651661919292
 40
2.325303323863791
 40
3.656882732630997
 40
4.988462141401544
 40
4.988462141401544
 40
4.988462141401544
 40
4.988462141401544
 10
114.1178556250015
 20
28.67921288748249
 30
0.0
 10
114.5057846066311
 20
28.67649753628522
 30
0.0
 10
115.2816425698988
 20
28.67106683389063
 30
0.0
 10
116.4915487701018
 20
28.50073191621387
 30
0.0
 10
117.7362501688772
 20
28.21391444487598
 30
0.0
 10
118.5763790382362
 20
27.92555830104038
 30
0.0
 10
118.9964434729163
 20
27.78138022912239
 30
0.0
 11
114.1178556250015
 21
28.67921288748249
 31
0.0
 11
115.280013950538
 21
28.6453467783181
 31
0.0
 11
116.4326694275287
 21
28.49321447278929
 31
0.0
 11
117.7296722376521
 21
28.19173904695003
 31
0.0
 11
118.9964434729163
 21
27.78138022912239
 31
0.0
  0
SPLINE
  5
259
330
1F
100
AcDbEntity
  8
0
  6
Continuous
 62
     3
100
AcDbSpline
210
0.0
220
0.0
230
1.0
 70
     8
 71
     3
 72
    11
 73
     7
 74
     5
 42
0.0000000001
 43
0.0000000001
 44
0.00000001
 40
0.0
 40
0.0
 40
0.0
 40
0.0
 40
1.10371498166031
 40
2.207429963080824
 40
3.305738490094702
 40
4.404047011825984
 40
4.404047011825984
 40
4.404047011825984
 40
4.404047011825984
 10
113.6618187421978
 20
29.0652457644303
 30
0.0
 10
113.3904034471512
 20
28.81560020590775
 30
0.0
 10
112.8475728571171
 20
28.31630908891687
 30
0.0
 10
111.8984393942356
 20
27.74508856114891
 30
0.0
 10
110.859922533194
 20
27.34421685063247
 30
0.0
 10
110.1258669543907
 20
27.29214154606094
 30
0.0
 10
109.7588391658717
 20
27.26610389383779
 30
0.0
 11
113.6618187421978
 21
29.0652457644303
 31
0.0
 11
112.8248328799836
 21
28.34577274395281
 31
0.0
 11
111.881644173587
 21
27.77255217180102
 31
0.0
 11
110.8492112382693
 21
27.39790052749304
 31
0.0
 11
109.7588391658717
 21
27.26610389383779
 31
0.0
  0
SPLINE
  5
25A
330
1F
100
AcDbEntity
  8
0
  6
Continuous
 62
     3
100
AcDbSpline
210
0.0
220
0.0
230
1.0
 70
     8
 71
     3
 72
    11
 73
     7
 74
     5
 42
0.0000000001
 43
0.0000000001
 44
0.00000001
 40
0.0
 40
0.0
 40
0.0
 40
0.0
 40
1.400678983499567
 40
2.801357966999178
 40
4.202037204908498
 40
5.60271644281773
 40
5.60271644281773
 40
5.60271644281773
 40
5.60271644281773
 10
72.43207830332798
 20
47.470994523046
 30
0.0
 10
72.89890906718217
 20
47.47861726746104
 30
0.0
 10
73.8325705948906
 20
47.49386275629112
 30
0.0
 10
75.23306293394273
 20
47.51673327529001
 30
0.0
 10
76.6335553330301
 20
47.53960531161823
 30
0.0
 10
77.56721696430296
 20
47.55485484582854
 30
0.0
 10
78.03404777993939
 20
47.5624796129337
 30
0.0
 11
72.43207830332798
 21
47.470994523046
 31
0.0
 11
73.8325705886735
 21
47.4938631370193
 31
0.0
 11
75.23306284502469
 21
47.51673352656272
 31
0.0
 11
76.63355532686846
 21
47.5396056888853
 31
0.0
 11
78.03404777993939
 21
47.5624796129337
 31
0.0
  0
SPLINE
  5
25B
330
1F
100
AcDbEntity
  8
0
  6
Continuous
 62
     3
100
AcDbSpline
210
0.0
220
0.0
230
1.0
 70
     8
 71
     3
 72
    11
 73
     7
 74
     5
 42
0.0000000001
 43
0.0000000001
 44
0.00000001
 40
0.0
 40
0.0
 40
0.0
 40
0.0
 40
1.400492468968765
 40
2.800984937937517
 40
4.201477211087251
 40
5.60196948423695
 40
5.60196948423695
 40
5.60196948423695
 40
5.60196948423695
 10
78.03404777993958
 20
36.65658613782159
 30
0.0
 10
77.56721695724573
 20
36.65660284740205
 30
0.0
 10
76.633555311858
 20
36.65663626656296
 30
0.0
 10
75.23306290968321
 20
36.65670202589344
 30
0.0
 10
73.83257057331167
 20
36.65677825317775
 30
0.0
 10
72.89890905988636
 20
36.65683958750958
 30
0.0
 10
72.43207830317371
 20
36.6568702546755
 30
0.0
 11
78.03404777993958
 21
36.65658613782159
 31
0.0
 11
76.63355531196363
 21
36.65663887166166
 31
0.0
 11
75.23306284449859
 21
36.65670377055627
 31
0.0
 11
73.83257057347176
 21
36.65678088221392
 31
0.0
 11
72.43207830317371
 21
36.6568702546755
 31
0.0
  0
SPLINE
  5
25C
330
1F
100
AcDbEntity
  8
0
  6
Continuous
 62
     3
100
AcDbSpline
210
0.0
220
0.0
230
1.0
 70
     8
 71
     3
 72
    11
 73
     7
 74
     5
 42
0.0000000001
 43
0.0000000001
 44
0.00000001
 40
0.0
 40
0.0
 40
0.0
 40
0.0
 40
1.40049228030809
 40
2.800984560616158
 40
4.201477022426433
 40
5.601969484236751
 40
5.601969484236751
 40
5.601969484236751
 40
5.601969484236751
 10
72.43207830317371
 20
45.0753375329999
 30
0.0
 10
72.89890906227248
 20
45.07536820016601
 30
0.0
 10
73.83257058047003
 20
45.07542953449823
 30
0.0
 10
75.23306291922769
 20
45.07550576178248
 30
0.0
 10
76.63355531901627
 20
45.0755715211129
 30
0.0
 10
77.56721695963166
 20
45.07560494027349
 30
0.0
 10
78.03404777993939
 20
45.0756216498538
 30
0.0
 11
72.43207830317371
 21
45.0753375329999
 31
0.0
 11
73.83257058063015
 21
45.075426905462
 31
0.0
 11
75.23306285881532
 21
45.07550401711993
 31
0.0
 11
76.63355531912188
 21
45.07556891601417
 31
0.0
 11
78.03404777993939
 21
45.0756216498538
 31
0.0
  0
SPLINE
  5
25D
330
1F
100
AcDbEntity
  8
0
  6
Continuous
 62
     3
100
AcDbSpline
210
0.0
220
0.0
230
1.0
 70
     8
 71
     3
 72
    11
 73
     7
 74
     5
 42
0.0000000001
 43
0.0000000001
 44
0.00000001
 40
0.0
 40
0.0
 40
0.0
 40
0.0
 40
1.400678983576542
 40
2.80135796715313
 40
4.202037205062389
 40
5.60271644297167
 40
5.60271644297167
 40
5.60271644297167
 40
5.60271644297167
 10
72.43207830317371
 20
34.2612132646033
 30
0.0
 10
72.89890906705372
 20
34.25359052019817
 30
0.0
 10
73.83257059481377
 20
34.23834503138792
 30
0.0
 10
75.23306293391718
 20
34.2154745123852
 30
0.0
 10
76.63355533303022
 20
34.19260247605787
 30
0.0
 10
77.56721696430307
 20
34.17735294184708
 30
0.0
 10
78.0340477799395
 20
34.16972817474169
 30
0.0
 11
72.43207830317371
 21
34.2612132646033
 31
0.0
 11
73.83257058859661
 21
34.23834465065407
 31
0.0
 11
75.23306284502482
 21
34.21547426111279
 31
0.0
 11
76.63355532686853
 21
34.19260209879045
 31
0.0
 11
78.0340477799395
 21
34.16972817474169
 31
0.0
  0
SPLINE
  5
25E
330
1F
100
AcDbEntity
  8
0
  6
Continuous
 62
     3
100
AcDbSpline
210
0.0
220
0.0
230
1.0
 70
     8
 71
     3
 72
    11
 73
     7
 74
     5
 42
0.0000000001
 43
0.0000000001
 44
0.00000001
 40
0.0
 40
0.0
 40
0.0
 40
0.0
 40
2.419085949068373
 40
4.838171898091412
 40
7.257484601803498
 40
9.67679730556101
 40
9.67679730556101
 40
9.67679730556101
 40
9.67679730556101
 10
95.01235994345231
 20
45.6619354171505
 30
0.0
 10
95.1734275186756
 20
44.87094657938463
 30
0.0
 10
95.49556266911912
 20
43.28896890386768
 30
0.0
 10
95.63677405945833
 20
40.86625613809296
 30
0.0
 10
95.49560236621596
 20
38.44346295093139
 30
0.0
 10
95.1734407510412
 20
36.86133589733208
 30
0.0
 10
95.01235994345231
 20
36.070272370525
 30
0.0
 11
95.01235994345231
 21
45.6619354171505
 31
0.0
 11
95.43856337789272
 21
43.28069047774355
 31
0.0
 11
95.58971021128775
 21
40.86633104644187
 31
0.0
 11
95.43859131307575
 21
38.45174266807469
 31
0.0
 11
95.01235994345231
 21
36.070272370525
 31
0.0
  0
SPLINE
  5
25F
330
1F
100
AcDbEntity
  8
0
  6
Continuous
 62
     3
100
AcDbSpline
210
0.0
220
0.0
230
1.0
 70
     8
 71
     3
 72
    11
 73
     7
 74
     5
 42
0.0000000001
 43
0.0000000001
 44
0.00000001
 40
0.0
 40
0.0
 40
0.0
 40
0.0
 40
2.41935441587717
 40
4.838708831708953
 40
7.257753068606482
 40
9.676797305549432
 40
9.676797305549432
 40
9.676797305549432
 40
9.676797305549432
 10
82.6000731837101
 20
45.6619354171589
 30
0.0
 10
82.43898994221156
 20
44.8708581510616
 30
0.0
 10
82.11682345921751
 20
43.28870361888181
 30
0.0
 10
81.97565906828538
 20
40.86589563810004
 30
0.0
 10
82.11687775986584
 20
38.44319766598571
 30
0.0
 10
82.43900804242767
 20
36.86124746901132
 30
0.0
 10
82.6000731837101
 20
36.07027237051669
 30
0.0
 11
82.6000731837101
 21
45.6619354171589
 31
0.0
 11
82.1738366759708
 21
43.28042366428121
 31
0.0
 11
82.02272291706814
 21
40.86579317054618
 31
0.0
 11
82.1738748878418
 21
38.45147585465782
 31
0.0
 11
82.6000731837101
 21
36.07027237051669
 31
0.0
  0
SPLINE
  5
260
330
1F
100
AcDbEntity
  8
0
  6
Continuous
 62
     3
100
AcDbSpline
210
0.0
220
0.0
230
1.0
 70
     8
 71
     3
 72
    11
 73
     7
 74
     5
 42
0.0000000001
 43
0.0000000001
 44
0.00000001
 40
0.0
 40
0.0
 40
0.0
 40
0.0
 40
1.240726649521469
 40
2.481453298726808
 40
3.722025632432493
 40
4.962597966453455
 40
4.962597966453455
 40
4.962597966453455
 40
4.962597966453455
 10
82.60007318372399
 20
52.7902990971228
 30
0.0
 10
82.44227220977263
 20
52.40648869387952
 30
0.0
 10
82.12667026191006
 20
51.63886788749076
 30
0.0
 10
81.97073577036593
 20
50.39227740123879
 30
0.0
 10
82.1267241490967
 20
49.14575213474802
 30
0.0
 10
82.44229017216821
 20
48.37822909415525
 30
0.0
 10
82.60007318372399
 20
47.9944675738101
 30
0.0
 11
82.60007318372399
 21
52.7902990971228
 31
0.0
 11
82.17958058941429
 21
51.62299939397735
 31
0.0
 11
82.02272291706812
 21
50.39222797382068
 31
0.0
 11
82.17961866964163
 21
49.16161697192757
 31
0.0
 11
82.60007318372399
 21
47.9944675738101
 31
0.0
  0
SPLINE
  5
261
330
1F
100
AcDbEntity
  8
0
  6
Continuous
 62
     3
100
AcDbSpline
210
0.0
220
0.0
230
1.0
 70
     8
 71
     3
 72
    11
 73
     7
 74
     5
 42
0.0000000001
 43
0.0000000001
 44
0.00000001
 40
0.0
 40
0.0
 40
0.0
 40
0.0
 40
1.24072664952204
 40
2.48145329872824
 40
3.722025632434051
 40
4.962597966455135
 40
4.962597966455135
 40
4.962597966455135
 40
4.962597966455135
 10
82.60007318372399
 20
33.73774021386539
 30
0.0
 10
82.44227220976926
 20
33.35392981062296
 30
0.0
 10
82.1266702618999
 20
32.58630900423577
 30
0.0
 10
81.9707357703686
 20
31.33971851798121
 30
0.0
 10
82.12672414909571
 20
30.09319325149056
 30
0.0
 10
82.44229017216784
 20
29.32567021089769
 30
0.0
 10
82.60007318372399
 20
28.9419086905525
 30
0.0
 11
82.60007318372399
 21
33.73774021386539
 31
0.0
 11
82.179580589408
 21
32.5704405107216
 31
0.0
 11
82.02272291706802
 21
31.33966909056328
 31
0.0
 11
82.17961866964141
 21
30.10905808867003
 31
0.0
 11
82.60007318372399
 21
28.9419086905525
 31
0.0
  0
SPLINE
  5
262
330
1F
100
AcDbEntity
  8
0
  6
Continuous
 62
     3
100
AcDbSpline
210
0.0
220
0.0
230
1.0
 70
     8
 71
     3
 72
    11
 73
     7
 74
     5
 42
0.0000000001
 43
0.0000000001
 44
0.00000001
 40
0.0
 40
0.0
 40
0.0
 40
0.0
 40
1.240593085937681
 40
2.481186171560137
 40
3.721892068817361
 40
4.962597966390333
 40
4.962597966390333
 40
4.962597966390333
 40
4.962597966390333
 10
95.01235994345231
 20
52.7902990971228
 30
0.0
 10
95.1701453702651
 20
52.40653100306579
 30
0.0
 10
95.48571622385063
 20
51.63899481504932
 30
0.0
 10
95.64169735745641
 20
50.39246077819763
 30
0.0
 10
95.48575561934953
 20
49.14587906231033
 30
0.0
 10
95.17015850212411
 20
48.37827140339921
 30
0.0
 10
95.0123599434913
 20
47.9944675738948
 30
0.0
 11
95.01235994345231
 21
52.7902990971228
 31
0.0
 11
95.43281957811068
 21
51.62312948626955
 31
0.0
 11
95.5897102112878
 21
50.3924969118122
 31
0.0
 11
95.43284741750483
 21
49.16174706419268
 31
0.0
 11
95.0123599434913
 21
47.9944675738948
 31
0.0
  0
SPLINE
  5
263
330
1F
100
AcDbEntity
  8
0
  6
Continuous
 62
     3
100
AcDbSpline
210
0.0
220
0.0
230
1.0
 70
     8
 71
     3
 72
    11
 73
     7
 74
     5
 42
0.0000000001
 43
0.0000000001
 44
0.00000001
 40
0.0
 40
0.0
 40
0.0
 40
0.0
 40
1.240593085937928
 40
2.481186171560536
 40
3.721892068863782
 40
4.962597966482778
 40
4.962597966482778
 40
4.962597966482778
 40
4.962597966482778
 10
95.01235994345231
 20
33.73774021386539
 30
0.0
 10
95.17014537026498
 20
33.3539721198083
 30
0.0
 10
95.48571622385018
 20
32.58643593179164
 30
0.0
 10
95.64169735745946
 20
31.33990189492432
 30
0.0
 10
95.48575561933751
 20
30.09332017900662
 30
0.0
 10
95.1701585020941
 20
29.32571252006976
 30
0.0
 10
95.01235994345231
 20
28.9419086905525
 30
0.0
 11
95.01235994345231
 21
33.73774021386539
 31
0.0
 11
95.43281957811058
 21
32.57057060301184
 31
0.0
 11
95.58971021128775
 21
31.33993802855435
 31
0.0
 11
95.43284741749116
 21
30.10918818089018
 31
0.0
 11
95.01235994345231
 21
28.9419086905525
 31
0.0
  0
SPLINE
  5
264
330
1F
100
AcDbEntity
  8
1
  6
Continuous
 62
     3
100
AcDbSpline
210
0.0
220
0.0
230
1.0
 70
     8
 71
     3
 72
     9
 73
     5
 74
     3
 42
0.0000000001
 43
0.0000000001
 44
0.00000001
 40
0.0
 40
0.0
 40
0.0
 40
0.0
 40
3.630372471928716
 40
7.260691832714264
 40
7.260691832714264
 40
7.260691832714264
 40
7.260691832714264
 10
142.0904542404906
 20
70.3265757981568
 30
0.0
 10
140.9357440103628
 20
69.78356958836957
 30
0.0
 10
138.6263404431344
 20
68.69756511279556
 30
0.0
 10
136.316941856858
 20
69.78357488438277
 30
0.0
 10
135.1622510102151
 20
70.3265757981568
 30
0.0
 11
142.0904542404906
 21
70.3265757981568
 31
0.0
 11
138.6263247953636
 21
69.24056867463429
 31
0.0
 11
135.1622510102151
 21
70.3265757981568
 31
0.0
  0
SPLINE
  5
265
330
1F
100
AcDbEntity
  8
1
  6
Continuous
 62
     3
100
AcDbSpline
210
0.0
220
0.0
230
1.0
 70
     8
 71
     3
 72
     9
 73
     5
 74
     3
 42
0.0000000001
 43
0.0000000001
 44
0.00000001
 40
0.0
 40
0.0
 40
0.0
 40
0.0
 40
3.630319360785498
 40
7.260691832714273
 40
7.260691832714273
 40
7.260691832714273
 40
7.260691832714273
 10
121.305844549664
 20
70.3265757981568
 30
0.0
 10
120.1511537030212
 20
69.78357488438279
 30
0.0
 10
117.8417551167447
 20
68.69756511279553
 30
0.0
 10
115.5323515495163
 20
69.78356958836956
 30
0.0
 10
114.3776413193885
 20
70.3265757981568
 30
0.0
 11
121.305844549664
 21
70.3265757981568
 31
0.0
 11
117.8417707645156
 21
69.24056867463428
 31
0.0
 11
114.3776413193885
 21
70.3265757981568
 31
0.0
  0
SPLINE
  5
266
330
1F
100
AcDbEntity
  8
1
  6
Continuous
 62
     3
100
AcDbSpline
210
0.0
220
0.0
230
1.0
 70
     8
 71
     3
 72
     9
 73
     5
 74
     3
 42
0.0000000001
 43
0.0000000001
 44
0.00000001
 40
0.0
 40
0.0
 40
0.0
 40
0.0
 40
3.630372471928798
 40
7.260691832714359
 40
7.260691832714359
 40
7.260691832714359
 40
7.260691832714359
 10
114.3776413193885
 20
83.60563198951878
 30
0.0
 10
115.5323515495163
 20
84.14863819930602
 30
0.0
 10
117.8417551167448
 20
85.23464267488004
 30
0.0
 10
120.1511537030212
 20
84.1486329032928
 30
0.0
 10
121.3058445496641
 20
83.60563198951878
 30
0.0
 11
114.3776413193885
 21
83.60563198951878
 31
0.0
 11
117.8417707645156
 21
84.69163911304129
 31
0.0
 11
121.3058445496641
 21
83.60563198951878
 31
0.0
  0
SPLINE
  5
267
330
1F
100
AcDbEntity
  8
1
  6
Continuous
 62
     3
100
AcDbSpline
210
0.0
220
0.0
230
1.0
 70
     8
 71
     3
 72
     9
 73
     5
 74
     3
 42
0.0000000001
 43
0.0000000001
 44
0.00000001
 40
0.0
 40
0.0
 40
0.0
 40
0.0
 40
7.010616828467427
 40
14.02123365693485
 40
14.02123365693485
 40
14.02123365693485
 40
14.02123365693485
 10
121.3058445496641
 20
83.60563198951878
 30
0.0
 10
123.6152456264226
 20
84.14153037438078
 30
0.0
 10
128.2340477799396
 20
85.2133271441048
 30
0.0
 10
132.8528499334566
 20
84.14153037438078
 30
0.0
 10
135.1622510102151
 20
83.60563198951878
 30
0.0
 11
121.3058445496641
 21
83.60563198951878
 31
0.0
 11
128.2340477799396
 21
84.67742875924279
 31
0.0
 11
135.1622510102151
 21
83.60563198951878
 31
0.0
  0
SPLINE
  5
268
330
1F
100
AcDbEntity
  8
1
  6
Continuous
 62
     3
100
AcDbSpline
210
0.0
220
0.0
230
1.0
 70
     8
 71
     3
 72
     9
 73
     5
 74
     3
 42
0.0000000001
 43
0.0000000001
 44
0.00000001
 40
0.0
 40
0.0
 40
0.0
 40
0.0
 40
3.630319360785435
 40
7.260691832714256
 40
7.260691832714256
 40
7.260691832714256
 40
7.260691832714256
 10
135.1622510102151
 20
83.60563198951878
 30
0.0
 10
136.316941856858
 20
84.14863290329278
 30
0.0
 10
138.6263404431343
 20
85.23464267487999
 30
0.0
 10
140.9357440103628
 20
84.14863819930602
 30
0.0
 10
142.0904542404906
 20
83.60563198951878
 30
0.0
 11
135.1622510102151
 21
83.60563198951878
 31
0.0
 11
138.6263247953634
 21
84.69163911304128
 31
0.0
 11
142.0904542404906
 21
83.60563198951878
 31
0.0
  0
SPLINE
  5
269
330
1F
100
AcDbEntity
  8
1
  6
Continuous
 62
     3
100
AcDbSpline
210
0.0
220
0.0
230
1.0
 70
     8
 71
     3
 72
     9
 73
     5
 74
     3
 42
0.0000000001
 43
0.0000000001
 44
0.00000001
 40
0.0
 40
0.0
 40
0.0
 40
0.0
 40
6.095285829281595
 40
12.19057120274573
 40
12.19057120274573
 40
12.19057120274573
 40
12.19057120274573
 10
34.05124562272638
 20
70.3265757981568
 30
0.0
 10
32.05124554435329
 20
69.78980149275431
 30
0.0
 10
28.05124553717108
 20
68.71625292209043
 30
0.0
 10
24.0512455443533
 20
69.78980151951502
 30
0.0
 10
22.05124562272638
 20
70.3265757981568
 30
0.0
 11
34.05124562272638
 21
70.3265757981568
 31
0.0
 11
28.05124539119825
 21
69.25302721411255
 31
0.0
 11
22.05124562272638
 21
70.3265757981568
 31
0.0
  0
SPLINE
  5
26A
330
1F
100
AcDbEntity
  8
1
  6
Continuous
 62
     3
100
AcDbSpline
210
0.0
220
0.0
230
1.0
 70
     8
 71
     3
 72
     9
 73
     5
 74
     3
 42
0.0000000001
 43
0.0000000001
 44
0.00000001
 40
0.0
 40
0.0
 40
0.0
 40
0.0
 40
6.095285373464107
 40
12.19057120274574
 40
12.19057120274574
 40
12.19057120274574
 40
12.19057120274574
 10
22.05124562272638
 20
70.3265757981568
 30
0.0
 10
20.05124570109947
 20
69.78980151951501
 30
0.0
 10
16.0512457082817
 20
68.71625292209042
 30
0.0
 10
12.05124570109948
 20
69.78980149275432
 30
0.0
 10
10.05124562272638
 20
70.3265757981568
 30
0.0
 11
22.05124562272638
 21
70.3265757981568
 31
0.0
 11
16.05124585425455
 21
69.25302721411255
 31
0.0
 11
10.05124562272638
 21
70.3265757981568
 31
0.0
  0
SPLINE
  5
26B
330
1F
100
AcDbEntity
  8
1
  6
Continuous
 62
     3
100
AcDbSpline
210
0.0
220
0.0
230
1.0
 70
     8
 71
     3
 72
     9
 73
     5
 74
     3
 42
0.0000000001
 43
0.0000000001
 44
0.00000001
 40
0.0
 40
0.0
 40
0.0
 40
0.0
 40
6.095285829281598
 40
12.19057120274574
 40
12.19057120274574
 40
12.19057120274574
 40
12.19057120274574
 10
34.05124562272638
 20
83.60563198951878
 30
0.0
 10
32.05124554435329
 20
84.14240629492126
 30
0.0
 10
28.05124553717107
 20
85.21595486558519
 30
0.0
 10
24.0512455443533
 20
84.14240626816057
 30
0.0
 10
22.05124562272638
 20
83.60563198951878
 30
0.0
 11
34.05124562272638
 21
83.60563198951878
 31
0.0
 11
28.05124539119825
 21
84.67918057356304
 31
0.0
 11
22.05124562272638
 21
83.60563198951878
 31
0.0
  0
SPLINE
  5
26C
330
1F
100
AcDbEntity
  8
1
  6
Continuous
 62
     3
100
AcDbSpline
210
0.0
220
0.0
230
1.0
 70
     8
 71
     3
 72
     9
 73
     5
 74
     3
 42
0.0000000001
 43
0.0000000001
 44
0.00000001
 40
0.0
 40
0.0
 40
0.0
 40
0.0
 40
6.095285373464109
 40
12.19057120274574
 40
12.19057120274574
 40
12.19057120274574
 40
12.19057120274574
 10
22.05124562272638
 20
83.60563198951878
 30
0.0
 10
20.05124570109948
 20
84.14240626816057
 30
0.0
 10
16.05124570828171
 20
85.21595486558518
 30
0.0
 10
12.05124570109948
 20
84.14240629492127
 30
0.0
 10
10.05124562272638
 20
83.60563198951878
 30
0.0
 11
22.05124562272638
 21
83.60563198951878
 31
0.0
 11
16.05124585425455
 21
84.67918057356304
 31
0.0
 11
10.05124562272638
 21
83.60563198951878
 31
0.0
  0
ARC
  5
26D
330
1F
100
AcDbEntity
  8
1
  6
Continuous
 62
     3
100
AcDbCircle
 10
116.23404777994
 20
56.4661038938379
 30
0.0
 40
2.0
100
AcDbArc
 50
270.0
 51
0.00000000000305
  0
ARC
  5
26E
330
1F
100
AcDbEntity
  8
1
  6
Continuous
 62
     3
100
AcDbCircle
 10
119.2340477799396
 20
59.949154659983
 30
0.0
 40
1.000000000000003
100
AcDbArc
 50
134.9999999999715
 51
180.0
  0
ARC
  5
26F
330
1F
100
AcDbEntity
  8
1
  6
Continuous
 62
     3
100
AcDbCircle
 10
137.2340477799391
 20
59.9518896358244
 30
0.0
 40
1.0
100
AcDbArc
 50
0.0
 51
45.00000000002851
  0
ARC
  5
270
330
1F
100
AcDbEntity
  8
1
  6
Continuous
 62
     3
100
AcDbCircle
 10
107.7588391658716
 20
25.26610389383789
 30
0.0
 40
2.0
100
AcDbArc
 50
0.0
 51
90.0
  0
ARC
  5
271
330
1F
100
AcDbEntity
  8
1
  6
Continuous
 62
     3
100
AcDbCircle
 10
110.2588391658716
 20
12.16119165725494
 30
0.0
 40
0.5
100
AcDbArc
 50
180.0
 51
239.9999999999995
  0
ARC
  5
272
330
1F
100
AcDbEntity
  8
1
  6
Continuous
 62
     3
100
AcDbCircle
 10
146.2092563940076
 20
12.16119165725494
 30
0.0
 40
0.4999999999999933
100
AcDbArc
 50
300.0000000000004
 51
0.0
  0
ARC
  5
273
330
1F
100
AcDbEntity
  8
1
  6
Continuous
 62
     3
100
AcDbCircle
 10
140.7340477799396
 20
32.6166227393616
 30
0.0
 40
2.5
100
AcDbArc
 50
180.0000000000026
 51
249.9999999999996
  0
ARC
  5
274
330
1F
100
AcDbEntity
  8
1
  6
Continuous
 62
     3
100
AcDbCircle
 10
146.2092563940076
 20
27.4312764600151
 30
0.0
 40
0.5
100
AcDbArc
 50
0.0
 51
70.00000000000436
  0
LINE
  5
275
330
1F
100
AcDbEntity
  8
1
 62
     4
100
AcDbLine
 10
128.2804742440614
 20
9.8661038938378
 30
0.0
 11
130.558958231899
 21
8.87511443335871
 31
0.0
  0
LINE
  5
276
330
1F
100
AcDbEntity
  8
1
 62
     4
100
AcDbLine
 10
128.2804742440614
 20
9.8661038938378
 30
0.0
 11
129.7582045294053
 21
7.86863985226146
 31
0.0
  0
LEADER
  5
277
330
1F
100
AcDbEntity
  8
1
  6
Continuous
 62
     4
100
AcDbLeader
  3
Standard
 71
     0
 76
     3
 10
128.2804742440614
 20
9.8661038938378
 30
0.0
 10
138.7332595975454
 20
1.54984163508362
 30
0.0
 10
152.043727638329
 20
1.54984163508362
 30
0.0
  0
LINE
  5
278
330
1F
100
AcDbEntity
  8
1
 62
     4
100
AcDbLine
 10
128.2340477799396
 20
84.9661038938378
 30
0.0
 11
129.1334575202405
 21
87.2822669953194
 31
0.0
  0
LINE
  5
279
330
1F
100
AcDbEntity
  8
1
 62
     4
100
AcDbLine
 10
128.2340477799396
 20
84.9661038938378
 30
0.0
 11
130.1710410141922
 21
86.52225510887857
 31
0.0
  0
LEADER
  5
27A
330
1F
100
AcDbEntity
  8
1
  6
Continuous
 62
     4
100
AcDbLeader
  3
Standard
 71
     0
 76
     3
 10
128.2340477799396
 20
84.9661038938378
 30
0.0
 10
132.9455742906722
 20
91.3983745281108
 30
0.0
 10
143.0844779349161
 20
91.3983745281108
 30
0.0
  0
ENDSEC
  0
SECTION
  2
OBJECTS
  0
DICTIONARY
  5
C
330
0
100
AcDbDictionary
281
     1
  3
ACAD_GROUP
350
D
  3
ACAD_LAYOUT
350
1A
  3
ACAD_MATERIAL
350
3B
  3
ACAD_MLEADERSTYLE
350
27D
  3
ACAD_MLINESTYLE
350
17
  3
ACAD_PLOTSETTINGS
350
19
  3
ACAD_PLOTSTYLENAME
350
E
  3
ACAD_VISUALSTYLE
350
2A
  3
AcDbVariableDictionary
350
27B
  0
DICTIONARY
  5
D
102
{ACAD_REACTORS
330
C
102
}
330
C
100
AcDbDictionary
281
     1
  0
DICTIONARY
  5
1A
102
{ACAD_REACTORS
330
C
102
}
330
C
100
AcDbDictionary
281
     1
  3
Layout1
350
1E
  3
Layout2
350
26
  3
Model
350
22
  0
DICTIONARY
  5
3B
102
{ACAD_REACTORS
330
C
102
}
330
C
100
AcDbDictionary
281
     1
  3
ByBlock
350
3D
  3
ByLayer
350
3C
  3
Global
350
3E
  0
DICTIONARY
  5
27D
102
{ACAD_REACTORS
330
C
102
}
330
C
100
AcDbDictionary
281
     1
  0
DICTIONARY
  5
17
102
{ACAD_REACTORS
330
C
102
}
330
C
100
AcDbDictionary
281
     1
  3
Standard
350
18
  0
DICTIONARY
  5
19
102
{ACAD_REACTORS
330
C
102
}
330
C
100
AcDbDictionary
281
     1
  0
ACDBDICTIONARYWDFLT
  5
E
102
{ACAD_REACTORS
330
C
102
}
330
C
100
AcDbDictionary
281
     1
  3
Normal
350
F
100
AcDbDictionaryWithDefault
340
F
  0
DICTIONARY
  5
2A
102
{ACAD_REACTORS
330
C
102
}
330
C
100
AcDbDictionary
281
     1
  3
2dWireframe
350
2F
  3
3D Hidden
350
31
  3
3dWireframe
350
30
  3
Basic
350
32
  3
Brighten
350
36
  3
ColorChange
350
3A
  3
Conceptual
350
34
  3
Dim
350
35
  3
Facepattern
350
39
  3
Flat
350
2B
  3
FlatWithEdges
350
2C
  3
Gouraud
350
2D
  3
GouraudWithEdges
350
2E
  3
Linepattern
350
38
  3
Realistic
350
33
  3
Thicken
350
37
  0
DICTIONARY
  5
27B
102
{ACAD_REACTORS
330
C
102
}
330
C
100
AcDbDictionary
281
     1
  3
DIMASSOC
350
27E
  3
HIDETEXT
350
27F
  0
LAYOUT
  5
1E
102
{ACAD_REACTORS
330
1A
102
}
330
1A
100
AcDbPlotSettings
  1

  2
none_device
  4

  6

 40
0.0
 41
0.0
 42
0.0
 43
0.0
 44
0.0
 45
0.0
 46
0.0
 47
0.0
 48
0.0
 49
0.0
140
0.0
141
0.0
142
1.0
143
1.0
 70
   688
 72
     0
 73
     0
 74
     5
  7

 75
    16
147
1.0
148
0.0
149
0.0
100
AcDbLayout
  1
Layout1
 70
     1
 71
     1
 10
0.0
 20
0.0
 11
12.0
 21
9.0
 12
0.0
 22
0.0
 32
0.0
 14
1.00000000000000E+20
 24
1.00000000000000E+20
 34
1.00000000000000E+20
 15
-1.00000000000000E+20
 25
-1.00000000000000E+20
 35
-1.00000000000000E+20
146
0.0
 13
0.0
 23
0.0
 33
0.0
 16
1.0
 26
0.0
 36
0.0
 17
0.0
 27
1.0
 37
0.0
 76
     0
330
1B
  0
LAYOUT
  5
26
102
{ACAD_REACTORS
330
1A
102
}
330
1A
100
AcDbPlotSettings
  1

  2
none_device
  4

  6

 40
0.0
 41
0.0
 42
0.0
 43
0.0
 44
0.0
 45
0.0
 46
0.0
 47
0.0
 48
0.0
 49
0.0
140
0.0
141
0.0
142
1.0
143
1.0
 70
   688
 72
     0
 73
     0
 74
     5
  7

 75
    16
147
1.0
148
0.0
149
0.0
100
AcDbLayout
  1
Layout2
 70
     1
 71
     2
 10
0.0
 20
0.0
 11
0.0
 21
0.0
 12
0.0
 22
0.0
 32
0.0
 14
0.0
 24
0.0
 34
0.0
 15
0.0
 25
0.0
 35
0.0
146
0.0
 13
0.0
 23
0.0
 33
0.0
 16
1.0
 26
0.0
 36
0.0
 17
0.0
 27
1.0
 37
0.0
 76
     0
330
23
  0
LAYOUT
  5
22
102
{ACAD_REACTORS
330
1A
102
}
330
1A
100
AcDbPlotSettings
  1

  2
none_device
  4

  6

 40
0.0
 41
0.0
 42
0.0
 43
0.0
 44
0.0
 45
0.0
 46
0.0
 47
0.0
 48
0.0
 49
0.0
140
0.0
141
0.0
142
1.0
143
1.0
 70
  1712
 72
     0
 73
     0
 74
     0
  7

 75
     0
147
1.0
148
0.0
149
0.0
100
AcDbLayout
  1
Model
 70
     1
 71
     0
 10
0.0
 20
0.0
 11
12.0
 21
9.0
 12
0.0
 22
0.0
 32
0.0
 14
5.97063140424944
 24
-3.5253946644149
 34
0.0
 15
152.043727638329
 25
153.7107915670418
 35
0.0
146
0.0
 13
0.0
 23
0.0
 33
0.0
 16
1.0
 26
0.0
 36
0.0
 17
0.0
 27
1.0
 37
0.0
 76
     0
330
1F
331
29
  0
MATERIAL
  5
3D
102
{ACAD_REACTORS
330
3B
102
}
102
{ACAD_XDICTIONARY
360
2A2
102
}
330
3B
100
AcDbMaterial
  1
ByBlock
  0
MATERIAL
  5
3C
102
{ACAD_REACTORS
330
3B
102
}
102
{ACAD_XDICTIONARY
360
2A0
102
}
330
3B
100
AcDbMaterial
  1
ByLayer
  0
MATERIAL
  5
3E
102
{ACAD_REACTORS
330
3B
102
}
102
{ACAD_XDICTIONARY
360
2A4
102
}
330
3B
100
AcDbMaterial
  1
Global
  0
MLINESTYLE
  5
18
102
{ACAD_REACTORS
330
17
102
}
330
17
100
AcDbMlineStyle
  2
Standard
 70
     0
  3

 62
   256
 51
90.0
 52
90.0
 71
     2
 49
0.5
 62
   256
  6
BYLAYER
 49
-0.5
 62
   256
  6
BYLAYER
  0
ACDBPLACEHOLDER
  5
F
102
{ACAD_REACTORS
330
E
102
}
330
E
  0
VISUALSTYLE
  5
2F
102
{ACAD_REACTORS
330
2A
102
}
102
{ACAD_XDICTIONARY
360
288
102
}
330
2A
100
AcDbVisualStyle
  2
2dWireframe
 70
     4
 71
     0
 72
     2
 73
     0
 90
        0
 40
-0.6
 41
-30.0
 62
     5
 63
     7
 74
     1
 91
        4
 64
     7
 65
   257
 75
     1
175
     1
 42
1.0
 92
        0
 66
   257
 43
1.0
 76
     1
 77
     6
 78
     2
 67
     7
 79
     5
170
     0
171
     0
290
     0
174
     0
 93
        1
 44
0.0
173
     0
291
     0
 45
0.0
1001
ACAD
1000
AcDbSavedByObjectVersion
1070
     0
  0
VISUALSTYLE
  5
31
102
{ACAD_REACTORS
330
2A
102
}
102
{ACAD_XDICTIONARY
360
28C
102
}
330
2A
100
AcDbVisualStyle
  2
3D Hidden
 70
     6
 71
     1
 72
     2
 73
     2
 90
        0
 40
-0.6
 41
-30.0
 62
     5
 63
     7
 74
     2
 91
        2
 64
     7
 65
   257
 75
     2
175
     1
 42
40.0
 92
        0
 66
   257
 43
1.0
 76
     1
 77
     6
 78
     2
 67
     7
 79
     3
170
     0
171
     0
290
     0
174
     0
 93
        1
 44
0.0
173
     0
291
     0
 45
0.0
1001
ACAD
1000
AcDbSavedByObjectVersion
1070
     0
  0
VISUALSTYLE
  5
30
102
{ACAD_REACTORS
330
2A
102
}
102
{ACAD_XDICTIONARY
360
28A
102
}
330
2A
100
AcDbVisualStyle
  2
3dWireframe
 70
     5
 71
     0
 72
     2
 73
     0
 90
        0
 40
-0.6
 41
-30.0
 62
     5
 63
     7
 74
     1
 91
        4
 64
     7
 65
   257
 75
     1
175
     1
 42
1.0
 92
        0
 66
   257
 43
1.0
 76
     1
 77
     6
 78
     2
 67
     7
 79
     5
170
     0
171
     0
290
     0
174
     0
 93
        1
 44
0.0
173
     0
291
     0
 45
0.0
1001
ACAD
1000
AcDbSavedByObjectVersion
1070
     0
  0
VISUALSTYLE
  5
32
102
{ACAD_REACTORS
330
2A
102
}
102
{ACAD_XDICTIONARY
360
28E
102
}
330
2A
100
AcDbVisualStyle
  2
Basic
 70
     7
 71
     1
 72
     0
 73
     1
 90
        0
 40
-0.6
 41
-30.0
 62
     5
 63
     7
 74
     0
 91
        4
 64
     7
 65
   257
 75
     1
175
     1
 42
1.0
 92
        8
 66
     7
 43
1.0
 76
     1
 77
     6
 78
     2
 67
     7
 79
     5
170
     0
171
     0
290
     0
174
     0
 93
        1
 44
0.0
173
     0
291
     1
 45
0.0
1001
ACAD
1000
AcDbSavedByObjectVersion
1070
     0
  0
VISUALSTYLE
  5
36
102
{ACAD_REACTORS
330
2A
102
}
102
{ACAD_XDICTIONARY
360
296
102
}
330
2A
100
AcDbVisualStyle
  2
Brighten
 70
    12
 71
     2
 72
     2
 73
     0
 90
        0
 40
-0.6
 41
-30.0
 62
     5
 63
     7
 74
     1
 91
        4
 64
     7
 65
   257
 75
     1
175
     1
 42
1.0
 92
        8
 66
     7
 43
1.0
 76
     1
 77
     6
 78
     2
 67
     7
 79
     5
170
     0
171
     0
290
     0
174
     0
 93
        1
 44
50.0
173
     0
291
     1
 45
0.0
1001
ACAD
1000
AcDbSavedByObjectVersion
1070
     0
  0
VISUALSTYLE
  5
3A
102
{ACAD_REACTORS
330
2A
102
}
102
{ACAD_XDICTIONARY
360
29E
102
}
330
2A
100
AcDbVisualStyle
  2
ColorChange
 70
    16
 71
     2
 72
     2
 73
     3
 90
        0
 40
-0.6
 41
-30.0
 62
     5
 63
     8
 74
     1
 91
        4
 64
     7
 65
   257
 75
     1
175
     1
 42
1.0
 92
        8
 66
     8
 43
1.0
 76
     1
 77
     6
 78
     2
 67
     7
 79
     5
170
     0
171
     0
290
     0
174
     0
 93
        1
 44
0.0
173
     0
291
     1
 45
0.0
1001
ACAD
1000
AcDbSavedByObjectVersion
1070
     0
  0
VISUALSTYLE
  5
34
102
{ACAD_REACTORS
330
2A
102
}
102
{ACAD_XDICTIONARY
360
292
102
}
330
2A
100
AcDbVisualStyle
  2
Conceptual
 70
     9
 71
     3
 72
     2
 73
     0
 90
        0
 40
-0.6
 41
-30.0
 62
     5
 63
     7
 74
     2
 91
        2
 64
     7
 65
   257
 75
     1
175
     1
 42
40.0
 92
        8
 66
     7
 43
1.0
 76
     1
 77
     6
 78
     2
 67
     7
 79
     3
170
     0
171
     0
290
     0
174
     0
 93
        1
 44
0.0
173
     0
291
     0
 45
0.0
1001
ACAD
1000
AcDbSavedByObjectVersion
1070
     0
  0
VISUALSTYLE
  5
35
102
{ACAD_REACTORS
330
2A
102
}
102
{ACAD_XDICTIONARY
360
294
102
}
330
2A
100
AcDbVisualStyle
  2
Dim
 70
    11
 71
     2
 72
     2
 73
     0
 90
        0
 40
-0.6
 41
-30.0
 62
     5
 63
     7
 74
     1
 91
        4
 64
     7
 65
   257
 75
     1
175
     1
 42
1.0
 92
        8
 66
     7
 43
1.0
 76
     1
 77
     6
 78
     2
 67
     7
 79
     5
170
     0
171
     0
290
     0
174
     0
 93
        1
 44
-50.0
173
     0
291
     1
 45
0.0
1001
ACAD
1000
AcDbSavedByObjectVersion
1070
     0
  0
VISUALSTYLE
  5
39
102
{ACAD_REACTORS
330
2A
102
}
102
{ACAD_XDICTIONARY
360
29C
102
}
330
2A
100
AcDbVisualStyle
  2
Facepattern
 70
    15
 71
     2
 72
     2
 73
     0
 90
        0
 40
-0.6
 41
-30.0
 62
     5
 63
     7
 74
     1
 91
        4
 64
     7
 65
   257
 75
     1
175
     1
 42
1.0
 92
        8
 66
     7
 43
1.0
 76
     1
 77
     6
 78
     2
 67
     7
 79
     5
170
     0
171
     0
290
     0
174
     0
 93
        1
 44
0.0
173
     0
291
     1
 45
0.0
1001
ACAD
1000
AcDbSavedByObjectVersion
1070
     0
  0
VISUALSTYLE
  5
2B
102
{ACAD_REACTORS
330
2A
102
}
102
{ACAD_XDICTIONARY
360
280
102
}
330
2A
100
AcDbVisualStyle
  2
Flat
 70
     0
 71
     2
 72
     1
 73
     1
 90
        2
 40
-0.6
 41
30.0
 62
     5
 63
     7
 74
     0
 91
        4
 64
     7
 65
   257
 75
     1
175
     1
 42
1.0
 92
        8
 66
     7
 43
1.0
 76
     1
 77
     6
 78
     2
 67
     7
 79
     5
170
     0
171
     0
290
     0
174
     0
 93
       13
 44
0.0
173
     0
291
     1
 45
0.0
1001
ACAD
1000
AcDbSavedByObjectVersion
1070
     0
  0
VISUALSTYLE
  5
2C
102
{ACAD_REACTORS
330
2A
102
}
102
{ACAD_XDICTIONARY
360
282
102
}
330
2A
100
AcDbVisualStyle
  2
FlatWithEdges
 70
     1
 71
     2
 72
     1
 73
     1
 90
        2
 40
-0.6
 41
30.0
 62
     5
 63
     7
 74
     1
 91
        4
 64
     7
 65
   257
 75
     1
175
     1
 42
1.0
 92
        0
 66
   257
 43
1.0
 76
     1
 77
     6
 78
     2
 67
     7
 79
     5
170
     0
171
     0
290
     0
174
     0
 93
       13
 44
0.0
173
     0
291
     1
 45
0.0
1001
ACAD
1000
AcDbSavedByObjectVersion
1070
     0
  0
VISUALSTYLE
  5
2D
102
{ACAD_REACTORS
330
2A
102
}
102
{ACAD_XDICTIONARY
360
284
102
}
330
2A
100
AcDbVisualStyle
  2
Gouraud
 70
     2
 71
     2
 72
     2
 73
     1
 90
        2
 40
-0.6
 41
30.0
 62
     5
 63
     7
 74
     0
 91
        4
 64
     7
 65
   257
 75
     1
175
     1
 42
1.0
 92
        0
 66
     7
 43
1.0
 76
     1
 77
     6
 78
     2
 67
     7
 79
     5
170
     0
171
     0
290
     0
174
     0
 93
       13
 44
0.0
173
     0
291
     1
 45
0.0
1001
ACAD
1000
AcDbSavedByObjectVersion
1070
     0
  0
VISUALSTYLE
  5
2E
102
{ACAD_REACTORS
330
2A
102
}
102
{ACAD_XDICTIONARY
360
286
102
}
330
2A
100
AcDbVisualStyle
  2
GouraudWithEdges
 70
     3
 71
     2
 72
     2
 73
     1
 90
        2
 40
-0.6
 41
30.0
 62
     5
 63
     7
 74
     1
 91
        4
 64
     7
 65
   257
 75
     1
175
     1
 42
1.0
 92
        0
 66
   257
 43
1.0
 76
     1
 77
     6
 78
     2
 67
     7
 79
     5
170
     0
171
     0
290
     0
174
     0
 93
       13
 44
0.0
173
     0
291
     1
 45
0.0
1001
ACAD
1000
AcDbSavedByObjectVersion
1070
     0
  0
VISUALSTYLE
  5
38
102
{ACAD_REACTORS
330
2A
102
}
102
{ACAD_XDICTIONARY
360
29A
102
}
330
2A
100
AcDbVisualStyle
  2
Linepattern
 70
    14
 71
     2
 72
     2
 73
     0
 90
        0
 40
-0.6
 41
-30.0
 62
     5
 63
     7
 74
     1
 91
        4
 64
     7
 65
   257
 75
     7
175
     7
 42
1.0
 92
        8
 66
     7
 43
1.0
 76
     1
 77
     6
 78
     2
 67
     7
 79
     5
170
     0
171
     0
290
     0
174
     0
 93
        1
 44
0.0
173
     0
291
     1
 45
0.0
1001
ACAD
1000
AcDbSavedByObjectVersion
1070
     0
  0
VISUALSTYLE
  5
33
102
{ACAD_REACTORS
330
2A
102
}
102
{ACAD_XDICTIONARY
360
290
102
}
330
2A
100
AcDbVisualStyle
  2
Realistic
 70
     8
 71
     2
 72
     2
 73
     0
 90
        0
 40
-0.6
 41
-30.0
 62
     5
 63
     7
 74
     1
 91
        0
 64
     7
 65
   257
 75
     1
175
     1
 42
1.0
 92
        8
 66
     8
 43
1.0
 76
     1
 77
     6
 78
     2
 67
     7
 79
     5
170
     0
171
     0
290
     0
174
     0
 93
       13
 44
0.0
173
     0
291
     0
 45
0.0
1001
ACAD
1000
AcDbSavedByObjectVersion
1070
     0
  0
VISUALSTYLE
  5
37
102
{ACAD_REACTORS
330
2A
102
}
102
{ACAD_XDICTIONARY
360
298
102
}
330
2A
100
AcDbVisualStyle
  2
Thicken
 70
    13
 71
     2
 72
     2
 73
     0
 90
        0
 40
-0.6
 41
-30.0
 62
     5
 63
     7
 74
     1
 91
        4
 64
     7
 65
   257
 75
     1
175
     1
 42
1.0
 92
       12
 66
     7
 43
1.0
 76
     1
 77
     6
 78
     2
 67
     7
 79
     5
170
     0
171
     0
290
     0
174
     0
 93
        1
 44
0.0
173
     0
291
     1
 45
0.0
1001
ACAD
1000
AcDbSavedByObjectVersion
1070
     0
  0
DICTIONARYVAR
  5
27E
102
{ACAD_REACTORS
330
27B
102
}
330
27B
100
DictionaryVariables
280
     0
  1
2
  0
DICTIONARYVAR
  5
27F
102
{ACAD_REACTORS
330
27B
102
}
330
27B
100
DictionaryVariables
280
     0
  1
1
  0
DICTIONARY
  5
2A2
330
3D
100
AcDbDictionary
280
     1
281
     1
  3
ACAD_XREC_ROUNDTRIP
360
2A3
  0
DICTIONARY
  5
2A0
330
3C
100
AcDbDictionary
280
     1
281
     1
  3
ACAD_XREC_ROUNDTRIP
360
2A1
  0
DICTIONARY
  5
2A4
330
3E
100
AcDbDictionary
280
     1
281
     1
  3
ACAD_XREC_ROUNDTRIP
360
2A5
  0
DICTIONARY
  5
288
330
2F
100
AcDbDictionary
280
     1
281
     1
  3
ACAD_XREC_ROUNDTRIP
360
289
  0
DICTIONARY
  5
28C
330
31
100
AcDbDictionary
280
     1
281
     1
  3
ACAD_XREC_ROUNDTRIP
360
28D
  0
DICTIONARY
  5
28A
330
30
100
AcDbDictionary
280
     1
281
     1
  3
ACAD_XREC_ROUNDTRIP
360
28B
  0
DICTIONARY
  5
28E
330
32
100
AcDbDictionary
280
     1
281
     1
  3
ACAD_XREC_ROUNDTRIP
360
28F
  0
DICTIONARY
  5
296
330
36
100
AcDbDictionary
280
     1
281
     1
  3
ACAD_XREC_ROUNDTRIP
360
297
  0
DICTIONARY
  5
29E
330
3A
100
AcDbDictionary
280
     1
281
     1
  3
ACAD_XREC_ROUNDTRIP
360
29F
  0
DICTIONARY
  5
292
330
34
100
AcDbDictionary
280
     1
281
     1
  3
ACAD_XREC_ROUNDTRIP
360
293
  0
DICTIONARY
  5
294
330
35
100
AcDbDictionary
280
     1
281
     1
  3
ACAD_XREC_ROUNDTRIP
360
295
  0
DICTIONARY
  5
29C
330
39
100
AcDbDictionary
280
     1
281
     1
  3
ACAD_XREC_ROUNDTRIP
360
29D
  0
DICTIONARY
  5
280
330
2B
100
AcDbDictionary
280
     1
281
     1
  3
ACAD_XREC_ROUNDTRIP
360
281
  0
DICTIONARY
  5
282
330
2C
100
AcDbDictionary
280
     1
281
     1
  3
ACAD_XREC_ROUNDTRIP
360
283
  0
DICTIONARY
  5
284
330
2D
100
AcDbDictionary
280
     1
281
     1
  3
ACAD_XREC_ROUNDTRIP
360
285
  0
DICTIONARY
  5
286
330
2E
100
AcDbDictionary
280
     1
281
     1
  3
ACAD_XREC_ROUNDTRIP
360
287
  0
DICTIONARY
  5
29A
330
38
100
AcDbDictionary
280
     1
281
     1
  3
ACAD_XREC_ROUNDTRIP
360
29B
  0
DICTIONARY
  5
290
330
33
100
AcDbDictionary
280
     1
281
     1
  3
ACAD_XREC_ROUNDTRIP
360
291
  0
DICTIONARY
  5
298
330
37
100
AcDbDictionary
280
     1
281
     1
  3
ACAD_XREC_ROUNDTRIP
360
299
  0
XRECORD
  5
2A3
102
{ACAD_REACTORS
330
2A2
102
}
330
2A2
100
AcDbXrecord
280
     1
102
MATERIAL
148
0.0
149
0.0
149
0.0
 93
        0
 94
      127
282
     0
 72
     1
 77
     1
171
     1
175
     1
179
     1
273
     0
  0
XRECORD
  5
2A1
102
{ACAD_REACTORS
330
2A0
102
}
330
2A0
100
AcDbXrecord
280
     1
102
MATERIAL
148
0.0
149
0.0
149
0.0
 93
        0
 94
      127
282
     0
 72
     1
 77
     1
171
     1
175
     1
179
     1
273
     0
  0
XRECORD
  5
2A5
102
{ACAD_REACTORS
330
2A4
102
}
330
2A4
100
AcDbXrecord
280
     1
102
MATERIAL
148
0.0
149
0.0
149
0.0
 93
        0
 94
      127
282
     0
 72
     1
 77
     1
171
     1
175
     1
179
     1
273
     0
  0
XRECORD
  5
289
102
{ACAD_REACTORS
330
288
102
}
330
288
100
AcDbXrecord
280
     1
102
RTVSPropertyOp0
 70
     1
102
RTVSPropertyOp1
 70
     1
102
RTVSPropertyOp2
 70
     1
102
RTVSPropertyOp3
 70
     1
102
RTVSPropertyOp4
 70
     1
102
RTVSPropertyOp5
 70
     1
102
RTVSPropertyOp6
 70
     1
102
RTVSPropertyOp7
 70
     1
102
RTVSPropertyOp8
 70
     1
102
RTVSPropertyOp9
 70
     1
102
RTVSPropertyOp10
 70
     1
102
RTVSPropertyOp11
 70
     1
102
RTVSPropertyOp12
 70
     1
102
RTVSPropertyOp13
 70
     1
102
RTVSPropertyOp14
 70
     1
102
RTVSPropertyOp15
 70
     1
102
RTVSPropertyOp16
 70
     1
102
RTVSPropertyOp17
 70
     1
102
RTVSPropertyOp18
 70
     1
102
RTVSPropertyOp19
 70
     1
102
RTVSPropertyOp20
 70
     1
102
RTVSPropertyOp21
 70
     1
102
RTVSPropertyOp22
 70
     1
102
RTVSPropertyOp23
 70
     1
102
RTVSPropertyOp24
 70
     1
102
RTVSPropertyOp25
 70
     1
102
RTVSPropertyOp26
 70
     1
102
RTVSPropertyOp27
 70
     1
  0
XRECORD
  5
28D
102
{ACAD_REACTORS
330
28C
102
}
330
28C
100
AcDbXrecord
280
     1
102
RTVSPropertyOp0
 70
     1
102
RTVSPropertyOp1
 70
     1
102
RTVSPropertyOp2
 70
     1
102
RTVSPropertyOp3
 70
     1
102
RTVSPropertyOp4
 70
     1
102
RTVSPropertyOp5
 70
     1
102
RTVSPropertyOp6
 70
     1
102
RTVSPropertyOp7
 70
     1
102
RTVSPropertyOp8
 70
     1
102
RTVSPropertyOp9
 70
     1
102
RTVSPropertyOp10
 70
     1
102
RTVSPropertyOp11
 70
     1
102
RTVSPropertyOp12
 70
     1
102
RTVSPropertyOp13
 70
     1
102
RTVSPropertyOp14
 70
     1
102
RTVSPropertyOp15
 70
     1
102
RTVSPropertyOp16
 70
     1
102
RTVSPropertyOp17
 70
     1
102
RTVSPropertyOp18
 70
     1
102
RTVSPropertyOp19
 70
     1
102
RTVSPropertyOp20
 70
     1
102
RTVSPropertyOp21
 70
     1
102
RTVSPropertyOp22
 70
     1
102
RTVSPropertyOp23
 70
     1
102
RTVSPropertyOp24
 70
     1
102
RTVSPropertyOp25
 70
     1
102
RTVSPropertyOp26
 70
     1
102
RTVSPropertyOp27
 70
     1
  0
XRECORD
  5
28B
102
{ACAD_REACTORS
330
28A
102
}
330
28A
100
AcDbXrecord
280
     1
102
RTVSPropertyOp0
 70
     1
102
RTVSPropertyOp1
 70
     1
102
RTVSPropertyOp2
 70
     1
102
RTVSPropertyOp3
 70
     1
102
RTVSPropertyOp4
 70
     1
102
RTVSPropertyOp5
 70
     1
102
RTVSPropertyOp6
 70
     1
102
RTVSPropertyOp7
 70
     1
102
RTVSPropertyOp8
 70
     1
102
RTVSPropertyOp9
 70
     1
102
RTVSPropertyOp10
 70
     1
102
RTVSPropertyOp11
 70
     1
102
RTVSPropertyOp12
 70
     1
102
RTVSPropertyOp13
 70
     1
102
RTVSPropertyOp14
 70
     1
102
RTVSPropertyOp15
 70
     1
102
RTVSPropertyOp16
 70
     1
102
RTVSPropertyOp17
 70
     1
102
RTVSPropertyOp18
 70
     1
102
RTVSPropertyOp19
 70
     1
102
RTVSPropertyOp20
 70
     1
102
RTVSPropertyOp21
 70
     1
102
RTVSPropertyOp22
 70
     1
102
RTVSPropertyOp23
 70
     1
102
RTVSPropertyOp24
 70
     1
102
RTVSPropertyOp25
 70
     1
102
RTVSPropertyOp26
 70
     1
102
RTVSPropertyOp27
 70
     1
  0
XRECORD
  5
28F
102
{ACAD_REACTORS
330
28E
102
}
330
28E
100
AcDbXrecord
280
     1
102
RTVSPropertyOp0
 70
     1
102
RTVSPropertyOp1
 70
     1
102
RTVSPropertyOp2
 70
     1
102
RTVSPropertyOp3
 70
     1
102
RTVSPropertyOp4
 70
     1
102
RTVSPropertyOp5
 70
     1
102
RTVSPropertyOp6
 70
     1
102
RTVSPropertyOp7
 70
     1
102
RTVSPropertyOp8
 70
     1
102
RTVSPropertyOp9
 70
     1
102
RTVSPropertyOp10
 70
     1
102
RTVSPropertyOp11
 70
     1
102
RTVSPropertyOp12
 70
     1
102
RTVSPropertyOp13
 70
     1
102
RTVSPropertyOp14
 70
     1
102
RTVSPropertyOp15
 70
     1
102
RTVSPropertyOp16
 70
     1
102
RTVSPropertyOp17
 70
     1
102
RTVSPropertyOp18
 70
     1
102
RTVSPropertyOp19
 70
     1
102
RTVSPropertyOp20
 70
     1
102
RTVSPropertyOp21
 70
     1
102
RTVSPropertyOp22
 70
     1
102
RTVSPropertyOp23
 70
     1
102
RTVSPropertyOp24
 70
     1
102
RTVSPropertyOp25
 70
     1
102
RTVSPropertyOp26
 70
     1
102
RTVSPropertyOp27
 70
     1
  0
XRECORD
  5
297
102
{ACAD_REACTORS
330
296
102
}
330
296
100
AcDbXrecord
280
     1
102
RTVSPropertyOp0
 70
     1
102
RTVSPropertyOp1
 70
     1
102
RTVSPropertyOp2
 70
     1
102
RTVSPropertyOp3
 70
     1
102
RTVSPropertyOp4
 70
     1
102
RTVSPropertyOp5
 70
     1
102
RTVSPropertyOp6
 70
     1
102
RTVSPropertyOp7
 70
     1
102
RTVSPropertyOp8
 70
     1
102
RTVSPropertyOp9
 70
     1
102
RTVSPropertyOp10
 70
     1
102
RTVSPropertyOp11
 70
     1
102
RTVSPropertyOp12
 70
     1
102
RTVSPropertyOp13
 70
     1
102
RTVSPropertyOp14
 70
     1
102
RTVSPropertyOp15
 70
     1
102
RTVSPropertyOp16
 70
     1
102
RTVSPropertyOp17
 70
     1
102
RTVSPropertyOp18
 70
     1
102
RTVSPropertyOp19
 70
     1
102
RTVSPropertyOp20
 70
     1
102
RTVSPropertyOp21
 70
     1
102
RTVSPropertyOp22
 70
     1
102
RTVSPropertyOp23
 70
     1
102
RTVSPropertyOp24
 70
     1
102
RTVSPropertyOp25
 70
     1
102
RTVSPropertyOp26
 70
     1
102
RTVSPropertyOp27
 70
     1
  0
XRECORD
  5
29F
102
{ACAD_REACTORS
330
29E
102
}
330
29E
100
AcDbXrecord
280
     1
102
RTVSPropertyOp0
 70
     1
102
RTVSPropertyOp1
 70
     1
102
RTVSPropertyOp2
 70
     1
102
RTVSPropertyOp3
 70
     1
102
RTVSPropertyOp4
 70
     1
102
RTVSPropertyOp5
 70
     1
102
RTVSPropertyOp6
 70
     1
102
RTVSPropertyOp7
 70
     1
102
RTVSPropertyOp8
 70
     1
102
RTVSPropertyOp9
 70
     1
102
RTVSPropertyOp10
 70
     1
102
RTVSPropertyOp11
 70
     1
102
RTVSPropertyOp12
 70
     1
102
RTVSPropertyOp13
 70
     1
102
RTVSPropertyOp14
 70
     1
102
RTVSPropertyOp15
 70
     1
102
RTVSPropertyOp16
 70
     1
102
RTVSPropertyOp17
 70
     1
102
RTVSPropertyOp18
 70
     1
102
RTVSPropertyOp19
 70
     1
102
RTVSPropertyOp20
 70
     1
102
RTVSPropertyOp21
 70
     1
102
RTVSPropertyOp22
 70
     1
102
RTVSPropertyOp23
 70
     1
102
RTVSPropertyOp24
 70
     1
102
RTVSPropertyOp25
 70
     1
102
RTVSPropertyOp26
 70
     1
102
RTVSPropertyOp27
 70
     1
  0
XRECORD
  5
293
102
{ACAD_REACTORS
330
292
102
}
330
292
100
AcDbXrecord
280
     1
102
RTVSPropertyOp0
 70
     1
102
RTVSPropertyOp1
 70
     1
102
RTVSPropertyOp2
 70
     1
102
RTVSPropertyOp3
 70
     1
102
RTVSPropertyOp4
 70
     1
102
RTVSPropertyOp5
 70
     1
102
RTVSPropertyOp6
 70
     1
102
RTVSPropertyOp7
 70
     1
102
RTVSPropertyOp8
 70
     1
102
RTVSPropertyOp9
 70
     1
102
RTVSPropertyOp10
 70
     1
102
RTVSPropertyOp11
 70
     1
102
RTVSPropertyOp12
 70
     1
102
RTVSPropertyOp13
 70
     1
102
RTVSPropertyOp14
 70
     1
102
RTVSPropertyOp15
 70
     1
102
RTVSPropertyOp16
 70
     1
102
RTVSPropertyOp17
 70
     1
102
RTVSPropertyOp18
 70
     1
102
RTVSPropertyOp19
 70
     1
102
RTVSPropertyOp20
 70
     1
102
RTVSPropertyOp21
 70
     1
102
RTVSPropertyOp22
 70
     1
102
RTVSPropertyOp23
 70
     1
102
RTVSPropertyOp24
 70
     1
102
RTVSPropertyOp25
 70
     1
102
RTVSPropertyOp26
 70
     1
102
RTVSPropertyOp27
 70
     1
  0
XRECORD
  5
295
102
{ACAD_REACTORS
330
294
102
}
330
294
100
AcDbXrecord
280
     1
102
RTVSPropertyOp0
 70
     1
102
RTVSPropertyOp1
 70
     1
102
RTVSPropertyOp2
 70
     1
102
RTVSPropertyOp3
 70
     1
102
RTVSPropertyOp4
 70
     1
102
RTVSPropertyOp5
 70
     1
102
RTVSPropertyOp6
 70
     1
102
RTVSPropertyOp7
 70
     1
102
RTVSPropertyOp8
 70
     1
102
RTVSPropertyOp9
 70
     1
102
RTVSPropertyOp10
 70
     1
102
RTVSPropertyOp11
 70
     1
102
RTVSPropertyOp12
 70
     1
102
RTVSPropertyOp13
 70
     1
102
RTVSPropertyOp14
 70
     1
102
RTVSPropertyOp15
 70
     1
102
RTVSPropertyOp16
 70
     1
102
RTVSPropertyOp17
 70
     1
102
RTVSPropertyOp18
 70
     1
102
RTVSPropertyOp19
 70
     1
102
RTVSPropertyOp20
 70
     1
102
RTVSPropertyOp21
 70
     1
102
RTVSPropertyOp22
 70
     1
102
RTVSPropertyOp23
 70
     1
102
RTVSPropertyOp24
 70
     1
102
RTVSPropertyOp25
 70
     1
102
RTVSPropertyOp26
 70
     1
102
RTVSPropertyOp27
 70
     1
  0
XRECORD
  5
29D
102
{ACAD_REACTORS
330
29C
102
}
330
29C
100
AcDbXrecord
280
     1
102
RTVSPropertyOp0
 70
     1
102
RTVSPropertyOp1
 70
     1
102
RTVSPropertyOp2
 70
     1
102
RTVSPropertyOp3
 70
     1
102
RTVSPropertyOp4
 70
     1
102
RTVSPropertyOp5
 70
     1
102
RTVSPropertyOp6
 70
     1
102
RTVSPropertyOp7
 70
     1
102
RTVSPropertyOp8
 70
     1
102
RTVSPropertyOp9
 70
     1
102
RTVSPropertyOp10
 70
     1
102
RTVSPropertyOp11
 70
     1
102
RTVSPropertyOp12
 70
     1
102
RTVSPropertyOp13
 70
     1
102
RTVSPropertyOp14
 70
     1
102
RTVSPropertyOp15
 70
     1
102
RTVSPropertyOp16
 70
     1
102
RTVSPropertyOp17
 70
     1
102
RTVSPropertyOp18
 70
     1
102
RTVSPropertyOp19
 70
     1
102
RTVSPropertyOp20
 70
     1
102
RTVSPropertyOp21
 70
     1
102
RTVSPropertyOp22
 70
     1
102
RTVSPropertyOp23
 70
     1
102
RTVSPropertyOp24
 70
     1
102
RTVSPropertyOp25
 70
     1
102
RTVSPropertyOp26
 70
     1
102
RTVSPropertyOp27
 70
     1
  0
XRECORD
  5
281
102
{ACAD_REACTORS
330
280
102
}
330
280
100
AcDbXrecord
280
     1
102
RTVSPropertyOp0
 70
     1
102
RTVSPropertyOp1
 70
     1
102
RTVSPropertyOp2
 70
     1
102
RTVSPropertyOp3
 70
     1
102
RTVSPropertyOp4
 70
     1
102
RTVSPropertyOp5
 70
     1
102
RTVSPropertyOp6
 70
     1
102
RTVSPropertyOp7
 70
     1
102
RTVSPropertyOp8
 70
     1
102
RTVSPropertyOp9
 70
     1
102
RTVSPropertyOp10
 70
     1
102
RTVSPropertyOp11
 70
     1
102
RTVSPropertyOp12
 70
     1
102
RTVSPropertyOp13
 70
     1
102
RTVSPropertyOp14
 70
     1
102
RTVSPropertyOp15
 70
     1
102
RTVSPropertyOp16
 70
     1
102
RTVSPropertyOp17
 70
     1
102
RTVSPropertyOp18
 70
     1
102
RTVSPropertyOp19
 70
     1
102
RTVSPropertyOp20
 70
     1
102
RTVSPropertyOp21
 70
     1
102
RTVSPropertyOp22
 70
     1
102
RTVSPropertyOp23
 70
     1
102
RTVSPropertyOp24
 70
     1
102
RTVSPropertyOp25
 70
     1
102
RTVSPropertyOp26
 70
     1
102
RTVSPropertyOp27
 70
     1
  0
XRECORD
  5
283
102
{ACAD_REACTORS
330
282
102
}
330
282
100
AcDbXrecord
280
     1
102
RTVSPropertyOp0
 70
     1
102
RTVSPropertyOp1
 70
     1
102
RTVSPropertyOp2
 70
     1
102
RTVSPropertyOp3
 70
     1
102
RTVSPropertyOp4
 70
     1
102
RTVSPropertyOp5
 70
     1
102
RTVSPropertyOp6
 70
     1
102
RTVSPropertyOp7
 70
     1
102
RTVSPropertyOp8
 70
     1
102
RTVSPropertyOp9
 70
     1
102
RTVSPropertyOp10
 70
     1
102
RTVSPropertyOp11
 70
     1
102
RTVSPropertyOp12
 70
     1
102
RTVSPropertyOp13
 70
     1
102
RTVSPropertyOp14
 70
     1
102
RTVSPropertyOp15
 70
     1
102
RTVSPropertyOp16
 70
     1
102
RTVSPropertyOp17
 70
     1
102
RTVSPropertyOp18
 70
     1
102
RTVSPropertyOp19
 70
     1
102
RTVSPropertyOp20
 70
     1
102
RTVSPropertyOp21
 70
     1
102
RTVSPropertyOp22
 70
     1
102
RTVSPropertyOp23
 70
     1
102
RTVSPropertyOp24
 70
     1
102
RTVSPropertyOp25
 70
     1
102
RTVSPropertyOp26
 70
     1
102
RTVSPropertyOp27
 70
     1
  0
XRECORD
  5
285
102
{ACAD_REACTORS
330
284
102
}
330
284
100
AcDbXrecord
280
     1
102
RTVSPropertyOp0
 70
     1
102
RTVSPropertyOp1
 70
     1
102
RTVSPropertyOp2
 70
     1
102
RTVSPropertyOp3
 70
     1
102
RTVSPropertyOp4
 70
     1
102
RTVSPropertyOp5
 70
     1
102
RTVSPropertyOp6
 70
     1
102
RTVSPropertyOp7
 70
     1
102
RTVSPropertyOp8
 70
     1
102
RTVSPropertyOp9
 70
     1
102
RTVSPropertyOp10
 70
     1
102
RTVSPropertyOp11
 70
     1
102
RTVSPropertyOp12
 70
     1
102
RTVSPropertyOp13
 70
     1
102
RTVSPropertyOp14
 70
     1
102
RTVSPropertyOp15
 70
     1
102
RTVSPropertyOp16
 70
     1
102
RTVSPropertyOp17
 70
     1
102
RTVSPropertyOp18
 70
     1
102
RTVSPropertyOp19
 70
     1
102
RTVSPropertyOp20
 70
     1
102
RTVSPropertyOp21
 70
     1
102
RTVSPropertyOp22
 70
     1
102
RTVSPropertyOp23
 70
     1
102
RTVSPropertyOp24
 70
     1
102
RTVSPropertyOp25
 70
     1
102
RTVSPropertyOp26
 70
     1
102
RTVSPropertyOp27
 70
     1
  0
XRECORD
  5
287
102
{ACAD_REACTORS
330
286
102
}
330
286
100
AcDbXrecord
280
     1
102
RTVSPropertyOp0
 70
     1
102
RTVSPropertyOp1
 70
     1
102
RTVSPropertyOp2
 70
     1
102
RTVSPropertyOp3
 70
     1
102
RTVSPropertyOp4
 70
     1
102
RTVSPropertyOp5
 70
     1
102
RTVSPropertyOp6
 70
     1
102
RTVSPropertyOp7
 70
     1
102
RTVSPropertyOp8
 70
     1
102
RTVSPropertyOp9
 70
     1
102
RTVSPropertyOp10
 70
     1
102
RTVSPropertyOp11
 70
     1
102
RTVSPropertyOp12
 70
     1
102
RTVSPropertyOp13
 70
     1
102
RTVSPropertyOp14
 70
     1
102
RTVSPropertyOp15
 70
     1
102
RTVSPropertyOp16
 70
     1
102
RTVSPropertyOp17
 70
     1
102
RTVSPropertyOp18
 70
     1
102
RTVSPropertyOp19
 70
     1
102
RTVSPropertyOp20
 70
     1
102
RTVSPropertyOp21
 70
     1
102
RTVSPropertyOp22
 70
     1
102
RTVSPropertyOp23
 70
     1
102
RTVSPropertyOp24
 70
     1
102
RTVSPropertyOp25
 70
     1
102
RTVSPropertyOp26
 70
     1
102
RTVSPropertyOp27
 70
     1
  0
XRECORD
  5
29B
102
{ACAD_REACTORS
330
29A
102
}
330
29A
100
AcDbXrecord
280
     1
102
RTVSPropertyOp0
 70
     1
102
RTVSPropertyOp1
 70
     1
102
RTVSPropertyOp2
 70
     1
102
RTVSPropertyOp3
 70
     1
102
RTVSPropertyOp4
 70
     1
102
RTVSPropertyOp5
 70
     1
102
RTVSPropertyOp6
 70
     1
102
RTVSPropertyOp7
 70
     1
102
RTVSPropertyOp8
 70
     1
102
RTVSPropertyOp9
 70
     1
102
RTVSPropertyOp10
 70
     1
102
RTVSPropertyOp11
 70
     1
102
RTVSPropertyOp12
 70
     1
102
RTVSPropertyOp13
 70
     1
102
RTVSPropertyOp14
 70
     1
102
RTVSPropertyOp15
 70
     1
102
RTVSPropertyOp16
 70
     1
102
RTVSPropertyOp17
 70
     1
102
RTVSPropertyOp18
 70
     1
102
RTVSPropertyOp19
 70
     1
102
RTVSPropertyOp20
 70
     1
102
RTVSPropertyOp21
 70
     1
102
RTVSPropertyOp22
 70
     1
102
RTVSPropertyOp23
 70
     1
102
RTVSPropertyOp24
 70
     1
102
RTVSPropertyOp25
 70
     1
102
RTVSPropertyOp26
 70
     1
102
RTVSPropertyOp27
 70
     1
  0
XRECORD
  5
291
102
{ACAD_REACTORS
330
290
102
}
330
290
100
AcDbXrecord
280
     1
102
RTVSPropertyOp0
 70
     1
102
RTVSPropertyOp1
 70
     1
102
RTVSPropertyOp2
 70
     1
102
RTVSPropertyOp3
 70
     1
102
RTVSPropertyOp4
 70
     1
102
RTVSPropertyOp5
 70
     1
102
RTVSPropertyOp6
 70
     1
102
RTVSPropertyOp7
 70
     1
102
RTVSPropertyOp8
 70
     1
102
RTVSPropertyOp9
 70
     1
102
RTVSPropertyOp10
 70
     1
102
RTVSPropertyOp11
 70
     1
102
RTVSPropertyOp12
 70
     1
102
RTVSPropertyOp13
 70
     1
102
RTVSPropertyOp14
 70
     1
102
RTVSPropertyOp15
 70
     1
102
RTVSPropertyOp16
 70
     1
102
RTVSPropertyOp17
 70
     1
102
RTVSPropertyOp18
 70
     1
102
RTVSPropertyOp19
 70
     1
102
RTVSPropertyOp20
 70
     1
102
RTVSPropertyOp21
 70
     1
102
RTVSPropertyOp22
 70
     1
102
RTVSPropertyOp23
 70
     1
102
RTVSPropertyOp24
 70
     1
102
RTVSPropertyOp25
 70
     1
102
RTVSPropertyOp26
 70
     1
102
RTVSPropertyOp27
 70
     1
  0
XRECORD
  5
299
102
{ACAD_REACTORS
330
298
102
}
330
298
100
AcDbXrecord
280
     1
102
RTVSPropertyOp0
 70
     1
102
RTVSPropertyOp1
 70
     1
102
RTVSPropertyOp2
 70
     1
102
RTVSPropertyOp3
 70
     1
102
RTVSPropertyOp4
 70
     1
102
RTVSPropertyOp5
 70
     1
102
RTVSPropertyOp6
 70
     1
102
RTVSPropertyOp7
 70
     1
102
RTVSPropertyOp8
 70
     1
102
RTVSPropertyOp9
 70
     1
102
RTVSPropertyOp10
 70
     1
102
RTVSPropertyOp11
 70
     1
102
RTVSPropertyOp12
 70
     1
102
RTVSPropertyOp13
 70
     1
102
RTVSPropertyOp14
 70
     1
102
RTVSPropertyOp15
 70
     1
102
RTVSPropertyOp16
 70
     1
102
RTVSPropertyOp17
 70
     1
102
RTVSPropertyOp18
 70
     1
102
RTVSPropertyOp19
 70
     1
102
RTVSPropertyOp20
 70
     1
102
RTVSPropertyOp21
 70
     1
102
RTVSPropertyOp22
 70
     1
102
RTVSPropertyOp23
 70
     1
102
RTVSPropertyOp24
 70
     1
102
RTVSPropertyOp25
 70
     1
102
RTVSPropertyOp26
 70
     1
102
RTVSPropertyOp27
 70
     1
  0
ENDSEC
  0
EOF
