  0
SECTION
  2
HEADER
  9
$ACADVER
  1
AC1015
  9
$ACADMAINTVER
 70
     6
  9
$DWGCODEPAGE
  3
ANSI_932
  9
$INSBASE
 10
0.0
 20
0.0
 30
0.0
  9
$EXTMIN
 10
-140.12093988312
 20
-55.9474524879175
 30
0.0
  9
$EXTMAX
 10
110.12093988312
 20
117.587430262011
 30
0.0
  9
$LIMMIN
 10
0.0
 20
0.0
  9
$LIMMAX
 10
12.0
 20
9.0
  9
$ORTHOMODE
 70
     0
  9
$REGENMODE
 70
     1
  9
$FILLMODE
 70
     1
  9
$QTEXTMODE
 70
     0
  9
$MIRRTEXT
 70
     1
  9
$LTSCALE
 40
1.0
  9
$ATTMODE
 70
     1
  9
$TEXTSIZE
 40
0.2
  9
$TRACEWID
 40
0.05
  9
$TEXTSTYLE
  7
Standard
  9
$CLAYER
  8
0
  9
$CELTYPE
  6
ByLayer
  9
$CECOLOR
 62
   256
  9
$CELTSCALE
 40
1.0
  9
$DISPSILH
 70
     0
  9
$DIMSCALE
 40
1.0
  9
$DIMASZ
 40
0.18
  9
$DIMEXO
 40
0.0625
  9
$DIMDLI
 40
0.38
  9
$DIMRND
 40
0.0
  9
$DIMDLE
 40
0.0
  9
$DIMEXE
 40
0.18
  9
$DIMTP
 40
0.0
  9
$DIMTM
 40
0.0
  9
$DIMTXT
 40
0.18
  9
$DIMCEN
 40
0.09
  9
$DIMTSZ
 40
0.0
  9
$DIMTOL
 70
     0
  9
$DIMLIM
 70
     0
  9
$DIMTIH
 70
     1
  9
$DIMTOH
 70
     1
  9
$DIMSE1
 70
     0
  9
$DIMSE2
 70
     0
  9
$DIMTAD
 70
     0
  9
$DIMZIN
 70
     0
  9
$DIMBLK
  1

  9
$DIMASO
 70
     1
  9
$DIMSHO
 70
     1
  9
$DIMPOST
  1

  9
$DIMAPOST
  1

  9
$DIMALT
 70
     0
  9
$DIMALTD
 70
     2
  9
$DIMALTF
 40
25.4
  9
$DIMLFAC
 40
1.0
  9
$DIMTOFL
 70
     0
  9
$DIMTVP
 40
0.0
  9
$DIMTIX
 70
     0
  9
$DIMSOXD
 70
     0
  9
$DIMSAH
 70
     0
  9
$DIMBLK1
  1

  9
$DIMBLK2
  1

  9
$DIMSTYLE
  2
Standard
  9
$DIMCLRD
 70
     0
  9
$DIMCLRE
 70
     0
  9
$DIMCLRT
 70
     0
  9
$DIMTFAC
 40
1.0
  9
$DIMGAP
 40
0.09
  9
$DIMJUST
 70
     0
  9
$DIMSD1
 70
     0
  9
$DIMSD2
 70
     0
  9
$DIMTOLJ
 70
     1
  9
$DIMTZIN
 70
     0
  9
$DIMALTZ
 70
     0
  9
$DIMALTTZ
 70
     0
  9
$DIMUPT
 70
     0
  9
$DIMDEC
 70
     4
  9
$DIMTDEC
 70
     4
  9
$DIMALTU
 70
     2
  9
$DIMALTTD
 70
     2
  9
$DIMTXSTY
  7
Standard
  9
$DIMAUNIT
 70
     0
  9
$DIMADEC
 70
     0
  9
$DIMALTRND
 40
0.0
  9
$DIMAZIN
 70
     0
  9
$DIMDSEP
 70
    46
  9
$DIMATFIT
 70
     3
  9
$DIMFRAC
 70
     0
  9
$DIMLDRBLK
  1

  9
$DIMLUNIT
 70
     2
  9
$DIMLWD
 70
    -2
  9
$DIMLWE
 70
    -2
  9
$DIMTMOVE
 70
     0
  9
$LUNITS
 70
     2
  9
$LUPREC
 70
     4
  9
$SKETCHINC
 40
0.1
  9
$FILLETRAD
 40
0.5
  9
$AUNITS
 70
     0
  9
$AUPREC
 70
     0
  9
$MENU
  1
.
  9
$ELEVATION
 40
0.0
  9
$PELEVATION
 40
0.0
  9
$THICKNESS
 40
0.0
  9
$LIMCHECK
 70
     0
  9
$CHAMFERA
 40
0.5
  9
$CHAMFERB
 40
0.5
  9
$CHAMFERC
 40
1.0
  9
$CHAMFERD
 40
0.0
  9
$SKPOLY
 70
     0
  9
$TDCREATE
 40
2457624.58933581
  9
$TDUCREATE
 40
2457624.21433581
  9
$TDUPDATE
 40
2457624.589335822
  9
$TDUUPDATE
 40
2457624.214335822
  9
$TDINDWG
 40
0.0000000116
  9
$TDUSRTIMER
 40
0.0000000116
  9
$USRTIMER
 70
     1
  9
$ANGBASE
 50
0.0
  9
$ANGDIR
 70
     0
  9
$PDMODE
 70
     0
  9
$PDSIZE
 40
0.0
  9
$PLINEWID
 40
0.0
  9
$SPLFRAME
 70
     0
  9
$SPLINETYPE
 70
     6
  9
$SPLINESEGS
 70
     8
  9
$HANDSEED
  5
207
  9
$SURFTAB1
 70
     6
  9
$SURFTAB2
 70
     6
  9
$SURFTYPE
 70
     6
  9
$SURFU
 70
     6
  9
$SURFV
 70
     6
  9
$UCSBASE
  2

  9
$UCSNAME
  2

  9
$UCSORG
 10
0.0
 20
0.0
 30
0.0
  9
$UCSXDIR
 10
1.0
 20
0.0
 30
0.0
  9
$UCSYDIR
 10
0.0
 20
1.0
 30
0.0
  9
$UCSORTHOREF
  2

  9
$UCSORTHOVIEW
 70
     0
  9
$UCSORGTOP
 10
0.0
 20
0.0
 30
0.0
  9
$UCSORGBOTTOM
 10
0.0
 20
0.0
 30
0.0
  9
$UCSORGLEFT
 10
0.0
 20
0.0
 30
0.0
  9
$UCSORGRIGHT
 10
0.0
 20
0.0
 30
0.0
  9
$UCSORGFRONT
 10
0.0
 20
0.0
 30
0.0
  9
$UCSORGBACK
 10
0.0
 20
0.0
 30
0.0
  9
$PUCSBASE
  2

  9
$PUCSNAME
  2

  9
$PUCSORG
 10
0.0
 20
0.0
 30
0.0
  9
$PUCSXDIR
 10
1.0
 20
0.0
 30
0.0
  9
$PUCSYDIR
 10
0.0
 20
1.0
 30
0.0
  9
$PUCSORTHOREF
  2

  9
$PUCSORTHOVIEW
 70
     0
  9
$PUCSORGTOP
 10
0.0
 20
0.0
 30
0.0
  9
$PUCSORGBOTTOM
 10
0.0
 20
0.0
 30
0.0
  9
$PUCSORGLEFT
 10
0.0
 20
0.0
 30
0.0
  9
$PUCSORGRIGHT
 10
0.0
 20
0.0
 30
0.0
  9
$PUCSORGFRONT
 10
0.0
 20
0.0
 30
0.0
  9
$PUCSORGBACK
 10
0.0
 20
0.0
 30
0.0
  9
$USERI1
 70
     0
  9
$USERI2
 70
     0
  9
$USERI3
 70
     0
  9
$USERI4
 70
     0
  9
$USERI5
 70
     0
  9
$USERR1
 40
18.0
  9
$USERR2
 40
0.0
  9
$USERR3
 40
0.0
  9
$USERR4
 40
0.0
  9
$USERR5
 40
0.0
  9
$WORLDVIEW
 70
     1
  9
$SHADEDGE
 70
     3
  9
$SHADEDIF
 70
    70
  9
$TILEMODE
 70
     1
  9
$MAXACTVP
 70
    64
  9
$PINSBASE
 10
0.0
 20
0.0
 30
0.0
  9
$PLIMCHECK
 70
     0
  9
$PEXTMIN
 10
1.00000000000000E+20
 20
1.00000000000000E+20
 30
1.00000000000000E+20
  9
$PEXTMAX
 10
-1.00000000000000E+20
 20
-1.00000000000000E+20
 30
-1.00000000000000E+20
  9
$PLIMMIN
 10
0.0
 20
0.0
  9
$PLIMMAX
 10
12.0
 20
9.0
  9
$UNITMODE
 70
     0
  9
$VISRETAIN
 70
     1
  9
$PLINEGEN
 70
     0
  9
$PSLTSCALE
 70
     1
  9
$TREEDEPTH
 70
  3020
  9
$CMLSTYLE
  2
Standard
  9
$CMLJUST
 70
     0
  9
$CMLSCALE
 40
1.0
  9
$PROXYGRAPHICS
 70
     1
  9
$MEASUREMENT
 70
     1
  9
$CELWEIGHT
370
    -1
  9
$ENDCAPS
280
     0
  9
$JOINSTYLE
280
     0
  9
$LWDISPLAY
290
     0
  9
$INSUNITS
 70
     1
  9
$HYPERLINKBASE
  1

  9
$STYLESHEET
  1

  9
$XEDIT
290
     1
  9
$CEPSNTYPE
380
     0
  9
$PSTYLEMODE
290
     1
  9
$FINGERPRINTGUID
  2
{21FB03A6-0815-40E7-9573-30E2D098D429}
  9
$VERSIONGUID
  2
{FAEB1C32-E019-11D5-929B-00C0DF256EC4}
  9
$EXTNAMES
290
     1
  9
$PSVPSCALE
 40
0.0
  9
$OLESTARTUP
290
     0
  0
ENDSEC
  0
SECTION
  2
CLASSES
  0
CLASS
  1
ACDBDICTIONARYWDFLT
  2
AcDbDictionaryWithDefault
  3
ObjectDBX Classes
 90
        0
280
     0
281
     0
  0
CLASS
  1
VISUALSTYLE
  2
AcDbVisualStyle
  3
ObjectDBX Classes
 90
     4095
280
     0
281
     0
  0
CLASS
  1
MATERIAL
  2
AcDbMaterial
  3
ObjectDBX Classes
 90
     1153
280
     0
281
     0
  0
CLASS
  1

  2
exOdDbCircle
  3

 90
        0
280
     0
281
     1
  0
CLASS
  1

  2
exOdDbPolyline
  3

 90
        0
280
     0
281
     1
  0
CLASS
  1
DICTIONARYVAR
  2
AcDbDictionaryVar
  3
ObjectDBX Classes
 90
        0
280
     0
281
     0
  0
CLASS
  1
ACDBPLACEHOLDER
  2
AcDbPlaceHolder
  3
ObjectDBX Classes
 90
        0
280
     0
281
     0
  0
CLASS
  1
LAYOUT
  2
AcDbLayout
  3
ObjectDBX Classes
 90
        0
280
     0
281
     0
  0
ENDSEC
  0
SECTION
  2
TABLES
  0
TABLE
  2
VPORT
  5
8
330
0
100
AcDbSymbolTable
 70
     1
  0
VPORT
  5
29
330
8
100
AcDbSymbolTableRecord
100
AcDbViewportTableRecord
  2
*Active
 70
     0
 10
0.0
 20
0.0
 11
1.0
 21
1.0
 12
-15.0
 22
30.81998888704675
 13
0.0
 23
0.0
 14
0.5
 24
0.5
 15
0.5
 25
0.5
 16
0.0
 26
0.0
 36
1.0
 17
0.0
 27
0.0
 37
0.0
 40
190.8883710249214
 41
1.60267857142857
 42
50.0
 43
0.0
 44
0.0
 50
0.0
 51
0.0
 71
     0
 72
   100
 73
     1
 74
     3
 75
     0
 76
     0
 77
     0
 78
     0
281
     0
 65
     1
110
0.0
120
0.0
130
0.0
111
1.0
121
0.0
131
0.0
112
0.0
122
1.0
132
0.0
 79
     0
146
0.0
  0
ENDTAB
  0
TABLE
  2
LTYPE
  5
5
330
0
100
AcDbSymbolTable
 70
     9
  0
LTYPE
  5
14
330
5
100
AcDbSymbolTableRecord
100
AcDbLinetypeTableRecord
  2
ByBlock
 70
     0
  3

 72
    65
 73
     0
 40
0.0
  0
LTYPE
  5
15
330
5
100
AcDbSymbolTableRecord
100
AcDbLinetypeTableRecord
  2
ByLayer
 70
     0
  3

 72
    65
 73
     0
 40
0.0
  0
LTYPE
  5
16
330
5
100
AcDbSymbolTableRecord
100
AcDbLinetypeTableRecord
  2
Continuous
 70
     0
  3
Solid line
 72
    65
 73
     0
 40
0.0
  0
LTYPE
  5
3F
330
5
100
AcDbSymbolTableRecord
100
AcDbLinetypeTableRecord
  2
DASHED
 70
     0
  3
Dashed
 72
    65
 73
     2
 40
15.0
 49
7.0
 74
     0
 49
-8.0
 74
     0
  0
LTYPE
  5
40
330
5
100
AcDbSymbolTableRecord
100
AcDbLinetypeTableRecord
  2
DOTTED
 70
     0
  3
Dotted
 72
    65
 73
     2
 40
1.0
 49
0.0
 74
     0
 49
-1.0
 74
     0
  0
LTYPE
  5
41
330
5
100
AcDbSymbolTableRecord
100
AcDbLinetypeTableRecord
  2
DOT_CENTER
 70
     0
  3
Dot_Center
 72
    65
 73
     4
 40
14.0
 49
12.0
 74
     0
 49
-1.0
 74
     0
 49
0.0
 74
     0
 49
-1.0
 74
     0
  0
LTYPE
  5
42
330
5
100
AcDbSymbolTableRecord
100
AcDbLinetypeTableRecord
  2
LONG_DASHED
 70
     0
  3
Long_Dashed
 72
    65
 73
     2
 40
15.0
 49
10.0
 74
     0
 49
-5.0
 74
     0
  0
LTYPE
  5
43
330
5
100
AcDbSymbolTableRecord
100
AcDbLinetypeTableRecord
  2
DASH_CENTER
 70
     0
  3
Dash_Center
 72
    65
 73
     4
 40
14.0
 49
11.0
 74
     0
 49
-1.0
 74
     0
 49
1.0
 74
     0
 49
-1.0
 74
     0
  0
LTYPE
  5
44
330
5
100
AcDbSymbolTableRecord
100
AcDbLinetypeTableRecord
  2
PHANTOM
 70
     0
  3
Phantom
 72
    65
 73
     6
 40
13.0
 49
10.0
 74
     0
 49
-1.0
 74
     0
 49
0.0
 74
     0
 49
-1.0
 74
     0
 49
0.0
 74
     0
 49
-1.0
 74
     0
  0
LTYPE
  5
45
330
5
100
AcDbSymbolTableRecord
100
AcDbLinetypeTableRecord
  2
CENTER_DASH_DASH
 70
     0
  3
Center_Dash_Dash
 72
    65
 73
     6
 40
14.0
 49
9.0
 74
     0
 49
-1.0
 74
     0
 49
1.0
 74
     0
 49
-1.0
 74
     0
 49
1.0
 74
     0
 49
-1.0
 74
     0
  0
LTYPE
  5
46
330
5
100
AcDbSymbolTableRecord
100
AcDbLinetypeTableRecord
  2
CENTER
 70
     0
  3
CENTER
 72
    65
 73
     4
 40
6.0
 49
3.0
 74
     0
 49
-1.0
 74
     0
 49
1.0
 74
     0
 49
-1.0
 74
     0
  0
ENDTAB
  0
TABLE
  2
LAYER
  5
2
330
0
100
AcDbSymbolTable
 70
     4
  0
LAYER
  5
10
330
2
100
AcDbSymbolTableRecord
100
AcDbLayerTableRecord
  2
0
 70
     0
 62
     7
  6
Continuous
370
    -3
390
F
  0
LAYER
  5
47
330
2
100
AcDbSymbolTableRecord
100
AcDbLayerTableRecord
  2
1
 70
     0
 62
     7
  6
Continuous
370
    -3
390
F
  0
LAYER
  5
48
330
2
100
AcDbSymbolTableRecord
100
AcDbLayerTableRecord
  2
100
 70
     0
 62
     7
  6
Continuous
370
    -3
390
F
  0
LAYER
  5
49
330
2
100
AcDbSymbolTableRecord
100
AcDbLayerTableRecord
  2
2
 70
     0
 62
     7
  6
Continuous
370
    -3
390
F
  0
ENDTAB
  0
TABLE
  2
STYLE
  5
3
330
0
100
AcDbSymbolTable
 70
     1
  0
STYLE
  5
11
330
3
100
AcDbSymbolTableRecord
100
AcDbTextStyleTableRecord
  2
Standard
 70
     0
 40
0.0
 41
1.0
 50
0.0
 71
     0
 42
0.2
  3
txt
  4

  0
ENDTAB
  0
TABLE
  2
VIEW
  5
6
330
0
100
AcDbSymbolTable
 70
     0
  0
ENDTAB
  0
TABLE
  2
UCS
  5
7
330
0
100
AcDbSymbolTable
 70
     0
  0
ENDTAB
  0
TABLE
  2
APPID
  5
9
330
0
100
AcDbSymbolTable
 70
     1
  0
APPID
  5
12
330
9
100
AcDbSymbolTableRecord
100
AcDbRegAppTableRecord
  2
ACAD
 70
     0
  0
ENDTAB
  0
TABLE
  2
DIMSTYLE
  5
A
330
0
100
AcDbSymbolTable
 70
     1
100
AcDbDimStyleTable
  0
DIMSTYLE
105
27
330
A
100
AcDbSymbolTableRecord
100
AcDbDimStyleTableRecord
  2
Standard
 70
     0
340
11
  0
ENDTAB
  0
TABLE
  2
BLOCK_RECORD
  5
1
330
0
100
AcDbSymbolTable
 70
     1
  0
BLOCK_RECORD
  5
1F
330
1
100
AcDbSymbolTableRecord
100
AcDbBlockTableRecord
  2
*Model_Space
340
22
  0
BLOCK_RECORD
  5
1B
330
1
100
AcDbSymbolTableRecord
100
AcDbBlockTableRecord
  2
*Paper_Space
340
1E
  0
BLOCK_RECORD
  5
23
330
1
100
AcDbSymbolTableRecord
100
AcDbBlockTableRecord
  2
*Paper_Space0
340
26
  0
ENDTAB
  0
ENDSEC
  0
SECTION
  2
BLOCKS
  0
BLOCK
  5
20
330
1F
100
AcDbEntity
  8
0
100
AcDbBlockBegin
  2
*Model_Space
 70
     0
 10
0.0
 20
0.0
 30
0.0
  3
*Model_Space
  1

  0
ENDBLK
  5
21
330
1F
100
AcDbEntity
  8
0
100
AcDbBlockEnd
  0
BLOCK
  5
1C
330
1B
100
AcDbEntity
 67
     1
  8
0
100
AcDbBlockBegin
  2
*Paper_Space
 70
     0
 10
0.0
 20
0.0
 30
0.0
  3
*Paper_Space
  1

  0
ENDBLK
  5
1D
330
1B
100
AcDbEntity
 67
     1
  8
0
100
AcDbBlockEnd
  0
BLOCK
  5
24
330
23
100
AcDbEntity
  8
0
100
AcDbBlockBegin
  2
*Paper_Space0
 70
     0
 10
0.0
 20
0.0
 30
0.0
  3
*Paper_Space0
  1

  0
ENDBLK
  5
25
330
23
100
AcDbEntity
  8
0
100
AcDbBlockEnd
  0
ENDSEC
  0
SECTION
  2
ENTITIES
  0
LINE
  5
62
330
1F
100
AcDbEntity
  8
1
  6
Continuous
 62
     4
100
AcDbLine
 10
2.55347929157343
 20
-47.7180263382708
 30
0.0
 11
0.0
 21
-45.9500007629394
 31
0.0
  0
LINE
  5
63
330
1F
100
AcDbEntity
  8
1
  6
Continuous
 62
     4
100
AcDbLine
 10
1.32736514687437
 20
-48.7578954715037
 30
0.0
 11
0.0
 21
-45.9500007629394
 31
0.0
  0
LINE
  5
64
330
1F
100
AcDbEntity
  8
1
  6
CENTER
 62
     1
100
AcDbLine
 10
-98.8648380962542
 20
0.0
 30
0.0
 11
-140.12093988312
 21
0.0
 31
0.0
  0
LINE
  5
65
330
1F
100
AcDbEntity
  8
100
  6
Continuous
 62
     3
100
AcDbLine
 10
-43.0
 20
10.0
 30
0.0
 11
-43.0
 21
20.0
 31
0.0
  0
LINE
  5
66
330
1F
100
AcDbEntity
  8
100
  6
Continuous
 62
     3
100
AcDbLine
 10
-23.0
 20
10.0
 30
0.0
 11
-23.0
 21
20.0
 31
0.0
  0
LINE
  5
67
330
1F
100
AcDbEntity
  8
1
  6
CENTER
 62
     1
100
AcDbLine
 10
-60.0
 20
0.0
 30
0.0
 11
18.1762053095445
 21
0.0
 31
0.0
  0
LINE
  5
68
330
1F
100
AcDbEntity
  8
100
  6
Continuous
 62
     3
100
AcDbLine
 10
-8.0
 20
-29.9499999999999
 30
0.0
 11
-8.0
 21
-12.6810600395392
 31
0.0
  0
LINE
  5
69
330
1F
100
AcDbEntity
  8
100
  6
Continuous
 62
     3
100
AcDbLine
 10
8.0
 20
-29.9499999999999
 30
0.0
 11
8.0
 21
-12.6810600395392
 31
0.0
  0
LINE
  5
6A
330
1F
100
AcDbEntity
  8
100
  6
Continuous
 62
     3
100
AcDbLine
 10
-10.25
 20
17.2861385039928
 30
0.0
 11
-10.25
 21
6.85193750000013
 31
0.0
  0
LINE
  5
6B
330
1F
100
AcDbEntity
  8
100
  6
Continuous
 62
     3
100
AcDbLine
 10
-57.0
 20
11.5
 30
0.0
 11
-52.0
 21
11.5
 31
0.0
  0
LINE
  5
6C
330
1F
100
AcDbEntity
  8
100
  6
Continuous
 62
     3
100
AcDbLine
 10
-57.0
 20
11.5
 30
0.0
 11
-57.0
 21
-11.5
 31
0.0
  0
LINE
  5
6D
330
1F
100
AcDbEntity
  8
100
  6
Continuous
 62
     3
100
AcDbLine
 10
-57.0
 20
-11.5
 30
0.0
 11
-52.0
 21
-11.5
 31
0.0
  0
LINE
  5
6E
330
1F
100
AcDbEntity
  8
100
  6
Continuous
 62
     3
100
AcDbLine
 10
10.25
 20
17.2861385039928
 30
0.0
 11
10.25
 21
-10.414213562373
 31
0.0
  0
LINE
  5
6F
330
1F
100
AcDbEntity
  8
1
  6
CENTER
 62
     1
100
AcDbLine
 10
0.0
 20
56.0389408500128
 30
0.0
 11
0.0
 21
-52.1673222212191
 31
0.0
  0
LINE
  5
70
330
1F
100
AcDbEntity
  8
100
  6
Continuous
 62
     3
100
AcDbLine
 10
-49.4226497308103
 20
-10.0
 30
0.0
 11
-18.0
 21
-10.0
 31
0.0
  0
LINE
  5
71
330
1F
100
AcDbEntity
  8
100
  6
Continuous
 62
     3
100
AcDbLine
 10
-18.0
 20
10.0
 30
0.0
 11
-18.0
 21
-10.0
 31
0.0
  0
LINE
  5
72
330
1F
100
AcDbEntity
  8
100
  6
Continuous
 62
     3
100
AcDbLine
 10
-49.4226497308103
 20
10.0
 30
0.0
 11
-43.0
 21
10.0
 31
0.0
  0
LINE
  5
73
330
1F
100
AcDbEntity
  8
100
  6
Continuous
 62
     3
100
AcDbLine
 10
-23.0
 20
10.0
 30
0.0
 11
-18.0
 21
10.0
 31
0.0
  0
LINE
  5
74
330
1F
100
AcDbEntity
  8
100
  6
Continuous
 62
     3
100
AcDbLine
 10
-8.0
 20
-12.6810600395392
 30
0.0
 11
-10.2836929543323
 21
-10.414213562373
 31
0.0
  0
LINE
  5
75
330
1F
100
AcDbEntity
  8
100
  6
Continuous
 62
     3
100
AcDbLine
 10
-10.2836929543323
 20
-6.85088459517715
 30
0.0
 11
-10.2836929543323
 21
-10.414213562373
 31
0.0
  0
LINE
  5
76
330
1F
100
AcDbEntity
  8
100
  6
Continuous
 62
     3
100
AcDbLine
 10
8.0
 20
-12.6810600395392
 30
0.0
 11
10.25
 21
-10.414213562373
 31
0.0
  0
LINE
  5
77
330
1F
100
AcDbEntity
  8
100
  6
Continuous
 62
     3
100
AcDbLine
 10
-52.0
 20
11.5
 30
0.0
 11
-52.0
 21
-11.5
 31
0.0
  0
LINE
  5
78
330
1F
100
AcDbEntity
  8
1
  6
Continuous
 62
     3
100
AcDbLine
 10
10.25
 20
13.7009618943234
 30
0.0
 11
9.5
 21
15.0000000000001
 31
0.0
  0
LINE
  5
79
330
1F
100
AcDbEntity
  8
1
  6
Continuous
 62
     3
100
AcDbLine
 10
-9.5
 20
17.2861385039928
 30
0.0
 11
-9.5
 21
15.0000000000001
 31
0.0
  0
LINE
  5
7A
330
1F
100
AcDbEntity
  8
1
  6
Continuous
 62
     3
100
AcDbLine
 10
-10.25
 20
13.7009618943234
 30
0.0
 11
-9.5
 21
15.0000000000001
 31
0.0
  0
LINE
  5
7B
330
1F
100
AcDbEntity
  8
100
  6
Continuous
 62
     3
100
AcDbLine
 10
-10.25
 20
15.0000000000001
 30
0.0
 11
10.25
 21
15.0000000000001
 31
0.0
  0
LINE
  5
7C
330
1F
100
AcDbEntity
  8
1
  6
Continuous
 62
     3
100
AcDbLine
 10
9.5
 20
17.2861385039928
 30
0.0
 11
9.5
 21
15.0000000000001
 31
0.0
  0
LINE
  5
7D
330
1F
100
AcDbEntity
  8
100
  6
Continuous
 62
     3
100
AcDbLine
 10
-10.2836929543323
 20
-6.85088459517715
 30
0.0
 11
-18.0
 21
-6.60974999999999
 31
0.0
  0
LINE
  5
7E
330
1F
100
AcDbEntity
  8
1
  6
Continuous
 62
     3
100
AcDbLine
 10
-15.0
 20
-5.84749999999997
 30
0.0
 11
-18.0
 21
-5.75374999999997
 31
0.0
  0
LINE
  5
7F
330
1F
100
AcDbEntity
  8
100
  6
Continuous
 62
     3
100
AcDbLine
 10
-15.0
 20
6.70350000000002
 30
0.0
 11
-15.0
 21
-6.70349999999996
 31
0.0
  0
LINE
  5
80
330
1F
100
AcDbEntity
  8
1
  6
Continuous
 62
     3
100
AcDbLine
 10
-15.0
 20
-5.84749999999997
 30
0.0
 11
-13.4325222888642
 21
-6.75248367847297
 31
0.0
  0
LINE
  5
81
330
1F
100
AcDbEntity
  8
1
  6
Continuous
 62
     3
100
AcDbLine
 10
-15.0
 20
5.84749999999997
 30
0.0
 11
-18.0
 21
5.75374999999997
 31
0.0
  0
LINE
  5
82
330
1F
100
AcDbEntity
  8
100
  6
Continuous
 62
     3
100
AcDbLine
 10
-10.2836929543323
 20
6.85088459517715
 30
0.0
 11
-18.0
 21
6.60974999999999
 31
0.0
  0
LINE
  5
83
330
1F
100
AcDbEntity
  8
1
  6
Continuous
 62
     3
100
AcDbLine
 10
-15.0
 20
5.84749999999997
 30
0.0
 11
-13.4325222888642
 21
6.75248367847297
 31
0.0
  0
LINE
  5
84
330
1F
100
AcDbEntity
  8
100
  6
Continuous
 62
     3
100
AcDbLine
 10
-10.2836929543323
 20
-10.414213562373
 30
0.0
 11
10.25
 21
-10.414213562373
 31
0.0
  0
LINE
  5
85
330
1F
100
AcDbEntity
  8
100
  6
Continuous
 62
     3
100
AcDbLine
 10
-57.0
 20
6.79700905513741
 30
0.0
 11
-52.0
 21
6.79700905513744
 31
0.0
  0
LINE
  5
86
330
1F
100
AcDbEntity
  8
100
  6
Continuous
 62
     3
100
AcDbLine
 10
-57.0
 20
4.64146556451092
 30
0.0
 11
-52.0
 21
4.64146556451092
 31
0.0
  0
LINE
  5
87
330
1F
100
AcDbEntity
  8
100
  6
Continuous
 62
     3
100
AcDbLine
 10
-57.0
 20
-4.73936595513595
 30
0.0
 11
-52.0
 21
-4.73936595513595
 31
0.0
  0
LINE
  5
88
330
1F
100
AcDbEntity
  8
100
  6
Continuous
 62
     3
100
AcDbLine
 10
-57.0
 20
-6.79700905513741
 30
0.0
 11
-52.0
 21
-6.79700905513744
 31
0.0
  0
LINE
  5
89
330
1F
100
AcDbEntity
  8
1
  6
CENTER
 62
     1
100
AcDbLine
 10
-33.0
 20
35.0
 30
0.0
 11
-33.0
 21
-3.0
 31
0.0
  0
LINE
  5
8A
330
1F
100
AcDbEntity
  8
1
  6
DASHED
 62
     3
100
AcDbLine
 10
8.0
 20
-35.9999999999999
 30
0.0
 11
-8.0
 21
-35.9999999999999
 31
0.0
  0
LINE
  5
8B
330
1F
100
AcDbEntity
  8
1
  6
DASHED
 62
     3
100
AcDbLine
 10
-8.0
 20
-31.8999999999999
 30
0.0
 11
-8.0
 21
-29.9499999999999
 31
0.0
  0
LINE
  5
8C
330
1F
100
AcDbEntity
  8
1
  6
DASHED
 62
     3
100
AcDbLine
 10
-8.0
 20
-35.9999999999999
 30
0.0
 11
-8.0
 21
-33.9999999999999
 31
0.0
  0
LINE
  5
8D
330
1F
100
AcDbEntity
  8
1
  6
DASHED
 62
     3
100
AcDbLine
 10
8.0
 20
-31.8999999999999
 30
0.0
 11
8.0
 21
-29.9499999999999
 31
0.0
  0
LINE
  5
8E
330
1F
100
AcDbEntity
  8
1
  6
DASHED
 62
     3
100
AcDbLine
 10
8.0
 20
-35.9999999999999
 30
0.0
 11
8.0
 21
-33.9999999999999
 31
0.0
  0
LINE
  5
8F
330
1F
100
AcDbEntity
  8
1
  6
DASHED
 62
     3
100
AcDbLine
 10
-10.25
 20
24.0000000000001
 30
0.0
 11
-10.25
 21
17.2861385039928
 31
0.0
  0
LINE
  5
90
330
1F
100
AcDbEntity
  8
1
  6
DASHED
 62
     3
100
AcDbLine
 10
-10.25
 20
24.0000000000001
 30
0.0
 11
10.25
 21
24.0000000000001
 31
0.0
  0
LINE
  5
91
330
1F
100
AcDbEntity
  8
1
  6
DASHED
 62
     3
100
AcDbLine
 10
10.25
 20
24.0000000000001
 30
0.0
 11
10.25
 21
17.2861385039928
 31
0.0
  0
LINE
  5
92
330
1F
100
AcDbEntity
  8
100
  6
Continuous
 62
     3
100
AcDbLine
 10
9.0
 20
35.2861385039928
 30
0.0
 11
13.25
 21
25.0861385039928
 31
0.0
  0
LINE
  5
93
330
1F
100
AcDbEntity
  8
100
  6
Continuous
 62
     3
100
AcDbLine
 10
-9.0
 20
35.2861385039928
 30
0.0
 11
9.0
 21
35.2861385039928
 31
0.0
  0
LINE
  5
94
330
1F
100
AcDbEntity
  8
100
  6
Continuous
 62
     3
100
AcDbLine
 10
-13.25
 20
25.0861385039928
 30
0.0
 11
-9.0
 21
35.2861385039928
 31
0.0
  0
LINE
  5
95
330
1F
100
AcDbEntity
  8
100
  6
Continuous
 62
     3
100
AcDbLine
 10
13.25
 20
17.2861385039928
 30
0.0
 11
-13.25
 21
17.2861385039928
 31
0.0
  0
LINE
  5
96
330
1F
100
AcDbEntity
  8
100
  6
Continuous
 62
     3
100
AcDbLine
 10
13.0
 20
-29.9499999999999
 30
0.0
 11
-13.0
 21
-29.9499999999999
 31
0.0
  0
LINE
  5
97
330
1F
100
AcDbEntity
  8
100
  6
Continuous
 62
     3
100
AcDbLine
 10
-13.0
 20
-45.9499999999999
 30
0.0
 11
13.0
 21
-45.9499999999999
 31
0.0
  0
LINE
  5
98
330
1F
100
AcDbEntity
  8
100
  6
Continuous
 62
     3
100
AcDbLine
 10
-46.0
 20
32.0
 30
0.0
 11
-20.0
 21
32.0
 31
0.0
  0
LINE
  5
99
330
1F
100
AcDbEntity
  8
100
  6
Continuous
 62
     3
100
AcDbLine
 10
-46.0
 20
20.0
 30
0.0
 11
-46.0
 21
32.0
 31
0.0
  0
LINE
  5
9A
330
1F
100
AcDbEntity
  8
100
  6
Continuous
 62
     3
100
AcDbLine
 10
-38.0
 20
20.0
 30
0.0
 11
-38.0
 21
32.0
 31
0.0
  0
LINE
  5
9B
330
1F
100
AcDbEntity
  8
100
  6
Continuous
 62
     3
100
AcDbLine
 10
-40.8923048454133
 20
20.0
 30
0.0
 11
-40.8923048454133
 21
32.0
 31
0.0
  0
LINE
  5
9C
330
1F
100
AcDbEntity
  8
100
  6
Continuous
 62
     3
100
AcDbLine
 10
-46.0
 20
20.0
 30
0.0
 11
-20.0
 21
20.0
 31
0.0
  0
LINE
  5
9D
330
1F
100
AcDbEntity
  8
100
  6
Continuous
 62
     3
100
AcDbLine
 10
-20.0
 20
20.0
 30
0.0
 11
-20.0
 21
32.0
 31
0.0
  0
LINE
  5
9E
330
1F
100
AcDbEntity
  8
100
  6
Continuous
 62
     3
100
AcDbLine
 10
-28.0
 20
20.0
 30
0.0
 11
-28.0
 21
32.0
 31
0.0
  0
LINE
  5
9F
330
1F
100
AcDbEntity
  8
100
  6
Continuous
 62
     3
100
AcDbLine
 10
-25.1076951545867
 20
20.0
 30
0.0
 11
-25.1076951545867
 21
32.0
 31
0.0
  0
LINE
  5
A0
330
1F
100
AcDbEntity
  8
1
  6
CENTER
 62
     1
100
AcDbLine
 10
-37.6923854282516
 20
12.0
 30
0.0
 11
-28.6354147550824
 21
12.0
 31
0.0
  0
LINE
  5
A1
330
1F
100
AcDbEntity
  8
100
  6
Continuous
 62
     3
100
AcDbLine
 10
-52.0
 20
11.0
 30
0.0
 11
-49.4226497308103
 21
11.0
 31
0.0
  0
LINE
  5
A2
330
1F
100
AcDbEntity
  8
100
  6
Continuous
 62
     3
100
AcDbLine
 10
-49.4226497308103
 20
11.0
 30
0.0
 11
-49.4226497308103
 21
-11.0
 31
0.0
  0
LINE
  5
A3
330
1F
100
AcDbEntity
  8
100
  6
Continuous
 62
     3
100
AcDbLine
 10
-52.0
 20
-11.0
 30
0.0
 11
-49.4226497308103
 21
-11.0
 31
0.0
  0
LINE
  5
A4
330
1F
100
AcDbEntity
  8
1
  6
CENTER
 62
     1
100
AcDbLine
 10
-62.8767560785291
 20
100.0
 30
0.0
 11
18.1762053095445
 21
100.0
 31
0.0
  0
LINE
  5
A5
330
1F
100
AcDbEntity
  8
1
  6
CENTER
 62
     1
100
AcDbLine
 10
0.0
 20
82.7851699651673
 30
0.0
 11
0.0
 21
117.587430262011
 31
0.0
  0
LINE
  5
A6
330
1F
100
AcDbEntity
  8
1
  6
CENTER
 62
     1
100
AcDbLine
 10
-33.0
 20
82.7851699651673
 30
0.0
 11
-33.0
 21
117.587430262011
 31
0.0
  0
LINE
  5
A7
330
1F
100
AcDbEntity
  8
100
  6
Continuous
 62
     3
100
AcDbLine
 10
-38.0
 20
112.0
 30
0.0
 11
-28.0
 21
112.0
 31
0.0
  0
LINE
  5
A8
330
1F
100
AcDbEntity
  8
100
  6
Continuous
 62
     3
100
AcDbLine
 10
-25.1076951545867
 20
110.330127018922
 30
0.0
 11
-20.1076951545867
 21
101.669872981078
 31
0.0
  0
LINE
  5
A9
330
1F
100
AcDbEntity
  8
100
  6
Continuous
 62
     3
100
AcDbLine
 10
-20.1076951545867
 20
98.3301270189222
 30
0.0
 11
-25.1076951545867
 21
89.6698729810779
 31
0.0
  0
LINE
  5
AA
330
1F
100
AcDbEntity
  8
100
  6
Continuous
 62
     3
100
AcDbLine
 10
-28.0000000000001
 20
88.0
 30
0.0
 11
-38.0
 21
88.0
 31
0.0
  0
LINE
  5
AB
330
1F
100
AcDbEntity
  8
100
  6
Continuous
 62
     3
100
AcDbLine
 10
-40.8923048454133
 20
89.6698729810778
 30
0.0
 11
-45.8923048454133
 21
98.3301270189221
 31
0.0
  0
LINE
  5
AC
330
1F
100
AcDbEntity
  8
100
  6
Continuous
 62
     3
100
AcDbLine
 10
-45.8923048454133
 20
101.669872981078
 30
0.0
 11
-40.8923048454133
 21
110.330127018922
 31
0.0
  0
LINE
  5
AD
330
1F
100
AcDbEntity
  8
100
  6
Continuous
 62
     3
100
AcDbLine
 10
-57.0
 20
110.5
 30
0.0
 11
-57.0
 21
89.5
 31
0.0
  0
LINE
  5
AE
330
1F
100
AcDbEntity
  8
100
  6
Continuous
 62
     3
100
AcDbLine
 10
-57.0
 20
89.5
 30
0.0
 11
-52.0
 21
89.5
 31
0.0
  0
LINE
  5
AF
330
1F
100
AcDbEntity
  8
100
  6
Continuous
 62
     3
100
AcDbLine
 10
-57.0
 20
110.5
 30
0.0
 11
-52.0
 21
110.5
 31
0.0
  0
LINE
  5
B0
330
1F
100
AcDbEntity
  8
100
  6
Continuous
 62
     3
100
AcDbLine
 10
-57.0
 20
98.812019202318
 30
0.0
 11
-52.0
 21
98.812019202318
 31
0.0
  0
LINE
  5
B1
330
1F
100
AcDbEntity
  8
100
  6
Continuous
 62
     3
100
AcDbLine
 10
-57.0
 20
101.187980797682
 30
0.0
 11
-52.0
 21
101.187980797682
 31
0.0
  0
LINE
  5
B2
330
1F
100
AcDbEntity
  8
100
  6
Continuous
 62
     3
100
AcDbLine
 10
-57.0
 20
90.687980797682
 30
0.0
 11
-52.0
 21
90.687980797682
 31
0.0
  0
LINE
  5
B3
330
1F
100
AcDbEntity
  8
100
  6
Continuous
 62
     3
100
AcDbLine
 10
-57.0
 20
109.312019202318
 30
0.0
 11
-52.0
 21
109.312019202318
 31
0.0
  0
LINE
  5
B4
330
1F
100
AcDbEntity
  8
100
  6
Continuous
 62
     3
100
AcDbLine
 10
-49.4226497308103
 20
111.0
 30
0.0
 11
-49.4226497308103
 21
89.0
 31
0.0
  0
LINE
  5
B5
330
1F
100
AcDbEntity
  8
100
  6
Continuous
 62
     3
100
AcDbLine
 10
-52.0
 20
89.0
 30
0.0
 11
-49.4226497308103
 21
89.0
 31
0.0
  0
LINE
  5
B6
330
1F
100
AcDbEntity
  8
100
  6
Continuous
 62
     3
100
AcDbLine
 10
-18.0
 20
110.0
 30
0.0
 11
-18.0
 21
90.0
 31
0.0
  0
LINE
  5
B7
330
1F
100
AcDbEntity
  8
100
  6
Continuous
 62
     3
100
AcDbLine
 10
-9.89401576311195
 20
93.1369379925972
 30
0.0
 11
-18.0
 21
93.39025
 31
0.0
  0
LINE
  5
B8
330
1F
100
AcDbEntity
  8
1
  6
Continuous
 62
     3
100
AcDbLine
 10
-15.0
 20
94.1525
 30
0.0
 11
-18.0
 21
94.24625
 31
0.0
  0
LINE
  5
B9
330
1F
100
AcDbEntity
  8
100
  6
Continuous
 62
     3
100
AcDbLine
 10
-15.0
 20
106.7035
 30
0.0
 11
-15.0
 21
93.2965
 31
0.0
  0
LINE
  5
BA
330
1F
100
AcDbEntity
  8
1
  6
Continuous
 62
     3
100
AcDbLine
 10
-15.0
 20
94.1525
 30
0.0
 11
-13.4325222888642
 21
93.247516321527
 31
0.0
  0
LINE
  5
BB
330
1F
100
AcDbEntity
  8
100
  6
Continuous
 62
     3
100
AcDbLine
 10
-52.0
 20
111.0
 30
0.0
 11
-52.0
 21
89.0
 31
0.0
  0
LINE
  5
BC
330
1F
100
AcDbEntity
  8
1
  6
Continuous
 62
     3
100
AcDbLine
 10
-15.0
 20
105.8475
 30
0.0
 11
-13.4325222888642
 21
106.752483678473
 31
0.0
  0
LINE
  5
BD
330
1F
100
AcDbEntity
  8
1
  6
Continuous
 62
     3
100
AcDbLine
 10
-15.0
 20
105.8475
 30
0.0
 11
-18.0
 21
105.75375
 31
0.0
  0
LINE
  5
BE
330
1F
100
AcDbEntity
  8
100
  6
Continuous
 62
     3
100
AcDbLine
 10
-52.0
 20
111.0
 30
0.0
 11
-49.4226497308103
 21
111.0
 31
0.0
  0
LINE
  5
BF
330
1F
100
AcDbEntity
  8
100
  6
Continuous
 62
     3
100
AcDbLine
 10
-9.89401576311195
 20
106.863062007403
 30
0.0
 11
-18.0
 21
106.60975
 31
0.0
  0
LINE
  5
C0
330
1F
100
AcDbEntity
  8
100
  6
Continuous
 62
     3
100
AcDbLine
 10
-49.4226497308103
 20
110.0
 30
0.0
 11
-41.0829037686548
 21
110.0
 31
0.0
  0
LINE
  5
C1
330
1F
100
AcDbEntity
  8
100
  6
Continuous
 62
     3
100
AcDbLine
 10
-24.9170962313452
 20
110.0
 30
0.0
 11
-18.0
 21
110.0
 31
0.0
  0
LINE
  5
C2
330
1F
100
AcDbEntity
  8
100
  6
Continuous
 62
     3
100
AcDbLine
 10
-49.4226497308103
 20
90.0
 30
0.0
 11
-41.0829037686547
 21
90.0
 31
0.0
  0
LINE
  5
C3
330
1F
100
AcDbEntity
  8
100
  6
Continuous
 62
     3
100
AcDbLine
 10
-24.9170962313452
 20
90.0
 30
0.0
 11
-18.0
 21
90.0
 31
0.0
  0
LINE
  5
C4
330
1F
100
AcDbEntity
  8
1
  6
CENTER
 62
     1
100
AcDbLine
 10
90.0
 20
41.2861385039927
 30
0.0
 11
90.0
 21
-52.0
 31
0.0
  0
LINE
  5
C5
330
1F
100
AcDbEntity
  8
1
  6
CENTER
 62
     1
100
AcDbLine
 10
72.6510044799162
 20
0.0
 30
0.0
 11
110.12093988312
 21
0.0
 31
0.0
  0
LINE
  5
C6
330
1F
100
AcDbEntity
  8
100
  6
Continuous
 62
     3
100
AcDbLine
 10
7.89230484541326
 20
-45.9499999999999
 30
0.0
 11
7.89230484541326
 21
-29.9499999999999
 31
0.0
  0
LINE
  5
C7
330
1F
100
AcDbEntity
  8
100
  6
Continuous
 62
     3
100
AcDbLine
 10
5.0
 20
-45.9499999999999
 30
0.0
 11
5.0
 21
-29.9499999999999
 31
0.0
  0
LINE
  5
C8
330
1F
100
AcDbEntity
  8
100
  6
Continuous
 62
     3
100
AcDbLine
 10
-7.89230484541326
 20
-45.9499999999999
 30
0.0
 11
-7.89230484541326
 21
-29.9499999999999
 31
0.0
  0
LINE
  5
C9
330
1F
100
AcDbEntity
  8
100
  6
Continuous
 62
     3
100
AcDbLine
 10
-5.0
 20
-45.9499999999999
 30
0.0
 11
-5.0
 21
-29.9499999999999
 31
0.0
  0
LINE
  5
CA
330
1F
100
AcDbEntity
  8
100
  6
Continuous
 62
     3
100
AcDbLine
 10
-13.0
 20
-45.9499999999999
 30
0.0
 11
-13.0
 21
-29.9499999999999
 31
0.0
  0
LINE
  5
CB
330
1F
100
AcDbEntity
  8
100
  6
Continuous
 62
     3
100
AcDbLine
 10
13.0
 20
-45.9499999999999
 30
0.0
 11
13.0
 21
-29.9499999999999
 31
0.0
  0
LINE
  5
CC
330
1F
100
AcDbEntity
  8
100
  6
Continuous
 62
     3
100
AcDbLine
 10
13.25
 20
17.2861385039928
 30
0.0
 11
13.25
 21
25.0861385039928
 31
0.0
  0
LINE
  5
CD
330
1F
100
AcDbEntity
  8
100
  6
Continuous
 62
     3
100
AcDbLine
 10
-13.25
 20
17.2861385039928
 30
0.0
 11
-13.25
 21
25.0861385039928
 31
0.0
  0
LINE
  5
CE
330
1F
100
AcDbEntity
  8
100
  6
Continuous
 62
     3
100
AcDbLine
 10
7.58327921363275
 20
17.2861385039928
 30
0.0
 11
7.58327921363275
 21
28.0861385039928
 31
0.0
  0
LINE
  5
CF
330
1F
100
AcDbEntity
  8
100
  6
Continuous
 62
     3
100
AcDbLine
 10
5.61805126356109
 20
17.2861385039928
 30
0.0
 11
5.61805126356109
 21
28.0861385039928
 31
0.0
  0
LINE
  5
D0
330
1F
100
AcDbEntity
  8
100
  6
Continuous
 62
     3
100
AcDbLine
 10
-5.61805126356109
 20
17.2861385039928
 30
0.0
 11
-5.61805126356109
 21
28.0861385039928
 31
0.0
  0
LINE
  5
D1
330
1F
100
AcDbEntity
  8
100
  6
Continuous
 62
     3
100
AcDbLine
 10
-7.58327921363275
 20
17.2861385039928
 30
0.0
 11
-7.58327921363275
 21
28.0861385039928
 31
0.0
  0
LINE
  5
D2
330
1F
100
AcDbEntity
  8
100
  6
Continuous
 62
     3
100
AcDbLine
 10
12.0
 20
28.0861385039928
 30
0.0
 11
-12.0
 21
28.0861385039928
 31
0.0
  0
LINE
  5
D3
330
1F
100
AcDbEntity
  8
100
  6
Continuous
 62
     3
100
AcDbLine
 10
8.0
 20
-12.6810600395392
 30
0.0
 11
-8.0
 21
-12.6810600395392
 31
0.0
  0
LINE
  5
D4
330
1F
100
AcDbEntity
  8
2
  6
PHANTOM
 62
     3
100
AcDbLine
 10
8.0
 20
-37.9999999999999
 30
0.0
 11
-8.0
 21
-37.9999999999999
 31
0.0
  0
LINE
  5
D5
330
1F
100
AcDbEntity
  8
2
  6
PHANTOM
 62
     6
100
AcDbLine
 10
6.35
 20
4.00000000000011
 30
0.0
 11
-6.35
 21
4.00000000000011
 31
0.0
  0
LINE
  5
D6
330
1F
100
AcDbEntity
  8
2
  6
PHANTOM
 62
     6
100
AcDbLine
 10
-6.35
 20
51.8450395884781
 30
0.0
 11
-6.35
 21
4.00000000000011
 31
0.0
  0
LINE
  5
D7
330
1F
100
AcDbEntity
  8
2
  6
PHANTOM
 62
     6
100
AcDbLine
 10
6.35
 20
51.8450395884781
 30
0.0
 11
6.35
 21
4.00000000000011
 31
0.0
  0
LINE
  5
D8
330
1F
100
AcDbEntity
  8
100
  6
Continuous
 62
     3
100
AcDbLine
 10
-130.0
 20
5.72785854111277
 30
0.0
 11
-130.0
 21
20.0
 31
0.0
  0
LINE
  5
D9
330
1F
100
AcDbEntity
  8
100
  6
Continuous
 62
     3
100
AcDbLine
 10
-110.0
 20
5.72785854111277
 30
0.0
 11
-110.0
 21
20.0
 31
0.0
  0
LINE
  5
DA
330
1F
100
AcDbEntity
  8
100
  6
Continuous
 62
     3
100
AcDbLine
 10
-121.669872981078
 20
20.0
 30
0.0
 11
-121.669872981078
 21
32.0
 31
0.0
  0
LINE
  5
DB
330
1F
100
AcDbEntity
  8
100
  6
Continuous
 62
     3
100
AcDbLine
 10
-130.330127018922
 20
20.0
 30
0.0
 11
-130.330127018922
 21
32.0
 31
0.0
  0
LINE
  5
DC
330
1F
100
AcDbEntity
  8
100
  6
Continuous
 62
     3
100
AcDbLine
 10
-132.0
 20
20.0
 30
0.0
 11
-132.0
 21
32.0
 31
0.0
  0
LINE
  5
DD
330
1F
100
AcDbEntity
  8
100
  6
Continuous
 62
     3
100
AcDbLine
 10
-109.669872981078
 20
20.0
 30
0.0
 11
-109.669872981078
 21
32.0
 31
0.0
  0
LINE
  5
DE
330
1F
100
AcDbEntity
  8
100
  6
Continuous
 62
     3
100
AcDbLine
 10
-118.330127018922
 20
20.0
 30
0.0
 11
-118.330127018922
 21
32.0
 31
0.0
  0
LINE
  5
DF
330
1F
100
AcDbEntity
  8
100
  6
Continuous
 62
     3
100
AcDbLine
 10
-132.0
 20
32.0
 30
0.0
 11
-108.0
 21
32.0
 31
0.0
  0
LINE
  5
E0
330
1F
100
AcDbEntity
  8
100
  6
Continuous
 62
     3
100
AcDbLine
 10
-108.0
 20
20.0
 30
0.0
 11
-108.0
 21
32.0
 31
0.0
  0
LINE
  5
E1
330
1F
100
AcDbEntity
  8
100
  6
Continuous
 62
     3
100
AcDbLine
 10
-132.0
 20
20.0
 30
0.0
 11
-108.0
 21
20.0
 31
0.0
  0
LINE
  5
E2
330
1F
100
AcDbEntity
  8
100
  6
Continuous
 62
     3
100
AcDbLine
 10
-130.5
 20
4.73936595513593
 30
0.0
 11
-130.5
 21
-4.7393659551359
 31
0.0
  0
LINE
  5
E3
330
1F
100
AcDbEntity
  8
100
  6
Continuous
 62
     3
100
AcDbLine
 10
-109.5
 20
-4.7393659551359
 30
0.0
 11
-109.5
 21
4.73936595513595
 31
0.0
  0
LINE
  5
E4
330
1F
100
AcDbEntity
  8
100
  6
Continuous
 62
     3
100
AcDbLine
 10
-118.812019202318
 20
11.4874248149608
 30
0.0
 11
-110.687980797682
 21
6.79700905513741
 31
0.0
  0
LINE
  5
E5
330
1F
100
AcDbEntity
  8
100
  6
Continuous
 62
     3
100
AcDbLine
 10
-129.312019202318
 20
6.79700905513738
 30
0.0
 11
-121.187980797682
 21
11.4874248149608
 31
0.0
  0
LINE
  5
E6
330
1F
100
AcDbEntity
  8
100
  6
Continuous
 62
     3
100
AcDbLine
 10
-118.812019202318
 20
-11.4874248149608
 30
0.0
 11
-110.687980797682
 21
-6.79700905513744
 31
0.0
  0
LINE
  5
E7
330
1F
100
AcDbEntity
  8
100
  6
Continuous
 62
     3
100
AcDbLine
 10
-129.312019202318
 20
-6.79700905513738
 30
0.0
 11
-121.187980797682
 21
-11.4874248149608
 31
0.0
  0
LINE
  5
E8
330
1F
100
AcDbEntity
  8
100
  6
Continuous
 62
     3
100
AcDbLine
 10
-123.821321760857
 20
-1.0489501953125
 30
0.0
 11
-116.17867836716
 21
-1.0489501953125
 31
0.0
  0
LINE
  5
E9
330
1F
100
AcDbEntity
  8
100
  6
Continuous
 62
     3
100
AcDbLine
 10
-123.821321760857
 20
0.9510498046875
 30
0.0
 11
-116.178678111126
 21
0.9510498046875
 31
0.0
  0
LINE
  5
EA
330
1F
100
AcDbEntity
  8
100
  6
Continuous
 62
     3
100
AcDbLine
 10
102.0
 20
28.0861385039927
 30
0.0
 11
102.0
 21
32.0
 31
0.0
  0
LINE
  5
EB
330
1F
100
AcDbEntity
  8
100
  6
Continuous
 62
     3
100
AcDbLine
 10
78.0
 20
28.0861385039927
 30
0.0
 11
78.0
 21
32.0
 31
0.0
  0
LINE
  5
EC
330
1F
100
AcDbEntity
  8
1
  6
CENTER
 62
     1
100
AcDbLine
 10
-120.0
 20
41.2861385039927
 30
0.0
 11
-120.0
 21
-52.0
 31
0.0
  0
LINE
  5
ED
330
1F
100
AcDbEntity
  8
1
  6
Continuous
 62
     3
100
AcDbLine
 10
102.0
 20
32.0
 30
0.0
 11
100.369224376664
 21
32.0
 31
0.0
  0
LINE
  5
EE
330
1F
100
AcDbEntity
  8
1
  6
Continuous
 62
     3
100
AcDbLine
 10
78.0
 20
32.0
 30
0.0
 11
79.6307756233364
 21
32.0
 31
0.0
  0
LINE
  5
EF
330
1F
100
AcDbEntity
  8
100
  6
Continuous
 62
     3
100
AcDbLine
 10
-128.0
 20
-29.9499999999999
 30
0.0
 11
-128.0
 21
-12.6810600395392
 31
0.0
  0
LINE
  5
F0
330
1F
100
AcDbEntity
  8
100
  6
Continuous
 62
     3
100
AcDbLine
 10
-112.0
 20
-29.9499999999999
 30
0.0
 11
-112.0
 21
-12.6810600395392
 31
0.0
  0
LINE
  5
F1
330
1F
100
AcDbEntity
  8
100
  6
Continuous
 62
     3
100
AcDbLine
 10
-112.0
 20
-12.6810600395392
 30
0.0
 11
-128.0
 21
-12.6810600395392
 31
0.0
  0
LINE
  5
F2
330
1F
100
AcDbEntity
  8
100
  6
Continuous
 62
     3
100
AcDbLine
 10
-130.283692954332
 20
-10.414213562373
 30
0.0
 11
-123.046837214419
 21
-10.414213562373
 31
0.0
  0
LINE
  5
F3
330
1F
100
AcDbEntity
  8
100
  6
Continuous
 62
     3
100
AcDbLine
 10
-112.0
 20
-12.6810600395392
 30
0.0
 11
-128.0
 21
-12.6810600395392
 31
0.0
  0
LINE
  5
F4
330
1F
100
AcDbEntity
  8
100
  6
Continuous
 62
     3
100
AcDbLine
 10
-128.0
 20
-12.6810600395392
 30
0.0
 11
-130.283692954332
 21
-10.414213562373
 31
0.0
  0
LINE
  5
F5
330
1F
100
AcDbEntity
  8
100
  6
Continuous
 62
     3
100
AcDbLine
 10
-128.0
 20
-29.9499999999999
 30
0.0
 11
-128.0
 21
-12.6810600395392
 31
0.0
  0
LINE
  5
F6
330
1F
100
AcDbEntity
  8
100
  6
Continuous
 62
     3
100
AcDbLine
 10
-112.0
 20
-12.6810600395392
 30
0.0
 11
-109.75
 21
-10.414213562373
 31
0.0
  0
LINE
  5
F7
330
1F
100
AcDbEntity
  8
1
  6
Continuous
 62
     3
100
AcDbLine
 10
-109.75
 20
-10.414213562373
 30
0.0
 11
-109.75
 21
-5.26311359896605
 31
0.0
  0
LINE
  5
F8
330
1F
100
AcDbEntity
  8
1
  6
Continuous
 62
     3
100
AcDbLine
 10
-130.283692954332
 20
-10.414213562373
 30
0.0
 11
-130.283692954332
 21
-5.19634363481333
 31
0.0
  0
LINE
  5
F9
330
1F
100
AcDbEntity
  8
100
  6
Continuous
 62
     3
100
AcDbLine
 10
-116.953162785581
 20
-10.414213562373
 30
0.0
 11
-109.75
 21
-10.414213562373
 31
0.0
  0
LINE
  5
FA
330
1F
100
AcDbEntity
  8
1
  6
Continuous
 62
     3
100
AcDbLine
 10
13.201330477194
 20
101.134624885993
 30
0.0
 11
7.58327921363207
 21
110.865375114007
 31
0.0
  0
LINE
  5
FB
330
1F
100
AcDbEntity
  8
1
  6
Continuous
 62
     3
100
AcDbLine
 10
7.58327921363207
 20
89.1346248859929
 30
0.0
 11
13.201330477194
 21
98.8653751140071
 31
0.0
  0
LINE
  5
FC
330
1F
100
AcDbEntity
  8
1
  6
Continuous
 62
     3
100
AcDbLine
 10
-5.61805126356103
 20
88.0
 30
0.0
 11
5.61805126356103
 21
88.0
 31
0.0
  0
LINE
  5
FD
330
1F
100
AcDbEntity
  8
1
  6
Continuous
 62
     3
100
AcDbLine
 10
-13.201330477194
 20
98.8653751140071
 30
0.0
 11
-7.58327921363298
 21
89.1346248859929
 31
0.0
  0
LINE
  5
FE
330
1F
100
AcDbEntity
  8
1
  6
Continuous
 62
     3
100
AcDbLine
 10
-7.58327921363298
 20
110.865375114007
 30
0.0
 11
-13.201330477194
 21
101.134624885993
 31
0.0
  0
LINE
  5
FF
330
1F
100
AcDbEntity
  8
1
  6
Continuous
 62
     3
100
AcDbLine
 10
5.61805126356103
 20
112.0
 30
0.0
 11
-5.61805126356103
 21
112.0
 31
0.0
  0
LINE
  5
100
330
1F
100
AcDbEntity
  8
1
  6
Continuous
 62
     3
100
AcDbLine
 10
100.25
 20
13.7009618943233
 30
0.0
 11
99.5
 21
15.0
 31
0.0
  0
LINE
  5
101
330
1F
100
AcDbEntity
  8
100
  6
Continuous
 62
     3
100
AcDbLine
 10
79.75
 20
15.0
 30
0.0
 11
100.25
 21
15.0
 31
0.0
  0
LINE
  5
102
330
1F
100
AcDbEntity
  8
1
  6
Continuous
 62
     3
100
AcDbLine
 10
99.5
 20
17.2861385039927
 30
0.0
 11
99.5
 21
15.0
 31
0.0
  0
LINE
  5
103
330
1F
100
AcDbEntity
  8
1
  6
Continuous
 62
     3
100
AcDbLine
 10
80.5
 20
17.2861385039927
 30
0.0
 11
80.5
 21
15.0
 31
0.0
  0
LINE
  5
104
330
1F
100
AcDbEntity
  8
1
  6
Continuous
 62
     3
100
AcDbLine
 10
79.75
 20
13.7009618943233
 30
0.0
 11
80.5
 21
15.0
 31
0.0
  0
LINE
  5
105
330
1F
100
AcDbEntity
  8
100
  6
Continuous
 62
     3
100
AcDbLine
 10
81.0
 20
35.2861385039927
 30
0.0
 11
78.0
 21
28.0861385039927
 31
0.0
  0
LINE
  5
106
330
1F
100
AcDbEntity
  8
100
  6
Continuous
 62
     3
100
AcDbLine
 10
99.0
 20
35.2861385039927
 30
0.0
 11
81.0
 21
35.2861385039927
 31
0.0
  0
LINE
  5
107
330
1F
100
AcDbEntity
  8
100
  6
Continuous
 62
     3
100
AcDbLine
 10
78.0
 20
28.0861385039927
 30
0.0
 11
78.0
 21
17.2861385039927
 31
0.0
  0
LINE
  5
108
330
1F
100
AcDbEntity
  8
100
  6
Continuous
 62
     3
100
AcDbLine
 10
78.0
 20
28.0861385039927
 30
0.0
 11
102.0
 21
28.0861385039927
 31
0.0
  0
LINE
  5
109
330
1F
100
AcDbEntity
  8
100
  6
Continuous
 62
     3
100
AcDbLine
 10
79.1346248859929
 20
17.2861385039927
 30
0.0
 11
79.1346248859929
 21
28.0861385039927
 31
0.0
  0
LINE
  5
10A
330
1F
100
AcDbEntity
  8
100
  6
Continuous
 62
     3
100
AcDbLine
 10
102.0
 20
28.0861385039927
 30
0.0
 11
99.0
 21
35.2861385039927
 31
0.0
  0
LINE
  5
10B
330
1F
100
AcDbEntity
  8
100
  6
Continuous
 62
     3
100
AcDbLine
 10
102.0
 20
28.0861385039927
 30
0.0
 11
102.0
 21
17.2861385039927
 31
0.0
  0
LINE
  5
10C
330
1F
100
AcDbEntity
  8
100
  6
Continuous
 62
     3
100
AcDbLine
 10
100.865375114007
 20
17.2861385039927
 30
0.0
 11
100.865375114007
 21
28.0861385039927
 31
0.0
  0
LINE
  5
10D
330
1F
100
AcDbEntity
  8
100
  6
Continuous
 62
     3
100
AcDbLine
 10
78.0
 20
17.2861385039927
 30
0.0
 11
102.0
 21
17.2861385039927
 31
0.0
  0
LINE
  5
10E
330
1F
100
AcDbEntity
  8
100
  6
Continuous
 62
     3
100
AcDbLine
 10
91.1346248859929
 20
17.2861385039927
 30
0.0
 11
91.1346248859929
 21
28.0861385039927
 31
0.0
  0
LINE
  5
10F
330
1F
100
AcDbEntity
  8
100
  6
Continuous
 62
     3
100
AcDbLine
 10
88.8653751140071
 20
17.2861385039927
 30
0.0
 11
88.8653751140071
 21
28.0861385039927
 31
0.0
  0
LINE
  5
110
330
1F
100
AcDbEntity
  8
100
  6
Continuous
 62
     3
100
AcDbLine
 10
100.25
 20
17.2861385039927
 30
0.0
 11
100.25
 21
-10.4142135623731
 31
0.0
  0
LINE
  5
111
330
1F
100
AcDbEntity
  8
100
  6
Continuous
 62
     3
100
AcDbLine
 10
79.75
 20
17.2861385039927
 30
0.0
 11
79.75
 21
-10.4142135623731
 31
0.0
  0
LINE
  5
112
330
1F
100
AcDbEntity
  8
100
  6
Continuous
 62
     3
100
AcDbLine
 10
79.75
 20
-10.4142135623731
 30
0.0
 11
100.25
 21
-10.4142135623731
 31
0.0
  0
LINE
  5
113
330
1F
100
AcDbEntity
  8
100
  6
Continuous
 62
     3
100
AcDbLine
 10
98.0
 20
-12.6810600395393
 30
0.0
 11
100.25
 21
-10.4142135623731
 31
0.0
  0
LINE
  5
114
330
1F
100
AcDbEntity
  8
100
  6
Continuous
 62
     3
100
AcDbLine
 10
82.0
 20
-12.6810600395393
 30
0.0
 11
79.75
 21
-10.4142135623731
 31
0.0
  0
LINE
  5
115
330
1F
100
AcDbEntity
  8
100
  6
Continuous
 62
     3
100
AcDbLine
 10
82.0
 20
-29.95
 30
0.0
 11
82.0
 21
-12.6810600395393
 31
0.0
  0
LINE
  5
116
330
1F
100
AcDbEntity
  8
100
  6
Continuous
 62
     3
100
AcDbLine
 10
98.0
 20
-12.6810600395393
 30
0.0
 11
82.0
 21
-12.6810600395393
 31
0.0
  0
LINE
  5
117
330
1F
100
AcDbEntity
  8
100
  6
Continuous
 62
     3
100
AcDbLine
 10
98.0
 20
-29.95
 30
0.0
 11
98.0
 21
-12.6810600395393
 31
0.0
  0
LINE
  5
118
330
1F
100
AcDbEntity
  8
100
  6
Continuous
 62
     3
100
AcDbLine
 10
102.0
 20
-29.95
 30
0.0
 11
78.0
 21
-29.95
 31
0.0
  0
LINE
  5
119
330
1F
100
AcDbEntity
  8
100
  6
Continuous
 62
     3
100
AcDbLine
 10
102.0
 20
-45.95
 30
0.0
 11
78.0000000000001
 21
-45.95
 31
0.0
  0
LINE
  5
11A
330
1F
100
AcDbEntity
  8
100
  6
Continuous
 62
     3
100
AcDbLine
 10
78.0000000000001
 20
-45.95
 30
0.0
 11
78.0
 21
-29.95
 31
0.0
  0
LINE
  5
11B
330
1F
100
AcDbEntity
  8
100
  6
Continuous
 62
     3
100
AcDbLine
 10
79.6698729810778
 20
-45.95
 30
0.0
 11
79.6698729810778
 21
-29.95
 31
0.0
  0
LINE
  5
11C
330
1F
100
AcDbEntity
  8
100
  6
Continuous
 62
     3
100
AcDbLine
 10
88.3301270189222
 20
-45.95
 30
0.0
 11
88.3301270189222
 21
-29.95
 31
0.0
  0
LINE
  5
11D
330
1F
100
AcDbEntity
  8
100
  6
Continuous
 62
     3
100
AcDbLine
 10
91.6698729810778
 20
-45.95
 30
0.0
 11
91.6698729810778
 21
-29.95
 31
0.0
  0
LINE
  5
11E
330
1F
100
AcDbEntity
  8
100
  6
Continuous
 62
     3
100
AcDbLine
 10
102.0
 20
-45.95
 30
0.0
 11
102.0
 21
-29.95
 31
0.0
  0
LINE
  5
11F
330
1F
100
AcDbEntity
  8
100
  6
Continuous
 62
     3
100
AcDbLine
 10
100.330127018922
 20
-45.95
 30
0.0
 11
100.330127018922
 21
-29.95
 31
0.0
  0
LINE
  5
120
330
1F
100
AcDbEntity
  8
100
  6
Continuous
 62
     3
100
AcDbLine
 10
-129.0
 20
35.2861385039927
 30
0.0
 11
-130.369224376664
 21
32.0
 31
0.0
  0
LINE
  5
121
330
1F
100
AcDbEntity
  8
100
  6
Continuous
 62
     3
100
AcDbLine
 10
-132.0
 20
17.2861385039927
 30
0.0
 11
-130.0
 21
17.2861385039927
 31
0.0
  0
LINE
  5
122
330
1F
100
AcDbEntity
  8
100
  6
Continuous
 62
     3
100
AcDbLine
 10
-132.0
 20
20.0
 30
0.0
 11
-132.0
 21
17.2861385039927
 31
0.0
  0
LINE
  5
123
330
1F
100
AcDbEntity
  8
100
  6
Continuous
 62
     3
100
AcDbLine
 10
-111.0
 20
35.2861385039927
 30
0.0
 11
-129.0
 21
35.2861385039927
 31
0.0
  0
LINE
  5
124
330
1F
100
AcDbEntity
  8
100
  6
Continuous
 62
     3
100
AcDbLine
 10
-109.630775623336
 20
32.0
 30
0.0
 11
-111.0
 21
35.2861385039927
 31
0.0
  0
LINE
  5
125
330
1F
100
AcDbEntity
  8
100
  6
Continuous
 62
     3
100
AcDbLine
 10
-108.0
 20
20.0
 30
0.0
 11
-108.0
 21
17.2861385039927
 31
0.0
  0
LINE
  5
126
330
1F
100
AcDbEntity
  8
100
  6
Continuous
 62
     3
100
AcDbLine
 10
-109.75
 20
15.0
 30
0.0
 11
-110.0
 21
15.0
 31
0.0
  0
LINE
  5
127
330
1F
100
AcDbEntity
  8
100
  6
Continuous
 62
     3
100
AcDbLine
 10
-130.865375114007
 20
17.2861385039927
 30
0.0
 11
-130.865375114007
 21
20.0
 31
0.0
  0
LINE
  5
128
330
1F
100
AcDbEntity
  8
100
  6
Continuous
 62
     3
100
AcDbLine
 10
-109.134624885993
 20
17.2861385039927
 30
0.0
 11
-109.134624885993
 21
20.0
 31
0.0
  0
LINE
  5
129
330
1F
100
AcDbEntity
  8
100
  6
Continuous
 62
     3
100
AcDbLine
 10
-130.25
 20
17.2861385039927
 30
0.0
 11
-130.25
 21
5.26311359896607
 31
0.0
  0
LINE
  5
12A
330
1F
100
AcDbEntity
  8
100
  6
Continuous
 62
     3
100
AcDbLine
 10
-109.75
 20
17.2861385039927
 30
0.0
 11
-109.75
 21
5.26311359896607
 31
0.0
  0
LINE
  5
12B
330
1F
100
AcDbEntity
  8
100
  6
Continuous
 62
     3
100
AcDbLine
 10
-108.0
 20
-45.95
 30
0.0
 11
-132.0
 21
-45.95
 31
0.0
  0
LINE
  5
12C
330
1F
100
AcDbEntity
  8
100
  6
Continuous
 62
     3
100
AcDbLine
 10
-108.0
 20
-45.95
 30
0.0
 11
-108.0
 21
-29.9499999999999
 31
0.0
  0
LINE
  5
12D
330
1F
100
AcDbEntity
  8
100
  6
Continuous
 62
     3
100
AcDbLine
 10
-109.669872981078
 20
-45.95
 30
0.0
 11
-109.669872981078
 21
-29.9499999999999
 31
0.0
  0
LINE
  5
12E
330
1F
100
AcDbEntity
  8
100
  6
Continuous
 62
     3
100
AcDbLine
 10
-118.330127018922
 20
-45.95
 30
0.0
 11
-118.330127018922
 21
-29.9499999999999
 31
0.0
  0
LINE
  5
12F
330
1F
100
AcDbEntity
  8
100
  6
Continuous
 62
     3
100
AcDbLine
 10
-121.669872981078
 20
-45.95
 30
0.0
 11
-121.669872981078
 21
-29.9499999999999
 31
0.0
  0
LINE
  5
130
330
1F
100
AcDbEntity
  8
100
  6
Continuous
 62
     3
100
AcDbLine
 10
-130.330127018922
 20
-45.95
 30
0.0
 11
-130.330127018922
 21
-29.9499999999999
 31
0.0
  0
LINE
  5
131
330
1F
100
AcDbEntity
  8
100
  6
Continuous
 62
     3
100
AcDbLine
 10
-132.0
 20
-45.95
 30
0.0
 11
-132.0
 21
-29.9499999999999
 31
0.0
  0
LINE
  5
132
330
1F
100
AcDbEntity
  8
1
  6
Continuous
 62
     3
100
AcDbLine
 10
-132.0
 20
-29.9499999999999
 30
0.0
 11
-108.0
 21
-29.9499999999999
 31
0.0
  0
LINE
  5
133
330
1F
100
AcDbEntity
  8
100
  6
Continuous
 62
     3
100
AcDbLine
 10
-110.0
 20
17.2861385039927
 30
0.0
 11
-108.0
 21
17.2861385039927
 31
0.0
  0
LINE
  5
134
330
1F
100
AcDbEntity
  8
100
  6
Continuous
 62
     3
100
AcDbLine
 10
-130.0
 20
15.0
 30
0.0
 11
-130.25
 21
15.0
 31
0.0
  0
LINE
  5
135
330
1F
100
AcDbEntity
  8
1
  6
Continuous
 62
     4
100
AcDbLine
 10
27.0666314747812
 20
9.39054464943979
 30
0.0
 11
27.0666314747812
 21
13.6405446494398
 31
0.0
  0
LINE
  5
136
330
1F
100
AcDbEntity
  8
1
  6
Continuous
 62
     4
100
AcDbLine
 10
26.6210752247812
 20
13.0155446494398
 30
0.0
 11
27.0666314747812
 21
13.6405446494398
 31
0.0
  0
LINE
  5
137
330
1F
100
AcDbEntity
  8
1
  6
Continuous
 62
     4
100
AcDbLine
 10
27.0666314747812
 20
13.6405446494398
 30
0.0
 11
27.4626814747812
 21
13.0155446494398
 31
0.0
  0
LINE
  5
138
330
1F
100
AcDbEntity
  8
1
  6
Continuous
 62
     4
100
AcDbLine
 10
25.6309502247812
 20
2.95304464943979
 30
0.0
 11
25.8289752247812
 21
2.45304464943979
 31
0.0
  0
LINE
  5
139
330
1F
100
AcDbEntity
  8
1
  6
Continuous
 62
     4
100
AcDbLine
 10
25.2844064747812
 20
1.51554464943979
 30
0.0
 11
25.6309502247812
 21
1.07804464943979
 31
0.0
  0
LINE
  5
13A
330
1F
100
AcDbEntity
  8
1
  6
Continuous
 62
     4
100
AcDbLine
 10
25.3834189747812
 20
-1.73445535056021
 30
0.0
 11
25.8289752247812
 21
0.26554464943979
 31
0.0
  0
LINE
  5
13B
330
1F
100
AcDbEntity
  8
1
  6
Continuous
 62
     4
100
AcDbLine
 10
26.1755189747812
 20
2.32804464943979
 30
0.0
 11
27.2646564747812
 21
2.32804464943979
 31
0.0
  0
LINE
  5
13C
330
1F
100
AcDbEntity
  8
1
  6
Continuous
 62
     4
100
AcDbLine
 10
27.3636689747812
 20
3.07804464943979
 30
0.0
 11
27.3636689747812
 21
2.32804464943979
 31
0.0
  0
LINE
  5
13D
330
1F
100
AcDbEntity
  8
1
  6
Continuous
 62
     4
100
AcDbLine
 10
27.2646564747812
 20
2.32804464943979
 30
0.0
 11
26.8191002247812
 21
1.07804464943979
 31
0.0
  0
LINE
  5
13E
330
1F
100
AcDbEntity
  8
1
  6
Continuous
 62
     4
100
AcDbLine
 10
26.3735439747812
 20
1.07804464943979
 30
0.0
 11
28.0567564747812
 21
1.20304464943979
 31
0.0
  0
LINE
  5
13F
330
1F
100
AcDbEntity
  8
1
  6
Continuous
 62
     4
100
AcDbLine
 10
27.8092252247812
 20
1.82804464943979
 30
0.0
 11
28.2547814747812
 21
0.76554464943979
 31
0.0
  0
LINE
  5
140
330
1F
100
AcDbEntity
  8
1
  6
Continuous
 62
     4
100
AcDbLine
 10
26.7200877247812
 20
0.26554464943979
 30
0.0
 11
26.6210752247812
 21
-0.79695535056021
 31
0.0
  0
LINE
  5
141
330
1F
100
AcDbEntity
  8
1
  6
Continuous
 62
     4
100
AcDbLine
 10
26.6210752247812
 20
-0.79695535056021
 30
0.0
 11
26.4725564747812
 21
-1.29695535056021
 31
0.0
  0
LINE
  5
142
330
1F
100
AcDbEntity
  8
1
  6
Continuous
 62
     4
100
AcDbLine
 10
26.4725564747812
 20
-1.29695535056021
 30
0.0
 11
26.2745314747812
 21
-1.60945535056021
 31
0.0
  0
LINE
  5
143
330
1F
100
AcDbEntity
  8
1
  6
Continuous
 62
     4
100
AcDbLine
 10
26.2745314747812
 20
-1.60945535056021
 30
0.0
 11
25.9279877247812
 21
-1.92195535056021
 31
0.0
  0
LINE
  5
144
330
1F
100
AcDbEntity
  8
1
  6
Continuous
 62
     4
100
AcDbLine
 10
27.2646564747812
 20
-1.73445535056021
 30
0.0
 11
27.2646564747812
 21
0.26554464943979
 31
0.0
  0
LINE
  5
145
330
1F
100
AcDbEntity
  8
1
  6
Continuous
 62
     4
100
AcDbLine
 10
27.9082377247812
 20
0.26554464943979
 30
0.0
 11
27.9082377247812
 21
-1.29695535056021
 31
0.0
  0
LINE
  5
146
330
1F
100
AcDbEntity
  8
1
  6
Continuous
 62
     4
100
AcDbLine
 10
27.9082377247812
 20
-1.29695535056021
 30
0.0
 11
28.1557689747812
 21
-1.73445535056021
 31
0.0
  0
LINE
  5
147
330
1F
100
AcDbEntity
  8
1
  6
Continuous
 62
     4
100
AcDbLine
 10
28.1557689747812
 20
-1.73445535056021
 30
0.0
 11
28.6013252247812
 21
-1.73445535056021
 31
0.0
  0
LINE
  5
148
330
1F
100
AcDbEntity
  8
1
  6
Continuous
 62
     4
100
AcDbLine
 10
28.6013252247812
 20
-1.73445535056021
 30
0.0
 11
28.7993502247812
 21
-1.42195535056021
 31
0.0
  0
LINE
  5
149
330
1F
100
AcDbEntity
  8
1
  6
Continuous
 62
     4
100
AcDbLine
 10
28.7993502247812
 20
-1.42195535056021
 30
0.0
 11
28.7993502247812
 21
-1.10945535056021
 31
0.0
  0
LINE
  5
14A
330
1F
100
AcDbEntity
  8
1
  6
Continuous
 62
     4
100
AcDbLine
 10
27.2646564747812
 20
2.32804464943979
 30
0.0
 11
28.6013252247812
 21
2.32804464943979
 31
0.0
  0
LINE
  5
14B
330
1F
100
AcDbEntity
  8
1
  6
Continuous
 62
     4
100
AcDbLine
 10
25.4824314747812
 20
-12.1094553505602
 30
0.0
 11
25.9279877247812
 21
-11.4844553505602
 31
0.0
  0
LINE
  5
14C
330
1F
100
AcDbEntity
  8
1
  6
Continuous
 62
     4
100
AcDbLine
 10
25.9279877247812
 20
-11.4844553505602
 30
0.0
 11
26.3735439747812
 21
-10.5469553505602
 31
0.0
  0
LINE
  5
14D
330
1F
100
AcDbEntity
  8
1
  6
Continuous
 62
     4
100
AcDbLine
 10
26.3735439747812
 20
-10.5469553505602
 30
0.0
 11
26.6210752247812
 21
-9.60945535056021
 31
0.0
  0
LINE
  5
14E
330
1F
100
AcDbEntity
  8
1
  6
Continuous
 62
     4
100
AcDbLine
 10
26.6210752247812
 20
-9.60945535056021
 30
0.0
 11
25.4824314747812
 21
-9.60945535056021
 31
0.0
  0
LINE
  5
14F
330
1F
100
AcDbEntity
  8
1
  6
Continuous
 62
     4
100
AcDbLine
 10
27.1656439747812
 20
-8.04695535056021
 30
0.0
 11
27.1656439747812
 21
-12.9219553505602
 31
0.0
  0
LINE
  5
150
330
1F
100
AcDbEntity
  8
1
  6
Continuous
 62
     4
100
AcDbLine
 10
27.1656439747812
 20
-12.9219553505602
 30
0.0
 11
26.8191002247812
 21
-12.7344553505602
 31
0.0
  0
LINE
  5
151
330
1F
100
AcDbEntity
  8
1
  6
Continuous
 62
     4
100
AcDbLine
 10
28.4528064747812
 20
-9.17195535056021
 30
0.0
 11
27.7102127247812
 21
-9.92195535056021
 31
0.0
  0
LINE
  5
152
330
1F
100
AcDbEntity
  8
1
  6
Continuous
 62
     4
100
AcDbLine
 10
27.4626814747812
 20
-9.29695535056021
 30
0.0
 11
27.8092252247812
 21
-10.4219553505602
 31
0.0
  0
LINE
  5
153
330
1F
100
AcDbEntity
  8
1
  6
Continuous
 62
     4
100
AcDbLine
 10
27.8092252247812
 20
-10.4219553505602
 30
0.0
 11
28.2547814747812
 21
-11.3594553505602
 31
0.0
  0
LINE
  5
154
330
1F
100
AcDbEntity
  8
1
  6
Continuous
 62
     4
100
AcDbLine
 10
28.2547814747812
 20
-11.3594553505602
 30
0.0
 11
28.7993502247812
 21
-12.1094553505602
 31
0.0
  0
LINE
  5
155
330
1F
100
AcDbEntity
  8
1
  6
Continuous
 62
     4
100
AcDbLine
 10
25.6309502247812
 20
-23.7344553505602
 30
0.0
 11
26.0765064747812
 21
-23.1094553505602
 31
0.0
  0
LINE
  5
156
330
1F
100
AcDbEntity
  8
1
  6
Continuous
 62
     4
100
AcDbLine
 10
26.0765064747812
 20
-23.1094553505602
 30
0.0
 11
26.3735439747812
 21
-22.3594553505602
 31
0.0
  0
LINE
  5
157
330
1F
100
AcDbEntity
  8
1
  6
Continuous
 62
     4
100
AcDbLine
 10
26.3735439747812
 20
-22.3594553505602
 30
0.0
 11
26.6210752247812
 21
-21.5469553505602
 31
0.0
  0
LINE
  5
158
330
1F
100
AcDbEntity
  8
1
  6
Continuous
 62
     4
100
AcDbLine
 10
26.6210752247812
 20
-21.5469553505602
 30
0.0
 11
26.8191002247812
 21
-20.2969553505602
 31
0.0
  0
LINE
  5
159
330
1F
100
AcDbEntity
  8
1
  6
Continuous
 62
     4
100
AcDbLine
 10
26.8191002247812
 20
-20.2969553505602
 30
0.0
 11
26.9181127247812
 21
-19.0469553505602
 31
0.0
  0
LINE
  5
15A
330
1F
100
AcDbEntity
  8
1
  6
Continuous
 62
     4
100
AcDbLine
 10
25.3834189747812
 20
-19.8594553505602
 30
0.0
 11
28.7003377247812
 21
-19.8594553505602
 31
0.0
  0
LINE
  5
15B
330
1F
100
AcDbEntity
  8
1
  6
Continuous
 62
     4
100
AcDbLine
 10
26.7200877247812
 20
-21.1094553505602
 30
0.0
 11
28.1557689747812
 21
-21.1094553505602
 31
0.0
  0
LINE
  5
15C
330
1F
100
AcDbEntity
  8
1
  6
Continuous
 62
     4
100
AcDbLine
 10
28.1557689747812
 20
-21.1094553505602
 30
0.0
 11
28.1557689747812
 21
-21.5469553505602
 31
0.0
  0
LINE
  5
15D
330
1F
100
AcDbEntity
  8
1
  6
Continuous
 62
     4
100
AcDbLine
 10
28.1557689747812
 20
-21.5469553505602
 30
0.0
 11
27.9082377247812
 21
-22.6719553505602
 31
0.0
  0
LINE
  5
15E
330
1F
100
AcDbEntity
  8
1
  6
Continuous
 62
     4
100
AcDbLine
 10
27.9082377247812
 20
-22.6719553505602
 30
0.0
 11
27.7102127247812
 21
-23.4219553505602
 31
0.0
  0
LINE
  5
15F
330
1F
100
AcDbEntity
  8
1
  6
Continuous
 62
     4
100
AcDbLine
 10
27.7102127247812
 20
-23.4219553505602
 30
0.0
 11
27.4626814747812
 21
-23.9219553505602
 31
0.0
  0
LINE
  5
160
330
1F
100
AcDbEntity
  8
1
  6
Continuous
 62
     4
100
AcDbLine
 10
27.4626814747812
 20
-23.9219553505602
 30
0.0
 11
27.0666314747812
 21
-23.6094553505602
 31
0.0
  0
LINE
  5
161
330
1F
100
AcDbEntity
  8
1
  6
Continuous
 62
     4
100
AcDbLine
 10
25.6309502247812
 20
-34.7344553505602
 30
0.0
 11
25.6309502247812
 21
-30.9844553505602
 31
0.0
  0
LINE
  5
162
330
1F
100
AcDbEntity
  8
1
  6
Continuous
 62
     4
100
AcDbLine
 10
25.6309502247812
 20
-30.9844553505602
 30
0.0
 11
26.1755189747812
 21
-30.9844553505602
 31
0.0
  0
LINE
  5
163
330
1F
100
AcDbEntity
  8
1
  6
Continuous
 62
     4
100
AcDbLine
 10
28.4528064747812
 20
-30.9844553505602
 30
0.0
 11
28.4528064747812
 21
-34.7344553505602
 31
0.0
  0
LINE
  5
164
330
1F
100
AcDbEntity
  8
1
  6
Continuous
 62
     4
100
AcDbLine
 10
28.4528064747812
 20
-34.7344553505602
 30
0.0
 11
27.9082377247812
 21
-34.7344553505602
 31
0.0
  0
LINE
  5
165
330
1F
100
AcDbEntity
  8
1
  6
Continuous
 62
     4
100
AcDbLine
 10
26.6210752247812
 20
-33.3594553505602
 30
0.0
 11
26.6210752247812
 21
-32.1094553505602
 31
0.0
  0
LINE
  5
166
330
1F
100
AcDbEntity
  8
1
  6
Continuous
 62
     4
100
AcDbLine
 10
26.6210752247812
 20
-32.1094553505602
 30
0.0
 11
27.4626814747812
 21
-32.1094553505602
 31
0.0
  0
LINE
  5
167
330
1F
100
AcDbEntity
  8
1
  6
Continuous
 62
     4
100
AcDbLine
 10
27.4626814747812
 20
-32.1094553505602
 30
0.0
 11
27.4626814747812
 21
-33.3594553505602
 31
0.0
  0
LINE
  5
168
330
1F
100
AcDbEntity
  8
1
  6
Continuous
 62
     4
100
AcDbLine
 10
27.4626814747812
 20
-33.3594553505602
 30
0.0
 11
26.6210752247812
 21
-33.3594553505602
 31
0.0
  0
LINE
  5
169
330
1F
100
AcDbEntity
  8
1
  6
Continuous
 62
     4
100
AcDbLine
 10
26.1755189747812
 20
-30.9844553505602
 30
0.0
 11
26.7200877247812
 21
-30.0469553505602
 31
0.0
  0
LINE
  5
16A
330
1F
100
AcDbEntity
  8
1
  6
Continuous
 62
     4
100
AcDbLine
 10
26.1755189747812
 20
-30.9844553505602
 30
0.0
 11
28.4528064747812
 21
-30.9844553505602
 31
0.0
  0
LINE
  5
16B
330
1F
100
AcDbEntity
  8
1
  6
Continuous
 62
     4
100
AcDbLine
 10
74.976997748457
 20
98.0638207468551
 30
0.0
 11
76.726997748457
 21
93.0638207468551
 31
0.0
  0
LINE
  5
16C
330
1F
100
AcDbEntity
  8
1
  6
Continuous
 62
     4
100
AcDbLine
 10
76.726997748457
 20
93.0638207468551
 30
0.0
 11
78.476997748457
 21
98.0638207468551
 31
0.0
  0
LINE
  5
16D
330
1F
100
AcDbEntity
  8
1
  6
Continuous
 62
     4
100
AcDbLine
 10
79.976997748457
 20
94.8138207468551
 30
0.0
 11
82.476997748457
 21
94.8138207468551
 31
0.0
  0
LINE
  5
16E
330
1F
100
AcDbEntity
  8
1
  6
Continuous
 62
     4
100
AcDbLine
 10
86.976997748457
 20
93.0638207468551
 30
0.0
 11
83.976997748457
 21
93.0638207468551
 31
0.0
  0
LINE
  5
16F
330
1F
100
AcDbEntity
  8
1
  6
Continuous
 62
     4
100
AcDbLine
 10
83.976997748457
 20
93.0638207468551
 30
0.0
 11
83.976997748457
 21
98.0638207468551
 31
0.0
  0
LINE
  5
170
330
1F
100
AcDbEntity
  8
1
  6
Continuous
 62
     4
100
AcDbLine
 10
91.851997748457
 20
97.5638207468551
 30
0.0
 11
91.476997748457
 21
97.8138207468551
 31
0.0
  0
LINE
  5
171
330
1F
100
AcDbEntity
  8
1
  6
Continuous
 62
     4
100
AcDbLine
 10
91.476997748457
 20
97.8138207468551
 30
0.0
 11
91.101997748457
 21
97.9388207468551
 31
0.0
  0
LINE
  5
172
330
1F
100
AcDbEntity
  8
1
  6
Continuous
 62
     4
100
AcDbLine
 10
91.101997748457
 20
97.9388207468551
 30
0.0
 11
90.476997748457
 21
98.0638207468551
 31
0.0
  0
LINE
  5
173
330
1F
100
AcDbEntity
  8
1
  6
Continuous
 62
     4
100
AcDbLine
 10
90.476997748457
 20
98.0638207468551
 30
0.0
 11
89.976997748457
 21
98.0638207468551
 31
0.0
  0
LINE
  5
174
330
1F
100
AcDbEntity
  8
1
  6
Continuous
 62
     4
100
AcDbLine
 10
89.976997748457
 20
98.0638207468551
 30
0.0
 11
89.476997748457
 21
97.9388207468551
 31
0.0
  0
LINE
  5
175
330
1F
100
AcDbEntity
  8
1
  6
Continuous
 62
     4
100
AcDbLine
 10
89.476997748457
 20
97.9388207468551
 30
0.0
 11
89.101997748457
 21
97.8138207468551
 31
0.0
  0
LINE
  5
176
330
1F
100
AcDbEntity
  8
1
  6
Continuous
 62
     4
100
AcDbLine
 10
89.101997748457
 20
97.8138207468551
 30
0.0
 11
88.726997748457
 21
97.5638207468551
 31
0.0
  0
LINE
  5
177
330
1F
100
AcDbEntity
  8
1
  6
Continuous
 62
     4
100
AcDbLine
 10
88.726997748457
 20
97.5638207468551
 30
0.0
 11
88.601997748457
 21
97.1888207468551
 31
0.0
  0
LINE
  5
178
330
1F
100
AcDbEntity
  8
1
  6
Continuous
 62
     4
100
AcDbLine
 10
88.601997748457
 20
97.1888207468551
 30
0.0
 11
88.601997748457
 21
96.9388207468551
 31
0.0
  0
LINE
  5
179
330
1F
100
AcDbEntity
  8
1
  6
Continuous
 62
     4
100
AcDbLine
 10
88.601997748457
 20
96.9388207468551
 30
0.0
 11
88.726997748457
 21
96.5638207468551
 31
0.0
  0
LINE
  5
17A
330
1F
100
AcDbEntity
  8
1
  6
Continuous
 62
     4
100
AcDbLine
 10
88.726997748457
 20
96.5638207468551
 30
0.0
 11
89.101997748457
 21
96.3138207468551
 31
0.0
  0
LINE
  5
17B
330
1F
100
AcDbEntity
  8
1
  6
Continuous
 62
     4
100
AcDbLine
 10
89.101997748457
 20
96.3138207468551
 30
0.0
 11
91.226997748457
 21
95.4388207468551
 31
0.0
  0
LINE
  5
17C
330
1F
100
AcDbEntity
  8
1
  6
Continuous
 62
     4
100
AcDbLine
 10
91.226997748457
 20
95.4388207468551
 30
0.0
 11
91.601997748457
 21
95.1888207468551
 31
0.0
  0
LINE
  5
17D
330
1F
100
AcDbEntity
  8
1
  6
Continuous
 62
     4
100
AcDbLine
 10
91.601997748457
 20
95.1888207468551
 30
0.0
 11
91.851997748457
 21
94.8138207468551
 31
0.0
  0
LINE
  5
17E
330
1F
100
AcDbEntity
  8
1
  6
Continuous
 62
     4
100
AcDbLine
 10
91.851997748457
 20
94.8138207468551
 30
0.0
 11
91.976997748457
 21
94.4388207468551
 31
0.0
  0
LINE
  5
17F
330
1F
100
AcDbEntity
  8
1
  6
Continuous
 62
     4
100
AcDbLine
 10
91.976997748457
 20
94.4388207468551
 30
0.0
 11
91.976997748457
 21
94.1888207468551
 31
0.0
  0
LINE
  5
180
330
1F
100
AcDbEntity
  8
1
  6
Continuous
 62
     4
100
AcDbLine
 10
91.976997748457
 20
94.1888207468551
 30
0.0
 11
91.851997748457
 21
93.8138207468551
 31
0.0
  0
LINE
  5
181
330
1F
100
AcDbEntity
  8
1
  6
Continuous
 62
     4
100
AcDbLine
 10
91.851997748457
 20
93.8138207468551
 30
0.0
 11
91.601997748457
 21
93.4388207468551
 31
0.0
  0
LINE
  5
182
330
1F
100
AcDbEntity
  8
1
  6
Continuous
 62
     4
100
AcDbLine
 10
91.601997748457
 20
93.4388207468551
 30
0.0
 11
91.226997748457
 21
93.1888207468551
 31
0.0
  0
LINE
  5
183
330
1F
100
AcDbEntity
  8
1
  6
Continuous
 62
     4
100
AcDbLine
 10
91.226997748457
 20
93.1888207468551
 30
0.0
 11
90.601997748457
 21
93.0638207468551
 31
0.0
  0
LINE
  5
184
330
1F
100
AcDbEntity
  8
1
  6
Continuous
 62
     4
100
AcDbLine
 10
90.601997748457
 20
93.0638207468551
 30
0.0
 11
89.851997748457
 21
93.0638207468551
 31
0.0
  0
LINE
  5
185
330
1F
100
AcDbEntity
  8
1
  6
Continuous
 62
     4
100
AcDbLine
 10
89.851997748457
 20
93.0638207468551
 30
0.0
 11
89.226997748457
 21
93.1888207468551
 31
0.0
  0
LINE
  5
186
330
1F
100
AcDbEntity
  8
1
  6
Continuous
 62
     4
100
AcDbLine
 10
89.226997748457
 20
93.1888207468551
 30
0.0
 11
88.726997748457
 21
93.4388207468551
 31
0.0
  0
LINE
  5
187
330
1F
100
AcDbEntity
  8
1
  6
Continuous
 62
     4
100
AcDbLine
 10
88.726997748457
 20
93.4388207468551
 30
0.0
 11
88.476997748457
 21
93.6888207468551
 31
0.0
  0
LINE
  5
188
330
1F
100
AcDbEntity
  8
1
  6
Continuous
 62
     4
100
AcDbLine
 10
93.476997748457
 20
94.8138207468551
 30
0.0
 11
95.976997748457
 21
94.8138207468551
 31
0.0
  0
LINE
  5
189
330
1F
100
AcDbEntity
  8
1
  6
Continuous
 62
     4
100
AcDbLine
 10
97.476997748457
 20
96.5638207468551
 30
0.0
 11
98.976997748457
 21
98.0638207468551
 31
0.0
  0
LINE
  5
18A
330
1F
100
AcDbEntity
  8
1
  6
Continuous
 62
     4
100
AcDbLine
 10
98.976997748457
 20
98.0638207468551
 30
0.0
 11
98.976997748457
 21
93.0638207468551
 31
0.0
  0
LINE
  5
18B
330
1F
100
AcDbEntity
  8
1
  6
Continuous
 62
     4
100
AcDbLine
 10
101.226997748457
 20
96.0638207468551
 30
0.0
 11
102.476997748457
 21
96.0638207468551
 31
0.0
  0
LINE
  5
18C
330
1F
100
AcDbEntity
  8
1
  6
Continuous
 62
     4
100
AcDbLine
 10
100.476997748457
 20
98.0638207468551
 30
0.0
 11
102.351997748457
 21
98.0638207468551
 31
0.0
  0
LINE
  5
18D
330
1F
100
AcDbEntity
  8
1
  6
Continuous
 62
     4
100
AcDbLine
 10
102.351997748457
 20
98.0638207468551
 30
0.0
 11
102.976997748457
 21
97.9388207468551
 31
0.0
  0
LINE
  5
18E
330
1F
100
AcDbEntity
  8
1
  6
Continuous
 62
     4
100
AcDbLine
 10
102.976997748457
 20
97.9388207468551
 30
0.0
 11
103.351997748457
 21
97.6888207468551
 31
0.0
  0
LINE
  5
18F
330
1F
100
AcDbEntity
  8
1
  6
Continuous
 62
     4
100
AcDbLine
 10
103.351997748457
 20
97.6888207468551
 30
0.0
 11
103.476997748457
 21
97.3138207468551
 31
0.0
  0
LINE
  5
190
330
1F
100
AcDbEntity
  8
1
  6
Continuous
 62
     4
100
AcDbLine
 10
103.476997748457
 20
97.3138207468551
 30
0.0
 11
103.476997748457
 21
96.9388207468551
 31
0.0
  0
LINE
  5
191
330
1F
100
AcDbEntity
  8
1
  6
Continuous
 62
     4
100
AcDbLine
 10
103.476997748457
 20
96.9388207468551
 30
0.0
 11
103.351997748457
 21
96.5638207468551
 31
0.0
  0
LINE
  5
192
330
1F
100
AcDbEntity
  8
1
  6
Continuous
 62
     4
100
AcDbLine
 10
103.351997748457
 20
96.5638207468551
 30
0.0
 11
103.101997748457
 21
96.3138207468551
 31
0.0
  0
LINE
  5
193
330
1F
100
AcDbEntity
  8
1
  6
Continuous
 62
     4
100
AcDbLine
 10
103.101997748457
 20
96.3138207468551
 30
0.0
 11
102.851997748457
 21
96.1888207468551
 31
0.0
  0
LINE
  5
194
330
1F
100
AcDbEntity
  8
1
  6
Continuous
 62
     4
100
AcDbLine
 10
102.851997748457
 20
96.1888207468551
 30
0.0
 11
102.476997748457
 21
96.0638207468551
 31
0.0
  0
LINE
  5
195
330
1F
100
AcDbEntity
  8
1
  6
Continuous
 62
     4
100
AcDbLine
 10
102.476997748457
 20
96.0638207468551
 30
0.0
 11
102.976997748457
 21
95.9388207468551
 31
0.0
  0
LINE
  5
196
330
1F
100
AcDbEntity
  8
1
  6
Continuous
 62
     4
100
AcDbLine
 10
102.976997748457
 20
95.9388207468551
 30
0.0
 11
103.226997748457
 21
95.6888207468551
 31
0.0
  0
LINE
  5
197
330
1F
100
AcDbEntity
  8
1
  6
Continuous
 62
     4
100
AcDbLine
 10
103.226997748457
 20
95.6888207468551
 30
0.0
 11
103.351997748457
 21
95.4388207468551
 31
0.0
  0
LINE
  5
198
330
1F
100
AcDbEntity
  8
1
  6
Continuous
 62
     4
100
AcDbLine
 10
103.351997748457
 20
95.4388207468551
 30
0.0
 11
103.476997748457
 21
94.9388207468551
 31
0.0
  0
LINE
  5
199
330
1F
100
AcDbEntity
  8
1
  6
Continuous
 62
     4
100
AcDbLine
 10
103.476997748457
 20
94.9388207468551
 30
0.0
 11
103.476997748457
 21
94.3138207468551
 31
0.0
  0
LINE
  5
19A
330
1F
100
AcDbEntity
  8
1
  6
Continuous
 62
     4
100
AcDbLine
 10
103.476997748457
 20
94.3138207468551
 30
0.0
 11
103.351997748457
 21
93.8138207468551
 31
0.0
  0
LINE
  5
19B
330
1F
100
AcDbEntity
  8
1
  6
Continuous
 62
     4
100
AcDbLine
 10
103.351997748457
 20
93.8138207468551
 30
0.0
 11
103.101997748457
 21
93.4388207468551
 31
0.0
  0
LINE
  5
19C
330
1F
100
AcDbEntity
  8
1
  6
Continuous
 62
     4
100
AcDbLine
 10
103.101997748457
 20
93.4388207468551
 30
0.0
 11
102.726997748457
 21
93.1888207468551
 31
0.0
  0
LINE
  5
19D
330
1F
100
AcDbEntity
  8
1
  6
Continuous
 62
     4
100
AcDbLine
 10
102.726997748457
 20
93.1888207468551
 30
0.0
 11
102.351997748457
 21
93.0638207468551
 31
0.0
  0
LINE
  5
19E
330
1F
100
AcDbEntity
  8
1
  6
Continuous
 62
     4
100
AcDbLine
 10
102.351997748457
 20
93.0638207468551
 30
0.0
 11
100.476997748457
 21
93.0638207468551
 31
0.0
  0
LINE
  5
19F
330
1F
100
AcDbEntity
  8
1
  6
Continuous
 62
     4
100
AcDbLine
 10
13.4610597508475
 20
-49.809359428232
 30
0.0
 11
11.3360597508475
 21
-49.809359428232
 31
0.0
  0
LINE
  5
1A0
330
1F
100
AcDbEntity
  8
1
  6
Continuous
 62
     4
100
AcDbLine
 10
11.3360597508475
 20
-49.809359428232
 30
0.0
 11
10.8360597508475
 21
-49.934359428232
 31
0.0
  0
LINE
  5
1A1
330
1F
100
AcDbEntity
  8
1
  6
Continuous
 62
     4
100
AcDbLine
 10
10.8360597508475
 20
-49.934359428232
 30
0.0
 11
10.4610597508475
 21
-50.184359428232
 31
0.0
  0
LINE
  5
1A2
330
1F
100
AcDbEntity
  8
1
  6
Continuous
 62
     4
100
AcDbLine
 10
10.4610597508475
 20
-50.184359428232
 30
0.0
 11
10.2110597508475
 21
-50.434359428232
 31
0.0
  0
LINE
  5
1A3
330
1F
100
AcDbEntity
  8
1
  6
Continuous
 62
     4
100
AcDbLine
 10
10.2110597508475
 20
-50.434359428232
 30
0.0
 11
10.0860597508475
 21
-50.809359428232
 31
0.0
  0
LINE
  5
1A4
330
1F
100
AcDbEntity
  8
1
  6
Continuous
 62
     4
100
AcDbLine
 10
10.0860597508475
 20
-50.809359428232
 30
0.0
 11
9.9610597508475
 21
-51.309359428232
 31
0.0
  0
LINE
  5
1A5
330
1F
100
AcDbEntity
  8
1
  6
Continuous
 62
     4
100
AcDbLine
 10
9.9610597508475
 20
-51.309359428232
 30
0.0
 11
9.9610597508475
 21
-53.309359428232
 31
0.0
  0
LINE
  5
1A6
330
1F
100
AcDbEntity
  8
1
  6
Continuous
 62
     4
100
AcDbLine
 10
9.9610597508475
 20
-53.309359428232
 30
0.0
 11
10.0860597508475
 21
-53.809359428232
 31
0.0
  0
LINE
  5
1A7
330
1F
100
AcDbEntity
  8
1
  6
Continuous
 62
     4
100
AcDbLine
 10
10.0860597508475
 20
-53.809359428232
 30
0.0
 11
10.2110597508475
 21
-54.184359428232
 31
0.0
  0
LINE
  5
1A8
330
1F
100
AcDbEntity
  8
1
  6
Continuous
 62
     4
100
AcDbLine
 10
10.2110597508475
 20
-54.184359428232
 30
0.0
 11
10.4610597508475
 21
-54.434359428232
 31
0.0
  0
LINE
  5
1A9
330
1F
100
AcDbEntity
  8
1
  6
Continuous
 62
     4
100
AcDbLine
 10
10.4610597508475
 20
-54.434359428232
 30
0.0
 11
10.9610597508475
 21
-54.684359428232
 31
0.0
  0
LINE
  5
1AA
330
1F
100
AcDbEntity
  8
1
  6
Continuous
 62
     4
100
AcDbLine
 10
10.9610597508475
 20
-54.684359428232
 30
0.0
 11
11.3360597508475
 21
-54.809359428232
 31
0.0
  0
LINE
  5
1AB
330
1F
100
AcDbEntity
  8
1
  6
Continuous
 62
     4
100
AcDbLine
 10
11.3360597508475
 20
-54.809359428232
 30
0.0
 11
13.4610597508475
 21
-54.809359428232
 31
0.0
  0
LINE
  5
1AC
330
1F
100
AcDbEntity
  8
1
  6
Continuous
 62
     4
100
AcDbLine
 10
13.4610597508475
 20
-54.809359428232
 30
0.0
 11
13.4610597508475
 21
-52.059359428232
 31
0.0
  0
LINE
  5
1AD
330
1F
100
AcDbEntity
  8
1
  6
Continuous
 62
     4
100
AcDbLine
 10
13.4610597508475
 20
-52.059359428232
 30
0.0
 11
12.2110597508475
 21
-52.059359428232
 31
0.0
  0
LINE
  5
1AE
330
1F
100
AcDbEntity
  8
1
  6
Continuous
 62
     4
100
AcDbLine
 10
14.9610597508475
 20
-51.309359428232
 30
0.0
 11
16.4610597508475
 21
-49.809359428232
 31
0.0
  0
LINE
  5
1AF
330
1F
100
AcDbEntity
  8
1
  6
Continuous
 62
     4
100
AcDbLine
 10
16.4610597508475
 20
-49.809359428232
 30
0.0
 11
16.4610597508475
 21
-54.809359428232
 31
0.0
  0
LINE
  5
1B0
330
1F
100
AcDbEntity
  8
1
  6
Continuous
 62
     4
100
AcDbLine
 10
17.9610597508475
 20
-54.809359428232
 30
0.0
 11
19.9610597508475
 21
-49.809359428232
 31
0.0
  0
LINE
  5
1B1
330
1F
100
AcDbEntity
  8
1
  6
Continuous
 62
     4
100
AcDbLine
 10
21.4610597508475
 20
-50.559359428232
 30
0.0
 11
21.7110597508475
 21
-50.184359428232
 31
0.0
  0
LINE
  5
1B2
330
1F
100
AcDbEntity
  8
1
  6
Continuous
 62
     4
100
AcDbLine
 10
21.7110597508475
 20
-50.184359428232
 30
0.0
 11
22.0860597508475
 21
-49.934359428232
 31
0.0
  0
LINE
  5
1B3
330
1F
100
AcDbEntity
  8
1
  6
Continuous
 62
     4
100
AcDbLine
 10
22.0860597508475
 20
-49.934359428232
 30
0.0
 11
22.5860597508475
 21
-49.809359428232
 31
0.0
  0
LINE
  5
1B4
330
1F
100
AcDbEntity
  8
1
  6
Continuous
 62
     4
100
AcDbLine
 10
22.5860597508475
 20
-49.809359428232
 30
0.0
 11
23.3360597508475
 21
-49.809359428232
 31
0.0
  0
LINE
  5
1B5
330
1F
100
AcDbEntity
  8
1
  6
Continuous
 62
     4
100
AcDbLine
 10
23.3360597508475
 20
-49.809359428232
 30
0.0
 11
23.8360597508475
 21
-49.934359428232
 31
0.0
  0
LINE
  5
1B6
330
1F
100
AcDbEntity
  8
1
  6
Continuous
 62
     4
100
AcDbLine
 10
23.8360597508475
 20
-49.934359428232
 30
0.0
 11
24.2110597508475
 21
-50.184359428232
 31
0.0
  0
LINE
  5
1B7
330
1F
100
AcDbEntity
  8
1
  6
Continuous
 62
     4
100
AcDbLine
 10
24.2110597508475
 20
-50.184359428232
 30
0.0
 11
24.4610597508475
 21
-50.559359428232
 31
0.0
  0
LINE
  5
1B8
330
1F
100
AcDbEntity
  8
1
  6
Continuous
 62
     4
100
AcDbLine
 10
24.4610597508475
 20
-50.559359428232
 30
0.0
 11
24.4610597508475
 21
-51.059359428232
 31
0.0
  0
LINE
  5
1B9
330
1F
100
AcDbEntity
  8
1
  6
Continuous
 62
     4
100
AcDbLine
 10
24.4610597508475
 20
-51.059359428232
 30
0.0
 11
24.2110597508475
 21
-51.559359428232
 31
0.0
  0
LINE
  5
1BA
330
1F
100
AcDbEntity
  8
1
  6
Continuous
 62
     4
100
AcDbLine
 10
24.2110597508475
 20
-51.559359428232
 30
0.0
 11
21.4610597508475
 21
-54.809359428232
 31
0.0
  0
LINE
  5
1BB
330
1F
100
AcDbEntity
  8
1
  6
Continuous
 62
     4
100
AcDbLine
 10
21.4610597508475
 20
-54.809359428232
 30
0.0
 11
24.4610597508475
 21
-54.809359428232
 31
0.0
  0
ARC
  5
1BC
330
1F
100
AcDbEntity
  8
100
  6
Continuous
 62
     3
100
AcDbCircle
 10
-33.0
 20
100.0
 30
0.0
 40
13.0
100
AcDbArc
 50
112.6198649480404
 51
127.3801350519602
  0
ARC
  5
1BD
330
1F
100
AcDbEntity
  8
100
  6
Continuous
 62
     3
100
AcDbCircle
 10
-33.0
 20
100.0
 30
0.0
 40
12.99999999999987
100
AcDbArc
 50
52.61986494803978
 51
67.38013505195957
  0
ARC
  5
1BE
330
1F
100
AcDbEntity
  8
100
  6
Continuous
 62
     3
100
AcDbCircle
 10
-33.0
 20
100.0
 30
0.0
 40
13.00000000000003
100
AcDbArc
 50
352.6198649480405
 51
7.3801350519604
  0
ARC
  5
1BF
330
1F
100
AcDbEntity
  8
100
  6
Continuous
 62
     3
100
AcDbCircle
 10
-33.0
 20
100.0
 30
0.0
 40
12.99999999999996
100
AcDbArc
 50
292.6198649480401
 51
307.3801350519599
  0
ARC
  5
1C0
330
1F
100
AcDbEntity
  8
100
  6
Continuous
 62
     3
100
AcDbCircle
 10
-33.0
 20
100.0
 30
0.0
 40
13.00000000000003
100
AcDbArc
 50
232.6198649480403
 51
247.3801350519595
  0
ARC
  5
1C1
330
1F
100
AcDbEntity
  8
100
  6
Continuous
 62
     3
100
AcDbCircle
 10
-33.0
 20
100.0
 30
0.0
 40
13.00000000000006
100
AcDbArc
 50
172.6198649480396
 51
187.38013505196
  0
ARC
  5
1C2
330
1F
100
AcDbEntity
  8
100
  6
Continuous
 62
     3
100
AcDbCircle
 10
-120.0
 20
-0.0489501953125
 30
0.0
 40
11.49999999999998
100
AcDbArc
 50
264.0706146225666
 51
275.9293853774334
  0
ARC
  5
1C3
330
1F
100
AcDbEntity
  8
100
  6
Continuous
 62
     3
100
AcDbCircle
 10
-120.0
 20
0.0489501953125
 30
0.0
 40
11.50000000000001
100
AcDbArc
 50
144.0706146225666
 51
155.9293853774335
  0
ARC
  5
1C4
330
1F
100
AcDbEntity
  8
100
  6
Continuous
 62
     3
100
AcDbCircle
 10
-120.0
 20
-0.0489501953125
 30
0.0
 40
11.49999999999999
100
AcDbArc
 50
204.0706146225664
 51
215.9293853774334
  0
ARC
  5
1C5
330
1F
100
AcDbEntity
  8
100
  6
Continuous
 62
     3
100
AcDbCircle
 10
-120.0
 20
-0.0489501953125
 30
0.0
 40
11.50000000000004
100
AcDbArc
 50
324.0706146225663
 51
335.9293853774336
  0
ARC
  5
1C6
330
1F
100
AcDbEntity
  8
100
  6
Continuous
 62
     3
100
AcDbCircle
 10
-120.0
 20
0.0489501953125
 30
0.0
 40
11.50000000000001
100
AcDbArc
 50
24.0706146225666
 51
35.92938537743352
  0
ARC
  5
1C7
330
1F
100
AcDbEntity
  8
100
  6
Continuous
 62
     3
100
AcDbCircle
 10
-120.0
 20
0.0489501953125
 30
0.0
 40
11.49999999999998
100
AcDbArc
 50
84.0706146225666
 51
95.92938537743342
  0
ARC
  5
1C8
330
1F
100
AcDbEntity
  8
1
  6
Continuous
 62
     3
100
AcDbCircle
 10
0.0
 20
100.0
 30
0.0
 40
13.2499999999995
100
AcDbArc
 50
55.08762784151359
 51
64.91237215848852
  0
ARC
  5
1C9
330
1F
100
AcDbEntity
  8
1
  6
Continuous
 62
     3
100
AcDbCircle
 10
0.0
 20
100.0
 30
0.0
 40
13.25000000000021
100
AcDbArc
 50
355.0876278415115
 51
4.91237215848895
  0
ARC
  5
1CA
330
1F
100
AcDbEntity
  8
1
  6
Continuous
 62
     3
100
AcDbCircle
 10
0.0
 20
100.0
 30
0.0
 40
13.24999999999999
100
AcDbArc
 50
295.0876278415115
 51
304.9123721584862
  0
ARC
  5
1CB
330
1F
100
AcDbEntity
  8
1
  6
Continuous
 62
     3
100
AcDbCircle
 10
0.0
 20
100.0
 30
0.0
 40
13.2500000000001
100
AcDbArc
 50
235.0876278415106
 51
244.9123721584885
  0
ARC
  5
1CC
330
1F
100
AcDbEntity
  8
1
  6
Continuous
 62
     3
100
AcDbCircle
 10
0.0
 20
100.0
 30
0.0
 40
13.25000000000022
100
AcDbArc
 50
175.0876278415111
 51
184.9123721584885
  0
ARC
  5
1CD
330
1F
100
AcDbEntity
  8
1
  6
Continuous
 62
     3
100
AcDbCircle
 10
0.0
 20
100.0
 30
0.0
 40
13.24999999999999
100
AcDbArc
 50
115.0876278415115
 51
124.9123721584896
  0
CIRCLE
  5
1CE
330
1F
100
AcDbEntity
  8
1
  6
DASHED
 62
     3
100
AcDbCircle
 10
-8.10000000000002
 20
-32.9499999999999
 30
0.0
 40
0.9999999999999991
  0
CIRCLE
  5
1CF
330
1F
100
AcDbEntity
  8
1
  6
DASHED
 62
     3
100
AcDbCircle
 10
8.10000000000002
 20
-32.9499999999999
 30
0.0
 40
1.0
  0
CIRCLE
  5
1D0
330
1F
100
AcDbEntity
  8
100
  6
Continuous
 62
     3
100
AcDbCircle
 10
-33.0
 20
12.0
 30
0.0
 40
3.0
  0
CIRCLE
  5
1D1
330
1F
100
AcDbEntity
  8
100
  6
Continuous
 62
     3
100
AcDbCircle
 10
-33.0
 20
12.0
 30
0.0
 40
1.25
  0
CIRCLE
  5
1D2
330
1F
100
AcDbEntity
  8
100
  6
Continuous
 62
     3
100
AcDbCircle
 10
-33.0
 20
100.0
 30
0.0
 40
6.25
  0
CIRCLE
  5
1D3
330
1F
100
AcDbEntity
  8
100
  6
Continuous
 62
     3
100
AcDbCircle
 10
-120.0
 20
0.0
 30
0.0
 40
9.0
  0
CIRCLE
  5
1D4
330
1F
100
AcDbEntity
  8
100
  6
Continuous
 62
     3
100
AcDbCircle
 10
-120.0
 20
-0.0489501953125
 30
0.0
 40
3.950000000000003
  0
CIRCLE
  5
1D5
330
1F
100
AcDbEntity
  8
1
  6
Continuous
 62
     3
100
AcDbCircle
 10
0.0
 20
100.0
 30
0.0
 40
9.0
  0
CIRCLE
  5
1D6
330
1F
100
AcDbEntity
  8
1
  6
Continuous
 62
     3
100
AcDbCircle
 10
0.0
 20
100.0
 30
0.0
 40
7.5
  0
CIRCLE
  5
1D7
102
{ACAD_REACTORS
330
1DB
102
}
330
1F
100
AcDbEntity
  8
1
  6
Continuous
 62
     3
100
AcDbCircle
 10
0.0
 20
100.0
 30
0.0
 40
6.45000000000022
  0
CIRCLE
  5
1D8
102
{ACAD_REACTORS
330
1DB
102
}
330
1F
100
AcDbEntity
  8
1
  6
Continuous
 62
     3
100
AcDbCircle
 10
0.0
 20
100.0
 30
0.0
 40
5.08578643762678
  0
LWPOLYLINE
  5
1D9
330
1F
100
AcDbEntity
  8
2
  6
PHANTOM
 62
     6
100
AcDbPolyline
 90
       25
 70
     0
 43
0.0
 10
0.1534210495505
 20
51.9469117419035
 10
1.09209506028556
 20
52.521832903116
 10
1.94342396436123
 20
52.9358071137347
 10
2.74838914522607
 20
53.2089094884845
 10
3.50049525611975
 20
53.3374639112765
 10
4.55258319518393
 20
53.2776980265593
 10
5.5051372171572
 20
52.9553507484527
 10
5.87394575702609
 20
52.7179564517919
 10
6.14492152836394
 20
52.445621371537
 10
6.30538299863721
 20
52.1512823938723
 10
6.35
 20
51.8450395884781
 10
5.98856211462891
 20
51.0823611276008
 10
5.11270656491401
 20
50.4855110907636
 10
4.03280439987344
 20
50.254669044801
 10
2.89596894815078
 20
50.4092896070517
 10
1.70389542361623
 20
50.9472458954347
 10
0.01539418431364
 20
52.0418943718556
 10
-1.69046120229225
 20
53.1412197427862
 10
-2.30810549807753
 20
53.4428042272778
 10
-2.84703097755453
 20
53.6208356181369
 10
-3.2926835965901
 20
53.6851788485736
 10
-3.73503103073602
 20
53.668354293394
 10
-4.60895676930841
 20
53.3912653497707
 10
-5.45870340710104
 20
52.799088496458
 10
-6.35
 20
51.8450395884781
  0
LEADER
  5
1DA
330
1F
100
AcDbEntity
  8
1
  6
Continuous
 62
     4
100
AcDbLeader
  3
Standard
 71
     0
 76
     3
 10
0.0
 20
-45.9500007629394
 30
0.0
 10
8.4788528904398
 20
-55.9474524879175
 30
0.0
 10
25.8511877003293
 20
-55.9474524879175
 30
0.0
  0
HATCH
  5
1DB
330
1F
100
AcDbEntity
  8
1
  6
Continuous
 62
     4
100
AcDbHatch
 10
0.0
 20
0.0
 30
0.0
210
0.0
220
0.0
230
1.0
  2
_USER
 70
     0
 71
     1
 91
        2
 92
        1
 93
        1
 72
     2
 10
0.0
 20
100.0
 40
6.45000000000022
 50
0.0
 51
360.0
 73
     1
 97
        1
330
1D7
 92
       16
 93
        1
 72
     2
 10
0.0
 20
100.0
 40
5.08578643762678
 50
0.0
 51
360.0
 73
     1
 97
        1
330
1D8
 75
     1
 76
     0
 52
44.99999999999998
 41
1.0
 77
     0
 78
     1
 53
44.99999999999998
 43
0.0
 44
0.0
 45
-0.7071067811865472
 46
0.7071067811865478
 79
     0
 98
        1
 10
0.0
 20
0.0
  0
ENDSEC
  0
SECTION
  2
OBJECTS
  0
DICTIONARY
  5
C
330
0
100
AcDbDictionary
281
     1
  3
ACAD_GROUP
350
D
  3
ACAD_LAYOUT
350
1A
  3
ACAD_MATERIAL
350
3B
  3
ACAD_MLEADERSTYLE
350
1DE
  3
ACAD_MLINESTYLE
350
17
  3
ACAD_PLOTSETTINGS
350
19
  3
ACAD_PLOTSTYLENAME
350
E
  3
ACAD_VISUALSTYLE
350
2A
  3
AcDbVariableDictionary
350
1DC
  0
DICTIONARY
  5
D
102
{ACAD_REACTORS
330
C
102
}
330
C
100
AcDbDictionary
281
     1
  0
DICTIONARY
  5
1A
102
{ACAD_REACTORS
330
C
102
}
330
C
100
AcDbDictionary
281
     1
  3
Layout1
350
1E
  3
Layout2
350
26
  3
Model
350
22
  0
DICTIONARY
  5
3B
102
{ACAD_REACTORS
330
C
102
}
330
C
100
AcDbDictionary
281
     1
  3
ByBlock
350
3D
  3
ByLayer
350
3C
  3
Global
350
3E
  0
DICTIONARY
  5
1DE
102
{ACAD_REACTORS
330
C
102
}
330
C
100
AcDbDictionary
281
     1
  0
DICTIONARY
  5
17
102
{ACAD_REACTORS
330
C
102
}
330
C
100
AcDbDictionary
281
     1
  3
Standard
350
18
  0
DICTIONARY
  5
19
102
{ACAD_REACTORS
330
C
102
}
330
C
100
AcDbDictionary
281
     1
  0
ACDBDICTIONARYWDFLT
  5
E
102
{ACAD_REACTORS
330
C
102
}
330
C
100
AcDbDictionary
281
     1
  3
Normal
350
F
100
AcDbDictionaryWithDefault
340
F
  0
DICTIONARY
  5
2A
102
{ACAD_REACTORS
330
C
102
}
330
C
100
AcDbDictionary
281
     1
  3
2dWireframe
350
2F
  3
3D Hidden
350
31
  3
3dWireframe
350
30
  3
Basic
350
32
  3
Brighten
350
36
  3
ColorChange
350
3A
  3
Conceptual
350
34
  3
Dim
350
35
  3
Facepattern
350
39
  3
Flat
350
2B
  3
FlatWithEdges
350
2C
  3
Gouraud
350
2D
  3
GouraudWithEdges
350
2E
  3
Linepattern
350
38
  3
Realistic
350
33
  3
Thicken
350
37
  0
DICTIONARY
  5
1DC
102
{ACAD_REACTORS
330
C
102
}
330
C
100
AcDbDictionary
281
     1
  3
DIMASSOC
350
1DF
  3
HIDETEXT
350
1E0
  0
LAYOUT
  5
1E
102
{ACAD_REACTORS
330
1A
102
}
330
1A
100
AcDbPlotSettings
  1

  2
none_device
  4

  6

 40
0.0
 41
0.0
 42
0.0
 43
0.0
 44
0.0
 45
0.0
 46
0.0
 47
0.0
 48
0.0
 49
0.0
140
0.0
141
0.0
142
1.0
143
1.0
 70
   688
 72
     0
 73
     0
 74
     5
  7

 75
    16
147
1.0
148
0.0
149
0.0
100
AcDbLayout
  1
Layout1
 70
     1
 71
     1
 10
0.0
 20
0.0
 11
12.0
 21
9.0
 12
0.0
 22
0.0
 32
0.0
 14
1.00000000000000E+20
 24
1.00000000000000E+20
 34
1.00000000000000E+20
 15
-1.00000000000000E+20
 25
-1.00000000000000E+20
 35
-1.00000000000000E+20
146
0.0
 13
0.0
 23
0.0
 33
0.0
 16
1.0
 26
0.0
 36
0.0
 17
0.0
 27
1.0
 37
0.0
 76
     0
330
1B
  0
LAYOUT
  5
26
102
{ACAD_REACTORS
330
1A
102
}
330
1A
100
AcDbPlotSettings
  1

  2
none_device
  4

  6

 40
0.0
 41
0.0
 42
0.0
 43
0.0
 44
0.0
 45
0.0
 46
0.0
 47
0.0
 48
0.0
 49
0.0
140
0.0
141
0.0
142
1.0
143
1.0
 70
   688
 72
     0
 73
     0
 74
     5
  7

 75
    16
147
1.0
148
0.0
149
0.0
100
AcDbLayout
  1
Layout2
 70
     1
 71
     2
 10
0.0
 20
0.0
 11
0.0
 21
0.0
 12
0.0
 22
0.0
 32
0.0
 14
0.0
 24
0.0
 34
0.0
 15
0.0
 25
0.0
 35
0.0
146
0.0
 13
0.0
 23
0.0
 33
0.0
 16
1.0
 26
0.0
 36
0.0
 17
0.0
 27
1.0
 37
0.0
 76
     0
330
23
  0
LAYOUT
  5
22
102
{ACAD_REACTORS
330
1A
102
}
330
1A
100
AcDbPlotSettings
  1

  2
none_device
  4

  6

 40
0.0
 41
0.0
 42
0.0
 43
0.0
 44
0.0
 45
0.0
 46
0.0
 47
0.0
 48
0.0
 49
0.0
140
0.0
141
0.0
142
1.0
143
1.0
 70
  1712
 72
     0
 73
     0
 74
     0
  7

 75
     0
147
1.0
148
0.0
149
0.0
100
AcDbLayout
  1
Model
 70
     1
 71
     0
 10
0.0
 20
0.0
 11
12.0
 21
9.0
 12
0.0
 22
0.0
 32
0.0
 14
-140.12093988312
 24
-55.9474524879175
 34
0.0
 15
110.12093988312
 25
117.587430262011
 35
0.0
146
0.0
 13
0.0
 23
0.0
 33
0.0
 16
1.0
 26
0.0
 36
0.0
 17
0.0
 27
1.0
 37
0.0
 76
     0
330
1F
331
29
  0
MATERIAL
  5
3D
102
{ACAD_REACTORS
330
3B
102
}
102
{ACAD_XDICTIONARY
360
203
102
}
330
3B
100
AcDbMaterial
  1
ByBlock
  0
MATERIAL
  5
3C
102
{ACAD_REACTORS
330
3B
102
}
102
{ACAD_XDICTIONARY
360
201
102
}
330
3B
100
AcDbMaterial
  1
ByLayer
  0
MATERIAL
  5
3E
102
{ACAD_REACTORS
330
3B
102
}
102
{ACAD_XDICTIONARY
360
205
102
}
330
3B
100
AcDbMaterial
  1
Global
  0
MLINESTYLE
  5
18
102
{ACAD_REACTORS
330
17
102
}
330
17
100
AcDbMlineStyle
  2
Standard
 70
     0
  3

 62
   256
 51
90.0
 52
90.0
 71
     2
 49
0.5
 62
   256
  6
BYLAYER
 49
-0.5
 62
   256
  6
BYLAYER
  0
ACDBPLACEHOLDER
  5
F
102
{ACAD_REACTORS
330
E
102
}
330
E
  0
VISUALSTYLE
  5
2F
102
{ACAD_REACTORS
330
2A
102
}
102
{ACAD_XDICTIONARY
360
1E9
102
}
330
2A
100
AcDbVisualStyle
  2
2dWireframe
 70
     4
 71
     0
 72
     2
 73
     0
 90
        0
 40
-0.6
 41
-30.0
 62
     5
 63
     7
 74
     1
 91
        4
 64
     7
 65
   257
 75
     1
175
     1
 42
1.0
 92
        0
 66
   257
 43
1.0
 76
     1
 77
     6
 78
     2
 67
     7
 79
     5
170
     0
171
     0
290
     0
174
     0
 93
        1
 44
0.0
173
     0
291
     0
 45
0.0
1001
ACAD
1000
AcDbSavedByObjectVersion
1070
     0
  0
VISUALSTYLE
  5
31
102
{ACAD_REACTORS
330
2A
102
}
102
{ACAD_XDICTIONARY
360
1ED
102
}
330
2A
100
AcDbVisualStyle
  2
3D Hidden
 70
     6
 71
     1
 72
     2
 73
     2
 90
        0
 40
-0.6
 41
-30.0
 62
     5
 63
     7
 74
     2
 91
        2
 64
     7
 65
   257
 75
     2
175
     1
 42
40.0
 92
        0
 66
   257
 43
1.0
 76
     1
 77
     6
 78
     2
 67
     7
 79
     3
170
     0
171
     0
290
     0
174
     0
 93
        1
 44
0.0
173
     0
291
     0
 45
0.0
1001
ACAD
1000
AcDbSavedByObjectVersion
1070
     0
  0
VISUALSTYLE
  5
30
102
{ACAD_REACTORS
330
2A
102
}
102
{ACAD_XDICTIONARY
360
1EB
102
}
330
2A
100
AcDbVisualStyle
  2
3dWireframe
 70
     5
 71
     0
 72
     2
 73
     0
 90
        0
 40
-0.6
 41
-30.0
 62
     5
 63
     7
 74
     1
 91
        4
 64
     7
 65
   257
 75
     1
175
     1
 42
1.0
 92
        0
 66
   257
 43
1.0
 76
     1
 77
     6
 78
     2
 67
     7
 79
     5
170
     0
171
     0
290
     0
174
     0
 93
        1
 44
0.0
173
     0
291
     0
 45
0.0
1001
ACAD
1000
AcDbSavedByObjectVersion
1070
     0
  0
VISUALSTYLE
  5
32
102
{ACAD_REACTORS
330
2A
102
}
102
{ACAD_XDICTIONARY
360
1EF
102
}
330
2A
100
AcDbVisualStyle
  2
Basic
 70
     7
 71
     1
 72
     0
 73
     1
 90
        0
 40
-0.6
 41
-30.0
 62
     5
 63
     7
 74
     0
 91
        4
 64
     7
 65
   257
 75
     1
175
     1
 42
1.0
 92
        8
 66
     7
 43
1.0
 76
     1
 77
     6
 78
     2
 67
     7
 79
     5
170
     0
171
     0
290
     0
174
     0
 93
        1
 44
0.0
173
     0
291
     1
 45
0.0
1001
ACAD
1000
AcDbSavedByObjectVersion
1070
     0
  0
VISUALSTYLE
  5
36
102
{ACAD_REACTORS
330
2A
102
}
102
{ACAD_XDICTIONARY
360
1F7
102
}
330
2A
100
AcDbVisualStyle
  2
Brighten
 70
    12
 71
     2
 72
     2
 73
     0
 90
        0
 40
-0.6
 41
-30.0
 62
     5
 63
     7
 74
     1
 91
        4
 64
     7
 65
   257
 75
     1
175
     1
 42
1.0
 92
        8
 66
     7
 43
1.0
 76
     1
 77
     6
 78
     2
 67
     7
 79
     5
170
     0
171
     0
290
     0
174
     0
 93
        1
 44
50.0
173
     0
291
     1
 45
0.0
1001
ACAD
1000
AcDbSavedByObjectVersion
1070
     0
  0
VISUALSTYLE
  5
3A
102
{ACAD_REACTORS
330
2A
102
}
102
{ACAD_XDICTIONARY
360
1FF
102
}
330
2A
100
AcDbVisualStyle
  2
ColorChange
 70
    16
 71
     2
 72
     2
 73
     3
 90
        0
 40
-0.6
 41
-30.0
 62
     5
 63
     8
 74
     1
 91
        4
 64
     7
 65
   257
 75
     1
175
     1
 42
1.0
 92
        8
 66
     8
 43
1.0
 76
     1
 77
     6
 78
     2
 67
     7
 79
     5
170
     0
171
     0
290
     0
174
     0
 93
        1
 44
0.0
173
     0
291
     1
 45
0.0
1001
ACAD
1000
AcDbSavedByObjectVersion
1070
     0
  0
VISUALSTYLE
  5
34
102
{ACAD_REACTORS
330
2A
102
}
102
{ACAD_XDICTIONARY
360
1F3
102
}
330
2A
100
AcDbVisualStyle
  2
Conceptual
 70
     9
 71
     3
 72
     2
 73
     0
 90
        0
 40
-0.6
 41
-30.0
 62
     5
 63
     7
 74
     2
 91
        2
 64
     7
 65
   257
 75
     1
175
     1
 42
40.0
 92
        8
 66
     7
 43
1.0
 76
     1
 77
     6
 78
     2
 67
     7
 79
     3
170
     0
171
     0
290
     0
174
     0
 93
        1
 44
0.0
173
     0
291
     0
 45
0.0
1001
ACAD
1000
AcDbSavedByObjectVersion
1070
     0
  0
VISUALSTYLE
  5
35
102
{ACAD_REACTORS
330
2A
102
}
102
{ACAD_XDICTIONARY
360
1F5
102
}
330
2A
100
AcDbVisualStyle
  2
Dim
 70
    11
 71
     2
 72
     2
 73
     0
 90
        0
 40
-0.6
 41
-30.0
 62
     5
 63
     7
 74
     1
 91
        4
 64
     7
 65
   257
 75
     1
175
     1
 42
1.0
 92
        8
 66
     7
 43
1.0
 76
     1
 77
     6
 78
     2
 67
     7
 79
     5
170
     0
171
     0
290
     0
174
     0
 93
        1
 44
-50.0
173
     0
291
     1
 45
0.0
1001
ACAD
1000
AcDbSavedByObjectVersion
1070
     0
  0
VISUALSTYLE
  5
39
102
{ACAD_REACTORS
330
2A
102
}
102
{ACAD_XDICTIONARY
360
1FD
102
}
330
2A
100
AcDbVisualStyle
  2
Facepattern
 70
    15
 71
     2
 72
     2
 73
     0
 90
        0
 40
-0.6
 41
-30.0
 62
     5
 63
     7
 74
     1
 91
        4
 64
     7
 65
   257
 75
     1
175
     1
 42
1.0
 92
        8
 66
     7
 43
1.0
 76
     1
 77
     6
 78
     2
 67
     7
 79
     5
170
     0
171
     0
290
     0
174
     0
 93
        1
 44
0.0
173
     0
291
     1
 45
0.0
1001
ACAD
1000
AcDbSavedByObjectVersion
1070
     0
  0
VISUALSTYLE
  5
2B
102
{ACAD_REACTORS
330
2A
102
}
102
{ACAD_XDICTIONARY
360
1E1
102
}
330
2A
100
AcDbVisualStyle
  2
Flat
 70
     0
 71
     2
 72
     1
 73
     1
 90
        2
 40
-0.6
 41
30.0
 62
     5
 63
     7
 74
     0
 91
        4
 64
     7
 65
   257
 75
     1
175
     1
 42
1.0
 92
        8
 66
     7
 43
1.0
 76
     1
 77
     6
 78
     2
 67
     7
 79
     5
170
     0
171
     0
290
     0
174
     0
 93
       13
 44
0.0
173
     0
291
     1
 45
0.0
1001
ACAD
1000
AcDbSavedByObjectVersion
1070
     0
  0
VISUALSTYLE
  5
2C
102
{ACAD_REACTORS
330
2A
102
}
102
{ACAD_XDICTIONARY
360
1E3
102
}
330
2A
100
AcDbVisualStyle
  2
FlatWithEdges
 70
     1
 71
     2
 72
     1
 73
     1
 90
        2
 40
-0.6
 41
30.0
 62
     5
 63
     7
 74
     1
 91
        4
 64
     7
 65
   257
 75
     1
175
     1
 42
1.0
 92
        0
 66
   257
 43
1.0
 76
     1
 77
     6
 78
     2
 67
     7
 79
     5
170
     0
171
     0
290
     0
174
     0
 93
       13
 44
0.0
173
     0
291
     1
 45
0.0
1001
ACAD
1000
AcDbSavedByObjectVersion
1070
     0
  0
VISUALSTYLE
  5
2D
102
{ACAD_REACTORS
330
2A
102
}
102
{ACAD_XDICTIONARY
360
1E5
102
}
330
2A
100
AcDbVisualStyle
  2
Gouraud
 70
     2
 71
     2
 72
     2
 73
     1
 90
        2
 40
-0.6
 41
30.0
 62
     5
 63
     7
 74
     0
 91
        4
 64
     7
 65
   257
 75
     1
175
     1
 42
1.0
 92
        0
 66
     7
 43
1.0
 76
     1
 77
     6
 78
     2
 67
     7
 79
     5
170
     0
171
     0
290
     0
174
     0
 93
       13
 44
0.0
173
     0
291
     1
 45
0.0
1001
ACAD
1000
AcDbSavedByObjectVersion
1070
     0
  0
VISUALSTYLE
  5
2E
102
{ACAD_REACTORS
330
2A
102
}
102
{ACAD_XDICTIONARY
360
1E7
102
}
330
2A
100
AcDbVisualStyle
  2
GouraudWithEdges
 70
     3
 71
     2
 72
     2
 73
     1
 90
        2
 40
-0.6
 41
30.0
 62
     5
 63
     7
 74
     1
 91
        4
 64
     7
 65
   257
 75
     1
175
     1
 42
1.0
 92
        0
 66
   257
 43
1.0
 76
     1
 77
     6
 78
     2
 67
     7
 79
     5
170
     0
171
     0
290
     0
174
     0
 93
       13
 44
0.0
173
     0
291
     1
 45
0.0
1001
ACAD
1000
AcDbSavedByObjectVersion
1070
     0
  0
VISUALSTYLE
  5
38
102
{ACAD_REACTORS
330
2A
102
}
102
{ACAD_XDICTIONARY
360
1FB
102
}
330
2A
100
AcDbVisualStyle
  2
Linepattern
 70
    14
 71
     2
 72
     2
 73
     0
 90
        0
 40
-0.6
 41
-30.0
 62
     5
 63
     7
 74
     1
 91
        4
 64
     7
 65
   257
 75
     7
175
     7
 42
1.0
 92
        8
 66
     7
 43
1.0
 76
     1
 77
     6
 78
     2
 67
     7
 79
     5
170
     0
171
     0
290
     0
174
     0
 93
        1
 44
0.0
173
     0
291
     1
 45
0.0
1001
ACAD
1000
AcDbSavedByObjectVersion
1070
     0
  0
VISUALSTYLE
  5
33
102
{ACAD_REACTORS
330
2A
102
}
102
{ACAD_XDICTIONARY
360
1F1
102
}
330
2A
100
AcDbVisualStyle
  2
Realistic
 70
     8
 71
     2
 72
     2
 73
     0
 90
        0
 40
-0.6
 41
-30.0
 62
     5
 63
     7
 74
     1
 91
        0
 64
     7
 65
   257
 75
     1
175
     1
 42
1.0
 92
        8
 66
     8
 43
1.0
 76
     1
 77
     6
 78
     2
 67
     7
 79
     5
170
     0
171
     0
290
     0
174
     0
 93
       13
 44
0.0
173
     0
291
     0
 45
0.0
1001
ACAD
1000
AcDbSavedByObjectVersion
1070
     0
  0
VISUALSTYLE
  5
37
102
{ACAD_REACTORS
330
2A
102
}
102
{ACAD_XDICTIONARY
360
1F9
102
}
330
2A
100
AcDbVisualStyle
  2
Thicken
 70
    13
 71
     2
 72
     2
 73
     0
 90
        0
 40
-0.6
 41
-30.0
 62
     5
 63
     7
 74
     1
 91
        4
 64
     7
 65
   257
 75
     1
175
     1
 42
1.0
 92
       12
 66
     7
 43
1.0
 76
     1
 77
     6
 78
     2
 67
     7
 79
     5
170
     0
171
     0
290
     0
174
     0
 93
        1
 44
0.0
173
     0
291
     1
 45
0.0
1001
ACAD
1000
AcDbSavedByObjectVersion
1070
     0
  0
DICTIONARYVAR
  5
1DF
102
{ACAD_REACTORS
330
1DC
102
}
330
1DC
100
DictionaryVariables
280
     0
  1
2
  0
DICTIONARYVAR
  5
1E0
102
{ACAD_REACTORS
330
1DC
102
}
330
1DC
100
DictionaryVariables
280
     0
  1
1
  0
DICTIONARY
  5
203
330
3D
100
AcDbDictionary
280
     1
281
     1
  3
ACAD_XREC_ROUNDTRIP
360
204
  0
DICTIONARY
  5
201
330
3C
100
AcDbDictionary
280
     1
281
     1
  3
ACAD_XREC_ROUNDTRIP
360
202
  0
DICTIONARY
  5
205
330
3E
100
AcDbDictionary
280
     1
281
     1
  3
ACAD_XREC_ROUNDTRIP
360
206
  0
DICTIONARY
  5
1E9
330
2F
100
AcDbDictionary
280
     1
281
     1
  3
ACAD_XREC_ROUNDTRIP
360
1EA
  0
DICTIONARY
  5
1ED
330
31
100
AcDbDictionary
280
     1
281
     1
  3
ACAD_XREC_ROUNDTRIP
360
1EE
  0
DICTIONARY
  5
1EB
330
30
100
AcDbDictionary
280
     1
281
     1
  3
ACAD_XREC_ROUNDTRIP
360
1EC
  0
DICTIONARY
  5
1EF
330
32
100
AcDbDictionary
280
     1
281
     1
  3
ACAD_XREC_ROUNDTRIP
360
1F0
  0
DICTIONARY
  5
1F7
330
36
100
AcDbDictionary
280
     1
281
     1
  3
ACAD_XREC_ROUNDTRIP
360
1F8
  0
DICTIONARY
  5
1FF
330
3A
100
AcDbDictionary
280
     1
281
     1
  3
ACAD_XREC_ROUNDTRIP
360
200
  0
DICTIONARY
  5
1F3
330
34
100
AcDbDictionary
280
     1
281
     1
  3
ACAD_XREC_ROUNDTRIP
360
1F4
  0
DICTIONARY
  5
1F5
330
35
100
AcDbDictionary
280
     1
281
     1
  3
ACAD_XREC_ROUNDTRIP
360
1F6
  0
DICTIONARY
  5
1FD
330
39
100
AcDbDictionary
280
     1
281
     1
  3
ACAD_XREC_ROUNDTRIP
360
1FE
  0
DICTIONARY
  5
1E1
330
2B
100
AcDbDictionary
280
     1
281
     1
  3
ACAD_XREC_ROUNDTRIP
360
1E2
  0
DICTIONARY
  5
1E3
330
2C
100
AcDbDictionary
280
     1
281
     1
  3
ACAD_XREC_ROUNDTRIP
360
1E4
  0
DICTIONARY
  5
1E5
330
2D
100
AcDbDictionary
280
     1
281
     1
  3
ACAD_XREC_ROUNDTRIP
360
1E6
  0
DICTIONARY
  5
1E7
330
2E
100
AcDbDictionary
280
     1
281
     1
  3
ACAD_XREC_ROUNDTRIP
360
1E8
  0
DICTIONARY
  5
1FB
330
38
100
AcDbDictionary
280
     1
281
     1
  3
ACAD_XREC_ROUNDTRIP
360
1FC
  0
DICTIONARY
  5
1F1
330
33
100
AcDbDictionary
280
     1
281
     1
  3
ACAD_XREC_ROUNDTRIP
360
1F2
  0
DICTIONARY
  5
1F9
330
37
100
AcDbDictionary
280
     1
281
     1
  3
ACAD_XREC_ROUNDTRIP
360
1FA
  0
XRECORD
  5
204
102
{ACAD_REACTORS
330
203
102
}
330
203
100
AcDbXrecord
280
     1
102
MATERIAL
148
0.0
149
0.0
149
0.0
 93
        0
 94
      127
282
     0
 72
     1
 77
     1
171
     1
175
     1
179
     1
273
     0
  0
XRECORD
  5
202
102
{ACAD_REACTORS
330
201
102
}
330
201
100
AcDbXrecord
280
     1
102
MATERIAL
148
0.0
149
0.0
149
0.0
 93
        0
 94
      127
282
     0
 72
     1
 77
     1
171
     1
175
     1
179
     1
273
     0
  0
XRECORD
  5
206
102
{ACAD_REACTORS
330
205
102
}
330
205
100
AcDbXrecord
280
     1
102
MATERIAL
148
0.0
149
0.0
149
0.0
 93
        0
 94
      127
282
     0
 72
     1
 77
     1
171
     1
175
     1
179
     1
273
     0
  0
XRECORD
  5
1EA
102
{ACAD_REACTORS
330
1E9
102
}
330
1E9
100
AcDbXrecord
280
     1
102
RTVSPropertyOp0
 70
     1
102
RTVSPropertyOp1
 70
     1
102
RTVSPropertyOp2
 70
     1
102
RTVSPropertyOp3
 70
     1
102
RTVSPropertyOp4
 70
     1
102
RTVSPropertyOp5
 70
     1
102
RTVSPropertyOp6
 70
     1
102
RTVSPropertyOp7
 70
     1
102
RTVSPropertyOp8
 70
     1
102
RTVSPropertyOp9
 70
     1
102
RTVSPropertyOp10
 70
     1
102
RTVSPropertyOp11
 70
     1
102
RTVSPropertyOp12
 70
     1
102
RTVSPropertyOp13
 70
     1
102
RTVSPropertyOp14
 70
     1
102
RTVSPropertyOp15
 70
     1
102
RTVSPropertyOp16
 70
     1
102
RTVSPropertyOp17
 70
     1
102
RTVSPropertyOp18
 70
     1
102
RTVSPropertyOp19
 70
     1
102
RTVSPropertyOp20
 70
     1
102
RTVSPropertyOp21
 70
     1
102
RTVSPropertyOp22
 70
     1
102
RTVSPropertyOp23
 70
     1
102
RTVSPropertyOp24
 70
     1
102
RTVSPropertyOp25
 70
     1
102
RTVSPropertyOp26
 70
     1
102
RTVSPropertyOp27
 70
     1
  0
XRECORD
  5
1EE
102
{ACAD_REACTORS
330
1ED
102
}
330
1ED
100
AcDbXrecord
280
     1
102
RTVSPropertyOp0
 70
     1
102
RTVSPropertyOp1
 70
     1
102
RTVSPropertyOp2
 70
     1
102
RTVSPropertyOp3
 70
     1
102
RTVSPropertyOp4
 70
     1
102
RTVSPropertyOp5
 70
     1
102
RTVSPropertyOp6
 70
     1
102
RTVSPropertyOp7
 70
     1
102
RTVSPropertyOp8
 70
     1
102
RTVSPropertyOp9
 70
     1
102
RTVSPropertyOp10
 70
     1
102
RTVSPropertyOp11
 70
     1
102
RTVSPropertyOp12
 70
     1
102
RTVSPropertyOp13
 70
     1
102
RTVSPropertyOp14
 70
     1
102
RTVSPropertyOp15
 70
     1
102
RTVSPropertyOp16
 70
     1
102
RTVSPropertyOp17
 70
     1
102
RTVSPropertyOp18
 70
     1
102
RTVSPropertyOp19
 70
     1
102
RTVSPropertyOp20
 70
     1
102
RTVSPropertyOp21
 70
     1
102
RTVSPropertyOp22
 70
     1
102
RTVSPropertyOp23
 70
     1
102
RTVSPropertyOp24
 70
     1
102
RTVSPropertyOp25
 70
     1
102
RTVSPropertyOp26
 70
     1
102
RTVSPropertyOp27
 70
     1
  0
XRECORD
  5
1EC
102
{ACAD_REACTORS
330
1EB
102
}
330
1EB
100
AcDbXrecord
280
     1
102
RTVSPropertyOp0
 70
     1
102
RTVSPropertyOp1
 70
     1
102
RTVSPropertyOp2
 70
     1
102
RTVSPropertyOp3
 70
     1
102
RTVSPropertyOp4
 70
     1
102
RTVSPropertyOp5
 70
     1
102
RTVSPropertyOp6
 70
     1
102
RTVSPropertyOp7
 70
     1
102
RTVSPropertyOp8
 70
     1
102
RTVSPropertyOp9
 70
     1
102
RTVSPropertyOp10
 70
     1
102
RTVSPropertyOp11
 70
     1
102
RTVSPropertyOp12
 70
     1
102
RTVSPropertyOp13
 70
     1
102
RTVSPropertyOp14
 70
     1
102
RTVSPropertyOp15
 70
     1
102
RTVSPropertyOp16
 70
     1
102
RTVSPropertyOp17
 70
     1
102
RTVSPropertyOp18
 70
     1
102
RTVSPropertyOp19
 70
     1
102
RTVSPropertyOp20
 70
     1
102
RTVSPropertyOp21
 70
     1
102
RTVSPropertyOp22
 70
     1
102
RTVSPropertyOp23
 70
     1
102
RTVSPropertyOp24
 70
     1
102
RTVSPropertyOp25
 70
     1
102
RTVSPropertyOp26
 70
     1
102
RTVSPropertyOp27
 70
     1
  0
XRECORD
  5
1F0
102
{ACAD_REACTORS
330
1EF
102
}
330
1EF
100
AcDbXrecord
280
     1
102
RTVSPropertyOp0
 70
     1
102
RTVSPropertyOp1
 70
     1
102
RTVSPropertyOp2
 70
     1
102
RTVSPropertyOp3
 70
     1
102
RTVSPropertyOp4
 70
     1
102
RTVSPropertyOp5
 70
     1
102
RTVSPropertyOp6
 70
     1
102
RTVSPropertyOp7
 70
     1
102
RTVSPropertyOp8
 70
     1
102
RTVSPropertyOp9
 70
     1
102
RTVSPropertyOp10
 70
     1
102
RTVSPropertyOp11
 70
     1
102
RTVSPropertyOp12
 70
     1
102
RTVSPropertyOp13
 70
     1
102
RTVSPropertyOp14
 70
     1
102
RTVSPropertyOp15
 70
     1
102
RTVSPropertyOp16
 70
     1
102
RTVSPropertyOp17
 70
     1
102
RTVSPropertyOp18
 70
     1
102
RTVSPropertyOp19
 70
     1
102
RTVSPropertyOp20
 70
     1
102
RTVSPropertyOp21
 70
     1
102
RTVSPropertyOp22
 70
     1
102
RTVSPropertyOp23
 70
     1
102
RTVSPropertyOp24
 70
     1
102
RTVSPropertyOp25
 70
     1
102
RTVSPropertyOp26
 70
     1
102
RTVSPropertyOp27
 70
     1
  0
XRECORD
  5
1F8
102
{ACAD_REACTORS
330
1F7
102
}
330
1F7
100
AcDbXrecord
280
     1
102
RTVSPropertyOp0
 70
     1
102
RTVSPropertyOp1
 70
     1
102
RTVSPropertyOp2
 70
     1
102
RTVSPropertyOp3
 70
     1
102
RTVSPropertyOp4
 70
     1
102
RTVSPropertyOp5
 70
     1
102
RTVSPropertyOp6
 70
     1
102
RTVSPropertyOp7
 70
     1
102
RTVSPropertyOp8
 70
     1
102
RTVSPropertyOp9
 70
     1
102
RTVSPropertyOp10
 70
     1
102
RTVSPropertyOp11
 70
     1
102
RTVSPropertyOp12
 70
     1
102
RTVSPropertyOp13
 70
     1
102
RTVSPropertyOp14
 70
     1
102
RTVSPropertyOp15
 70
     1
102
RTVSPropertyOp16
 70
     1
102
RTVSPropertyOp17
 70
     1
102
RTVSPropertyOp18
 70
     1
102
RTVSPropertyOp19
 70
     1
102
RTVSPropertyOp20
 70
     1
102
RTVSPropertyOp21
 70
     1
102
RTVSPropertyOp22
 70
     1
102
RTVSPropertyOp23
 70
     1
102
RTVSPropertyOp24
 70
     1
102
RTVSPropertyOp25
 70
     1
102
RTVSPropertyOp26
 70
     1
102
RTVSPropertyOp27
 70
     1
  0
XRECORD
  5
200
102
{ACAD_REACTORS
330
1FF
102
}
330
1FF
100
AcDbXrecord
280
     1
102
RTVSPropertyOp0
 70
     1
102
RTVSPropertyOp1
 70
     1
102
RTVSPropertyOp2
 70
     1
102
RTVSPropertyOp3
 70
     1
102
RTVSPropertyOp4
 70
     1
102
RTVSPropertyOp5
 70
     1
102
RTVSPropertyOp6
 70
     1
102
RTVSPropertyOp7
 70
     1
102
RTVSPropertyOp8
 70
     1
102
RTVSPropertyOp9
 70
     1
102
RTVSPropertyOp10
 70
     1
102
RTVSPropertyOp11
 70
     1
102
RTVSPropertyOp12
 70
     1
102
RTVSPropertyOp13
 70
     1
102
RTVSPropertyOp14
 70
     1
102
RTVSPropertyOp15
 70
     1
102
RTVSPropertyOp16
 70
     1
102
RTVSPropertyOp17
 70
     1
102
RTVSPropertyOp18
 70
     1
102
RTVSPropertyOp19
 70
     1
102
RTVSPropertyOp20
 70
     1
102
RTVSPropertyOp21
 70
     1
102
RTVSPropertyOp22
 70
     1
102
RTVSPropertyOp23
 70
     1
102
RTVSPropertyOp24
 70
     1
102
RTVSPropertyOp25
 70
     1
102
RTVSPropertyOp26
 70
     1
102
RTVSPropertyOp27
 70
     1
  0
XRECORD
  5
1F4
102
{ACAD_REACTORS
330
1F3
102
}
330
1F3
100
AcDbXrecord
280
     1
102
RTVSPropertyOp0
 70
     1
102
RTVSPropertyOp1
 70
     1
102
RTVSPropertyOp2
 70
     1
102
RTVSPropertyOp3
 70
     1
102
RTVSPropertyOp4
 70
     1
102
RTVSPropertyOp5
 70
     1
102
RTVSPropertyOp6
 70
     1
102
RTVSPropertyOp7
 70
     1
102
RTVSPropertyOp8
 70
     1
102
RTVSPropertyOp9
 70
     1
102
RTVSPropertyOp10
 70
     1
102
RTVSPropertyOp11
 70
     1
102
RTVSPropertyOp12
 70
     1
102
RTVSPropertyOp13
 70
     1
102
RTVSPropertyOp14
 70
     1
102
RTVSPropertyOp15
 70
     1
102
RTVSPropertyOp16
 70
     1
102
RTVSPropertyOp17
 70
     1
102
RTVSPropertyOp18
 70
     1
102
RTVSPropertyOp19
 70
     1
102
RTVSPropertyOp20
 70
     1
102
RTVSPropertyOp21
 70
     1
102
RTVSPropertyOp22
 70
     1
102
RTVSPropertyOp23
 70
     1
102
RTVSPropertyOp24
 70
     1
102
RTVSPropertyOp25
 70
     1
102
RTVSPropertyOp26
 70
     1
102
RTVSPropertyOp27
 70
     1
  0
XRECORD
  5
1F6
102
{ACAD_REACTORS
330
1F5
102
}
330
1F5
100
AcDbXrecord
280
     1
102
RTVSPropertyOp0
 70
     1
102
RTVSPropertyOp1
 70
     1
102
RTVSPropertyOp2
 70
     1
102
RTVSPropertyOp3
 70
     1
102
RTVSPropertyOp4
 70
     1
102
RTVSPropertyOp5
 70
     1
102
RTVSPropertyOp6
 70
     1
102
RTVSPropertyOp7
 70
     1
102
RTVSPropertyOp8
 70
     1
102
RTVSPropertyOp9
 70
     1
102
RTVSPropertyOp10
 70
     1
102
RTVSPropertyOp11
 70
     1
102
RTVSPropertyOp12
 70
     1
102
RTVSPropertyOp13
 70
     1
102
RTVSPropertyOp14
 70
     1
102
RTVSPropertyOp15
 70
     1
102
RTVSPropertyOp16
 70
     1
102
RTVSPropertyOp17
 70
     1
102
RTVSPropertyOp18
 70
     1
102
RTVSPropertyOp19
 70
     1
102
RTVSPropertyOp20
 70
     1
102
RTVSPropertyOp21
 70
     1
102
RTVSPropertyOp22
 70
     1
102
RTVSPropertyOp23
 70
     1
102
RTVSPropertyOp24
 70
     1
102
RTVSPropertyOp25
 70
     1
102
RTVSPropertyOp26
 70
     1
102
RTVSPropertyOp27
 70
     1
  0
XRECORD
  5
1FE
102
{ACAD_REACTORS
330
1FD
102
}
330
1FD
100
AcDbXrecord
280
     1
102
RTVSPropertyOp0
 70
     1
102
RTVSPropertyOp1
 70
     1
102
RTVSPropertyOp2
 70
     1
102
RTVSPropertyOp3
 70
     1
102
RTVSPropertyOp4
 70
     1
102
RTVSPropertyOp5
 70
     1
102
RTVSPropertyOp6
 70
     1
102
RTVSPropertyOp7
 70
     1
102
RTVSPropertyOp8
 70
     1
102
RTVSPropertyOp9
 70
     1
102
RTVSPropertyOp10
 70
     1
102
RTVSPropertyOp11
 70
     1
102
RTVSPropertyOp12
 70
     1
102
RTVSPropertyOp13
 70
     1
102
RTVSPropertyOp14
 70
     1
102
RTVSPropertyOp15
 70
     1
102
RTVSPropertyOp16
 70
     1
102
RTVSPropertyOp17
 70
     1
102
RTVSPropertyOp18
 70
     1
102
RTVSPropertyOp19
 70
     1
102
RTVSPropertyOp20
 70
     1
102
RTVSPropertyOp21
 70
     1
102
RTVSPropertyOp22
 70
     1
102
RTVSPropertyOp23
 70
     1
102
RTVSPropertyOp24
 70
     1
102
RTVSPropertyOp25
 70
     1
102
RTVSPropertyOp26
 70
     1
102
RTVSPropertyOp27
 70
     1
  0
XRECORD
  5
1E2
102
{ACAD_REACTORS
330
1E1
102
}
330
1E1
100
AcDbXrecord
280
     1
102
RTVSPropertyOp0
 70
     1
102
RTVSPropertyOp1
 70
     1
102
RTVSPropertyOp2
 70
     1
102
RTVSPropertyOp3
 70
     1
102
RTVSPropertyOp4
 70
     1
102
RTVSPropertyOp5
 70
     1
102
RTVSPropertyOp6
 70
     1
102
RTVSPropertyOp7
 70
     1
102
RTVSPropertyOp8
 70
     1
102
RTVSPropertyOp9
 70
     1
102
RTVSPropertyOp10
 70
     1
102
RTVSPropertyOp11
 70
     1
102
RTVSPropertyOp12
 70
     1
102
RTVSPropertyOp13
 70
     1
102
RTVSPropertyOp14
 70
     1
102
RTVSPropertyOp15
 70
     1
102
RTVSPropertyOp16
 70
     1
102
RTVSPropertyOp17
 70
     1
102
RTVSPropertyOp18
 70
     1
102
RTVSPropertyOp19
 70
     1
102
RTVSPropertyOp20
 70
     1
102
RTVSPropertyOp21
 70
     1
102
RTVSPropertyOp22
 70
     1
102
RTVSPropertyOp23
 70
     1
102
RTVSPropertyOp24
 70
     1
102
RTVSPropertyOp25
 70
     1
102
RTVSPropertyOp26
 70
     1
102
RTVSPropertyOp27
 70
     1
  0
XRECORD
  5
1E4
102
{ACAD_REACTORS
330
1E3
102
}
330
1E3
100
AcDbXrecord
280
     1
102
RTVSPropertyOp0
 70
     1
102
RTVSPropertyOp1
 70
     1
102
RTVSPropertyOp2
 70
     1
102
RTVSPropertyOp3
 70
     1
102
RTVSPropertyOp4
 70
     1
102
RTVSPropertyOp5
 70
     1
102
RTVSPropertyOp6
 70
     1
102
RTVSPropertyOp7
 70
     1
102
RTVSPropertyOp8
 70
     1
102
RTVSPropertyOp9
 70
     1
102
RTVSPropertyOp10
 70
     1
102
RTVSPropertyOp11
 70
     1
102
RTVSPropertyOp12
 70
     1
102
RTVSPropertyOp13
 70
     1
102
RTVSPropertyOp14
 70
     1
102
RTVSPropertyOp15
 70
     1
102
RTVSPropertyOp16
 70
     1
102
RTVSPropertyOp17
 70
     1
102
RTVSPropertyOp18
 70
     1
102
RTVSPropertyOp19
 70
     1
102
RTVSPropertyOp20
 70
     1
102
RTVSPropertyOp21
 70
     1
102
RTVSPropertyOp22
 70
     1
102
RTVSPropertyOp23
 70
     1
102
RTVSPropertyOp24
 70
     1
102
RTVSPropertyOp25
 70
     1
102
RTVSPropertyOp26
 70
     1
102
RTVSPropertyOp27
 70
     1
  0
XRECORD
  5
1E6
102
{ACAD_REACTORS
330
1E5
102
}
330
1E5
100
AcDbXrecord
280
     1
102
RTVSPropertyOp0
 70
     1
102
RTVSPropertyOp1
 70
     1
102
RTVSPropertyOp2
 70
     1
102
RTVSPropertyOp3
 70
     1
102
RTVSPropertyOp4
 70
     1
102
RTVSPropertyOp5
 70
     1
102
RTVSPropertyOp6
 70
     1
102
RTVSPropertyOp7
 70
     1
102
RTVSPropertyOp8
 70
     1
102
RTVSPropertyOp9
 70
     1
102
RTVSPropertyOp10
 70
     1
102
RTVSPropertyOp11
 70
     1
102
RTVSPropertyOp12
 70
     1
102
RTVSPropertyOp13
 70
     1
102
RTVSPropertyOp14
 70
     1
102
RTVSPropertyOp15
 70
     1
102
RTVSPropertyOp16
 70
     1
102
RTVSPropertyOp17
 70
     1
102
RTVSPropertyOp18
 70
     1
102
RTVSPropertyOp19
 70
     1
102
RTVSPropertyOp20
 70
     1
102
RTVSPropertyOp21
 70
     1
102
RTVSPropertyOp22
 70
     1
102
RTVSPropertyOp23
 70
     1
102
RTVSPropertyOp24
 70
     1
102
RTVSPropertyOp25
 70
     1
102
RTVSPropertyOp26
 70
     1
102
RTVSPropertyOp27
 70
     1
  0
XRECORD
  5
1E8
102
{ACAD_REACTORS
330
1E7
102
}
330
1E7
100
AcDbXrecord
280
     1
102
RTVSPropertyOp0
 70
     1
102
RTVSPropertyOp1
 70
     1
102
RTVSPropertyOp2
 70
     1
102
RTVSPropertyOp3
 70
     1
102
RTVSPropertyOp4
 70
     1
102
RTVSPropertyOp5
 70
     1
102
RTVSPropertyOp6
 70
     1
102
RTVSPropertyOp7
 70
     1
102
RTVSPropertyOp8
 70
     1
102
RTVSPropertyOp9
 70
     1
102
RTVSPropertyOp10
 70
     1
102
RTVSPropertyOp11
 70
     1
102
RTVSPropertyOp12
 70
     1
102
RTVSPropertyOp13
 70
     1
102
RTVSPropertyOp14
 70
     1
102
RTVSPropertyOp15
 70
     1
102
RTVSPropertyOp16
 70
     1
102
RTVSPropertyOp17
 70
     1
102
RTVSPropertyOp18
 70
     1
102
RTVSPropertyOp19
 70
     1
102
RTVSPropertyOp20
 70
     1
102
RTVSPropertyOp21
 70
     1
102
RTVSPropertyOp22
 70
     1
102
RTVSPropertyOp23
 70
     1
102
RTVSPropertyOp24
 70
     1
102
RTVSPropertyOp25
 70
     1
102
RTVSPropertyOp26
 70
     1
102
RTVSPropertyOp27
 70
     1
  0
XRECORD
  5
1FC
102
{ACAD_REACTORS
330
1FB
102
}
330
1FB
100
AcDbXrecord
280
     1
102
RTVSPropertyOp0
 70
     1
102
RTVSPropertyOp1
 70
     1
102
RTVSPropertyOp2
 70
     1
102
RTVSPropertyOp3
 70
     1
102
RTVSPropertyOp4
 70
     1
102
RTVSPropertyOp5
 70
     1
102
RTVSPropertyOp6
 70
     1
102
RTVSPropertyOp7
 70
     1
102
RTVSPropertyOp8
 70
     1
102
RTVSPropertyOp9
 70
     1
102
RTVSPropertyOp10
 70
     1
102
RTVSPropertyOp11
 70
     1
102
RTVSPropertyOp12
 70
     1
102
RTVSPropertyOp13
 70
     1
102
RTVSPropertyOp14
 70
     1
102
RTVSPropertyOp15
 70
     1
102
RTVSPropertyOp16
 70
     1
102
RTVSPropertyOp17
 70
     1
102
RTVSPropertyOp18
 70
     1
102
RTVSPropertyOp19
 70
     1
102
RTVSPropertyOp20
 70
     1
102
RTVSPropertyOp21
 70
     1
102
RTVSPropertyOp22
 70
     1
102
RTVSPropertyOp23
 70
     1
102
RTVSPropertyOp24
 70
     1
102
RTVSPropertyOp25
 70
     1
102
RTVSPropertyOp26
 70
     1
102
RTVSPropertyOp27
 70
     1
  0
XRECORD
  5
1F2
102
{ACAD_REACTORS
330
1F1
102
}
330
1F1
100
AcDbXrecord
280
     1
102
RTVSPropertyOp0
 70
     1
102
RTVSPropertyOp1
 70
     1
102
RTVSPropertyOp2
 70
     1
102
RTVSPropertyOp3
 70
     1
102
RTVSPropertyOp4
 70
     1
102
RTVSPropertyOp5
 70
     1
102
RTVSPropertyOp6
 70
     1
102
RTVSPropertyOp7
 70
     1
102
RTVSPropertyOp8
 70
     1
102
RTVSPropertyOp9
 70
     1
102
RTVSPropertyOp10
 70
     1
102
RTVSPropertyOp11
 70
     1
102
RTVSPropertyOp12
 70
     1
102
RTVSPropertyOp13
 70
     1
102
RTVSPropertyOp14
 70
     1
102
RTVSPropertyOp15
 70
     1
102
RTVSPropertyOp16
 70
     1
102
RTVSPropertyOp17
 70
     1
102
RTVSPropertyOp18
 70
     1
102
RTVSPropertyOp19
 70
     1
102
RTVSPropertyOp20
 70
     1
102
RTVSPropertyOp21
 70
     1
102
RTVSPropertyOp22
 70
     1
102
RTVSPropertyOp23
 70
     1
102
RTVSPropertyOp24
 70
     1
102
RTVSPropertyOp25
 70
     1
102
RTVSPropertyOp26
 70
     1
102
RTVSPropertyOp27
 70
     1
  0
XRECORD
  5
1FA
102
{ACAD_REACTORS
330
1F9
102
}
330
1F9
100
AcDbXrecord
280
     1
102
RTVSPropertyOp0
 70
     1
102
RTVSPropertyOp1
 70
     1
102
RTVSPropertyOp2
 70
     1
102
RTVSPropertyOp3
 70
     1
102
RTVSPropertyOp4
 70
     1
102
RTVSPropertyOp5
 70
     1
102
RTVSPropertyOp6
 70
     1
102
RTVSPropertyOp7
 70
     1
102
RTVSPropertyOp8
 70
     1
102
RTVSPropertyOp9
 70
     1
102
RTVSPropertyOp10
 70
     1
102
RTVSPropertyOp11
 70
     1
102
RTVSPropertyOp12
 70
     1
102
RTVSPropertyOp13
 70
     1
102
RTVSPropertyOp14
 70
     1
102
RTVSPropertyOp15
 70
     1
102
RTVSPropertyOp16
 70
     1
102
RTVSPropertyOp17
 70
     1
102
RTVSPropertyOp18
 70
     1
102
RTVSPropertyOp19
 70
     1
102
RTVSPropertyOp20
 70
     1
102
RTVSPropertyOp21
 70
     1
102
RTVSPropertyOp22
 70
     1
102
RTVSPropertyOp23
 70
     1
102
RTVSPropertyOp24
 70
     1
102
RTVSPropertyOp25
 70
     1
102
RTVSPropertyOp26
 70
     1
102
RTVSPropertyOp27
 70
     1
  0
ENDSEC
  0
EOF
