  0
SECTION
  2
HEADER
  9
$ACADVER
  1
AC1015
  9
$ACADMAINTVER
 70
     6
  9
$DWGCODEPAGE
  3
ANSI_932
  9
$INSBASE
 10
0.0
 20
0.0
 30
0.0
  9
$EXTMIN
 10
7.33683645785274
 20
-12.6
 30
0.0
  9
$EXTMAX
 10
104.4666160301713
 20
125.0
 30
0.0
  9
$LIMMIN
 10
0.0
 20
0.0
  9
$LIMMAX
 10
12.0
 20
9.0
  9
$ORTHOMODE
 70
     0
  9
$REGENMODE
 70
     1
  9
$FILLMODE
 70
     1
  9
$QTEXTMODE
 70
     0
  9
$MIRRTEXT
 70
     1
  9
$LTSCALE
 40
1.0
  9
$ATTMODE
 70
     1
  9
$TEXTSIZE
 40
0.2
  9
$TRACEWID
 40
0.05
  9
$TEXTSTYLE
  7
Standard
  9
$CLAYER
  8
0
  9
$CELTYPE
  6
ByLayer
  9
$CECOLOR
 62
   256
  9
$CELTSCALE
 40
1.0
  9
$DISPSILH
 70
     0
  9
$DIMSCALE
 40
1.0
  9
$DIMASZ
 40
0.18
  9
$DIMEXO
 40
0.0625
  9
$DIMDLI
 40
0.38
  9
$DIMRND
 40
0.0
  9
$DIMDLE
 40
0.0
  9
$DIMEXE
 40
0.18
  9
$DIMTP
 40
0.0
  9
$DIMTM
 40
0.0
  9
$DIMTXT
 40
0.18
  9
$DIMCEN
 40
0.09
  9
$DIMTSZ
 40
0.0
  9
$DIMTOL
 70
     0
  9
$DIMLIM
 70
     0
  9
$DIMTIH
 70
     1
  9
$DIMTOH
 70
     1
  9
$DIMSE1
 70
     0
  9
$DIMSE2
 70
     0
  9
$DIMTAD
 70
     0
  9
$DIMZIN
 70
     0
  9
$DIMBLK
  1

  9
$DIMASO
 70
     1
  9
$DIMSHO
 70
     1
  9
$DIMPOST
  1

  9
$DIMAPOST
  1

  9
$DIMALT
 70
     0
  9
$DIMALTD
 70
     2
  9
$DIMALTF
 40
25.4
  9
$DIMLFAC
 40
1.0
  9
$DIMTOFL
 70
     0
  9
$DIMTVP
 40
0.0
  9
$DIMTIX
 70
     0
  9
$DIMSOXD
 70
     0
  9
$DIMSAH
 70
     0
  9
$DIMBLK1
  1

  9
$DIMBLK2
  1

  9
$DIMSTYLE
  2
Standard
  9
$DIMCLRD
 70
     0
  9
$DIMCLRE
 70
     0
  9
$DIMCLRT
 70
     0
  9
$DIMTFAC
 40
1.0
  9
$DIMGAP
 40
0.09
  9
$DIMJUST
 70
     0
  9
$DIMSD1
 70
     0
  9
$DIMSD2
 70
     0
  9
$DIMTOLJ
 70
     1
  9
$DIMTZIN
 70
     0
  9
$DIMALTZ
 70
     0
  9
$DIMALTTZ
 70
     0
  9
$DIMUPT
 70
     0
  9
$DIMDEC
 70
     4
  9
$DIMTDEC
 70
     4
  9
$DIMALTU
 70
     2
  9
$DIMALTTD
 70
     2
  9
$DIMTXSTY
  7
Standard
  9
$DIMAUNIT
 70
     0
  9
$DIMADEC
 70
     0
  9
$DIMALTRND
 40
0.0
  9
$DIMAZIN
 70
     0
  9
$DIMDSEP
 70
    46
  9
$DIMATFIT
 70
     3
  9
$DIMFRAC
 70
     0
  9
$DIMLDRBLK
  1

  9
$DIMLUNIT
 70
     2
  9
$DIMLWD
 70
    -2
  9
$DIMLWE
 70
    -2
  9
$DIMTMOVE
 70
     0
  9
$LUNITS
 70
     2
  9
$LUPREC
 70
     4
  9
$SKETCHINC
 40
0.1
  9
$FILLETRAD
 40
0.5
  9
$AUNITS
 70
     0
  9
$AUPREC
 70
     0
  9
$MENU
  1
.
  9
$ELEVATION
 40
0.0
  9
$PELEVATION
 40
0.0
  9
$THICKNESS
 40
0.0
  9
$LIMCHECK
 70
     0
  9
$CHAMFERA
 40
0.5
  9
$CHAMFERB
 40
0.5
  9
$CHAMFERC
 40
1.0
  9
$CHAMFERD
 40
0.0
  9
$SKPOLY
 70
     0
  9
$TDCREATE
 40
2457624.467526343
  9
$TDUCREATE
 40
2457624.092526343
  9
$TDUPDATE
 40
2457624.467526354
  9
$TDUUPDATE
 40
2457624.092526354
  9
$TDINDWG
 40
0.0000000116
  9
$TDUSRTIMER
 40
0.0000000116
  9
$USRTIMER
 70
     1
  9
$ANGBASE
 50
0.0
  9
$ANGDIR
 70
     0
  9
$PDMODE
 70
     0
  9
$PDSIZE
 40
0.0
  9
$PLINEWID
 40
0.0
  9
$SPLFRAME
 70
     0
  9
$SPLINETYPE
 70
     6
  9
$SPLINESEGS
 70
     8
  9
$HANDSEED
  5
1A6
  9
$SURFTAB1
 70
     6
  9
$SURFTAB2
 70
     6
  9
$SURFTYPE
 70
     6
  9
$SURFU
 70
     6
  9
$SURFV
 70
     6
  9
$UCSBASE
  2

  9
$UCSNAME
  2

  9
$UCSORG
 10
0.0
 20
0.0
 30
0.0
  9
$UCSXDIR
 10
1.0
 20
0.0
 30
0.0
  9
$UCSYDIR
 10
0.0
 20
1.0
 30
0.0
  9
$UCSORTHOREF
  2

  9
$UCSORTHOVIEW
 70
     0
  9
$UCSORGTOP
 10
0.0
 20
0.0
 30
0.0
  9
$UCSORGBOTTOM
 10
0.0
 20
0.0
 30
0.0
  9
$UCSORGLEFT
 10
0.0
 20
0.0
 30
0.0
  9
$UCSORGRIGHT
 10
0.0
 20
0.0
 30
0.0
  9
$UCSORGFRONT
 10
0.0
 20
0.0
 30
0.0
  9
$UCSORGBACK
 10
0.0
 20
0.0
 30
0.0
  9
$PUCSBASE
  2

  9
$PUCSNAME
  2

  9
$PUCSORG
 10
0.0
 20
0.0
 30
0.0
  9
$PUCSXDIR
 10
1.0
 20
0.0
 30
0.0
  9
$PUCSYDIR
 10
0.0
 20
1.0
 30
0.0
  9
$PUCSORTHOREF
  2

  9
$PUCSORTHOVIEW
 70
     0
  9
$PUCSORGTOP
 10
0.0
 20
0.0
 30
0.0
  9
$PUCSORGBOTTOM
 10
0.0
 20
0.0
 30
0.0
  9
$PUCSORGLEFT
 10
0.0
 20
0.0
 30
0.0
  9
$PUCSORGRIGHT
 10
0.0
 20
0.0
 30
0.0
  9
$PUCSORGFRONT
 10
0.0
 20
0.0
 30
0.0
  9
$PUCSORGBACK
 10
0.0
 20
0.0
 30
0.0
  9
$USERI1
 70
     0
  9
$USERI2
 70
     0
  9
$USERI3
 70
     0
  9
$USERI4
 70
     0
  9
$USERI5
 70
     0
  9
$USERR1
 40
18.0
  9
$USERR2
 40
0.0
  9
$USERR3
 40
0.0
  9
$USERR4
 40
0.0
  9
$USERR5
 40
0.0
  9
$WORLDVIEW
 70
     1
  9
$SHADEDGE
 70
     3
  9
$SHADEDIF
 70
    70
  9
$TILEMODE
 70
     1
  9
$MAXACTVP
 70
    64
  9
$PINSBASE
 10
0.0
 20
0.0
 30
0.0
  9
$PLIMCHECK
 70
     0
  9
$PEXTMIN
 10
1.00000000000000E+20
 20
1.00000000000000E+20
 30
1.00000000000000E+20
  9
$PEXTMAX
 10
-1.00000000000000E+20
 20
-1.00000000000000E+20
 30
-1.00000000000000E+20
  9
$PLIMMIN
 10
0.0
 20
0.0
  9
$PLIMMAX
 10
12.0
 20
9.0
  9
$UNITMODE
 70
     0
  9
$VISRETAIN
 70
     1
  9
$PLINEGEN
 70
     0
  9
$PSLTSCALE
 70
     1
  9
$TREEDEPTH
 70
  3020
  9
$CMLSTYLE
  2
Standard
  9
$CMLJUST
 70
     0
  9
$CMLSCALE
 40
1.0
  9
$PROXYGRAPHICS
 70
     1
  9
$MEASUREMENT
 70
     1
  9
$CELWEIGHT
370
    -1
  9
$ENDCAPS
280
     0
  9
$JOINSTYLE
280
     0
  9
$LWDISPLAY
290
     0
  9
$INSUNITS
 70
     1
  9
$HYPERLINKBASE
  1

  9
$STYLESHEET
  1

  9
$XEDIT
290
     1
  9
$CEPSNTYPE
380
     0
  9
$PSTYLEMODE
290
     1
  9
$FINGERPRINTGUID
  2
{1B8895C2-8FE3-41E7-978F-5781144A8892}
  9
$VERSIONGUID
  2
{FAEB1C32-E019-11D5-929B-00C0DF256EC4}
  9
$EXTNAMES
290
     1
  9
$PSVPSCALE
 40
0.0
  9
$OLESTARTUP
290
     0
  0
ENDSEC
  0
SECTION
  2
CLASSES
  0
CLASS
  1
ACDBDICTIONARYWDFLT
  2
AcDbDictionaryWithDefault
  3
ObjectDBX Classes
 90
        0
280
     0
281
     0
  0
CLASS
  1
VISUALSTYLE
  2
AcDbVisualStyle
  3
ObjectDBX Classes
 90
     4095
280
     0
281
     0
  0
CLASS
  1
MATERIAL
  2
AcDbMaterial
  3
ObjectDBX Classes
 90
     1153
280
     0
281
     0
  0
CLASS
  1

  2
exOdDbCircle
  3

 90
        0
280
     0
281
     1
  0
CLASS
  1

  2
exOdDbSpline
  3

 90
        0
280
     0
281
     1
  0
CLASS
  1
DICTIONARYVAR
  2
AcDbDictionaryVar
  3
ObjectDBX Classes
 90
        0
280
     0
281
     0
  0
CLASS
  1
ACDBPLACEHOLDER
  2
AcDbPlaceHolder
  3
ObjectDBX Classes
 90
        0
280
     0
281
     0
  0
CLASS
  1
LAYOUT
  2
AcDbLayout
  3
ObjectDBX Classes
 90
        0
280
     0
281
     0
  0
ENDSEC
  0
SECTION
  2
TABLES
  0
TABLE
  2
VPORT
  5
8
330
0
100
AcDbSymbolTable
 70
     1
  0
VPORT
  5
29
330
8
100
AcDbSymbolTableRecord
100
AcDbViewportTableRecord
  2
*Active
 70
     0
 10
0.0
 20
0.0
 11
1.0
 21
1.0
 12
55.90172624401202
 22
56.2
 13
0.0
 23
0.0
 14
0.5
 24
0.5
 15
0.5
 25
0.5
 16
0.0
 26
0.0
 36
1.0
 17
0.0
 27
0.0
 37
0.0
 40
151.36
 41
1.60267857142857
 42
50.0
 43
0.0
 44
0.0
 50
0.0
 51
0.0
 71
     0
 72
   100
 73
     1
 74
     3
 75
     0
 76
     0
 77
     0
 78
     0
281
     0
 65
     1
110
0.0
120
0.0
130
0.0
111
1.0
121
0.0
131
0.0
112
0.0
122
1.0
132
0.0
 79
     0
146
0.0
  0
ENDTAB
  0
TABLE
  2
LTYPE
  5
5
330
0
100
AcDbSymbolTable
 70
     9
  0
LTYPE
  5
14
330
5
100
AcDbSymbolTableRecord
100
AcDbLinetypeTableRecord
  2
ByBlock
 70
     0
  3

 72
    65
 73
     0
 40
0.0
  0
LTYPE
  5
15
330
5
100
AcDbSymbolTableRecord
100
AcDbLinetypeTableRecord
  2
ByLayer
 70
     0
  3

 72
    65
 73
     0
 40
0.0
  0
LTYPE
  5
16
330
5
100
AcDbSymbolTableRecord
100
AcDbLinetypeTableRecord
  2
Continuous
 70
     0
  3
Solid line
 72
    65
 73
     0
 40
0.0
  0
LTYPE
  5
3F
330
5
100
AcDbSymbolTableRecord
100
AcDbLinetypeTableRecord
  2
DASHED
 70
     0
  3
Dashed
 72
    65
 73
     2
 40
15.0
 49
7.0
 74
     0
 49
-8.0
 74
     0
  0
LTYPE
  5
40
330
5
100
AcDbSymbolTableRecord
100
AcDbLinetypeTableRecord
  2
DOTTED
 70
     0
  3
Dotted
 72
    65
 73
     2
 40
1.0
 49
0.0
 74
     0
 49
-1.0
 74
     0
  0
LTYPE
  5
41
330
5
100
AcDbSymbolTableRecord
100
AcDbLinetypeTableRecord
  2
DOT_CENTER
 70
     0
  3
Dot_Center
 72
    65
 73
     4
 40
14.0
 49
12.0
 74
     0
 49
-1.0
 74
     0
 49
0.0
 74
     0
 49
-1.0
 74
     0
  0
LTYPE
  5
42
330
5
100
AcDbSymbolTableRecord
100
AcDbLinetypeTableRecord
  2
LONG_DASHED
 70
     0
  3
Long_Dashed
 72
    65
 73
     2
 40
15.0
 49
10.0
 74
     0
 49
-5.0
 74
     0
  0
LTYPE
  5
43
330
5
100
AcDbSymbolTableRecord
100
AcDbLinetypeTableRecord
  2
DASH_CENTER
 70
     0
  3
Dash_Center
 72
    65
 73
     4
 40
14.0
 49
11.0
 74
     0
 49
-1.0
 74
     0
 49
1.0
 74
     0
 49
-1.0
 74
     0
  0
LTYPE
  5
44
330
5
100
AcDbSymbolTableRecord
100
AcDbLinetypeTableRecord
  2
PHANTOM
 70
     0
  3
Phantom
 72
    65
 73
     6
 40
13.0
 49
10.0
 74
     0
 49
-1.0
 74
     0
 49
0.0
 74
     0
 49
-1.0
 74
     0
 49
0.0
 74
     0
 49
-1.0
 74
     0
  0
LTYPE
  5
45
330
5
100
AcDbSymbolTableRecord
100
AcDbLinetypeTableRecord
  2
CENTER_DASH_DASH
 70
     0
  3
Center_Dash_Dash
 72
    65
 73
     6
 40
14.0
 49
9.0
 74
     0
 49
-1.0
 74
     0
 49
1.0
 74
     0
 49
-1.0
 74
     0
 49
1.0
 74
     0
 49
-1.0
 74
     0
  0
LTYPE
  5
46
330
5
100
AcDbSymbolTableRecord
100
AcDbLinetypeTableRecord
  2
CENTER
 70
     0
  3
CENTER
 72
    65
 73
     4
 40
6.0
 49
3.0
 74
     0
 49
-1.0
 74
     0
 49
1.0
 74
     0
 49
-1.0
 74
     0
  0
ENDTAB
  0
TABLE
  2
LAYER
  5
2
330
0
100
AcDbSymbolTable
 70
     3
  0
LAYER
  5
10
330
2
100
AcDbSymbolTableRecord
100
AcDbLayerTableRecord
  2
0
 70
     0
 62
     7
  6
Continuous
370
    -3
390
F
  0
LAYER
  5
47
330
2
100
AcDbSymbolTableRecord
100
AcDbLayerTableRecord
  2
1
 70
     0
 62
     7
  6
Continuous
370
    -3
390
F
  0
LAYER
  5
48
330
2
100
AcDbSymbolTableRecord
100
AcDbLayerTableRecord
  2
100
 70
     0
 62
     7
  6
Continuous
370
    -3
390
F
  0
ENDTAB
  0
TABLE
  2
STYLE
  5
3
330
0
100
AcDbSymbolTable
 70
     1
  0
STYLE
  5
11
330
3
100
AcDbSymbolTableRecord
100
AcDbTextStyleTableRecord
  2
Standard
 70
     0
 40
0.0
 41
1.0
 50
0.0
 71
     0
 42
0.2
  3
txt
  4

  0
ENDTAB
  0
TABLE
  2
VIEW
  5
6
330
0
100
AcDbSymbolTable
 70
     0
  0
ENDTAB
  0
TABLE
  2
UCS
  5
7
330
0
100
AcDbSymbolTable
 70
     0
  0
ENDTAB
  0
TABLE
  2
APPID
  5
9
330
0
100
AcDbSymbolTable
 70
     1
  0
APPID
  5
12
330
9
100
AcDbSymbolTableRecord
100
AcDbRegAppTableRecord
  2
ACAD
 70
     0
  0
ENDTAB
  0
TABLE
  2
DIMSTYLE
  5
A
330
0
100
AcDbSymbolTable
 70
     1
100
AcDbDimStyleTable
  0
DIMSTYLE
105
27
330
A
100
AcDbSymbolTableRecord
100
AcDbDimStyleTableRecord
  2
Standard
 70
     0
340
11
  0
ENDTAB
  0
TABLE
  2
BLOCK_RECORD
  5
1
330
0
100
AcDbSymbolTable
 70
     1
  0
BLOCK_RECORD
  5
1F
330
1
100
AcDbSymbolTableRecord
100
AcDbBlockTableRecord
  2
*Model_Space
340
22
  0
BLOCK_RECORD
  5
1B
330
1
100
AcDbSymbolTableRecord
100
AcDbBlockTableRecord
  2
*Paper_Space
340
1E
  0
BLOCK_RECORD
  5
23
330
1
100
AcDbSymbolTableRecord
100
AcDbBlockTableRecord
  2
*Paper_Space0
340
26
  0
ENDTAB
  0
ENDSEC
  0
SECTION
  2
BLOCKS
  0
BLOCK
  5
20
330
1F
100
AcDbEntity
  8
0
100
AcDbBlockBegin
  2
*Model_Space
 70
     0
 10
0.0
 20
0.0
 30
0.0
  3
*Model_Space
  1

  0
ENDBLK
  5
21
330
1F
100
AcDbEntity
  8
0
100
AcDbBlockEnd
  0
BLOCK
  5
1C
330
1B
100
AcDbEntity
 67
     1
  8
0
100
AcDbBlockBegin
  2
*Paper_Space
 70
     0
 10
0.0
 20
0.0
 30
0.0
  3
*Paper_Space
  1

  0
ENDBLK
  5
1D
330
1B
100
AcDbEntity
 67
     1
  8
0
100
AcDbBlockEnd
  0
BLOCK
  5
24
330
23
100
AcDbEntity
  8
0
100
AcDbBlockBegin
  2
*Paper_Space0
 70
     0
 10
0.0
 20
0.0
 30
0.0
  3
*Paper_Space0
  1

  0
ENDBLK
  5
25
330
23
100
AcDbEntity
  8
0
100
AcDbBlockEnd
  0
ENDSEC
  0
SECTION
  2
ENTITIES
  0
LINE
  5
49
330
1F
100
AcDbEntity
  8
1
  6
Continuous
 62
     4
100
AcDbLine
 10
103.3416160301713
 20
88.47825960376281
 30
0.0
 11
101.4666160301713
 21
88.47825960376281
 31
0.0
  0
LINE
  5
4A
330
1F
100
AcDbEntity
  8
1
  6
Continuous
 62
     4
100
AcDbLine
 10
103.7166160301713
 20
88.60325960376281
 30
0.0
 11
103.3416160301713
 21
88.47825960376281
 31
0.0
  0
LINE
  5
4B
330
1F
100
AcDbEntity
  8
1
  6
Continuous
 62
     4
100
AcDbLine
 10
104.0916160301713
 20
88.85325960376281
 30
0.0
 11
103.7166160301713
 21
88.60325960376281
 31
0.0
  0
LINE
  5
4C
330
1F
100
AcDbEntity
  8
1
  6
Continuous
 62
     4
100
AcDbLine
 10
104.3416160301713
 20
89.22825960376281
 30
0.0
 11
104.0916160301713
 21
88.85325960376281
 31
0.0
  0
LINE
  5
4D
330
1F
100
AcDbEntity
  8
1
  6
Continuous
 62
     4
100
AcDbLine
 10
104.4666160301713
 20
89.72825960376281
 30
0.0
 11
104.3416160301713
 21
89.22825960376281
 31
0.0
  0
LINE
  5
4E
330
1F
100
AcDbEntity
  8
1
  6
Continuous
 62
     4
100
AcDbLine
 10
104.4666160301713
 20
90.35325960376281
 30
0.0
 11
104.4666160301713
 21
89.72825960376281
 31
0.0
  0
LINE
  5
4F
330
1F
100
AcDbEntity
  8
1
  6
Continuous
 62
     4
100
AcDbLine
 10
104.3416160301713
 20
90.85325960376281
 30
0.0
 11
104.4666160301713
 21
90.35325960376281
 31
0.0
  0
LINE
  5
50
330
1F
100
AcDbEntity
  8
1
  6
Continuous
 62
     4
100
AcDbLine
 10
104.2166160301713
 20
91.10325960376281
 30
0.0
 11
104.3416160301713
 21
90.85325960376281
 31
0.0
  0
LINE
  5
51
330
1F
100
AcDbEntity
  8
1
  6
Continuous
 62
     4
100
AcDbLine
 10
103.9666160301713
 20
91.35325960376281
 30
0.0
 11
104.2166160301713
 21
91.10325960376281
 31
0.0
  0
LINE
  5
52
330
1F
100
AcDbEntity
  8
1
  6
Continuous
 62
     4
100
AcDbLine
 10
103.4666160301713
 20
91.47825960376281
 30
0.0
 11
103.9666160301713
 21
91.35325960376281
 31
0.0
  0
LINE
  5
53
330
1F
100
AcDbEntity
  8
1
  6
Continuous
 62
     4
100
AcDbLine
 10
103.8416160301713
 20
91.60325960376281
 30
0.0
 11
103.4666160301713
 21
91.47825960376281
 31
0.0
  0
LINE
  5
54
330
1F
100
AcDbEntity
  8
1
  6
Continuous
 62
     4
100
AcDbLine
 10
104.0916160301713
 20
91.72825960376281
 30
0.0
 11
103.8416160301713
 21
91.60325960376281
 31
0.0
  0
LINE
  5
55
330
1F
100
AcDbEntity
  8
1
  6
Continuous
 62
     4
100
AcDbLine
 10
104.3416160301713
 20
91.97825960376281
 30
0.0
 11
104.0916160301713
 21
91.72825960376281
 31
0.0
  0
LINE
  5
56
330
1F
100
AcDbEntity
  8
1
  6
Continuous
 62
     4
100
AcDbLine
 10
104.4666160301713
 20
92.35325960376281
 30
0.0
 11
104.3416160301713
 21
91.97825960376281
 31
0.0
  0
LINE
  5
57
330
1F
100
AcDbEntity
  8
1
  6
Continuous
 62
     4
100
AcDbLine
 10
104.4666160301713
 20
92.72825960376281
 30
0.0
 11
104.4666160301713
 21
92.35325960376281
 31
0.0
  0
LINE
  5
58
330
1F
100
AcDbEntity
  8
1
  6
Continuous
 62
     4
100
AcDbLine
 10
104.3416160301713
 20
93.10325960376281
 30
0.0
 11
104.4666160301713
 21
92.72825960376281
 31
0.0
  0
LINE
  5
59
330
1F
100
AcDbEntity
  8
1
  6
Continuous
 62
     4
100
AcDbLine
 10
103.9666160301713
 20
93.35325960376281
 30
0.0
 11
104.3416160301713
 21
93.10325960376281
 31
0.0
  0
LINE
  5
5A
330
1F
100
AcDbEntity
  8
1
  6
Continuous
 62
     4
100
AcDbLine
 10
103.3416160301713
 20
93.47825960376281
 30
0.0
 11
103.9666160301713
 21
93.35325960376281
 31
0.0
  0
LINE
  5
5B
330
1F
100
AcDbEntity
  8
1
  6
Continuous
 62
     4
100
AcDbLine
 10
101.4666160301713
 20
93.47825960376281
 30
0.0
 11
103.3416160301713
 21
93.47825960376281
 31
0.0
  0
LINE
  5
5C
330
1F
100
AcDbEntity
  8
1
  6
Continuous
 62
     4
100
AcDbLine
 10
102.2166160301713
 20
91.47825960376281
 30
0.0
 11
103.4666160301713
 21
91.47825960376281
 31
0.0
  0
LINE
  5
5D
330
1F
100
AcDbEntity
  8
1
  6
Continuous
 62
     4
100
AcDbLine
 10
97.46661603017128
 20
90.22825960376281
 30
0.0
 11
99.96661603017128
 21
90.22825960376281
 31
0.0
  0
LINE
  5
5E
330
1F
100
AcDbEntity
  8
1
  6
Continuous
 62
     4
100
AcDbLine
 10
92.46661603017128
 20
91.22825960376281
 30
0.0
 11
92.46661603017128
 21
88.47825960376281
 31
0.0
  0
LINE
  5
5F
330
1F
100
AcDbEntity
  8
1
  6
Continuous
 62
     4
100
AcDbLine
 10
92.46661603017128
 20
93.47825960376281
 30
0.0
 11
92.46661603017128
 21
91.22825960376281
 31
0.0
  0
LINE
  5
60
330
1F
100
AcDbEntity
  8
1
  6
Continuous
 62
     4
100
AcDbLine
 10
95.96661603017128
 20
93.47825960376281
 30
0.0
 11
92.46661603017128
 21
93.47825960376281
 31
0.0
  0
LINE
  5
61
330
1F
100
AcDbEntity
  8
1
  6
Continuous
 62
     4
100
AcDbLine
 10
92.46661603017128
 20
91.22825960376281
 30
0.0
 11
95.96661603017128
 21
91.22825960376281
 31
0.0
  0
LINE
  5
62
330
1F
100
AcDbEntity
  8
1
  6
Continuous
 62
     4
100
AcDbLine
 10
87.46661603017128
 20
89.97825960376281
 30
0.0
 11
87.46661603017128
 21
93.47825960376281
 31
0.0
  0
LINE
  5
63
330
1F
100
AcDbEntity
  8
1
  6
Continuous
 62
     4
100
AcDbLine
 10
87.59161603017128
 20
89.47825960376281
 30
0.0
 11
87.46661603017128
 21
89.97825960376281
 31
0.0
  0
LINE
  5
64
330
1F
100
AcDbEntity
  8
1
  6
Continuous
 62
     4
100
AcDbLine
 10
87.84161603017128
 20
89.10325960376281
 30
0.0
 11
87.59161603017128
 21
89.47825960376281
 31
0.0
  0
LINE
  5
65
330
1F
100
AcDbEntity
  8
1
  6
Continuous
 62
     4
100
AcDbLine
 10
88.09161603017128
 20
88.85325960376281
 30
0.0
 11
87.84161603017128
 21
89.10325960376281
 31
0.0
  0
LINE
  5
66
330
1F
100
AcDbEntity
  8
1
  6
Continuous
 62
     4
100
AcDbLine
 10
88.46661603017128
 20
88.60325960376281
 30
0.0
 11
88.09161603017128
 21
88.85325960376281
 31
0.0
  0
LINE
  5
67
330
1F
100
AcDbEntity
  8
1
  6
Continuous
 62
     4
100
AcDbLine
 10
88.84161603017128
 20
88.47825960376281
 30
0.0
 11
88.46661603017128
 21
88.60325960376281
 31
0.0
  0
LINE
  5
68
330
1F
100
AcDbEntity
  8
1
  6
Continuous
 62
     4
100
AcDbLine
 10
89.59161603017128
 20
88.47825960376281
 30
0.0
 11
88.84161603017128
 21
88.47825960376281
 31
0.0
  0
LINE
  5
69
330
1F
100
AcDbEntity
  8
1
  6
Continuous
 62
     4
100
AcDbLine
 10
89.96661603017128
 20
88.60325960376281
 30
0.0
 11
89.59161603017128
 21
88.47825960376281
 31
0.0
  0
LINE
  5
6A
330
1F
100
AcDbEntity
  8
1
  6
Continuous
 62
     4
100
AcDbLine
 10
90.34161603017128
 20
88.85325960376281
 30
0.0
 11
89.96661603017128
 21
88.60325960376281
 31
0.0
  0
LINE
  5
6B
330
1F
100
AcDbEntity
  8
1
  6
Continuous
 62
     4
100
AcDbLine
 10
90.59161603017128
 20
89.10325960376281
 30
0.0
 11
90.34161603017128
 21
88.85325960376281
 31
0.0
  0
LINE
  5
6C
330
1F
100
AcDbEntity
  8
1
  6
Continuous
 62
     4
100
AcDbLine
 10
90.84161603017128
 20
89.47825960376281
 30
0.0
 11
90.59161603017128
 21
89.10325960376281
 31
0.0
  0
LINE
  5
6D
330
1F
100
AcDbEntity
  8
1
  6
Continuous
 62
     4
100
AcDbLine
 10
90.96661603017128
 20
89.97825960376281
 30
0.0
 11
90.84161603017128
 21
89.47825960376281
 31
0.0
  0
LINE
  5
6E
330
1F
100
AcDbEntity
  8
1
  6
Continuous
 62
     4
100
AcDbLine
 10
90.96661603017128
 20
93.47825960376281
 30
0.0
 11
90.96661603017128
 21
89.97825960376281
 31
0.0
  0
LINE
  5
6F
330
1F
100
AcDbEntity
  8
1
  6
Continuous
 62
     4
100
AcDbLine
 10
83.46661603017128
 20
90.22825960376281
 30
0.0
 11
85.96661603017128
 21
90.22825960376281
 31
0.0
  0
LINE
  5
70
330
1F
100
AcDbEntity
  8
1
  6
Continuous
 62
     4
100
AcDbLine
 10
81.96661603017128
 20
88.47825960376281
 30
0.0
 11
81.96661603017128
 21
93.47825960376281
 31
0.0
  0
LINE
  5
71
330
1F
100
AcDbEntity
  8
1
  6
Continuous
 62
     4
100
AcDbLine
 10
77.96661603017128
 20
90.22825960376281
 30
0.0
 11
80.46661603017128
 21
90.22825960376281
 31
0.0
  0
LINE
  5
72
330
1F
100
AcDbEntity
  8
1
  6
Continuous
 62
     4
100
AcDbLine
 10
74.84161603017128
 20
93.47825960376281
 30
0.0
 11
76.46661603017128
 21
93.47825960376281
 31
0.0
  0
LINE
  5
73
330
1F
100
AcDbEntity
  8
1
  6
Continuous
 62
     4
100
AcDbLine
 10
74.34161603017128
 20
93.35325960376281
 30
0.0
 11
74.84161603017128
 21
93.47825960376281
 31
0.0
  0
LINE
  5
74
330
1F
100
AcDbEntity
  8
1
  6
Continuous
 62
     4
100
AcDbLine
 10
73.96661603017128
 20
93.10325960376281
 30
0.0
 11
74.34161603017128
 21
93.35325960376281
 31
0.0
  0
LINE
  5
75
330
1F
100
AcDbEntity
  8
1
  6
Continuous
 62
     4
100
AcDbLine
 10
73.71661603017128
 20
92.85325960376281
 30
0.0
 11
73.96661603017128
 21
93.10325960376281
 31
0.0
  0
LINE
  5
76
330
1F
100
AcDbEntity
  8
1
  6
Continuous
 62
     4
100
AcDbLine
 10
73.59161603017128
 20
92.47825960376281
 30
0.0
 11
73.71661603017128
 21
92.85325960376281
 31
0.0
  0
LINE
  5
77
330
1F
100
AcDbEntity
  8
1
  6
Continuous
 62
     4
100
AcDbLine
 10
73.46661603017128
 20
91.97825960376281
 30
0.0
 11
73.59161603017128
 21
92.47825960376281
 31
0.0
  0
LINE
  5
78
330
1F
100
AcDbEntity
  8
1
  6
Continuous
 62
     4
100
AcDbLine
 10
73.46661603017128
 20
89.97825960376281
 30
0.0
 11
73.46661603017128
 21
91.97825960376281
 31
0.0
  0
LINE
  5
79
330
1F
100
AcDbEntity
  8
1
  6
Continuous
 62
     4
100
AcDbLine
 10
73.59161603017128
 20
89.47825960376281
 30
0.0
 11
73.46661603017128
 21
89.97825960376281
 31
0.0
  0
LINE
  5
7A
330
1F
100
AcDbEntity
  8
1
  6
Continuous
 62
     4
100
AcDbLine
 10
73.71661603017128
 20
89.10325960376281
 30
0.0
 11
73.59161603017128
 21
89.47825960376281
 31
0.0
  0
LINE
  5
7B
330
1F
100
AcDbEntity
  8
1
  6
Continuous
 62
     4
100
AcDbLine
 10
73.96661603017128
 20
88.85325960376281
 30
0.0
 11
73.71661603017128
 21
89.10325960376281
 31
0.0
  0
LINE
  5
7C
330
1F
100
AcDbEntity
  8
1
  6
Continuous
 62
     4
100
AcDbLine
 10
74.34161603017128
 20
88.60325960376281
 30
0.0
 11
73.96661603017128
 21
88.85325960376281
 31
0.0
  0
LINE
  5
7D
330
1F
100
AcDbEntity
  8
1
  6
Continuous
 62
     4
100
AcDbLine
 10
74.84161603017128
 20
88.47825960376281
 30
0.0
 11
74.34161603017128
 21
88.60325960376281
 31
0.0
  0
LINE
  5
7E
330
1F
100
AcDbEntity
  8
1
  6
Continuous
 62
     4
100
AcDbLine
 10
76.46661603017128
 20
88.47825960376281
 30
0.0
 11
74.84161603017128
 21
88.47825960376281
 31
0.0
  0
LINE
  5
7F
330
1F
100
AcDbEntity
  8
1
  6
Continuous
 62
     4
100
AcDbLine
 10
69.46661603017128
 20
90.22825960376281
 30
0.0
 11
71.96661603017128
 21
90.22825960376281
 31
0.0
  0
LINE
  5
80
330
1F
100
AcDbEntity
  8
1
  6
Continuous
 62
     4
100
AcDbLine
 10
66.21661603017128
 20
88.47825960376281
 30
0.0
 11
67.96661603017128
 21
93.47825960376281
 31
0.0
  0
LINE
  5
81
330
1F
100
AcDbEntity
  8
1
  6
Continuous
 62
     4
100
AcDbLine
 10
64.46661603017128
 20
93.47825960376281
 30
0.0
 11
66.21661603017128
 21
88.47825960376281
 31
0.0
  0
LINE
  5
82
330
1F
100
AcDbEntity
  8
1
  6
Continuous
 62
     4
100
AcDbLine
 10
41.9
 20
30.9549128234663
 30
0.0
 11
44.1201417956993
 21
32.0704933004389
 31
0.0
  0
LINE
  5
83
330
1F
100
AcDbEntity
  8
1
  6
Continuous
 62
     4
100
AcDbLine
 10
41.9
 20
30.9549128234663
 30
0.0
 11
43.2649089565929
 21
33.0311047543401
 31
0.0
  0
LINE
  5
84
330
1F
100
AcDbEntity
  8
0
  6
DOTTED
 62
     6
100
AcDbLine
 10
9.57162641085705
 20
77.0
 30
0.0
 11
9.57162641085705
 21
125.0
 31
0.0
  0
LINE
  5
85
330
1F
100
AcDbEntity
  8
0
  6
DOTTED
 62
     6
100
AcDbLine
 10
12.1940982392217
 20
78.5430712064641
 30
0.0
 11
12.1940982392217
 21
101.0
 31
0.0
  0
LINE
  5
86
330
1F
100
AcDbEntity
  8
0
  6
DOTTED
 62
     6
100
AcDbLine
 10
16.3368364578527
 20
101.0
 30
0.0
 11
16.3368364578527
 21
111.0
 31
0.0
  0
LINE
  5
87
330
1F
100
AcDbEntity
  8
0
  6
DOTTED
 62
     6
100
AcDbLine
 10
27.7055709593312
 20
87.8024043049078
 30
0.0
 11
24.7395195053604
 21
90.8487978475461
 31
0.0
  0
LINE
  5
88
330
1F
100
AcDbEntity
  8
0
  6
DOTTED
 62
     6
100
AcDbLine
 10
24.7395195053604
 20
90.8487978475461
 30
0.0
 11
23.6856088977378
 21
91.9312559638008
 31
0.0
  0
LINE
  5
89
330
1F
100
AcDbEntity
  8
0
  6
DOTTED
 62
     6
100
AcDbLine
 10
16.3368364578527
 20
91.0
 30
0.0
 11
24.3812736937349
 21
91.0
 31
0.0
  0
LINE
  5
8A
330
1F
100
AcDbEntity
  8
0
  6
DOTTED
 62
     6
100
AcDbLine
 10
16.3368364578527
 20
86.7773780845922
 30
0.0
 11
16.3368364578527
 21
91.0
 31
0.0
  0
LINE
  5
8B
330
1F
100
AcDbEntity
  8
0
  6
DOTTED
 62
     6
100
AcDbLine
 10
16.3368364578527
 20
91.0
 30
0.0
 11
16.3368364578527
 21
101.0
 31
0.0
  0
LINE
  5
8C
330
1F
100
AcDbEntity
  8
0
  6
DOTTED
 62
     6
100
AcDbLine
 10
15.9593082862174
 20
85.3204492910563
 30
0.0
 11
15.9593082862174
 21
101.0
 31
0.0
  0
LINE
  5
8D
330
1F
100
AcDbEntity
  8
0
  6
DOTTED
 62
     6
100
AcDbLine
 10
28.4220625825821
 20
87.5
 30
0.0
 11
37.5779374174178
 21
87.5
 31
0.0
  0
LINE
  5
8E
330
1F
100
AcDbEntity
  8
0
  6
DOTTED
 62
     6
100
AcDbLine
 10
37.5779374174178
 20
87.5
 30
0.0
 11
52.0
 21
87.5
 31
0.0
  0
LINE
  5
8F
330
1F
100
AcDbEntity
  8
0
  6
DOTTED
 62
     6
100
AcDbLine
 10
7.33683645785274
 20
125.0
 30
0.0
 11
7.33683645785274
 21
77.0
 31
0.0
  0
LINE
  5
90
330
1F
100
AcDbEntity
  8
0
  6
DOTTED
 62
     6
100
AcDbLine
 10
12.1940982392217
 20
123.456928793536
 30
0.0
 11
15.9593082862174
 21
116.679550708944
 31
0.0
  0
LINE
  5
91
330
1F
100
AcDbEntity
  8
0
  6
DOTTED
 62
     6
100
AcDbLine
 10
12.1940982392217
 20
101.0
 30
0.0
 11
12.1940982392217
 21
123.456928793536
 31
0.0
  0
LINE
  5
92
330
1F
100
AcDbEntity
  8
0
  6
DOTTED
 62
     6
100
AcDbLine
 10
7.33683645785274
 20
125.0
 30
0.0
 11
9.57162641085705
 21
125.0
 31
0.0
  0
LINE
  5
93
330
1F
100
AcDbEntity
  8
0
  6
DOTTED
 62
     6
100
AcDbLine
 10
28.4220625825821
 20
114.5
 30
0.0
 11
37.5779374174178
 21
114.5
 31
0.0
  0
LINE
  5
94
330
1F
100
AcDbEntity
  8
0
  6
DOTTED
 62
     6
100
AcDbLine
 10
24.7395195053604
 20
111.151202152454
 30
0.0
 11
27.7055709593312
 21
114.197595695092
 31
0.0
  0
LINE
  5
95
330
1F
100
AcDbEntity
  8
0
  6
DOTTED
 62
     6
100
AcDbLine
 10
23.6856088977378
 20
110.068744036199
 30
0.0
 11
24.7395195053604
 21
111.151202152454
 31
0.0
  0
LINE
  5
96
330
1F
100
AcDbEntity
  8
0
  6
DOTTED
 62
     6
100
AcDbLine
 10
16.3368364578527
 20
111.0
 30
0.0
 11
24.3812736937349
 21
111.0
 31
0.0
  0
LINE
  5
97
330
1F
100
AcDbEntity
  8
0
  6
DOTTED
 62
     6
100
AcDbLine
 10
16.3368364578527
 20
111.0
 30
0.0
 11
16.3368364578527
 21
115.222621915408
 31
0.0
  0
LINE
  5
98
330
1F
100
AcDbEntity
  8
0
  6
DOTTED
 62
     6
100
AcDbLine
 10
15.9593082862174
 20
101.0
 30
0.0
 11
15.9593082862174
 21
116.679550708944
 31
0.0
  0
LINE
  5
99
330
1F
100
AcDbEntity
  8
0
  6
DOTTED
 62
     6
100
AcDbLine
 10
12.1940982392217
 20
78.5430712064641
 30
0.0
 11
15.9593082862174
 21
85.3204492910563
 31
0.0
  0
LINE
  5
9A
330
1F
100
AcDbEntity
  8
0
  6
DOTTED
 62
     6
100
AcDbLine
 10
7.33683645785274
 20
77.0
 30
0.0
 11
9.57162641085705
 21
77.0
 31
0.0
  0
LINE
  5
9B
330
1F
100
AcDbEntity
  8
0
  6
DOTTED
 62
     6
100
AcDbLine
 10
37.5779374174178
 20
114.5
 30
0.0
 11
52.0
 21
114.5
 31
0.0
  0
LINE
  5
9C
330
1F
100
AcDbEntity
  8
0
  6
DOTTED
 62
     6
100
AcDbLine
 10
16.3368364578527
 20
1.40000000000002
 30
0.0
 11
16.3368364578527
 21
21.4
 31
0.0
  0
LINE
  5
9D
330
1F
100
AcDbEntity
  8
0
  6
DOTTED
 62
     6
100
AcDbLine
 10
16.3368364578527
 20
21.4
 30
0.0
 11
16.3368364578527
 21
25.6226219154078
 31
0.0
  0
LINE
  5
9E
330
1F
100
AcDbEntity
  8
0
  6
DOTTED
 62
     6
100
AcDbLine
 10
16.3368364578527
 20
-2.82262191540777
 30
0.0
 11
16.3368364578527
 21
1.40000000000002
 31
0.0
  0
LINE
  5
9F
330
1F
100
AcDbEntity
  8
0
  6
DOTTED
 62
     6
100
AcDbLine
 10
16.3368364578527
 20
21.4
 30
0.0
 11
19.5000000000939
 21
21.4
 31
0.0
  0
LINE
  5
A0
330
1F
100
AcDbEntity
  8
0
  6
DOTTED
 62
     6
100
AcDbLine
 10
16.3368364578527
 20
1.40000000000002
 30
0.0
 11
20.9859063476499
 21
1.40000000000002
 31
0.0
  0
LINE
  5
A1
330
1F
100
AcDbEntity
  8
0
  6
DOTTED
 62
     6
100
AcDbLine
 10
12.1940982392217
 20
33.8569287935359
 30
0.0
 11
15.9593082862174
 21
27.0795507089437
 31
0.0
  0
LINE
  5
A2
330
1F
100
AcDbEntity
  8
0
  6
DOTTED
 62
     6
100
AcDbLine
 10
20.0
 20
21.8999999999309
 30
0.0
 11
20.0
 21
48.9
 31
0.0
  0
LINE
  5
A3
330
1F
100
AcDbEntity
  8
0
  6
DOTTED
 62
     6
100
AcDbLine
 10
7.33683645785274
 20
35.4
 30
0.0
 11
9.57162641085705
 21
35.4
 31
0.0
  0
LINE
  5
A4
330
1F
100
AcDbEntity
  8
0
  6
DOTTED
 62
     6
100
AcDbLine
 10
7.33683645785274
 20
35.4
 30
0.0
 11
7.33683645785274
 21
11.4
 31
0.0
  0
LINE
  5
A5
330
1F
100
AcDbEntity
  8
0
  6
DOTTED
 62
     6
100
AcDbLine
 10
12.1940982392217
 20
-11.0569287935359
 30
0.0
 11
15.9593082862174
 21
-4.27955070894369
 31
0.0
  0
LINE
  5
A6
330
1F
100
AcDbEntity
  8
0
  6
DOTTED
 62
     6
100
AcDbLine
 10
7.33683645785274
 20
11.4
 30
0.0
 11
7.33683645785274
 21
-12.6
 31
0.0
  0
LINE
  5
A7
330
1F
100
AcDbEntity
  8
0
  6
DOTTED
 62
     6
100
AcDbLine
 10
7.33683645785274
 20
-12.6
 30
0.0
 11
9.57162641085705
 21
-12.6
 31
0.0
  0
LINE
  5
A8
330
1F
100
AcDbEntity
  8
0
  6
DOTTED
 62
     6
100
AcDbLine
 10
21.0000000196202
 20
1.40000000000002
 30
0.0
 11
44.999999999995
 21
1.40000000000002
 31
0.0
  0
LINE
  5
A9
330
1F
100
AcDbEntity
  8
0
  6
DOTTED
 62
     6
100
AcDbLine
 10
46.99999999965
 20
9.90000000033455
 30
0.0
 11
55.0
 21
9.90000000000002
 31
0.0
  0
LINE
  5
AA
330
1F
100
AcDbEntity
  8
0
  6
DOTTED
 62
     6
100
AcDbLine
 10
46.9999999991343
 20
36.8999999991727
 30
0.0
 11
55.0
 21
36.9
 31
0.0
  0
LINE
  5
AB
330
1F
100
AcDbEntity
  8
0
  6
DOTTED
 62
     6
100
AcDbLine
 10
46.0
 20
48.9
 30
0.0
 11
45.5
 21
49.4
 31
0.0
  0
LINE
  5
AC
330
1F
100
AcDbEntity
  8
0
  6
DOTTED
 62
     6
100
AcDbLine
 10
46.0
 20
48.9
 30
0.0
 11
20.0
 21
48.9
 31
0.0
  0
LINE
  5
AD
330
1F
100
AcDbEntity
  8
0
  6
DOTTED
 62
     6
100
AcDbLine
 10
45.5
 20
49.4
 30
0.0
 11
20.5
 21
49.4
 31
0.0
  0
LINE
  5
AE
330
1F
100
AcDbEntity
  8
0
  6
DOTTED
 62
     6
100
AcDbLine
 10
20.0
 20
48.9
 30
0.0
 11
20.5
 21
49.4
 31
0.0
  0
LINE
  5
AF
330
1F
100
AcDbEntity
  8
0
  6
DOTTED
 62
     6
100
AcDbLine
 10
46.0
 20
2.40000000000672
 30
0.0
 11
46.0
 21
8.90000000036397
 31
0.0
  0
LINE
  5
B0
330
1F
100
AcDbEntity
  8
0
  6
DOTTED
 62
     6
100
AcDbLine
 10
46.0
 20
37.8999999990999
 30
0.0
 11
46.0
 21
48.9
 31
0.0
  0
LINE
  5
B1
330
1F
100
AcDbEntity
  8
1
  6
Continuous
 62
     3
100
AcDbLine
 10
26.0
 20
20.9000001188311
 30
0.0
 11
40.0
 21
20.9000001188311
 31
0.0
  0
LINE
  5
B2
330
1F
100
AcDbEntity
  8
1
  6
Continuous
 62
     3
100
AcDbLine
 10
25.0
 20
56.9000001188311
 30
0.0
 11
41.0
 21
56.9000001188311
 31
0.0
  0
LINE
  5
B3
330
1F
100
AcDbEntity
  8
1
  6
Continuous
 62
     3
100
AcDbLine
 10
42.0
 20
43.8000001188312
 30
0.0
 11
24.0
 21
43.8000001188312
 31
0.0
  0
LINE
  5
B4
330
1F
100
AcDbEntity
  8
1
  6
Continuous
 62
     3
100
AcDbLine
 10
40.0
 20
22.4000001188311
 30
0.0
 11
40.0
 21
20.9000001188311
 31
0.0
  0
LINE
  5
B5
330
1F
100
AcDbEntity
  8
1
  6
Continuous
 62
     3
100
AcDbLine
 10
25.0
 20
24.4000001188311
 30
0.0
 11
41.0
 21
24.4000001188311
 31
0.0
  0
LINE
  5
B6
330
1F
100
AcDbEntity
  8
1
  6
Continuous
 62
     3
100
AcDbLine
 10
24.1
 20
25.3000001188312
 30
0.0
 11
41.9
 21
25.3000001188312
 31
0.0
  0
LINE
  5
B7
330
1F
100
AcDbEntity
  8
1
  6
Continuous
 62
     3
100
AcDbLine
 10
25.5
 20
42.1000001188311
 30
0.0
 11
25.5
 21
42.4000001188311
 31
0.0
  0
LINE
  5
B8
330
1F
100
AcDbEntity
  8
1
  6
Continuous
 62
     3
100
AcDbLine
 10
40.5
 20
42.1000001188311
 30
0.0
 11
40.5
 21
42.4000001188311
 31
0.0
  0
LINE
  5
B9
330
1F
100
AcDbEntity
  8
1
  6
Continuous
 62
     3
100
AcDbLine
 10
35.75
 20
15.9000001188311
 30
0.0
 11
37.0
 21
17.9000001188311
 31
0.0
  0
LINE
  5
BA
330
1F
100
AcDbEntity
  8
1
  6
Continuous
 62
     3
100
AcDbLine
 10
29.0
 20
17.9000001188311
 30
0.0
 11
30.25
 21
15.9000001188311
 31
0.0
  0
LINE
  5
BB
330
1F
100
AcDbEntity
  8
1
  6
Continuous
 62
     3
100
AcDbLine
 10
41.9
 20
37.4000001188311
 30
0.0
 11
24.1
 21
37.4000001188311
 31
0.0
  0
LINE
  5
BC
330
1F
100
AcDbEntity
  8
1
  6
Continuous
 62
     3
100
AcDbLine
 10
24.91
 20
24.4900001188312
 30
0.0
 11
24.91
 21
37.4000001188311
 31
0.0
  0
LINE
  5
BD
330
1F
100
AcDbEntity
  8
1
  6
Continuous
 62
     3
100
AcDbLine
 10
41.09
 20
24.4900001188312
 30
0.0
 11
41.09
 21
37.4000001188311
 31
0.0
  0
LINE
  5
BE
330
1F
100
AcDbEntity
  8
1
  6
Continuous
 62
     3
100
AcDbLine
 10
25.0
 20
22.9000001188311
 30
0.0
 11
25.5
 21
22.4000001188311
 31
0.0
  0
LINE
  5
BF
330
1F
100
AcDbEntity
  8
1
  6
Continuous
 62
     3
100
AcDbLine
 10
41.0
 20
22.9000001188311
 30
0.0
 11
40.5
 21
22.4000001188311
 31
0.0
  0
LINE
  5
C0
330
1F
100
AcDbEntity
  8
1
  6
Continuous
 62
     3
100
AcDbLine
 10
41.5
 20
46.4000001188311
 30
0.0
 11
42.0
 21
45.9000001188311
 31
0.0
  0
LINE
  5
C1
330
1F
100
AcDbEntity
  8
1
  6
Continuous
 62
     3
100
AcDbLine
 10
24.5
 20
46.4000001188311
 30
0.0
 11
24.0
 21
45.9000001188311
 31
0.0
  0
LINE
  5
C2
330
1F
100
AcDbEntity
  8
1
  6
Continuous
 62
     3
100
AcDbLine
 10
41.0
 20
51.9000001188311
 30
0.0
 11
40.5
 21
51.4000001188311
 31
0.0
  0
LINE
  5
C3
330
1F
100
AcDbEntity
  8
1
  6
Continuous
 62
     3
100
AcDbLine
 10
25.5
 20
51.4000001188311
 30
0.0
 11
25.0
 21
51.9000001188311
 31
0.0
  0
LINE
  5
C4
330
1F
100
AcDbEntity
  8
1
  6
Continuous
 62
     3
100
AcDbLine
 10
25.0
 20
56.9000001188311
 30
0.0
 11
26.5
 21
58.4000001188311
 31
0.0
  0
LINE
  5
C5
330
1F
100
AcDbEntity
  8
1
  6
Continuous
 62
     3
100
AcDbLine
 10
39.5
 20
58.4000001188311
 30
0.0
 11
41.0
 21
56.9000001188311
 31
0.0
  0
LINE
  5
C6
330
1F
100
AcDbEntity
  8
1
  6
DOT_CENTER
 62
     1
100
AcDbLine
 10
33.0
 20
72.4000001188311
 30
0.0
 11
33.0
 21
13.6000001188311
 31
0.0
  0
LINE
  5
C7
330
1F
100
AcDbEntity
  8
1
  6
Continuous
 62
     3
100
AcDbLine
 10
41.5
 20
46.4000001188311
 30
0.0
 11
24.5
 21
46.4000001188311
 31
0.0
  0
LINE
  5
C8
330
1F
100
AcDbEntity
  8
1
  6
Continuous
 62
     3
100
AcDbLine
 10
26.0
 20
51.4000001188311
 30
0.0
 11
26.0
 21
46.4000001188311
 31
0.0
  0
LINE
  5
C9
330
1F
100
AcDbEntity
  8
1
  6
Continuous
 62
     3
100
AcDbLine
 10
25.5
 20
51.4000001188311
 30
0.0
 11
40.5
 21
51.4000001188311
 31
0.0
  0
LINE
  5
CA
330
1F
100
AcDbEntity
  8
1
  6
Continuous
 62
     3
100
AcDbLine
 10
25.0
 20
56.9000001188311
 30
0.0
 11
25.0
 21
51.9000001188311
 31
0.0
  0
LINE
  5
CB
330
1F
100
AcDbEntity
  8
1
  6
Continuous
 62
     3
100
AcDbLine
 10
41.0
 20
51.9000001188311
 30
0.0
 11
41.0
 21
56.9000001188311
 31
0.0
  0
LINE
  5
CC
330
1F
100
AcDbEntity
  8
1
  6
Continuous
 62
     3
100
AcDbLine
 10
40.0
 20
46.4000001188311
 30
0.0
 11
40.0
 21
51.4000001188311
 31
0.0
  0
LINE
  5
CD
330
1F
100
AcDbEntity
  8
1
  6
Continuous
 62
     3
100
AcDbLine
 10
42.0
 20
43.8000001188312
 30
0.0
 11
42.0
 21
45.9000001188311
 31
0.0
  0
LINE
  5
CE
330
1F
100
AcDbEntity
  8
1
  6
Continuous
 62
     3
100
AcDbLine
 10
42.4
 20
43.4000001188311
 30
0.0
 11
42.0
 21
43.8000001188312
 31
0.0
  0
LINE
  5
CF
330
1F
100
AcDbEntity
  8
1
  6
Continuous
 62
     3
100
AcDbLine
 10
42.4
 20
42.4000001188311
 30
0.0
 11
42.4
 21
43.4000001188311
 31
0.0
  0
LINE
  5
D0
330
1F
100
AcDbEntity
  8
1
  6
Continuous
 62
     3
100
AcDbLine
 10
40.5
 20
39.4000001188311
 30
0.0
 11
40.5
 21
39.700000118831
 31
0.0
  0
LINE
  5
D1
330
1F
100
AcDbEntity
  8
1
  6
Continuous
 62
     3
100
AcDbLine
 10
24.0
 20
43.8000001188312
 30
0.0
 11
24.0
 21
45.9000001188311
 31
0.0
  0
LINE
  5
D2
330
1F
100
AcDbEntity
  8
1
  6
Continuous
 62
     3
100
AcDbLine
 10
23.6
 20
43.4000001188311
 30
0.0
 11
24.0
 21
43.8000001188312
 31
0.0
  0
LINE
  5
D3
330
1F
100
AcDbEntity
  8
1
  6
Continuous
 62
     3
100
AcDbLine
 10
23.6
 20
42.4000001188311
 30
0.0
 11
23.6
 21
43.4000001188311
 31
0.0
  0
LINE
  5
D4
330
1F
100
AcDbEntity
  8
1
  6
Continuous
 62
     3
100
AcDbLine
 10
42.4
 20
42.4000001188311
 30
0.0
 11
23.6
 21
42.4000001188311
 31
0.0
  0
LINE
  5
D5
330
1F
100
AcDbEntity
  8
1
  6
Continuous
 62
     3
100
AcDbLine
 10
25.5
 20
39.4000001188311
 30
0.0
 11
25.5
 21
39.700000118831
 31
0.0
  0
LINE
  5
D6
330
1F
100
AcDbEntity
  8
1
  6
Continuous
 62
     3
100
AcDbLine
 10
24.1
 20
39.4000001188311
 30
0.0
 11
41.9
 21
39.4000001188311
 31
0.0
  0
LINE
  5
D7
330
1F
100
AcDbEntity
  8
1
  6
Continuous
 62
     3
100
AcDbLine
 10
24.1
 20
25.3000001188312
 30
0.0
 11
24.1
 21
39.4000001188311
 31
0.0
  0
LINE
  5
D8
330
1F
100
AcDbEntity
  8
1
  6
Continuous
 62
     3
100
AcDbLine
 10
25.0
 20
24.4000001188311
 30
0.0
 11
24.1
 21
25.3000001188312
 31
0.0
  0
LINE
  5
D9
330
1F
100
AcDbEntity
  8
1
  6
Continuous
 62
     3
100
AcDbLine
 10
25.0
 20
22.9000001188311
 30
0.0
 11
25.0
 21
24.4000001188311
 31
0.0
  0
LINE
  5
DA
330
1F
100
AcDbEntity
  8
1
  6
Continuous
 62
     3
100
AcDbLine
 10
40.5
 20
22.4000001188311
 30
0.0
 11
25.5
 21
22.4000001188311
 31
0.0
  0
LINE
  5
DB
330
1F
100
AcDbEntity
  8
1
  6
Continuous
 62
     3
100
AcDbLine
 10
41.9
 20
25.3000001188312
 30
0.0
 11
41.9
 21
39.4000001188311
 31
0.0
  0
LINE
  5
DC
330
1F
100
AcDbEntity
  8
1
  6
Continuous
 62
     3
100
AcDbLine
 10
41.0
 20
24.4000001188311
 30
0.0
 11
41.9
 21
25.3000001188312
 31
0.0
  0
LINE
  5
DD
330
1F
100
AcDbEntity
  8
1
  6
Continuous
 62
     3
100
AcDbLine
 10
41.0
 20
22.9000001188311
 30
0.0
 11
41.0
 21
24.4000001188311
 31
0.0
  0
LINE
  5
DE
330
1F
100
AcDbEntity
  8
1
  6
Continuous
 62
     3
100
AcDbLine
 10
37.0
 20
17.9000001188311
 30
0.0
 11
37.0
 21
18.4000001188311
 31
0.0
  0
LINE
  5
DF
330
1F
100
AcDbEntity
  8
1
  6
Continuous
 62
     3
100
AcDbLine
 10
30.25
 20
15.9000001188311
 30
0.0
 11
35.75
 21
15.9000001188311
 31
0.0
  0
LINE
  5
E0
330
1F
100
AcDbEntity
  8
1
  6
Continuous
 62
     3
100
AcDbLine
 10
29.0
 20
18.4000001188311
 30
0.0
 11
29.0
 21
17.9000001188311
 31
0.0
  0
LINE
  5
E1
330
1F
100
AcDbEntity
  8
1
  6
Continuous
 62
     3
100
AcDbLine
 10
28.5
 20
18.4000001188311
 30
0.0
 11
37.5
 21
18.4000001188311
 31
0.0
  0
LINE
  5
E2
330
1F
100
AcDbEntity
  8
1
  6
Continuous
 62
     3
100
AcDbLine
 10
26.0
 20
22.4000001188311
 30
0.0
 11
26.0
 21
20.9000001188311
 31
0.0
  0
LINE
  5
E3
330
1F
100
AcDbEntity
  8
1
  6
Continuous
 62
     3
100
AcDbLine
 10
40.0
 20
20.9000001188311
 30
0.0
 11
37.5
 21
18.4000001188311
 31
0.0
  0
LINE
  5
E4
330
1F
100
AcDbEntity
  8
1
  6
Continuous
 62
     3
100
AcDbLine
 10
28.5
 20
18.4000001188311
 30
0.0
 11
26.0
 21
20.9000001188311
 31
0.0
  0
LINE
  5
E5
330
1F
100
AcDbEntity
  8
1
  6
Continuous
 62
     3
100
AcDbLine
 10
24.3
 20
42.1000001188311
 30
0.0
 11
41.7
 21
42.1000001188311
 31
0.0
  0
LINE
  5
E6
330
1F
100
AcDbEntity
  8
1
  6
Continuous
 62
     3
100
AcDbLine
 10
41.7
 20
39.700000118831
 30
0.0
 11
24.3
 21
39.700000118831
 31
0.0
  0
LINE
  5
E7
330
1F
100
AcDbEntity
  8
1
  6
Continuous
 62
     3
100
AcDbLine
 10
28.0
 20
63.1500001188311
 30
0.0
 11
28.0
 21
63.4000001188311
 31
0.0
  0
LINE
  5
E8
330
1F
100
AcDbEntity
  8
1
  6
Continuous
 62
     3
100
AcDbLine
 10
38.0
 20
63.1500001188311
 30
0.0
 11
38.0
 21
63.4000001188311
 31
0.0
  0
LINE
  5
E9
330
1F
100
AcDbEntity
  8
1
  6
Continuous
 62
     3
100
AcDbLine
 10
38.0
 20
63.4000001188311
 30
0.0
 11
28.0
 21
63.4000001188311
 31
0.0
  0
LINE
  5
EA
330
1F
100
AcDbEntity
  8
1
  6
Continuous
 62
     3
100
AcDbLine
 10
29.75
 20
61.4000001188311
 30
0.0
 11
28.0
 21
63.1500001188311
 31
0.0
  0
LINE
  5
EB
330
1F
100
AcDbEntity
  8
1
  6
Continuous
 62
     3
100
AcDbLine
 10
36.25
 20
61.4000001188311
 30
0.0
 11
38.0
 21
63.1500001188311
 31
0.0
  0
LINE
  5
EC
330
1F
100
AcDbEntity
  8
1
  6
Continuous
 62
     3
100
AcDbLine
 10
24.0
 20
61.100000118831
 30
0.0
 11
24.0
 21
58.7000001188311
 31
0.0
  0
LINE
  5
ED
330
1F
100
AcDbEntity
  8
1
  6
Continuous
 62
     3
100
AcDbLine
 10
24.3
 20
61.4000001188311
 30
0.0
 11
37.7
 21
61.4000001188311
 31
0.0
  0
LINE
  5
EE
330
1F
100
AcDbEntity
  8
1
  6
Continuous
 62
     3
100
AcDbLine
 10
38.0
 20
61.100000118831
 30
0.0
 11
38.0
 21
58.7000001188311
 31
0.0
  0
LINE
  5
EF
330
1F
100
AcDbEntity
  8
1
  6
Continuous
 62
     3
100
AcDbLine
 10
37.5
 20
63.4000001188311
 30
0.0
 11
38.0
 21
63.9000001188311
 31
0.0
  0
LINE
  5
F0
330
1F
100
AcDbEntity
  8
1
  6
Continuous
 62
     3
100
AcDbLine
 10
37.5
 20
70.4000001188311
 30
0.0
 11
38.0
 21
69.9000001188311
 31
0.0
  0
LINE
  5
F1
330
1F
100
AcDbEntity
  8
1
  6
Continuous
 62
     3
100
AcDbLine
 10
28.5
 20
70.4000001188311
 30
0.0
 11
28.0
 21
69.9000001188311
 31
0.0
  0
LINE
  5
F2
330
1F
100
AcDbEntity
  8
1
  6
Continuous
 62
     3
100
AcDbLine
 10
28.5
 20
63.4000001188311
 30
0.0
 11
28.0
 21
63.9000001188311
 31
0.0
  0
LINE
  5
F3
330
1F
100
AcDbEntity
  8
1
  6
Continuous
 62
     3
100
AcDbLine
 10
37.5
 20
70.4000001188311
 30
0.0
 11
28.5
 21
70.4000001188311
 31
0.0
  0
LINE
  5
F4
330
1F
100
AcDbEntity
  8
1
  6
Continuous
 62
     3
100
AcDbLine
 10
38.0
 20
63.9000001188311
 30
0.0
 11
38.0
 21
69.9000001188311
 31
0.0
  0
LINE
  5
F5
330
1F
100
AcDbEntity
  8
1
  6
Continuous
 62
     3
100
AcDbLine
 10
28.0
 20
63.9000001188311
 30
0.0
 11
28.0
 21
69.9000001188311
 31
0.0
  0
LINE
  5
F6
330
1F
100
AcDbEntity
  8
1
  6
Continuous
 62
     3
100
AcDbLine
 10
39.5
 20
58.4000001188311
 30
0.0
 11
24.3
 21
58.4000001188311
 31
0.0
  0
LINE
  5
F7
330
1F
100
AcDbEntity
  8
100
  6
Continuous
 62
     3
100
AcDbLine
 10
38.0
 20
105.0
 30
0.0
 11
38.0
 21
105.25
 31
0.0
  0
LINE
  5
F8
330
1F
100
AcDbEntity
  8
100
  6
Continuous
 62
     3
100
AcDbLine
 10
38.0
 20
96.75
 30
0.0
 11
38.0
 21
97.0
 31
0.0
  0
LINE
  5
F9
330
1F
100
AcDbEntity
  8
100
  6
Continuous
 62
     3
100
AcDbLine
 10
27.5
 20
99.5
 30
0.0
 11
28.2303039929153
 21
99.5
 31
0.0
  0
LINE
  5
FA
330
1F
100
AcDbEntity
  8
100
  6
Continuous
 62
     3
100
AcDbLine
 10
27.5
 20
102.5
 30
0.0
 11
28.2303039929153
 21
102.5
 31
0.0
  0
LINE
  5
FB
330
1F
100
AcDbEntity
  8
100
  6
Continuous
 62
     3
100
AcDbLine
 10
27.5
 20
104.5
 30
0.0
 11
28.6698729810778
 21
104.5
 31
0.0
  0
LINE
  5
FC
330
1F
100
AcDbEntity
  8
100
  6
Continuous
 62
     3
100
AcDbLine
 10
27.5
 20
97.5
 30
0.0
 11
28.6698729810778
 21
97.5
 31
0.0
  0
LINE
  5
FD
330
1F
100
AcDbEntity
  8
1
  6
CENTER
 62
     1
100
AcDbLine
 10
33.0
 20
86.7502370161513
 30
0.0
 11
33.0
 21
114.601142702856
 31
0.0
  0
LINE
  5
FE
330
1F
100
AcDbEntity
  8
1
  6
CENTER
 62
     1
100
AcDbLine
 10
15.6934303427975
 20
101.0
 30
0.0
 11
48.2452850785319
 21
101.0
 31
0.0
  0
LINE
  5
FF
330
1F
100
AcDbEntity
  8
1
  6
Continuous
 62
     4
100
AcDbLine
 10
52.3562570737926
 20
44.2322776575641
 30
0.0
 11
53.0621394267338
 21
41.2322776575641
 31
0.0
  0
LINE
  5
100
330
1F
100
AcDbEntity
  8
1
  6
Continuous
 62
     4
100
AcDbLine
 10
53.0621394267338
 20
41.2322776575641
 30
0.0
 11
53.6797864855573
 21
44.1322776575641
 31
0.0
  0
LINE
  5
101
330
1F
100
AcDbEntity
  8
1
  6
Continuous
 62
     4
100
AcDbLine
 10
53.6797864855573
 20
44.1322776575641
 30
0.0
 11
54.3856688384985
 21
41.2322776575641
 31
0.0
  0
LINE
  5
102
330
1F
100
AcDbEntity
  8
1
  6
Continuous
 62
     4
100
AcDbLine
 10
54.3856688384985
 20
41.2322776575641
 30
0.0
 11
55.003315897322
 21
44.2322776575641
 31
0.0
  0
LINE
  5
103
330
1F
100
AcDbEntity
  8
1
  6
Continuous
 62
     4
100
AcDbLine
 10
55.8856688384985
 20
43.9322776575641
 30
0.0
 11
56.3268453090867
 21
44.2322776575641
 31
0.0
  0
LINE
  5
104
330
1F
100
AcDbEntity
  8
1
  6
Continuous
 62
     4
100
AcDbLine
 10
56.3268453090867
 20
44.2322776575641
 30
0.0
 11
56.3268453090867
 21
41.2322776575641
 31
0.0
  0
LINE
  5
105
330
1F
100
AcDbEntity
  8
1
  6
Continuous
 62
     4
100
AcDbLine
 10
58.1797864855573
 20
44.2322776575641
 30
0.0
 11
57.7386100149691
 21
44.1322776575641
 31
0.0
  0
LINE
  5
106
330
1F
100
AcDbEntity
  8
1
  6
Continuous
 62
     4
100
AcDbLine
 10
57.7386100149691
 20
44.1322776575641
 30
0.0
 11
57.4739041326161
 21
43.8322776575641
 31
0.0
  0
LINE
  5
107
330
1F
100
AcDbEntity
  8
1
  6
Continuous
 62
     4
100
AcDbLine
 10
57.4739041326161
 20
43.8322776575641
 30
0.0
 11
57.3856688384985
 21
43.5322776575641
 31
0.0
  0
LINE
  5
108
330
1F
100
AcDbEntity
  8
1
  6
Continuous
 62
     4
100
AcDbLine
 10
57.3856688384985
 20
43.5322776575641
 30
0.0
 11
57.4739041326161
 21
43.2322776575641
 31
0.0
  0
LINE
  5
109
330
1F
100
AcDbEntity
  8
1
  6
Continuous
 62
     4
100
AcDbLine
 10
57.4739041326161
 20
43.2322776575641
 30
0.0
 11
57.7386100149691
 21
42.9322776575641
 31
0.0
  0
LINE
  5
10A
330
1F
100
AcDbEntity
  8
1
  6
Continuous
 62
     4
100
AcDbLine
 10
57.7386100149691
 20
42.9322776575641
 30
0.0
 11
58.0915511914397
 21
42.8322776575641
 31
0.0
  0
LINE
  5
10B
330
1F
100
AcDbEntity
  8
1
  6
Continuous
 62
     4
100
AcDbLine
 10
58.0915511914397
 20
42.8322776575641
 30
0.0
 11
58.3562570737926
 21
42.8322776575641
 31
0.0
  0
LINE
  5
10C
330
1F
100
AcDbEntity
  8
1
  6
Continuous
 62
     4
100
AcDbLine
 10
58.3562570737926
 20
42.8322776575641
 30
0.0
 11
58.7091982502632
 21
42.7322776575641
 31
0.0
  0
LINE
  5
10D
330
1F
100
AcDbEntity
  8
1
  6
Continuous
 62
     4
100
AcDbLine
 10
58.7091982502632
 20
42.7322776575641
 30
0.0
 11
59.0621394267338
 21
42.4322776575641
 31
0.0
  0
LINE
  5
10E
330
1F
100
AcDbEntity
  8
1
  6
Continuous
 62
     4
100
AcDbLine
 10
59.0621394267338
 20
42.4322776575641
 30
0.0
 11
59.2386100149691
 21
42.0322776575641
 31
0.0
  0
LINE
  5
10F
330
1F
100
AcDbEntity
  8
1
  6
Continuous
 62
     4
100
AcDbLine
 10
59.2386100149691
 20
42.0322776575641
 30
0.0
 11
59.0621394267338
 21
41.5322776575641
 31
0.0
  0
LINE
  5
110
330
1F
100
AcDbEntity
  8
1
  6
Continuous
 62
     4
100
AcDbLine
 10
59.0621394267338
 20
41.5322776575641
 30
0.0
 11
58.7091982502632
 21
41.3322776575641
 31
0.0
  0
LINE
  5
111
330
1F
100
AcDbEntity
  8
1
  6
Continuous
 62
     4
100
AcDbLine
 10
58.7091982502632
 20
41.3322776575641
 30
0.0
 11
58.1797864855573
 21
41.2322776575641
 31
0.0
  0
LINE
  5
112
330
1F
100
AcDbEntity
  8
1
  6
Continuous
 62
     4
100
AcDbLine
 10
58.1797864855573
 20
41.2322776575641
 30
0.0
 11
57.6503747208514
 21
41.3322776575641
 31
0.0
  0
LINE
  5
113
330
1F
100
AcDbEntity
  8
1
  6
Continuous
 62
     4
100
AcDbLine
 10
57.6503747208514
 20
41.3322776575641
 30
0.0
 11
57.3856688384985
 21
41.5322776575641
 31
0.0
  0
LINE
  5
114
330
1F
100
AcDbEntity
  8
1
  6
Continuous
 62
     4
100
AcDbLine
 10
57.3856688384985
 20
41.5322776575641
 30
0.0
 11
57.2091982502632
 21
42.0322776575641
 31
0.0
  0
LINE
  5
115
330
1F
100
AcDbEntity
  8
1
  6
Continuous
 62
     4
100
AcDbLine
 10
57.2091982502632
 20
42.0322776575641
 30
0.0
 11
57.2974335443808
 21
42.4322776575641
 31
0.0
  0
LINE
  5
116
330
1F
100
AcDbEntity
  8
1
  6
Continuous
 62
     4
100
AcDbLine
 10
57.2974335443808
 20
42.4322776575641
 30
0.0
 11
57.5621394267338
 21
42.6322776575641
 31
0.0
  0
LINE
  5
117
330
1F
100
AcDbEntity
  8
1
  6
Continuous
 62
     4
100
AcDbLine
 10
57.5621394267338
 20
42.6322776575641
 30
0.0
 11
57.7386100149691
 21
42.7322776575641
 31
0.0
  0
LINE
  5
118
330
1F
100
AcDbEntity
  8
1
  6
Continuous
 62
     4
100
AcDbLine
 10
57.7386100149691
 20
42.7322776575641
 30
0.0
 11
58.0915511914397
 21
42.8322776575641
 31
0.0
  0
LINE
  5
119
330
1F
100
AcDbEntity
  8
1
  6
Continuous
 62
     4
100
AcDbLine
 10
58.0915511914397
 20
42.8322776575641
 30
0.0
 11
58.3562570737926
 21
42.8322776575641
 31
0.0
  0
LINE
  5
11A
330
1F
100
AcDbEntity
  8
1
  6
Continuous
 62
     4
100
AcDbLine
 10
58.3562570737926
 20
42.8322776575641
 30
0.0
 11
58.7091982502632
 21
42.9322776575641
 31
0.0
  0
LINE
  5
11B
330
1F
100
AcDbEntity
  8
1
  6
Continuous
 62
     4
100
AcDbLine
 10
58.7091982502632
 20
42.9322776575641
 30
0.0
 11
58.9739041326161
 21
43.2322776575641
 31
0.0
  0
LINE
  5
11C
330
1F
100
AcDbEntity
  8
1
  6
Continuous
 62
     4
100
AcDbLine
 10
58.9739041326161
 20
43.2322776575641
 30
0.0
 11
59.0621394267338
 21
43.5322776575641
 31
0.0
  0
LINE
  5
11D
330
1F
100
AcDbEntity
  8
1
  6
Continuous
 62
     4
100
AcDbLine
 10
59.0621394267338
 20
43.5322776575641
 30
0.0
 11
58.9739041326161
 21
43.8322776575641
 31
0.0
  0
LINE
  5
11E
330
1F
100
AcDbEntity
  8
1
  6
Continuous
 62
     4
100
AcDbLine
 10
58.9739041326161
 20
43.8322776575641
 30
0.0
 11
58.8856688384985
 21
44.0322776575641
 31
0.0
  0
LINE
  5
11F
330
1F
100
AcDbEntity
  8
1
  6
Continuous
 62
     4
100
AcDbLine
 10
58.8856688384985
 20
44.0322776575641
 30
0.0
 11
58.6209629561455
 21
44.1322776575641
 31
0.0
  0
LINE
  5
120
330
1F
100
AcDbEntity
  8
1
  6
Continuous
 62
     4
100
AcDbLine
 10
58.6209629561455
 20
44.1322776575641
 30
0.0
 11
58.1797864855573
 21
44.2322776575641
 31
0.0
  0
LINE
  5
121
330
1F
100
AcDbEntity
  8
1
  6
Continuous
 62
     4
100
AcDbLine
 10
61.5327276620279
 20
44.2322776575641
 30
0.0
 11
61.5327276620279
 21
41.2322776575641
 31
0.0
  0
LINE
  5
122
330
1F
100
AcDbEntity
  8
1
  6
Continuous
 62
     4
100
AcDbLine
 10
60.2974335443808
 20
43.9322776575641
 30
0.0
 11
60.2974335443808
 21
41.2322776575641
 31
0.0
  0
LINE
  5
123
330
1F
100
AcDbEntity
  8
1
  6
Continuous
 62
     4
100
AcDbLine
 10
60.2974335443808
 20
41.2322776575641
 30
0.0
 11
61.5327276620279
 21
41.2322776575641
 31
0.0
  0
LINE
  5
124
330
1F
100
AcDbEntity
  8
1
  6
Continuous
 62
     4
100
AcDbLine
 10
62.768021779675
 20
41.2322776575641
 30
0.0
 11
62.768021779675
 21
43.9322776575641
 31
0.0
  0
LINE
  5
125
330
1F
100
AcDbEntity
  8
1
  6
Continuous
 62
     4
100
AcDbLine
 10
61.5327276620279
 20
41.2322776575641
 30
0.0
 11
62.768021779675
 21
41.2322776575641
 31
0.0
  0
LINE
  5
126
330
1F
100
AcDbEntity
  8
1
  6
Continuous
 62
     4
100
AcDbLine
 10
63.7386100149691
 20
43.6322776575641
 30
0.0
 11
64.0915511914397
 21
44.0322776575641
 31
0.0
  0
LINE
  5
127
330
1F
100
AcDbEntity
  8
1
  6
Continuous
 62
     4
100
AcDbLine
 10
64.0915511914397
 20
44.0322776575641
 30
0.0
 11
64.6209629561455
 21
44.2322776575641
 31
0.0
  0
LINE
  5
128
330
1F
100
AcDbEntity
  8
1
  6
Continuous
 62
     4
100
AcDbLine
 10
64.6209629561455
 20
44.2322776575641
 30
0.0
 11
65.1503747208514
 21
44.0322776575641
 31
0.0
  0
LINE
  5
129
330
1F
100
AcDbEntity
  8
1
  6
Continuous
 62
     4
100
AcDbLine
 10
65.1503747208514
 20
44.0322776575641
 30
0.0
 11
65.503315897322
 21
43.6322776575641
 31
0.0
  0
LINE
  5
12A
330
1F
100
AcDbEntity
  8
1
  6
Continuous
 62
     4
100
AcDbLine
 10
65.503315897322
 20
43.6322776575641
 30
0.0
 11
65.4150806032044
 21
43.2322776575641
 31
0.0
  0
LINE
  5
12B
330
1F
100
AcDbEntity
  8
1
  6
Continuous
 62
     4
100
AcDbLine
 10
65.4150806032044
 20
43.2322776575641
 30
0.0
 11
65.1503747208514
 21
42.8322776575641
 31
0.0
  0
LINE
  5
12C
330
1F
100
AcDbEntity
  8
1
  6
Continuous
 62
     4
100
AcDbLine
 10
65.1503747208514
 20
42.8322776575641
 30
0.0
 11
64.7091982502632
 21
42.5322776575641
 31
0.0
  0
LINE
  5
12D
330
1F
100
AcDbEntity
  8
1
  6
Continuous
 62
     4
100
AcDbLine
 10
64.7091982502632
 20
42.5322776575641
 30
0.0
 11
64.3562570737926
 21
42.3322776575641
 31
0.0
  0
LINE
  5
12E
330
1F
100
AcDbEntity
  8
1
  6
Continuous
 62
     4
100
AcDbLine
 10
64.3562570737926
 20
42.3322776575641
 30
0.0
 11
64.003315897322
 21
42.0322776575641
 31
0.0
  0
LINE
  5
12F
330
1F
100
AcDbEntity
  8
1
  6
Continuous
 62
     4
100
AcDbLine
 10
64.003315897322
 20
42.0322776575641
 30
0.0
 11
63.8268453090867
 21
41.7322776575641
 31
0.0
  0
LINE
  5
130
330
1F
100
AcDbEntity
  8
1
  6
Continuous
 62
     4
100
AcDbLine
 10
63.8268453090867
 20
41.7322776575641
 30
0.0
 11
63.6503747208514
 21
41.2322776575641
 31
0.0
  0
LINE
  5
131
330
1F
100
AcDbEntity
  8
1
  6
Continuous
 62
     4
100
AcDbLine
 10
63.6503747208514
 20
41.2322776575641
 30
0.0
 11
65.5915511914397
 21
41.2322776575641
 31
0.0
  0
LINE
  5
132
330
1F
100
AcDbEntity
  8
1
  6
Continuous
 62
     4
100
AcDbLine
 10
67.4444923679102
 20
44.2322776575641
 30
0.0
 11
66.9150806032044
 21
44.0322776575641
 31
0.0
  0
LINE
  5
133
330
1F
100
AcDbEntity
  8
1
  6
Continuous
 62
     4
100
AcDbLine
 10
66.9150806032044
 20
44.0322776575641
 30
0.0
 11
66.6503747208514
 21
43.5322776575641
 31
0.0
  0
LINE
  5
134
330
1F
100
AcDbEntity
  8
1
  6
Continuous
 62
     4
100
AcDbLine
 10
66.6503747208514
 20
43.5322776575641
 30
0.0
 11
66.4739041326161
 21
42.7322776575641
 31
0.0
  0
LINE
  5
135
330
1F
100
AcDbEntity
  8
1
  6
Continuous
 62
     4
100
AcDbLine
 10
66.4739041326161
 20
42.7322776575641
 30
0.0
 11
66.6503747208514
 21
41.9322776575641
 31
0.0
  0
LINE
  5
136
330
1F
100
AcDbEntity
  8
1
  6
Continuous
 62
     4
100
AcDbLine
 10
66.6503747208514
 20
41.9322776575641
 30
0.0
 11
66.9150806032044
 21
41.4322776575641
 31
0.0
  0
LINE
  5
137
330
1F
100
AcDbEntity
  8
1
  6
Continuous
 62
     4
100
AcDbLine
 10
66.9150806032044
 20
41.4322776575641
 30
0.0
 11
67.4444923679102
 21
41.2322776575641
 31
0.0
  0
LINE
  5
138
330
1F
100
AcDbEntity
  8
1
  6
Continuous
 62
     4
100
AcDbLine
 10
67.4444923679102
 20
41.2322776575641
 30
0.0
 11
67.9739041326161
 21
41.4322776575641
 31
0.0
  0
LINE
  5
139
330
1F
100
AcDbEntity
  8
1
  6
Continuous
 62
     4
100
AcDbLine
 10
67.9739041326161
 20
41.4322776575641
 30
0.0
 11
68.3268453090867
 21
41.9322776575641
 31
0.0
  0
LINE
  5
13A
330
1F
100
AcDbEntity
  8
1
  6
Continuous
 62
     4
100
AcDbLine
 10
68.3268453090867
 20
41.9322776575641
 30
0.0
 11
68.4150806032044
 21
42.7322776575641
 31
0.0
  0
LINE
  5
13B
330
1F
100
AcDbEntity
  8
1
  6
Continuous
 62
     4
100
AcDbLine
 10
68.4150806032044
 20
42.7322776575641
 30
0.0
 11
68.3268453090867
 21
43.5322776575641
 31
0.0
  0
LINE
  5
13C
330
1F
100
AcDbEntity
  8
1
  6
Continuous
 62
     4
100
AcDbLine
 10
68.3268453090867
 20
43.5322776575641
 30
0.0
 11
67.9739041326161
 21
44.0322776575641
 31
0.0
  0
LINE
  5
13D
330
1F
100
AcDbEntity
  8
1
  6
Continuous
 62
     4
100
AcDbLine
 10
67.9739041326161
 20
44.0322776575641
 30
0.0
 11
67.4444923679102
 21
44.2322776575641
 31
0.0
  0
ARC
  5
13E
330
1F
100
AcDbEntity
  8
0
  6
DOTTED
 62
     6
100
AcDbCircle
 10
9.57162641085705
 20
80.0
 30
0.0
 40
3.0
100
AcDbArc
 50
270.0
 51
330.9453959009232
  0
ARC
  5
13F
330
1F
100
AcDbEntity
  8
0
  6
DOTTED
 62
     6
100
AcDbCircle
 10
9.57162641085705
 20
122.0
 30
0.0
 40
3.00000000000008
100
AcDbArc
 50
29.05460409907843
 51
90.0
  0
ARC
  5
140
330
1F
100
AcDbEntity
  8
0
  6
DOTTED
 62
     6
100
AcDbCircle
 10
32.9999999005854
 20
100.99999987136
 30
0.0
 40
13.00000001850884
100
AcDbArc
 50
135.7655761281212
 51
148.8399912996484
  0
ARC
  5
141
330
1F
100
AcDbEntity
  8
0
  6
DOTTED
 62
     6
100
AcDbCircle
 10
32.99999957126
 20
101.000000554785
 30
0.0
 40
13.00000007982698
100
AcDbArc
 50
211.1595974036276
 51
224.2344262301089
  0
ARC
  5
142
330
1F
100
AcDbEntity
  8
0
  6
DOTTED
 62
     6
100
AcDbCircle
 10
24.3812736961489
 20
90.5000000057196
 30
0.0
 40
0.4999999942804235
100
AcDbArc
 50
44.23442288336401
 51
90.00000027662381
  0
ARC
  5
143
330
1F
100
AcDbEntity
  8
0
  6
DOTTED
 62
     6
100
AcDbCircle
 10
28.4220625825821
 20
88.5
 30
0.0
 40
0.9999999999999631
100
AcDbArc
 50
255.2810180622373
 51
270.0
  0
ARC
  5
144
330
1F
100
AcDbEntity
  8
0
  6
DOTTED
 62
     6
100
AcDbCircle
 10
28.4220625825821
 20
88.5
 30
0.0
 40
0.9999999999999419
100
AcDbArc
 50
224.2344231599982
 51
255.2810180622373
  0
ARC
  5
145
330
1F
100
AcDbEntity
  8
0
  6
DOTTED
 62
     6
100
AcDbCircle
 10
37.5779374174178
 20
88.5
 30
0.0
 40
1.0
100
AcDbArc
 50
270.0
 51
284.7189819321289
  0
ARC
  5
146
330
1F
100
AcDbEntity
  8
0
  6
DOTTED
 62
     6
100
AcDbCircle
 10
13.3368364578527
 20
115.222621915408
 30
0.0
 40
3.000000000000002
100
AcDbArc
 50
0.0
 51
29.0546040990782
  0
ARC
  5
147
330
1F
100
AcDbEntity
  8
0
  6
DOTTED
 62
     6
100
AcDbCircle
 10
37.5779374174178
 20
113.5
 30
0.0
 40
1.000000000000277
100
AcDbArc
 50
75.2810180622361
 51
90.0
  0
ARC
  5
148
330
1F
100
AcDbEntity
  8
0
  6
DOTTED
 62
     6
100
AcDbCircle
 10
24.3812736961489
 20
111.49999999428
 30
0.0
 40
0.4999999942800031
100
AcDbArc
 50
269.9999997233762
 51
315.7655771166768
  0
ARC
  5
149
330
1F
100
AcDbEntity
  8
0
  6
DOTTED
 62
     6
100
AcDbCircle
 10
28.4220625825821
 20
113.5
 30
0.0
 40
1.00000000000019
100
AcDbArc
 50
104.718981932108
 51
135.76557684001
  0
ARC
  5
14A
330
1F
100
AcDbEntity
  8
0
  6
DOTTED
 62
     6
100
AcDbCircle
 10
28.4220625825821
 20
113.5
 30
0.0
 40
1.0
100
AcDbArc
 50
90.0
 51
104.718981932108
  0
ARC
  5
14B
330
1F
100
AcDbEntity
  8
0
  6
DOTTED
 62
     6
100
AcDbCircle
 10
13.3368364578527
 20
86.7773780845922
 30
0.0
 40
3.000000000000075
100
AcDbArc
 50
330.9453959009236
 51
0.0
  0
ARC
  5
14C
330
1F
100
AcDbEntity
  8
0
  6
DOTTED
 62
     6
100
AcDbCircle
 10
19.4999999999806
 20
21.9000000000195
 30
0.0
 40
0.5000000000195008
100
AcDbArc
 50
270.0000000129835
 51
359.999999989847
  0
ARC
  5
14D
330
1F
100
AcDbEntity
  8
0
  6
DOTTED
 62
     6
100
AcDbCircle
 10
13.3368364578527
 20
25.6226219154078
 30
0.0
 40
3.000000000000002
100
AcDbArc
 50
0.0
 51
29.05460409907636
  0
ARC
  5
14E
330
1F
100
AcDbEntity
  8
0
  6
DOTTED
 62
     6
100
AcDbCircle
 10
9.57162641085705
 20
32.4
 30
0.0
 40
3.000000000000035
100
AcDbArc
 50
29.05460409907688
 51
90.0
  0
ARC
  5
14F
330
1F
100
AcDbEntity
  8
0
  6
DOTTED
 62
     6
100
AcDbCircle
 10
45.0000000000905
 20
2.39999999990952
 30
0.0
 40
0.9999999999095
100
AcDbArc
 50
269.999999994528
 51
0.00000000556915
  0
ARC
  5
150
330
1F
100
AcDbEntity
  8
0
  6
DOTTED
 62
     6
100
AcDbCircle
 10
13.3368364578527
 20
-2.82262191540777
 30
0.0
 40
3.000000000000087
100
AcDbArc
 50
330.9453959009232
 51
0.0
  0
ARC
  5
151
330
1F
100
AcDbEntity
  8
0
  6
DOTTED
 62
     6
100
AcDbCircle
 10
9.57162641085705
 20
-9.59999999999997
 30
0.0
 40
3.00000000000003
100
AcDbArc
 50
270.0
 51
330.9453959009227
  0
ARC
  5
152
330
1F
100
AcDbEntity
  8
0
  6
DOTTED
 62
     6
100
AcDbCircle
 10
47.0000000002024
 20
37.8999999993752
 30
0.0
 40
1.000000000202398
100
AcDbArc
 50
180.0000000157735
 51
269.9999999388027
  0
ARC
  5
153
330
1F
100
AcDbEntity
  8
0
  6
DOTTED
 62
     6
100
AcDbCircle
 10
46.9999999572943
 20
8.9000000430403
 30
0.0
 40
0.9999999572942508
100
AcDbArc
 50
89.99999757319698
 51
180.0000024451737
  0
ARC
  5
154
330
1F
100
AcDbEntity
  8
1
  6
Continuous
 62
     3
100
AcDbCircle
 10
32.99999957126
 20
101.000000554785
 30
0.0
 40
6.500000428740216
100
AcDbArc
 50
212.5789737812948
 51
306.3017238274585
  0
ARC
  5
155
330
1F
100
AcDbEntity
  8
1
  6
Continuous
 62
     3
100
AcDbCircle
 10
32.99999957126
 20
101.000000554785
 30
0.0
 40
6.5000004287403
100
AcDbArc
 50
0.0
 51
39.71513586691891
  0
ARC
  5
156
330
1F
100
AcDbEntity
  8
1
  6
Continuous
 62
     3
100
AcDbCircle
 10
32.9999999005854
 20
100.99999987136
 30
0.0
 40
8.000000099414699
100
AcDbArc
 50
0.0
 51
158.7200339141886
  0
ARC
  5
157
330
1F
100
AcDbEntity
  8
1
  6
Continuous
 62
     3
100
AcDbCircle
 10
32.9999999005854
 20
100.99999987136
 30
0.0
 40
8.000000099414656
100
AcDbArc
 50
201.2799634056191
 51
0.0
  0
ARC
  5
158
330
1F
100
AcDbEntity
  8
1
  6
Continuous
 62
     3
100
AcDbCircle
 10
32.99999957126
 20
101.000000554785
 30
0.0
 40
6.500000428740309
100
AcDbArc
 50
320.2848641330678
 51
0.0
  0
ARC
  5
159
330
1F
100
AcDbEntity
  8
1
  6
Continuous
 62
     3
100
AcDbCircle
 10
32.99999957126
 20
101.000000554785
 30
0.0
 40
6.500000428739345
100
AcDbArc
 50
53.69826250820424
 51
147.421037825612
  0
ARC
  5
15A
330
1F
100
AcDbEntity
  8
1
  6
Continuous
 62
     3
100
AcDbCircle
 10
41.7
 20
40.900000118831
 30
0.0
 40
1.200000000000003
100
AcDbArc
 50
270.0
 51
90.0
  0
ARC
  5
15B
330
1F
100
AcDbEntity
  8
1
  6
Continuous
 62
     3
100
AcDbCircle
 10
24.3
 20
40.900000118831
 30
0.0
 40
1.200000000000095
100
AcDbArc
 50
90.0
 51
270.0
  0
ARC
  5
15C
330
1F
100
AcDbEntity
  8
1
  6
Continuous
 62
     3
100
AcDbCircle
 10
24.3
 20
61.100000118831
 30
0.0
 40
0.3000000000001037
100
AcDbArc
 50
90.0
 51
180.0
  0
ARC
  5
15D
330
1F
100
AcDbEntity
  8
1
  6
Continuous
 62
     3
100
AcDbCircle
 10
24.3
 20
58.7000001188311
 30
0.0
 40
0.3000000000000007
100
AcDbArc
 50
180.0
 51
270.0
  0
ARC
  5
15E
330
1F
100
AcDbEntity
  8
1
  6
Continuous
 62
     3
100
AcDbCircle
 10
37.7
 20
58.7000001188311
 30
0.0
 40
0.2999999999999972
100
AcDbArc
 50
270.0
 51
0.0
  0
ARC
  5
15F
330
1F
100
AcDbEntity
  8
1
  6
Continuous
 62
     3
100
AcDbCircle
 10
37.7
 20
61.100000118831
 30
0.0
 40
0.2999999999999972
100
AcDbArc
 50
0.0
 51
90.0
  0
ARC
  5
160
330
1F
100
AcDbEntity
  8
100
  6
Continuous
 62
     3
100
AcDbCircle
 10
28.6698729810778
 20
106.5
 30
0.0
 40
2.0
100
AcDbArc
 50
270.0
 51
308.2132107017198
  0
ARC
  5
161
330
1F
100
AcDbEntity
  8
100
  6
Continuous
 62
     3
100
AcDbCircle
 10
28.6698729810778
 20
95.5
 30
0.0
 40
2.000000000000031
100
AcDbArc
 50
51.78678929826191
 51
90.0
  0
ARC
  5
162
330
1F
100
AcDbEntity
  8
100
  6
Continuous
 62
     3
100
AcDbCircle
 10
36.0
 20
105.0
 30
0.0
 40
2.000000000000033
100
AcDbArc
 50
311.5931433213383
 51
0.0
  0
ARC
  5
163
330
1F
100
AcDbEntity
  8
100
  6
Continuous
 62
     3
100
AcDbCircle
 10
37.0
 20
105.25
 30
0.0
 40
1.0
100
AcDbArc
 50
0.0
 51
126.9736780586304
  0
ARC
  5
164
330
1F
100
AcDbEntity
  8
100
  6
Continuous
 62
     3
100
AcDbCircle
 10
35.195655811369
 20
107.646735706947
 30
0.0
 40
2.000000000000046
100
AcDbArc
 50
251.7197531406376
 51
306.9736780586679
  0
ARC
  5
165
330
1F
100
AcDbEntity
  8
100
  6
Continuous
 62
     3
100
AcDbCircle
 10
35.195655811369
 20
94.3532642930532
 30
0.0
 40
2.000000000000031
100
AcDbArc
 50
53.02632194134236
 51
108.2802468593624
  0
ARC
  5
166
330
1F
100
AcDbEntity
  8
100
  6
Continuous
 62
     3
100
AcDbCircle
 10
36.0
 20
97.0
 30
0.0
 40
2.0
100
AcDbArc
 50
0.0
 51
48.40685667865975
  0
ARC
  5
167
330
1F
100
AcDbEntity
  8
100
  6
Continuous
 62
     3
100
AcDbCircle
 10
37.0
 20
96.75
 30
0.0
 40
1.000000000000008
100
AcDbArc
 50
233.0263219413423
 51
0.0
  0
ARC
  5
168
330
1F
100
AcDbEntity
  8
100
  6
Continuous
 62
     3
100
AcDbCircle
 10
27.5
 20
101.0
 30
0.0
 40
1.5
100
AcDbArc
 50
90.0
 51
270.0
  0
ARC
  5
169
330
1F
100
AcDbEntity
  8
100
  6
Continuous
 62
     3
100
AcDbCircle
 10
27.5
 20
101.0
 30
0.0
 40
3.5
100
AcDbArc
 50
90.0
 51
270.0
  0
CIRCLE
  5
16A
330
1F
100
AcDbEntity
  8
1
  6
Continuous
 62
     3
100
AcDbCircle
 10
32.9999999005854
 20
100.99999987136
 30
0.0
 40
9.400000099414598
  0
CIRCLE
  5
16B
330
1F
100
AcDbEntity
  8
1
  6
Continuous
 62
     3
100
AcDbCircle
 10
32.9999999005854
 20
100.99999987136
 30
0.0
 40
9.0000000994146
  0
CIRCLE
  5
16C
330
1F
100
AcDbEntity
  8
100
  6
Continuous
 62
     3
100
AcDbCircle
 10
33.0
 20
101.0
 30
0.0
 40
5.0
  0
SPLINE
  5
16D
330
1F
100
AcDbEntity
  8
1
  6
DOTTED
 62
     6
100
AcDbSpline
210
0.0
220
0.0
230
1.0
 70
     8
 71
     3
 72
     9
 73
     5
 74
     3
 42
0.0000000001
 43
0.0000000001
 44
0.00000001
 40
0.0
 40
0.0
 40
0.0
 40
0.0
 40
13.56372067583295
 40
27.12748723927554
 40
27.12748723927554
 40
27.12748723927554
 40
27.12748723927554
 10
55.0
 20
36.9
 30
0.0
 10
54.34327762936378
 20
32.40000772007323
 30
0.0
 10
53.02983066632485
 20
23.40000793623403
 30
0.0
 10
54.34327614818696
 20
14.40000772007349
 30
0.0
 10
55.0
 20
9.90000000000002
 30
0.0
 11
55.0
 21
36.9
 31
0.0
 11
53.68655377755325
 21
23.40002305213973
 31
0.0
 11
55.0
 21
9.90000000000002
 31
0.0
  0
SPLINE
  5
16E
330
1F
100
AcDbEntity
  8
0
  6
DOTTED
 62
     6
100
AcDbSpline
210
0.0
220
0.0
230
1.0
 70
     8
 71
     3
 72
   211
 73
   207
 74
   205
 42
0.0000000001
 43
0.0000000001
 44
0.00000001
 40
0.0
 40
0.0
 40
0.0
 40
0.0
 40
0.01201094605643
 40
0.0240218921129954
 40
0.0270768307700935
 40
0.0301317692920401
 40
0.0331867070611233
 40
0.036241644888521
 40
0.0392871752826789
 40
0.0423327055510664
 40
0.0453782378138304
 40
0.0484237705457938
 40
0.0689248261061837
 40
0.0894259030242886
 40
0.1099270382159921
 40
0.1304281702016456
 40
0.1509783284533501
 40
0.1715284796700167
 40
0.1920786966717857
 40
0.2126289440319804
 40
0.2607207401525805
 40
0.3088127161812887
 40
0.3569054979236616
 40
0.4049982238730767
 40
0.4533888766688681
 40
0.5017795811434123
 40
0.5501696068697687
 40
0.5985594910116443
 40
0.6228556418433969
 40
0.6471517567445991
 40
0.6714477499284347
 40
0.6957437528737496
 40
0.7201246104687984
 40
0.7445054655201957
 40
0.7688863658119398
 40
0.7932672670488292
 40
0.8177228112782418
 40
0.8421783547882642
 40
0.8666338557281218
 40
0.8910893590579617
 40
0.9156333888722208
 40
0.9401774103591678
 40
0.964721543487992
 40
0.9892657081172629
 40
1.038593655470551
 40
1.087921737204754
 40
1.137250312429285
 40
1.186578852977514
 40
1.236278229321328
 40
1.285977617402777
 40
1.335676842883314
 40
1.385376066661982
 40
1.435434094359169
 40
1.485492125229687
 40
1.53555025620575
 40
1.585608384297045
 40
1.636053991126393
 40
1.686499615016209
 40
1.736945023195329
 40
1.787390373973172
 40
1.82393055558511
 40
1.860470705035123
 40
1.897010731809245
 40
1.933550767589598
 40
1.97029531159933
 40
2.007039853663596
 40
2.043784432986704
 40
2.080529013215099
 40
2.117474040900725
 40
2.154419068757138
 40
2.191364086652944
 40
2.228309104958332
 40
2.265456558993089
 40
2.302604013235482
 40
2.339751471597619
 40
2.3768989304197
 40
2.414245631873202
 40
2.451592333520381
 40
2.488939030947141
 40
2.526285728397667
 40
2.563831016470256
 40
2.601376305098146
 40
2.638921596574598
 40
2.676466888364569
 40
2.714216195307412
 40
2.751965502384091
 40
2.789714809439838
 40
2.827464117001672
 40
2.86540585905682
 40
2.903347601121119
 40
2.941289341845909
 40
2.979231082826804
 40
3.017375765694291
 40
3.055520448902513
 40
3.09366513195554
 40
3.131809815063804
 40
3.170138383701306
 40
3.208466952704268
 40
3.246795522097794
 40
3.285124091718346
 40
3.323648930049302
 40
3.362173768543227
 40
3.400698607882056
 40
3.439223447621768
 40
3.477922419076978
 40
3.516621390505435
 40
3.555320360539775
 40
3.594019330836951
 40
3.632903888404956
 40
3.671788446180687
 40
3.710673004665422
 40
3.749557563207452
 40
3.788604420354927
 40
3.827651277795161
 40
3.866698131683941
 40
3.905744985643666
 40
3.944973601274386
 40
3.984202217332117
 40
4.023430848019967
 40
4.062659478109182
 40
4.102037190500018
 40
4.141414906240257
 40
4.180792575880938
 40
4.220170233067411
 40
4.248810130418944
 40
4.277450020909307
 40
4.306089884987956
 40
4.334729750974762
 40
4.363442469156955
 40
4.392155186843222
 40
4.420867916252629
 40
4.449580645875737
 40
4.478377788825836
 40
4.50717493152418
 40
4.535972055130011
 40
4.564769179901201
 40
4.593635106239425
 40
4.622501028299988
 40
4.651367008192726
 40
4.680233004266181
 40
4.738212657806869
 40
4.796192378351324
 40
4.854172343005864
 40
4.912152290184906
 40
4.970363652374718
 40
5.02857501979035
 40
5.086786312250273
 40
5.144997603850486
 40
5.203513501742099
 40
5.262029400596016
 40
5.320545320613423
 40
5.379061241056847
 40
5.43776587176663
 40
5.496470502426373
 40
5.555175128390795
 40
5.61387975516825
 40
5.672847852106694
 40
5.731815949259489
 40
5.790784044573608
 40
5.849752139765907
 40
5.908862682944468
 40
5.967973226495106
 40
6.02708376625017
 40
6.086194307192804
 40
6.145796394999778
 40
6.205398484710436
 40
6.265000631940192
 40
6.324602772157804
 40
6.384297194630971
 40
6.443991640029008
 40
6.503685854494225
 40
6.5633799892516
 40
6.578390715959577
 40
6.593401437464466
 40
6.608412109447195
 40
6.623422781950349
 40
6.638432953143878
 40
6.653443125063409
 40
6.668453375777685
 40
6.683463625746385
 40
6.698490641613359
 40
6.713517665954056
 40
6.728544533386438
 40
6.743571365494859
 40
6.758632002084781
 40
6.773692701909113
 40
6.788753752287267
 40
6.803814711875612
 40
6.807457225461301
 40
6.811099745826676
 40
6.814742037977532
 40
6.818384304721357
 40
6.822033538135845
 40
6.82568279904582
 40
6.829332299351323
 40
6.83298178819255
 40
6.836711767793409
 40
6.840441759745252
 40
6.84417153593244
 40
6.847901282159064
 40
6.851629927543249
 40
6.855358609712586
 40
6.859087445871516
 40
6.862816225074688
 40
6.912355610148358
 40
6.961894995221894
 40
6.961894995221894
 40
6.961894995221894
 40
6.961894995221894
 10
21.8755667702825
 20
107.726588011766
 30
0.0
 10
21.87349750730617
 20
107.7231605688384
 30
0.0
 10
21.86935898135346
 20
107.716305682983
 30
0.0
 10
21.86471440180043
 20
107.7085668397076
 30
0.0
 10
21.86161060482716
 20
107.7033850103338
 30
0.0
 10
21.86004203698979
 20
107.7007635137873
 30
0.0
 10
21.85847468634417
 20
107.698141289737
 30
0.0
 10
21.85691023945125
 20
107.6955209839953
 30
0.0
 10
21.85534875032385
 20
107.692902565023
 30
0.0
 10
21.85379021238242
 20
107.6902860369489
 30
0.0
 10
21.85223301654836
 20
107.6876687089536
 30
0.0
 10
21.84770468836726
 20
107.6800486399178
 30
0.0
 10
21.84022880508314
 20
107.6674118061642
 30
0.0
 10
21.829850503984
 20
107.649731674148
 30
0.0
 10
21.81953195503245
 20
107.6320165716998
 30
0.0
 10
21.80926456177937
 20
107.6142528736352
 30
0.0
 10
21.7990480716932
 20
107.5964410124647
 30
0.0
 10
21.78888270660914
 20
107.5785810967123
 30
0.0
 10
21.77877665892331
 20
107.5606875117441
 30
0.0
 10
21.76424180522136
 20
107.5347518569487
 30
0.0
 10
21.74540670532775
 20
107.5007024113274
 30
0.0
 10
21.72245260540781
 20
107.4584411797985
 30
0.0
 10
21.69982260273416
 20
107.4160051540211
 30
0.0
 10
21.67746994272659
 20
107.3733099901647
 30
0.0
 10
21.65539631105046
 20
107.3303582144835
 30
0.0
 10
21.63360330062297
 20
107.2871523587736
 30
0.0
 10
21.61213545785404
 20
107.2437843251752
 30
0.0
 10
21.59450105400956
 20
107.207481651222
 30
0.0
 10
21.58053809114699
 20
107.1783251888507
 30
0.0
 10
21.57012534584775
 20
107.1563734833686
 30
0.0
 10
21.55979376382778
 20
107.1343835205453
 30
0.0
 10
21.54953122643139
 20
107.1123300896858
 30
0.0
 10
21.53933786774506
 20
107.0902134476142
 30
0.0
 10
21.52921383121073
 20
107.0680338758939
 30
0.0
 10
21.51917077291979
 20
107.0458175038567
 30
0.0
 10
21.50919834181575
 20
107.0235420595486
 30
0.0
 10
21.49929664648834
 20
107.0012078629383
 30
0.0
 10
21.48946580644605
 20
106.9788152278093
 30
0.0
 10
21.47971572898277
 20
106.9563873248997
 30
0.0
 10
21.470034569006
 20
106.933897471971
 30
0.0
 10
21.4604224828211
 20
106.9113459313595
 30
0.0
 10
21.45087961309004
 20
106.8887329458021
 30
0.0
 10
21.4414173397735
 20
106.866086065134
 30
0.0
 10
21.42887766180252
 20
106.8357717876467
 30
0.0
 10
21.41338213693292
 20
106.7977402756048
 30
0.0
 10
21.39509179617904
 20
106.7519278991435
 30
0.0
 10
21.37712212391999
 20
106.7059885754689
 30
0.0
 10
21.35942722124435
 20
106.65981016356
 30
0.0
 10
21.34200821501982
 20
106.6133949276242
 30
0.0
 10
21.32486590836688
 20
106.5667451342634
 30
0.0
 10
21.30804169975558
 20
106.519979738816
 30
0.0
 10
21.29149380437261
 20
106.4729891030693
 30
0.0
 10
21.27522277317382
 20
106.4257753600485
 30
0.0
 10
21.25922915824226
 20
106.3783406589514
 30
0.0
 10
21.24354981383336
 20
106.330801123072
 30
0.0
 10
21.22814295581582
 20
106.2830368224259
 30
0.0
 10
21.21300924464434
 20
106.235049822801
 30
0.0
 10
21.19814941098865
 20
106.1868422088558
 30
0.0
 10
21.18360018494949
 20
106.1385400460335
 30
0.0
 10
21.17066790274416
 20
106.0945926853616
 30
0.0
 10
21.1592596752708
 20
106.0550292852771
 30
0.0
 10
21.14929557818676
 20
106.0198738244635
 30
0.0
 10
21.13949059379486
 20
105.9846737101767
 30
0.0
 10
21.12982590800301
 20
105.9493641748592
 30
0.0
 10
21.12030172401027
 20
105.9139458842092
 30
0.0
 10
21.11091820600743
 20
105.8784195444863
 30
0.0
 10
21.10169218667741
 20
105.8428519670381
 30
0.0
 10
21.09260630192954
 20
105.8071793691863
 30
0.0
 10
21.08366067143749
 20
105.7714024643758
 30
0.0
 10
21.07485538550122
 20
105.735521962966
 30
0.0
 10
21.06620574228189
 20
105.6996036282196
 30
0.0
 10
21.05769531324322
 20
105.6635827188722
 30
0.0
 10
21.04932416595235
 20
105.6274599158045
 30
0.0
 10
21.0410924209438
 20
105.591235888417
 30
0.0
 10
21.03301444262924
 20
105.554977260928
 30
0.0
 10
21.02507518984955
 20
105.5186200231883
 30
0.0
 10
21.01727474021596
 20
105.4821648318341
 30
0.0
 10
21.009613342304
 20
105.4456123066599
 30
0.0
 10
21.0021041834365
 20
105.4090282054344
 30
0.0
 10
20.99473351108725
 20
105.3723484317303
 30
0.0
 10
20.98750154860713
 20
105.3355735900232
 30
0.0
 10
20.98040821274007
 20
105.2987043452786
 30
0.0
 10
20.97346525162991
 20
105.2618064877002
 30
0.0
 10
20.96665933247235
 20
105.2248139586169
 30
0.0
 10
20.95999036665614
 20
105.1877273966656
 30
0.0
 10
20.95345837141211
 20
105.1505474182039
 30
0.0
 10
20.94707445346004
 20
105.1133417295541
 30
0.0
 10
20.94082708392057
 20
105.0760478301725
 30
0.0
 10
20.93471620020314
 20
105.038666325607
 30
0.0
 10
20.92874199624138
 20
105.0011977788383
 30
0.0
 10
20.92291414020828
 20
104.9637061917374
 30
0.0
 10
20.91722181931654
 20
104.9261253682518
 30
0.0
 10
20.91166525624408
 20
104.8884558512406
 30
0.0
 10
20.90624461614568
 20
104.850698193773
 30
0.0
 10
20.9009690262073
 20
104.8129199974644
 30
0.0
 10
20.89582949510129
 20
104.7750611933927
 30
0.0
 10
20.89082608412175
 20
104.7371223324249
 30
0.0
 10
20.88595869395681
 20
104.6991039855762
 30
0.0
 10
20.88123442787246
 20
104.6610675894638
 30
0.0
 10
20.87664455244308
 20
104.6229488472074
 30
0.0
 10
20.87218899925448
 20
104.584748303885
 30
0.0
 10
20.8678677299345
 20
104.5464664990796
 30
0.0
 10
20.86368743692165
 20
104.508169044216
 30
0.0
 10
20.85964114499577
 20
104.4697988343405
 30
0.0
 10
20.85572869995501
 20
104.431356401377
 30
0.0
 10
20.85195018898991
 20
104.3928422513043
 30
0.0
 10
20.84831083903224
 20
104.3543147034907
 30
0.0
 10
20.84480440297191
 20
104.3157127153984
 30
0.0
 10
20.84143100154951
 20
104.2770367760014
 30
0.0
 10
20.83819077224838
 20
104.2382873737825
 30
0.0
 10
20.83508845332796
 20
104.1995266869824
 30
0.0
 10
20.83211928187261
 20
104.1607013162231
 30
0.0
 10
20.82928328573455
 20
104.1218117469997
 30
0.0
 10
20.82658037131979
 20
104.0828584739588
 30
0.0
 10
20.82401371170964
 20
104.0438959877236
 30
0.0
 10
20.82157877245258
 20
104.0048643448229
 30
0.0
 10
20.81927552344368
 20
103.9657640169446
 30
0.0
 10
20.81710389497159
 20
103.926595473557
 30
0.0
 10
20.81506664580534
 20
103.8874197070129
 30
0.0
 10
20.81316055965396
 20
103.84818758321
 30
0.0
 10
20.81138542076817
 20
103.8088995707146
 30
0.0
 10
20.80974123779825
 20
103.769556136962
 30
0.0
 10
20.80822967118645
 20
103.7302074052828
 30
0.0
 10
20.8069755315424
 20
103.6944309021487
 30
0.0
 10
20.80593967570822
 20
103.6622283802525
 30
0.0
 10
20.80508821165089
 20
103.6336011276616
 30
0.0
 10
20.80430584710584
 20
103.6049719145951
 30
0.0
 10
20.80359175855611
 20
103.5763166337438
 30
0.0
 10
20.80294593131033
 20
103.5476354424971
 30
0.0
 10
20.80236839167957
 20
103.5189285023131
 30
0.0
 10
20.80185950857041
 20
103.4902202593228
 30
0.0
 10
20.80141867265984
 20
103.4614827458521
 30
0.0
 10
20.80104594069413
 20
103.4327161282085
 30
0.0
 10
20.80074128605253
 20
103.4039205763542
 30
0.0
 10
20.80050481176877
 20
103.3751243901296
 30
0.0
 10
20.80033612229126
 20
103.3463047989977
 30
0.0
 10
20.80023514498933
 20
103.3174619580449
 30
0.0
 10
20.80020177902428
 20
103.2885960085637
 30
0.0
 10
20.8002358152307
 20
103.2597300352384
 30
0.0
 10
20.80037096920632
 20
103.2211597005676
 30
0.0
 10
20.80070823699209
 20
103.1728855662083
 30
0.0
 10
20.80138150617995
 20
103.1149094952396
 30
0.0
 10
20.8023215953893
 20
103.0569370345202
 30
0.0
 10
20.80352873022845
 20
102.9988922926645
 30
0.0
 10
20.80500276070407
 20
102.9407765556104
 30
0.0
 10
20.80674351438645
 20
102.8825910486834
 30
0.0
 10
20.808747630842
 20
102.8244140429682
 30
0.0
 10
20.81101765680793
 20
102.7661452206297
 30
0.0
 10
20.81355378140823
 20
102.7077857414286
 30
0.0
 10
20.81635608276819
 20
102.6493367802176
 30
0.0
 10
20.81941863492976
 20
102.5909008719574
 30
0.0
 10
20.82274349179395
 20
102.5324162910802
 30
0.0
 10
20.82633010622535
 20
102.4738841575934
 30
0.0
 10
20.83017819822906
 20
102.4153055968796
 30
0.0
 10
20.83428267169024
 20
102.3567444447337
 30
0.0
 10
20.83864880055368
 20
102.2981141553282
 30
0.0
 10
20.84327666909638
 20
102.2394158475828
 30
0.0
 10
20.84816668260752
 20
102.1806506712226
 30
0.0
 10
20.85331101101119
 20
102.1219072131695
 30
0.0
 10
20.85871307428534
 20
102.0631392143704
 30
0.0
 10
20.86437265909328
 20
102.0043477545238
 30
0.0
 10
20.87028912574134
 20
101.9455338706801
 30
0.0
 10
20.87645657376697
 20
101.8867457781814
 30
0.0
 10
20.88289144177916
 20
101.8278215327597
 30
0.0
 10
20.88959479754921
 20
101.7687623191744
 30
0.0
 10
20.89656863373582
 20
101.709569428219
 30
0.0
 10
20.90379403952394
 20
101.650406701214
 30
0.0
 10
20.91127444041163
 20
101.591244651409
 30
0.0
 10
20.91900985522539
 20
101.5320843772573
 30
0.0
 10
20.92699884920229
 20
101.4729268430019
 30
0.0
 10
20.93523555188269
 20
101.4138033963102
 30
0.0
 10
20.94160159126614
 20
101.3694581712565
 30
0.0
 10
20.94592760038669
 20
101.3398675233453
 30
0.0
 10
20.94811501878019
 20
101.3250170479192
 30
0.0
 10
20.95031902128053
 20
101.3101690433463
 30
0.0
 10
20.95254016252175
 20
101.2953237778599
 30
0.0
 10
20.95477902290227
 20
101.2804813433155
 30
0.0
 10
20.9570330365313
 20
101.2656413457167
 30
0.0
 10
20.95929966061064
 20
101.2508032430311
 30
0.0
 10
20.96157717576943
 20
101.2359611286274
 30
0.0
 10
20.96386302220831
 20
101.2211146372792
 30
0.0
 10
20.96616696701392
 20
101.2062653337311
 30
0.0
 10
20.96849791680007
 20
101.1914203029612
 30
0.0
 10
20.97086739992981
 20
101.1765700134958
 30
0.0
 10
20.97328528713968
 20
101.1617161148627
 30
0.0
 10
20.97571509811178
 20
101.1468526185829
 30
0.0
 10
20.97811841178952
 20
101.1319846875768
 30
0.0
 10
20.97986719828508
 20
101.1208664722446
 30
0.0
 10
20.98099391301054
 20
101.1135035112346
 30
0.0
 10
20.98153344345566
 20
101.1099012395404
 30
0.0
 10
20.98205591498273
 20
101.106296529704
 30
0.0
 10
20.98255602646715
 20
101.102686373906
 30
0.0
 10
20.98302808613832
 20
101.0990701028404
 30
0.0
 10
20.98347970897439
 20
101.0954488124946
 30
0.0
 10
20.9839182799612
 20
101.0918258407505
 30
0.0
 10
20.98435467724034
 20
101.0881755110078
 30
0.0
 10
20.98479665194407
 20
101.0844988272399
 30
0.0
 10
20.98523595072331
 20
101.0807948671148
 30
0.0
 10
20.98566105989362
 20
101.077089320332
 30
0.0
 10
20.98606362262557
 20
101.0733816861074
 30
0.0
 10
20.98643530673168
 20
101.0696711902527
 30
0.0
 10
20.98677957264002
 20
101.0659583639831
 30
0.0
 10
20.98709971361308
 20
101.0622433540323
 30
0.0
 10
20.98862826227662
 20
101.0433056828059
 30
0.0
 10
20.99014726966094
 20
101.0090611614032
 30
0.0
 10
20.99175610815838
 20
100.9760757998564
 30
0.0
 10
20.9925605274071
 20
100.959583119083
 30
0.0
 11
21.8755667702825
 21
107.726588011766
 31
0.0
 11
21.86936347392068
 21
107.716302977035
 31
0.0
 11
21.86318054083617
 21
107.7060056878943
 31
0.0
 11
21.86161080700587
 21
107.7033848891801
 31
0.0
 11
21.86004223970262
 21
107.7007633922817
 31
0.0
 11
21.85847490237436
 21
107.6981411606992
 31
0.0
 11
21.85690885778968
 21
107.6955181567938
 31
0.0
 11
21.85534897453256
 21
107.6929024313483
 31
0.0
 11
21.85379043647347
 21
107.6902859043116
 31
0.0
 11
21.85223323998736
 21
107.6876685763101
 31
0.0
 11
21.85067738331072
 21
107.6850504510986
 31
0.0
 11
21.84023884069148
 21
107.6674059021648
 31
0.0
 11
21.82986047462545
 21
107.649725866175
 31
0.0
 11
21.81954184497567
 21
107.6320108322687
 31
0.0
 11
21.8092825588715
 21
107.6142613685775
 31
0.0
 11
21.79905794813072
 21
107.5964353668001
 31
0.0
 11
21.78889260609629
 21
107.5785755085601
 31
0.0
 11
21.77878656490592
 21
107.5606819524497
 31
0.0
 11
21.7687399092156
 21
107.5427549511386
 31
0.0
 11
21.74546090105579
 21
107.5006727858759
 31
0.0
 11
21.72250677342317
 21
107.4584123293832
 31
0.0
 11
21.69987651442684
 21
107.4159766482472
 31
0.0
 11
21.6775697967849
 21
107.3733700685055
 31
0.0
 11
21.65545063896199
 21
107.3303305734433
 31
0.0
 11
21.63365737504736
 21
107.2871250885196
 31
0.0
 11
21.61218945875271
 21
107.2437577833259
 31
0.0
 11
21.59104575413139
 21
107.2002316458663
 31
0.0
 11
21.58055163770127
 21
107.1783187166785
 31
0.0
 11
21.57013885222862
 21
107.156367063028
 31
0.0
 11
21.55980725891979
 21
107.1343772139041
 31
0.0
 11
21.54955662392682
 21
107.1123494986036
 31
0.0
 11
21.53935139528878
 21
107.0902072420448
 31
0.0
 11
21.52922733482396
 21
107.0680277584453
 31
0.0
 11
21.51918423973848
 21
107.0458114459668
 31
0.0
 11
21.50922194412902
 21
107.0235587829506
 31
0.0
 11
21.49931013534139
 21
107.0012019117448
 31
0.0
 11
21.48947926028514
 21
106.9788093347605
 31
0.0
 11
21.47972915924554
 21
106.9563815159647
 31
0.0
 11
21.47005963664786
 21
106.9339188363416
 31
0.0
 11
21.4604359484344
 21
106.9113402175908
 31
0.0
 11
21.45089306312979
 21
106.8887273378358
 31
0.0
 11
21.44143074919983
 21
106.866080503926
 31
0.0
 11
21.43204885073787
 21
106.8434002041353
 31
0.0
 11
21.41343589473191
 21
106.7977186514164
 31
0.0
 11
21.39514531352977
 21
106.7519069248951
 31
0.0
 11
21.37717529574315
 21
106.7059679785159
 31
0.0
 11
21.35952434107778
 21
106.6599055348983
 31
0.0
 11
21.34206156882986
 21
106.6133751190998
 31
0.0
 11
21.32491890329183
 21
106.5667258083448
 31
0.0
 11
21.3080943698384
 21
106.5199609915758
 31
0.0
 11
21.29158585491739
 21
106.4730836859866
 31
0.0
 11
21.27527550618005
 21
106.4257573860995
 31
0.0
 11
21.25928154898479
 21
106.378323223433
 31
0.0
 11
21.2436018380168
 21
106.3307841538084
 31
0.0
 11
21.22823427165568
 21
106.2831432670393
 31
0.0
 11
21.21306136390976
 21
106.2350335786293
 31
0.0
 11
21.19820115383154
 21
106.1868263683173
 31
0.0
 11
21.18365158584141
 21
106.1385247195084
 31
0.0
 11
21.16941047605194
 21
106.0901312880629
 31
0.0
 11
21.15928632280988
 21
106.0550216541519
 31
0.0
 11
21.14932208371041
 21
106.0198663350523
 31
0.0
 11
21.13951697548971
 21
105.9846664286684
 31
0.0
 11
21.12987014986971
 21
105.9494228055532
 31
0.0
 11
21.12032811906732
 21
105.9139388491412
 31
0.0
 11
21.11094445944043
 21
105.8784126854935
 31
0.0
 11
21.10171829165761
 21
105.8428452574494
 31
0.0
 11
21.0926487524487
 21
105.8072375667815
 31
0.0
 11
21.08368676335802
 21
105.7713960012154
 31
0.0
 11
21.07488132504658
 21
105.7355156536773
 31
0.0
 11
21.06623153048851
 21
105.6995974772004
 31
0.0
 11
21.05773646429227
 21
105.6636423909412
 31
0.0
 11
21.04934993872027
 21
105.6274540015035
 31
0.0
 11
21.04111804908596
 21
105.5912301233326
 31
0.0
 11
21.03303992512139
 21
105.5549716405185
 31
0.0
 11
21.02511469529837
 21
105.5186794315862
 31
0.0
 11
21.01730023153224
 21
105.4821594334276
 31
0.0
 11
21.0096387151472
 21
105.4456070423894
 31
0.0
 11
21.00212943803956
 21
105.4090230764206
 31
0.0
 11
20.99477168816668
 21
105.3724083344815
 31
0.0
 11
20.98752678200436
 21
105.3355686820516
 31
0.0
 11
20.98043327541567
 21
105.2986995776086
 31
0.0
 11
20.97349014286357
 21
105.2618018565081
 31
0.0
 11
20.96669635707839
 21
105.2248763448623
 31
0.0
 11
20.96001520105487
 21
105.1877229825804
 31
0.0
 11
20.95348305096542
 21
105.1505431331996
 31
0.0
 11
20.94709897784855
 21
105.113337571873
 31
0.0
 11
20.94086205043172
 21
105.0761070607592
 31
0.0
 11
20.93474070492454
 21
105.0386623692881
 31
0.0
 11
20.92876638748407
 21
105.0011939382829
 31
0.0
 11
20.92293841788904
 21
104.9637024664576
 31
0.0
 11
20.91725611401444
 21
104.9261886405885
 31
0.0
 11
20.91168955538037
 21
104.8884523151708
 31
0.0
 11
20.90626879116701
 21
104.8506947705949
 31
0.0
 11
20.90099307693578
 21
104.8129166858821
 31
0.0
 11
20.89586166682392
 21
104.7751187298568
 31
0.0
 11
20.89085008999328
 21
104.73711921313
 31
0.0
 11
20.88598254799338
 21
104.6991009775489
 31
0.0
 11
20.88125812984381
 21
104.6610646908624
 31
0.0
 11
20.87667592319923
 21
104.6230110099442
 31
0.0
 11
20.87221264312745
 21
104.5847455908373
 31
0.0
 11
20.86789122602538
 21
104.5464638910943
 31
0.0
 11
20.8637107849949
 21
104.5081665392423
 31
0.0
 11
20.85967043207319
 21
104.4698541544922
 31
0.0
 11
20.85575200179606
 21
104.431354072728
 31
0.0
 11
20.85197338244042
 21
104.3928400178209
 31
0.0
 11
20.84833392406464
 21
104.3543125649535
 31
0.0
 11
20.84483297568414
 21
104.315772278726
 31
0.0
 11
20.84145409281009
 21
104.2770348037465
 31
0.0
 11
20.83821375733553
 21
104.2382854933085
 31
0.0
 11
20.83511133211482
 21
104.1995248967405
 31
0.0
 11
20.83214617950237
 21
104.1607535572873
 31
0.0
 11
20.82930612180494
 21
104.1218101223416
 31
0.0
 11
20.82660308036208
 21
104.0828569370686
 31
0.0
 11
20.82403629381244
 21
104.0438945397422
 31
0.0
 11
20.82160499977113
 21
104.0049234528516
 31
0.0
 11
20.81929805405263
 21
103.9657627290871
 31
0.0
 11
20.81712629182736
 21
103.9265942753693
 31
0.0
 11
20.81508890826161
 21
103.8874185873237
 31
0.0
 11
20.81318509945058
 21
103.8482361814419
 31
0.0
 11
20.81140762054215
 21
103.8088986065056
 31
0.0
 11
20.80976333978745
 21
103.7695552355555
 31
0.0
 11
20.80825167650807
 21
103.7302065921169
 31
0.0
 11
20.80687204669594
 21
103.6908531106054
 31
0.0
 11
20.80595122852357
 21
103.6622280199645
 31
0.0
 11
20.80509972793486
 21
103.6336007903736
 31
0.0
 11
20.80431732724615
 21
103.6049716153313
 31
0.0
 11
20.80360380725525
 21
103.5763406388728
 31
0.0
 11
20.80295740370135
 21
103.5476351977883
 31
0.0
 11
20.80237983451908
 21
103.5189282897212
 31
0.0
 11
20.80187092171401
 21
103.4902200707257
 31
0.0
 11
20.80143048775648
 21
103.4615107192816
 31
0.0
 11
20.8010573476614
 21
103.4327159939216
 31
0.0
 11
20.80075264937613
 21
103.403920463252
 31
0.0
 11
20.80051613160369
 21
103.3751243109516
 31
0.0
 11
20.80034753280978
 21
103.3463276797331
 31
0.0
 11
20.80024642692695
 21
103.3174619304623
 31
0.0
 11
20.80021301271793
 21
103.2885960277413
 31
0.0
 11
20.80024700059796
 21
103.2597300678579
 31
0.0
 11
20.80034810078287
 21
103.2308642488315
 31
0.0
 11
20.80075293689653
 21
103.1728860086683
 31
0.0
 11
20.80142597483525
 21
103.1149101946218
 31
0.0
 11
20.80236583558746
 21
103.056937848084
 31
0.0
 11
20.80357113649139
 21
102.9989704302994
 31
0.0
 11
20.80504688865826
 21
102.9407777774681
 31
0.0
 11
20.80678740911257
 21
102.8825924366601
 31
0.0
 11
20.80879129048046
 21
102.8244156455032
 31
0.0
 11
20.81105712969294
 21
102.7662484688274
 31
0.0
 11
20.81359740941582
 21
102.7077877359806
 31
0.0
 11
20.81639945748555
 21
102.6493389640063
 31
0.0
 11
20.81946175725706
 21
102.5909032282311
 31
0.0
 11
20.82278279124299
 21
102.5324816253893
 31
0.0
 11
20.82637304462807
 21
102.4738868837532
 31
0.0
 11
20.83022092859268
 21
102.4153084965281
 31
0.0
 11
20.83432519390844
 21
102.3567475187712
 31
0.0
 11
20.83868459290694
 21
102.2982049800028
 31
0.0
 11
20.84331920946989
 21
102.2394192947907
 31
0.0
 11
20.84820906848338
 21
102.1806542902331
 31
0.0
 11
20.8533532424388
 21
102.1219110034738
 31
0.0
 11
20.85875080509098
 21
102.0631904570865
 31
0.0
 11
20.86441471442037
 21
102.0043518945108
 31
0.0
 11
20.87033095611286
 21
101.9455381678555
 31
0.0
 11
20.87649817914525
 21
101.8867502331222
 31
0.0
 11
20.88291503515526
 21
101.8279890213454
 31
0.0
 11
20.88963679738633
 21
101.7687671775421
 31
0.0
 11
20.89661055937312
 21
101.7095744774717
 31
0.0
 11
20.9038358955471
 21
101.650411900858
 31
0.0
 11
20.91131236534371
 21
101.5912805426975
 31
0.0
 11
20.91905145427145
 21
101.5320899135661
 31
0.0
 11
20.92704014663216
 21
101.4729324321648
 31
0.0
 11
20.93527653163487
 21
101.4138091609198
 31
0.0
 11
20.94375875836087
 21
101.3547207394297
 31
0.0
 11
20.94593026861676
 21
101.3398679127792
 31
0.0
 11
20.94811778565296
 21
101.3250174404192
 31
0.0
 11
20.95032188223259
 21
101.3101694697956
 31
0.0
 11
20.95254314466435
 21
101.2953240569617
 31
0.0
 11
20.95478155189812
 21
101.2804817265411
 31
0.0
 11
20.95703513365892
 21
101.2656416918275
 31
0.0
 11
20.95930133389819
 21
101.2508034991148
 31
0.0
 11
20.96157757370053
 21
101.2359668439498
 31
0.0
 11
20.96386589769669
 21
101.2211150838132
 31
0.0
 11
20.9661714774867
 21
101.2062659840974
 31
0.0
 11
20.96850404661221
 21
101.1914212589028
 31
0.0
 11
20.97087337528423
 21
101.1765823922055
 31
0.0
 11
20.97328696560194
 21
101.1617164123767
 31
0.0
 11
20.97571066026012
 21
101.1468520125098
 31
0.0
 11
20.97810789346411
 21
101.131982967098
 31
0.0
 11
20.98044195805592
 21
101.1171039669231
 31
0.0
 11
20.98099200598707
 21
101.1135032235977
 31
0.0
 11
20.9815306133876
 21
101.1099007443569
 31
0.0
 11
20.98205213840493
 21
101.1062959830932
 31
0.0
 11
20.98255098993006
 21
101.1026880398856
 31
0.0
 11
20.98302462690121
 21
101.0990696738825
 31
0.0
 11
20.98347752219892
 21
101.0954486255483
 31
0.0
 11
20.98391738579735
 21
101.091825729953
 31
0.0
 11
20.98435188104638
 21
101.0882021981564
 31
0.0
 11
20.98479567309648
 21
101.0844987137917
 31
0.0
 11
20.98523359562038
 21
101.0807945183563
 31
0.0
 11
20.98565731141452
 21
101.0770888881356
 31
0.0
 11
20.98605852060469
 21
101.0733807837546
 31
0.0
 11
20.98643074096467
 21
101.069670763754
 31
0.0
 11
20.98677554656516
 21
101.0659580585654
 31
0.0
 11
20.98709635744808
 21
101.0622430485415
 31
0.0
 11
20.98739656759883
 21
101.0585263741932
 31
0.0
 11
20.99018350085173
 21
101.0090654433839
 31
0.0
 11
20.9925605274071
 21
100.959583119083
 31
0.0
  0
SPLINE
  5
16F
330
1F
100
AcDbEntity
  8
0
  6
DOTTED
 62
     6
100
AcDbSpline
210
0.0
220
0.0
230
1.0
 70
     8
 71
     3
 72
   203
 73
   199
 74
   197
 42
0.0000000001
 43
0.0000000001
 44
0.00000001
 40
0.0
 40
0.0
 40
0.0
 40
0.0
 40
0.0120271943855028
 40
0.0240543887709781
 40
0.0271128409557993
 40
0.0301712930143398
 40
0.0332297447834498
 40
0.0362881965841909
 40
0.0393376911829662
 40
0.0423871857627331
 40
0.0454366809274114
 40
0.0484861761518317
 40
0.0536040540990568
 40
0.0587219321757013
 40
0.0638398081656628
 40
0.0689576843486973
 40
0.074078912945798
 40
0.0792001406952395
 40
0.0843213781937249
 40
0.0894426188364499
 40
0.1384440752862438
 40
0.1874458327652023
 40
0.2364487992898646
 40
0.285451676644693
 40
0.3347479854338966
 40
0.3840443582081562
 40
0.4333398975396239
 40
0.4826352806328186
 40
0.5073819785810482
 40
0.532128637494925
 40
0.5568751727778172
 40
0.5816217186666792
 40
0.6064535462737282
 40
0.6312853711286658
 40
0.6561172416686482
 40
0.680949113164844
 40
0.7058547109514319
 40
0.7307603080233555
 40
0.7556658627118521
 40
0.7805714199849915
 40
0.8055674510493238
 40
0.8305634730657085
 40
0.8555596056757698
 40
0.8805557725201354
 40
0.9307950438224453
 40
0.9810344639059662
 40
1.03127454168975
 40
1.081514573026318
 40
1.132132877151995
 40
1.182751227817257
 40
1.233368980155316
 40
1.283986603275518
 40
1.309429348207578
 40
1.334872059793484
 40
1.360314654896839
 40
1.385757259073159
 40
1.411301054564914
 40
1.436844847697565
 40
1.462388683877723
 40
1.487932520984513
 40
1.513571198462458
 40
1.539209875270877
 40
1.5648485126879
 40
1.590487152252722
 40
1.6162281997913
 40
1.641969239853146
 40
1.667710380984728
 40
1.693451550529765
 40
1.745245763858513
 40
1.797040099162088
 40
1.848834878655241
 40
1.90062962687088
 40
1.952833140684049
 40
2.005036664937477
 40
2.057240057041005
 40
2.109443448343739
 40
2.162050637826756
 40
2.214657828955624
 40
2.267265055827953
 40
2.319872283535726
 40
2.372886274251564
 40
2.425900266586731
 40
2.478914228768352
 40
2.531928191803703
 40
2.58535347800564
 40
2.638778766722125
 40
2.69220415043754
 40
2.745629529693608
 40
2.799444992991404
 40
2.853260479678551
 40
2.907075658239165
 40
2.960890752341839
 40
2.987948065178549
 40
3.015005355598569
 40
3.042062561125519
 40
3.069119772788596
 40
3.096271987323113
 40
3.123424200224377
 40
3.150576440438349
 40
3.177728681226535
 40
3.20497853783661
 40
3.23222839422096
 40
3.259478236424108
 40
3.286728079212279
 40
3.314068674765931
 40
3.341409268504172
 40
3.368749888486111
 40
3.39609051547191
 40
3.433512947931445
 40
3.470935394237358
 40
3.508357890344315
 40
3.545780382977465
 40
3.583361711880967
 40
3.620943041860728
 40
3.658524357851985
 40
3.69610567393591
 40
3.733860250398319
 40
3.771614826947034
 40
3.809369405474119
 40
3.84712398405228
 40
3.885027216894593
 40
3.922930449985663
 40
3.96083368271352
 40
3.998736915557825
 40
4.036807817237304
 40
4.07487871907118
 40
4.112949621876658
 40
4.151020524928382
 40
4.189228232587102
 40
4.227435940226546
 40
4.265643646844199
 40
4.303851353619518
 40
4.342215909258889
 40
4.380580465061118
 40
4.418945020664208
 40
4.45730957630866
 40
4.495798354798135
 40
4.534287133422086
 40
4.572775912786619
 40
4.611264692362626
 40
4.649913414984237
 40
4.688562137647136
 40
4.727210860111099
 40
4.76585958273245
 40
4.804619458889197
 40
4.843379335077024
 40
4.882139210751552
 40
4.92089908649705
 40
4.959798023146182
 40
4.998696959968126
 40
5.037595896745474
 40
5.076494833570286
 40
5.115491308003981
 40
5.15448778248716
 40
5.193484258258747
 40
5.232480734258229
 40
5.271608483571113
 40
5.310736232866073
 40
5.349863979540627
 40
5.388991726270646
 40
5.4282033213364
 40
5.467414916462313
 40
5.506626517506067
 40
5.545838118719926
 40
5.585168271551402
 40
5.624498424063029
 40
5.663828554883767
 40
5.703158687405928
 40
5.742561412086093
 40
5.781964130725318
 40
5.821366921267895
 40
5.860769734417748
 40
5.9268500355705
 40
5.992930403593177
 40
6.059011080679655
 40
6.125091734910172
 40
6.191306252849683
 40
6.257520796104242
 40
6.32373501415654
 40
6.38994915615406
 40
6.423173018666901
 40
6.456396861980809
 40
6.489620629519733
 40
6.522844400766198
 40
6.556093690108645
 40
6.589342981017572
 40
6.622592297750563
 40
6.655841607506122
 40
6.672491922194135
 40
6.689142234825954
 40
6.705792508055381
 40
6.722442778718289
 40
6.739097987235325
 40
6.75575319942343
 40
6.772408437060373
 40
6.789063673435921
 40
6.835211660280307
 40
6.881359647124078
 40
6.881359647124078
 40
6.881359647124078
 40
6.881359647124078
 10
21.8755181020799
 20
94.2734922393683
 30
0.0
 10
21.87344606654901
 20
94.27692433506276
 30
0.0
 10
21.86930199548726
 20
94.28378852645176
 30
0.0
 10
21.86465136110366
 20
94.29153773521898
 30
0.0
 10
21.8615437144504
 20
94.29672630248601
 30
0.0
 10
21.85997341647936
 20
94.29935085845588
 30
0.0
 10
21.85840433534975
 20
94.30197614184515
 30
0.0
 10
21.85683807430803
 20
94.30459963188545
 30
0.0
 10
21.85527468137134
 20
94.30722135640963
 30
0.0
 10
21.85371416698416
 20
94.30984132093083
 30
0.0
 10
21.85215501560858
 20
94.31246209706644
 30
0.0
 10
21.85024504387687
 20
94.31567640911457
 30
0.0
 10
21.84798557998624
 20
94.31948504486495
 30
0.0
 10
21.84537818924764
 20
94.32388892819466
 30
0.0
 10
21.84277457832887
 20
94.32829504655173
 30
0.0
 10
21.84017410998121
 20
94.3327043169822
 30
0.0
 10
21.83757671703347
 20
94.33711669627944
 30
0.0
 10
21.83498241559525
 20
94.34153219344799
 30
0.0
 10
21.83239178674944
 20
94.34594985139772
 30
0.0
 10
21.82241630179539
 20
94.36299309911747
 30
0.0
 10
21.80518354141591
 20
94.39273682814218
 30
0.0
 10
21.7809565458931
 20
94.43533146189775
 30
0.0
 10
21.75706737425541
 20
94.47811704709578
 30
0.0
 10
21.73346852369648
 20
94.52117542620269
 30
0.0
 10
21.71016192945175
 20
94.56450378494878
 30
0.0
 10
21.68714930955803
 20
94.60809933166573
 30
0.0
 10
21.6644762337212
 20
94.65187205737729
 30
0.0
 10
21.64584929499627
 20
94.68852331200836
 30
0.0
 10
21.63109930461236
 20
94.71796476875545
 30
0.0
 10
21.62009963437651
 20
94.74013245087254
 30
0.0
 10
21.60918482718947
 20
94.76234197903935
 30
0.0
 10
21.59834229303336
 20
94.78461845855878
 30
0.0
 10
21.58757221291754
 20
94.80696162224748
 30
0.0
 10
21.57687478553611
 20
94.82937118109126
 30
0.0
 10
21.5662622158483
 20
94.85182106641761
 30
0.0
 10
21.55572394486606
 20
94.87433307875497
 30
0.0
 10
21.54526013118376
 20
94.89690688627685
 30
0.0
 10
21.53487087422235
 20
94.91954213121755
 30
0.0
 10
21.52456630660257
 20
94.94221604057878
 30
0.0
 10
21.51433384934622
 20
94.96495564313379
 30
0.0
 10
21.50417364996274
 20
94.98776064029961
 30
0.0
 10
21.49408584606336
 20
95.010630754737
 30
0.0
 10
21.48408249703809
 20
95.03353798814301
 30
0.0
 10
21.47082436669785
 20
95.06420538398152
 30
0.0
 10
21.45443878722992
 20
95.10268750575874
 30
0.0
 10
21.43509455046217
 20
95.14905409073859
 30
0.0
 10
21.41608643102848
 20
95.19555976024994
 30
0.0
 10
21.39736590660776
 20
95.24231799970399
 30
0.0
 10
21.37893426879668
 20
95.28932633243134
 30
0.0
 10
21.36079271135713
 20
95.3365822606691
 30
0.0
 10
21.34298544190424
 20
95.38396490620897
 30
0.0
 10
21.32840764666916
 20
95.42359517068654
 30
0.0
 10
21.3168929267922
 20
95.4554099299702
 30
0.0
 10
21.30831730974095
 20
95.47936387909255
 30
0.0
 10
21.2998246117154
 20
95.50334729815651
 30
0.0
 10
21.29140337775256
 20
95.52739160825627
 30
0.0
 10
21.28305367685201
 20
95.5514965543482
 30
0.0
 10
21.27477558022407
 20
95.57566185574696
 30
0.0
 10
21.26657981865923
 20
95.59985521955154
 30
0.0
 10
21.25845603992638
 20
95.62410620641936
 30
0.0
 10
21.25040429112499
 20
95.64841450854223
 30
0.0
 10
21.24242467804845
 20
95.67277983923012
 30
0.0
 10
21.2345268861859
 20
95.69717180063124
 30
0.0
 10
21.22670025342058
 20
95.72162251896884
 30
0.0
 10
21.21894489927625
 20
95.74613174403578
 30
0.0
 10
21.21126090152055
 20
95.77069923444225
 30
0.0
 10
21.20365826127686
 20
95.79529206848268
 30
0.0
 10
21.19359911746466
 20
95.82821520206062
 30
0.0
 10
21.18120610395433
 20
95.86950571504411
 30
0.0
 10
21.16664129132145
 20
95.91921051828072
 30
0.0
 10
21.15239892305066
 20
95.96900886385724
 30
0.0
 10
21.13844010883033
 20
96.01902904333886
 30
0.0
 10
21.12476551780711
 20
96.0692688908202
 30
0.0
 10
21.11137555953015
 20
96.11972628187505
 30
0.0
 10
21.09830345880858
 20
96.17026690472912
 30
0.0
 10
21.08551374503788
 20
96.22101849177807
 30
0.0
 10
21.07300664000174
 20
96.27197906796557
 30
0.0
 10
21.0607826362833
 20
96.32314669655129
 30
0.0
 10
21.0488714613436
 20
96.37438805821321
 30
0.0
 10
21.03724085001664
 20
96.42583285451485
 30
0.0
 10
21.02589121134201
 20
96.47747920066102
 30
0.0
 10
21.01482275995549
 20
96.52932517351894
 30
0.0
 10
21.00406200320793
 20
96.58123586652817
 30
0.0
 10
20.99357929501627
 20
96.63334326756241
 30
0.0
 10
20.9833747606914
 20
96.68564556003274
 30
0.0
 10
20.97344865183979
 20
96.73814097797572
 30
0.0
 10
20.96382471926705
 20
96.79069265934027
 30
0.0
 10
20.95447775238669
 20
96.84342639372551
 30
0.0
 10
20.94540776523959
 20
96.89634040825797
 30
0.0
 10
20.93661519492168
 20
96.94943293199076
 30
0.0
 10
20.92811988147711
 20
97.00257369221721
 30
0.0
 10
20.92127877657529
 20
97.04694553086169
 30
0.0
 10
20.91594393997627
 20
97.08252439374849
 30
0.0
 10
20.9120054017041
 20
97.10929351189228
 30
0.0
 10
20.90814018691391
 20
97.1360732789408
 30
0.0
 10
20.904343483696
 20
97.16289480246567
 30
0.0
 10
20.90061521374531
 20
97.18975789686307
 30
0.0
 10
20.89695537955089
 20
97.21666236851333
 30
0.0
 10
20.89336803954571
 20
97.24357661069754
 30
0.0
 10
20.8898486862966
 20
97.27053265150334
 30
0.0
 10
20.88639732757867
 20
97.29753028632157
 30
0.0
 10
20.88301402057575
 20
97.32456932126188
 30
0.0
 10
20.87970264527272
 20
97.35161725476881
 30
0.0
 10
20.87645935882584
 20
97.37870389961304
 30
0.0
 10
20.87328419195958
 20
97.4058290714471
 30
0.0
 10
20.87017716935618
 20
97.43299258940161
 30
0.0
 10
20.86714155496461
 20
97.46016419113386
 30
0.0
 10
20.86381271631742
 20
97.49068444906575
 30
0.0
 10
20.86022411496801
 20
97.52455679333261
 30
0.0
 10
20.85641352566482
 20
97.56178481443308
 30
0.0
 10
20.85273424258859
 20
97.59902606245238
 30
0.0
 10
20.8491804822488
 20
97.63633269773517
 30
0.0
 10
20.84575212503566
 20
97.67370423337195
 30
0.0
 10
20.84244907607085
 20
97.71114019881415
 30
0.0
 10
20.83927543152814
 20
97.74858735139802
 30
0.0
 10
20.83622577044773
 20
97.78610274362079
 30
0.0
 10
20.83330003910244
 20
97.82368593288905
 30
0.0
 10
20.83049841207478
 20
97.86133649069215
 30
0.0
 10
20.82782485561592
 20
97.8989963595285
 30
0.0
 10
20.82527551172854
 20
97.93671450538746
 30
0.0
 10
20.82285044778656
 20
97.97449049933041
 30
0.0
 10
20.82054959262213
 20
98.01232390425204
 30
0.0
 10
20.81837546386591
 20
98.05016480239108
 30
0.0
 10
20.81632438436713
 20
98.08806854026223
 30
0.0
 10
20.8143963445353
 20
98.12603469780741
 30
0.0
 10
20.81259130905686
 20
98.16406285440368
 30
0.0
 10
20.81091142759388
 20
98.20209674487876
 30
0.0
 10
20.80935415180604
 20
98.24018149194868
 30
0.0
 10
20.80791931558868
 20
98.27831668232974
 30
0.0
 10
20.80660693459578
 20
98.31650191085384
 30
0.0
 10
20.80541821854748
 20
98.35469118830254
 30
0.0
 10
20.80435120434004
 20
98.39293636238008
 30
0.0
 10
20.80340597492021
 20
98.43123703930634
 30
0.0
 10
20.80258259533535
 20
98.46959282391232
 30
0.0
 10
20.80188183125479
 20
98.5079510440891
 30
0.0
 10
20.80130253378412
 20
98.54635270270072
 30
0.0
 10
20.8008446381656
 20
98.58479741133046
 30
0.0
 10
20.80050800161315
 20
98.62328478181921
 30
0.0
 10
20.80029251414395
 20
98.66177302103875
 30
0.0
 10
20.80019744106496
 20
98.70031506026797
 30
0.0
 10
20.80022276135443
 20
98.73891052302025
 30
0.0
 10
20.80036857094251
 20
98.77755903285967
 30
0.0
 10
20.80063434756619
 20
98.81620690342483
 30
0.0
 10
20.80101997327277
 20
98.85489081647151
 30
0.0
 10
20.80152536040176
 20
98.89361040467558
 30
0.0
 10
20.80215050593225
 20
98.93236529995094
 30
0.0
 10
20.80289452325341
 20
98.971118094848
 30
0.0
 10
20.80375804084561
 20
99.00991477573208
 30
0.0
 10
20.80474115050879
 20
99.04875497908887
 30
0.0
 10
20.80584386486733
 20
99.08763834262886
 30
0.0
 10
20.80706452830798
 20
99.12651818173954
 30
0.0
 10
20.80840377670464
 20
99.16542664808628
 30
0.0
 10
20.80986147010867
 20
99.20436339226481
 30
0.0
 10
20.81143745302201
 20
99.24332806713812
 30
0.0
 10
20.81313001094932
 20
99.28228785234123
 30
0.0
 10
20.81494067533797
 20
99.32128613215993
 30
0.0
 10
20.81686940271231
 20
99.36032256268574
 30
0.0
 10
20.81891633386422
 20
99.39939679023193
 30
0.0
 10
20.82107899538693
 20
99.43846478213399
 30
0.0
 10
20.82335870065159
 20
99.47755411486972
 30
0.0
 10
20.82575542392716
 20
99.5166644492569
 30
0.0
 10
20.82826908813183
 20
99.55579545061428
 30
0.0
 10
20.83089761851512
 20
99.59491890571196
 30
0.0
 10
20.83364341443134
 20
99.63407392176202
 30
0.0
 10
20.8365065138193
 20
99.67326015784379
 30
0.0
 10
20.83948691087567
 20
99.71247727071477
 30
0.0
 10
20.84258131753957
 20
99.75168554531035
 30
0.0
 10
20.84579129961868
 20
99.79090879821595
 30
0.0
 10
20.84911669383336
 20
99.83014671779907
 30
0.0
 10
20.85255742008111
 20
99.86939900368515
 30
0.0
 10
20.85611111041425
 20
99.90864125525746
 30
0.0
 10
20.86060486162188
 20
99.95672709479507
 30
0.0
 10
20.86614422585885
 20
100.0136462476364
 30
0.0
 10
20.87285955800659
 20
100.0793848402488
 30
0.0
 10
20.87988825470315
 20
100.1450907900041
 30
0.0
 10
20.88723401829237
 20
100.2108070404102
 30
0.0
 10
20.89489632188829
 20
100.2765320595021
 30
0.0
 10
20.90287438595395
 20
100.3422643455699
 30
0.0
 10
20.91116153565047
 20
100.4079582436915
 30
0.0
 10
20.91832887238314
 20
100.462708728402
 30
0.0
 10
20.92422230076657
 20
100.5065348997655
 30
0.0
 10
20.92872743796485
 20
100.5394518921097
 30
0.0
 10
20.93331007523314
 20
100.5723581520442
 30
0.0
 10
20.93797162387289
 20
100.6052618936822
 30
0.0
 10
20.94271237411986
 20
100.6381629123967
 30
0.0
 10
20.94753079574385
 20
100.6710612505521
 30
0.0
 10
20.95242407569355
 20
100.7039485426044
 30
0.0
 10
20.95656413756953
 20
100.7313539303362
 30
0.0
 10
20.95991359709715
 20
100.7532829211847
 30
0.0
 10
20.962447441972
 20
100.7697392962614
 30
0.0
 10
20.96500294276974
 20
100.7861923078634
 30
0.0
 10
20.96758219392471
 20
100.8026432664822
 30
0.0
 10
20.97018705476809
 20
100.8190918548916
 30
0.0
 10
20.97280996574309
 20
100.8355392477162
 30
0.0
 10
20.97544325374712
 20
100.8519849905907
 30
0.0
 10
20.97963469012413
 20
100.8781373922059
 30
0.0
 10
20.98536754975862
 20
100.9139991442729
 30
0.0
 10
20.99016286819095
 20
100.9443884608131
 30
0.0
 10
20.9925605274071
 20
100.959583119083
 30
0.0
 11
21.8755181020799
 21
94.2734922393683
 31
0.0
 11
21.86930650785201
 21
94.28379124426851
 31
0.0
 11
21.86311538864593
 21
94.29410257045684
 31
0.0
 11
21.86154391764583
 21
94.29672642423758
 31
0.0
 11
21.8599736192258
 21
94.29935097979356
 31
0.0
 11
21.85840455027651
 21
94.30197627022632
 31
0.0
 11
21.85683676748791
 21
94.3046023289738
 31
0.0
 11
21.85527490627454
 21
94.30722149045377
 31
0.0
 11
21.85371439427027
 21
94.3098414560025
 31
0.0
 11
21.85215524515428
 21
94.31246223351948
 31
0.0
 11
21.85059747319556
 21
94.3150838299126
 31
0.0
 11
21.84798622152247
 21
94.31948542500784
 31
0.0
 11
21.84537881881361
 21
94.32388930138227
 31
0.0
 11
21.84277519668321
 21
94.3282954115092
 31
0.0
 11
21.84017528435871
 21
94.33270371192204
 31
0.0
 11
21.8375773268731
 21
94.33711705524051
 31
0.0
 11
21.83498302967772
 21
94.34153255019847
 31
0.0
 11
21.83239240233265
 21
94.34595021060584
 31
0.0
 11
21.82980546312869
 21
94.35037003540731
 31
0.0
 11
21.80524003815216
 21
94.39276912301452
 31
0.0
 11
21.78101308656825
 21
94.43536286730846
 31
0.0
 11
21.75712361202793
 21
94.47814818879147
 31
0.0
 11
21.73357168420759
 21
94.52112014109757
 31
0.0
 11
21.71021863781697
 21
94.56453397857501
 31
0.0
 11
21.68720574771153
 21
94.60812915328155
 31
0.0
 11
21.6645326341705
 21
94.65190106345618
 31
0.0
 11
21.64219815905648
 21
94.69584655259541
 31
0.0
 11
21.63111346059075
 21
94.7179718439893
 31
0.0
 11
21.62011375622578
 21
94.74013946973685
 31
0.0
 11
21.60919894496335
 21
94.76234887998595
 31
0.0
 11
21.59836882658387
 21
94.78459972422422
 31
0.0
 11
21.58758637960647
 21
94.80696841885502
 31
0.0
 11
21.5768889360652
 21
94.82937788621388
 31
0.0
 11
21.56627633673052
 21
94.85182770870485
 31
0.0
 11
21.55574846120115
 21
94.87431738808988
 31
0.0
 11
21.54527427875457
 21
94.89691341214684
 31
0.0
 11
21.53488498230791
 21
94.91954859018574
 31
0.0
 11
21.52458038700506
 21
94.94222240702337
 31
0.0
 11
21.5143602705702
 21
94.96493443034018
 31
0.0
 11
21.50418776246015
 21
94.98776689949531
 31
0.0
 11
21.49409993971856
 21
95.0106369005661
 31
0.0
 11
21.48409654649503
 21
95.03354407781418
 31
0.0
 11
21.47417740360879
 21
95.05648789966918
 31
0.0
 11
21.45449512427866
 21
95.10271118667214
 31
0.0
 11
21.43515066985082
 21
95.14907702984594
 31
0.0
 11
21.41614218167686
 21
95.19558232839418
 31
0.0
 11
21.39746824371833
 21
95.24222292004802
 31
0.0
 11
21.37899028151186
 21
95.28934804737152
 31
0.0
 11
21.36084834179731
 21
95.33660360204465
 31
0.0
 11
21.34304081492999
 21
95.38398554838106
 31
0.0
 11
21.32556567461429
 21
95.4314909506137
 31
0.0
 11
21.31690678895722
 21
95.45541493374478
 31
0.0
 11
21.30833111392797
 21
95.47936883469298
 31
0.0
 11
21.29983837967772
 21
95.50335214369211
 31
0.0
 11
21.29142824424606
 21
95.5273645515117
 31
0.0
 11
21.2830674514257
 21
95.55150130008187
 31
0.0
 11
21.27478930810688
 21
95.57566651704337
 31
0.0
 11
21.26659349029518
 21
95.59985982473778
 31
0.0
 11
21.25847970116624
 21
95.62408076691824
 31
0.0
 11
21.25041796971109
 21
95.64841901395378
 31
0.0
 11
21.24243831019933
 21
95.67278429217019
 31
0.0
 11
21.23454048007378
 21
95.69717617622841
 31
0.0
 11
21.22672421107803
 21
95.72159432066489
 31
0.0
 11
21.21895850918966
 21
95.7461360280742
 31
0.0
 11
21.21127447311894
 21
95.77070341973733
 31
0.0
 11
21.20367177710021
 21
95.79529621055096
 31
0.0
 11
21.19615014760516
 21
95.81991394601313
 31
0.0
 11
21.18126024645479
 21
95.86952172139236
 31
0.0
 11
21.16669508151374
 21
95.91922593791148
 31
0.0
 11
21.15245228966463
 21
95.96902395055342
 31
0.0
 11
21.13852971898129
 21
96.01891240581402
 31
0.0
 11
21.12481891995845
 21
96.06928323908683
 31
0.0
 11
21.11142852290174
 21
96.11974020303772
 31
0.0
 11
21.09835600334201
 21
96.17028031957375
 31
0.0
 11
21.08559874889056
 21
96.22090093318488
 31
0.0
 11
21.07305917124012
 21
96.27199178733365
 31
0.0
 11
21.06083477763342
 21
96.32315897173359
 31
0.0
 11
21.04892320566637
 21
96.37439991993394
 31
0.0
 11
21.03732209699165
 21
96.42571204992885
 31
0.0
 11
21.02594292601876
 21
96.4774904013857
 31
0.0
 11
21.01487404000948
 21
96.52933597155159
 31
0.0
 11
21.00411285120038
 21
96.58124624993275
 31
0.0
 11
20.99365674790938
 21
96.63321884060015
 31
0.0
 11
20.98342554205826
 21
96.6856553129509
 31
0.0
 11
20.97349902129376
 21
96.73815031899863
 31
0.0
 11
20.96387466313346
 21
96.7907016591827
 31
0.0
 11
20.95454996903717
 21
96.84330699378543
 31
0.0
 11
20.94545766139653
 21
96.89634880777896
 31
0.0
 11
20.93666471795861
 21
96.94944109302901
 31
0.0
 11
20.92816905980926
 21
97.00258144715015
 31
0.0
 11
20.91996851511327
 21
97.05576805655485
 31
0.0
 11
20.91595622017844
 21
97.08252622665857
 31
0.0
 11
20.91201761739097
 21
97.10929532027333
 31
0.0
 11
20.90815234491454
 21
97.13607501481249
 31
0.0
 11
20.9043600178666
 21
97.16286514281782
 31
0.0
 11
20.90062734538244
 21
97.18975956436309
 31
0.0
 11
20.89696746332525
 21
97.21666398646732
 31
0.0
 11
20.89338007297842
 21
97.2435781979389
 31
0.0
 11
20.88986488294306
 21
97.27050193502785
 31
0.0
 11
20.88640935711198
 21
97.2975318078818
 31
0.0
 11
20.88302600851735
 21
97.32457080980966
 31
0.0
 11
20.87971459276093
 21
97.35161870114678
 31
0.0
 11
20.87647486167303
 21
97.3786752728893
 31
0.0
 11
20.87329613559551
 21
97.40583045408465
 31
0.0
 11
20.87018907190304
 21
97.43299392627011
 31
0.0
 11
20.86715341465273
 21
97.46016549755437
 31
0.0
 11
20.86418891288545
 21
97.4873449311991
 31
0.0
 11
20.86024612745733
 21
97.5245590803128
 31
0.0
 11
20.85643541203343
 21
97.5617869990765
 31
0.0
 11
20.85275599998026
 21
97.59902817443145
 31
0.0
 11
20.84920713307757
 21
97.63628201314084
 31
0.0
 11
20.84577381583976
 21
97.67370618467339
 31
0.0
 11
20.84247064301146
 21
97.7111420686928
 31
0.0
 11
20.83929687527683
 21
97.74858913146147
 31
0.0
 11
20.8362517698868
 21
97.78604687634505
 31
0.0
 11
20.83332147022774
 21
97.823687564274
 31
0.0
 11
20.83051975722593
 21
97.86133804175607
 31
0.0
 11
20.8278461146419
 21
97.89899783244974
 31
0.0
 11
20.82530002613542
 21
97.9366664617974
 31
0.0
 11
20.82287167833258
 21
97.97449182612938
 31
0.0
 11
20.82057071368303
 21
98.01232515324236
 31
0.0
 11
20.81839647539914
 21
98.05016597431045
 31
0.0
 11
20.81634830622672
 21
98.08801382845161
 31
0.0
 11
20.81441731769989
 21
98.1260357279044
 31
0.0
 11
20.81261216807774
 21
98.16406380965047
 31
0.0
 11
20.81093217239316
 21
98.20209762690465
 31
0.0
 11
20.80937664541856
 21
98.24013673829023
 31
0.0
 11
20.80794001054842
 21
98.278317427189
 31
0.0
 11
20.80662754540711
 21
98.31650258606406
 31
0.0
 11
20.80543874520331
 21
98.35469179395132
 31
0.0
 11
20.80437310489352
 21
98.39288463709973
 31
0.0
 11
20.80342649821228
 21
98.43123751267898
 31
0.0
 11
20.80260303125143
 21
98.46959322990688
 31
0.0
 11
20.80190217978534
 21
98.50795138332757
 31
0.0
 11
20.80132341948512
 21
98.54631157319038
 31
0.0
 11
20.8008649302027
 21
98.58479762075557
 31
0.0
 11
20.80052819312922
 21
98.62328492630047
 31
0.0
 11
20.80031260512826
 21
98.66177310187149
 31
0.0
 11
20.80021756302521
 21
98.70026176410141
 31
0.0
 11
20.80024283707477
 21
98.73891047845913
 31
0.0
 11
20.80038856544879
 21
98.7775589263803
 31
0.0
 11
20.8006542608576
 21
98.81620673555554
 31
0.0
 11
20.8010394360248
 21
98.85485353879142
 31
0.0
 11
20.80154523954066
 21
98.89361011452367
 31
0.0
 11
20.80217031790078
 21
98.93236495008182
 31
0.0
 11
20.80291426805477
 21
98.97111768547525
 31
0.0
 11
20.8037766870345
 21
99.00986796549114
 31
0.0
 11
20.80476088913743
 21
99.0487544492439
 31
0.0
 11
20.80586352304785
 21
99.08763775522908
 31
0.0
 11
20.80708410606067
 21
99.12651753737246
 31
0.0
 11
20.8084221556183
 21
99.16539345420387
 31
0.0
 11
20.80988098230041
 21
99.204362632319
 31
0.0
 11
20.81145688216935
 21
99.24332725167709
 31
0.0
 11
20.81314935710893
 21
99.28228698282584
 31
0.0
 11
20.81495790907126
 21
99.32124149835585
 31
0.0
 11
20.81688874345482
 21
99.36032157825437
 31
0.0
 11
20.81893562231406
 21
99.3993957519734
 31
0.0
 11
20.82109823147408
 21
99.4384636887176
 31
0.0
 11
20.82337625719237
 21
99.4775250655878
 31
0.0
 11
20.82577462913155
 21
99.51666324387502
 31
0.0
 11
20.82828823234318
 21
99.55579419059514
 31
0.0
 11
20.83091670200905
 21
99.59491759540134
 31
0.0
 11
20.83365967270937
 21
99.63403313938953
 31
0.0
 11
20.83652558359634
 21
99.67325873660022
 31
0.0
 11
20.83950591312228
 21
99.71247580600252
 31
0.0
 11
20.84260025120253
 21
99.75168402277173
 31
0.0
 11
20.84580819171328
 21
99.79088311003011
 31
0.0
 11
20.84913557512612
 21
99.83014509204637
 31
0.0
 11
20.85257624486288
 21
99.86939730253093
 31
0.0
 11
20.85612988215409
 21
99.90863951914193
 31
0.0
 11
20.85979615685842
 21
99.94787139538963
 31
0.0
 11
20.86619665773748
 21
100.0136409916248
 31
0.0
 11
20.87291177268966
 21
100.0793792777995
 31
0.0
 11
20.87994027217374
 21
100.1450851076718
 31
0.0
 11
20.8872808693638
 21
100.2107567796197
 31
0.0
 11
20.8949480884764
 21
100.2765258919525
 31
0.0
 11
20.90292591611817
 21
100.3422580758849
 31
0.0
 11
20.9112128066504
 21
100.4079516837747
 31
0.0
 11
20.91980729126628
 21
100.4736056816321
 31
0.0
 11
20.92423518292904
 21
100.5065331597575
 31
0.0
 11
20.92874035878963
 21
100.5394501334187
 31
0.0
 11
20.93332302864919
 21
100.5723563314129
 31
0.0
 11
20.93798342044203
 21
100.6052516156369
 31
0.0
 11
20.94272511686764
 21
100.6381610604329
 31
0.0
 11
20.94754327070924
 21
100.6710593998972
 31
0.0
 11
20.95243628606498
 21
100.7039467145328
 31
0.0
 11
20.95740256044348
 21
100.7368230391147
 31
0.0
 11
20.95991689972931
 21
100.7532824156876
 31
0.0
 11
20.9624510536736
 21
100.7697387510792
 31
0.0
 11
20.96500685916166
 21
100.7861916978342
 31
0.0
 11
20.96758616329885
 21
100.8026409745148
 31
0.0
 11
20.97019001976816
 21
100.8190913818725
 31
0.0
 11
20.97281169366524
 21
100.8355389628195
 31
0.0
 11
20.97544365440668
 21
100.8519849265614
 31
0.0
 11
20.97807836603744
 21
100.868430448546
 31
0.0
 11
20.98535225824391
 21
100.9140015707832
 31
0.0
 11
20.9925605274071
 21
100.959583119083
 31
0.0
  0
SPLINE
  5
170
330
1F
100
AcDbEntity
  8
0
  6
DOTTED
 62
     3
100
AcDbSpline
210
0.0
220
0.0
230
1.0
 70
     8
 71
     3
 72
    27
 73
    23
 74
    21
 42
0.0000000001
 43
0.0000000001
 44
0.00000001
 40
0.0
 40
0.0
 40
0.0
 40
0.0
 40
0.0004580075651423
 40
0.0009160151303093
 40
0.0010305173289514
 40
0.0011450195275984
 40
0.0012595217262747
 40
0.0013740239249303
 40
0.0014885260149603
 40
0.0016030281049703
 40
0.0017175301949815
 40
0.0018320322850146
 40
0.0019465340313254
 40
0.002061035777659
 40
0.0021755375240074
 40
0.0022900392703703
 40
0.0024045404378829
 40
0.0025190416053736
 40
0.0026335427728095
 40
0.0027480439402313
 40
0.0032060432557369
 40
0.0036640425712826
 40
0.0036640425712826
 40
0.0036640425712826
 40
0.0036640425712826
 10
20.9889576345508
 20
100.960249730686
 30
0.0
 10
20.98910775607809
 20
100.9602219564511
 30
0.0
 10
20.9894079991327
 20
100.9601664079814
 30
0.0
 10
20.98974577262673
 20
100.9601039157011
 30
0.0
 10
20.98997095504627
 20
100.9600622539175
 30
0.0
 10
20.99008354644763
 20
100.9600414229349
 30
0.0
 10
20.99019613783783
 20
100.9600205918919
 30
0.0
 10
20.99030872918011
 20
100.9599997607889
 30
0.0
 10
20.99042132047323
 20
100.9599789296194
 30
0.0
 10
20.990533911716
 20
100.9599580983767
 30
0.0
 10
20.99064650294278
 20
100.9599372670477
 30
0.0
 10
20.99075909403969
 20
100.9599164356464
 30
0.0
 10
20.99087168500558
 20
100.9598956041667
 30
0.0
 10
20.99098427583919
 20
100.9598747726017
 30
0.0
 10
20.99109686665204
 20
100.9598539409244
 30
0.0
 10
20.9912094572531
 20
100.9598331091629
 30
0.0
 10
20.99132204764118
 20
100.9598122773109
 30
0.0
 10
20.99143463781499
 20
100.9597914453615
 30
0.0
 10
20.99154722796347
 20
100.9597706132754
 30
0.0
 10
20.99177240644944
 20
100.9597289491252
 30
0.0
 10
20.99211017312266
 20
100.9596664520988
 30
0.0
 10
20.99241040931228
 20
100.9596108967549
 30
0.0
 10
20.9925605274071
 20
100.959583119083
 30
0.0
 11
20.9889576345508
 21
100.960249730686
 31
0.0
 11
20.9894079991231
 21
100.9601664079295
 31
0.0
 11
20.98985836363355
 21
100.9600830848386
 31
0.0
 11
20.98997095504462
 21
100.9600622539086
 31
0.0
 11
20.99008354644576
 21
100.9600414229248
 31
0.0
 11
20.99019613783578
 21
100.9600205918808
 31
0.0
 11
20.99030872921345
 21
100.9599997607701
 31
0.0
 11
20.99042132047078
 21
100.9599789296061
 31
0.0
 11
20.99053391171334
 21
100.9599580983624
 31
0.0
 11
20.9906465029399
 21
100.9599372670322
 31
0.0
 11
20.99075909414929
 21
100.959916435609
 31
0.0
 11
20.9908716850023
 21
100.959895604149
 31
0.0
 11
20.99098427583573
 21
100.959874772583
 31
0.0
 11
20.99109686664836
 21
100.9598539409046
 31
0.0
 11
20.99120945743896
 21
100.9598331091069
 31
0.0
 11
20.9913220476371
 21
100.9598122772889
 31
0.0
 11
20.99143463781079
 21
100.9597914453388
 31
0.0
 11
20.99154722795881
 21
100.9597706132502
 31
0.0
 11
20.99165981807997
 21
100.9597497810166
 31
0.0
 11
20.99211017300684
 21
100.9596664514729
 31
0.0
 11
20.9925605274071
 21
100.959583119083
 31
0.0
  0
SPLINE
  5
171
330
1F
100
AcDbEntity
  8
0
  6
DOTTED
 62
     3
100
AcDbSpline
210
0.0
220
0.0
230
1.0
 70
     8
 71
     3
 72
    11
 73
     7
 74
     5
 42
0.0000000001
 43
0.0000000001
 44
0.00000001
 40
0.0
 40
0.0
 40
0.0
 40
0.0
 40
0.0102740850357593
 40
0.0205481700713095
 40
0.0308216967852243
 40
0.0410952234996633
 40
0.0410952234996633
 40
0.0410952234996633
 40
0.0410952234996633
 10
20.9925605274071
 20
100.959583119083
 30
0.0
 10
20.99318007562385
 20
100.9629513079055
 30
0.0
 10
20.99441917205735
 20
100.9696876855504
 30
0.0
 10
20.99627874523735
 20
100.9797918919532
 30
0.0
 10
20.99813892297956
 20
100.9898957978389
 30
0.0
 10
20.99937965407331
 20
100.9966314961216
 30
0.0
 10
21.0000000196202
 20
100.999999345263
 30
0.0
 11
20.9925605274071
 21
100.959583119083
 31
0.0
 11
20.99441933242655
 21
100.9696876560453
 31
0.0
 11
20.99627888530405
 21
100.9797920554046
 31
0.0
 11
20.99813908174542
 21
100.9898957686003
 31
0.0
 11
21.0000000196202
 21
100.999999345263
 31
0.0
  0
SPLINE
  5
172
330
1F
100
AcDbEntity
  8
0
  6
DOTTED
 62
     6
100
AcDbSpline
210
0.0
220
0.0
230
1.0
 70
     8
 71
     3
 72
    11
 73
     7
 74
     5
 42
0.0000000001
 43
0.0000000001
 44
0.00000001
 40
0.0
 40
0.0
 40
0.0
 40
0.0
 40
1.155280218868741
 40
2.310560437737528
 40
3.936341751140509
 40
5.562123064543514
 40
5.562123064543514
 40
5.562123064543514
 40
5.562123064543514
 10
39.0109212669456
 20
88.063098061998
 30
0.0
 10
39.28924316652343
 20
88.3292443597049
 30
0.0
 10
39.84588696567912
 20
88.86153695511875
 30
0.0
 10
40.79420217959211
 20
89.76836725146379
 30
0.0
 10
41.85586771452095
 20
90.78358810833166
 30
0.0
 10
42.63921084998518
 20
91.53266319024794
 30
0.0
 10
43.0308824177173
 20
91.9072007312061
 30
0.0
 11
39.0109212669456
 21
88.063098061998
 31
0.0
 11
39.84588692685131
 21
88.86153699572283
 31
0.0
 11
40.68085249383256
 21
89.65997602662324
 31
0.0
 11
41.85586760768064
 21
90.78358822005961
 31
0.0
 11
43.0308824177173
 21
91.9072007312061
 31
0.0
  0
SPLINE
  5
173
330
1F
100
AcDbEntity
  8
0
  6
DOTTED
 62
     6
100
AcDbSpline
210
0.0
220
0.0
230
1.0
 70
     8
 71
     3
 72
    27
 73
    23
 74
    21
 42
0.0000000001
 43
0.0000000001
 44
0.00000001
 40
0.0
 40
0.0
 40
0.0
 40
0.0
 40
0.1930217131886212
 40
0.3860434389817613
 40
0.4390957482269658
 40
0.4921457486190997
 40
0.5451939436076226
 40
0.5982422017341009
 40
0.6424768161767521
 40
0.6867108230760146
 40
0.7309446913163543
 40
0.7751789816322587
 40
0.8250904246960931
 40
0.875002126637521
 40
0.9249146629544606
 40
0.9748272876327307
 40
1.023802267444452
 40
1.072776345395702
 40
1.121750975180202
 40
1.170728886569284
 40
1.37389869883698
 40
1.577068483651631
 40
1.577068483651631
 40
1.577068483651631
 40
1.577068483651631
 10
37.5779374174178
 20
87.5
 30
0.0
 10
37.64229741195743
 20
87.50166056144292
 30
0.0
 10
37.77101740523945
 20
87.50498168443715
 30
0.0
 10
37.91627437267739
 20
87.52556232963572
 30
0.0
 10
38.01414297475771
 20
87.54459608816093
 30
0.0
 10
38.06594821595652
 20
87.55605852250518
 30
0.0
 10
38.11744900982845
 20
87.56880020591694
 30
0.0
 10
38.16578076834228
 20
87.58205359530949
 30
0.0
 10
38.2109773527162
 20
87.59557412278673
 30
0.0
 10
38.25308327052483
 20
87.60914044284573
 30
0.0
 10
38.29489390689081
 20
87.62359082524125
 30
0.0
 10
38.33816508655453
 20
87.63957747110732
 30
0.0
 10
38.38282577736818
 20
87.65723282757365
 30
0.0
 10
38.4287929751024
 20
87.67669280705871
 30
0.0
 10
38.47427863029728
 20
87.69725436092062
 30
0.0
 10
38.51897212515782
 20
87.71877490304178
 30
0.0
 10
38.56285631728921
 20
87.74122243258589
 30
0.0
 10
38.60591340826747
 20
87.76456722659006
 30
0.0
 10
38.64840532503948
 20
87.78893465782379
 30
0.0
 10
38.73419709266244
 20
87.84101958564837
 30
0.0
 10
38.85978163782
 20
87.92706537232182
 30
0.0
 10
38.96054139283957
 20
88.0177538341483
 30
0.0
 10
39.0109212669456
 20
88.063098061998
 30
0.0
 11
37.5779374174178
 21
87.5
 31
0.0
 11
37.77076409495885
 21
87.50867491733393
 31
0.0
 11
37.96202866236609
 21
87.5346605264798
 31
0.0
 11
38.0140993508441
 21
87.5448188195291
 31
0.0
 11
38.06589828020883
 21
87.55627191772449
 31
0.0
 11
38.11739317841955
 21
87.56901501192519
 31
0.0
 11
38.16855276627987
 21
87.58304406250657
 31
0.0
 11
38.21093161366828
 21
87.5957221699726
 31
0.0
 11
38.25303411806415
 21
87.60928780633658
 31
0.0
 11
38.29484131004639
 21
87.62373750522838
 31
0.0
 11
38.33633416522774
 21
87.6390677175117
 31
0.0
 11
38.38275005414176
 21
87.6574175786838
 31
0.0
 11
38.42871240302519
 21
87.67687626506824
 31
0.0
 11
38.47419346857322
 21
87.69743676015483
 31
0.0
 11
38.51916389126948
 21
87.71909157912876
 31
0.0
 11
38.56276513140023
 21
87.7413958501686
 31
0.0
 11
38.60581891100793
 21
87.76473749476934
 31
0.0
 11
38.64829912435315
 21
87.7891084987838
 31
0.0
 11
38.69018032062232
 21
87.81450143487044
 31
0.0
 11
38.85695268896617
 21
87.93054000506964
 31
0.0
 11
39.0109212669456
 21
88.063098061998
 31
0.0
  0
SPLINE
  5
174
330
1F
100
AcDbEntity
  8
0
  6
DOTTED
 62
     6
100
AcDbSpline
210
0.0
220
0.0
230
1.0
 70
     8
 71
     3
 72
    35
 73
    31
 74
    29
 42
0.0000000001
 43
0.0000000001
 44
0.00000001
 40
0.0
 40
0.0
 40
0.0
 40
0.0
 40
0.2031697756559353
 40
0.4063395735510276
 40
0.4295222214310887
 40
0.4527037883585417
 40
0.4758839398848311
 40
0.499064425425266
 40
0.5255903405961199
 40
0.5521162358464421
 40
0.5786429073749153
 40
0.6051695376641327
 40
0.6286145524440593
 40
0.6520595077047763
 40
0.6755037745793229
 40
0.6989481100974473
 40
0.7246842351184632
 40
0.7504202848326182
 40
0.7761582588857939
 40
0.8018966359083954
 40
0.8544225239428191
 40
0.9069503193565661
 40
0.9594828173441778
 40
1.012014513380739
 40
1.056771082311106
 40
1.101526810576517
 40
1.146278387172396
 40
1.191032155322434
 40
1.384053898278604
 40
1.577075654257065
 40
1.577075654257065
 40
1.577075654257065
 40
1.577075654257065
 10
39.0109212670564
 20
113.936901937882
 30
0.0
 10
38.9605444291795
 20
113.9822485647415
 30
0.0
 10
38.85979074791138
 20
114.0729418234241
 30
0.0
 10
38.74128829297179
 20
114.1540867096678
 30
0.0
 10
38.67045843466292
 20
114.1976828478368
 30
0.0
 10
38.65057275338583
 20
114.2095989355369
 30
0.0
 10
38.63055452361451
 20
114.2212879128736
 30
0.0
 10
38.60943454826378
 20
114.2332981673576
 30
0.0
 10
38.58719335456342
 20
114.2455893335426
 30
0.0
 10
38.56381104946198
 20
114.258117086861
 30
0.0
 10
38.54026805270398
 20
114.270340682477
 30
0.0
 10
38.51748631568276
 20
114.2817971588893
 30
0.0
 10
38.49549032247484
 20
114.292525169528
 30
0.0
 10
38.47430210264092
 20
114.302562065541
 30
0.0
 10
38.45300138535719
 20
114.3123574021661
 30
0.0
 10
38.43089349391182
 20
114.3222217194475
 30
0.0
 10
38.40796863444481
 20
114.3321258988511
 30
0.0
 10
38.38421714797286
 20
114.3420394635639
 30
0.0
 10
38.3603439794711
 20
114.3516584330782
 30
0.0
 10
38.32803017276176
 20
114.364216183097
 30
0.0
 10
38.28709960814151
 20
114.3792446849986
 30
0.0
 10
38.23734622400772
 20
114.3961097258374
 30
0.0
 10
38.18718527075675
 20
114.4117277548853
 30
0.0
 10
38.13914278835874
 20
114.4253832083381
 30
0.0
 10
38.09330966726782
 20
114.4372784247531
 30
0.0
 10
38.04975926033593
 20
114.4476027436891
 30
0.0
 10
38.00600129159356
 20
114.4570149936364
 30
0.0
 10
37.91353009115429
 20
114.4748181862327
 30
0.0
 10
37.7710171579056
 20
114.4950225060905
 30
0.0
 10
37.64229733236109
 20
114.4983408353262
 30
0.0
 10
37.5779374174178
 20
114.5
 30
0.0
 11
39.0109212670564
 21
113.936901937882
 31
0.0
 11
38.85695254667397
 21
114.0694598153691
 31
0.0
 11
38.69018032072992
 21
114.1854985650624
 31
0.0
 11
38.6704338566311
 21
114.1976440299908
 31
0.0
 11
38.65055015272174
 21
114.2095613855723
 31
0.0
 11
38.63053250875377
 21
114.2212495571467
 31
0.0
 11
38.61038241941996
 21
114.2327085627637
 31
0.0
 11
38.5871658751381
 21
114.2455388490918
 31
0.0
 11
38.56378453153019
 21
114.258066254646
 31
0.0
 11
38.5402419988578
 21
114.2702897344185
 31
0.0
 11
38.5165432689458
 21
114.2822074655389
 31
0.0
 11
38.49547101795525
 21
114.2924850604046
 31
0.0
 11
38.47428311095953
 21
114.3025219186938
 31
0.0
 11
38.45298312088252
 21
114.3123170231855
 31
0.0
 11
38.43157334382742
 21
114.3218699449552
 31
0.0
 11
38.40794781832403
 21
114.3320769364701
 31
0.0
 11
38.38419757692702
 21
114.3419900736362
 31
0.0
 11
38.36032461127859
 21
114.3516090558854
 31
0.0
 11
38.33633416530485
 21
114.3609322824588
 31
0.0
 11
38.28702724940565
 21
114.3790374463165
 31
0.0
 11
38.2372800928634
 21
114.3959013043267
 31
0.0
 11
38.18712276280791
 21
114.4115187812844
 31
0.0
 11
38.13659277673688
 21
114.4258819145128
 31
0.0
 11
38.09327144646534
 21
114.4371252594743
 31
0.0
 11
38.04972316544197
 21
114.4474510733637
 31
0.0
 11
38.005971054633
 21
114.4568562000282
 31
0.0
 11
37.96202866240623
 21
114.4653394735129
 31
0.0
 11
37.77076416754915
 21
114.4913257441361
 31
0.0
 11
37.5779374174178
 21
114.5
 31
0.0
  0
SPLINE
  5
175
330
1F
100
AcDbEntity
  8
0
  6
DOTTED
 62
     6
100
AcDbSpline
210
0.0
220
0.0
230
1.0
 70
     8
 71
     3
 72
    75
 73
    71
 74
    69
 42
0.0000000001
 43
0.0000000001
 44
0.00000001
 40
0.0
 40
0.0
 40
0.0
 40
0.0
 40
0.1139648647260861
 40
0.2279297294521893
 40
0.3120251997670875
 40
0.3961206766521379
 40
0.4802161241013797
 40
0.5643115738834401
 40
0.6478305865448307
 40
0.7313495824991798
 40
0.8148689102837404
 40
0.8983883017401637
 40
1.156682001997641
 40
1.414976218241812
 40
1.673270145340069
 40
1.931564043909951
 40
2.184682272298258
 40
2.437800024681334
 40
2.690925636266066
 40
2.944053089701118
 40
3.603880611232674
 40
4.263718457917081
 40
4.923584689236171
 40
5.583447270598962
 40
6.216039074086865
 40
6.848629924803872
 40
7.481229254857201
 40
8.113832351156239
 40
8.846662118781726
 40
9.579498255806843
 40
10.31235119821253
 40
11.04519981366146
 40
11.76397308986489
 40
12.48274811678651
 40
13.20151381825043
 40
13.92027724059964
 40
14.63962569797766
 40
15.35897651723012
 40
16.07833701163151
 40
16.79769571733084
 40
17.53112509608775
 40
18.2645588548263
 40
18.99797535028204
 40
19.73138533392305
 40
20.36193753941627
 40
20.99248588384058
 40
21.62302528269451
 40
22.25356566013351
 40
22.91117092688564
 40
23.56877978830955
 40
24.22636075822899
 40
24.88393152649865
 40
25.13771180094594
 40
25.3914902339862
 40
25.645260807147
 40
25.8990318563194
 40
26.15800233701743
 40
26.41697284680305
 40
26.67594364567577
 40
26.93491392736371
 40
27.01989753826134
 40
27.10488108341247
 40
27.18986428687271
 40
27.27484750757715
 40
27.36042676337414
 40
27.44600601682352
 40
27.53158529913748
 40
27.61716457446444
 40
27.73290080015403
 40
27.84863702584344
 40
27.84863702584344
 40
27.84863702584344
 40
27.84863702584344
 10
52.0
 20
87.5
 30
0.0
 10
52.01479223655974
 20
87.53499001339563
 30
0.0
 10
52.04437670967921
 20
87.60497004018683
 30
0.0
 10
52.08459504837941
 20
87.70088804226697
 30
0.0
 10
52.12080273882943
 20
87.78769112588472
 30
0.0
 10
52.15304082600885
 20
87.8653619756817
 30
0.0
 10
52.18514514886438
 20
87.94308819599806
 30
0.0
 10
52.2170408218446
 20
88.02069256181196
 30
0.0
 10
52.248728345903
 20
88.09817459225222
 30
0.0
 10
52.2802079949354
 20
88.1755340178575
 30
0.0
 10
52.31155174947708
 20
88.25294874656879
 30
0.0
 10
52.36452699121288
 20
88.38445725685261
 30
0.0
 10
52.43859667848221
 20
88.57027557566518
 30
0.0
 10
52.53289920636475
 20
88.81074070175949
 30
0.0
 10
52.6258387031537
 20
89.05173609009069
 30
0.0
 10
52.71677930628042
 20
89.29164864345665
 30
0.0
 10
52.80572941008424
 20
89.53046594890074
 30
0.0
 10
52.89269861683875
 20
89.76817811640906
 30
0.0
 10
52.97826533617681
 20
90.00640220777917
 30
0.0
 10
53.10746816973634
 20
90.37299534056338
 30
0.0
 10
53.27631677453881
 20
90.8693515644672
 30
0.0
 10
53.47854210080227
 20
91.49747447255392
 30
0.0
 10
53.67005037522243
 20
92.12896292675677
 30
0.0
 10
53.84791439377076
 20
92.75499513308745
 30
0.0
 10
54.01223760349301
 20
93.37531467293178
 30
0.0
 10
54.16319780305289
 20
93.98966851506688
 30
0.0
 10
54.30275166424467
 20
94.60671965268999
 30
0.0
 10
54.43727366704418
 20
95.2590444798761
 30
0.0
 10
54.56403972800354
 20
95.94694765328705
 30
0.0
 10
54.68011684320236
 20
96.6706035049886
 30
0.0
 10
54.77901404397734
 20
97.39681643084644
 30
0.0
 10
54.85976794877258
 20
98.12055677575175
 30
0.0
 10
54.92233432918624
 20
98.8413838462547
 30
0.0
 10
54.96696071077623
 20
99.55884081734723
 30
0.0
 10
54.9939004529238
 20
100.2771770725849
 30
0.0
 10
55.00300156954673
 20
100.9961533990548
 30
0.0
 10
54.99409173964159
 20
101.7153273418493
 30
0.0
 10
54.96730868898295
 20
102.4342552493057
 30
0.0
 10
54.92280887050826
 20
103.1523067332547
 30
0.0
 10
54.8603395902185
 20
103.8737284911788
 30
0.0
 10
54.77965266642201
 20
104.5980624428882
 30
0.0
 10
54.68079288082919
 20
105.3248666492767
 30
0.0
 10
54.56472340361714
 20
106.0491117703935
 30
0.0
 10
54.43809100338451
 20
106.7367379280314
 30
0.0
 10
54.30389486045071
 20
107.3879309984429
 30
0.0
 10
54.16491255363653
 20
108.0030081353112
 30
0.0
 10
54.01459333807179
 20
108.6154068282391
 30
0.0
 10
53.85099706089498
 20
109.233725414047
 30
0.0
 10
53.67394782892365
 20
109.8577134186823
 30
0.0
 10
53.48334324055066
 20
110.4871168742364
 30
0.0
 10
53.28208421528564
 20
111.1131794687208
 30
0.0
 10
53.11388684687197
 20
111.6083976074467
 30
0.0
 10
52.98496679191126
 20
111.9747542233654
 30
0.0
 10
52.89928970873162
 20
112.2136323164124
 30
0.0
 10
52.81220106179765
 20
112.4519959152448
 30
0.0
 10
52.72312056081192
 20
112.6914697285098
 30
0.0
 10
52.63203853200341
 20
112.9320437554069
 30
0.0
 10
52.53894651457345
 20
113.1737054711515
 30
0.0
 10
52.44448274360544
 20
113.4148341095383
 30
0.0
 10
52.37012799399255
 20
113.6015497888698
 30
0.0
 10
52.31674480466979
 20
113.7341894690658
 30
0.0
 10
52.28487337577069
 20
113.8129702274472
 30
0.0
 10
52.2528611230759
 20
113.8916937203845
 30
0.0
 10
52.22063367384869
 20
113.970543920806
 30
0.0
 10
52.18819074042703
 20
114.0495205421384
 30
0.0
 10
52.15553180134204
 20
114.128623079444
 30
0.0
 10
52.12273427264399
 20
114.2076682701007
 30
0.0
 10
52.0859261401009
 20
114.2959324694369
 30
0.0
 10
52.04506537900049
 20
114.3933979475662
 30
0.0
 10
52.01502179300015
 20
114.4644659825221
 30
0.0
 10
52.0
 20
114.5
 30
0.0
 11
52.0
 21
87.5
 31
0.0
 11
52.04432531473081
 21
87.60499169903402
 31
0.0
 11
52.08840771345606
 21
87.71008562138287
 31
0.0
 11
52.12077997041221
 21
87.78770060129686
 31
0.0
 11
52.15301853614467
 21
87.86537121422117
 31
0.0
 11
52.18512254813157
 21
87.94309750768763
 31
0.0
 11
52.2170911672706
 21
88.0208795883
 31
0.0
 11
52.24870581785404
 21
88.09818378834386
 31
0.0
 11
52.28018529634187
 21
88.17554311305237
 31
0.0
 11
52.31152895170432
 21
88.25295792676464
 31
0.0
 11
52.34273590109185
 21
88.33042801814948
 31
0.0
 11
52.43837342745832
 21
88.57036363272806
 31
0.0
 11
52.53267206537719
 21
88.81082915838992
 31
0.0
 11
52.62560748133687
 21
89.05182451360707
 31
0.0
 11
52.71715551882104
 21
89.29335027801167
 31
0.0
 11
52.80549953621004
 21
89.53055097812448
 31
0.0
 11
52.89246380177768
 21
89.76826049220783
 31
0.0
 11
52.97802717537265
 21
90.00648619262488
 31
0.0
 11
53.06216363545611
 21
90.24522153514278
 31
0.0
 11
53.27460087359773
 21
90.8699156827232
 31
0.0
 11
53.47675251520671
 21
91.49802450905182
 31
0.0
 11
53.66819035389007
 21
92.12951084869465
 31
0.0
 11
53.84846402577236
 21
92.76427066902738
 31
0.0
 11
54.01039838981933
 21
93.37578489746429
 31
0.0
 11
54.16129595595276
 21
93.99011470216684
 31
0.0
 11
54.3007879435136
 21
94.60714298173775
 31
0.0
 11
54.4284996920268
 21
95.2267205690816
 31
0.0
 11
54.56124847631735
 21
95.94742663162542
 31
0.0
 11
54.67725254196179
 21
96.67102310790474
 31
0.0
 11
54.77607696313417
 21
97.39718229773341
 31
0.0
 11
54.85727664730665
 21
98.12551855555373
 31
0.0
 11
54.91941193631711
 21
98.84160111255662
 31
0.0
 11
54.96401311678672
 21
99.55899101632366
 31
0.0
 11
54.99092697887368
 21
100.2772526522395
 31
0.0
 11
54.99999971720855
 21
100.9959588110598
 31
0.0
 11
54.99111331499432
 21
101.7152523776846
 31
0.0
 11
54.96435607950602
 21
102.4341053887433
 31
0.0
 11
54.91988138551033
 21
103.1520897357172
 31
0.0
 11
54.85784203841709
 21
103.8687682318908
 31
0.0
 11
54.77671048703372
 21
104.5976964347982
 31
0.0
 11
54.67792359074513
 21
105.3244468923688
 31
0.0
 11
54.56192730270034
 21
106.0486323775633
 31
0.0
 11
54.42915727608266
 21
106.7699244987848
 31
0.0
 11
54.30194331430538
 21
107.387510680448
 31
0.0
 11
54.16302223645991
 21
108.0025652705345
 31
0.0
 11
54.01276508371096
 21
108.6149399283665
 31
0.0
 11
53.8515368812664
 21
109.2245189915875
 31
0.0
 11
53.67209899782895
 21
109.8571695529937
 31
0.0
 11
53.48156415368333
 21
110.4865707666799
 31
0.0
 11
53.28037804493647
 21
111.1126193923054
 31
0.0
 11
53.06896459355043
 21
111.7352779406734
 31
0.0
 11
52.98472708491384
 21
111.9746698157177
 31
0.0
 11
52.8990533821956
 21
112.2135495129273
 31
0.0
 11
52.81196970929654
 21
112.4519104529253
 31
0.0
 11
52.72349741307862
 21
112.6897599814092
 31
0.0
 11
52.63180582166304
 21
112.9319548656174
 31
0.0
 11
52.53871791979433
 21
113.1736165453772
 31
0.0
 11
52.44425807321728
 21
113.4147455814832
 31
0.0
 11
52.34845082267485
 21
113.655341877259
 31
0.0
 11
52.31672117770661
 21
113.7341799629244
 31
0.0
 11
52.28484985418495
 21
113.8129608088416
 31
0.0
 11
52.25283778025928
 21
113.891684197954
 31
0.0
 11
52.22068564554528
 21
113.970350506083
 31
0.0
 11
52.18816732205675
 21
114.0495108980745
 31
0.0
 11
52.15550870716748
 21
114.1286135117764
 31
0.0
 11
52.12271068616098
 21
114.2076584570887
 31
0.0
 11
52.08977416729203
 21
114.2866457857579
 31
0.0
 11
52.04501236692464
 21
114.3933756089787
 31
0.0
 11
52.0
 21
114.5
 31
0.0
  0
SPLINE
  5
176
330
1F
100
AcDbEntity
  8
0
  6
DOTTED
 62
     6
100
AcDbSpline
210
0.0
220
0.0
230
1.0
 70
     8
 71
     3
 72
   155
 73
   151
 74
   149
 42
0.0000000001
 43
0.0000000001
 44
0.00000001
 40
0.0
 40
0.0
 40
0.0
 40
0.0
 40
0.5473653895652566
 40
1.094730779681038
 40
1.230866425290827
 40
1.367000707262823
 40
1.503135769992486
 40
1.639271347845399
 40
1.789219145878426
 40
1.939167018965823
 40
2.08911606770136
 40
2.239065113820552
 40
2.391345131513078
 40
2.543625232993562
 40
2.695904320120473
 40
2.848183240623517
 40
2.989064326764172
 40
3.129945222962643
 40
3.270826643354232
 40
3.411708297740607
 40
3.569139663771836
 40
3.726571342874539
 40
3.884003341391439
 40
4.041435044893737
 40
4.184805580011028
 40
4.328175928027095
 40
4.471545199847552
 40
4.614914586922393
 40
4.762811342729504
 40
4.910708114241558
 40
5.058606766802431
 40
5.206505552332866
 40
5.36714819907439
 40
5.527791230248794
 40
5.6884324565401
 40
5.849073038300686
 40
5.976264412097342
 40
6.10345539871353
 40
6.23064569033088
 40
6.357836200728428
 40
6.496943739152186
 40
6.636051448045597
 40
6.775159175094184
 40
6.914266721429569
 40
7.042167958975128
 40
7.170069050415949
 40
7.297971040360707
 40
7.425873169713024
 40
7.568774788622939
 40
7.711676891355157
 40
7.854576238846708
 40
7.99747448627564
 40
8.068316321752436
 40
8.139157912557378
 40
8.209998394048604
 40
8.280838925260424
 40
8.346739560198044
 40
8.412640159911573
 40
8.478541058835138
 40
8.544441980676607
 40
8.615385651824008
 40
8.686329342751922
 40
8.757272961220762
 40
8.828216560441575
 40
8.89466989349631
 40
8.961123209892648
 40
9.027576536414662
 40
9.094029879394018
 40
9.164918272022339
 40
9.235806683416566
 40
9.306695114975518
 40
9.377583528958887
 40
9.44454134637574
 40
9.511499150364756
 40
9.578456908179604
 40
9.645414675515685
 40
9.71443733463966
 40
9.783460000187715
 40
9.852482716927936
 40
9.921505432135756
 40
9.9905573898947
 40
10.05960934817589
 40
10.12866128626118
 40
10.19771322391591
 40
10.26678110305095
 40
10.3358489827514
 40
10.40491688311255
 40
10.47398478279433
 40
10.54299159961234
 40
10.61199841793201
 40
10.68100518290237
 40
10.75001194122394
 40
10.81686403041748
 40
10.88371610965129
 40
10.9505682359725
 40
11.01742037638163
 40
11.08841450714687
 40
11.15940865647793
 40
11.23040279080876
 40
11.30139690540295
 40
11.36773717779604
 40
11.43407743292492
 40
11.50041765753358
 40
11.56675789971321
 40
11.63781457518494
 40
11.70887127038202
 40
11.77992812128173
 40
11.85098495344288
 40
11.91679220643008
 40
11.98259942900135
 40
12.04840605980544
 40
12.11421275177966
 40
12.18514659761217
 40
12.25608028988402
 40
12.32701611466165
 40
12.3979525773771
 40
12.64772101776422
 40
12.89749707030593
 40
13.14730663449815
 40
13.3971155919111
 40
13.68441571648841
 40
13.97171862019867
 40
14.25902012539819
 40
14.54632162037409
 40
14.85067673132178
 40
15.1550334829696
 40
15.45940377804989
 40
15.76377293774243
 40
16.06875846157684
 40
16.37374672497407
 40
16.67870171668409
 40
16.98364745998906
 40
17.1352099224402
 40
17.28677014170502
 40
17.43832122332111
 40
17.58987277464274
 40
17.73147697203639
 40
17.87308087006423
 40
18.01468714312672
 40
18.15629358339606
 40
18.30613373611828
 40
18.45597400698081
 40
18.60581349907345
 40
18.75565288836866
 40
18.89189794909133
 40
19.02814250402476
 40
19.16438597488741
 40
19.30063080756944
 40
19.84799032726726
 40
20.39534984691498
 40
20.39534984691498
 40
20.39534984691498
 40
20.39534984691498
 10
43.030882422824
 20
110.092799263946
 30
0.0
 10
43.16129324242304
 20
109.9651610442807
 30
0.0
 10
43.42211488175227
 20
109.7098846048216
 30
0.0
 10
43.70012072236855
 20
109.4078700531759
 30
0.0
 10
43.8805168603743
 20
109.2026872941437
 30
0.0
 10
43.96932125775794
 20
109.0995005868667
 30
0.0
 10
44.05706692593121
 20
108.9954141182317
 30
0.0
 10
44.14666397005905
 20
108.8868752317682
 30
0.0
 10
44.2379705642584
 20
108.7737875138618
 30
0.0
 10
44.3308325077933
 20
108.6560500520926
 30
0.0
 10
44.42234254677371
 20
108.5372582365209
 30
0.0
 10
44.51295238033168
 20
108.4168041330658
 30
0.0
 10
44.60262127445957
 20
108.2946824235281
 30
0.0
 10
44.69130834526497
 20
108.17088912467
 30
0.0
 10
44.77853833125524
 20
108.0460652631293
 30
0.0
 10
44.86215618526631
 20
107.923365198571
 30
0.0
 10
44.94227348865898
 20
107.8028893697475
 30
0.0
 10
45.01900175143614
 20
107.6847324421525
 30
0.0
 10
45.09443305894128
 20
107.5657431053732
 30
0.0
 10
45.17145804822886
 20
107.4412424602079
 30
0.0
 10
45.24987795293801
 20
107.3111285140967
 30
0.0
 10
45.32948084309314
 20
107.1753000856243
 30
0.0
 10
45.40740338680438
 20
107.0385005926167
 30
0.0
 10
45.48136037874741
 20
106.9048498156509
 30
0.0
 10
45.55150954501236
 20
106.7744617740033
 30
0.0
 10
45.61800687863959
 20
106.647442262002
 30
0.0
 10
45.68306197499766
 20
106.519678510104
 30
0.0
 10
45.74733322297351
 20
106.3898329284212
 30
0.0
 10
45.81075521789482
 20
106.2578936228718
 30
0.0
 10
45.87326153987313
 20
106.1238503338598
 30
0.0
 10
45.93418687826681
 20
105.9890803151201
 30
0.0
 10
45.99522381306185
 20
105.8497097048927
 30
0.0
 10
46.05619546738694
 20
105.7056848456628
 30
0.0
 10
46.11691708805448
 20
105.5569560502292
 30
0.0
 10
46.1757193288061
 20
105.4074587642792
 30
0.0
 10
46.22864167242598
 20
105.2676442762614
 30
0.0
 10
46.27611512475771
 20
105.1377014613568
 30
0.0
 10
46.31853637495588
 20
105.0177909469332
 30
0.0
 10
46.35972556986061
 20
104.897451981743
 30
0.0
 10
46.40092454589431
 20
104.7729252172859
 30
0.0
 10
46.44198789741299
 20
104.6441769352075
 30
0.0
 10
46.48276357311487
 20
104.5111765562662
 30
0.0
 10
46.5220375927479
 20
104.3777250262681
 30
0.0
 10
46.55878882315592
 20
104.24743395917
 30
0.0
 10
46.59314931364995
 20
104.1203584989613
 30
0.0
 10
46.62524872223217
 20
103.9965481664492
 30
0.0
 10
46.65605732332895
 20
103.8724100222159
 30
0.0
 10
46.68672413850409
 20
103.7430922273751
 30
0.0
 10
46.71706067340764
 20
103.6085652050442
 30
0.0
 10
46.74686846961901
 20
103.4688042438386
 30
0.0
 10
46.77504221388442
 20
103.3287059627485
 30
0.0
 10
46.7971164724491
 20
103.2118905523381
 30
0.0
 10
46.81391387860727
 20
103.1185285961795
 30
0.0
 10
46.82605328192817
 20
103.0487347265669
 30
0.0
 10
46.83778728036424
 20
102.9788720235612
 30
0.0
 10
46.84885209241871
 20
102.9105681583256
 30
0.0
 10
46.85927966754885
 20
102.8438303044526
 30
0.0
 10
46.86910100043734
 20
102.7786652249539
 30
0.0
 10
46.87856985652672
 20
102.7134478993478
 30
0.0
 10
46.88791831573201
 20
102.6465154400374
 30
0.0
 10
46.89711369501758
 20
102.5778653847951
 30
0.0
 10
46.90612235453921
 20
102.5074956200573
 30
0.0
 10
46.91472077334248
 20
102.4370745750903
 30
0.0
 10
46.92273584315035
 20
102.3680913966547
 30
0.0
 10
46.9301969972982
 20
102.300551850456
 30
0.0
 10
46.93713287643754
 20
102.2344611394917
 30
0.0
 10
46.94370749150513
 20
102.1683335098568
 30
0.0
 10
46.95005872424461
 20
102.1006990405481
 30
0.0
 10
46.95615752275498
 20
102.0315570501793
 30
0.0
 10
46.96197416661315
 20
101.9609072769181
 30
0.0
 10
46.96737856493328
 20
101.8902247661818
 30
0.0
 10
46.97227825663825
 20
101.8208188779353
 30
0.0
 10
46.97669931281349
 20
101.752693828307
 30
0.0
 10
46.98066713786525
 20
101.685853361876
 30
0.0
 10
46.98426634833829
 20
101.6189920503006
 30
0.0
 10
46.98752992075354
 20
101.5514244182788
 30
0.0
 10
46.99044422994398
 20
101.4831518562013
 30
0.0
 10
46.99299567897359
 20
101.4141759777994
 30
0.0
 10
46.99515488746415
 20
101.3451866874796
 30
0.0
 10
46.99692207768364
 20
101.2761764755542
 30
0.0
 10
46.99829702851909
 20
101.2071475849455
 30
0.0
 10
46.9992794276785
 20
101.1381022496783
 30
0.0
 10
46.99986896289685
 20
101.0690524489781
 30
0.0
 10
47.00006553141075
 20
100.9999951041921
 30
0.0
 10
46.99986890935271
 20
100.930932445433
 30
0.0
 10
46.99927910829085
 20
100.8618667044428
 30
0.0
 10
46.99829626071942
 20
100.7928054318154
 30
0.0
 10
46.99692088983311
 20
100.7237712197433
 30
0.0
 10
46.99515351863892
 20
100.6547662993775
 30
0.0
 10
46.99299458112559
 20
100.5857929077347
 30
0.0
 10
46.99044358500402
 20
100.5168329236736
 30
0.0
 10
46.98753118908267
 20
100.4486061485048
 30
0.0
 10
46.98427157329381
 20
100.3811141677456
 30
0.0
 10
46.98067892480512
 20
100.3143583356729
 30
0.0
 10
46.97671882287619
 20
100.2476232761401
 30
0.0
 10
46.97230212612266
 20
100.1795332317855
 30
0.0
 10
46.96740206515882
 20
100.1100920277771
 30
0.0
 10
46.96199114187665
 20
100.0393039864539
 30
0.0
 10
46.9561667419003
 20
99.96854877141597
 30
0.0
 10
46.95006536190731
 20
99.8993740884122
 30
0.0
 10
46.94371820217239
 20
99.83177955478169
 30
0.0
 10
46.937155705018
 20
99.7657643574488
 30
0.0
 10
46.93023317365836
 20
99.69978595308356
 30
0.0
 10
46.9227783661364
 20
99.63228363883424
 30
0.0
 10
46.91476119860982
 20
99.56326276154
 30
0.0
 10
46.90615071096673
 20
99.4927292439943
 30
0.0
 10
46.89712866024378
 20
99.4222471358174
 30
0.0
 10
46.88792771329628
 20
99.35355321231285
 30
0.0
 10
46.87858290758704
 20
99.28664521204564
 30
0.0
 10
46.86912826214516
 20
99.22152057919669
 30
0.0
 10
46.85932218282601
 20
99.15644812484781
 30
0.0
 10
46.84890132242697
 20
99.08974113871714
 30
0.0
 10
46.83783351637754
 20
99.02140649193578
 30
0.0
 10
46.82608545416478
 20
98.95145126009926
 30
0.0
 10
46.8139307419333
 20
98.88156458587073
 30
0.0
 10
46.79081441994472
 20
98.75308020928112
 30
0.0
 10
46.75468342620806
 20
98.5663686714083
 30
0.0
 10
46.70222859205158
 20
98.3221368103147
 30
0.0
 10
46.64480624503736
 20
98.07901014405375
 30
0.0
 10
46.57932686283648
 20
97.824990045383
 30
0.0
 10
46.50492686150138
 20
97.5604226040318
 30
0.0
 10
46.42072163546115
 20
97.28571109433848
 30
0.0
 10
46.33015856643492
 20
97.01302881532082
 30
0.0
 10
46.23138626577951
 20
96.73716650082034
 30
0.0
 10
46.12402956405511
 20
96.45842480110221
 30
0.0
 10
46.00773322821119
 20
96.17712628576297
 30
0.0
 10
45.88463462424402
 20
95.89873229162356
 30
0.0
 10
45.75474067140722
 20
95.62321171999483
 30
0.0
 10
45.61813112931551
 20
95.35072811931671
 30
0.0
 10
45.4749093651525
 20
95.08144009100427
 30
0.0
 10
45.3252836637423
 20
94.8156735091513
 30
0.0
 10
45.19550493128322
 20
94.59750860327837
 30
0.0
 10
45.08879246129478
 20
94.42518035285636
 30
0.0
 10
45.00748485497144
 20
94.2972741609248
 30
0.0
 10
44.92467985968175
 20
94.1703368787254
 30
0.0
 10
44.84223630383918
 20
94.0471383451202
 30
0.0
 10
44.76027817458747
 20
93.9276165394397
 30
0.0
 10
44.67892464742449
 20
93.81171003696005
 30
0.0
 10
44.59631288863474
 20
93.69669604438319
 30
0.0
 10
44.51082978724344
 20
93.58037472696292
 30
0.0
 10
44.42240282630074
 20
93.46282153666147
 30
0.0
 10
44.33096052017561
 20
93.34411475983836
 30
0.0
 10
44.23816811922907
 20
93.2264606684365
 30
0.0
 10
44.14688716326973
 20
93.11339823168971
 30
0.0
 10
44.057269689203
 20
93.00482841218577
 30
0.0
 10
43.96945556724918
 20
92.9006565730719
 30
0.0
 10
43.88058107403527
 20
92.79738599141598
 30
0.0
 10
43.70013882653574
 20
92.59214945034316
 30
0.0
 10
43.42211078332338
 20
92.29011118062863
 30
0.0
 10
43.16129187291536
 20
92.0348375476764
 30
0.0
 10
43.0308824177173
 20
91.9072007312061
 30
0.0
 11
43.030882422824
 21
110.092799263946
 31
0.0
 11
43.41872396774408
 21
109.7065508908388
 31
0.0
 11
43.7904731643419
 21
109.3047905081162
 31
0.0
 11
43.88033669991809
 21
109.2025287900622
 31
0.0
 11
43.96914463697878
 21
109.0993508222442
 31
0.0
 11
44.05688682762694
 21
108.9952640157572
 31
0.0
 11
44.14355144757893
 21
108.8902776394699
 31
0.0
 11
44.2377476752943
 21
108.773609679776
 31
0.0
 11
44.33060690679663
 21
108.6558746902095
 31
0.0
 11
44.42211462456515
 21
108.5370847293311
 31
0.0
 11
44.51225481179393
 21
108.4172537522074
 31
0.0
 11
44.60238100573951
 21
108.2945081903597
 31
0.0
 11
44.69106572823857
 21
108.1707170384054
 31
0.0
 11
44.77829297870527
 21
108.0458958577018
 31
0.0
 11
44.86404778010378
 21
107.9200587261918
 31
0.0
 11
44.94205931754047
 21
107.8027485371248
 31
0.0
 11
45.01878548092467
 21
107.6845938809913
 31
0.0
 11
45.09421486645959
 21
107.565606560619
 31
0.0
 11
45.16833549953004
 21
107.4457993308878
 31
0.0
 11
45.24960042837343
 21
107.3109637037318
 31
0.0
 11
45.32920072252504
 21
107.1751383498538
 31
0.0
 11
45.40712074402405
 21
107.038341769463
 31
0.0
 11
45.48334442296299
 21
106.9005931141642
 31
0.0
 11
45.55127108669021
 21
106.7743351294871
 31
0.0
 11
45.61776669968885
 21
106.6473178466387
 31
0.0
 11
45.68281976064967
 21
106.5195569474483
 31
0.0
 11
45.74641969016956
 21
106.3910663636871
 31
0.0
 11
45.81049358847951
 21
106.2577697548269
 31
0.0
 11
45.87299773394366
 21
106.1237298845514
 31
0.0
 11
45.93392138718714
 21
105.9889622329996
 31
0.0
 11
45.99325227723878
 21
105.8534856806111
 31
0.0
 11
46.05587775969061
 21
105.705552895537
 31
0.0
 11
46.11659745755604
 21
105.5568273034015
 31
0.0
 11
46.17539733849858
 21
105.4073342347143
 31
0.0
 11
46.23226449152433
 21
105.2570960124967
 31
0.0
 11
46.27591085031226
 21
105.1376278538399
 31
0.0
 11
46.31833112448013
 21
105.0177192744307
 31
0.0
 11
46.35951922950544
 21
104.8973826204714
 31
0.0
 11
46.39946951033838
 21
104.7766291484859
 31
0.0
 11
46.44173875303314
 21
104.6440990825826
 31
0.0
 11
46.48251329513039
 21
104.5111013706085
 31
0.0
 11
46.52178616490216
 21
104.3776524986593
 31
0.0
 11
46.55955029926306
 21
104.243769043358
 31
0.0
 11
46.59293497591538
 21
104.1203016795305
 31
0.0
 11
46.62503350189267
 21
103.996493869511
 31
0.0
 11
46.65584138429923
 21
103.8723576805351
 31
0.0
 11
46.68535374294524
 21
103.7479069859609
 31
0.0
 11
46.71678922625335
 21
103.6085058271556
 31
0.0
 11
46.74659635144624
 21
103.468746941023
 31
0.0
 11
46.77476906899447
 21
103.3286522534026
 31
0.0
 11
46.80130220213005
 21
103.1882389279514
 31
0.0
 11
46.81384642574617
 21
103.1185165634792
 31
0.0
 11
46.82598578900983
 21
103.0487228184348
 31
0.0
 11
46.83771964192353
 21
102.9788608794858
 31
0.0
 11
46.84904768545733
 21
102.9089319420416
 31
0.0
 11
46.85922099311584
 21
102.8438212862588
 31
0.0
 11
46.86904223738274
 21
102.7786566317009
 31
0.0
 11
46.87851103376722
 21
102.713439529849
 31
0.0
 11
46.8876269039427
 21
102.6481721382166
 31
0.0
 11
46.89704538126856
 21
102.5778564446572
 31
0.0
 11
46.90605398457294
 21
102.5074870454202
 31
0.0
 11
46.91465234072338
 21
102.4370664144023
 31
0.0
 11
46.92284009364317
 21
102.3665968821736
 31
0.0
 11
46.930136843585
 21
102.3005453650497
 31
0.0
 11
46.93707266536477
 21
102.2344549902867
 31
0.0
 11
46.94364722420504
 21
102.1683276904636
 31
0.0
 11
46.94986018442503
 21
102.102165420865
 31
0.0
 11
46.95608884676543
 21
102.0315512015117
 31
0.0
 11
46.96190545839172
 21
101.9609018285549
 31
0.0
 11
46.96730982492635
 21
101.8902197052758
 31
0.0
 11
46.97230174718592
 21
101.819507273913
 31
0.0
 11
46.97663791624483
 21
101.7526900085461
 31
0.0
 11
46.98060570313255
 21
101.6858498695408
 31
0.0
 11
46.98420487414752
 21
101.6189889145701
 31
0.0
 11
46.98743520155545
 21
101.552109114993
 31
0.0
 11
46.99037886065378
 21
101.4831492546128
 31
0.0
 11
46.99293030486054
 21
101.4141737626477
 31
0.0
 11
46.99508950942517
 21
101.3451848268548
 31
0.0
 11
46.9968564456564
 21
101.2761847315576
 31
0.0
 11
46.99823157089919
 21
101.207146467523
 31
0.0
 11
46.99921395044419
 21
101.1381014975911
 31
0.0
 11
46.99980346593571
 21
101.0690520759801
 31
0.0
 11
46.99999999964977
 21
101.0000004180103
 31
0.0
 11
46.99980338205123
 21
100.9309328187345
 31
0.0
 11
46.99921360063046
 21
100.8618674571978
 31
0.0
 11
46.99823077258316
 21
100.7928065499541
 31
0.0
 11
46.9968550157481
 21
100.7237523534155
 31
0.0
 11
46.99508817062267
 21
100.6547681593878
 31
0.0
 11
46.99292923730514
 21
100.585795121311
 31
0.0
 11
46.99037824631594
 21
100.5168355240337
 31
0.0
 11
46.98743522407769
 21
100.4478915517508
 31
0.0
 11
46.98421029323099
 21
100.3811172928588
 31
0.0
 11
46.9806176836161
 21
100.3143618162742
 31
0.0
 11
46.97665761924923
 21
100.2476270825602
 31
0.0
 11
46.97233033022826
 21
100.1809151402484
 31
0.0
 11
46.96733311928431
 21
100.1100971023915
 31
0.0
 11
46.96192222862135
 21
100.039309451622
 31
0.0
 11
46.95609786143135
 21
99.96855463654751
 31
0.0
 11
46.94986021691951
 21
99.89783507703278
 31
0.0
 11
46.94365814032963
 21
99.83178535343637
 31
0.0
 11
46.9370956981178
 21
99.76577047781896
 31
0.0
 11
46.9301732241543
 21
99.69979241513634
 31
0.0
 11
46.92289104697086
 21
99.63385306703583
 31
0.0
 11
46.91469254637344
 21
99.56327094665787
 31
0.0
 11
46.90608212463349
 21
99.49273787236083
 31
0.0
 11
46.89706012683713
 21
99.4222561043953
 31
0.0
 11
46.88762693671863
 21
99.35182820991474
 31
0.0
 11
46.87852425314773
 21
99.28665355458362
 31
0.0
 11
46.86906965641782
 21
99.22152904964716
 31
0.0
 11
46.8592636825587
 21
99.15645712379231
 31
0.0
 11
46.84910667855574
 21
99.09143900340827
 31
0.0
 11
46.83776569140637
 21
99.02141763170599
 31
0.0
 11
46.82601782354651
 21
98.95146353032469
 31
0.0
 11
46.8138631093755
 21
98.88157680654754
 31
0.0
 11
46.80130222828912
 21
98.8117612924485
 31
0.0
 11
46.75385146790208
 21
98.56654159676296
 31
0.0
 11
46.70140362059207
 21
98.32233410356125
 31
0.0
 11
46.64398371630048
 21
98.07921320163578
 31
0.0
 11
46.58162897905232
 21
97.8373115647119
 31
0.0
 11
46.50385684483196
 21
97.56073814458453
 31
0.0
 11
46.41966187461733
 21
97.28604892843124
 31
0.0
 11
46.32910973339598
 21
97.01339078237626
 31
0.0
 11
46.23226446574449
 21
96.74290391920377
 31
0.0
 11
46.12288069833658
 21
96.45888415758914
 31
0.0
 11
46.00660159749416
 21
96.17761524181476
 31
0.0
 11
45.88351679055287
 21
95.89924245789456
 31
0.0
 11
45.75372627804651
 21
95.62393352553805
 31
0.0
 11
45.61704406139874
 21
95.35129064299606
 31
0.0
 11
45.47383564931738
 21
95.08201533495763
 31
0.0
 11
45.32423184518702
 21
94.81627815510019
 31
0.0
 11
45.16833240115045
 21
94.55419559232863
 31
0.0
 11
45.08853955706162
 21
94.425337988531
 31
0.0
 11
45.00723331357304
 21
94.29743257491072
 31
0.0
 11
44.92443256866333
 21
94.17050043957295
 31
0.0
 11
44.84014733608329
 21
94.04454857465257
 31
0.0
 11
44.76006641570643
 21
93.92776332339585
 31
0.0
 11
44.67871547275232
 21
93.81185953563568
 31
0.0
 11
44.59610533100972
 21
93.69684692305812
 31
0.0
 11
44.51224952024673
 21
93.58273913661462
 31
0.0
 11
44.42217525465167
 21
93.46299483384689
 31
0.0
 11
44.33073531865398
 21
93.34428996925872
 31
0.0
 11
44.23794554081918
 21
93.22663823523008
 31
0.0
 11
44.14382067928411
 21
93.11005198807645
 31
0.0
 11
44.05708930096134
 21
93.00497875368464
 31
0.0
 11
43.96927859658167
 21
92.90080649756356
 31
0.0
 11
43.88040062399443
 21
92.79754474597333
 31
0.0
 11
43.7904653599169
 21
92.69520070507275
 31
0.0
 11
43.41871993166763
 21
92.29344483345469
 31
0.0
 11
43.0308824177173
 21
91.9072007312061
 31
0.0
  0
SPLINE
  5
177
330
1F
100
AcDbEntity
  8
0
  6
DOTTED
 62
     6
100
AcDbSpline
210
0.0
220
0.0
230
1.0
 70
     8
 71
     3
 72
    11
 73
     7
 74
     5
 42
0.0000000001
 43
0.0000000001
 44
0.00000001
 40
0.0
 40
0.0
 40
0.0
 40
0.0
 40
1.625784873372006
 40
3.251569746744098
 40
4.40684640908299
 40
5.562123071421791
 40
5.562123071421791
 40
5.562123071421791
 40
5.562123071421791
 10
43.030882422824
 20
110.092799263946
 30
0.0
 10
42.6392099974605
 20
110.4673376250393
 30
0.0
 10
41.85586514673347
 20
111.216414347226
 30
0.0
 10
40.79419875329855
 20
112.231636024973
 30
0.0
 10
39.84588439529133
 20
113.1384655026957
 30
0.0
 10
39.28924230980137
 20
113.6707564594866
 30
0.0
 10
39.0109212670564
 20
113.936901937882
 30
0.0
 11
43.030882422824
 21
110.092799263946
 31
0.0
 11
41.85586503988113
 21
111.2164142354853
 31
0.0
 11
40.68084735306736
 21
112.3400288892525
 31
0.0
 11
39.84588435648475
 21
113.1384654621139
 31
0.0
 11
39.0109212670564
 21
113.936901937882
 31
0.0
  0
SPLINE
  5
178
330
1F
100
AcDbEntity
  8
0
  6
DOTTED
 62
     6
100
AcDbSpline
210
0.0
220
0.0
230
1.0
 70
     8
 71
     3
 72
    11
 73
     7
 74
     5
 42
0.0000000001
 43
0.0000000001
 44
0.00000001
 40
0.0
 40
0.0
 40
0.0
 40
0.0
 40
0.0018593867119002
 40
0.0037187734238088
 40
0.0055793684762008
 40
0.0074399635285929
 40
0.0074399635285929
 40
0.0074399635285929
 40
0.0074399635285929
 10
20.9925605274071
 20
1.4000730571423
 30
0.0
 10
20.9931802208648
 20
1.400061728158198
 30
0.0
 10
20.99441960778021
 20
1.400039070189993
 30
0.0
 10
20.99627927528634
 20
1.400016920374336
 30
0.0
 10
20.99813942223298
 20
1.400002622777339
 30
0.0
 10
20.99937982049113
 20
1.400000874259126
 30
0.0
 10
21.0000000196202
 20
1.40000000000002
 30
0.0
 11
20.9925605274071
 21
1.4000730571423
 31
0.0
 11
20.99441963851008
 21
1.40004104384561
 31
0.0
 11
20.99627888530404
 21
1.400018233681749
 31
0.0
 11
20.99813943017802
 21
1.400004569096586
 31
0.0
 11
21.0000000196202
 21
1.40000000000002
 31
0.0
  0
SPLINE
  5
179
330
1F
100
AcDbEntity
  8
0
  6
DOTTED
 62
     6
100
AcDbSpline
210
0.0
220
0.0
230
1.0
 70
     8
 71
     3
 72
     9
 73
     5
 74
     3
 42
0.0000000001
 43
0.0000000001
 44
0.00000001
 40
0.0
 40
0.0
 40
0.0
 40
0.0
 40
0.0015262720764179
 40
0.0030525441542764
 40
0.0030525441542764
 40
0.0030525441542764
 40
0.0030525441542764
 10
20.9859063476499
 20
1.40000000000002
 30
0.0
 10
20.98641514036597
 20
1.400003708987922
 30
0.0
 10
20.98743272579858
 20
1.400011126963729
 30
0.0
 10
20.98844933163323
 20
1.400056378659649
 30
0.0
 10
20.9889576345508
 20
1.40007900450762
 30
0.0
 11
20.9859063476499
 21
1.40000000000002
 31
0.0
 11
20.98743248089861
 21
1.400020585393745
 31
0.0
 11
20.9889576345508
 21
1.40007900450762
 31
0.0
  0
LEADER
  5
17A
330
1F
100
AcDbEntity
  8
1
  6
Continuous
 62
     4
100
AcDbLeader
  3
Standard
 71
     0
 76
     3
 10
41.9
 20
30.9549128234663
 30
0.0
 10
52.3562570737926
 20
40.2641235218481
 30
0.0
 10
69.2790367172586
 20
40.2641235218481
 30
0.0
  0
ENDSEC
  0
SECTION
  2
OBJECTS
  0
DICTIONARY
  5
C
330
0
100
AcDbDictionary
281
     1
  3
ACAD_GROUP
350
D
  3
ACAD_LAYOUT
350
1A
  3
ACAD_MATERIAL
350
3B
  3
ACAD_MLEADERSTYLE
350
17D
  3
ACAD_MLINESTYLE
350
17
  3
ACAD_PLOTSETTINGS
350
19
  3
ACAD_PLOTSTYLENAME
350
E
  3
ACAD_VISUALSTYLE
350
2A
  3
AcDbVariableDictionary
350
17B
  0
DICTIONARY
  5
D
102
{ACAD_REACTORS
330
C
102
}
330
C
100
AcDbDictionary
281
     1
  0
DICTIONARY
  5
1A
102
{ACAD_REACTORS
330
C
102
}
330
C
100
AcDbDictionary
281
     1
  3
Layout1
350
1E
  3
Layout2
350
26
  3
Model
350
22
  0
DICTIONARY
  5
3B
102
{ACAD_REACTORS
330
C
102
}
330
C
100
AcDbDictionary
281
     1
  3
ByBlock
350
3D
  3
ByLayer
350
3C
  3
Global
350
3E
  0
DICTIONARY
  5
17D
102
{ACAD_REACTORS
330
C
102
}
330
C
100
AcDbDictionary
281
     1
  0
DICTIONARY
  5
17
102
{ACAD_REACTORS
330
C
102
}
330
C
100
AcDbDictionary
281
     1
  3
Standard
350
18
  0
DICTIONARY
  5
19
102
{ACAD_REACTORS
330
C
102
}
330
C
100
AcDbDictionary
281
     1
  0
ACDBDICTIONARYWDFLT
  5
E
102
{ACAD_REACTORS
330
C
102
}
330
C
100
AcDbDictionary
281
     1
  3
Normal
350
F
100
AcDbDictionaryWithDefault
340
F
  0
DICTIONARY
  5
2A
102
{ACAD_REACTORS
330
C
102
}
330
C
100
AcDbDictionary
281
     1
  3
2dWireframe
350
2F
  3
3D Hidden
350
31
  3
3dWireframe
350
30
  3
Basic
350
32
  3
Brighten
350
36
  3
ColorChange
350
3A
  3
Conceptual
350
34
  3
Dim
350
35
  3
Facepattern
350
39
  3
Flat
350
2B
  3
FlatWithEdges
350
2C
  3
Gouraud
350
2D
  3
GouraudWithEdges
350
2E
  3
Linepattern
350
38
  3
Realistic
350
33
  3
Thicken
350
37
  0
DICTIONARY
  5
17B
102
{ACAD_REACTORS
330
C
102
}
330
C
100
AcDbDictionary
281
     1
  3
DIMASSOC
350
17E
  3
HIDETEXT
350
17F
  0
LAYOUT
  5
1E
102
{ACAD_REACTORS
330
1A
102
}
330
1A
100
AcDbPlotSettings
  1

  2
none_device
  4

  6

 40
0.0
 41
0.0
 42
0.0
 43
0.0
 44
0.0
 45
0.0
 46
0.0
 47
0.0
 48
0.0
 49
0.0
140
0.0
141
0.0
142
1.0
143
1.0
 70
   688
 72
     0
 73
     0
 74
     5
  7

 75
    16
147
1.0
148
0.0
149
0.0
100
AcDbLayout
  1
Layout1
 70
     1
 71
     1
 10
0.0
 20
0.0
 11
12.0
 21
9.0
 12
0.0
 22
0.0
 32
0.0
 14
1.00000000000000E+20
 24
1.00000000000000E+20
 34
1.00000000000000E+20
 15
-1.00000000000000E+20
 25
-1.00000000000000E+20
 35
-1.00000000000000E+20
146
0.0
 13
0.0
 23
0.0
 33
0.0
 16
1.0
 26
0.0
 36
0.0
 17
0.0
 27
1.0
 37
0.0
 76
     0
330
1B
  0
LAYOUT
  5
26
102
{ACAD_REACTORS
330
1A
102
}
330
1A
100
AcDbPlotSettings
  1

  2
none_device
  4

  6

 40
0.0
 41
0.0
 42
0.0
 43
0.0
 44
0.0
 45
0.0
 46
0.0
 47
0.0
 48
0.0
 49
0.0
140
0.0
141
0.0
142
1.0
143
1.0
 70
   688
 72
     0
 73
     0
 74
     5
  7

 75
    16
147
1.0
148
0.0
149
0.0
100
AcDbLayout
  1
Layout2
 70
     1
 71
     2
 10
0.0
 20
0.0
 11
0.0
 21
0.0
 12
0.0
 22
0.0
 32
0.0
 14
0.0
 24
0.0
 34
0.0
 15
0.0
 25
0.0
 35
0.0
146
0.0
 13
0.0
 23
0.0
 33
0.0
 16
1.0
 26
0.0
 36
0.0
 17
0.0
 27
1.0
 37
0.0
 76
     0
330
23
  0
LAYOUT
  5
22
102
{ACAD_REACTORS
330
1A
102
}
330
1A
100
AcDbPlotSettings
  1

  2
none_device
  4

  6

 40
0.0
 41
0.0
 42
0.0
 43
0.0
 44
0.0
 45
0.0
 46
0.0
 47
0.0
 48
0.0
 49
0.0
140
0.0
141
0.0
142
1.0
143
1.0
 70
  1712
 72
     0
 73
     0
 74
     0
  7

 75
     0
147
1.0
148
0.0
149
0.0
100
AcDbLayout
  1
Model
 70
     1
 71
     0
 10
0.0
 20
0.0
 11
12.0
 21
9.0
 12
0.0
 22
0.0
 32
0.0
 14
7.33683645785274
 24
-12.6
 34
0.0
 15
104.4666160301713
 25
125.0
 35
0.0
146
0.0
 13
0.0
 23
0.0
 33
0.0
 16
1.0
 26
0.0
 36
0.0
 17
0.0
 27
1.0
 37
0.0
 76
     0
330
1F
331
29
  0
MATERIAL
  5
3D
102
{ACAD_REACTORS
330
3B
102
}
102
{ACAD_XDICTIONARY
360
1A2
102
}
330
3B
100
AcDbMaterial
  1
ByBlock
  0
MATERIAL
  5
3C
102
{ACAD_REACTORS
330
3B
102
}
102
{ACAD_XDICTIONARY
360
1A0
102
}
330
3B
100
AcDbMaterial
  1
ByLayer
  0
MATERIAL
  5
3E
102
{ACAD_REACTORS
330
3B
102
}
102
{ACAD_XDICTIONARY
360
1A4
102
}
330
3B
100
AcDbMaterial
  1
Global
  0
MLINESTYLE
  5
18
102
{ACAD_REACTORS
330
17
102
}
330
17
100
AcDbMlineStyle
  2
Standard
 70
     0
  3

 62
   256
 51
90.0
 52
90.0
 71
     2
 49
0.5
 62
   256
  6
BYLAYER
 49
-0.5
 62
   256
  6
BYLAYER
  0
ACDBPLACEHOLDER
  5
F
102
{ACAD_REACTORS
330
E
102
}
330
E
  0
VISUALSTYLE
  5
2F
102
{ACAD_REACTORS
330
2A
102
}
102
{ACAD_XDICTIONARY
360
188
102
}
330
2A
100
AcDbVisualStyle
  2
2dWireframe
 70
     4
 71
     0
 72
     2
 73
     0
 90
        0
 40
-0.6
 41
-30.0
 62
     5
 63
     7
 74
     1
 91
        4
 64
     7
 65
   257
 75
     1
175
     1
 42
1.0
 92
        0
 66
   257
 43
1.0
 76
     1
 77
     6
 78
     2
 67
     7
 79
     5
170
     0
171
     0
290
     0
174
     0
 93
        1
 44
0.0
173
     0
291
     0
 45
0.0
1001
ACAD
1000
AcDbSavedByObjectVersion
1070
     0
  0
VISUALSTYLE
  5
31
102
{ACAD_REACTORS
330
2A
102
}
102
{ACAD_XDICTIONARY
360
18C
102
}
330
2A
100
AcDbVisualStyle
  2
3D Hidden
 70
     6
 71
     1
 72
     2
 73
     2
 90
        0
 40
-0.6
 41
-30.0
 62
     5
 63
     7
 74
     2
 91
        2
 64
     7
 65
   257
 75
     2
175
     1
 42
40.0
 92
        0
 66
   257
 43
1.0
 76
     1
 77
     6
 78
     2
 67
     7
 79
     3
170
     0
171
     0
290
     0
174
     0
 93
        1
 44
0.0
173
     0
291
     0
 45
0.0
1001
ACAD
1000
AcDbSavedByObjectVersion
1070
     0
  0
VISUALSTYLE
  5
30
102
{ACAD_REACTORS
330
2A
102
}
102
{ACAD_XDICTIONARY
360
18A
102
}
330
2A
100
AcDbVisualStyle
  2
3dWireframe
 70
     5
 71
     0
 72
     2
 73
     0
 90
        0
 40
-0.6
 41
-30.0
 62
     5
 63
     7
 74
     1
 91
        4
 64
     7
 65
   257
 75
     1
175
     1
 42
1.0
 92
        0
 66
   257
 43
1.0
 76
     1
 77
     6
 78
     2
 67
     7
 79
     5
170
     0
171
     0
290
     0
174
     0
 93
        1
 44
0.0
173
     0
291
     0
 45
0.0
1001
ACAD
1000
AcDbSavedByObjectVersion
1070
     0
  0
VISUALSTYLE
  5
32
102
{ACAD_REACTORS
330
2A
102
}
102
{ACAD_XDICTIONARY
360
18E
102
}
330
2A
100
AcDbVisualStyle
  2
Basic
 70
     7
 71
     1
 72
     0
 73
     1
 90
        0
 40
-0.6
 41
-30.0
 62
     5
 63
     7
 74
     0
 91
        4
 64
     7
 65
   257
 75
     1
175
     1
 42
1.0
 92
        8
 66
     7
 43
1.0
 76
     1
 77
     6
 78
     2
 67
     7
 79
     5
170
     0
171
     0
290
     0
174
     0
 93
        1
 44
0.0
173
     0
291
     1
 45
0.0
1001
ACAD
1000
AcDbSavedByObjectVersion
1070
     0
  0
VISUALSTYLE
  5
36
102
{ACAD_REACTORS
330
2A
102
}
102
{ACAD_XDICTIONARY
360
196
102
}
330
2A
100
AcDbVisualStyle
  2
Brighten
 70
    12
 71
     2
 72
     2
 73
     0
 90
        0
 40
-0.6
 41
-30.0
 62
     5
 63
     7
 74
     1
 91
        4
 64
     7
 65
   257
 75
     1
175
     1
 42
1.0
 92
        8
 66
     7
 43
1.0
 76
     1
 77
     6
 78
     2
 67
     7
 79
     5
170
     0
171
     0
290
     0
174
     0
 93
        1
 44
50.0
173
     0
291
     1
 45
0.0
1001
ACAD
1000
AcDbSavedByObjectVersion
1070
     0
  0
VISUALSTYLE
  5
3A
102
{ACAD_REACTORS
330
2A
102
}
102
{ACAD_XDICTIONARY
360
19E
102
}
330
2A
100
AcDbVisualStyle
  2
ColorChange
 70
    16
 71
     2
 72
     2
 73
     3
 90
        0
 40
-0.6
 41
-30.0
 62
     5
 63
     8
 74
     1
 91
        4
 64
     7
 65
   257
 75
     1
175
     1
 42
1.0
 92
        8
 66
     8
 43
1.0
 76
     1
 77
     6
 78
     2
 67
     7
 79
     5
170
     0
171
     0
290
     0
174
     0
 93
        1
 44
0.0
173
     0
291
     1
 45
0.0
1001
ACAD
1000
AcDbSavedByObjectVersion
1070
     0
  0
VISUALSTYLE
  5
34
102
{ACAD_REACTORS
330
2A
102
}
102
{ACAD_XDICTIONARY
360
192
102
}
330
2A
100
AcDbVisualStyle
  2
Conceptual
 70
     9
 71
     3
 72
     2
 73
     0
 90
        0
 40
-0.6
 41
-30.0
 62
     5
 63
     7
 74
     2
 91
        2
 64
     7
 65
   257
 75
     1
175
     1
 42
40.0
 92
        8
 66
     7
 43
1.0
 76
     1
 77
     6
 78
     2
 67
     7
 79
     3
170
     0
171
     0
290
     0
174
     0
 93
        1
 44
0.0
173
     0
291
     0
 45
0.0
1001
ACAD
1000
AcDbSavedByObjectVersion
1070
     0
  0
VISUALSTYLE
  5
35
102
{ACAD_REACTORS
330
2A
102
}
102
{ACAD_XDICTIONARY
360
194
102
}
330
2A
100
AcDbVisualStyle
  2
Dim
 70
    11
 71
     2
 72
     2
 73
     0
 90
        0
 40
-0.6
 41
-30.0
 62
     5
 63
     7
 74
     1
 91
        4
 64
     7
 65
   257
 75
     1
175
     1
 42
1.0
 92
        8
 66
     7
 43
1.0
 76
     1
 77
     6
 78
     2
 67
     7
 79
     5
170
     0
171
     0
290
     0
174
     0
 93
        1
 44
-50.0
173
     0
291
     1
 45
0.0
1001
ACAD
1000
AcDbSavedByObjectVersion
1070
     0
  0
VISUALSTYLE
  5
39
102
{ACAD_REACTORS
330
2A
102
}
102
{ACAD_XDICTIONARY
360
19C
102
}
330
2A
100
AcDbVisualStyle
  2
Facepattern
 70
    15
 71
     2
 72
     2
 73
     0
 90
        0
 40
-0.6
 41
-30.0
 62
     5
 63
     7
 74
     1
 91
        4
 64
     7
 65
   257
 75
     1
175
     1
 42
1.0
 92
        8
 66
     7
 43
1.0
 76
     1
 77
     6
 78
     2
 67
     7
 79
     5
170
     0
171
     0
290
     0
174
     0
 93
        1
 44
0.0
173
     0
291
     1
 45
0.0
1001
ACAD
1000
AcDbSavedByObjectVersion
1070
     0
  0
VISUALSTYLE
  5
2B
102
{ACAD_REACTORS
330
2A
102
}
102
{ACAD_XDICTIONARY
360
180
102
}
330
2A
100
AcDbVisualStyle
  2
Flat
 70
     0
 71
     2
 72
     1
 73
     1
 90
        2
 40
-0.6
 41
30.0
 62
     5
 63
     7
 74
     0
 91
        4
 64
     7
 65
   257
 75
     1
175
     1
 42
1.0
 92
        8
 66
     7
 43
1.0
 76
     1
 77
     6
 78
     2
 67
     7
 79
     5
170
     0
171
     0
290
     0
174
     0
 93
       13
 44
0.0
173
     0
291
     1
 45
0.0
1001
ACAD
1000
AcDbSavedByObjectVersion
1070
     0
  0
VISUALSTYLE
  5
2C
102
{ACAD_REACTORS
330
2A
102
}
102
{ACAD_XDICTIONARY
360
182
102
}
330
2A
100
AcDbVisualStyle
  2
FlatWithEdges
 70
     1
 71
     2
 72
     1
 73
     1
 90
        2
 40
-0.6
 41
30.0
 62
     5
 63
     7
 74
     1
 91
        4
 64
     7
 65
   257
 75
     1
175
     1
 42
1.0
 92
        0
 66
   257
 43
1.0
 76
     1
 77
     6
 78
     2
 67
     7
 79
     5
170
     0
171
     0
290
     0
174
     0
 93
       13
 44
0.0
173
     0
291
     1
 45
0.0
1001
ACAD
1000
AcDbSavedByObjectVersion
1070
     0
  0
VISUALSTYLE
  5
2D
102
{ACAD_REACTORS
330
2A
102
}
102
{ACAD_XDICTIONARY
360
184
102
}
330
2A
100
AcDbVisualStyle
  2
Gouraud
 70
     2
 71
     2
 72
     2
 73
     1
 90
        2
 40
-0.6
 41
30.0
 62
     5
 63
     7
 74
     0
 91
        4
 64
     7
 65
   257
 75
     1
175
     1
 42
1.0
 92
        0
 66
     7
 43
1.0
 76
     1
 77
     6
 78
     2
 67
     7
 79
     5
170
     0
171
     0
290
     0
174
     0
 93
       13
 44
0.0
173
     0
291
     1
 45
0.0
1001
ACAD
1000
AcDbSavedByObjectVersion
1070
     0
  0
VISUALSTYLE
  5
2E
102
{ACAD_REACTORS
330
2A
102
}
102
{ACAD_XDICTIONARY
360
186
102
}
330
2A
100
AcDbVisualStyle
  2
GouraudWithEdges
 70
     3
 71
     2
 72
     2
 73
     1
 90
        2
 40
-0.6
 41
30.0
 62
     5
 63
     7
 74
     1
 91
        4
 64
     7
 65
   257
 75
     1
175
     1
 42
1.0
 92
        0
 66
   257
 43
1.0
 76
     1
 77
     6
 78
     2
 67
     7
 79
     5
170
     0
171
     0
290
     0
174
     0
 93
       13
 44
0.0
173
     0
291
     1
 45
0.0
1001
ACAD
1000
AcDbSavedByObjectVersion
1070
     0
  0
VISUALSTYLE
  5
38
102
{ACAD_REACTORS
330
2A
102
}
102
{ACAD_XDICTIONARY
360
19A
102
}
330
2A
100
AcDbVisualStyle
  2
Linepattern
 70
    14
 71
     2
 72
     2
 73
     0
 90
        0
 40
-0.6
 41
-30.0
 62
     5
 63
     7
 74
     1
 91
        4
 64
     7
 65
   257
 75
     7
175
     7
 42
1.0
 92
        8
 66
     7
 43
1.0
 76
     1
 77
     6
 78
     2
 67
     7
 79
     5
170
     0
171
     0
290
     0
174
     0
 93
        1
 44
0.0
173
     0
291
     1
 45
0.0
1001
ACAD
1000
AcDbSavedByObjectVersion
1070
     0
  0
VISUALSTYLE
  5
33
102
{ACAD_REACTORS
330
2A
102
}
102
{ACAD_XDICTIONARY
360
190
102
}
330
2A
100
AcDbVisualStyle
  2
Realistic
 70
     8
 71
     2
 72
     2
 73
     0
 90
        0
 40
-0.6
 41
-30.0
 62
     5
 63
     7
 74
     1
 91
        0
 64
     7
 65
   257
 75
     1
175
     1
 42
1.0
 92
        8
 66
     8
 43
1.0
 76
     1
 77
     6
 78
     2
 67
     7
 79
     5
170
     0
171
     0
290
     0
174
     0
 93
       13
 44
0.0
173
     0
291
     0
 45
0.0
1001
ACAD
1000
AcDbSavedByObjectVersion
1070
     0
  0
VISUALSTYLE
  5
37
102
{ACAD_REACTORS
330
2A
102
}
102
{ACAD_XDICTIONARY
360
198
102
}
330
2A
100
AcDbVisualStyle
  2
Thicken
 70
    13
 71
     2
 72
     2
 73
     0
 90
        0
 40
-0.6
 41
-30.0
 62
     5
 63
     7
 74
     1
 91
        4
 64
     7
 65
   257
 75
     1
175
     1
 42
1.0
 92
       12
 66
     7
 43
1.0
 76
     1
 77
     6
 78
     2
 67
     7
 79
     5
170
     0
171
     0
290
     0
174
     0
 93
        1
 44
0.0
173
     0
291
     1
 45
0.0
1001
ACAD
1000
AcDbSavedByObjectVersion
1070
     0
  0
DICTIONARYVAR
  5
17E
102
{ACAD_REACTORS
330
17B
102
}
330
17B
100
DictionaryVariables
280
     0
  1
2
  0
DICTIONARYVAR
  5
17F
102
{ACAD_REACTORS
330
17B
102
}
330
17B
100
DictionaryVariables
280
     0
  1
1
  0
DICTIONARY
  5
1A2
330
3D
100
AcDbDictionary
280
     1
281
     1
  3
ACAD_XREC_ROUNDTRIP
360
1A3
  0
DICTIONARY
  5
1A0
330
3C
100
AcDbDictionary
280
     1
281
     1
  3
ACAD_XREC_ROUNDTRIP
360
1A1
  0
DICTIONARY
  5
1A4
330
3E
100
AcDbDictionary
280
     1
281
     1
  3
ACAD_XREC_ROUNDTRIP
360
1A5
  0
DICTIONARY
  5
188
330
2F
100
AcDbDictionary
280
     1
281
     1
  3
ACAD_XREC_ROUNDTRIP
360
189
  0
DICTIONARY
  5
18C
330
31
100
AcDbDictionary
280
     1
281
     1
  3
ACAD_XREC_ROUNDTRIP
360
18D
  0
DICTIONARY
  5
18A
330
30
100
AcDbDictionary
280
     1
281
     1
  3
ACAD_XREC_ROUNDTRIP
360
18B
  0
DICTIONARY
  5
18E
330
32
100
AcDbDictionary
280
     1
281
     1
  3
ACAD_XREC_ROUNDTRIP
360
18F
  0
DICTIONARY
  5
196
330
36
100
AcDbDictionary
280
     1
281
     1
  3
ACAD_XREC_ROUNDTRIP
360
197
  0
DICTIONARY
  5
19E
330
3A
100
AcDbDictionary
280
     1
281
     1
  3
ACAD_XREC_ROUNDTRIP
360
19F
  0
DICTIONARY
  5
192
330
34
100
AcDbDictionary
280
     1
281
     1
  3
ACAD_XREC_ROUNDTRIP
360
193
  0
DICTIONARY
  5
194
330
35
100
AcDbDictionary
280
     1
281
     1
  3
ACAD_XREC_ROUNDTRIP
360
195
  0
DICTIONARY
  5
19C
330
39
100
AcDbDictionary
280
     1
281
     1
  3
ACAD_XREC_ROUNDTRIP
360
19D
  0
DICTIONARY
  5
180
330
2B
100
AcDbDictionary
280
     1
281
     1
  3
ACAD_XREC_ROUNDTRIP
360
181
  0
DICTIONARY
  5
182
330
2C
100
AcDbDictionary
280
     1
281
     1
  3
ACAD_XREC_ROUNDTRIP
360
183
  0
DICTIONARY
  5
184
330
2D
100
AcDbDictionary
280
     1
281
     1
  3
ACAD_XREC_ROUNDTRIP
360
185
  0
DICTIONARY
  5
186
330
2E
100
AcDbDictionary
280
     1
281
     1
  3
ACAD_XREC_ROUNDTRIP
360
187
  0
DICTIONARY
  5
19A
330
38
100
AcDbDictionary
280
     1
281
     1
  3
ACAD_XREC_ROUNDTRIP
360
19B
  0
DICTIONARY
  5
190
330
33
100
AcDbDictionary
280
     1
281
     1
  3
ACAD_XREC_ROUNDTRIP
360
191
  0
DICTIONARY
  5
198
330
37
100
AcDbDictionary
280
     1
281
     1
  3
ACAD_XREC_ROUNDTRIP
360
199
  0
XRECORD
  5
1A3
102
{ACAD_REACTORS
330
1A2
102
}
330
1A2
100
AcDbXrecord
280
     1
102
MATERIAL
148
0.0
149
0.0
149
0.0
 93
        0
 94
      127
282
     0
 72
     1
 77
     1
171
     1
175
     1
179
     1
273
     0
  0
XRECORD
  5
1A1
102
{ACAD_REACTORS
330
1A0
102
}
330
1A0
100
AcDbXrecord
280
     1
102
MATERIAL
148
0.0
149
0.0
149
0.0
 93
        0
 94
      127
282
     0
 72
     1
 77
     1
171
     1
175
     1
179
     1
273
     0
  0
XRECORD
  5
1A5
102
{ACAD_REACTORS
330
1A4
102
}
330
1A4
100
AcDbXrecord
280
     1
102
MATERIAL
148
0.0
149
0.0
149
0.0
 93
        0
 94
      127
282
     0
 72
     1
 77
     1
171
     1
175
     1
179
     1
273
     0
  0
XRECORD
  5
189
102
{ACAD_REACTORS
330
188
102
}
330
188
100
AcDbXrecord
280
     1
102
RTVSPropertyOp0
 70
     1
102
RTVSPropertyOp1
 70
     1
102
RTVSPropertyOp2
 70
     1
102
RTVSPropertyOp3
 70
     1
102
RTVSPropertyOp4
 70
     1
102
RTVSPropertyOp5
 70
     1
102
RTVSPropertyOp6
 70
     1
102
RTVSPropertyOp7
 70
     1
102
RTVSPropertyOp8
 70
     1
102
RTVSPropertyOp9
 70
     1
102
RTVSPropertyOp10
 70
     1
102
RTVSPropertyOp11
 70
     1
102
RTVSPropertyOp12
 70
     1
102
RTVSPropertyOp13
 70
     1
102
RTVSPropertyOp14
 70
     1
102
RTVSPropertyOp15
 70
     1
102
RTVSPropertyOp16
 70
     1
102
RTVSPropertyOp17
 70
     1
102
RTVSPropertyOp18
 70
     1
102
RTVSPropertyOp19
 70
     1
102
RTVSPropertyOp20
 70
     1
102
RTVSPropertyOp21
 70
     1
102
RTVSPropertyOp22
 70
     1
102
RTVSPropertyOp23
 70
     1
102
RTVSPropertyOp24
 70
     1
102
RTVSPropertyOp25
 70
     1
102
RTVSPropertyOp26
 70
     1
102
RTVSPropertyOp27
 70
     1
  0
XRECORD
  5
18D
102
{ACAD_REACTORS
330
18C
102
}
330
18C
100
AcDbXrecord
280
     1
102
RTVSPropertyOp0
 70
     1
102
RTVSPropertyOp1
 70
     1
102
RTVSPropertyOp2
 70
     1
102
RTVSPropertyOp3
 70
     1
102
RTVSPropertyOp4
 70
     1
102
RTVSPropertyOp5
 70
     1
102
RTVSPropertyOp6
 70
     1
102
RTVSPropertyOp7
 70
     1
102
RTVSPropertyOp8
 70
     1
102
RTVSPropertyOp9
 70
     1
102
RTVSPropertyOp10
 70
     1
102
RTVSPropertyOp11
 70
     1
102
RTVSPropertyOp12
 70
     1
102
RTVSPropertyOp13
 70
     1
102
RTVSPropertyOp14
 70
     1
102
RTVSPropertyOp15
 70
     1
102
RTVSPropertyOp16
 70
     1
102
RTVSPropertyOp17
 70
     1
102
RTVSPropertyOp18
 70
     1
102
RTVSPropertyOp19
 70
     1
102
RTVSPropertyOp20
 70
     1
102
RTVSPropertyOp21
 70
     1
102
RTVSPropertyOp22
 70
     1
102
RTVSPropertyOp23
 70
     1
102
RTVSPropertyOp24
 70
     1
102
RTVSPropertyOp25
 70
     1
102
RTVSPropertyOp26
 70
     1
102
RTVSPropertyOp27
 70
     1
  0
XRECORD
  5
18B
102
{ACAD_REACTORS
330
18A
102
}
330
18A
100
AcDbXrecord
280
     1
102
RTVSPropertyOp0
 70
     1
102
RTVSPropertyOp1
 70
     1
102
RTVSPropertyOp2
 70
     1
102
RTVSPropertyOp3
 70
     1
102
RTVSPropertyOp4
 70
     1
102
RTVSPropertyOp5
 70
     1
102
RTVSPropertyOp6
 70
     1
102
RTVSPropertyOp7
 70
     1
102
RTVSPropertyOp8
 70
     1
102
RTVSPropertyOp9
 70
     1
102
RTVSPropertyOp10
 70
     1
102
RTVSPropertyOp11
 70
     1
102
RTVSPropertyOp12
 70
     1
102
RTVSPropertyOp13
 70
     1
102
RTVSPropertyOp14
 70
     1
102
RTVSPropertyOp15
 70
     1
102
RTVSPropertyOp16
 70
     1
102
RTVSPropertyOp17
 70
     1
102
RTVSPropertyOp18
 70
     1
102
RTVSPropertyOp19
 70
     1
102
RTVSPropertyOp20
 70
     1
102
RTVSPropertyOp21
 70
     1
102
RTVSPropertyOp22
 70
     1
102
RTVSPropertyOp23
 70
     1
102
RTVSPropertyOp24
 70
     1
102
RTVSPropertyOp25
 70
     1
102
RTVSPropertyOp26
 70
     1
102
RTVSPropertyOp27
 70
     1
  0
XRECORD
  5
18F
102
{ACAD_REACTORS
330
18E
102
}
330
18E
100
AcDbXrecord
280
     1
102
RTVSPropertyOp0
 70
     1
102
RTVSPropertyOp1
 70
     1
102
RTVSPropertyOp2
 70
     1
102
RTVSPropertyOp3
 70
     1
102
RTVSPropertyOp4
 70
     1
102
RTVSPropertyOp5
 70
     1
102
RTVSPropertyOp6
 70
     1
102
RTVSPropertyOp7
 70
     1
102
RTVSPropertyOp8
 70
     1
102
RTVSPropertyOp9
 70
     1
102
RTVSPropertyOp10
 70
     1
102
RTVSPropertyOp11
 70
     1
102
RTVSPropertyOp12
 70
     1
102
RTVSPropertyOp13
 70
     1
102
RTVSPropertyOp14
 70
     1
102
RTVSPropertyOp15
 70
     1
102
RTVSPropertyOp16
 70
     1
102
RTVSPropertyOp17
 70
     1
102
RTVSPropertyOp18
 70
     1
102
RTVSPropertyOp19
 70
     1
102
RTVSPropertyOp20
 70
     1
102
RTVSPropertyOp21
 70
     1
102
RTVSPropertyOp22
 70
     1
102
RTVSPropertyOp23
 70
     1
102
RTVSPropertyOp24
 70
     1
102
RTVSPropertyOp25
 70
     1
102
RTVSPropertyOp26
 70
     1
102
RTVSPropertyOp27
 70
     1
  0
XRECORD
  5
197
102
{ACAD_REACTORS
330
196
102
}
330
196
100
AcDbXrecord
280
     1
102
RTVSPropertyOp0
 70
     1
102
RTVSPropertyOp1
 70
     1
102
RTVSPropertyOp2
 70
     1
102
RTVSPropertyOp3
 70
     1
102
RTVSPropertyOp4
 70
     1
102
RTVSPropertyOp5
 70
     1
102
RTVSPropertyOp6
 70
     1
102
RTVSPropertyOp7
 70
     1
102
RTVSPropertyOp8
 70
     1
102
RTVSPropertyOp9
 70
     1
102
RTVSPropertyOp10
 70
     1
102
RTVSPropertyOp11
 70
     1
102
RTVSPropertyOp12
 70
     1
102
RTVSPropertyOp13
 70
     1
102
RTVSPropertyOp14
 70
     1
102
RTVSPropertyOp15
 70
     1
102
RTVSPropertyOp16
 70
     1
102
RTVSPropertyOp17
 70
     1
102
RTVSPropertyOp18
 70
     1
102
RTVSPropertyOp19
 70
     1
102
RTVSPropertyOp20
 70
     1
102
RTVSPropertyOp21
 70
     1
102
RTVSPropertyOp22
 70
     1
102
RTVSPropertyOp23
 70
     1
102
RTVSPropertyOp24
 70
     1
102
RTVSPropertyOp25
 70
     1
102
RTVSPropertyOp26
 70
     1
102
RTVSPropertyOp27
 70
     1
  0
XRECORD
  5
19F
102
{ACAD_REACTORS
330
19E
102
}
330
19E
100
AcDbXrecord
280
     1
102
RTVSPropertyOp0
 70
     1
102
RTVSPropertyOp1
 70
     1
102
RTVSPropertyOp2
 70
     1
102
RTVSPropertyOp3
 70
     1
102
RTVSPropertyOp4
 70
     1
102
RTVSPropertyOp5
 70
     1
102
RTVSPropertyOp6
 70
     1
102
RTVSPropertyOp7
 70
     1
102
RTVSPropertyOp8
 70
     1
102
RTVSPropertyOp9
 70
     1
102
RTVSPropertyOp10
 70
     1
102
RTVSPropertyOp11
 70
     1
102
RTVSPropertyOp12
 70
     1
102
RTVSPropertyOp13
 70
     1
102
RTVSPropertyOp14
 70
     1
102
RTVSPropertyOp15
 70
     1
102
RTVSPropertyOp16
 70
     1
102
RTVSPropertyOp17
 70
     1
102
RTVSPropertyOp18
 70
     1
102
RTVSPropertyOp19
 70
     1
102
RTVSPropertyOp20
 70
     1
102
RTVSPropertyOp21
 70
     1
102
RTVSPropertyOp22
 70
     1
102
RTVSPropertyOp23
 70
     1
102
RTVSPropertyOp24
 70
     1
102
RTVSPropertyOp25
 70
     1
102
RTVSPropertyOp26
 70
     1
102
RTVSPropertyOp27
 70
     1
  0
XRECORD
  5
193
102
{ACAD_REACTORS
330
192
102
}
330
192
100
AcDbXrecord
280
     1
102
RTVSPropertyOp0
 70
     1
102
RTVSPropertyOp1
 70
     1
102
RTVSPropertyOp2
 70
     1
102
RTVSPropertyOp3
 70
     1
102
RTVSPropertyOp4
 70
     1
102
RTVSPropertyOp5
 70
     1
102
RTVSPropertyOp6
 70
     1
102
RTVSPropertyOp7
 70
     1
102
RTVSPropertyOp8
 70
     1
102
RTVSPropertyOp9
 70
     1
102
RTVSPropertyOp10
 70
     1
102
RTVSPropertyOp11
 70
     1
102
RTVSPropertyOp12
 70
     1
102
RTVSPropertyOp13
 70
     1
102
RTVSPropertyOp14
 70
     1
102
RTVSPropertyOp15
 70
     1
102
RTVSPropertyOp16
 70
     1
102
RTVSPropertyOp17
 70
     1
102
RTVSPropertyOp18
 70
     1
102
RTVSPropertyOp19
 70
     1
102
RTVSPropertyOp20
 70
     1
102
RTVSPropertyOp21
 70
     1
102
RTVSPropertyOp22
 70
     1
102
RTVSPropertyOp23
 70
     1
102
RTVSPropertyOp24
 70
     1
102
RTVSPropertyOp25
 70
     1
102
RTVSPropertyOp26
 70
     1
102
RTVSPropertyOp27
 70
     1
  0
XRECORD
  5
195
102
{ACAD_REACTORS
330
194
102
}
330
194
100
AcDbXrecord
280
     1
102
RTVSPropertyOp0
 70
     1
102
RTVSPropertyOp1
 70
     1
102
RTVSPropertyOp2
 70
     1
102
RTVSPropertyOp3
 70
     1
102
RTVSPropertyOp4
 70
     1
102
RTVSPropertyOp5
 70
     1
102
RTVSPropertyOp6
 70
     1
102
RTVSPropertyOp7
 70
     1
102
RTVSPropertyOp8
 70
     1
102
RTVSPropertyOp9
 70
     1
102
RTVSPropertyOp10
 70
     1
102
RTVSPropertyOp11
 70
     1
102
RTVSPropertyOp12
 70
     1
102
RTVSPropertyOp13
 70
     1
102
RTVSPropertyOp14
 70
     1
102
RTVSPropertyOp15
 70
     1
102
RTVSPropertyOp16
 70
     1
102
RTVSPropertyOp17
 70
     1
102
RTVSPropertyOp18
 70
     1
102
RTVSPropertyOp19
 70
     1
102
RTVSPropertyOp20
 70
     1
102
RTVSPropertyOp21
 70
     1
102
RTVSPropertyOp22
 70
     1
102
RTVSPropertyOp23
 70
     1
102
RTVSPropertyOp24
 70
     1
102
RTVSPropertyOp25
 70
     1
102
RTVSPropertyOp26
 70
     1
102
RTVSPropertyOp27
 70
     1
  0
XRECORD
  5
19D
102
{ACAD_REACTORS
330
19C
102
}
330
19C
100
AcDbXrecord
280
     1
102
RTVSPropertyOp0
 70
     1
102
RTVSPropertyOp1
 70
     1
102
RTVSPropertyOp2
 70
     1
102
RTVSPropertyOp3
 70
     1
102
RTVSPropertyOp4
 70
     1
102
RTVSPropertyOp5
 70
     1
102
RTVSPropertyOp6
 70
     1
102
RTVSPropertyOp7
 70
     1
102
RTVSPropertyOp8
 70
     1
102
RTVSPropertyOp9
 70
     1
102
RTVSPropertyOp10
 70
     1
102
RTVSPropertyOp11
 70
     1
102
RTVSPropertyOp12
 70
     1
102
RTVSPropertyOp13
 70
     1
102
RTVSPropertyOp14
 70
     1
102
RTVSPropertyOp15
 70
     1
102
RTVSPropertyOp16
 70
     1
102
RTVSPropertyOp17
 70
     1
102
RTVSPropertyOp18
 70
     1
102
RTVSPropertyOp19
 70
     1
102
RTVSPropertyOp20
 70
     1
102
RTVSPropertyOp21
 70
     1
102
RTVSPropertyOp22
 70
     1
102
RTVSPropertyOp23
 70
     1
102
RTVSPropertyOp24
 70
     1
102
RTVSPropertyOp25
 70
     1
102
RTVSPropertyOp26
 70
     1
102
RTVSPropertyOp27
 70
     1
  0
XRECORD
  5
181
102
{ACAD_REACTORS
330
180
102
}
330
180
100
AcDbXrecord
280
     1
102
RTVSPropertyOp0
 70
     1
102
RTVSPropertyOp1
 70
     1
102
RTVSPropertyOp2
 70
     1
102
RTVSPropertyOp3
 70
     1
102
RTVSPropertyOp4
 70
     1
102
RTVSPropertyOp5
 70
     1
102
RTVSPropertyOp6
 70
     1
102
RTVSPropertyOp7
 70
     1
102
RTVSPropertyOp8
 70
     1
102
RTVSPropertyOp9
 70
     1
102
RTVSPropertyOp10
 70
     1
102
RTVSPropertyOp11
 70
     1
102
RTVSPropertyOp12
 70
     1
102
RTVSPropertyOp13
 70
     1
102
RTVSPropertyOp14
 70
     1
102
RTVSPropertyOp15
 70
     1
102
RTVSPropertyOp16
 70
     1
102
RTVSPropertyOp17
 70
     1
102
RTVSPropertyOp18
 70
     1
102
RTVSPropertyOp19
 70
     1
102
RTVSPropertyOp20
 70
     1
102
RTVSPropertyOp21
 70
     1
102
RTVSPropertyOp22
 70
     1
102
RTVSPropertyOp23
 70
     1
102
RTVSPropertyOp24
 70
     1
102
RTVSPropertyOp25
 70
     1
102
RTVSPropertyOp26
 70
     1
102
RTVSPropertyOp27
 70
     1
  0
XRECORD
  5
183
102
{ACAD_REACTORS
330
182
102
}
330
182
100
AcDbXrecord
280
     1
102
RTVSPropertyOp0
 70
     1
102
RTVSPropertyOp1
 70
     1
102
RTVSPropertyOp2
 70
     1
102
RTVSPropertyOp3
 70
     1
102
RTVSPropertyOp4
 70
     1
102
RTVSPropertyOp5
 70
     1
102
RTVSPropertyOp6
 70
     1
102
RTVSPropertyOp7
 70
     1
102
RTVSPropertyOp8
 70
     1
102
RTVSPropertyOp9
 70
     1
102
RTVSPropertyOp10
 70
     1
102
RTVSPropertyOp11
 70
     1
102
RTVSPropertyOp12
 70
     1
102
RTVSPropertyOp13
 70
     1
102
RTVSPropertyOp14
 70
     1
102
RTVSPropertyOp15
 70
     1
102
RTVSPropertyOp16
 70
     1
102
RTVSPropertyOp17
 70
     1
102
RTVSPropertyOp18
 70
     1
102
RTVSPropertyOp19
 70
     1
102
RTVSPropertyOp20
 70
     1
102
RTVSPropertyOp21
 70
     1
102
RTVSPropertyOp22
 70
     1
102
RTVSPropertyOp23
 70
     1
102
RTVSPropertyOp24
 70
     1
102
RTVSPropertyOp25
 70
     1
102
RTVSPropertyOp26
 70
     1
102
RTVSPropertyOp27
 70
     1
  0
XRECORD
  5
185
102
{ACAD_REACTORS
330
184
102
}
330
184
100
AcDbXrecord
280
     1
102
RTVSPropertyOp0
 70
     1
102
RTVSPropertyOp1
 70
     1
102
RTVSPropertyOp2
 70
     1
102
RTVSPropertyOp3
 70
     1
102
RTVSPropertyOp4
 70
     1
102
RTVSPropertyOp5
 70
     1
102
RTVSPropertyOp6
 70
     1
102
RTVSPropertyOp7
 70
     1
102
RTVSPropertyOp8
 70
     1
102
RTVSPropertyOp9
 70
     1
102
RTVSPropertyOp10
 70
     1
102
RTVSPropertyOp11
 70
     1
102
RTVSPropertyOp12
 70
     1
102
RTVSPropertyOp13
 70
     1
102
RTVSPropertyOp14
 70
     1
102
RTVSPropertyOp15
 70
     1
102
RTVSPropertyOp16
 70
     1
102
RTVSPropertyOp17
 70
     1
102
RTVSPropertyOp18
 70
     1
102
RTVSPropertyOp19
 70
     1
102
RTVSPropertyOp20
 70
     1
102
RTVSPropertyOp21
 70
     1
102
RTVSPropertyOp22
 70
     1
102
RTVSPropertyOp23
 70
     1
102
RTVSPropertyOp24
 70
     1
102
RTVSPropertyOp25
 70
     1
102
RTVSPropertyOp26
 70
     1
102
RTVSPropertyOp27
 70
     1
  0
XRECORD
  5
187
102
{ACAD_REACTORS
330
186
102
}
330
186
100
AcDbXrecord
280
     1
102
RTVSPropertyOp0
 70
     1
102
RTVSPropertyOp1
 70
     1
102
RTVSPropertyOp2
 70
     1
102
RTVSPropertyOp3
 70
     1
102
RTVSPropertyOp4
 70
     1
102
RTVSPropertyOp5
 70
     1
102
RTVSPropertyOp6
 70
     1
102
RTVSPropertyOp7
 70
     1
102
RTVSPropertyOp8
 70
     1
102
RTVSPropertyOp9
 70
     1
102
RTVSPropertyOp10
 70
     1
102
RTVSPropertyOp11
 70
     1
102
RTVSPropertyOp12
 70
     1
102
RTVSPropertyOp13
 70
     1
102
RTVSPropertyOp14
 70
     1
102
RTVSPropertyOp15
 70
     1
102
RTVSPropertyOp16
 70
     1
102
RTVSPropertyOp17
 70
     1
102
RTVSPropertyOp18
 70
     1
102
RTVSPropertyOp19
 70
     1
102
RTVSPropertyOp20
 70
     1
102
RTVSPropertyOp21
 70
     1
102
RTVSPropertyOp22
 70
     1
102
RTVSPropertyOp23
 70
     1
102
RTVSPropertyOp24
 70
     1
102
RTVSPropertyOp25
 70
     1
102
RTVSPropertyOp26
 70
     1
102
RTVSPropertyOp27
 70
     1
  0
XRECORD
  5
19B
102
{ACAD_REACTORS
330
19A
102
}
330
19A
100
AcDbXrecord
280
     1
102
RTVSPropertyOp0
 70
     1
102
RTVSPropertyOp1
 70
     1
102
RTVSPropertyOp2
 70
     1
102
RTVSPropertyOp3
 70
     1
102
RTVSPropertyOp4
 70
     1
102
RTVSPropertyOp5
 70
     1
102
RTVSPropertyOp6
 70
     1
102
RTVSPropertyOp7
 70
     1
102
RTVSPropertyOp8
 70
     1
102
RTVSPropertyOp9
 70
     1
102
RTVSPropertyOp10
 70
     1
102
RTVSPropertyOp11
 70
     1
102
RTVSPropertyOp12
 70
     1
102
RTVSPropertyOp13
 70
     1
102
RTVSPropertyOp14
 70
     1
102
RTVSPropertyOp15
 70
     1
102
RTVSPropertyOp16
 70
     1
102
RTVSPropertyOp17
 70
     1
102
RTVSPropertyOp18
 70
     1
102
RTVSPropertyOp19
 70
     1
102
RTVSPropertyOp20
 70
     1
102
RTVSPropertyOp21
 70
     1
102
RTVSPropertyOp22
 70
     1
102
RTVSPropertyOp23
 70
     1
102
RTVSPropertyOp24
 70
     1
102
RTVSPropertyOp25
 70
     1
102
RTVSPropertyOp26
 70
     1
102
RTVSPropertyOp27
 70
     1
  0
XRECORD
  5
191
102
{ACAD_REACTORS
330
190
102
}
330
190
100
AcDbXrecord
280
     1
102
RTVSPropertyOp0
 70
     1
102
RTVSPropertyOp1
 70
     1
102
RTVSPropertyOp2
 70
     1
102
RTVSPropertyOp3
 70
     1
102
RTVSPropertyOp4
 70
     1
102
RTVSPropertyOp5
 70
     1
102
RTVSPropertyOp6
 70
     1
102
RTVSPropertyOp7
 70
     1
102
RTVSPropertyOp8
 70
     1
102
RTVSPropertyOp9
 70
     1
102
RTVSPropertyOp10
 70
     1
102
RTVSPropertyOp11
 70
     1
102
RTVSPropertyOp12
 70
     1
102
RTVSPropertyOp13
 70
     1
102
RTVSPropertyOp14
 70
     1
102
RTVSPropertyOp15
 70
     1
102
RTVSPropertyOp16
 70
     1
102
RTVSPropertyOp17
 70
     1
102
RTVSPropertyOp18
 70
     1
102
RTVSPropertyOp19
 70
     1
102
RTVSPropertyOp20
 70
     1
102
RTVSPropertyOp21
 70
     1
102
RTVSPropertyOp22
 70
     1
102
RTVSPropertyOp23
 70
     1
102
RTVSPropertyOp24
 70
     1
102
RTVSPropertyOp25
 70
     1
102
RTVSPropertyOp26
 70
     1
102
RTVSPropertyOp27
 70
     1
  0
XRECORD
  5
199
102
{ACAD_REACTORS
330
198
102
}
330
198
100
AcDbXrecord
280
     1
102
RTVSPropertyOp0
 70
     1
102
RTVSPropertyOp1
 70
     1
102
RTVSPropertyOp2
 70
     1
102
RTVSPropertyOp3
 70
     1
102
RTVSPropertyOp4
 70
     1
102
RTVSPropertyOp5
 70
     1
102
RTVSPropertyOp6
 70
     1
102
RTVSPropertyOp7
 70
     1
102
RTVSPropertyOp8
 70
     1
102
RTVSPropertyOp9
 70
     1
102
RTVSPropertyOp10
 70
     1
102
RTVSPropertyOp11
 70
     1
102
RTVSPropertyOp12
 70
     1
102
RTVSPropertyOp13
 70
     1
102
RTVSPropertyOp14
 70
     1
102
RTVSPropertyOp15
 70
     1
102
RTVSPropertyOp16
 70
     1
102
RTVSPropertyOp17
 70
     1
102
RTVSPropertyOp18
 70
     1
102
RTVSPropertyOp19
 70
     1
102
RTVSPropertyOp20
 70
     1
102
RTVSPropertyOp21
 70
     1
102
RTVSPropertyOp22
 70
     1
102
RTVSPropertyOp23
 70
     1
102
RTVSPropertyOp24
 70
     1
102
RTVSPropertyOp25
 70
     1
102
RTVSPropertyOp26
 70
     1
102
RTVSPropertyOp27
 70
     1
  0
ENDSEC
  0
EOF
