  0
SECTION
  2
HEADER
  9
$ACADVER
  1
AC1015
  9
$ACADMAINTVER
 70
     6
  9
$DWGCODEPAGE
  3
ANSI_932
  9
$INSBASE
 10
0.0
 20
0.0
 30
0.0
  9
$EXTMIN
 10
-27.9244193227169
 20
-732.0
 30
0.0
  9
$EXTMAX
 10
272.224168888524
 20
168.283720930233
 30
0.0
  9
$LIMMIN
 10
0.0
 20
0.0
  9
$LIMMAX
 10
12.0
 20
9.0
  9
$ORTHOMODE
 70
     0
  9
$REGENMODE
 70
     1
  9
$FILLMODE
 70
     1
  9
$QTEXTMODE
 70
     0
  9
$MIRRTEXT
 70
     1
  9
$LTSCALE
 40
1.0
  9
$ATTMODE
 70
     1
  9
$TEXTSIZE
 40
0.2
  9
$TRACEWID
 40
0.05
  9
$TEXTSTYLE
  7
Standard
  9
$CLAYER
  8
0
  9
$CELTYPE
  6
ByLayer
  9
$CECOLOR
 62
   256
  9
$CELTSCALE
 40
1.0
  9
$DISPSILH
 70
     0
  9
$DIMSCALE
 40
1.0
  9
$DIMASZ
 40
0.18
  9
$DIMEXO
 40
0.0625
  9
$DIMDLI
 40
0.38
  9
$DIMRND
 40
0.0
  9
$DIMDLE
 40
0.0
  9
$DIMEXE
 40
0.18
  9
$DIMTP
 40
0.0
  9
$DIMTM
 40
0.0
  9
$DIMTXT
 40
0.18
  9
$DIMCEN
 40
0.09
  9
$DIMTSZ
 40
0.0
  9
$DIMTOL
 70
     0
  9
$DIMLIM
 70
     0
  9
$DIMTIH
 70
     1
  9
$DIMTOH
 70
     1
  9
$DIMSE1
 70
     0
  9
$DIMSE2
 70
     0
  9
$DIMTAD
 70
     0
  9
$DIMZIN
 70
     0
  9
$DIMBLK
  1

  9
$DIMASO
 70
     1
  9
$DIMSHO
 70
     1
  9
$DIMPOST
  1

  9
$DIMAPOST
  1

  9
$DIMALT
 70
     0
  9
$DIMALTD
 70
     2
  9
$DIMALTF
 40
25.4
  9
$DIMLFAC
 40
1.0
  9
$DIMTOFL
 70
     0
  9
$DIMTVP
 40
0.0
  9
$DIMTIX
 70
     0
  9
$DIMSOXD
 70
     0
  9
$DIMSAH
 70
     0
  9
$DIMBLK1
  1

  9
$DIMBLK2
  1

  9
$DIMSTYLE
  2
Standard
  9
$DIMCLRD
 70
     0
  9
$DIMCLRE
 70
     0
  9
$DIMCLRT
 70
     0
  9
$DIMTFAC
 40
1.0
  9
$DIMGAP
 40
0.09
  9
$DIMJUST
 70
     0
  9
$DIMSD1
 70
     0
  9
$DIMSD2
 70
     0
  9
$DIMTOLJ
 70
     1
  9
$DIMTZIN
 70
     0
  9
$DIMALTZ
 70
     0
  9
$DIMALTTZ
 70
     0
  9
$DIMUPT
 70
     0
  9
$DIMDEC
 70
     4
  9
$DIMTDEC
 70
     4
  9
$DIMALTU
 70
     2
  9
$DIMALTTD
 70
     2
  9
$DIMTXSTY
  7
Standard
  9
$DIMAUNIT
 70
     0
  9
$DIMADEC
 70
     0
  9
$DIMALTRND
 40
0.0
  9
$DIMAZIN
 70
     0
  9
$DIMDSEP
 70
    46
  9
$DIMATFIT
 70
     3
  9
$DIMFRAC
 70
     0
  9
$DIMLDRBLK
  1

  9
$DIMLUNIT
 70
     2
  9
$DIMLWD
 70
    -2
  9
$DIMLWE
 70
    -2
  9
$DIMTMOVE
 70
     0
  9
$LUNITS
 70
     2
  9
$LUPREC
 70
     4
  9
$SKETCHINC
 40
0.1
  9
$FILLETRAD
 40
0.5
  9
$AUNITS
 70
     0
  9
$AUPREC
 70
     0
  9
$MENU
  1
.
  9
$ELEVATION
 40
0.0
  9
$PELEVATION
 40
0.0
  9
$THICKNESS
 40
0.0
  9
$LIMCHECK
 70
     0
  9
$CHAMFERA
 40
0.5
  9
$CHAMFERB
 40
0.5
  9
$CHAMFERC
 40
1.0
  9
$CHAMFERD
 40
0.0
  9
$SKPOLY
 70
     0
  9
$TDCREATE
 40
2457624.734052998
  9
$TDUCREATE
 40
2457624.359052998
  9
$TDUPDATE
 40
2457624.734053009
  9
$TDUUPDATE
 40
2457624.359053009
  9
$TDINDWG
 40
0.0000000116
  9
$TDUSRTIMER
 40
0.0000000116
  9
$USRTIMER
 70
     1
  9
$ANGBASE
 50
0.0
  9
$ANGDIR
 70
     0
  9
$PDMODE
 70
     0
  9
$PDSIZE
 40
0.0
  9
$PLINEWID
 40
0.0
  9
$SPLFRAME
 70
     0
  9
$SPLINETYPE
 70
     6
  9
$SPLINESEGS
 70
     8
  9
$HANDSEED
  5
222
  9
$SURFTAB1
 70
     6
  9
$SURFTAB2
 70
     6
  9
$SURFTYPE
 70
     6
  9
$SURFU
 70
     6
  9
$SURFV
 70
     6
  9
$UCSBASE
  2

  9
$UCSNAME
  2

  9
$UCSORG
 10
0.0
 20
0.0
 30
0.0
  9
$UCSXDIR
 10
1.0
 20
0.0
 30
0.0
  9
$UCSYDIR
 10
0.0
 20
1.0
 30
0.0
  9
$UCSORTHOREF
  2

  9
$UCSORTHOVIEW
 70
     0
  9
$UCSORGTOP
 10
0.0
 20
0.0
 30
0.0
  9
$UCSORGBOTTOM
 10
0.0
 20
0.0
 30
0.0
  9
$UCSORGLEFT
 10
0.0
 20
0.0
 30
0.0
  9
$UCSORGRIGHT
 10
0.0
 20
0.0
 30
0.0
  9
$UCSORGFRONT
 10
0.0
 20
0.0
 30
0.0
  9
$UCSORGBACK
 10
0.0
 20
0.0
 30
0.0
  9
$PUCSBASE
  2

  9
$PUCSNAME
  2

  9
$PUCSORG
 10
0.0
 20
0.0
 30
0.0
  9
$PUCSXDIR
 10
1.0
 20
0.0
 30
0.0
  9
$PUCSYDIR
 10
0.0
 20
1.0
 30
0.0
  9
$PUCSORTHOREF
  2

  9
$PUCSORTHOVIEW
 70
     0
  9
$PUCSORGTOP
 10
0.0
 20
0.0
 30
0.0
  9
$PUCSORGBOTTOM
 10
0.0
 20
0.0
 30
0.0
  9
$PUCSORGLEFT
 10
0.0
 20
0.0
 30
0.0
  9
$PUCSORGRIGHT
 10
0.0
 20
0.0
 30
0.0
  9
$PUCSORGFRONT
 10
0.0
 20
0.0
 30
0.0
  9
$PUCSORGBACK
 10
0.0
 20
0.0
 30
0.0
  9
$USERI1
 70
     0
  9
$USERI2
 70
     0
  9
$USERI3
 70
     0
  9
$USERI4
 70
     0
  9
$USERI5
 70
     0
  9
$USERR1
 40
18.0
  9
$USERR2
 40
0.0
  9
$USERR3
 40
0.0
  9
$USERR4
 40
0.0
  9
$USERR5
 40
0.0
  9
$WORLDVIEW
 70
     1
  9
$SHADEDGE
 70
     3
  9
$SHADEDIF
 70
    70
  9
$TILEMODE
 70
     1
  9
$MAXACTVP
 70
    64
  9
$PINSBASE
 10
0.0
 20
0.0
 30
0.0
  9
$PLIMCHECK
 70
     0
  9
$PEXTMIN
 10
1.00000000000000E+20
 20
1.00000000000000E+20
 30
1.00000000000000E+20
  9
$PEXTMAX
 10
-1.00000000000000E+20
 20
-1.00000000000000E+20
 30
-1.00000000000000E+20
  9
$PLIMMIN
 10
0.0
 20
0.0
  9
$PLIMMAX
 10
12.0
 20
9.0
  9
$UNITMODE
 70
     0
  9
$VISRETAIN
 70
     1
  9
$PLINEGEN
 70
     0
  9
$PSLTSCALE
 70
     1
  9
$TREEDEPTH
 70
  3020
  9
$CMLSTYLE
  2
Standard
  9
$CMLJUST
 70
     0
  9
$CMLSCALE
 40
1.0
  9
$PROXYGRAPHICS
 70
     1
  9
$MEASUREMENT
 70
     1
  9
$CELWEIGHT
370
    -1
  9
$ENDCAPS
280
     0
  9
$JOINSTYLE
280
     0
  9
$LWDISPLAY
290
     0
  9
$INSUNITS
 70
     1
  9
$HYPERLINKBASE
  1

  9
$STYLESHEET
  1

  9
$XEDIT
290
     1
  9
$CEPSNTYPE
380
     0
  9
$PSTYLEMODE
290
     1
  9
$FINGERPRINTGUID
  2
{AC3CDD6F-0330-4FFB-80C0-DE0B09613ADC}
  9
$VERSIONGUID
  2
{FAEB1C32-E019-11D5-929B-00C0DF256EC4}
  9
$EXTNAMES
290
     1
  9
$PSVPSCALE
 40
0.0
  9
$OLESTARTUP
290
     0
  0
ENDSEC
  0
SECTION
  2
CLASSES
  0
CLASS
  1
ACDBDICTIONARYWDFLT
  2
AcDbDictionaryWithDefault
  3
ObjectDBX Classes
 90
        0
280
     0
281
     0
  0
CLASS
  1
VISUALSTYLE
  2
AcDbVisualStyle
  3
ObjectDBX Classes
 90
     4095
280
     0
281
     0
  0
CLASS
  1
MATERIAL
  2
AcDbMaterial
  3
ObjectDBX Classes
 90
     1153
280
     0
281
     0
  0
CLASS
  1

  2
exOdDbCircle
  3

 90
        0
280
     0
281
     1
  0
CLASS
  1

  2
exOdDbPolyline
  3

 90
        0
280
     0
281
     1
  0
CLASS
  1
DICTIONARYVAR
  2
AcDbDictionaryVar
  3
ObjectDBX Classes
 90
        0
280
     0
281
     0
  0
CLASS
  1
ACDBPLACEHOLDER
  2
AcDbPlaceHolder
  3
ObjectDBX Classes
 90
        0
280
     0
281
     0
  0
CLASS
  1
LAYOUT
  2
AcDbLayout
  3
ObjectDBX Classes
 90
        0
280
     0
281
     0
  0
ENDSEC
  0
SECTION
  2
TABLES
  0
TABLE
  2
VPORT
  5
8
330
0
100
AcDbSymbolTable
 70
     1
  0
VPORT
  5
29
330
8
100
AcDbSymbolTableRecord
100
AcDbViewportTableRecord
  2
*Active
 70
     0
 10
0.0
 20
0.0
 11
1.0
 21
1.0
 12
122.1498747829035
 22
-281.8581395348835
 13
0.0
 23
0.0
 14
0.5
 24
0.5
 15
0.5
 25
0.5
 16
0.0
 26
0.0
 36
1.0
 17
0.0
 27
0.0
 37
0.0
 40
990.3120930232564
 41
1.60267857142857
 42
50.0
 43
0.0
 44
0.0
 50
0.0
 51
0.0
 71
     0
 72
   100
 73
     1
 74
     3
 75
     0
 76
     0
 77
     0
 78
     0
281
     0
 65
     1
110
0.0
120
0.0
130
0.0
111
1.0
121
0.0
131
0.0
112
0.0
122
1.0
132
0.0
 79
     0
146
0.0
  0
ENDTAB
  0
TABLE
  2
LTYPE
  5
5
330
0
100
AcDbSymbolTable
 70
     8
  0
LTYPE
  5
14
330
5
100
AcDbSymbolTableRecord
100
AcDbLinetypeTableRecord
  2
ByBlock
 70
     0
  3

 72
    65
 73
     0
 40
0.0
  0
LTYPE
  5
15
330
5
100
AcDbSymbolTableRecord
100
AcDbLinetypeTableRecord
  2
ByLayer
 70
     0
  3

 72
    65
 73
     0
 40
0.0
  0
LTYPE
  5
16
330
5
100
AcDbSymbolTableRecord
100
AcDbLinetypeTableRecord
  2
Continuous
 70
     0
  3
Solid line
 72
    65
 73
     0
 40
0.0
  0
LTYPE
  5
3F
330
5
100
AcDbSymbolTableRecord
100
AcDbLinetypeTableRecord
  2
DASHED
 70
     0
  3
Dashed
 72
    65
 73
     2
 40
15.0
 49
7.0
 74
     0
 49
-8.0
 74
     0
  0
LTYPE
  5
40
330
5
100
AcDbSymbolTableRecord
100
AcDbLinetypeTableRecord
  2
DOTTED
 70
     0
  3
Dotted
 72
    65
 73
     2
 40
1.0
 49
0.0
 74
     0
 49
-1.0
 74
     0
  0
LTYPE
  5
41
330
5
100
AcDbSymbolTableRecord
100
AcDbLinetypeTableRecord
  2
DOT_CENTER
 70
     0
  3
Dot_Center
 72
    65
 73
     4
 40
14.0
 49
12.0
 74
     0
 49
-1.0
 74
     0
 49
0.0
 74
     0
 49
-1.0
 74
     0
  0
LTYPE
  5
42
330
5
100
AcDbSymbolTableRecord
100
AcDbLinetypeTableRecord
  2
LONG_DASHED
 70
     0
  3
Long_Dashed
 72
    65
 73
     2
 40
15.0
 49
10.0
 74
     0
 49
-5.0
 74
     0
  0
LTYPE
  5
43
330
5
100
AcDbSymbolTableRecord
100
AcDbLinetypeTableRecord
  2
DASH_CENTER
 70
     0
  3
Dash_Center
 72
    65
 73
     4
 40
14.0
 49
11.0
 74
     0
 49
-1.0
 74
     0
 49
1.0
 74
     0
 49
-1.0
 74
     0
  0
LTYPE
  5
44
330
5
100
AcDbSymbolTableRecord
100
AcDbLinetypeTableRecord
  2
PHANTOM
 70
     0
  3
Phantom
 72
    65
 73
     6
 40
13.0
 49
10.0
 74
     0
 49
-1.0
 74
     0
 49
0.0
 74
     0
 49
-1.0
 74
     0
 49
0.0
 74
     0
 49
-1.0
 74
     0
  0
LTYPE
  5
45
330
5
100
AcDbSymbolTableRecord
100
AcDbLinetypeTableRecord
  2
CENTER_DASH_DASH
 70
     0
  3
Center_Dash_Dash
 72
    65
 73
     6
 40
14.0
 49
9.0
 74
     0
 49
-1.0
 74
     0
 49
1.0
 74
     0
 49
-1.0
 74
     0
 49
1.0
 74
     0
 49
-1.0
 74
     0
  0
ENDTAB
  0
TABLE
  2
LAYER
  5
2
330
0
100
AcDbSymbolTable
 70
     3
  0
LAYER
  5
10
330
2
100
AcDbSymbolTableRecord
100
AcDbLayerTableRecord
  2
0
 70
     0
 62
     7
  6
Continuous
370
    -3
390
F
  0
LAYER
  5
46
330
2
100
AcDbSymbolTableRecord
100
AcDbLayerTableRecord
  2
1
 70
     0
 62
     7
  6
Continuous
370
    -3
390
F
  0
LAYER
  5
47
330
2
100
AcDbSymbolTableRecord
100
AcDbLayerTableRecord
  2
4
 70
     0
 62
     7
  6
Continuous
370
    -3
390
F
  0
ENDTAB
  0
TABLE
  2
STYLE
  5
3
330
0
100
AcDbSymbolTable
 70
     1
  0
STYLE
  5
11
330
3
100
AcDbSymbolTableRecord
100
AcDbTextStyleTableRecord
  2
Standard
 70
     0
 40
0.0
 41
1.0
 50
0.0
 71
     0
 42
0.2
  3
txt
  4

  0
ENDTAB
  0
TABLE
  2
VIEW
  5
6
330
0
100
AcDbSymbolTable
 70
     0
  0
ENDTAB
  0
TABLE
  2
UCS
  5
7
330
0
100
AcDbSymbolTable
 70
     0
  0
ENDTAB
  0
TABLE
  2
APPID
  5
9
330
0
100
AcDbSymbolTable
 70
     1
  0
APPID
  5
12
330
9
100
AcDbSymbolTableRecord
100
AcDbRegAppTableRecord
  2
ACAD
 70
     0
  0
ENDTAB
  0
TABLE
  2
DIMSTYLE
  5
A
330
0
100
AcDbSymbolTable
 70
     1
100
AcDbDimStyleTable
  0
DIMSTYLE
105
27
330
A
100
AcDbSymbolTableRecord
100
AcDbDimStyleTableRecord
  2
Standard
 70
     0
340
11
  0
ENDTAB
  0
TABLE
  2
BLOCK_RECORD
  5
1
330
0
100
AcDbSymbolTable
 70
     1
  0
BLOCK_RECORD
  5
1F
330
1
100
AcDbSymbolTableRecord
100
AcDbBlockTableRecord
  2
*Model_Space
340
22
  0
BLOCK_RECORD
  5
1B
330
1
100
AcDbSymbolTableRecord
100
AcDbBlockTableRecord
  2
*Paper_Space
340
1E
  0
BLOCK_RECORD
  5
23
330
1
100
AcDbSymbolTableRecord
100
AcDbBlockTableRecord
  2
*Paper_Space0
340
26
  0
ENDTAB
  0
ENDSEC
  0
SECTION
  2
BLOCKS
  0
BLOCK
  5
20
330
1F
100
AcDbEntity
  8
0
100
AcDbBlockBegin
  2
*Model_Space
 70
     0
 10
0.0
 20
0.0
 30
0.0
  3
*Model_Space
  1

  0
ENDBLK
  5
21
330
1F
100
AcDbEntity
  8
0
100
AcDbBlockEnd
  0
BLOCK
  5
1C
330
1B
100
AcDbEntity
 67
     1
  8
0
100
AcDbBlockBegin
  2
*Paper_Space
 70
     0
 10
0.0
 20
0.0
 30
0.0
  3
*Paper_Space
  1

  0
ENDBLK
  5
1D
330
1B
100
AcDbEntity
 67
     1
  8
0
100
AcDbBlockEnd
  0
BLOCK
  5
24
330
23
100
AcDbEntity
  8
0
100
AcDbBlockBegin
  2
*Paper_Space0
 70
     0
 10
0.0
 20
0.0
 30
0.0
  3
*Paper_Space0
  1

  0
ENDBLK
  5
25
330
23
100
AcDbEntity
  8
0
100
AcDbBlockEnd
  0
ENDSEC
  0
SECTION
  2
ENTITIES
  0
LINE
  5
48
330
1F
100
AcDbEntity
  8
1
  6
Continuous
 62
     4
100
AcDbLine
 10
269.974168888524
 20
131.596613399137
 30
0.0
 11
266.224168888524
 21
131.596613399137
 31
0.0
  0
LINE
  5
49
330
1F
100
AcDbEntity
  8
1
  6
Continuous
 62
     4
100
AcDbLine
 10
270.724168888524
 20
131.846613399137
 30
0.0
 11
269.974168888524
 21
131.596613399137
 31
0.0
  0
LINE
  5
4A
330
1F
100
AcDbEntity
  8
1
  6
Continuous
 62
     4
100
AcDbLine
 10
271.474168888524
 20
132.346613399137
 30
0.0
 11
270.724168888524
 21
131.846613399137
 31
0.0
  0
LINE
  5
4B
330
1F
100
AcDbEntity
  8
1
  6
Continuous
 62
     4
100
AcDbLine
 10
271.974168888524
 20
133.096613399137
 30
0.0
 11
271.474168888524
 21
132.346613399137
 31
0.0
  0
LINE
  5
4C
330
1F
100
AcDbEntity
  8
1
  6
Continuous
 62
     4
100
AcDbLine
 10
272.224168888524
 20
134.096613399137
 30
0.0
 11
271.974168888524
 21
133.096613399137
 31
0.0
  0
LINE
  5
4D
330
1F
100
AcDbEntity
  8
1
  6
Continuous
 62
     4
100
AcDbLine
 10
272.224168888524
 20
135.596613399137
 30
0.0
 11
272.224168888524
 21
134.096613399137
 31
0.0
  0
LINE
  5
4E
330
1F
100
AcDbEntity
  8
1
  6
Continuous
 62
     4
100
AcDbLine
 10
271.974168888524
 20
136.596613399137
 30
0.0
 11
272.224168888524
 21
135.596613399137
 31
0.0
  0
LINE
  5
4F
330
1F
100
AcDbEntity
  8
1
  6
Continuous
 62
     4
100
AcDbLine
 10
271.224168888524
 20
137.346613399137
 30
0.0
 11
271.974168888524
 21
136.596613399137
 31
0.0
  0
LINE
  5
50
330
1F
100
AcDbEntity
  8
1
  6
Continuous
 62
     4
100
AcDbLine
 10
269.974168888524
 20
137.596613399137
 30
0.0
 11
271.224168888524
 21
137.346613399137
 31
0.0
  0
LINE
  5
51
330
1F
100
AcDbEntity
  8
1
  6
Continuous
 62
     4
100
AcDbLine
 10
266.224168888524
 20
137.596613399137
 30
0.0
 11
269.974168888524
 21
137.596613399137
 31
0.0
  0
LINE
  5
52
330
1F
100
AcDbEntity
  8
1
  6
Continuous
 62
     4
100
AcDbLine
 10
266.224168888524
 20
141.596613399137
 30
0.0
 11
266.224168888524
 21
137.596613399137
 31
0.0
  0
LINE
  5
53
330
1F
100
AcDbEntity
  8
1
  6
Continuous
 62
     4
100
AcDbLine
 10
271.724168888524
 20
141.596613399137
 30
0.0
 11
266.224168888524
 21
141.596613399137
 31
0.0
  0
LINE
  5
54
330
1F
100
AcDbEntity
  8
1
  6
Continuous
 62
     4
100
AcDbLine
 10
260.974168888524
 20
131.596613399137
 30
0.0
 11
257.224168888524
 21
131.596613399137
 31
0.0
  0
LINE
  5
55
330
1F
100
AcDbEntity
  8
1
  6
Continuous
 62
     4
100
AcDbLine
 10
261.724168888524
 20
131.846613399137
 30
0.0
 11
260.974168888524
 21
131.596613399137
 31
0.0
  0
LINE
  5
56
330
1F
100
AcDbEntity
  8
1
  6
Continuous
 62
     4
100
AcDbLine
 10
262.474168888524
 20
132.346613399137
 30
0.0
 11
261.724168888524
 21
131.846613399137
 31
0.0
  0
LINE
  5
57
330
1F
100
AcDbEntity
  8
1
  6
Continuous
 62
     4
100
AcDbLine
 10
262.974168888524
 20
133.096613399137
 30
0.0
 11
262.474168888524
 21
132.346613399137
 31
0.0
  0
LINE
  5
58
330
1F
100
AcDbEntity
  8
1
  6
Continuous
 62
     4
100
AcDbLine
 10
263.224168888524
 20
134.096613399137
 30
0.0
 11
262.974168888524
 21
133.096613399137
 31
0.0
  0
LINE
  5
59
330
1F
100
AcDbEntity
  8
1
  6
Continuous
 62
     4
100
AcDbLine
 10
263.224168888524
 20
135.346613399137
 30
0.0
 11
263.224168888524
 21
134.096613399137
 31
0.0
  0
LINE
  5
5A
330
1F
100
AcDbEntity
  8
1
  6
Continuous
 62
     4
100
AcDbLine
 10
262.974168888524
 20
136.346613399137
 30
0.0
 11
263.224168888524
 21
135.346613399137
 31
0.0
  0
LINE
  5
5B
330
1F
100
AcDbEntity
  8
1
  6
Continuous
 62
     4
100
AcDbLine
 10
262.724168888524
 20
136.846613399137
 30
0.0
 11
262.974168888524
 21
136.346613399137
 31
0.0
  0
LINE
  5
5C
330
1F
100
AcDbEntity
  8
1
  6
Continuous
 62
     4
100
AcDbLine
 10
262.224168888524
 20
137.346613399137
 30
0.0
 11
262.724168888524
 21
136.846613399137
 31
0.0
  0
LINE
  5
5D
330
1F
100
AcDbEntity
  8
1
  6
Continuous
 62
     4
100
AcDbLine
 10
261.224168888524
 20
137.596613399137
 30
0.0
 11
262.224168888524
 21
137.346613399137
 31
0.0
  0
LINE
  5
5E
330
1F
100
AcDbEntity
  8
1
  6
Continuous
 62
     4
100
AcDbLine
 10
261.974168888524
 20
137.846613399137
 30
0.0
 11
261.224168888524
 21
137.596613399137
 31
0.0
  0
LINE
  5
5F
330
1F
100
AcDbEntity
  8
1
  6
Continuous
 62
     4
100
AcDbLine
 10
262.474168888524
 20
138.096613399137
 30
0.0
 11
261.974168888524
 21
137.846613399137
 31
0.0
  0
LINE
  5
60
330
1F
100
AcDbEntity
  8
1
  6
Continuous
 62
     4
100
AcDbLine
 10
262.974168888524
 20
138.596613399137
 30
0.0
 11
262.474168888524
 21
138.096613399137
 31
0.0
  0
LINE
  5
61
330
1F
100
AcDbEntity
  8
1
  6
Continuous
 62
     4
100
AcDbLine
 10
263.224168888524
 20
139.346613399137
 30
0.0
 11
262.974168888524
 21
138.596613399137
 31
0.0
  0
LINE
  5
62
330
1F
100
AcDbEntity
  8
1
  6
Continuous
 62
     4
100
AcDbLine
 10
263.224168888524
 20
140.096613399137
 30
0.0
 11
263.224168888524
 21
139.346613399137
 31
0.0
  0
LINE
  5
63
330
1F
100
AcDbEntity
  8
1
  6
Continuous
 62
     4
100
AcDbLine
 10
262.974168888524
 20
140.846613399137
 30
0.0
 11
263.224168888524
 21
140.096613399137
 31
0.0
  0
LINE
  5
64
330
1F
100
AcDbEntity
  8
1
  6
Continuous
 62
     4
100
AcDbLine
 10
262.224168888524
 20
141.346613399137
 30
0.0
 11
262.974168888524
 21
140.846613399137
 31
0.0
  0
LINE
  5
65
330
1F
100
AcDbEntity
  8
1
  6
Continuous
 62
     4
100
AcDbLine
 10
260.974168888524
 20
141.596613399137
 30
0.0
 11
262.224168888524
 21
141.346613399137
 31
0.0
  0
LINE
  5
66
330
1F
100
AcDbEntity
  8
1
  6
Continuous
 62
     4
100
AcDbLine
 10
257.224168888524
 20
141.596613399137
 30
0.0
 11
260.974168888524
 21
141.596613399137
 31
0.0
  0
LINE
  5
67
330
1F
100
AcDbEntity
  8
1
  6
Continuous
 62
     4
100
AcDbLine
 10
258.724168888524
 20
137.596613399137
 30
0.0
 11
261.224168888524
 21
137.596613399137
 31
0.0
  0
LINE
  5
68
330
1F
100
AcDbEntity
  8
1
  6
Continuous
 62
     4
100
AcDbLine
 10
254.224168888524
 20
141.596613399137
 30
0.0
 11
254.224168888524
 21
131.596613399137
 31
0.0
  0
LINE
  5
69
330
1F
100
AcDbEntity
  8
1
  6
Continuous
 62
     4
100
AcDbLine
 10
250.724168888524
 20
136.096613399137
 30
0.0
 11
254.224168888524
 21
141.596613399137
 31
0.0
  0
LINE
  5
6A
330
1F
100
AcDbEntity
  8
1
  6
Continuous
 62
     4
100
AcDbLine
 10
247.224168888524
 20
141.596613399137
 30
0.0
 11
250.724168888524
 21
136.096613399137
 31
0.0
  0
LINE
  5
6B
330
1F
100
AcDbEntity
  8
1
  6
Continuous
 62
     4
100
AcDbLine
 10
247.224168888524
 20
131.596613399137
 30
0.0
 11
247.224168888524
 21
141.596613399137
 31
0.0
  0
LINE
  5
6C
330
1F
100
AcDbEntity
  8
1
  6
Continuous
 62
     4
100
AcDbLine
 10
239.224168888524
 20
135.096613399137
 30
0.0
 11
244.224168888524
 21
135.096613399137
 31
0.0
  0
LINE
  5
6D
330
1F
100
AcDbEntity
  8
1
  6
Continuous
 62
     4
100
AcDbLine
 10
229.224168888524
 20
134.596613399137
 30
0.0
 11
229.224168888524
 21
141.596613399137
 31
0.0
  0
LINE
  5
6E
330
1F
100
AcDbEntity
  8
1
  6
Continuous
 62
     4
100
AcDbLine
 10
229.474168888524
 20
133.596613399137
 30
0.0
 11
229.224168888524
 21
134.596613399137
 31
0.0
  0
LINE
  5
6F
330
1F
100
AcDbEntity
  8
1
  6
Continuous
 62
     4
100
AcDbLine
 10
229.974168888524
 20
132.846613399137
 30
0.0
 11
229.474168888524
 21
133.596613399137
 31
0.0
  0
LINE
  5
70
330
1F
100
AcDbEntity
  8
1
  6
Continuous
 62
     4
100
AcDbLine
 10
230.474168888524
 20
132.346613399137
 30
0.0
 11
229.974168888524
 21
132.846613399137
 31
0.0
  0
LINE
  5
71
330
1F
100
AcDbEntity
  8
1
  6
Continuous
 62
     4
100
AcDbLine
 10
231.224168888524
 20
131.846613399137
 30
0.0
 11
230.474168888524
 21
132.346613399137
 31
0.0
  0
LINE
  5
72
330
1F
100
AcDbEntity
  8
1
  6
Continuous
 62
     4
100
AcDbLine
 10
231.974168888524
 20
131.596613399137
 30
0.0
 11
231.224168888524
 21
131.846613399137
 31
0.0
  0
LINE
  5
73
330
1F
100
AcDbEntity
  8
1
  6
Continuous
 62
     4
100
AcDbLine
 10
233.474168888524
 20
131.596613399137
 30
0.0
 11
231.974168888524
 21
131.596613399137
 31
0.0
  0
LINE
  5
74
330
1F
100
AcDbEntity
  8
1
  6
Continuous
 62
     4
100
AcDbLine
 10
234.224168888524
 20
131.846613399137
 30
0.0
 11
233.474168888524
 21
131.596613399137
 31
0.0
  0
LINE
  5
75
330
1F
100
AcDbEntity
  8
1
  6
Continuous
 62
     4
100
AcDbLine
 10
234.974168888524
 20
132.346613399137
 30
0.0
 11
234.224168888524
 21
131.846613399137
 31
0.0
  0
LINE
  5
76
330
1F
100
AcDbEntity
  8
1
  6
Continuous
 62
     4
100
AcDbLine
 10
235.474168888524
 20
132.846613399137
 30
0.0
 11
234.974168888524
 21
132.346613399137
 31
0.0
  0
LINE
  5
77
330
1F
100
AcDbEntity
  8
1
  6
Continuous
 62
     4
100
AcDbLine
 10
235.974168888524
 20
133.596613399137
 30
0.0
 11
235.474168888524
 21
132.846613399137
 31
0.0
  0
LINE
  5
78
330
1F
100
AcDbEntity
  8
1
  6
Continuous
 62
     4
100
AcDbLine
 10
236.224168888524
 20
134.596613399137
 30
0.0
 11
235.974168888524
 21
133.596613399137
 31
0.0
  0
LINE
  5
79
330
1F
100
AcDbEntity
  8
1
  6
Continuous
 62
     4
100
AcDbLine
 10
236.224168888524
 20
141.596613399137
 30
0.0
 11
236.224168888524
 21
134.596613399137
 31
0.0
  0
LINE
  5
7A
330
1F
100
AcDbEntity
  8
1
  6
Continuous
 62
     4
100
AcDbLine
 10
8.6935513637554
 20
-168.34849401749
 30
0.0
 11
14.6935513637554
 21
-168.34849401749
 31
0.0
  0
LINE
  5
7B
330
1F
100
AcDbEntity
  8
1
  6
Continuous
 62
     4
100
AcDbLine
 10
14.1935513637554
 20
-161.84849401749
 30
0.0
 11
8.6935513637554
 21
-168.34849401749
 31
0.0
  0
LINE
  5
7C
330
1F
100
AcDbEntity
  8
1
  6
Continuous
 62
     4
100
AcDbLine
 10
14.6935513637554
 20
-160.84849401749
 30
0.0
 11
14.1935513637554
 21
-161.84849401749
 31
0.0
  0
LINE
  5
7D
330
1F
100
AcDbEntity
  8
1
  6
Continuous
 62
     4
100
AcDbLine
 10
14.6935513637554
 20
-159.84849401749
 30
0.0
 11
14.6935513637554
 21
-160.84849401749
 31
0.0
  0
LINE
  5
7E
330
1F
100
AcDbEntity
  8
1
  6
Continuous
 62
     4
100
AcDbLine
 10
14.1935513637554
 20
-159.09849401749
 30
0.0
 11
14.6935513637554
 21
-159.84849401749
 31
0.0
  0
LINE
  5
7F
330
1F
100
AcDbEntity
  8
1
  6
Continuous
 62
     4
100
AcDbLine
 10
13.4435513637554
 20
-158.59849401749
 30
0.0
 11
14.1935513637554
 21
-159.09849401749
 31
0.0
  0
LINE
  5
80
330
1F
100
AcDbEntity
  8
1
  6
Continuous
 62
     4
100
AcDbLine
 10
12.4435513637554
 20
-158.34849401749
 30
0.0
 11
13.4435513637554
 21
-158.59849401749
 31
0.0
  0
LINE
  5
81
330
1F
100
AcDbEntity
  8
1
  6
Continuous
 62
     4
100
AcDbLine
 10
10.9435513637554
 20
-158.34849401749
 30
0.0
 11
12.4435513637554
 21
-158.34849401749
 31
0.0
  0
LINE
  5
82
330
1F
100
AcDbEntity
  8
1
  6
Continuous
 62
     4
100
AcDbLine
 10
9.9435513637554
 20
-158.59849401749
 30
0.0
 11
10.9435513637554
 21
-158.34849401749
 31
0.0
  0
LINE
  5
83
330
1F
100
AcDbEntity
  8
1
  6
Continuous
 62
     4
100
AcDbLine
 10
9.1935513637554
 20
-159.09849401749
 30
0.0
 11
9.9435513637554
 21
-158.59849401749
 31
0.0
  0
LINE
  5
84
330
1F
100
AcDbEntity
  8
1
  6
Continuous
 62
     4
100
AcDbLine
 10
8.6935513637554
 20
-159.84849401749
 30
0.0
 11
9.1935513637554
 21
-159.09849401749
 31
0.0
  0
LINE
  5
85
330
1F
100
AcDbEntity
  8
1
  6
Continuous
 62
     4
100
AcDbLine
 10
1.6935513637554
 20
-168.34849401749
 30
0.0
 11
5.6935513637554
 21
-158.34849401749
 31
0.0
  0
LINE
  5
86
330
1F
100
AcDbEntity
  8
1
  6
Continuous
 62
     4
100
AcDbLine
 10
-1.3064486362446
 20
-158.34849401749
 30
0.0
 11
-1.3064486362446
 21
-168.34849401749
 31
0.0
  0
LINE
  5
87
330
1F
100
AcDbEntity
  8
1
  6
Continuous
 62
     4
100
AcDbLine
 10
-4.3064486362446
 20
-161.34849401749
 30
0.0
 11
-1.3064486362446
 21
-158.34849401749
 31
0.0
  0
LINE
  5
88
330
1F
100
AcDbEntity
  8
1
  6
Continuous
 62
     4
100
AcDbLine
 10
-13.3064486362446
 20
-168.34849401749
 30
0.0
 11
-13.3064486362446
 21
-171.34849401749
 31
0.0
  0
LINE
  5
89
330
1F
100
AcDbEntity
  8
1
  6
Continuous
 62
     4
100
AcDbLine
 10
-13.3064486362446
 20
-161.34849401749
 30
0.0
 11
-13.3064486362446
 21
-168.34849401749
 31
0.0
  0
LINE
  5
8A
330
1F
100
AcDbEntity
  8
1
  6
Continuous
 62
     4
100
AcDbLine
 10
-9.5564486362446
 20
-161.34849401749
 30
0.0
 11
-13.3064486362446
 21
-161.34849401749
 31
0.0
  0
LINE
  5
8B
330
1F
100
AcDbEntity
  8
1
  6
Continuous
 62
     4
100
AcDbLine
 10
-8.5564486362446
 20
-161.59849401749
 30
0.0
 11
-9.5564486362446
 21
-161.34849401749
 31
0.0
  0
LINE
  5
8C
330
1F
100
AcDbEntity
  8
1
  6
Continuous
 62
     4
100
AcDbLine
 10
-8.0564486362446
 20
-161.84849401749
 30
0.0
 11
-8.5564486362446
 21
-161.59849401749
 31
0.0
  0
LINE
  5
8D
330
1F
100
AcDbEntity
  8
1
  6
Continuous
 62
     4
100
AcDbLine
 10
-7.5564486362446
 20
-162.34849401749
 30
0.0
 11
-8.0564486362446
 21
-161.84849401749
 31
0.0
  0
LINE
  5
8E
330
1F
100
AcDbEntity
  8
1
  6
Continuous
 62
     4
100
AcDbLine
 10
-7.3064486362446
 20
-163.34849401749
 30
0.0
 11
-7.5564486362446
 21
-162.34849401749
 31
0.0
  0
LINE
  5
8F
330
1F
100
AcDbEntity
  8
1
  6
Continuous
 62
     4
100
AcDbLine
 10
-7.3064486362446
 20
-166.34849401749
 30
0.0
 11
-7.3064486362446
 21
-163.34849401749
 31
0.0
  0
LINE
  5
90
330
1F
100
AcDbEntity
  8
1
  6
Continuous
 62
     4
100
AcDbLine
 10
-7.5564486362446
 20
-167.34849401749
 30
0.0
 11
-7.3064486362446
 21
-166.34849401749
 31
0.0
  0
LINE
  5
91
330
1F
100
AcDbEntity
  8
1
  6
Continuous
 62
     4
100
AcDbLine
 10
-8.0564486362446
 20
-167.84849401749
 30
0.0
 11
-7.5564486362446
 21
-167.34849401749
 31
0.0
  0
LINE
  5
92
330
1F
100
AcDbEntity
  8
1
  6
Continuous
 62
     4
100
AcDbLine
 10
-8.5564486362446
 20
-168.09849401749
 30
0.0
 11
-8.0564486362446
 21
-167.84849401749
 31
0.0
  0
LINE
  5
93
330
1F
100
AcDbEntity
  8
1
  6
Continuous
 62
     4
100
AcDbLine
 10
-9.5564486362446
 20
-168.34849401749
 30
0.0
 11
-8.5564486362446
 21
-168.09849401749
 31
0.0
  0
LINE
  5
94
330
1F
100
AcDbEntity
  8
1
  6
Continuous
 62
     4
100
AcDbLine
 10
-13.3064486362446
 20
-168.34849401749
 30
0.0
 11
-9.5564486362446
 21
-168.34849401749
 31
0.0
  0
LINE
  5
95
330
1F
100
AcDbEntity
  8
1
  6
Continuous
 62
     4
100
AcDbLine
 10
-23.3064486362446
 20
-168.34849401749
 30
0.0
 11
-23.3064486362446
 21
-163.34849401749
 31
0.0
  0
LINE
  5
96
330
1F
100
AcDbEntity
  8
1
  6
Continuous
 62
     4
100
AcDbLine
 10
-19.3064486362446
 20
-163.34849401749
 30
0.0
 11
-16.3064486362446
 21
-168.34849401749
 31
0.0
  0
LINE
  5
97
330
1F
100
AcDbEntity
  8
1
  6
Continuous
 62
     4
100
AcDbLine
 10
-18.5564486362446
 20
-163.34849401749
 30
0.0
 11
-19.3064486362446
 21
-163.34849401749
 31
0.0
  0
LINE
  5
98
330
1F
100
AcDbEntity
  8
1
  6
Continuous
 62
     4
100
AcDbLine
 10
-17.5564486362446
 20
-163.09849401749
 30
0.0
 11
-18.5564486362446
 21
-163.34849401749
 31
0.0
  0
LINE
  5
99
330
1F
100
AcDbEntity
  8
1
  6
Continuous
 62
     4
100
AcDbLine
 10
-16.8064486362446
 20
-162.59849401749
 30
0.0
 11
-17.5564486362446
 21
-163.09849401749
 31
0.0
  0
LINE
  5
9A
330
1F
100
AcDbEntity
  8
1
  6
Continuous
 62
     4
100
AcDbLine
 10
-16.5564486362446
 20
-162.09849401749
 30
0.0
 11
-16.8064486362446
 21
-162.59849401749
 31
0.0
  0
LINE
  5
9B
330
1F
100
AcDbEntity
  8
1
  6
Continuous
 62
     4
100
AcDbLine
 10
-16.3064486362446
 20
-161.34849401749
 30
0.0
 11
-16.5564486362446
 21
-162.09849401749
 31
0.0
  0
LINE
  5
9C
330
1F
100
AcDbEntity
  8
1
  6
Continuous
 62
     4
100
AcDbLine
 10
-16.3064486362446
 20
-160.34849401749
 30
0.0
 11
-16.3064486362446
 21
-161.34849401749
 31
0.0
  0
LINE
  5
9D
330
1F
100
AcDbEntity
  8
1
  6
Continuous
 62
     4
100
AcDbLine
 10
-16.5564486362446
 20
-159.59849401749
 30
0.0
 11
-16.3064486362446
 21
-160.34849401749
 31
0.0
  0
LINE
  5
9E
330
1F
100
AcDbEntity
  8
1
  6
Continuous
 62
     4
100
AcDbLine
 10
-16.8064486362446
 20
-159.09849401749
 30
0.0
 11
-16.5564486362446
 21
-159.59849401749
 31
0.0
  0
LINE
  5
9F
330
1F
100
AcDbEntity
  8
1
  6
Continuous
 62
     4
100
AcDbLine
 10
-17.5564486362446
 20
-158.59849401749
 30
0.0
 11
-16.8064486362446
 21
-159.09849401749
 31
0.0
  0
LINE
  5
A0
330
1F
100
AcDbEntity
  8
1
  6
Continuous
 62
     4
100
AcDbLine
 10
-18.5564486362446
 20
-158.34849401749
 30
0.0
 11
-17.5564486362446
 21
-158.59849401749
 31
0.0
  0
LINE
  5
A1
330
1F
100
AcDbEntity
  8
1
  6
Continuous
 62
     4
100
AcDbLine
 10
-23.3064486362446
 20
-158.34849401749
 30
0.0
 11
-18.5564486362446
 21
-158.34849401749
 31
0.0
  0
LINE
  5
A2
330
1F
100
AcDbEntity
  8
1
  6
Continuous
 62
     4
100
AcDbLine
 10
-23.3064486362446
 20
-163.34849401749
 30
0.0
 11
-23.3064486362446
 21
-158.34849401749
 31
0.0
  0
LINE
  5
A3
330
1F
100
AcDbEntity
  8
1
  6
Continuous
 62
     4
100
AcDbLine
 10
-19.3064486362446
 20
-163.34849401749
 30
0.0
 11
-23.3064486362446
 21
-163.34849401749
 31
0.0
  0
LINE
  5
BC
330
1F
100
AcDbEntity
  8
1
  6
Continuous
 62
     4
100
AcDbLine
 10
58.5
 20
-135.5
 30
0.0
 11
56.2454950927243
 21
-136.544393133204
 31
0.0
  0
LINE
  5
BD
330
1F
100
AcDbEntity
  8
1
  6
Continuous
 62
     4
100
AcDbLine
 10
58.5
 20
-135.5
 30
0.0
 11
57.0697380439444
 21
-137.53172343853
 31
0.0
  0
LINE
  5
BE
330
1F
100
AcDbEntity
  8
1
  6
LONG_DASHED
 62
     3
100
AcDbLine
 10
89.0
 20
-439.0000060348
 30
0.0
 11
89.0
 21
-527.4999973022
 31
0.0
  0
LINE
  5
BF
330
1F
100
AcDbEntity
  8
1
  6
LONG_DASHED
 62
     3
100
AcDbLine
 10
98.0
 20
-527.4999973022
 30
0.0
 11
98.0
 21
-439.0000060348
 31
0.0
  0
LINE
  5
C0
330
1F
100
AcDbEntity
  8
1
  6
LONG_DASHED
 62
     3
100
AcDbLine
 10
89.0
 20
-439.0000060348
 30
0.0
 11
98.0
 21
-439.0000060348
 31
0.0
  0
LINE
  5
C1
330
1F
100
AcDbEntity
  8
1
  6
Continuous
 62
     3
100
AcDbLine
 10
87.4
 20
-227.5
 30
0.0
 11
99.6
 21
-527.4999973022
 31
0.0
  0
LINE
  5
C2
330
1F
100
AcDbEntity
  8
1
  6
Continuous
 62
     3
100
AcDbLine
 10
87.4
 20
-527.4999973022
 30
0.0
 11
99.6
 21
-227.5
 31
0.0
  0
LINE
  5
C3
330
1F
100
AcDbEntity
  8
4
  6
Continuous
 62
     3
100
AcDbLine
 10
99.6
 20
-527.4999973022
 30
0.0
 11
99.6
 21
-227.5
 31
0.0
  0
LINE
  5
C4
330
1F
100
AcDbEntity
  8
1
  6
Continuous
 62
     3
100
AcDbLine
 10
92.982499561349
 20
-527.4999973022
 30
0.0
 11
97.549999954316
 21
-629.0000060348
 31
0.0
  0
LINE
  5
C5
330
1F
100
AcDbEntity
  8
1
  6
Continuous
 62
     3
100
AcDbLine
 10
89.450000045684
 20
-629.0000060348
 30
0.0
 11
94.017500438651
 21
-527.4999973022
 31
0.0
  0
LINE
  5
C6
330
1F
100
AcDbEntity
  8
4
  6
PHANTOM
 62
     6
100
AcDbLine
 10
81.0
 20
-730.0
 30
0.0
 11
81.0
 21
-728.0
 31
0.0
  0
LINE
  5
C7
330
1F
100
AcDbEntity
  8
4
  6
PHANTOM
 62
     6
100
AcDbLine
 10
106.0
 20
-730.0
 30
0.0
 11
106.0
 21
-728.0
 31
0.0
  0
LINE
  5
C8
330
1F
100
AcDbEntity
  8
4
  6
PHANTOM
 62
     6
100
AcDbLine
 10
104.0
 20
-732.0
 30
0.0
 11
82.9999999999998
 21
-732.0
 31
0.0
  0
LINE
  5
C9
330
1F
100
AcDbEntity
  8
4
  6
Continuous
 62
     3
100
AcDbLine
 10
126.5
 20
75.5337209302326
 30
0.0
 11
140.243315030066
 21
75.5337209302326
 31
0.0
  0
LINE
  5
CA
330
1F
100
AcDbEntity
  8
4
  6
Continuous
 62
     3
100
AcDbLine
 10
126.5
 20
55.7204409882467
 30
0.0
 11
126.5
 21
75.5337209302326
 31
0.0
  0
LINE
  5
CB
330
1F
100
AcDbEntity
  8
4
  6
Continuous
 62
     3
100
AcDbLine
 10
125.0
 20
75.7837209302326
 30
0.0
 11
139.268438907177
 21
75.7837209302326
 31
0.0
  0
LINE
  5
CC
330
1F
100
AcDbEntity
  8
4
  6
Continuous
 62
     3
100
AcDbLine
 10
125.0
 20
55.0999547461591
 30
0.0
 11
125.0
 21
75.7837209302326
 31
0.0
  0
LINE
  5
CD
330
1F
100
AcDbEntity
  8
4
  6
Continuous
 62
     3
100
AcDbLine
 10
136.279960261786
 20
47.321780153107
 30
0.0
 11
137.163843738269
 21
48.2056636295902
 31
0.0
  0
LINE
  5
CE
330
1F
100
AcDbEntity
  8
4
  6
Continuous
 62
     3
100
AcDbLine
 10
136.279960261786
 20
50.1502072778532
 30
0.0
 11
137.163843738269
 21
49.2663238013698
 31
0.0
  0
LINE
  5
CF
330
1F
100
AcDbEntity
  8
4
  6
Continuous
 62
     3
100
AcDbLine
 10
136.279960261786
 20
50.1502072778532
 30
0.0
 11
136.633513652379
 21
50.5037606684466
 31
0.0
  0
LINE
  5
D0
330
1F
100
AcDbEntity
  8
4
  6
Continuous
 62
     3
100
AcDbLine
 10
136.633513652379
 20
50.5037606684466
 30
0.0
 11
137.517397128863
 21
49.6198771919634
 31
0.0
  0
LINE
  5
D1
330
1F
100
AcDbEntity
  8
4
  6
Continuous
 62
     3
100
AcDbLine
 10
138.578057300642
 20
49.6198771919632
 30
0.0
 11
139.461940777126
 21
50.5037606684466
 31
0.0
  0
LINE
  5
D2
330
1F
100
AcDbEntity
  8
4
  6
Continuous
 62
     3
100
AcDbLine
 10
139.461940777126
 20
50.5037606684466
 30
0.0
 11
139.815494167719
 21
50.1502072778534
 31
0.0
  0
LINE
  5
D3
330
1F
100
AcDbEntity
  8
4
  6
Continuous
 62
     3
100
AcDbLine
 10
138.931610691236
 20
49.26632380137
 30
0.0
 11
139.815494167719
 21
50.1502072778534
 31
0.0
  0
LINE
  5
D4
330
1F
100
AcDbEntity
  8
4
  6
Continuous
 62
     3
100
AcDbLine
 10
138.931610691236
 20
48.2056636295902
 30
0.0
 11
139.815494167719
 21
47.321780153107
 31
0.0
  0
LINE
  5
D5
330
1F
100
AcDbEntity
  8
4
  6
Continuous
 62
     3
100
AcDbLine
 10
139.461940777126
 20
46.9682267625136
 30
0.0
 11
139.815494167719
 21
47.321780153107
 31
0.0
  0
LINE
  5
D6
330
1F
100
AcDbEntity
  8
4
  6
Continuous
 62
     3
100
AcDbLine
 10
138.578057300642
 20
47.8521102389968
 30
0.0
 11
139.461940777126
 21
46.9682267625136
 31
0.0
  0
LINE
  5
D7
330
1F
100
AcDbEntity
  8
4
  6
Continuous
 62
     3
100
AcDbLine
 10
136.63351365238
 20
46.9682267625138
 30
0.0
 11
137.517397128863
 21
47.8521102389967
 31
0.0
  0
LINE
  5
D8
330
1F
100
AcDbEntity
  8
4
  6
Continuous
 62
     3
100
AcDbLine
 10
136.279960261786
 20
47.321780153107
 30
0.0
 11
136.63351365238
 21
46.9682267625138
 31
0.0
  0
LINE
  5
D9
330
1F
100
AcDbEntity
  8
4
  6
DOT_CENTER
 62
     1
100
AcDbLine
 10
53.194913472367
 20
52.978634402599
 30
0.0
 11
44.7096320981276
 21
44.4933530283614
 31
0.0
  0
LINE
  5
DA
330
1F
100
AcDbEntity
  8
4
  6
Continuous
 62
     3
100
AcDbLine
 10
47.5380592228744
 20
50.5037606684466
 30
0.0
 11
48.4219426993576
 21
49.6198771919634
 31
0.0
  0
LINE
  5
DB
330
1F
100
AcDbEntity
  8
4
  6
Continuous
 62
     3
100
AcDbLine
 10
50.3664863476206
 20
50.5037606684466
 30
0.0
 11
49.4826028711372
 21
49.6198771919634
 31
0.0
  0
LINE
  5
DC
330
1F
100
AcDbEntity
  8
4
  6
Continuous
 62
     3
100
AcDbLine
 10
50.3664863476206
 20
50.5037606684466
 30
0.0
 11
50.720039738214
 21
50.1502072778532
 31
0.0
  0
LINE
  5
DD
330
1F
100
AcDbEntity
  8
4
  6
Continuous
 62
     3
100
AcDbLine
 10
50.720039738214
 20
50.1502072778532
 30
0.0
 11
49.8361562617306
 21
49.26632380137
 31
0.0
  0
LINE
  5
DE
330
1F
100
AcDbEntity
  8
4
  6
Continuous
 62
     3
100
AcDbLine
 10
49.4826028711374
 20
47.8521102389968
 30
0.0
 11
50.3664863476206
 21
46.9682267625138
 31
0.0
  0
LINE
  5
DF
330
1F
100
AcDbEntity
  8
4
  6
Continuous
 62
     3
100
AcDbLine
 10
48.4219426993575
 20
47.8521102389969
 30
0.0
 11
47.5380592228744
 21
46.9682267625138
 31
0.0
  0
LINE
  5
E0
330
1F
100
AcDbEntity
  8
4
  6
Continuous
 62
     3
100
AcDbLine
 10
47.184505832281
 20
47.321780153107
 30
0.0
 11
47.5380592228744
 21
46.9682267625138
 31
0.0
  0
LINE
  5
E1
330
1F
100
AcDbEntity
  8
4
  6
Continuous
 62
     3
100
AcDbLine
 10
48.0683893087642
 20
48.2056636295904
 30
0.0
 11
47.184505832281
 21
47.321780153107
 31
0.0
  0
LINE
  5
E2
330
1F
100
AcDbEntity
  8
4
  6
Continuous
 62
     3
100
AcDbLine
 10
47.1845058322812
 20
50.1502072778532
 30
0.0
 11
48.068389308764
 21
49.2663238013698
 31
0.0
  0
LINE
  5
E3
330
1F
100
AcDbEntity
  8
4
  6
Continuous
 62
     3
100
AcDbLine
 10
47.5380592228744
 20
50.5037606684466
 30
0.0
 11
47.1845058322812
 21
50.1502072778532
 31
0.0
  0
LINE
  5
E4
330
1F
100
AcDbEntity
  8
4
  6
DOT_CENTER
 62
     1
100
AcDbLine
 10
133.805086527634
 20
52.9786344025996
 30
0.0
 11
142.290367901871
 21
44.4933530283604
 31
0.0
  0
LINE
  5
E5
330
1F
100
AcDbEntity
  8
4
  6
Continuous
 62
     3
100
AcDbLine
 10
136.279960261786
 20
47.321780153107
 30
0.0
 11
137.163843738269
 21
48.2056636295902
 31
0.0
  0
LINE
  5
E6
330
1F
100
AcDbEntity
  8
4
  6
Continuous
 62
     3
100
AcDbLine
 10
136.279960261786
 20
50.1502072778532
 30
0.0
 11
137.163843738269
 21
49.2663238013698
 31
0.0
  0
LINE
  5
E7
330
1F
100
AcDbEntity
  8
4
  6
Continuous
 62
     3
100
AcDbLine
 10
136.279960261786
 20
50.1502072778532
 30
0.0
 11
136.633513652379
 21
50.5037606684466
 31
0.0
  0
LINE
  5
E8
330
1F
100
AcDbEntity
  8
4
  6
Continuous
 62
     3
100
AcDbLine
 10
136.633513652379
 20
50.5037606684466
 30
0.0
 11
137.517397128863
 21
49.6198771919634
 31
0.0
  0
LINE
  5
E9
330
1F
100
AcDbEntity
  8
4
  6
Continuous
 62
     3
100
AcDbLine
 10
138.578057300642
 20
49.6198771919632
 30
0.0
 11
139.461940777126
 21
50.5037606684466
 31
0.0
  0
LINE
  5
EA
330
1F
100
AcDbEntity
  8
4
  6
Continuous
 62
     3
100
AcDbLine
 10
139.461940777126
 20
50.5037606684466
 30
0.0
 11
139.815494167719
 21
50.1502072778534
 31
0.0
  0
LINE
  5
EB
330
1F
100
AcDbEntity
  8
4
  6
Continuous
 62
     3
100
AcDbLine
 10
138.931610691236
 20
49.26632380137
 30
0.0
 11
139.815494167719
 21
50.1502072778534
 31
0.0
  0
LINE
  5
EC
330
1F
100
AcDbEntity
  8
4
  6
Continuous
 62
     3
100
AcDbLine
 10
138.931610691236
 20
48.2056636295902
 30
0.0
 11
139.815494167719
 21
47.321780153107
 31
0.0
  0
LINE
  5
ED
330
1F
100
AcDbEntity
  8
4
  6
Continuous
 62
     3
100
AcDbLine
 10
139.461940777126
 20
46.9682267625136
 30
0.0
 11
139.815494167719
 21
47.321780153107
 31
0.0
  0
LINE
  5
EE
330
1F
100
AcDbEntity
  8
4
  6
Continuous
 62
     3
100
AcDbLine
 10
138.578057300642
 20
47.8521102389968
 30
0.0
 11
139.461940777126
 21
46.9682267625136
 31
0.0
  0
LINE
  5
EF
330
1F
100
AcDbEntity
  8
4
  6
Continuous
 62
     3
100
AcDbLine
 10
136.63351365238
 20
46.9682267625138
 30
0.0
 11
137.517397128863
 21
47.8521102389967
 31
0.0
  0
LINE
  5
F0
330
1F
100
AcDbEntity
  8
4
  6
Continuous
 62
     3
100
AcDbLine
 10
136.279960261786
 20
47.321780153107
 30
0.0
 11
136.63351365238
 21
46.9682267625138
 31
0.0
  0
LINE
  5
F1
330
1F
100
AcDbEntity
  8
4
  6
Continuous
 62
     3
100
AcDbLine
 10
84.4
 20
-662.000000312754
 30
0.0
 11
84.4
 21
-640.000000312754
 31
0.0
  0
LINE
  5
F2
330
1F
100
AcDbEntity
  8
4
  6
Continuous
 62
     3
100
AcDbLine
 10
102.6
 20
-640.000000312754
 30
0.0
 11
84.4
 21
-640.000000312754
 31
0.0
  0
LINE
  5
F3
330
1F
100
AcDbEntity
  8
4
  6
Continuous
 62
     3
100
AcDbLine
 10
47.1845058322812
 20
136.417234582612
 30
0.0
 11
47.5380592228744
 21
136.063681192019
 31
0.0
  0
LINE
  5
F4
330
1F
100
AcDbEntity
  8
4
  6
Continuous
 62
     3
100
AcDbLine
 10
48.0683893087642
 20
137.301118059095
 30
0.0
 11
47.1845058322812
 21
136.417234582612
 31
0.0
  0
LINE
  5
F5
330
1F
100
AcDbEntity
  8
4
  6
Continuous
 62
     3
100
AcDbLine
 10
47.184505832281
 20
139.245661707358
 30
0.0
 11
48.0683893087644
 21
138.361778230875
 31
0.0
  0
LINE
  5
F6
330
1F
100
AcDbEntity
  8
4
  6
Continuous
 62
     3
100
AcDbLine
 10
47.5380592228744
 20
139.599215097951
 30
0.0
 11
47.184505832281
 21
139.245661707358
 31
0.0
  0
LINE
  5
F7
330
1F
100
AcDbEntity
  8
4
  6
Continuous
 62
     3
100
AcDbLine
 10
47.5380592228744
 20
139.599215097951
 30
0.0
 11
48.4219426993576
 21
138.715331621468
 31
0.0
  0
LINE
  5
F8
330
1F
100
AcDbEntity
  8
4
  6
Continuous
 62
     3
100
AcDbLine
 10
50.3664863476206
 20
139.599215097951
 30
0.0
 11
49.4826028711373
 21
138.715331621468
 31
0.0
  0
LINE
  5
F9
330
1F
100
AcDbEntity
  8
4
  6
Continuous
 62
     3
100
AcDbLine
 10
50.3664863476206
 20
139.599215097951
 30
0.0
 11
50.720039738214
 21
139.245661707358
 31
0.0
  0
LINE
  5
FA
330
1F
100
AcDbEntity
  8
4
  6
Continuous
 62
     3
100
AcDbLine
 10
50.720039738214
 20
139.245661707358
 30
0.0
 11
49.8361562617306
 21
138.361778230875
 31
0.0
  0
LINE
  5
FB
330
1F
100
AcDbEntity
  8
4
  6
Continuous
 62
     3
100
AcDbLine
 10
49.8361562617307
 20
137.301118059095
 30
0.0
 11
50.720039738214
 21
136.417234582612
 31
0.0
  0
LINE
  5
FC
330
1F
100
AcDbEntity
  8
4
  6
Continuous
 62
     3
100
AcDbLine
 10
50.720039738214
 20
136.417234582612
 30
0.0
 11
50.3664863476206
 21
136.063681192019
 31
0.0
  0
LINE
  5
FD
330
1F
100
AcDbEntity
  8
4
  6
Continuous
 62
     3
100
AcDbLine
 10
49.4826028711374
 20
136.947564668502
 30
0.0
 11
50.3664863476206
 21
136.063681192019
 31
0.0
  0
LINE
  5
FE
330
1F
100
AcDbEntity
  8
4
  6
Continuous
 62
     3
100
AcDbLine
 10
48.4219426993574
 20
136.947564668502
 30
0.0
 11
47.5380592228744
 21
136.063681192019
 31
0.0
  0
LINE
  5
FF
330
1F
100
AcDbEntity
  8
4
  6
Continuous
 62
     3
100
AcDbLine
 10
136.63351365238
 20
139.599215097951
 30
0.0
 11
136.279960261786
 21
139.245661707358
 31
0.0
  0
LINE
  5
100
330
1F
100
AcDbEntity
  8
4
  6
Continuous
 62
     3
100
AcDbLine
 10
137.517397128863
 20
138.715331621468
 30
0.0
 11
136.63351365238
 21
139.599215097951
 31
0.0
  0
LINE
  5
101
330
1F
100
AcDbEntity
  8
4
  6
Continuous
 62
     3
100
AcDbLine
 10
139.461940777126
 20
139.599215097952
 30
0.0
 11
138.578057300643
 21
138.715331621468
 31
0.0
  0
LINE
  5
102
330
1F
100
AcDbEntity
  8
4
  6
Continuous
 62
     3
100
AcDbLine
 10
139.815494167719
 20
139.245661707358
 30
0.0
 11
139.461940777126
 21
139.599215097952
 31
0.0
  0
LINE
  5
103
330
1F
100
AcDbEntity
  8
4
  6
Continuous
 62
     3
100
AcDbLine
 10
139.815494167719
 20
139.245661707358
 30
0.0
 11
138.931610691236
 21
138.361778230875
 31
0.0
  0
LINE
  5
104
330
1F
100
AcDbEntity
  8
4
  6
Continuous
 62
     3
100
AcDbLine
 10
139.815494167719
 20
136.417234582612
 30
0.0
 11
138.931610691236
 21
137.301118059095
 31
0.0
  0
LINE
  5
105
330
1F
100
AcDbEntity
  8
4
  6
Continuous
 62
     3
100
AcDbLine
 10
139.815494167719
 20
136.417234582612
 30
0.0
 11
139.461940777126
 21
136.063681192019
 31
0.0
  0
LINE
  5
106
330
1F
100
AcDbEntity
  8
4
  6
Continuous
 62
     3
100
AcDbLine
 10
139.461940777126
 20
136.063681192019
 30
0.0
 11
138.578057300642
 21
136.947564668502
 31
0.0
  0
LINE
  5
107
330
1F
100
AcDbEntity
  8
4
  6
Continuous
 62
     3
100
AcDbLine
 10
137.517397128863
 20
136.947564668502
 30
0.0
 11
136.633513652379
 21
136.063681192019
 31
0.0
  0
LINE
  5
108
330
1F
100
AcDbEntity
  8
4
  6
Continuous
 62
     3
100
AcDbLine
 10
136.633513652379
 20
136.063681192019
 30
0.0
 11
136.279960261786
 21
136.417234582612
 31
0.0
  0
LINE
  5
109
330
1F
100
AcDbEntity
  8
4
  6
Continuous
 62
     3
100
AcDbLine
 10
137.163843738269
 20
137.301118059095
 30
0.0
 11
136.279960261786
 21
136.417234582612
 31
0.0
  0
LINE
  5
10A
330
1F
100
AcDbEntity
  8
4
  6
Continuous
 62
     3
100
AcDbLine
 10
137.163843738269
 20
138.361778230875
 30
0.0
 11
136.279960261786
 21
139.245661707358
 31
0.0
  0
LINE
  5
10B
330
1F
100
AcDbEntity
  8
4
  6
Continuous
 62
     3
100
AcDbLine
 10
125.0
 20
110.783720930233
 30
0.0
 11
125.0
 21
131.467487114306
 31
0.0
  0
LINE
  5
10C
330
1F
100
AcDbEntity
  8
4
  6
Continuous
 62
     3
100
AcDbLine
 10
139.268438907177
 20
110.783720930233
 30
0.0
 11
125.0
 21
110.783720930233
 31
0.0
  0
LINE
  5
10D
330
1F
100
AcDbEntity
  8
4
  6
Continuous
 62
     3
100
AcDbLine
 10
140.243315030066
 20
111.033720930233
 30
0.0
 11
126.5
 21
111.033720930233
 31
0.0
  0
LINE
  5
10E
330
1F
100
AcDbEntity
  8
4
  6
Continuous
 62
     3
100
AcDbLine
 10
121.0
 20
129.532858851016
 30
0.0
 11
121.0
 21
57.0345830094489
 31
0.0
  0
LINE
  5
10F
330
1F
100
AcDbEntity
  8
4
  6
DOT_CENTER
 62
     1
100
AcDbLine
 10
18.5
 20
93.2837209302326
 30
0.0
 11
168.5
 21
93.2837209302326
 31
0.0
  0
LINE
  5
110
330
1F
100
AcDbEntity
  8
4
  6
DOT_CENTER
 62
     1
100
AcDbLine
 10
93.5
 20
168.283720930233
 30
0.0
 11
93.5
 21
18.2837209302326
 31
0.0
  0
LINE
  5
111
330
1F
100
AcDbEntity
  8
4
  6
DOT_CENTER
 62
     1
100
AcDbLine
 10
44.7096320981276
 20
142.074088832104
 30
0.0
 11
53.194913472367
 21
133.588807457866
 31
0.0
  0
LINE
  5
112
330
1F
100
AcDbEntity
  8
4
  6
DOT_CENTER
 62
     1
100
AcDbLine
 10
142.290367901871
 20
142.074088832105
 30
0.0
 11
133.805086527634
 21
133.588807457866
 31
0.0
  0
LINE
  5
113
330
1F
100
AcDbEntity
  8
4
  6
Continuous
 62
     3
100
AcDbLine
 10
163.5
 20
-84.0
 30
0.0
 11
23.5
 21
-84.0
 31
0.0
  0
LINE
  5
114
330
1F
100
AcDbEntity
  8
4
  6
PHANTOM
 62
     6
100
AcDbLine
 10
89.0
 20
-81.0
 30
0.0
 11
89.0
 21
-60.5
 31
0.0
  0
LINE
  5
115
330
1F
100
AcDbEntity
  8
4
  6
PHANTOM
 62
     6
100
AcDbLine
 10
98.0
 20
-81.0
 30
0.0
 11
98.0
 21
-60.5
 31
0.0
  0
LINE
  5
116
330
1F
100
AcDbEntity
  8
4
  6
PHANTOM
 62
     6
100
AcDbLine
 10
62.5
 20
-50.4552614815374
 30
0.0
 11
62.5
 21
-58.5
 31
0.0
  0
LINE
  5
117
330
1F
100
AcDbEntity
  8
4
  6
PHANTOM
 62
     6
100
AcDbLine
 10
80.2733261217632
 20
-40.6079412476512
 30
0.0
 11
66.7559826922316
 21
-44.7143204759004
 31
0.0
  0
LINE
  5
118
330
1F
100
AcDbEntity
  8
4
  6
PHANTOM
 62
     6
100
AcDbLine
 10
106.0
 20
-40.4999999999999
 30
0.0
 11
81.0
 21
-40.5
 31
0.0
  0
LINE
  5
119
330
1F
100
AcDbEntity
  8
4
  6
PHANTOM
 62
     6
100
AcDbLine
 10
120.244017307768
 20
-44.7143204759004
 30
0.0
 11
106.726673878237
 21
-40.6079412476512
 31
0.0
  0
LINE
  5
11A
330
1F
100
AcDbEntity
  8
4
  6
PHANTOM
 62
     6
100
AcDbLine
 10
124.5
 20
-58.5
 30
0.0
 11
124.5
 21
-50.4552614815374
 31
0.0
  0
LINE
  5
11B
330
1F
100
AcDbEntity
  8
4
  6
PHANTOM
 62
     6
100
AcDbLine
 10
64.5
 20
-60.5
 30
0.0
 11
122.5
 21
-60.5
 31
0.0
  0
LINE
  5
11C
330
1F
100
AcDbEntity
  8
4
  6
Continuous
 62
     3
100
AcDbLine
 10
44.4455807667822
 20
-120.5
 30
0.0
 11
142.554419233218
 21
-120.5
 31
0.0
  0
LINE
  5
11D
330
1F
100
AcDbEntity
  8
4
  6
Continuous
 62
     3
100
AcDbLine
 10
147.0
 20
-84.0
 30
0.0
 11
146.554043981094
 21
-116.554789380108
 31
0.0
  0
LINE
  5
11E
330
1F
100
AcDbEntity
  8
4
  6
Continuous
 62
     3
100
AcDbLine
 10
40.4459560189056
 20
-116.554789380108
 30
0.0
 11
40.0
 21
-84.0
 31
0.0
  0
LINE
  5
11F
330
1F
100
AcDbEntity
  8
4
  6
Continuous
 62
     3
100
AcDbLine
 10
45.5
 20
-135.5
 30
0.0
 11
45.5
 21
-122.837215180718
 31
0.0
  0
LINE
  5
120
330
1F
100
AcDbEntity
  8
4
  6
Continuous
 62
     3
100
AcDbLine
 10
76.5
 20
-124.5
 30
0.0
 11
76.0
 21
-124.0
 31
0.0
  0
LINE
  5
121
330
1F
100
AcDbEntity
  8
4
  6
Continuous
 62
     3
100
AcDbLine
 10
110.5
 20
-124.5
 30
0.0
 11
111.0
 21
-124.0
 31
0.0
  0
LINE
  5
122
330
1F
100
AcDbEntity
  8
4
  6
Continuous
 62
     3
100
AcDbLine
 10
76.0
 20
-124.0
 30
0.0
 11
76.0
 21
-122.5
 31
0.0
  0
LINE
  5
123
330
1F
100
AcDbEntity
  8
4
  6
Continuous
 62
     3
100
AcDbLine
 10
111.0
 20
-124.0
 30
0.0
 11
111.0
 21
-122.5
 31
0.0
  0
LINE
  5
124
330
1F
100
AcDbEntity
  8
4
  6
Continuous
 62
     3
100
AcDbLine
 10
110.5
 20
-124.5
 30
0.0
 11
76.5
 21
-124.5
 31
0.0
  0
LINE
  5
125
330
1F
100
AcDbEntity
  8
4
  6
Continuous
 62
     3
100
AcDbLine
 10
71.5
 20
-123.0
 30
0.0
 11
71.5
 21
-135.5
 31
0.0
  0
LINE
  5
126
330
1F
100
AcDbEntity
  8
4
  6
Continuous
 62
     3
100
AcDbLine
 10
71.5
 20
-135.5
 30
0.0
 11
45.5
 21
-135.5
 31
0.0
  0
LINE
  5
127
330
1F
100
AcDbEntity
  8
4
  6
Continuous
 62
     3
100
AcDbLine
 10
40.0
 20
-84.0
 30
0.0
 11
23.5
 21
-84.0
 31
0.0
  0
LINE
  5
128
330
1F
100
AcDbEntity
  8
4
  6
Continuous
 62
     3
100
AcDbLine
 10
163.5
 20
-84.0
 30
0.0
 11
147.0
 21
-84.0
 31
0.0
  0
LINE
  5
129
330
1F
100
AcDbEntity
  8
4
  6
Continuous
 62
     3
100
AcDbLine
 10
26.5
 20
-81.0
 30
0.0
 11
160.5
 21
-81.0
 31
0.0
  0
LINE
  5
12A
330
1F
100
AcDbEntity
  8
4
  6
DOT_CENTER
 62
     1
100
AcDbLine
 10
58.5
 20
-140.0
 30
0.0
 11
58.5
 21
-113.5
 31
0.0
  0
LINE
  5
12B
330
1F
100
AcDbEntity
  8
4
  6
Continuous
 62
     3
100
AcDbLine
 10
86.2
 20
-124.5
 30
0.0
 11
100.8
 21
-182.0
 31
0.0
  0
LINE
  5
12C
330
1F
100
AcDbEntity
  8
4
  6
Continuous
 62
     3
100
AcDbLine
 10
86.2
 20
-182.0
 30
0.0
 11
100.8
 21
-124.5
 31
0.0
  0
LINE
  5
12D
330
1F
100
AcDbEntity
  8
4
  6
Continuous
 62
     3
100
AcDbLine
 10
101.5
 20
-226.5
 30
0.0
 11
85.5
 21
-226.5
 31
0.0
  0
LINE
  5
12E
330
1F
100
AcDbEntity
  8
4
  6
Continuous
 62
     3
100
AcDbLine
 10
85.5
 20
-183.5
 30
0.0
 11
101.5
 21
-183.5
 31
0.0
  0
LINE
  5
12F
330
1F
100
AcDbEntity
  8
4
  6
DOT_CENTER
 62
     1
100
AcDbLine
 10
89.85
 20
-237.5
 30
0.0
 11
97.15
 21
-237.5
 31
0.0
  0
LINE
  5
130
330
1F
100
AcDbEntity
  8
4
  6
DOT_CENTER
 62
     1
100
AcDbLine
 10
89.25
 20
-205.0
 30
0.0
 11
97.75
 21
-205.0
 31
0.0
  0
LINE
  5
131
330
1F
100
AcDbEntity
  8
4
  6
Continuous
 62
     3
100
AcDbLine
 10
89.1698729810778
 20
-182.0
 30
0.0
 11
89.1698729810778
 21
-182.5
 31
0.0
  0
LINE
  5
132
330
1F
100
AcDbEntity
  8
4
  6
Continuous
 62
     3
100
AcDbLine
 10
97.8301270189222
 20
-182.0
 30
0.0
 11
97.8301270189222
 21
-182.5
 31
0.0
  0
LINE
  5
133
330
1F
100
AcDbEntity
  8
4
  6
Continuous
 62
     3
100
AcDbLine
 10
89.0
 20
-227.0
 30
0.0
 11
89.0
 21
-227.5
 31
0.0
  0
LINE
  5
134
330
1F
100
AcDbEntity
  8
4
  6
Continuous
 62
     3
100
AcDbLine
 10
98.0
 20
-227.0
 30
0.0
 11
98.0
 21
-227.5
 31
0.0
  0
LINE
  5
135
330
1F
100
AcDbEntity
  8
4
  6
Continuous
 62
     3
100
AcDbLine
 10
101.5
 20
-193.5
 30
0.0
 11
85.5
 21
-193.5
 31
0.0
  0
LINE
  5
136
330
1F
100
AcDbEntity
  8
4
  6
Continuous
 62
     3
100
AcDbLine
 10
85.5
 20
-219.0
 30
0.0
 11
101.5
 21
-219.0
 31
0.0
  0
LINE
  5
137
330
1F
100
AcDbEntity
  8
4
  6
Continuous
 62
     3
100
AcDbLine
 10
85.5
 20
-216.5
 30
0.0
 11
101.5
 21
-216.5
 31
0.0
  0
LINE
  5
138
330
1F
100
AcDbEntity
  8
4
  6
Continuous
 62
     3
100
AcDbLine
 10
85.5
 20
-191.0
 30
0.0
 11
101.5
 21
-191.0
 31
0.0
  0
LINE
  5
139
330
1F
100
AcDbEntity
  8
4
  6
Continuous
 62
     3
100
AcDbLine
 10
98.4
 20
-209.9
 30
0.0
 11
97.75
 21
-209.9
 31
0.0
  0
LINE
  5
13A
330
1F
100
AcDbEntity
  8
4
  6
Continuous
 62
     3
100
AcDbLine
 10
97.75
 20
-209.9
 30
0.0
 11
98.4
 21
-209.9
 31
0.0
  0
LINE
  5
13B
330
1F
100
AcDbEntity
  8
4
  6
Continuous
 62
     3
100
AcDbLine
 10
89.25
 20
-209.9
 30
0.0
 11
88.6
 21
-209.9
 31
0.0
  0
LINE
  5
13C
330
1F
100
AcDbEntity
  8
4
  6
Continuous
 62
     3
100
AcDbLine
 10
101.0
 20
-227.0
 30
0.0
 11
101.5
 21
-226.5
 31
0.0
  0
LINE
  5
13D
330
1F
100
AcDbEntity
  8
4
  6
Continuous
 62
     3
100
AcDbLine
 10
101.5
 20
-219.0
 30
0.0
 11
101.5
 21
-226.5
 31
0.0
  0
LINE
  5
13E
330
1F
100
AcDbEntity
  8
4
  6
Continuous
 62
     3
100
AcDbLine
 10
86.0
 20
-227.0
 30
0.0
 11
101.0
 21
-227.0
 31
0.0
  0
LINE
  5
13F
330
1F
100
AcDbEntity
  8
4
  6
Continuous
 62
     3
100
AcDbLine
 10
85.5
 20
-226.5
 30
0.0
 11
86.0
 21
-227.0
 31
0.0
  0
LINE
  5
140
330
1F
100
AcDbEntity
  8
4
  6
Continuous
 62
     3
100
AcDbLine
 10
85.5
 20
-219.0
 30
0.0
 11
85.5
 21
-226.5
 31
0.0
  0
LINE
  5
141
330
1F
100
AcDbEntity
  8
4
  6
Continuous
 62
     3
100
AcDbLine
 10
100.5
 20
-216.5
 30
0.0
 11
100.5
 21
-219.0
 31
0.0
  0
LINE
  5
142
330
1F
100
AcDbEntity
  8
4
  6
Continuous
 62
     3
100
AcDbLine
 10
86.5
 20
-216.5
 30
0.0
 11
86.5
 21
-219.0
 31
0.0
  0
LINE
  5
143
330
1F
100
AcDbEntity
  8
4
  6
Continuous
 62
     3
100
AcDbLine
 10
101.0
 20
-183.0
 30
0.0
 11
101.5
 21
-183.5
 31
0.0
  0
LINE
  5
144
330
1F
100
AcDbEntity
  8
4
  6
Continuous
 62
     3
100
AcDbLine
 10
85.5
 20
-183.5
 30
0.0
 11
86.0
 21
-183.0
 31
0.0
  0
LINE
  5
145
330
1F
100
AcDbEntity
  8
4
  6
Continuous
 62
     3
100
AcDbLine
 10
100.5
 20
-193.5
 30
0.0
 11
100.5
 21
-191.0
 31
0.0
  0
LINE
  5
146
330
1F
100
AcDbEntity
  8
4
  6
Continuous
 62
     3
100
AcDbLine
 10
86.5
 20
-193.5
 30
0.0
 11
86.5
 21
-191.0
 31
0.0
  0
LINE
  5
147
330
1F
100
AcDbEntity
  8
4
  6
Continuous
 62
     3
100
AcDbLine
 10
101.5
 20
-191.0
 30
0.0
 11
101.5
 21
-183.5
 31
0.0
  0
LINE
  5
148
330
1F
100
AcDbEntity
  8
4
  6
Continuous
 62
     3
100
AcDbLine
 10
85.5
 20
-191.0
 30
0.0
 11
85.5
 21
-183.5
 31
0.0
  0
LINE
  5
149
330
1F
100
AcDbEntity
  8
4
  6
Continuous
 62
     3
100
AcDbLine
 10
98.4
 20
-207.12871870789
 30
0.0
 11
97.7708313008124
 21
-207.12871870789
 31
0.0
  0
LINE
  5
14A
330
1F
100
AcDbEntity
  8
4
  6
Continuous
 62
     3
100
AcDbLine
 10
98.4
 20
-202.87128129211
 30
0.0
 11
97.7708313008124
 21
-202.87128129211
 31
0.0
  0
LINE
  5
14B
330
1F
100
AcDbEntity
  8
4
  6
Continuous
 62
     3
100
AcDbLine
 10
97.7708313008124
 20
-207.12871870789
 30
0.0
 11
97.7708313008124
 21
-202.87128129211
 31
0.0
  0
LINE
  5
14C
330
1F
100
AcDbEntity
  8
4
  6
Continuous
 62
     3
100
AcDbLine
 10
98.4
 20
-209.9
 30
0.0
 11
98.4
 21
-200.1
 31
0.0
  0
LINE
  5
14D
330
1F
100
AcDbEntity
  8
4
  6
Continuous
 62
     3
100
AcDbLine
 10
88.6
 20
-200.1
 30
0.0
 11
98.4
 21
-200.1
 31
0.0
  0
LINE
  5
14E
330
1F
100
AcDbEntity
  8
4
  6
Continuous
 62
     3
100
AcDbLine
 10
89.2291686991876
 20
-202.87128129211
 30
0.0
 11
89.2291686991876
 21
-207.12871870789
 31
0.0
  0
LINE
  5
14F
330
1F
100
AcDbEntity
  8
4
  6
Continuous
 62
     3
100
AcDbLine
 10
88.6
 20
-207.12871870789
 30
0.0
 11
89.2291686991876
 21
-207.12871870789
 31
0.0
  0
LINE
  5
150
330
1F
100
AcDbEntity
  8
4
  6
Continuous
 62
     3
100
AcDbLine
 10
88.6
 20
-202.87128129211
 30
0.0
 11
89.2291686991876
 21
-202.87128129211
 31
0.0
  0
LINE
  5
151
330
1F
100
AcDbEntity
  8
4
  6
Continuous
 62
     3
100
AcDbLine
 10
88.6
 20
-209.9
 30
0.0
 11
88.6
 21
-200.1
 31
0.0
  0
LINE
  5
152
330
1F
100
AcDbEntity
  8
4
  6
Continuous
 62
     3
100
AcDbLine
 10
101.5
 20
-209.0
 30
0.0
 11
100.277720855863
 21
-205.0
 31
0.0
  0
LINE
  5
153
330
1F
100
AcDbEntity
  8
4
  6
Continuous
 62
     3
100
AcDbLine
 10
100.277720855863
 20
-205.0
 30
0.0
 11
100.277720855863
 21
-199.34122918276
 31
0.0
  0
LINE
  5
154
330
1F
100
AcDbEntity
  8
4
  6
Continuous
 62
     3
100
AcDbLine
 10
85.5
 20
-209.0
 30
0.0
 11
86.722279144137
 21
-205.0
 31
0.0
  0
LINE
  5
155
330
1F
100
AcDbEntity
  8
4
  6
Continuous
 62
     3
100
AcDbLine
 10
86.722279144137
 20
-205.0
 30
0.0
 11
86.722279144137
 21
-199.34122918276
 31
0.0
  0
LINE
  5
156
330
1F
100
AcDbEntity
  8
4
  6
Continuous
 62
     3
100
AcDbLine
 10
98.5
 20
-209.0
 30
0.0
 11
101.5
 21
-209.0
 31
0.0
  0
LINE
  5
157
330
1F
100
AcDbEntity
  8
4
  6
Continuous
 62
     3
100
AcDbLine
 10
85.5
 20
-209.0
 30
0.0
 11
88.5
 21
-209.0
 31
0.0
  0
LINE
  5
158
330
1F
100
AcDbEntity
  8
4
  6
Continuous
 62
     3
100
AcDbLine
 10
98.5
 20
-209.0
 30
0.0
 11
98.5
 21
-199.5
 31
0.0
  0
LINE
  5
159
330
1F
100
AcDbEntity
  8
4
  6
Continuous
 62
     3
100
AcDbLine
 10
88.5
 20
-209.0
 30
0.0
 11
88.5
 21
-199.5
 31
0.0
  0
LINE
  5
15A
330
1F
100
AcDbEntity
  8
4
  6
Continuous
 62
     3
100
AcDbLine
 10
101.5
 20
-209.0
 30
0.0
 11
101.5
 21
-193.5
 31
0.0
  0
LINE
  5
15B
330
1F
100
AcDbEntity
  8
4
  6
Continuous
 62
     3
100
AcDbLine
 10
85.5
 20
-209.0
 30
0.0
 11
85.5
 21
-193.5
 31
0.0
  0
LINE
  5
15C
330
1F
100
AcDbEntity
  8
4
  6
Continuous
 62
     3
100
AcDbLine
 10
86.0
 20
-183.0
 30
0.0
 11
101.0
 21
-183.0
 31
0.0
  0
LINE
  5
15D
330
1F
100
AcDbEntity
  8
4
  6
Continuous
 62
     3
100
AcDbLine
 10
97.75
 20
-210.65877081724
 30
0.0
 11
97.75
 21
-205.25
 31
0.0
  0
LINE
  5
15E
330
1F
100
AcDbEntity
  8
4
  6
Continuous
 62
     3
100
AcDbLine
 10
101.5
 20
-216.5
 30
0.0
 11
101.5
 21
-215.499999999999
 31
0.0
  0
LINE
  5
15F
330
1F
100
AcDbEntity
  8
4
  6
Continuous
 62
     3
100
AcDbLine
 10
85.5
 20
-216.5
 30
0.0
 11
85.5
 21
-215.5
 31
0.0
  0
LINE
  5
160
330
1F
100
AcDbEntity
  8
4
  6
Continuous
 62
     3
100
AcDbLine
 10
89.2500000000007
 20
-210.65877081724
 30
0.0
 11
89.25
 21
-205.25
 31
0.0
  0
LINE
  5
161
330
1F
100
AcDbEntity
  8
4
  6
Continuous
 62
     3
100
AcDbLine
 10
99.0
 20
-182.5
 30
0.0
 11
88.0
 21
-182.5
 31
0.0
  0
LINE
  5
162
330
1F
100
AcDbEntity
  8
4
  6
Continuous
 62
     3
100
AcDbLine
 10
89.5
 20
-182.5
 30
0.0
 11
89.5
 21
-183.0
 31
0.0
  0
LINE
  5
163
330
1F
100
AcDbEntity
  8
4
  6
Continuous
 62
     3
100
AcDbLine
 10
97.5
 20
-182.5
 30
0.0
 11
97.5
 21
-183.0
 31
0.0
  0
LINE
  5
164
330
1F
100
AcDbEntity
  8
4
  6
Continuous
 62
     3
100
AcDbLine
 10
88.0
 20
-182.0
 30
0.0
 11
88.0
 21
-182.5
 31
0.0
  0
LINE
  5
165
330
1F
100
AcDbEntity
  8
4
  6
Continuous
 62
     3
100
AcDbLine
 10
99.0
 20
-182.0
 30
0.0
 11
99.0
 21
-182.5
 31
0.0
  0
LINE
  5
166
330
1F
100
AcDbEntity
  8
4
  6
Continuous
 62
     3
100
AcDbLine
 10
89.0
 20
-527.4999973022
 30
0.0
 11
89.0
 21
-629.0000060348
 31
0.0
  0
LINE
  5
167
330
1F
100
AcDbEntity
  8
4
  6
Continuous
 62
     3
100
AcDbLine
 10
98.0
 20
-527.4999973022
 30
0.0
 11
98.0
 21
-629.0000060348
 31
0.0
  0
LINE
  5
168
330
1F
100
AcDbEntity
  8
4
  6
Continuous
 62
     3
100
AcDbLine
 10
87.4
 20
-527.4999973022
 30
0.0
 11
99.6
 21
-527.4999973022
 31
0.0
  0
LINE
  5
169
330
1F
100
AcDbEntity
  8
4
  6
Continuous
 62
     3
100
AcDbLine
 10
99.6
 20
-227.5
 30
0.0
 11
87.4
 21
-227.5
 31
0.0
  0
LINE
  5
16A
330
1F
100
AcDbEntity
  8
4
  6
Continuous
 62
     3
100
AcDbLine
 10
87.4
 20
-227.5
 30
0.0
 11
87.4
 21
-527.4999973022
 31
0.0
  0
LINE
  5
16B
330
1F
100
AcDbEntity
  8
4
  6
Continuous
 62
     3
100
AcDbLine
 10
86.2
 20
-124.5
 30
0.0
 11
86.2
 21
-182.0
 31
0.0
  0
LINE
  5
16C
330
1F
100
AcDbEntity
  8
4
  6
Continuous
 62
     3
100
AcDbLine
 10
100.8
 20
-124.5
 30
0.0
 11
100.8
 21
-182.0
 31
0.0
  0
LINE
  5
16D
330
1F
100
AcDbEntity
  8
4
  6
Continuous
 62
     3
100
AcDbLine
 10
100.8
 20
-182.0
 30
0.0
 11
86.2
 21
-182.0
 31
0.0
  0
LINE
  5
16E
330
1F
100
AcDbEntity
  8
4
  6
DOT_CENTER
 62
     1
100
AcDbLine
 10
93.5
 20
-712.817498808604
 30
0.0
 11
93.5
 21
-35.5
 31
0.0
  0
LINE
  5
16F
330
1F
100
AcDbEntity
  8
4
  6
Continuous
 62
     3
100
AcDbLine
 10
101.5
 20
-629.5000060348
 30
0.0
 11
85.4999999999998
 21
-629.5000060348
 31
0.0
  0
LINE
  5
170
330
1F
100
AcDbEntity
  8
4
  6
Continuous
 62
     3
100
AcDbLine
 10
104.91421356237
 20
-675.0000060348
 30
0.0
 11
82.08578643763
 21
-675.0000060348
 31
0.0
  0
LINE
  5
171
330
1F
100
AcDbEntity
  8
4
  6
Continuous
 62
     3
100
AcDbLine
 10
104.0
 20
-693.0000060348
 30
0.0
 11
82.9999999999998
 21
-693.0000060348
 31
0.0
  0
LINE
  5
172
330
1F
100
AcDbEntity
  8
4
  6
Continuous
 62
     3
100
AcDbLine
 10
85.9999999999998
 20
-629.0000060348
 30
0.0
 11
85.4999999999998
 21
-629.5000060348
 31
0.0
  0
LINE
  5
173
330
1F
100
AcDbEntity
  8
4
  6
Continuous
 62
     3
100
AcDbLine
 10
101.0
 20
-629.0000060348
 30
0.0
 11
101.5
 21
-629.5000060348
 31
0.0
  0
LINE
  5
174
330
1F
100
AcDbEntity
  8
4
  6
Continuous
 62
     3
100
AcDbLine
 10
85.9999999999998
 20
-629.0000060348
 30
0.0
 11
101.0
 21
-629.0000060348
 31
0.0
  0
LINE
  5
175
330
1F
100
AcDbEntity
  8
4
  6
DOT_CENTER
 62
     1
100
AcDbLine
 10
90.0
 20
-634.0000060348
 30
0.0
 11
97.0
 21
-634.0000060348
 31
0.0
  0
LINE
  5
176
330
1F
100
AcDbEntity
  8
4
  6
Continuous
 62
     3
100
AcDbLine
 10
103.5
 20
-662.0000060348
 30
0.0
 11
83.5
 21
-662.0000060348
 31
0.0
  0
LINE
  5
177
330
1F
100
AcDbEntity
  8
4
  6
PHANTOM
 62
     6
100
AcDbLine
 10
87.0
 20
-703.84355774262
 30
0.0
 11
86.9999999999998
 21
-690.77778381258
 31
0.0
  0
LINE
  5
178
330
1F
100
AcDbEntity
  8
4
  6
PHANTOM
 62
     6
100
AcDbLine
 10
89.458333333334
 20
-680.77778381258
 30
0.0
 11
87.9999999999998
 21
-690.77778381258
 31
0.0
  0
LINE
  5
179
330
1F
100
AcDbEntity
  8
4
  6
PHANTOM
 62
     6
100
AcDbLine
 10
97.541666666666
 20
-680.77778381258
 30
0.0
 11
89.458333333334
 21
-680.77778381258
 31
0.0
  0
LINE
  5
17A
330
1F
100
AcDbEntity
  8
4
  6
PHANTOM
 62
     6
100
AcDbLine
 10
97.541666666666
 20
-680.77778381258
 30
0.0
 11
87.9999999999998
 21
-690.77778381258
 31
0.0
  0
LINE
  5
17B
330
1F
100
AcDbEntity
  8
4
  6
Continuous
 62
     1
100
AcDbLine
 10
106.0
 20
-684.4330060348
 30
0.0
 11
106.45033320997
 21
-684.2600060348
 31
0.0
  0
LINE
  5
17C
330
1F
100
AcDbEntity
  8
4
  6
Continuous
 62
     1
100
AcDbLine
 10
106.0
 20
-688.5670060348
 30
0.0
 11
106.45033320997
 21
-688.7400060348
 31
0.0
  0
LINE
  5
17D
330
1F
100
AcDbEntity
  8
4
  6
PHANTOM
 62
     6
100
AcDbLine
 10
89.458333333334
 20
-680.77778381258
 30
0.0
 11
99.0
 21
-690.77778381258
 31
0.0
  0
LINE
  5
17E
330
1F
100
AcDbEntity
  8
4
  6
PHANTOM
 62
     6
100
AcDbLine
 10
97.541666666666
 20
-680.77778381258
 30
0.0
 11
99.0
 21
-690.77778381258
 31
0.0
  0
LINE
  5
17F
330
1F
100
AcDbEntity
  8
4
  6
PHANTOM
 62
     6
100
AcDbLine
 10
100.0
 20
-690.77778381258
 30
0.0
 11
86.9999999999998
 21
-690.77778381258
 31
0.0
  0
LINE
  5
180
330
1F
100
AcDbEntity
  8
4
  6
PHANTOM
 62
     6
100
AcDbLine
 10
100.0
 20
-703.84355774262
 30
0.0
 11
100.0
 21
-690.77778381258
 31
0.0
  0
LINE
  5
181
330
1F
100
AcDbEntity
  8
4
  6
Continuous
 62
     3
100
AcDbLine
 10
106.8
 20
-681.7500060348
 30
0.0
 11
108.07113094443
 21
-681.750006034799
 31
0.0
  0
LINE
  5
182
330
1F
100
AcDbEntity
  8
4
  6
Continuous
 62
     3
100
AcDbLine
 10
110.08271059714
 20
-687.0000060348
 30
0.0
 11
110.484359711336
 21
-687.0000060348
 31
0.0
  0
LINE
  5
183
330
1F
100
AcDbEntity
  8
4
  6
Continuous
 62
     3
100
AcDbLine
 10
110.08271059714
 20
-686.0000060348
 30
0.0
 11
110.484359711336
 21
-686.0000060348
 31
0.0
  0
LINE
  5
184
330
1F
100
AcDbEntity
  8
4
  6
Continuous
 62
     3
100
AcDbLine
 10
110.08271059714
 20
-686.0000060348
 30
0.0
 11
110.08271059714
 21
-687.0000060348
 31
0.0
  0
LINE
  5
185
330
1F
100
AcDbEntity
  8
4
  6
Continuous
 62
     3
100
AcDbLine
 10
106.45033320997
 20
-684.2600060348
 30
0.0
 11
106.0
 21
-684.0000060348
 31
0.0
  0
LINE
  5
186
330
1F
100
AcDbEntity
  8
4
  6
Continuous
 62
     3
100
AcDbLine
 10
106.45033320997
 20
-688.7400060348
 30
0.0
 11
106.0
 21
-689.0000060348
 31
0.0
  0
LINE
  5
187
330
1F
100
AcDbEntity
  8
4
  6
Continuous
 62
     3
100
AcDbLine
 10
106.45033320997
 20
-684.2600060348
 30
0.0
 11
106.6
 21
-684.2600060348
 31
0.0
  0
LINE
  5
188
330
1F
100
AcDbEntity
  8
4
  6
Continuous
 62
     3
100
AcDbLine
 10
106.45033320997
 20
-688.7400060348
 30
0.0
 11
106.6
 21
-688.7400060348
 31
0.0
  0
LINE
  5
189
330
1F
100
AcDbEntity
  8
4
  6
Continuous
 62
     3
100
AcDbLine
 10
106.8
 20
-691.2500060348
 30
0.0
 11
108.07113094443
 21
-691.2500060348
 31
0.0
  0
LINE
  5
18A
330
1F
100
AcDbEntity
  8
4
  6
Continuous
 62
     3
100
AcDbLine
 10
106.8
 20
-681.7500060348
 30
0.0
 11
106.8
 21
-691.2500060348
 31
0.0
  0
LINE
  5
18B
330
1F
100
AcDbEntity
  8
4
  6
Continuous
 62
     3
100
AcDbLine
 10
106.0
 20
-691.0000060348
 30
0.0
 11
106.0
 21
-675.66144386257
 31
0.0
  0
LINE
  5
18C
330
1F
100
AcDbEntity
  8
4
  6
Continuous
 62
     3
100
AcDbLine
 10
105.5
 20
-664.0000060348
 30
0.0
 11
105.5
 21
-674.33856820703
 31
0.0
  0
LINE
  5
18D
330
1F
100
AcDbEntity
  8
4
  6
Continuous
 62
     3
100
AcDbLine
 10
81.5
 20
-664.0000060348
 30
0.0
 11
81.4999999999997
 21
-674.33856820703
 31
0.0
  0
LINE
  5
18E
330
1F
100
AcDbEntity
  8
4
  6
Continuous
 62
     3
100
AcDbLine
 10
81.0
 20
-691.0000060348
 30
0.0
 11
80.9999999999946
 21
-675.66144386257
 31
0.0
  0
LINE
  5
18F
330
1F
100
AcDbEntity
  8
4
  6
Continuous
 62
     3
100
AcDbLine
 10
101.5
 20
-637.000000312754
 30
0.0
 11
85.5
 21
-637.000000312754
 31
0.0
  0
LINE
  5
190
330
1F
100
AcDbEntity
  8
4
  6
Continuous
 62
     3
100
AcDbLine
 10
101.5
 20
-639.500000312754
 30
0.0
 11
85.5
 21
-639.500000312754
 31
0.0
  0
LINE
  5
191
330
1F
100
AcDbEntity
  8
4
  6
Continuous
 62
     3
100
AcDbLine
 10
85.5
 20
-637.000000312754
 30
0.0
 11
85.4999999999998
 21
-629.5000060348
 31
0.0
  0
LINE
  5
192
330
1F
100
AcDbEntity
  8
4
  6
Continuous
 62
     3
100
AcDbLine
 10
101.5
 20
-637.000000312754
 30
0.0
 11
101.5
 21
-629.5000060348
 31
0.0
  0
LINE
  5
193
330
1F
100
AcDbEntity
  8
4
  6
Continuous
 62
     3
100
AcDbLine
 10
86.5
 20
-639.500000312754
 30
0.0
 11
86.5
 21
-637.000000312754
 31
0.0
  0
LINE
  5
194
330
1F
100
AcDbEntity
  8
4
  6
Continuous
 62
     3
100
AcDbLine
 10
100.5
 20
-639.500000312754
 30
0.0
 11
100.5
 21
-637.000000312754
 31
0.0
  0
LINE
  5
195
330
1F
100
AcDbEntity
  8
4
  6
Continuous
 62
     3
100
AcDbLine
 10
85.5
 20
-639.500000312754
 30
0.0
 11
85.5
 21
-640.000000312754
 31
0.0
  0
LINE
  5
196
330
1F
100
AcDbEntity
  8
4
  6
Continuous
 62
     3
100
AcDbLine
 10
101.5
 20
-639.500000312754
 30
0.0
 11
101.5
 21
-640.000000312754
 31
0.0
  0
LINE
  5
197
330
1F
100
AcDbEntity
  8
4
  6
Continuous
 62
     3
100
AcDbLine
 10
102.6
 20
-662.000000312754
 30
0.0
 11
102.6
 21
-640.000000312754
 31
0.0
  0
LINE
  5
198
330
1F
100
AcDbEntity
  8
4
  6
Continuous
 62
     3
100
AcDbLine
 10
126.5
 20
111.033720930233
 30
0.0
 11
126.5
 21
130.847000872218
 31
0.0
  0
LINE
  5
199
330
1F
100
AcDbEntity
  8
4
  6
Continuous
 62
     3
100
AcDbLine
 10
49.8361562617305
 20
48.2056636295901
 30
0.0
 11
50.720039738214
 21
47.321780153107
 31
0.0
  0
LINE
  5
19A
330
1F
100
AcDbEntity
  8
4
  6
Continuous
 62
     3
100
AcDbLine
 10
50.720039738214
 20
47.321780153107
 30
0.0
 11
50.3664863476206
 21
46.9682267625138
 31
0.0
  0
ARC
  5
19D
330
1F
100
AcDbEntity
  8
4
  6
PHANTOM
 62
     6
100
AcDbCircle
 10
104.0
 20
-730.0
 30
0.0
 40
2.0
100
AcDbArc
 50
270.0
 51
0.0
  0
ARC
  5
19E
330
1F
100
AcDbEntity
  8
4
  6
PHANTOM
 62
     6
100
AcDbCircle
 10
104.0
 20
-730.0
 30
0.0
 40
2.0
100
AcDbArc
 50
270.0
 51
0.0
  0
ARC
  5
19F
330
1F
100
AcDbEntity
  8
4
  6
PHANTOM
 62
     6
100
AcDbCircle
 10
82.9999999999998
 20
-730.0
 30
0.0
 40
1.999999999999801
100
AcDbArc
 50
180.0
 51
270.0
  0
ARC
  5
1A0
330
1F
100
AcDbEntity
  8
4
  6
PHANTOM
 62
     6
100
AcDbCircle
 10
104.0
 20
-730.0
 30
0.0
 40
2.0
100
AcDbArc
 50
270.0
 51
0.0
  0
ARC
  5
1A1
330
1F
100
AcDbEntity
  8
4
  6
Continuous
 62
     3
100
AcDbCircle
 10
93.5
 20
93.2837209302326
 30
0.0
 40
49.99999999999962
100
AcDbArc
 50
190.3697598054773
 51
311.2998727917059
  0
ARC
  5
1A2
330
1F
100
AcDbEntity
  8
4
  6
Continuous
 62
     3
100
AcDbCircle
 10
93.5
 20
93.2837209302326
 30
0.0
 40
49.49999999999984
100
AcDbArc
 50
190.4756816963899
 51
309.5211963586422
  0
ARC
  5
1A3
330
1F
100
AcDbEntity
  8
4
  6
Continuous
 62
     3
100
AcDbCircle
 10
93.5
 20
93.2837209302326
 30
0.0
 40
45.49999999999972
100
AcDbArc
 50
191.4084668843398
 51
307.1853625579384
  0
ARC
  5
1A4
330
1F
100
AcDbEntity
  8
4
  6
Continuous
 62
     3
100
AcDbCircle
 10
136.633513652379
 20
48.73599371548
 30
0.0
 40
0.7499999999999859
100
AcDbArc
 50
315.0000000000107
 51
44.99999999998926
  0
ARC
  5
1A5
330
1F
100
AcDbEntity
  8
4
  6
Continuous
 62
     3
100
AcDbCircle
 10
138.047727214753
 20
50.1502072778532
 30
0.0
 40
0.7499999999999859
100
AcDbArc
 50
224.9999999999893
 51
314.9999999999462
  0
ARC
  5
1A6
330
1F
100
AcDbEntity
  8
4
  6
Continuous
 62
     3
100
AcDbCircle
 10
139.461940777126
 20
48.73599371548
 30
0.0
 40
0.7500000000001267
100
AcDbArc
 50
135.0
 51
224.9999999999893
  0
ARC
  5
1A7
330
1F
100
AcDbEntity
  8
4
  6
Continuous
 62
     3
100
AcDbCircle
 10
138.047727214753
 20
47.321780153107
 30
0.0
 40
0.7499999999992826
100
AcDbArc
 50
45.00000000004299
 51
135.0000000000161
  0
ARC
  5
1A8
330
1F
100
AcDbEntity
  8
4
  6
DOT_CENTER
 62
     1
100
AcDbCircle
 10
93.5
 20
93.2837209302326
 30
0.0
 40
62.99999999999994
100
AcDbArc
 50
219.5411947264426
 51
230.4588052735574
  0
ARC
  5
1A9
330
1F
100
AcDbEntity
  8
4
  6
Continuous
 62
     3
100
AcDbCircle
 10
48.9522727852474
 20
50.1502072778532
 30
0.0
 40
0.7499999999998453
100
AcDbArc
 50
225.0
 51
315.0
  0
ARC
  5
1AA
330
1F
100
AcDbEntity
  8
4
  6
Continuous
 62
     3
100
AcDbCircle
 10
50.3664863476206
 20
48.73599371548
 30
0.0
 40
0.7500000000001267
100
AcDbArc
 50
135.0
 51
224.9999999999893
  0
ARC
  5
1AB
330
1F
100
AcDbEntity
  8
4
  6
Continuous
 62
     3
100
AcDbCircle
 10
48.9522727852474
 20
47.321780153107
 30
0.0
 40
0.7499999999999859
100
AcDbArc
 50
44.99999999998926
 51
135.0
  0
ARC
  5
1AC
330
1F
100
AcDbEntity
  8
4
  6
Continuous
 62
     3
100
AcDbCircle
 10
47.5380592228744
 20
48.73599371548
 30
0.0
 40
0.7499999999997046
100
AcDbArc
 50
315.0000000000107
 51
45.00000000001113
  0
ARC
  5
1AD
330
1F
100
AcDbEntity
  8
4
  6
DOT_CENTER
 62
     1
100
AcDbCircle
 10
93.5
 20
93.2837209302326
 30
0.0
 40
62.99999999999981
100
AcDbArc
 50
309.5411947264425
 51
320.4588052735578
  0
ARC
  5
1AE
330
1F
100
AcDbEntity
  8
4
  6
Continuous
 62
     3
100
AcDbCircle
 10
136.633513652379
 20
48.73599371548
 30
0.0
 40
0.7499999999999859
100
AcDbArc
 50
315.0000000000107
 51
44.99999999998926
  0
ARC
  5
1AF
330
1F
100
AcDbEntity
  8
4
  6
Continuous
 62
     3
100
AcDbCircle
 10
138.047727214753
 20
50.1502072778532
 30
0.0
 40
0.7499999999999859
100
AcDbArc
 50
224.9999999999893
 51
314.9999999999462
  0
ARC
  5
1B0
330
1F
100
AcDbEntity
  8
4
  6
Continuous
 62
     3
100
AcDbCircle
 10
139.461940777126
 20
48.73599371548
 30
0.0
 40
0.7500000000001267
100
AcDbArc
 50
135.0
 51
224.9999999999893
  0
ARC
  5
1B1
330
1F
100
AcDbEntity
  8
4
  6
Continuous
 62
     3
100
AcDbCircle
 10
138.047727214753
 20
47.321780153107
 30
0.0
 40
0.7499999999992826
100
AcDbArc
 50
45.00000000004299
 51
135.0000000000161
  0
ARC
  5
1B2
330
1F
100
AcDbEntity
  8
4
  6
Continuous
 62
     3
100
AcDbCircle
 10
47.5380592228744
 20
137.831448144985
 30
0.0
 40
0.7499999999999859
100
AcDbArc
 50
314.9999999999893
 51
45.0
  0
ARC
  5
1B3
330
1F
100
AcDbEntity
  8
4
  6
Continuous
 62
     3
100
AcDbCircle
 10
48.9522727852474
 20
139.245661707358
 30
0.0
 40
0.7499999999999859
100
AcDbArc
 50
225.0000000000107
 51
314.9999999999946
  0
ARC
  5
1B4
330
1F
100
AcDbEntity
  8
4
  6
Continuous
 62
     3
100
AcDbCircle
 10
50.3664863476206
 20
137.831448144985
 30
0.0
 40
0.7500000000001267
100
AcDbArc
 50
135.0
 51
225.0000000000053
  0
ARC
  5
1B5
330
1F
100
AcDbEntity
  8
4
  6
Continuous
 62
     3
100
AcDbCircle
 10
48.9522727852474
 20
136.417234582612
 30
0.0
 40
0.7500000000001267
100
AcDbArc
 50
45.0
 51
135.0
  0
ARC
  5
1B6
330
1F
100
AcDbEntity
  8
4
  6
Continuous
 62
     3
100
AcDbCircle
 10
138.047727214753
 20
139.245661707358
 30
0.0
 40
0.7500000000001267
100
AcDbArc
 50
225.0
 51
315.0
  0
ARC
  5
1B7
330
1F
100
AcDbEntity
  8
4
  6
Continuous
 62
     3
100
AcDbCircle
 10
139.461940777126
 20
137.831448144985
 30
0.0
 40
0.7500000000001267
100
AcDbArc
 50
135.0
 51
225.0
  0
ARC
  5
1B8
330
1F
100
AcDbEntity
  8
4
  6
Continuous
 62
     3
100
AcDbCircle
 10
138.047727214753
 20
136.417234582612
 30
0.0
 40
0.7499999999994232
100
AcDbArc
 50
45.00000000005374
 51
135.0
  0
ARC
  5
1B9
330
1F
100
AcDbEntity
  8
4
  6
Continuous
 62
     3
100
AcDbCircle
 10
136.633513652379
 20
137.831448144985
 30
0.0
 40
0.7500000000001267
100
AcDbArc
 50
315.0
 51
45.0
  0
ARC
  5
1BA
330
1F
100
AcDbEntity
  8
4
  6
Continuous
 62
     3
100
AcDbCircle
 10
93.5
 20
93.2837209302326
 30
0.0
 40
45.49999999999974
100
AcDbArc
 50
52.81463744206133
 51
191.4084668843398
  0
ARC
  5
1BB
330
1F
100
AcDbEntity
  8
4
  6
Continuous
 62
     3
100
AcDbCircle
 10
93.5
 20
93.2837209302326
 30
0.0
 40
48.99999999999993
100
AcDbArc
 50
339.0751675723617
 51
20.92483242763878
  0
ARC
  5
1BC
330
1F
100
AcDbEntity
  8
4
  6
Continuous
 62
     3
100
AcDbCircle
 10
93.5
 20
93.2837209302326
 30
0.0
 40
49.49999999999988
100
AcDbArc
 50
50.47880364135771
 51
190.4756816963899
  0
ARC
  5
1BD
330
1F
100
AcDbEntity
  8
4
  6
Continuous
 62
     3
100
AcDbCircle
 10
132.0
 20
93.2837209302326
 30
0.0
 40
14.99999999999976
100
AcDbArc
 50
313.3429440088281
 51
46.65705599116885
  0
ARC
  5
1BE
330
1F
100
AcDbEntity
  8
4
  6
Continuous
 62
     3
100
AcDbCircle
 10
93.5
 20
93.2837209302326
 30
0.0
 40
49.99999999999993
100
AcDbArc
 50
339.2065556194512
 51
20.79344438054921
  0
ARC
  5
1BF
330
1F
100
AcDbEntity
  8
4
  6
DOT_CENTER
 62
     1
100
AcDbCircle
 10
93.5
 20
93.2837209302326
 30
0.0
 40
62.99999999999961
100
AcDbArc
 50
129.5411947264429
 51
140.4588052735569
  0
ARC
  5
1C0
330
1F
100
AcDbEntity
  8
4
  6
DOT_CENTER
 62
     1
100
AcDbCircle
 10
93.5
 20
93.2837209302326
 30
0.0
 40
63.0000000000002
100
AcDbArc
 50
39.54119472644263
 51
50.45880527355787
  0
ARC
  5
1C1
330
1F
100
AcDbEntity
  8
4
  6
PHANTOM
 62
     6
100
AcDbCircle
 10
64.5
 20
-58.5
 30
0.0
 40
2.0
100
AcDbArc
 50
180.0
 51
270.0
  0
ARC
  5
1C2
330
1F
100
AcDbEntity
  8
4
  6
PHANTOM
 62
     6
100
AcDbCircle
 10
68.5
 20
-50.4552614815374
 30
0.0
 40
6.000000000000008
100
AcDbArc
 50
106.8980453281976
 51
180.0
  0
ARC
  5
1C3
330
1F
100
AcDbEntity
  8
4
  6
PHANTOM
 62
     6
100
AcDbCircle
 10
81.0
 20
-43.0
 30
0.0
 40
2.5
100
AcDbArc
 50
90.0
 51
106.8980453281964
  0
ARC
  5
1C4
330
1F
100
AcDbEntity
  8
4
  6
PHANTOM
 62
     6
100
AcDbCircle
 10
106.0
 20
-43.0
 30
0.0
 40
2.500000000000101
100
AcDbArc
 50
73.10195467179926
 51
90.0
  0
ARC
  5
1C5
330
1F
100
AcDbEntity
  8
4
  6
PHANTOM
 62
     6
100
AcDbCircle
 10
118.5
 20
-50.4552614815374
 30
0.0
 40
6.0
100
AcDbArc
 50
0.0
 51
73.10195467180606
  0
ARC
  5
1C6
330
1F
100
AcDbEntity
  8
4
  6
PHANTOM
 62
     6
100
AcDbCircle
 10
122.5
 20
-58.5
 30
0.0
 40
2.0
100
AcDbArc
 50
270.0
 51
0.0
  0
ARC
  5
1C7
330
1F
100
AcDbEntity
  8
4
  6
Continuous
 62
     3
100
AcDbCircle
 10
74.0
 20
-122.5
 30
0.0
 40
2.0
100
AcDbArc
 50
0.0
 51
90.0
  0
ARC
  5
1C8
330
1F
100
AcDbEntity
  8
4
  6
Continuous
 62
     3
100
AcDbCircle
 10
113.0
 20
-122.5
 30
0.0
 40
2.0
100
AcDbArc
 50
90.0
 51
180.0
  0
ARC
  5
1C9
330
1F
100
AcDbEntity
  8
4
  6
Continuous
 62
     3
100
AcDbCircle
 10
74.0
 20
-123.0
 30
0.0
 40
2.5
100
AcDbArc
 50
90.0
 51
180.0
  0
ARC
  5
1CA
330
1F
100
AcDbEntity
  8
4
  6
Continuous
 62
     3
100
AcDbCircle
 10
43.0
 20
-122.837215180718
 30
0.0
 40
2.5
100
AcDbArc
 50
0.0
 51
77.15013813051974
  0
ARC
  5
1CB
330
1F
100
AcDbEntity
  8
4
  6
Continuous
 62
     3
100
AcDbCircle
 10
44.4455807667822
 20
-116.5
 30
0.0
 40
3.999999999999949
100
AcDbArc
 50
180.7848246029934
 51
257.1501381305161
  0
ARC
  5
1CC
330
1F
100
AcDbEntity
  8
4
  6
Continuous
 62
     3
100
AcDbCircle
 10
142.554419233218
 20
-116.5
 30
0.0
 40
4.0
100
AcDbArc
 50
270.0
 51
359.2151753970065
  0
ARC
  5
1CD
330
1F
100
AcDbEntity
  8
4
  6
Continuous
 62
     3
100
AcDbCircle
 10
26.5
 20
-84.0
 30
0.0
 40
3.0
100
AcDbArc
 50
90.0
 51
180.0
  0
ARC
  5
1CE
330
1F
100
AcDbEntity
  8
4
  6
Continuous
 62
     3
100
AcDbCircle
 10
160.5
 20
-84.0
 30
0.0
 40
3.0
100
AcDbArc
 50
0.0
 51
90.0
  0
ARC
  5
1CF
330
1F
100
AcDbEntity
  8
4
  6
Continuous
 62
     3
100
AcDbCircle
 10
93.5
 20
-204.776537180436
 30
0.0
 40
4.676537180435952
100
AcDbArc
 50
24.04207590575942
 51
155.9579240942406
  0
ARC
  5
1D0
330
1F
100
AcDbEntity
  8
4
  6
Continuous
 62
     3
100
AcDbCircle
 10
93.5
 20
-201.665019190484
 30
0.0
 40
7.16501919048359
100
AcDbArc
 50
18.92464441604779
 51
161.0753555839522
  0
ARC
  5
1D1
330
1F
100
AcDbEntity
  8
4
  6
Continuous
 62
     3
100
AcDbCircle
 10
93.5
 20
-199.5
 30
0.0
 40
5.0
100
AcDbArc
 50
0.0
 51
180.0
  0
ARC
  5
1D2
330
1F
100
AcDbEntity
  8
4
  6
Continuous
 62
     3
100
AcDbCircle
 10
93.5
 20
-205.25
 30
0.0
 40
4.25
100
AcDbArc
 50
0.0
 51
180.0
  0
ARC
  5
1D3
330
1F
100
AcDbEntity
  8
4
  6
Continuous
 62
     3
100
AcDbCircle
 10
102.75
 20
-210.65877081724
 30
0.0
 40
5.0
100
AcDbArc
 50
180.0
 51
255.5224878140693
  0
ARC
  5
1D4
330
1F
100
AcDbEntity
  8
4
  6
Continuous
 62
     3
100
AcDbCircle
 10
84.25
 20
-210.65877081724
 30
0.0
 40
5.000000000000709
100
AcDbArc
 50
284.4775121859278
 51
0.0
  0
ARC
  5
1D5
330
1F
100
AcDbEntity
  8
4
  6
Continuous
 62
     3
100
AcDbCircle
 10
83.5
 20
-664.0000060348
 30
0.0
 40
2.0
100
AcDbArc
 50
90.0
 51
180.0
  0
ARC
  5
1D6
330
1F
100
AcDbEntity
  8
4
  6
Continuous
 62
     3
100
AcDbCircle
 10
103.5
 20
-664.0000060348
 30
0.0
 40
2.0
100
AcDbArc
 50
0.0
 51
90.0
  0
ARC
  5
1D7
330
1F
100
AcDbEntity
  8
4
  6
Continuous
 62
     3
100
AcDbCircle
 10
108.07113094443
 20
-683.3500060348
 30
0.0
 40
1.600000000001032
100
AcDbArc
 50
29.4844612836814
 51
90.0
  0
ARC
  5
1D8
330
1F
100
AcDbEntity
  8
4
  6
Continuous
 62
     3
100
AcDbCircle
 10
106.6
 20
-684.0600060348
 30
0.0
 40
0.1999999999999318
100
AcDbArc
 50
270.0
 51
0.0
  0
ARC
  5
1D9
330
1F
100
AcDbEntity
  8
4
  6
Continuous
 62
     3
100
AcDbCircle
 10
106.6
 20
-688.9400060348
 30
0.0
 40
0.2000000000000028
100
AcDbArc
 50
0.0
 51
90.0
  0
ARC
  5
1DA
330
1F
100
AcDbEntity
  8
4
  6
Continuous
 62
     3
100
AcDbCircle
 10
108.07113094443
 20
-689.6500060348
 30
0.0
 40
1.600000000000023
100
AcDbArc
 50
270.0
 51
330.5155387163011
  0
ARC
  5
1DB
330
1F
100
AcDbEntity
  8
4
  6
Continuous
 62
     3
100
AcDbCircle
 10
102.5
 20
-686.5000060348
 30
0.0
 40
8.000000000000341
100
AcDbArc
 50
3.58332169847182
 51
29.48446128370183
  0
ARC
  5
1DC
330
1F
100
AcDbEntity
  8
4
  6
Continuous
 62
     3
100
AcDbCircle
 10
102.5
 20
-686.5000060348
 30
0.0
 40
7.999999999999019
100
AcDbArc
 50
330.5155387162947
 51
356.4166783015282
  0
ARC
  5
1DD
330
1F
100
AcDbEntity
  8
4
  6
Continuous
 62
     3
100
AcDbCircle
 10
104.0
 20
-691.0000060348
 30
0.0
 40
2.0
100
AcDbArc
 50
270.0
 51
0.0
  0
ARC
  5
1DE
330
1F
100
AcDbEntity
  8
4
  6
Continuous
 62
     3
100
AcDbCircle
 10
105.0
 20
-675.66144386257
 30
0.0
 40
1.0
100
AcDbArc
 50
0.0
 51
41.40962210940388
  0
ARC
  5
1DF
330
1F
100
AcDbEntity
  8
4
  6
Continuous
 62
     3
100
AcDbCircle
 10
106.5
 20
-674.33856820703
 30
0.0
 40
1.0
100
AcDbArc
 50
180.0
 51
221.4096221094678
  0
ARC
  5
1E0
330
1F
100
AcDbEntity
  8
4
  6
Continuous
 62
     3
100
AcDbCircle
 10
82.9999999999998
 20
-691.0000060348
 30
0.0
 40
1.999999999999801
100
AcDbArc
 50
180.0
 51
270.0
  0
ARC
  5
1E1
330
1F
100
AcDbEntity
  8
4
  6
Continuous
 62
     3
100
AcDbCircle
 10
81.9999999999998
 20
-675.66144386257
 30
0.0
 40
1.000000000005171
100
AcDbArc
 50
138.5903778905495
 51
180.0
  0
ARC
  5
1E2
330
1F
100
AcDbEntity
  8
4
  6
Continuous
 62
     3
100
AcDbCircle
 10
80.4999999999998
 20
-674.33856820703
 30
0.0
 40
0.9999999999999076
100
AcDbArc
 50
318.5903778905788
 51
0.0
  0
ARC
  5
1E3
330
1F
100
AcDbEntity
  8
4
  6
Continuous
 62
     3
100
AcDbCircle
 10
93.5
 20
93.2837209302326
 30
0.0
 40
49.99999999999962
100
AcDbArc
 50
48.70012720829375
 51
190.3697598054773
  0
CIRCLE
  5
1E4
330
1F
100
AcDbEntity
  8
4
  6
Continuous
 62
     3
100
AcDbCircle
 10
48.9522727852474
 20
48.73599371548
 30
0.0
 40
4.0
  0
CIRCLE
  5
1E5
330
1F
100
AcDbEntity
  8
4
  6
Continuous
 62
     3
100
AcDbCircle
 10
138.047727214753
 20
48.73599371548
 30
0.0
 40
4.0
  0
CIRCLE
  5
1E6
330
1F
100
AcDbEntity
  8
4
  6
Continuous
 62
     3
100
AcDbCircle
 10
138.047727214753
 20
137.831448144985
 30
0.0
 40
4.0
  0
CIRCLE
  5
1E7
330
1F
100
AcDbEntity
  8
4
  6
Continuous
 62
     3
100
AcDbCircle
 10
48.9522727852474
 20
137.831448144985
 30
0.0
 40
4.0
  0
CIRCLE
  5
1E8
330
1F
100
AcDbEntity
  8
4
  6
Continuous
 62
     3
100
AcDbCircle
 10
93.5
 20
-237.5
 30
0.0
 40
1.0
  0
CIRCLE
  5
1E9
330
1F
100
AcDbEntity
  8
4
  6
Continuous
 62
     3
100
AcDbCircle
 10
93.5
 20
-237.5
 30
0.0
 40
1.5
  0
CIRCLE
  5
1EA
330
1F
100
AcDbEntity
  8
4
  6
Continuous
 62
     3
100
AcDbCircle
 10
93.5
 20
-237.5
 30
0.0
 40
1.650000000000006
  0
CIRCLE
  5
1EB
330
1F
100
AcDbEntity
  8
4
  6
Continuous
 62
     3
100
AcDbCircle
 10
93.5
 20
-222.0
 30
0.0
 40
1.650000000000006
  0
CIRCLE
  5
1EC
330
1F
100
AcDbEntity
  8
4
  6
Continuous
 62
     3
100
AcDbCircle
 10
93.5
 20
-205.0
 30
0.0
 40
1.75
  0
CIRCLE
  5
1ED
330
1F
100
AcDbEntity
  8
4
  6
Continuous
 62
     3
100
AcDbCircle
 10
93.5
 20
-205.0
 30
0.0
 40
2.25
  0
CIRCLE
  5
1EE
330
1F
100
AcDbEntity
  8
4
  6
Continuous
 62
     3
100
AcDbCircle
 10
93.5
 20
-222.0
 30
0.0
 40
1.0
  0
CIRCLE
  5
1EF
330
1F
100
AcDbEntity
  8
4
  6
Continuous
 62
     3
100
AcDbCircle
 10
93.5
 20
-222.0
 30
0.0
 40
1.5
  0
CIRCLE
  5
1F0
330
1F
100
AcDbEntity
  8
4
  6
Continuous
 62
     3
100
AcDbCircle
 10
93.5
 20
-634.0000060348
 30
0.0
 40
1.5
  0
CIRCLE
  5
1F1
330
1F
100
AcDbEntity
  8
4
  6
Continuous
 62
     3
100
AcDbCircle
 10
93.5
 20
-634.0000060348
 30
0.0
 40
1.0
  0
LWPOLYLINE
  5
1F2
330
1F
100
AcDbEntity
  8
4
  6
Continuous
 62
     3
100
AcDbPolyline
 90
        3
 70
     0
 43
0.0
 10
162.919017567234
 20
102.283720930233
 42
1.0
 10
24.08098243276595
 20
84.28372093023273
 42
1.0
 10
162.9190175672341
 20
102.283720930233
  0
LWPOLYLINE
  5
1F3
330
1F
100
AcDbEntity
  8
4
  6
PHANTOM
 62
     6
100
AcDbPolyline
 90
        9
 70
     0
 43
0.0
 10
93.5
 20
-703.84355774262
 10
92.5388199708772
 20
-702.934434665776
 10
91.6981325531914
 20
-702.315771110578
 10
90.912676114891
 20
-701.93894784187
 10
90.1930385632996
 20
-701.813258389724
 10
89.4804536187652
 20
-701.93894784187
 10
88.7161412494288
 20
-702.315771110578
 10
87.9101678899314
 20
-702.934434665776
 10
87.0
 20
-703.84355774262
  0
LWPOLYLINE
  5
1F4
330
1F
100
AcDbEntity
  8
4
  6
PHANTOM
 62
     6
100
AcDbPolyline
 90
        9
 70
     0
 43
0.0
 10
93.5
 20
-703.84355774262
 10
94.4611800291228
 20
-702.934434665776
 10
95.3018674468086
 20
-702.315771110578
 10
96.087323885109
 20
-701.93894784187
 10
96.8069614367004
 20
-701.813258389724
 10
97.5195463812348
 20
-701.93894784187
 10
98.2838587505712
 20
-702.315771110578
 10
99.0898321100686
 20
-702.934434665776
 10
100.0
 20
-703.84355774262
  0
LWPOLYLINE
  5
1F5
330
1F
100
AcDbEntity
  8
4
  6
PHANTOM
 62
     6
100
AcDbPolyline
 90
        9
 70
     0
 43
0.0
 10
93.5
 20
-703.84355774262
 10
92.5388199708772
 20
-704.752680819464
 10
91.6981325531914
 20
-705.371344374662
 10
90.9126761148912
 20
-705.74816764337
 10
90.1930385632996
 20
-705.873857095518
 10
89.4804536187652
 20
-705.74816764337
 10
88.7161412494288
 20
-705.371344374662
 10
87.9101678899314
 20
-704.752680819464
 10
87.0
 20
-703.84355774262
  0
LEADER
  5
1F6
330
1F
100
AcDbEntity
  8
1
  6
Continuous
 62
     4
100
AcDbLeader
  3
Standard
 71
     0
 76
     3
 10
58.5
 20
-135.5
 30
0.0
 10
15.0753186530249
 20
-171.751786576514
 30
0.0
 10
-27.9244193227169
 20
-171.751786576514
 30
0.0
  0
ENDSEC
  0
SECTION
  2
OBJECTS
  0
DICTIONARY
  5
C
330
0
100
AcDbDictionary
281
     1
  3
ACAD_GROUP
350
D
  3
ACAD_LAYOUT
350
1A
  3
ACAD_MATERIAL
350
3B
  3
ACAD_MLEADERSTYLE
350
1F9
  3
ACAD_MLINESTYLE
350
17
  3
ACAD_PLOTSETTINGS
350
19
  3
ACAD_PLOTSTYLENAME
350
E
  3
ACAD_VISUALSTYLE
350
2A
  3
AcDbVariableDictionary
350
1F7
  0
DICTIONARY
  5
D
102
{ACAD_REACTORS
330
C
102
}
330
C
100
AcDbDictionary
281
     1
  0
DICTIONARY
  5
1A
102
{ACAD_REACTORS
330
C
102
}
330
C
100
AcDbDictionary
281
     1
  3
Layout1
350
1E
  3
Layout2
350
26
  3
Model
350
22
  0
DICTIONARY
  5
3B
102
{ACAD_REACTORS
330
C
102
}
330
C
100
AcDbDictionary
281
     1
  3
ByBlock
350
3D
  3
ByLayer
350
3C
  3
Global
350
3E
  0
DICTIONARY
  5
1F9
102
{ACAD_REACTORS
330
C
102
}
330
C
100
AcDbDictionary
281
     1
  0
DICTIONARY
  5
17
102
{ACAD_REACTORS
330
C
102
}
330
C
100
AcDbDictionary
281
     1
  3
Standard
350
18
  0
DICTIONARY
  5
19
102
{ACAD_REACTORS
330
C
102
}
330
C
100
AcDbDictionary
281
     1
  0
ACDBDICTIONARYWDFLT
  5
E
102
{ACAD_REACTORS
330
C
102
}
330
C
100
AcDbDictionary
281
     1
  3
Normal
350
F
100
AcDbDictionaryWithDefault
340
F
  0
DICTIONARY
  5
2A
102
{ACAD_REACTORS
330
C
102
}
330
C
100
AcDbDictionary
281
     1
  3
2dWireframe
350
2F
  3
3D Hidden
350
31
  3
3dWireframe
350
30
  3
Basic
350
32
  3
Brighten
350
36
  3
ColorChange
350
3A
  3
Conceptual
350
34
  3
Dim
350
35
  3
Facepattern
350
39
  3
Flat
350
2B
  3
FlatWithEdges
350
2C
  3
Gouraud
350
2D
  3
GouraudWithEdges
350
2E
  3
Linepattern
350
38
  3
Realistic
350
33
  3
Thicken
350
37
  0
DICTIONARY
  5
1F7
102
{ACAD_REACTORS
330
C
102
}
330
C
100
AcDbDictionary
281
     1
  3
DIMASSOC
350
1FA
  3
HIDETEXT
350
1FB
  0
LAYOUT
  5
1E
102
{ACAD_REACTORS
330
1A
102
}
330
1A
100
AcDbPlotSettings
  1

  2
none_device
  4

  6

 40
0.0
 41
0.0
 42
0.0
 43
0.0
 44
0.0
 45
0.0
 46
0.0
 47
0.0
 48
0.0
 49
0.0
140
0.0
141
0.0
142
1.0
143
1.0
 70
   688
 72
     0
 73
     0
 74
     5
  7

 75
    16
147
1.0
148
0.0
149
0.0
100
AcDbLayout
  1
Layout1
 70
     1
 71
     1
 10
0.0
 20
0.0
 11
12.0
 21
9.0
 12
0.0
 22
0.0
 32
0.0
 14
1.00000000000000E+20
 24
1.00000000000000E+20
 34
1.00000000000000E+20
 15
-1.00000000000000E+20
 25
-1.00000000000000E+20
 35
-1.00000000000000E+20
146
0.0
 13
0.0
 23
0.0
 33
0.0
 16
1.0
 26
0.0
 36
0.0
 17
0.0
 27
1.0
 37
0.0
 76
     0
330
1B
  0
LAYOUT
  5
26
102
{ACAD_REACTORS
330
1A
102
}
330
1A
100
AcDbPlotSettings
  1

  2
none_device
  4

  6

 40
0.0
 41
0.0
 42
0.0
 43
0.0
 44
0.0
 45
0.0
 46
0.0
 47
0.0
 48
0.0
 49
0.0
140
0.0
141
0.0
142
1.0
143
1.0
 70
   688
 72
     0
 73
     0
 74
     5
  7

 75
    16
147
1.0
148
0.0
149
0.0
100
AcDbLayout
  1
Layout2
 70
     1
 71
     2
 10
0.0
 20
0.0
 11
0.0
 21
0.0
 12
0.0
 22
0.0
 32
0.0
 14
0.0
 24
0.0
 34
0.0
 15
0.0
 25
0.0
 35
0.0
146
0.0
 13
0.0
 23
0.0
 33
0.0
 16
1.0
 26
0.0
 36
0.0
 17
0.0
 27
1.0
 37
0.0
 76
     0
330
23
  0
LAYOUT
  5
22
102
{ACAD_REACTORS
330
1A
102
}
330
1A
100
AcDbPlotSettings
  1

  2
none_device
  4

  6

 40
0.0
 41
0.0
 42
0.0
 43
0.0
 44
0.0
 45
0.0
 46
0.0
 47
0.0
 48
0.0
 49
0.0
140
0.0
141
0.0
142
1.0
143
1.0
 70
  1712
 72
     0
 73
     0
 74
     0
  7

 75
     0
147
1.0
148
0.0
149
0.0
100
AcDbLayout
  1
Model
 70
     1
 71
     0
 10
0.0
 20
0.0
 11
12.0
 21
9.0
 12
0.0
 22
0.0
 32
0.0
 14
-27.9244193227169
 24
-732.0
 34
0.0
 15
272.224168888524
 25
168.283720930233
 35
0.0
146
0.0
 13
0.0
 23
0.0
 33
0.0
 16
1.0
 26
0.0
 36
0.0
 17
0.0
 27
1.0
 37
0.0
 76
     0
330
1F
331
29
  0
MATERIAL
  5
3D
102
{ACAD_REACTORS
330
3B
102
}
102
{ACAD_XDICTIONARY
360
21E
102
}
330
3B
100
AcDbMaterial
  1
ByBlock
  0
MATERIAL
  5
3C
102
{ACAD_REACTORS
330
3B
102
}
102
{ACAD_XDICTIONARY
360
21C
102
}
330
3B
100
AcDbMaterial
  1
ByLayer
  0
MATERIAL
  5
3E
102
{ACAD_REACTORS
330
3B
102
}
102
{ACAD_XDICTIONARY
360
220
102
}
330
3B
100
AcDbMaterial
  1
Global
  0
MLINESTYLE
  5
18
102
{ACAD_REACTORS
330
17
102
}
330
17
100
AcDbMlineStyle
  2
Standard
 70
     0
  3

 62
   256
 51
90.0
 52
90.0
 71
     2
 49
0.5
 62
   256
  6
BYLAYER
 49
-0.5
 62
   256
  6
BYLAYER
  0
ACDBPLACEHOLDER
  5
F
102
{ACAD_REACTORS
330
E
102
}
330
E
  0
VISUALSTYLE
  5
2F
102
{ACAD_REACTORS
330
2A
102
}
102
{ACAD_XDICTIONARY
360
204
102
}
330
2A
100
AcDbVisualStyle
  2
2dWireframe
 70
     4
 71
     0
 72
     2
 73
     0
 90
        0
 40
-0.6
 41
-30.0
 62
     5
 63
     7
 74
     1
 91
        4
 64
     7
 65
   257
 75
     1
175
     1
 42
1.0
 92
        0
 66
   257
 43
1.0
 76
     1
 77
     6
 78
     2
 67
     7
 79
     5
170
     0
171
     0
290
     0
174
     0
 93
        1
 44
0.0
173
     0
291
     0
 45
0.0
1001
ACAD
1000
AcDbSavedByObjectVersion
1070
     0
  0
VISUALSTYLE
  5
31
102
{ACAD_REACTORS
330
2A
102
}
102
{ACAD_XDICTIONARY
360
208
102
}
330
2A
100
AcDbVisualStyle
  2
3D Hidden
 70
     6
 71
     1
 72
     2
 73
     2
 90
        0
 40
-0.6
 41
-30.0
 62
     5
 63
     7
 74
     2
 91
        2
 64
     7
 65
   257
 75
     2
175
     1
 42
40.0
 92
        0
 66
   257
 43
1.0
 76
     1
 77
     6
 78
     2
 67
     7
 79
     3
170
     0
171
     0
290
     0
174
     0
 93
        1
 44
0.0
173
     0
291
     0
 45
0.0
1001
ACAD
1000
AcDbSavedByObjectVersion
1070
     0
  0
VISUALSTYLE
  5
30
102
{ACAD_REACTORS
330
2A
102
}
102
{ACAD_XDICTIONARY
360
206
102
}
330
2A
100
AcDbVisualStyle
  2
3dWireframe
 70
     5
 71
     0
 72
     2
 73
     0
 90
        0
 40
-0.6
 41
-30.0
 62
     5
 63
     7
 74
     1
 91
        4
 64
     7
 65
   257
 75
     1
175
     1
 42
1.0
 92
        0
 66
   257
 43
1.0
 76
     1
 77
     6
 78
     2
 67
     7
 79
     5
170
     0
171
     0
290
     0
174
     0
 93
        1
 44
0.0
173
     0
291
     0
 45
0.0
1001
ACAD
1000
AcDbSavedByObjectVersion
1070
     0
  0
VISUALSTYLE
  5
32
102
{ACAD_REACTORS
330
2A
102
}
102
{ACAD_XDICTIONARY
360
20A
102
}
330
2A
100
AcDbVisualStyle
  2
Basic
 70
     7
 71
     1
 72
     0
 73
     1
 90
        0
 40
-0.6
 41
-30.0
 62
     5
 63
     7
 74
     0
 91
        4
 64
     7
 65
   257
 75
     1
175
     1
 42
1.0
 92
        8
 66
     7
 43
1.0
 76
     1
 77
     6
 78
     2
 67
     7
 79
     5
170
     0
171
     0
290
     0
174
     0
 93
        1
 44
0.0
173
     0
291
     1
 45
0.0
1001
ACAD
1000
AcDbSavedByObjectVersion
1070
     0
  0
VISUALSTYLE
  5
36
102
{ACAD_REACTORS
330
2A
102
}
102
{ACAD_XDICTIONARY
360
212
102
}
330
2A
100
AcDbVisualStyle
  2
Brighten
 70
    12
 71
     2
 72
     2
 73
     0
 90
        0
 40
-0.6
 41
-30.0
 62
     5
 63
     7
 74
     1
 91
        4
 64
     7
 65
   257
 75
     1
175
     1
 42
1.0
 92
        8
 66
     7
 43
1.0
 76
     1
 77
     6
 78
     2
 67
     7
 79
     5
170
     0
171
     0
290
     0
174
     0
 93
        1
 44
50.0
173
     0
291
     1
 45
0.0
1001
ACAD
1000
AcDbSavedByObjectVersion
1070
     0
  0
VISUALSTYLE
  5
3A
102
{ACAD_REACTORS
330
2A
102
}
102
{ACAD_XDICTIONARY
360
21A
102
}
330
2A
100
AcDbVisualStyle
  2
ColorChange
 70
    16
 71
     2
 72
     2
 73
     3
 90
        0
 40
-0.6
 41
-30.0
 62
     5
 63
     8
 74
     1
 91
        4
 64
     7
 65
   257
 75
     1
175
     1
 42
1.0
 92
        8
 66
     8
 43
1.0
 76
     1
 77
     6
 78
     2
 67
     7
 79
     5
170
     0
171
     0
290
     0
174
     0
 93
        1
 44
0.0
173
     0
291
     1
 45
0.0
1001
ACAD
1000
AcDbSavedByObjectVersion
1070
     0
  0
VISUALSTYLE
  5
34
102
{ACAD_REACTORS
330
2A
102
}
102
{ACAD_XDICTIONARY
360
20E
102
}
330
2A
100
AcDbVisualStyle
  2
Conceptual
 70
     9
 71
     3
 72
     2
 73
     0
 90
        0
 40
-0.6
 41
-30.0
 62
     5
 63
     7
 74
     2
 91
        2
 64
     7
 65
   257
 75
     1
175
     1
 42
40.0
 92
        8
 66
     7
 43
1.0
 76
     1
 77
     6
 78
     2
 67
     7
 79
     3
170
     0
171
     0
290
     0
174
     0
 93
        1
 44
0.0
173
     0
291
     0
 45
0.0
1001
ACAD
1000
AcDbSavedByObjectVersion
1070
     0
  0
VISUALSTYLE
  5
35
102
{ACAD_REACTORS
330
2A
102
}
102
{ACAD_XDICTIONARY
360
210
102
}
330
2A
100
AcDbVisualStyle
  2
Dim
 70
    11
 71
     2
 72
     2
 73
     0
 90
        0
 40
-0.6
 41
-30.0
 62
     5
 63
     7
 74
     1
 91
        4
 64
     7
 65
   257
 75
     1
175
     1
 42
1.0
 92
        8
 66
     7
 43
1.0
 76
     1
 77
     6
 78
     2
 67
     7
 79
     5
170
     0
171
     0
290
     0
174
     0
 93
        1
 44
-50.0
173
     0
291
     1
 45
0.0
1001
ACAD
1000
AcDbSavedByObjectVersion
1070
     0
  0
VISUALSTYLE
  5
39
102
{ACAD_REACTORS
330
2A
102
}
102
{ACAD_XDICTIONARY
360
218
102
}
330
2A
100
AcDbVisualStyle
  2
Facepattern
 70
    15
 71
     2
 72
     2
 73
     0
 90
        0
 40
-0.6
 41
-30.0
 62
     5
 63
     7
 74
     1
 91
        4
 64
     7
 65
   257
 75
     1
175
     1
 42
1.0
 92
        8
 66
     7
 43
1.0
 76
     1
 77
     6
 78
     2
 67
     7
 79
     5
170
     0
171
     0
290
     0
174
     0
 93
        1
 44
0.0
173
     0
291
     1
 45
0.0
1001
ACAD
1000
AcDbSavedByObjectVersion
1070
     0
  0
VISUALSTYLE
  5
2B
102
{ACAD_REACTORS
330
2A
102
}
102
{ACAD_XDICTIONARY
360
1FC
102
}
330
2A
100
AcDbVisualStyle
  2
Flat
 70
     0
 71
     2
 72
     1
 73
     1
 90
        2
 40
-0.6
 41
30.0
 62
     5
 63
     7
 74
     0
 91
        4
 64
     7
 65
   257
 75
     1
175
     1
 42
1.0
 92
        8
 66
     7
 43
1.0
 76
     1
 77
     6
 78
     2
 67
     7
 79
     5
170
     0
171
     0
290
     0
174
     0
 93
       13
 44
0.0
173
     0
291
     1
 45
0.0
1001
ACAD
1000
AcDbSavedByObjectVersion
1070
     0
  0
VISUALSTYLE
  5
2C
102
{ACAD_REACTORS
330
2A
102
}
102
{ACAD_XDICTIONARY
360
1FE
102
}
330
2A
100
AcDbVisualStyle
  2
FlatWithEdges
 70
     1
 71
     2
 72
     1
 73
     1
 90
        2
 40
-0.6
 41
30.0
 62
     5
 63
     7
 74
     1
 91
        4
 64
     7
 65
   257
 75
     1
175
     1
 42
1.0
 92
        0
 66
   257
 43
1.0
 76
     1
 77
     6
 78
     2
 67
     7
 79
     5
170
     0
171
     0
290
     0
174
     0
 93
       13
 44
0.0
173
     0
291
     1
 45
0.0
1001
ACAD
1000
AcDbSavedByObjectVersion
1070
     0
  0
VISUALSTYLE
  5
2D
102
{ACAD_REACTORS
330
2A
102
}
102
{ACAD_XDICTIONARY
360
200
102
}
330
2A
100
AcDbVisualStyle
  2
Gouraud
 70
     2
 71
     2
 72
     2
 73
     1
 90
        2
 40
-0.6
 41
30.0
 62
     5
 63
     7
 74
     0
 91
        4
 64
     7
 65
   257
 75
     1
175
     1
 42
1.0
 92
        0
 66
     7
 43
1.0
 76
     1
 77
     6
 78
     2
 67
     7
 79
     5
170
     0
171
     0
290
     0
174
     0
 93
       13
 44
0.0
173
     0
291
     1
 45
0.0
1001
ACAD
1000
AcDbSavedByObjectVersion
1070
     0
  0
VISUALSTYLE
  5
2E
102
{ACAD_REACTORS
330
2A
102
}
102
{ACAD_XDICTIONARY
360
202
102
}
330
2A
100
AcDbVisualStyle
  2
GouraudWithEdges
 70
     3
 71
     2
 72
     2
 73
     1
 90
        2
 40
-0.6
 41
30.0
 62
     5
 63
     7
 74
     1
 91
        4
 64
     7
 65
   257
 75
     1
175
     1
 42
1.0
 92
        0
 66
   257
 43
1.0
 76
     1
 77
     6
 78
     2
 67
     7
 79
     5
170
     0
171
     0
290
     0
174
     0
 93
       13
 44
0.0
173
     0
291
     1
 45
0.0
1001
ACAD
1000
AcDbSavedByObjectVersion
1070
     0
  0
VISUALSTYLE
  5
38
102
{ACAD_REACTORS
330
2A
102
}
102
{ACAD_XDICTIONARY
360
216
102
}
330
2A
100
AcDbVisualStyle
  2
Linepattern
 70
    14
 71
     2
 72
     2
 73
     0
 90
        0
 40
-0.6
 41
-30.0
 62
     5
 63
     7
 74
     1
 91
        4
 64
     7
 65
   257
 75
     7
175
     7
 42
1.0
 92
        8
 66
     7
 43
1.0
 76
     1
 77
     6
 78
     2
 67
     7
 79
     5
170
     0
171
     0
290
     0
174
     0
 93
        1
 44
0.0
173
     0
291
     1
 45
0.0
1001
ACAD
1000
AcDbSavedByObjectVersion
1070
     0
  0
VISUALSTYLE
  5
33
102
{ACAD_REACTORS
330
2A
102
}
102
{ACAD_XDICTIONARY
360
20C
102
}
330
2A
100
AcDbVisualStyle
  2
Realistic
 70
     8
 71
     2
 72
     2
 73
     0
 90
        0
 40
-0.6
 41
-30.0
 62
     5
 63
     7
 74
     1
 91
        0
 64
     7
 65
   257
 75
     1
175
     1
 42
1.0
 92
        8
 66
     8
 43
1.0
 76
     1
 77
     6
 78
     2
 67
     7
 79
     5
170
     0
171
     0
290
     0
174
     0
 93
       13
 44
0.0
173
     0
291
     0
 45
0.0
1001
ACAD
1000
AcDbSavedByObjectVersion
1070
     0
  0
VISUALSTYLE
  5
37
102
{ACAD_REACTORS
330
2A
102
}
102
{ACAD_XDICTIONARY
360
214
102
}
330
2A
100
AcDbVisualStyle
  2
Thicken
 70
    13
 71
     2
 72
     2
 73
     0
 90
        0
 40
-0.6
 41
-30.0
 62
     5
 63
     7
 74
     1
 91
        4
 64
     7
 65
   257
 75
     1
175
     1
 42
1.0
 92
       12
 66
     7
 43
1.0
 76
     1
 77
     6
 78
     2
 67
     7
 79
     5
170
     0
171
     0
290
     0
174
     0
 93
        1
 44
0.0
173
     0
291
     1
 45
0.0
1001
ACAD
1000
AcDbSavedByObjectVersion
1070
     0
  0
DICTIONARYVAR
  5
1FA
102
{ACAD_REACTORS
330
1F7
102
}
330
1F7
100
DictionaryVariables
280
     0
  1
2
  0
DICTIONARYVAR
  5
1FB
102
{ACAD_REACTORS
330
1F7
102
}
330
1F7
100
DictionaryVariables
280
     0
  1
1
  0
DICTIONARY
  5
21E
330
3D
100
AcDbDictionary
280
     1
281
     1
  3
ACAD_XREC_ROUNDTRIP
360
21F
  0
DICTIONARY
  5
21C
330
3C
100
AcDbDictionary
280
     1
281
     1
  3
ACAD_XREC_ROUNDTRIP
360
21D
  0
DICTIONARY
  5
220
330
3E
100
AcDbDictionary
280
     1
281
     1
  3
ACAD_XREC_ROUNDTRIP
360
221
  0
DICTIONARY
  5
204
330
2F
100
AcDbDictionary
280
     1
281
     1
  3
ACAD_XREC_ROUNDTRIP
360
205
  0
DICTIONARY
  5
208
330
31
100
AcDbDictionary
280
     1
281
     1
  3
ACAD_XREC_ROUNDTRIP
360
209
  0
DICTIONARY
  5
206
330
30
100
AcDbDictionary
280
     1
281
     1
  3
ACAD_XREC_ROUNDTRIP
360
207
  0
DICTIONARY
  5
20A
330
32
100
AcDbDictionary
280
     1
281
     1
  3
ACAD_XREC_ROUNDTRIP
360
20B
  0
DICTIONARY
  5
212
330
36
100
AcDbDictionary
280
     1
281
     1
  3
ACAD_XREC_ROUNDTRIP
360
213
  0
DICTIONARY
  5
21A
330
3A
100
AcDbDictionary
280
     1
281
     1
  3
ACAD_XREC_ROUNDTRIP
360
21B
  0
DICTIONARY
  5
20E
330
34
100
AcDbDictionary
280
     1
281
     1
  3
ACAD_XREC_ROUNDTRIP
360
20F
  0
DICTIONARY
  5
210
330
35
100
AcDbDictionary
280
     1
281
     1
  3
ACAD_XREC_ROUNDTRIP
360
211
  0
DICTIONARY
  5
218
330
39
100
AcDbDictionary
280
     1
281
     1
  3
ACAD_XREC_ROUNDTRIP
360
219
  0
DICTIONARY
  5
1FC
330
2B
100
AcDbDictionary
280
     1
281
     1
  3
ACAD_XREC_ROUNDTRIP
360
1FD
  0
DICTIONARY
  5
1FE
330
2C
100
AcDbDictionary
280
     1
281
     1
  3
ACAD_XREC_ROUNDTRIP
360
1FF
  0
DICTIONARY
  5
200
330
2D
100
AcDbDictionary
280
     1
281
     1
  3
ACAD_XREC_ROUNDTRIP
360
201
  0
DICTIONARY
  5
202
330
2E
100
AcDbDictionary
280
     1
281
     1
  3
ACAD_XREC_ROUNDTRIP
360
203
  0
DICTIONARY
  5
216
330
38
100
AcDbDictionary
280
     1
281
     1
  3
ACAD_XREC_ROUNDTRIP
360
217
  0
DICTIONARY
  5
20C
330
33
100
AcDbDictionary
280
     1
281
     1
  3
ACAD_XREC_ROUNDTRIP
360
20D
  0
DICTIONARY
  5
214
330
37
100
AcDbDictionary
280
     1
281
     1
  3
ACAD_XREC_ROUNDTRIP
360
215
  0
XRECORD
  5
21F
102
{ACAD_REACTORS
330
21E
102
}
330
21E
100
AcDbXrecord
280
     1
102
MATERIAL
148
0.0
149
0.0
149
0.0
 93
        0
 94
      127
282
     0
 72
     1
 77
     1
171
     1
175
     1
179
     1
273
     0
  0
XRECORD
  5
21D
102
{ACAD_REACTORS
330
21C
102
}
330
21C
100
AcDbXrecord
280
     1
102
MATERIAL
148
0.0
149
0.0
149
0.0
 93
        0
 94
      127
282
     0
 72
     1
 77
     1
171
     1
175
     1
179
     1
273
     0
  0
XRECORD
  5
221
102
{ACAD_REACTORS
330
220
102
}
330
220
100
AcDbXrecord
280
     1
102
MATERIAL
148
0.0
149
0.0
149
0.0
 93
        0
 94
      127
282
     0
 72
     1
 77
     1
171
     1
175
     1
179
     1
273
     0
  0
XRECORD
  5
205
102
{ACAD_REACTORS
330
204
102
}
330
204
100
AcDbXrecord
280
     1
102
RTVSPropertyOp0
 70
     1
102
RTVSPropertyOp1
 70
     1
102
RTVSPropertyOp2
 70
     1
102
RTVSPropertyOp3
 70
     1
102
RTVSPropertyOp4
 70
     1
102
RTVSPropertyOp5
 70
     1
102
RTVSPropertyOp6
 70
     1
102
RTVSPropertyOp7
 70
     1
102
RTVSPropertyOp8
 70
     1
102
RTVSPropertyOp9
 70
     1
102
RTVSPropertyOp10
 70
     1
102
RTVSPropertyOp11
 70
     1
102
RTVSPropertyOp12
 70
     1
102
RTVSPropertyOp13
 70
     1
102
RTVSPropertyOp14
 70
     1
102
RTVSPropertyOp15
 70
     1
102
RTVSPropertyOp16
 70
     1
102
RTVSPropertyOp17
 70
     1
102
RTVSPropertyOp18
 70
     1
102
RTVSPropertyOp19
 70
     1
102
RTVSPropertyOp20
 70
     1
102
RTVSPropertyOp21
 70
     1
102
RTVSPropertyOp22
 70
     1
102
RTVSPropertyOp23
 70
     1
102
RTVSPropertyOp24
 70
     1
102
RTVSPropertyOp25
 70
     1
102
RTVSPropertyOp26
 70
     1
102
RTVSPropertyOp27
 70
     1
  0
XRECORD
  5
209
102
{ACAD_REACTORS
330
208
102
}
330
208
100
AcDbXrecord
280
     1
102
RTVSPropertyOp0
 70
     1
102
RTVSPropertyOp1
 70
     1
102
RTVSPropertyOp2
 70
     1
102
RTVSPropertyOp3
 70
     1
102
RTVSPropertyOp4
 70
     1
102
RTVSPropertyOp5
 70
     1
102
RTVSPropertyOp6
 70
     1
102
RTVSPropertyOp7
 70
     1
102
RTVSPropertyOp8
 70
     1
102
RTVSPropertyOp9
 70
     1
102
RTVSPropertyOp10
 70
     1
102
RTVSPropertyOp11
 70
     1
102
RTVSPropertyOp12
 70
     1
102
RTVSPropertyOp13
 70
     1
102
RTVSPropertyOp14
 70
     1
102
RTVSPropertyOp15
 70
     1
102
RTVSPropertyOp16
 70
     1
102
RTVSPropertyOp17
 70
     1
102
RTVSPropertyOp18
 70
     1
102
RTVSPropertyOp19
 70
     1
102
RTVSPropertyOp20
 70
     1
102
RTVSPropertyOp21
 70
     1
102
RTVSPropertyOp22
 70
     1
102
RTVSPropertyOp23
 70
     1
102
RTVSPropertyOp24
 70
     1
102
RTVSPropertyOp25
 70
     1
102
RTVSPropertyOp26
 70
     1
102
RTVSPropertyOp27
 70
     1
  0
XRECORD
  5
207
102
{ACAD_REACTORS
330
206
102
}
330
206
100
AcDbXrecord
280
     1
102
RTVSPropertyOp0
 70
     1
102
RTVSPropertyOp1
 70
     1
102
RTVSPropertyOp2
 70
     1
102
RTVSPropertyOp3
 70
     1
102
RTVSPropertyOp4
 70
     1
102
RTVSPropertyOp5
 70
     1
102
RTVSPropertyOp6
 70
     1
102
RTVSPropertyOp7
 70
     1
102
RTVSPropertyOp8
 70
     1
102
RTVSPropertyOp9
 70
     1
102
RTVSPropertyOp10
 70
     1
102
RTVSPropertyOp11
 70
     1
102
RTVSPropertyOp12
 70
     1
102
RTVSPropertyOp13
 70
     1
102
RTVSPropertyOp14
 70
     1
102
RTVSPropertyOp15
 70
     1
102
RTVSPropertyOp16
 70
     1
102
RTVSPropertyOp17
 70
     1
102
RTVSPropertyOp18
 70
     1
102
RTVSPropertyOp19
 70
     1
102
RTVSPropertyOp20
 70
     1
102
RTVSPropertyOp21
 70
     1
102
RTVSPropertyOp22
 70
     1
102
RTVSPropertyOp23
 70
     1
102
RTVSPropertyOp24
 70
     1
102
RTVSPropertyOp25
 70
     1
102
RTVSPropertyOp26
 70
     1
102
RTVSPropertyOp27
 70
     1
  0
XRECORD
  5
20B
102
{ACAD_REACTORS
330
20A
102
}
330
20A
100
AcDbXrecord
280
     1
102
RTVSPropertyOp0
 70
     1
102
RTVSPropertyOp1
 70
     1
102
RTVSPropertyOp2
 70
     1
102
RTVSPropertyOp3
 70
     1
102
RTVSPropertyOp4
 70
     1
102
RTVSPropertyOp5
 70
     1
102
RTVSPropertyOp6
 70
     1
102
RTVSPropertyOp7
 70
     1
102
RTVSPropertyOp8
 70
     1
102
RTVSPropertyOp9
 70
     1
102
RTVSPropertyOp10
 70
     1
102
RTVSPropertyOp11
 70
     1
102
RTVSPropertyOp12
 70
     1
102
RTVSPropertyOp13
 70
     1
102
RTVSPropertyOp14
 70
     1
102
RTVSPropertyOp15
 70
     1
102
RTVSPropertyOp16
 70
     1
102
RTVSPropertyOp17
 70
     1
102
RTVSPropertyOp18
 70
     1
102
RTVSPropertyOp19
 70
     1
102
RTVSPropertyOp20
 70
     1
102
RTVSPropertyOp21
 70
     1
102
RTVSPropertyOp22
 70
     1
102
RTVSPropertyOp23
 70
     1
102
RTVSPropertyOp24
 70
     1
102
RTVSPropertyOp25
 70
     1
102
RTVSPropertyOp26
 70
     1
102
RTVSPropertyOp27
 70
     1
  0
XRECORD
  5
213
102
{ACAD_REACTORS
330
212
102
}
330
212
100
AcDbXrecord
280
     1
102
RTVSPropertyOp0
 70
     1
102
RTVSPropertyOp1
 70
     1
102
RTVSPropertyOp2
 70
     1
102
RTVSPropertyOp3
 70
     1
102
RTVSPropertyOp4
 70
     1
102
RTVSPropertyOp5
 70
     1
102
RTVSPropertyOp6
 70
     1
102
RTVSPropertyOp7
 70
     1
102
RTVSPropertyOp8
 70
     1
102
RTVSPropertyOp9
 70
     1
102
RTVSPropertyOp10
 70
     1
102
RTVSPropertyOp11
 70
     1
102
RTVSPropertyOp12
 70
     1
102
RTVSPropertyOp13
 70
     1
102
RTVSPropertyOp14
 70
     1
102
RTVSPropertyOp15
 70
     1
102
RTVSPropertyOp16
 70
     1
102
RTVSPropertyOp17
 70
     1
102
RTVSPropertyOp18
 70
     1
102
RTVSPropertyOp19
 70
     1
102
RTVSPropertyOp20
 70
     1
102
RTVSPropertyOp21
 70
     1
102
RTVSPropertyOp22
 70
     1
102
RTVSPropertyOp23
 70
     1
102
RTVSPropertyOp24
 70
     1
102
RTVSPropertyOp25
 70
     1
102
RTVSPropertyOp26
 70
     1
102
RTVSPropertyOp27
 70
     1
  0
XRECORD
  5
21B
102
{ACAD_REACTORS
330
21A
102
}
330
21A
100
AcDbXrecord
280
     1
102
RTVSPropertyOp0
 70
     1
102
RTVSPropertyOp1
 70
     1
102
RTVSPropertyOp2
 70
     1
102
RTVSPropertyOp3
 70
     1
102
RTVSPropertyOp4
 70
     1
102
RTVSPropertyOp5
 70
     1
102
RTVSPropertyOp6
 70
     1
102
RTVSPropertyOp7
 70
     1
102
RTVSPropertyOp8
 70
     1
102
RTVSPropertyOp9
 70
     1
102
RTVSPropertyOp10
 70
     1
102
RTVSPropertyOp11
 70
     1
102
RTVSPropertyOp12
 70
     1
102
RTVSPropertyOp13
 70
     1
102
RTVSPropertyOp14
 70
     1
102
RTVSPropertyOp15
 70
     1
102
RTVSPropertyOp16
 70
     1
102
RTVSPropertyOp17
 70
     1
102
RTVSPropertyOp18
 70
     1
102
RTVSPropertyOp19
 70
     1
102
RTVSPropertyOp20
 70
     1
102
RTVSPropertyOp21
 70
     1
102
RTVSPropertyOp22
 70
     1
102
RTVSPropertyOp23
 70
     1
102
RTVSPropertyOp24
 70
     1
102
RTVSPropertyOp25
 70
     1
102
RTVSPropertyOp26
 70
     1
102
RTVSPropertyOp27
 70
     1
  0
XRECORD
  5
20F
102
{ACAD_REACTORS
330
20E
102
}
330
20E
100
AcDbXrecord
280
     1
102
RTVSPropertyOp0
 70
     1
102
RTVSPropertyOp1
 70
     1
102
RTVSPropertyOp2
 70
     1
102
RTVSPropertyOp3
 70
     1
102
RTVSPropertyOp4
 70
     1
102
RTVSPropertyOp5
 70
     1
102
RTVSPropertyOp6
 70
     1
102
RTVSPropertyOp7
 70
     1
102
RTVSPropertyOp8
 70
     1
102
RTVSPropertyOp9
 70
     1
102
RTVSPropertyOp10
 70
     1
102
RTVSPropertyOp11
 70
     1
102
RTVSPropertyOp12
 70
     1
102
RTVSPropertyOp13
 70
     1
102
RTVSPropertyOp14
 70
     1
102
RTVSPropertyOp15
 70
     1
102
RTVSPropertyOp16
 70
     1
102
RTVSPropertyOp17
 70
     1
102
RTVSPropertyOp18
 70
     1
102
RTVSPropertyOp19
 70
     1
102
RTVSPropertyOp20
 70
     1
102
RTVSPropertyOp21
 70
     1
102
RTVSPropertyOp22
 70
     1
102
RTVSPropertyOp23
 70
     1
102
RTVSPropertyOp24
 70
     1
102
RTVSPropertyOp25
 70
     1
102
RTVSPropertyOp26
 70
     1
102
RTVSPropertyOp27
 70
     1
  0
XRECORD
  5
211
102
{ACAD_REACTORS
330
210
102
}
330
210
100
AcDbXrecord
280
     1
102
RTVSPropertyOp0
 70
     1
102
RTVSPropertyOp1
 70
     1
102
RTVSPropertyOp2
 70
     1
102
RTVSPropertyOp3
 70
     1
102
RTVSPropertyOp4
 70
     1
102
RTVSPropertyOp5
 70
     1
102
RTVSPropertyOp6
 70
     1
102
RTVSPropertyOp7
 70
     1
102
RTVSPropertyOp8
 70
     1
102
RTVSPropertyOp9
 70
     1
102
RTVSPropertyOp10
 70
     1
102
RTVSPropertyOp11
 70
     1
102
RTVSPropertyOp12
 70
     1
102
RTVSPropertyOp13
 70
     1
102
RTVSPropertyOp14
 70
     1
102
RTVSPropertyOp15
 70
     1
102
RTVSPropertyOp16
 70
     1
102
RTVSPropertyOp17
 70
     1
102
RTVSPropertyOp18
 70
     1
102
RTVSPropertyOp19
 70
     1
102
RTVSPropertyOp20
 70
     1
102
RTVSPropertyOp21
 70
     1
102
RTVSPropertyOp22
 70
     1
102
RTVSPropertyOp23
 70
     1
102
RTVSPropertyOp24
 70
     1
102
RTVSPropertyOp25
 70
     1
102
RTVSPropertyOp26
 70
     1
102
RTVSPropertyOp27
 70
     1
  0
XRECORD
  5
219
102
{ACAD_REACTORS
330
218
102
}
330
218
100
AcDbXrecord
280
     1
102
RTVSPropertyOp0
 70
     1
102
RTVSPropertyOp1
 70
     1
102
RTVSPropertyOp2
 70
     1
102
RTVSPropertyOp3
 70
     1
102
RTVSPropertyOp4
 70
     1
102
RTVSPropertyOp5
 70
     1
102
RTVSPropertyOp6
 70
     1
102
RTVSPropertyOp7
 70
     1
102
RTVSPropertyOp8
 70
     1
102
RTVSPropertyOp9
 70
     1
102
RTVSPropertyOp10
 70
     1
102
RTVSPropertyOp11
 70
     1
102
RTVSPropertyOp12
 70
     1
102
RTVSPropertyOp13
 70
     1
102
RTVSPropertyOp14
 70
     1
102
RTVSPropertyOp15
 70
     1
102
RTVSPropertyOp16
 70
     1
102
RTVSPropertyOp17
 70
     1
102
RTVSPropertyOp18
 70
     1
102
RTVSPropertyOp19
 70
     1
102
RTVSPropertyOp20
 70
     1
102
RTVSPropertyOp21
 70
     1
102
RTVSPropertyOp22
 70
     1
102
RTVSPropertyOp23
 70
     1
102
RTVSPropertyOp24
 70
     1
102
RTVSPropertyOp25
 70
     1
102
RTVSPropertyOp26
 70
     1
102
RTVSPropertyOp27
 70
     1
  0
XRECORD
  5
1FD
102
{ACAD_REACTORS
330
1FC
102
}
330
1FC
100
AcDbXrecord
280
     1
102
RTVSPropertyOp0
 70
     1
102
RTVSPropertyOp1
 70
     1
102
RTVSPropertyOp2
 70
     1
102
RTVSPropertyOp3
 70
     1
102
RTVSPropertyOp4
 70
     1
102
RTVSPropertyOp5
 70
     1
102
RTVSPropertyOp6
 70
     1
102
RTVSPropertyOp7
 70
     1
102
RTVSPropertyOp8
 70
     1
102
RTVSPropertyOp9
 70
     1
102
RTVSPropertyOp10
 70
     1
102
RTVSPropertyOp11
 70
     1
102
RTVSPropertyOp12
 70
     1
102
RTVSPropertyOp13
 70
     1
102
RTVSPropertyOp14
 70
     1
102
RTVSPropertyOp15
 70
     1
102
RTVSPropertyOp16
 70
     1
102
RTVSPropertyOp17
 70
     1
102
RTVSPropertyOp18
 70
     1
102
RTVSPropertyOp19
 70
     1
102
RTVSPropertyOp20
 70
     1
102
RTVSPropertyOp21
 70
     1
102
RTVSPropertyOp22
 70
     1
102
RTVSPropertyOp23
 70
     1
102
RTVSPropertyOp24
 70
     1
102
RTVSPropertyOp25
 70
     1
102
RTVSPropertyOp26
 70
     1
102
RTVSPropertyOp27
 70
     1
  0
XRECORD
  5
1FF
102
{ACAD_REACTORS
330
1FE
102
}
330
1FE
100
AcDbXrecord
280
     1
102
RTVSPropertyOp0
 70
     1
102
RTVSPropertyOp1
 70
     1
102
RTVSPropertyOp2
 70
     1
102
RTVSPropertyOp3
 70
     1
102
RTVSPropertyOp4
 70
     1
102
RTVSPropertyOp5
 70
     1
102
RTVSPropertyOp6
 70
     1
102
RTVSPropertyOp7
 70
     1
102
RTVSPropertyOp8
 70
     1
102
RTVSPropertyOp9
 70
     1
102
RTVSPropertyOp10
 70
     1
102
RTVSPropertyOp11
 70
     1
102
RTVSPropertyOp12
 70
     1
102
RTVSPropertyOp13
 70
     1
102
RTVSPropertyOp14
 70
     1
102
RTVSPropertyOp15
 70
     1
102
RTVSPropertyOp16
 70
     1
102
RTVSPropertyOp17
 70
     1
102
RTVSPropertyOp18
 70
     1
102
RTVSPropertyOp19
 70
     1
102
RTVSPropertyOp20
 70
     1
102
RTVSPropertyOp21
 70
     1
102
RTVSPropertyOp22
 70
     1
102
RTVSPropertyOp23
 70
     1
102
RTVSPropertyOp24
 70
     1
102
RTVSPropertyOp25
 70
     1
102
RTVSPropertyOp26
 70
     1
102
RTVSPropertyOp27
 70
     1
  0
XRECORD
  5
201
102
{ACAD_REACTORS
330
200
102
}
330
200
100
AcDbXrecord
280
     1
102
RTVSPropertyOp0
 70
     1
102
RTVSPropertyOp1
 70
     1
102
RTVSPropertyOp2
 70
     1
102
RTVSPropertyOp3
 70
     1
102
RTVSPropertyOp4
 70
     1
102
RTVSPropertyOp5
 70
     1
102
RTVSPropertyOp6
 70
     1
102
RTVSPropertyOp7
 70
     1
102
RTVSPropertyOp8
 70
     1
102
RTVSPropertyOp9
 70
     1
102
RTVSPropertyOp10
 70
     1
102
RTVSPropertyOp11
 70
     1
102
RTVSPropertyOp12
 70
     1
102
RTVSPropertyOp13
 70
     1
102
RTVSPropertyOp14
 70
     1
102
RTVSPropertyOp15
 70
     1
102
RTVSPropertyOp16
 70
     1
102
RTVSPropertyOp17
 70
     1
102
RTVSPropertyOp18
 70
     1
102
RTVSPropertyOp19
 70
     1
102
RTVSPropertyOp20
 70
     1
102
RTVSPropertyOp21
 70
     1
102
RTVSPropertyOp22
 70
     1
102
RTVSPropertyOp23
 70
     1
102
RTVSPropertyOp24
 70
     1
102
RTVSPropertyOp25
 70
     1
102
RTVSPropertyOp26
 70
     1
102
RTVSPropertyOp27
 70
     1
  0
XRECORD
  5
203
102
{ACAD_REACTORS
330
202
102
}
330
202
100
AcDbXrecord
280
     1
102
RTVSPropertyOp0
 70
     1
102
RTVSPropertyOp1
 70
     1
102
RTVSPropertyOp2
 70
     1
102
RTVSPropertyOp3
 70
     1
102
RTVSPropertyOp4
 70
     1
102
RTVSPropertyOp5
 70
     1
102
RTVSPropertyOp6
 70
     1
102
RTVSPropertyOp7
 70
     1
102
RTVSPropertyOp8
 70
     1
102
RTVSPropertyOp9
 70
     1
102
RTVSPropertyOp10
 70
     1
102
RTVSPropertyOp11
 70
     1
102
RTVSPropertyOp12
 70
     1
102
RTVSPropertyOp13
 70
     1
102
RTVSPropertyOp14
 70
     1
102
RTVSPropertyOp15
 70
     1
102
RTVSPropertyOp16
 70
     1
102
RTVSPropertyOp17
 70
     1
102
RTVSPropertyOp18
 70
     1
102
RTVSPropertyOp19
 70
     1
102
RTVSPropertyOp20
 70
     1
102
RTVSPropertyOp21
 70
     1
102
RTVSPropertyOp22
 70
     1
102
RTVSPropertyOp23
 70
     1
102
RTVSPropertyOp24
 70
     1
102
RTVSPropertyOp25
 70
     1
102
RTVSPropertyOp26
 70
     1
102
RTVSPropertyOp27
 70
     1
  0
XRECORD
  5
217
102
{ACAD_REACTORS
330
216
102
}
330
216
100
AcDbXrecord
280
     1
102
RTVSPropertyOp0
 70
     1
102
RTVSPropertyOp1
 70
     1
102
RTVSPropertyOp2
 70
     1
102
RTVSPropertyOp3
 70
     1
102
RTVSPropertyOp4
 70
     1
102
RTVSPropertyOp5
 70
     1
102
RTVSPropertyOp6
 70
     1
102
RTVSPropertyOp7
 70
     1
102
RTVSPropertyOp8
 70
     1
102
RTVSPropertyOp9
 70
     1
102
RTVSPropertyOp10
 70
     1
102
RTVSPropertyOp11
 70
     1
102
RTVSPropertyOp12
 70
     1
102
RTVSPropertyOp13
 70
     1
102
RTVSPropertyOp14
 70
     1
102
RTVSPropertyOp15
 70
     1
102
RTVSPropertyOp16
 70
     1
102
RTVSPropertyOp17
 70
     1
102
RTVSPropertyOp18
 70
     1
102
RTVSPropertyOp19
 70
     1
102
RTVSPropertyOp20
 70
     1
102
RTVSPropertyOp21
 70
     1
102
RTVSPropertyOp22
 70
     1
102
RTVSPropertyOp23
 70
     1
102
RTVSPropertyOp24
 70
     1
102
RTVSPropertyOp25
 70
     1
102
RTVSPropertyOp26
 70
     1
102
RTVSPropertyOp27
 70
     1
  0
XRECORD
  5
20D
102
{ACAD_REACTORS
330
20C
102
}
330
20C
100
AcDbXrecord
280
     1
102
RTVSPropertyOp0
 70
     1
102
RTVSPropertyOp1
 70
     1
102
RTVSPropertyOp2
 70
     1
102
RTVSPropertyOp3
 70
     1
102
RTVSPropertyOp4
 70
     1
102
RTVSPropertyOp5
 70
     1
102
RTVSPropertyOp6
 70
     1
102
RTVSPropertyOp7
 70
     1
102
RTVSPropertyOp8
 70
     1
102
RTVSPropertyOp9
 70
     1
102
RTVSPropertyOp10
 70
     1
102
RTVSPropertyOp11
 70
     1
102
RTVSPropertyOp12
 70
     1
102
RTVSPropertyOp13
 70
     1
102
RTVSPropertyOp14
 70
     1
102
RTVSPropertyOp15
 70
     1
102
RTVSPropertyOp16
 70
     1
102
RTVSPropertyOp17
 70
     1
102
RTVSPropertyOp18
 70
     1
102
RTVSPropertyOp19
 70
     1
102
RTVSPropertyOp20
 70
     1
102
RTVSPropertyOp21
 70
     1
102
RTVSPropertyOp22
 70
     1
102
RTVSPropertyOp23
 70
     1
102
RTVSPropertyOp24
 70
     1
102
RTVSPropertyOp25
 70
     1
102
RTVSPropertyOp26
 70
     1
102
RTVSPropertyOp27
 70
     1
  0
XRECORD
  5
215
102
{ACAD_REACTORS
330
214
102
}
330
214
100
AcDbXrecord
280
     1
102
RTVSPropertyOp0
 70
     1
102
RTVSPropertyOp1
 70
     1
102
RTVSPropertyOp2
 70
     1
102
RTVSPropertyOp3
 70
     1
102
RTVSPropertyOp4
 70
     1
102
RTVSPropertyOp5
 70
     1
102
RTVSPropertyOp6
 70
     1
102
RTVSPropertyOp7
 70
     1
102
RTVSPropertyOp8
 70
     1
102
RTVSPropertyOp9
 70
     1
102
RTVSPropertyOp10
 70
     1
102
RTVSPropertyOp11
 70
     1
102
RTVSPropertyOp12
 70
     1
102
RTVSPropertyOp13
 70
     1
102
RTVSPropertyOp14
 70
     1
102
RTVSPropertyOp15
 70
     1
102
RTVSPropertyOp16
 70
     1
102
RTVSPropertyOp17
 70
     1
102
RTVSPropertyOp18
 70
     1
102
RTVSPropertyOp19
 70
     1
102
RTVSPropertyOp20
 70
     1
102
RTVSPropertyOp21
 70
     1
102
RTVSPropertyOp22
 70
     1
102
RTVSPropertyOp23
 70
     1
102
RTVSPropertyOp24
 70
     1
102
RTVSPropertyOp25
 70
     1
102
RTVSPropertyOp26
 70
     1
102
RTVSPropertyOp27
 70
     1
  0
ENDSEC
  0
EOF
