  0
SECTION
  2
HEADER
  9
$ACADVER
  1
AC1015
  9
$ACADMAINTVER
 70
     6
  9
$DWGCODEPAGE
  3
ANSI_932
  9
$INSBASE
 10
0.0
 20
0.0
 30
0.0
  9
$EXTMIN
 10
64.7624551644257
 20
-131.876911612293
 30
0.0
  9
$EXTMAX
 10
275.346677298969
 20
530.198261628032
 30
0.0
  9
$LIMMIN
 10
0.0
 20
0.0
  9
$LIMMAX
 10
12.0
 20
9.0
  9
$ORTHOMODE
 70
     0
  9
$REGENMODE
 70
     1
  9
$FILLMODE
 70
     1
  9
$QTEXTMODE
 70
     0
  9
$MIRRTEXT
 70
     1
  9
$LTSCALE
 40
1.0
  9
$ATTMODE
 70
     1
  9
$TEXTSIZE
 40
0.2
  9
$TRACEWID
 40
0.05
  9
$TEXTSTYLE
  7
Standard
  9
$CLAYER
  8
0
  9
$CELTYPE
  6
ByLayer
  9
$CECOLOR
 62
   256
  9
$CELTSCALE
 40
1.0
  9
$DISPSILH
 70
     0
  9
$DIMSCALE
 40
1.0
  9
$DIMASZ
 40
0.18
  9
$DIMEXO
 40
0.0625
  9
$DIMDLI
 40
0.38
  9
$DIMRND
 40
0.0
  9
$DIMDLE
 40
0.0
  9
$DIMEXE
 40
0.18
  9
$DIMTP
 40
0.0
  9
$DIMTM
 40
0.0
  9
$DIMTXT
 40
0.18
  9
$DIMCEN
 40
0.09
  9
$DIMTSZ
 40
0.0
  9
$DIMTOL
 70
     0
  9
$DIMLIM
 70
     0
  9
$DIMTIH
 70
     1
  9
$DIMTOH
 70
     1
  9
$DIMSE1
 70
     0
  9
$DIMSE2
 70
     0
  9
$DIMTAD
 70
     0
  9
$DIMZIN
 70
     0
  9
$DIMBLK
  1

  9
$DIMASO
 70
     1
  9
$DIMSHO
 70
     1
  9
$DIMPOST
  1

  9
$DIMAPOST
  1

  9
$DIMALT
 70
     0
  9
$DIMALTD
 70
     2
  9
$DIMALTF
 40
25.4
  9
$DIMLFAC
 40
1.0
  9
$DIMTOFL
 70
     0
  9
$DIMTVP
 40
0.0
  9
$DIMTIX
 70
     0
  9
$DIMSOXD
 70
     0
  9
$DIMSAH
 70
     0
  9
$DIMBLK1
  1

  9
$DIMBLK2
  1

  9
$DIMSTYLE
  2
Standard
  9
$DIMCLRD
 70
     0
  9
$DIMCLRE
 70
     0
  9
$DIMCLRT
 70
     0
  9
$DIMTFAC
 40
1.0
  9
$DIMGAP
 40
0.09
  9
$DIMJUST
 70
     0
  9
$DIMSD1
 70
     0
  9
$DIMSD2
 70
     0
  9
$DIMTOLJ
 70
     1
  9
$DIMTZIN
 70
     0
  9
$DIMALTZ
 70
     0
  9
$DIMALTTZ
 70
     0
  9
$DIMUPT
 70
     0
  9
$DIMDEC
 70
     4
  9
$DIMTDEC
 70
     4
  9
$DIMALTU
 70
     2
  9
$DIMALTTD
 70
     2
  9
$DIMTXSTY
  7
Standard
  9
$DIMAUNIT
 70
     0
  9
$DIMADEC
 70
     0
  9
$DIMALTRND
 40
0.0
  9
$DIMAZIN
 70
     0
  9
$DIMDSEP
 70
    46
  9
$DIMATFIT
 70
     3
  9
$DIMFRAC
 70
     0
  9
$DIMLDRBLK
  1

  9
$DIMLUNIT
 70
     2
  9
$DIMLWD
 70
    -2
  9
$DIMLWE
 70
    -2
  9
$DIMTMOVE
 70
     0
  9
$LUNITS
 70
     2
  9
$LUPREC
 70
     4
  9
$SKETCHINC
 40
0.1
  9
$FILLETRAD
 40
0.5
  9
$AUNITS
 70
     0
  9
$AUPREC
 70
     0
  9
$MENU
  1
.
  9
$ELEVATION
 40
0.0
  9
$PELEVATION
 40
0.0
  9
$THICKNESS
 40
0.0
  9
$LIMCHECK
 70
     0
  9
$CHAMFERA
 40
0.5
  9
$CHAMFERB
 40
0.5
  9
$CHAMFERC
 40
1.0
  9
$CHAMFERD
 40
0.0
  9
$SKPOLY
 70
     0
  9
$TDCREATE
 40
2457624.738199607
  9
$TDUCREATE
 40
2457624.363199607
  9
$TDUPDATE
 40
2457624.738199618
  9
$TDUUPDATE
 40
2457624.363199618
  9
$TDINDWG
 40
0.0000000116
  9
$TDUSRTIMER
 40
0.0000000116
  9
$USRTIMER
 70
     1
  9
$ANGBASE
 50
0.0
  9
$ANGDIR
 70
     0
  9
$PDMODE
 70
     0
  9
$PDSIZE
 40
0.0
  9
$PLINEWID
 40
0.0
  9
$SPLFRAME
 70
     0
  9
$SPLINETYPE
 70
     6
  9
$SPLINESEGS
 70
     8
  9
$HANDSEED
  5
2D9
  9
$SURFTAB1
 70
     6
  9
$SURFTAB2
 70
     6
  9
$SURFTYPE
 70
     6
  9
$SURFU
 70
     6
  9
$SURFV
 70
     6
  9
$UCSBASE
  2

  9
$UCSNAME
  2

  9
$UCSORG
 10
0.0
 20
0.0
 30
0.0
  9
$UCSXDIR
 10
1.0
 20
0.0
 30
0.0
  9
$UCSYDIR
 10
0.0
 20
1.0
 30
0.0
  9
$UCSORTHOREF
  2

  9
$UCSORTHOVIEW
 70
     0
  9
$UCSORGTOP
 10
0.0
 20
0.0
 30
0.0
  9
$UCSORGBOTTOM
 10
0.0
 20
0.0
 30
0.0
  9
$UCSORGLEFT
 10
0.0
 20
0.0
 30
0.0
  9
$UCSORGRIGHT
 10
0.0
 20
0.0
 30
0.0
  9
$UCSORGFRONT
 10
0.0
 20
0.0
 30
0.0
  9
$UCSORGBACK
 10
0.0
 20
0.0
 30
0.0
  9
$PUCSBASE
  2

  9
$PUCSNAME
  2

  9
$PUCSORG
 10
0.0
 20
0.0
 30
0.0
  9
$PUCSXDIR
 10
1.0
 20
0.0
 30
0.0
  9
$PUCSYDIR
 10
0.0
 20
1.0
 30
0.0
  9
$PUCSORTHOREF
  2

  9
$PUCSORTHOVIEW
 70
     0
  9
$PUCSORGTOP
 10
0.0
 20
0.0
 30
0.0
  9
$PUCSORGBOTTOM
 10
0.0
 20
0.0
 30
0.0
  9
$PUCSORGLEFT
 10
0.0
 20
0.0
 30
0.0
  9
$PUCSORGRIGHT
 10
0.0
 20
0.0
 30
0.0
  9
$PUCSORGFRONT
 10
0.0
 20
0.0
 30
0.0
  9
$PUCSORGBACK
 10
0.0
 20
0.0
 30
0.0
  9
$USERI1
 70
     0
  9
$USERI2
 70
     0
  9
$USERI3
 70
     0
  9
$USERI4
 70
     0
  9
$USERI5
 70
     0
  9
$USERR1
 40
18.0
  9
$USERR2
 40
0.0
  9
$USERR3
 40
0.0
  9
$USERR4
 40
0.0
  9
$USERR5
 40
0.0
  9
$WORLDVIEW
 70
     1
  9
$SHADEDGE
 70
     3
  9
$SHADEDIF
 70
    70
  9
$TILEMODE
 70
     1
  9
$MAXACTVP
 70
    64
  9
$PINSBASE
 10
0.0
 20
0.0
 30
0.0
  9
$PLIMCHECK
 70
     0
  9
$PEXTMIN
 10
1.00000000000000E+20
 20
1.00000000000000E+20
 30
1.00000000000000E+20
  9
$PEXTMAX
 10
-1.00000000000000E+20
 20
-1.00000000000000E+20
 30
-1.00000000000000E+20
  9
$PLIMMIN
 10
0.0
 20
0.0
  9
$PLIMMAX
 10
12.0
 20
9.0
  9
$UNITMODE
 70
     0
  9
$VISRETAIN
 70
     1
  9
$PLINEGEN
 70
     0
  9
$PSLTSCALE
 70
     1
  9
$TREEDEPTH
 70
  3020
  9
$CMLSTYLE
  2
Standard
  9
$CMLJUST
 70
     0
  9
$CMLSCALE
 40
1.0
  9
$PROXYGRAPHICS
 70
     1
  9
$MEASUREMENT
 70
     1
  9
$CELWEIGHT
370
    -1
  9
$ENDCAPS
280
     0
  9
$JOINSTYLE
280
     0
  9
$LWDISPLAY
290
     0
  9
$INSUNITS
 70
     1
  9
$HYPERLINKBASE
  1

  9
$STYLESHEET
  1

  9
$XEDIT
290
     1
  9
$CEPSNTYPE
380
     0
  9
$PSTYLEMODE
290
     1
  9
$FINGERPRINTGUID
  2
{6B6DCD83-98D5-4E67-871B-A5053DA0ECAD}
  9
$VERSIONGUID
  2
{FAEB1C32-E019-11D5-929B-00C0DF256EC4}
  9
$EXTNAMES
290
     1
  9
$PSVPSCALE
 40
0.0
  9
$OLESTARTUP
290
     0
  0
ENDSEC
  0
SECTION
  2
CLASSES
  0
CLASS
  1
ACDBDICTIONARYWDFLT
  2
AcDbDictionaryWithDefault
  3
ObjectDBX Classes
 90
        0
280
     0
281
     0
  0
CLASS
  1
VISUALSTYLE
  2
AcDbVisualStyle
  3
ObjectDBX Classes
 90
     4095
280
     0
281
     0
  0
CLASS
  1
MATERIAL
  2
AcDbMaterial
  3
ObjectDBX Classes
 90
     1153
280
     0
281
     0
  0
CLASS
  1

  2
exOdDbCircle
  3

 90
        0
280
     0
281
     1
  0
CLASS
  1

  2
exOdDbSpline
  3

 90
        0
280
     0
281
     1
  0
CLASS
  1

  2
exOdDbPolyline
  3

 90
        0
280
     0
281
     1
  0
CLASS
  1
DICTIONARYVAR
  2
AcDbDictionaryVar
  3
ObjectDBX Classes
 90
        0
280
     0
281
     0
  0
CLASS
  1
ACDBPLACEHOLDER
  2
AcDbPlaceHolder
  3
ObjectDBX Classes
 90
        0
280
     0
281
     0
  0
CLASS
  1
LAYOUT
  2
AcDbLayout
  3
ObjectDBX Classes
 90
        0
280
     0
281
     0
  0
ENDSEC
  0
SECTION
  2
TABLES
  0
TABLE
  2
VPORT
  5
8
330
0
100
AcDbSymbolTable
 70
     1
  0
VPORT
  5
29
330
8
100
AcDbSymbolTableRecord
100
AcDbViewportTableRecord
  2
*Active
 70
     0
 10
0.0
 20
0.0
 11
1.0
 21
1.0
 12
170.0545662316974
 22
199.1606750078695
 13
0.0
 23
0.0
 14
0.5
 24
0.5
 15
0.5
 25
0.5
 16
0.0
 26
0.0
 36
1.0
 17
0.0
 27
0.0
 37
0.0
 40
728.2826905643576
 41
1.60267857142857
 42
50.0
 43
0.0
 44
0.0
 50
0.0
 51
0.0
 71
     0
 72
   100
 73
     1
 74
     3
 75
     0
 76
     0
 77
     0
 78
     0
281
     0
 65
     1
110
0.0
120
0.0
130
0.0
111
1.0
121
0.0
131
0.0
112
0.0
122
1.0
132
0.0
 79
     0
146
0.0
  0
ENDTAB
  0
TABLE
  2
LTYPE
  5
5
330
0
100
AcDbSymbolTable
 70
     8
  0
LTYPE
  5
14
330
5
100
AcDbSymbolTableRecord
100
AcDbLinetypeTableRecord
  2
ByBlock
 70
     0
  3

 72
    65
 73
     0
 40
0.0
  0
LTYPE
  5
15
330
5
100
AcDbSymbolTableRecord
100
AcDbLinetypeTableRecord
  2
ByLayer
 70
     0
  3

 72
    65
 73
     0
 40
0.0
  0
LTYPE
  5
16
330
5
100
AcDbSymbolTableRecord
100
AcDbLinetypeTableRecord
  2
Continuous
 70
     0
  3
Solid line
 72
    65
 73
     0
 40
0.0
  0
LTYPE
  5
3F
330
5
100
AcDbSymbolTableRecord
100
AcDbLinetypeTableRecord
  2
DASHED
 70
     0
  3
Dashed
 72
    65
 73
     2
 40
15.0
 49
7.0
 74
     0
 49
-8.0
 74
     0
  0
LTYPE
  5
40
330
5
100
AcDbSymbolTableRecord
100
AcDbLinetypeTableRecord
  2
DOTTED
 70
     0
  3
Dotted
 72
    65
 73
     2
 40
1.0
 49
0.0
 74
     0
 49
-1.0
 74
     0
  0
LTYPE
  5
41
330
5
100
AcDbSymbolTableRecord
100
AcDbLinetypeTableRecord
  2
DOT_CENTER
 70
     0
  3
Dot_Center
 72
    65
 73
     4
 40
14.0
 49
12.0
 74
     0
 49
-1.0
 74
     0
 49
0.0
 74
     0
 49
-1.0
 74
     0
  0
LTYPE
  5
42
330
5
100
AcDbSymbolTableRecord
100
AcDbLinetypeTableRecord
  2
LONG_DASHED
 70
     0
  3
Long_Dashed
 72
    65
 73
     2
 40
15.0
 49
10.0
 74
     0
 49
-5.0
 74
     0
  0
LTYPE
  5
43
330
5
100
AcDbSymbolTableRecord
100
AcDbLinetypeTableRecord
  2
DASH_CENTER
 70
     0
  3
Dash_Center
 72
    65
 73
     4
 40
14.0
 49
11.0
 74
     0
 49
-1.0
 74
     0
 49
1.0
 74
     0
 49
-1.0
 74
     0
  0
LTYPE
  5
44
330
5
100
AcDbSymbolTableRecord
100
AcDbLinetypeTableRecord
  2
PHANTOM
 70
     0
  3
Phantom
 72
    65
 73
     6
 40
13.0
 49
10.0
 74
     0
 49
-1.0
 74
     0
 49
0.0
 74
     0
 49
-1.0
 74
     0
 49
0.0
 74
     0
 49
-1.0
 74
     0
  0
LTYPE
  5
45
330
5
100
AcDbSymbolTableRecord
100
AcDbLinetypeTableRecord
  2
CENTER_DASH_DASH
 70
     0
  3
Center_Dash_Dash
 72
    65
 73
     6
 40
14.0
 49
9.0
 74
     0
 49
-1.0
 74
     0
 49
1.0
 74
     0
 49
-1.0
 74
     0
 49
1.0
 74
     0
 49
-1.0
 74
     0
  0
ENDTAB
  0
TABLE
  2
LAYER
  5
2
330
0
100
AcDbSymbolTable
 70
     6
  0
LAYER
  5
10
330
2
100
AcDbSymbolTableRecord
100
AcDbLayerTableRecord
  2
0
 70
     0
 62
     7
  6
Continuous
370
    -3
390
F
  0
LAYER
  5
46
330
2
100
AcDbSymbolTableRecord
100
AcDbLayerTableRecord
  2
1
 70
     0
 62
     7
  6
Continuous
370
    -3
390
F
  0
LAYER
  5
47
330
2
100
AcDbSymbolTableRecord
100
AcDbLayerTableRecord
  2
11
 70
     0
 62
     7
  6
Continuous
370
    -3
390
F
  0
LAYER
  5
48
330
2
100
AcDbSymbolTableRecord
100
AcDbLayerTableRecord
  2
2
 70
     0
 62
     7
  6
Continuous
370
    -3
390
F
  0
LAYER
  5
49
330
2
100
AcDbSymbolTableRecord
100
AcDbLayerTableRecord
  2
4
 70
     0
 62
     7
  6
Continuous
370
    -3
390
F
  0
LAYER
  5
4A
330
2
100
AcDbSymbolTableRecord
100
AcDbLayerTableRecord
  2
5
 70
     0
 62
     7
  6
Continuous
370
    -3
390
F
  0
ENDTAB
  0
TABLE
  2
STYLE
  5
3
330
0
100
AcDbSymbolTable
 70
     1
  0
STYLE
  5
11
330
3
100
AcDbSymbolTableRecord
100
AcDbTextStyleTableRecord
  2
Standard
 70
     0
 40
0.0
 41
1.0
 50
0.0
 71
     0
 42
0.2
  3
txt
  4

  0
ENDTAB
  0
TABLE
  2
VIEW
  5
6
330
0
100
AcDbSymbolTable
 70
     0
  0
ENDTAB
  0
TABLE
  2
UCS
  5
7
330
0
100
AcDbSymbolTable
 70
     0
  0
ENDTAB
  0
TABLE
  2
APPID
  5
9
330
0
100
AcDbSymbolTable
 70
     1
  0
APPID
  5
12
330
9
100
AcDbSymbolTableRecord
100
AcDbRegAppTableRecord
  2
ACAD
 70
     0
  0
ENDTAB
  0
TABLE
  2
DIMSTYLE
  5
A
330
0
100
AcDbSymbolTable
 70
     1
100
AcDbDimStyleTable
  0
DIMSTYLE
105
27
330
A
100
AcDbSymbolTableRecord
100
AcDbDimStyleTableRecord
  2
Standard
 70
     0
340
11
  0
ENDTAB
  0
TABLE
  2
BLOCK_RECORD
  5
1
330
0
100
AcDbSymbolTable
 70
     1
  0
BLOCK_RECORD
  5
1F
330
1
100
AcDbSymbolTableRecord
100
AcDbBlockTableRecord
  2
*Model_Space
340
22
  0
BLOCK_RECORD
  5
1B
330
1
100
AcDbSymbolTableRecord
100
AcDbBlockTableRecord
  2
*Paper_Space
340
1E
  0
BLOCK_RECORD
  5
23
330
1
100
AcDbSymbolTableRecord
100
AcDbBlockTableRecord
  2
*Paper_Space0
340
26
  0
ENDTAB
  0
ENDSEC
  0
SECTION
  2
BLOCKS
  0
BLOCK
  5
20
330
1F
100
AcDbEntity
  8
0
100
AcDbBlockBegin
  2
*Model_Space
 70
     0
 10
0.0
 20
0.0
 30
0.0
  3
*Model_Space
  1

  0
ENDBLK
  5
21
330
1F
100
AcDbEntity
  8
0
100
AcDbBlockEnd
  0
BLOCK
  5
1C
330
1B
100
AcDbEntity
 67
     1
  8
0
100
AcDbBlockBegin
  2
*Paper_Space
 70
     0
 10
0.0
 20
0.0
 30
0.0
  3
*Paper_Space
  1

  0
ENDBLK
  5
1D
330
1B
100
AcDbEntity
 67
     1
  8
0
100
AcDbBlockEnd
  0
BLOCK
  5
24
330
23
100
AcDbEntity
  8
0
100
AcDbBlockBegin
  2
*Paper_Space0
 70
     0
 10
0.0
 20
0.0
 30
0.0
  3
*Paper_Space0
  1

  0
ENDBLK
  5
25
330
23
100
AcDbEntity
  8
0
100
AcDbBlockEnd
  0
ENDSEC
  0
SECTION
  2
ENTITIES
  0
POINT
  5
4B
330
1F
100
AcDbEntity
  8
1
 62
     3
 60
     1
100
AcDbPoint
 10
124.066173032852
 20
321.035169411902
 30
0.0
  0
POINT
  5
4C
330
1F
100
AcDbEntity
  8
1
 62
     3
 60
     1
100
AcDbPoint
 10
132.066173032852
 20
321.035169411902
 30
0.0
  0
POINT
  5
4D
330
1F
100
AcDbEntity
  8
1
 62
     3
 60
     1
100
AcDbPoint
 10
128.271944398792
 20
288.035169411902
 30
0.0
  0
POINT
  5
4E
330
1F
100
AcDbEntity
  8
1
 62
     3
 60
     1
100
AcDbPoint
 10
120.066173032852
 20
331.035169411902
 30
0.0
  0
POINT
  5
4F
330
1F
100
AcDbEntity
  8
1
 62
     3
100
AcDbPoint
 10
141.837303892684
 20
-113.793969110889
 30
0.0
  0
POINT
  5
50
330
1F
100
AcDbEntity
  8
1
 62
     3
100
AcDbPoint
 10
141.837303892684
 20
-123.293969110889
 30
0.0
  0
POINT
  5
51
330
1F
100
AcDbEntity
  8
1
 62
     3
 60
     1
100
AcDbPoint
 10
132.566173032852
 20
128.956015630324
 30
0.0
  0
POINT
  5
52
330
1F
100
AcDbEntity
  8
1
 62
     3
 60
     1
100
AcDbPoint
 10
123.930673032852
 20
-60.9688055055205
 30
0.0
  0
POINT
  5
53
330
1F
100
AcDbEntity
  8
1
 62
     3
 60
     1
100
AcDbPoint
 10
126.040568532571
 20
-14.5648305880975
 30
0.0
  0
POINT
  5
54
330
1F
100
AcDbEntity
  8
1
 62
     3
 60
     1
100
AcDbPoint
 10
130.091777533134
 20
-14.5648305880975
 30
0.0
  0
POINT
  5
55
330
1F
100
AcDbEntity
  8
1
 62
     3
 60
     1
100
AcDbPoint
 10
132.201673032852
 20
-60.9688055055205
 30
0.0
  0
POINT
  5
56
330
1F
100
AcDbEntity
  8
1
 62
     3
 60
     1
100
AcDbPoint
 10
123.566173032852
 20
128.956015630323
 30
0.0
  0
LINE
  5
57
330
1F
100
AcDbEntity
  8
1
  6
Continuous
 62
     4
100
AcDbLine
 10
273.096677298969
 20
473.951937384102
 30
0.0
 11
269.346677298969
 21
473.951937384102
 31
0.0
  0
LINE
  5
58
330
1F
100
AcDbEntity
  8
1
  6
Continuous
 62
     4
100
AcDbLine
 10
273.846677298969
 20
474.201937384102
 30
0.0
 11
273.096677298969
 21
473.951937384102
 31
0.0
  0
LINE
  5
59
330
1F
100
AcDbEntity
  8
1
  6
Continuous
 62
     4
100
AcDbLine
 10
274.596677298969
 20
474.701937384102
 30
0.0
 11
273.846677298969
 21
474.201937384102
 31
0.0
  0
LINE
  5
5A
330
1F
100
AcDbEntity
  8
1
  6
Continuous
 62
     4
100
AcDbLine
 10
275.096677298969
 20
475.451937384102
 30
0.0
 11
274.596677298969
 21
474.701937384102
 31
0.0
  0
LINE
  5
5B
330
1F
100
AcDbEntity
  8
1
  6
Continuous
 62
     4
100
AcDbLine
 10
275.346677298969
 20
476.451937384102
 30
0.0
 11
275.096677298969
 21
475.451937384102
 31
0.0
  0
LINE
  5
5C
330
1F
100
AcDbEntity
  8
1
  6
Continuous
 62
     4
100
AcDbLine
 10
275.346677298969
 20
477.951937384102
 30
0.0
 11
275.346677298969
 21
476.451937384102
 31
0.0
  0
LINE
  5
5D
330
1F
100
AcDbEntity
  8
1
  6
Continuous
 62
     4
100
AcDbLine
 10
275.096677298969
 20
478.951937384102
 30
0.0
 11
275.346677298969
 21
477.951937384102
 31
0.0
  0
LINE
  5
5E
330
1F
100
AcDbEntity
  8
1
  6
Continuous
 62
     4
100
AcDbLine
 10
274.346677298969
 20
479.701937384102
 30
0.0
 11
275.096677298969
 21
478.951937384102
 31
0.0
  0
LINE
  5
5F
330
1F
100
AcDbEntity
  8
1
  6
Continuous
 62
     4
100
AcDbLine
 10
273.096677298969
 20
479.951937384102
 30
0.0
 11
274.346677298969
 21
479.701937384102
 31
0.0
  0
LINE
  5
60
330
1F
100
AcDbEntity
  8
1
  6
Continuous
 62
     4
100
AcDbLine
 10
269.346677298969
 20
479.951937384102
 30
0.0
 11
273.096677298969
 21
479.951937384102
 31
0.0
  0
LINE
  5
61
330
1F
100
AcDbEntity
  8
1
  6
Continuous
 62
     4
100
AcDbLine
 10
269.346677298969
 20
483.951937384102
 30
0.0
 11
269.346677298969
 21
479.951937384102
 31
0.0
  0
LINE
  5
62
330
1F
100
AcDbEntity
  8
1
  6
Continuous
 62
     4
100
AcDbLine
 10
274.846677298969
 20
483.951937384102
 30
0.0
 11
269.346677298969
 21
483.951937384102
 31
0.0
  0
LINE
  5
63
330
1F
100
AcDbEntity
  8
1
  6
Continuous
 62
     4
100
AcDbLine
 10
264.096677298969
 20
473.951937384102
 30
0.0
 11
260.346677298969
 21
473.951937384102
 31
0.0
  0
LINE
  5
64
330
1F
100
AcDbEntity
  8
1
  6
Continuous
 62
     4
100
AcDbLine
 10
264.846677298969
 20
474.201937384102
 30
0.0
 11
264.096677298969
 21
473.951937384102
 31
0.0
  0
LINE
  5
65
330
1F
100
AcDbEntity
  8
1
  6
Continuous
 62
     4
100
AcDbLine
 10
265.596677298969
 20
474.701937384102
 30
0.0
 11
264.846677298969
 21
474.201937384102
 31
0.0
  0
LINE
  5
66
330
1F
100
AcDbEntity
  8
1
  6
Continuous
 62
     4
100
AcDbLine
 10
266.096677298969
 20
475.451937384102
 30
0.0
 11
265.596677298969
 21
474.701937384102
 31
0.0
  0
LINE
  5
67
330
1F
100
AcDbEntity
  8
1
  6
Continuous
 62
     4
100
AcDbLine
 10
266.346677298969
 20
476.451937384102
 30
0.0
 11
266.096677298969
 21
475.451937384102
 31
0.0
  0
LINE
  5
68
330
1F
100
AcDbEntity
  8
1
  6
Continuous
 62
     4
100
AcDbLine
 10
266.346677298969
 20
477.701937384102
 30
0.0
 11
266.346677298969
 21
476.451937384102
 31
0.0
  0
LINE
  5
69
330
1F
100
AcDbEntity
  8
1
  6
Continuous
 62
     4
100
AcDbLine
 10
266.096677298969
 20
478.701937384102
 30
0.0
 11
266.346677298969
 21
477.701937384102
 31
0.0
  0
LINE
  5
6A
330
1F
100
AcDbEntity
  8
1
  6
Continuous
 62
     4
100
AcDbLine
 10
265.846677298969
 20
479.201937384102
 30
0.0
 11
266.096677298969
 21
478.701937384102
 31
0.0
  0
LINE
  5
6B
330
1F
100
AcDbEntity
  8
1
  6
Continuous
 62
     4
100
AcDbLine
 10
265.346677298969
 20
479.701937384102
 30
0.0
 11
265.846677298969
 21
479.201937384102
 31
0.0
  0
LINE
  5
6C
330
1F
100
AcDbEntity
  8
1
  6
Continuous
 62
     4
100
AcDbLine
 10
264.346677298969
 20
479.951937384102
 30
0.0
 11
265.346677298969
 21
479.701937384102
 31
0.0
  0
LINE
  5
6D
330
1F
100
AcDbEntity
  8
1
  6
Continuous
 62
     4
100
AcDbLine
 10
265.096677298969
 20
480.201937384102
 30
0.0
 11
264.346677298969
 21
479.951937384102
 31
0.0
  0
LINE
  5
6E
330
1F
100
AcDbEntity
  8
1
  6
Continuous
 62
     4
100
AcDbLine
 10
265.596677298969
 20
480.451937384102
 30
0.0
 11
265.096677298969
 21
480.201937384102
 31
0.0
  0
LINE
  5
6F
330
1F
100
AcDbEntity
  8
1
  6
Continuous
 62
     4
100
AcDbLine
 10
266.096677298969
 20
480.951937384102
 30
0.0
 11
265.596677298969
 21
480.451937384102
 31
0.0
  0
LINE
  5
70
330
1F
100
AcDbEntity
  8
1
  6
Continuous
 62
     4
100
AcDbLine
 10
266.346677298969
 20
481.701937384102
 30
0.0
 11
266.096677298969
 21
480.951937384102
 31
0.0
  0
LINE
  5
71
330
1F
100
AcDbEntity
  8
1
  6
Continuous
 62
     4
100
AcDbLine
 10
266.346677298969
 20
482.451937384102
 30
0.0
 11
266.346677298969
 21
481.701937384102
 31
0.0
  0
LINE
  5
72
330
1F
100
AcDbEntity
  8
1
  6
Continuous
 62
     4
100
AcDbLine
 10
266.096677298969
 20
483.201937384102
 30
0.0
 11
266.346677298969
 21
482.451937384102
 31
0.0
  0
LINE
  5
73
330
1F
100
AcDbEntity
  8
1
  6
Continuous
 62
     4
100
AcDbLine
 10
265.346677298969
 20
483.701937384102
 30
0.0
 11
266.096677298969
 21
483.201937384102
 31
0.0
  0
LINE
  5
74
330
1F
100
AcDbEntity
  8
1
  6
Continuous
 62
     4
100
AcDbLine
 10
264.096677298969
 20
483.951937384102
 30
0.0
 11
265.346677298969
 21
483.701937384102
 31
0.0
  0
LINE
  5
75
330
1F
100
AcDbEntity
  8
1
  6
Continuous
 62
     4
100
AcDbLine
 10
260.346677298969
 20
483.951937384102
 30
0.0
 11
264.096677298969
 21
483.951937384102
 31
0.0
  0
LINE
  5
76
330
1F
100
AcDbEntity
  8
1
  6
Continuous
 62
     4
100
AcDbLine
 10
261.846677298969
 20
479.951937384102
 30
0.0
 11
264.346677298969
 21
479.951937384102
 31
0.0
  0
LINE
  5
77
330
1F
100
AcDbEntity
  8
1
  6
Continuous
 62
     4
100
AcDbLine
 10
255.346677298969
 20
473.951937384102
 30
0.0
 11
253.346677298969
 21
473.951937384102
 31
0.0
  0
LINE
  5
78
330
1F
100
AcDbEntity
  8
1
  6
Continuous
 62
     4
100
AcDbLine
 10
256.096677298969
 20
474.201937384102
 30
0.0
 11
255.346677298969
 21
473.951937384102
 31
0.0
  0
LINE
  5
79
330
1F
100
AcDbEntity
  8
1
  6
Continuous
 62
     4
100
AcDbLine
 10
256.846677298969
 20
474.701937384102
 30
0.0
 11
256.096677298969
 21
474.201937384102
 31
0.0
  0
LINE
  5
7A
330
1F
100
AcDbEntity
  8
1
  6
Continuous
 62
     4
100
AcDbLine
 10
257.346677298969
 20
475.701937384102
 30
0.0
 11
256.846677298969
 21
474.701937384102
 31
0.0
  0
LINE
  5
7B
330
1F
100
AcDbEntity
  8
1
  6
Continuous
 62
     4
100
AcDbLine
 10
257.346677298969
 20
483.951937384102
 30
0.0
 11
257.346677298969
 21
475.701937384102
 31
0.0
  0
LINE
  5
7C
330
1F
100
AcDbEntity
  8
1
  6
Continuous
 62
     4
100
AcDbLine
 10
245.346677298969
 20
477.451937384102
 30
0.0
 11
250.346677298969
 21
477.451937384102
 31
0.0
  0
LINE
  5
7D
330
1F
100
AcDbEntity
  8
1
  6
Continuous
 62
     4
100
AcDbLine
 10
235.346677298969
 20
476.951937384102
 30
0.0
 11
235.346677298969
 21
483.951937384102
 31
0.0
  0
LINE
  5
7E
330
1F
100
AcDbEntity
  8
1
  6
Continuous
 62
     4
100
AcDbLine
 10
235.596677298969
 20
475.951937384102
 30
0.0
 11
235.346677298969
 21
476.951937384102
 31
0.0
  0
LINE
  5
7F
330
1F
100
AcDbEntity
  8
1
  6
Continuous
 62
     4
100
AcDbLine
 10
236.096677298969
 20
475.201937384102
 30
0.0
 11
235.596677298969
 21
475.951937384102
 31
0.0
  0
LINE
  5
80
330
1F
100
AcDbEntity
  8
1
  6
Continuous
 62
     4
100
AcDbLine
 10
236.596677298969
 20
474.701937384102
 30
0.0
 11
236.096677298969
 21
475.201937384102
 31
0.0
  0
LINE
  5
81
330
1F
100
AcDbEntity
  8
1
  6
Continuous
 62
     4
100
AcDbLine
 10
237.346677298969
 20
474.201937384102
 30
0.0
 11
236.596677298969
 21
474.701937384102
 31
0.0
  0
LINE
  5
82
330
1F
100
AcDbEntity
  8
1
  6
Continuous
 62
     4
100
AcDbLine
 10
238.096677298969
 20
473.951937384102
 30
0.0
 11
237.346677298969
 21
474.201937384102
 31
0.0
  0
LINE
  5
83
330
1F
100
AcDbEntity
  8
1
  6
Continuous
 62
     4
100
AcDbLine
 10
239.596677298969
 20
473.951937384102
 30
0.0
 11
238.096677298969
 21
473.951937384102
 31
0.0
  0
LINE
  5
84
330
1F
100
AcDbEntity
  8
1
  6
Continuous
 62
     4
100
AcDbLine
 10
240.346677298969
 20
474.201937384102
 30
0.0
 11
239.596677298969
 21
473.951937384102
 31
0.0
  0
LINE
  5
85
330
1F
100
AcDbEntity
  8
1
  6
Continuous
 62
     4
100
AcDbLine
 10
241.096677298969
 20
474.701937384102
 30
0.0
 11
240.346677298969
 21
474.201937384102
 31
0.0
  0
LINE
  5
86
330
1F
100
AcDbEntity
  8
1
  6
Continuous
 62
     4
100
AcDbLine
 10
241.596677298969
 20
475.201937384102
 30
0.0
 11
241.096677298969
 21
474.701937384102
 31
0.0
  0
LINE
  5
87
330
1F
100
AcDbEntity
  8
1
  6
Continuous
 62
     4
100
AcDbLine
 10
242.096677298969
 20
475.951937384102
 30
0.0
 11
241.596677298969
 21
475.201937384102
 31
0.0
  0
LINE
  5
88
330
1F
100
AcDbEntity
  8
1
  6
Continuous
 62
     4
100
AcDbLine
 10
242.346677298969
 20
476.951937384102
 30
0.0
 11
242.096677298969
 21
475.951937384102
 31
0.0
  0
LINE
  5
89
330
1F
100
AcDbEntity
  8
1
  6
Continuous
 62
     4
100
AcDbLine
 10
242.346677298969
 20
483.951937384102
 30
0.0
 11
242.346677298969
 21
476.951937384102
 31
0.0
  0
LINE
  5
98
330
1F
100
AcDbEntity
  8
1
  6
DOT_CENTER
 62
     1
100
AcDbLine
 10
128.066173032852
 20
530.198261628032
 30
0.0
 11
128.066173032852
 21
403.198261628032
 31
0.0
  0
LINE
  5
99
330
1F
100
AcDbEntity
  8
1
  6
Continuous
 62
     3
100
AcDbLine
 10
121.966173032852
 20
285.435169411903
 30
0.0
 11
134.166173032852
 21
-14.5648305880974
 31
0.0
  0
LINE
  5
9A
330
1F
100
AcDbEntity
  8
1
  6
Continuous
 62
     3
100
AcDbLine
 10
134.166173032852
 20
285.435169411903
 30
0.0
 11
121.966173032852
 21
-14.5648305880975
 31
0.0
  0
LINE
  5
9B
330
1F
100
AcDbEntity
  8
2
  6
Continuous
 62
     3
100
AcDbLine
 10
134.166173032852
 20
285.435169411903
 30
0.0
 11
134.166173032852
 21
-14.5648305880974
 31
0.0
  0
LINE
  5
9C
330
1F
100
AcDbEntity
  8
1
  6
Continuous
 62
     3
100
AcDbLine
 10
136.066173032852
 20
331.035169411902
 30
0.0
 11
120.066173032852
 21
331.035169411902
 31
0.0
  0
LINE
  5
9D
330
1F
100
AcDbEntity
  8
5
  6
DOT_CENTER
 62
     1
100
AcDbLine
 10
124.066173032853
 20
-66.0439843696765
 30
0.0
 11
132.066173032852
 21
-66.0439843696765
 31
0.0
  0
LINE
  5
9E
330
1F
100
AcDbEntity
  8
1
  6
Continuous
 62
     3
100
AcDbLine
 10
86.4659597176852
 20
348.760040542501
 30
0.0
 11
85.0659597176852
 21
343.535169411904
 31
0.0
  0
LINE
  5
9F
330
1F
100
AcDbEntity
  8
1
  6
Continuous
 62
     3
100
AcDbLine
 10
83.6659597176852
 20
348.760040542501
 30
0.0
 11
85.0659597176852
 21
343.535169411904
 31
0.0
  0
LINE
  5
A0
330
1F
100
AcDbEntity
  8
1
  6
Continuous
 62
     3
100
AcDbLine
 10
83.6659597176852
 20
348.760040542501
 30
0.0
 11
83.6659597176852
 21
354.235169411904
 31
0.0
  0
LINE
  5
A1
330
1F
100
AcDbEntity
  8
1
  6
Continuous
 62
     3
100
AcDbLine
 10
86.4659597176852
 20
348.760040542501
 30
0.0
 11
86.4659597176852
 21
354.235169411904
 31
0.0
  0
LINE
  5
A2
330
1F
100
AcDbEntity
  8
1
  6
Continuous
 62
     3
100
AcDbLine
 10
85.8133211683077
 20
344.392508664667
 30
0.0
 11
84.3984137014041
 21
344.094633408477
 31
0.0
  0
LINE
  5
A3
330
1F
100
AcDbEntity
  8
1
  6
Continuous
 62
     3
100
AcDbLine
 10
86.2676698470502
 20
346.088161018086
 30
0.0
 11
83.9925877784262
 21
345.60919637206
 31
0.0
  0
LINE
  5
A4
330
1F
100
AcDbEntity
  8
1
  6
Continuous
 62
     3
100
AcDbLine
 10
86.7220185257927
 20
347.783813371506
 30
0.0
 11
83.5867618554477
 21
347.123759335644
 31
0.0
  0
LINE
  5
A5
330
1F
100
AcDbEntity
  8
1
  6
Continuous
 62
     3
100
AcDbLine
 10
86.9659597176852
 20
349.435169411904
 30
0.0
 11
83.1659597176852
 21
348.635169411904
 31
0.0
  0
LINE
  5
A6
330
1F
100
AcDbEntity
  8
1
  6
Continuous
 62
     3
100
AcDbLine
 10
86.9659597176852
 20
351.035169411904
 30
0.0
 11
83.1659597176852
 21
350.235169411904
 31
0.0
  0
LINE
  5
A7
330
1F
100
AcDbEntity
  8
1
  6
Continuous
 62
     3
100
AcDbLine
 10
86.9659597176852
 20
352.635169411904
 30
0.0
 11
83.1659597176852
 21
351.835169411904
 31
0.0
  0
LINE
  5
A8
330
1F
100
AcDbEntity
  8
1
  6
Continuous
 62
     3
100
AcDbLine
 10
86.9659597176852
 20
354.235169411904
 30
0.0
 11
83.1659597176852
 21
353.435169411904
 31
0.0
  0
LINE
  5
A9
330
1F
100
AcDbEntity
  8
1
  6
Continuous
 62
     3
100
AcDbLine
 10
86.9659597176852
 20
354.235169411904
 30
0.0
 11
83.1659597176852
 21
354.235169411904
 31
0.0
  0
LINE
  5
AA
330
1F
100
AcDbEntity
  8
1
  6
Continuous
 62
     3
100
AcDbLine
 10
83.1659597176852
 20
354.235169411904
 30
0.0
 11
83.1659597176852
 21
356.047986481603
 31
0.0
  0
LINE
  5
AB
330
1F
100
AcDbEntity
  8
1
  6
Continuous
 62
     3
100
AcDbLine
 10
86.9659597176852
 20
354.235169411904
 30
0.0
 11
86.9659597176852
 21
356.047986481603
 31
0.0
  0
LINE
  5
AC
330
1F
100
AcDbEntity
  8
1
  6
Continuous
 62
     3
100
AcDbLine
 10
83.5663863480197
 20
467.034949907623
 30
0.0
 11
82.8163863480197
 21
467.034949907623
 31
0.0
  0
LINE
  5
AD
330
1F
100
AcDbEntity
  8
1
  6
Continuous
 62
     3
100
AcDbLine
 10
87.3163863480197
 20
467.034949907623
 30
0.0
 11
86.5663863480197
 21
467.034949907623
 31
0.0
  0
LINE
  5
AE
330
1F
100
AcDbEntity
  8
1
  6
Continuous
 62
     3
100
AcDbLine
 10
83.5663863480197
 20
466.034949907623
 30
0.0
 11
82.8163863480197
 21
466.034949907623
 31
0.0
  0
LINE
  5
AF
330
1F
100
AcDbEntity
  8
1
  6
Continuous
 62
     3
100
AcDbLine
 10
87.3163863480197
 20
466.034949907623
 30
0.0
 11
86.5663863480197
 21
466.034949907623
 31
0.0
  0
LINE
  5
B0
330
1F
100
AcDbEntity
  8
1
  6
Continuous
 62
     3
100
AcDbLine
 10
84.5663863480197
 20
465.034949907623
 30
0.0
 11
84.5663863480197
 21
464.284949907623
 31
0.0
  0
LINE
  5
B1
330
1F
100
AcDbEntity
  8
1
  6
Continuous
 62
     3
100
AcDbLine
 10
84.5663863480197
 20
468.784949907623
 30
0.0
 11
84.5663863480197
 21
468.034949907623
 31
0.0
  0
LINE
  5
B2
330
1F
100
AcDbEntity
  8
1
  6
Continuous
 62
     3
100
AcDbLine
 10
85.5663863480197
 20
465.034949907623
 30
0.0
 11
85.5663863480197
 21
464.284949907623
 31
0.0
  0
LINE
  5
B3
330
1F
100
AcDbEntity
  8
1
  6
Continuous
 62
     3
100
AcDbLine
 10
85.5663863480197
 20
468.784949907623
 30
0.0
 11
85.5663863480197
 21
468.034949907623
 31
0.0
  0
LINE
  5
B4
330
1F
100
AcDbEntity
  8
1
  6
Continuous
 62
     3
100
AcDbLine
 10
85.5663863480197
 20
464.284949907623
 30
0.0
 11
84.5663863480197
 21
464.284949907623
 31
0.0
  0
LINE
  5
B5
330
1F
100
AcDbEntity
  8
1
  6
Continuous
 62
     3
100
AcDbLine
 10
85.5663863480197
 20
468.784949907623
 30
0.0
 11
84.5663863480197
 21
468.784949907623
 31
0.0
  0
LINE
  5
B6
330
1F
100
AcDbEntity
  8
1
  6
Continuous
 62
     3
100
AcDbLine
 10
82.8163863480197
 20
467.034949907623
 30
0.0
 11
82.8163863480197
 21
466.034949907623
 31
0.0
  0
LINE
  5
B7
330
1F
100
AcDbEntity
  8
1
  6
Continuous
 62
     3
100
AcDbLine
 10
87.3163863480197
 20
467.034949907623
 30
0.0
 11
87.3163863480197
 21
466.034949907623
 31
0.0
  0
LINE
  5
B8
330
1F
100
AcDbEntity
  8
1
  6
Continuous
 62
     3
100
AcDbLine
 10
127.56638634802
 20
425.784949907623
 30
0.0
 11
128.56638634802
 21
425.784949907623
 31
0.0
  0
LINE
  5
B9
330
1F
100
AcDbEntity
  8
1
  6
Continuous
 62
     3
100
AcDbLine
 10
127.56638634802
 20
421.284949907623
 30
0.0
 11
128.56638634802
 21
421.284949907623
 31
0.0
  0
LINE
  5
BA
330
1F
100
AcDbEntity
  8
1
  6
Continuous
 62
     3
100
AcDbLine
 10
125.81638634802
 20
424.034949907623
 30
0.0
 11
125.81638634802
 21
423.034949907623
 31
0.0
  0
LINE
  5
BB
330
1F
100
AcDbEntity
  8
1
  6
Continuous
 62
     3
100
AcDbLine
 10
130.31638634802
 20
424.034949907623
 30
0.0
 11
130.31638634802
 21
423.034949907623
 31
0.0
  0
LINE
  5
BC
330
1F
100
AcDbEntity
  8
1
  6
Continuous
 62
     3
100
AcDbLine
 10
125.81638634802
 20
424.034949907623
 30
0.0
 11
126.56638634802
 21
424.034949907623
 31
0.0
  0
LINE
  5
BD
330
1F
100
AcDbEntity
  8
1
  6
Continuous
 62
     3
100
AcDbLine
 10
129.56638634802
 20
424.034949907623
 30
0.0
 11
130.31638634802
 21
424.034949907623
 31
0.0
  0
LINE
  5
BE
330
1F
100
AcDbEntity
  8
1
  6
Continuous
 62
     3
100
AcDbLine
 10
125.81638634802
 20
423.034949907623
 30
0.0
 11
126.56638634802
 21
423.034949907623
 31
0.0
  0
LINE
  5
BF
330
1F
100
AcDbEntity
  8
1
  6
Continuous
 62
     3
100
AcDbLine
 10
129.56638634802
 20
423.034949907623
 30
0.0
 11
130.31638634802
 21
423.034949907623
 31
0.0
  0
LINE
  5
C0
330
1F
100
AcDbEntity
  8
1
  6
Continuous
 62
     3
100
AcDbLine
 10
128.56638634802
 20
425.784949907623
 30
0.0
 11
128.56638634802
 21
425.034949907623
 31
0.0
  0
LINE
  5
C1
330
1F
100
AcDbEntity
  8
1
  6
Continuous
 62
     3
100
AcDbLine
 10
128.56638634802
 20
422.034949907623
 30
0.0
 11
128.56638634802
 21
421.284949907623
 31
0.0
  0
LINE
  5
C2
330
1F
100
AcDbEntity
  8
1
  6
Continuous
 62
     3
100
AcDbLine
 10
127.56638634802
 20
425.784949907623
 30
0.0
 11
127.56638634802
 21
425.034949907623
 31
0.0
  0
LINE
  5
C3
330
1F
100
AcDbEntity
  8
1
  6
Continuous
 62
     3
100
AcDbLine
 10
127.56638634802
 20
422.034949907623
 30
0.0
 11
127.56638634802
 21
421.284949907623
 31
0.0
  0
LINE
  5
C4
330
1F
100
AcDbEntity
  8
1
  6
Continuous
 62
     3
100
AcDbLine
 10
168.81638634802
 20
466.034949907623
 30
0.0
 11
168.81638634802
 21
467.034949907623
 31
0.0
  0
LINE
  5
C5
330
1F
100
AcDbEntity
  8
1
  6
Continuous
 62
     3
100
AcDbLine
 10
173.31638634802
 20
466.034949907623
 30
0.0
 11
173.31638634802
 21
467.034949907623
 31
0.0
  0
LINE
  5
C6
330
1F
100
AcDbEntity
  8
1
  6
Continuous
 62
     3
100
AcDbLine
 10
170.56638634802
 20
464.284949907623
 30
0.0
 11
171.56638634802
 21
464.284949907623
 31
0.0
  0
LINE
  5
C7
330
1F
100
AcDbEntity
  8
1
  6
Continuous
 62
     3
100
AcDbLine
 10
170.56638634802
 20
468.784949907623
 30
0.0
 11
171.56638634802
 21
468.784949907623
 31
0.0
  0
LINE
  5
C8
330
1F
100
AcDbEntity
  8
1
  6
Continuous
 62
     3
100
AcDbLine
 10
170.56638634802
 20
464.284949907623
 30
0.0
 11
170.56638634802
 21
465.034949907623
 31
0.0
  0
LINE
  5
C9
330
1F
100
AcDbEntity
  8
1
  6
Continuous
 62
     3
100
AcDbLine
 10
170.56638634802
 20
468.034949907623
 30
0.0
 11
170.56638634802
 21
468.784949907623
 31
0.0
  0
LINE
  5
CA
330
1F
100
AcDbEntity
  8
1
  6
Continuous
 62
     3
100
AcDbLine
 10
171.56638634802
 20
464.284949907623
 30
0.0
 11
171.56638634802
 21
465.034949907623
 31
0.0
  0
LINE
  5
CB
330
1F
100
AcDbEntity
  8
1
  6
Continuous
 62
     3
100
AcDbLine
 10
171.56638634802
 20
468.034949907623
 30
0.0
 11
171.56638634802
 21
468.784949907623
 31
0.0
  0
LINE
  5
CC
330
1F
100
AcDbEntity
  8
1
  6
Continuous
 62
     3
100
AcDbLine
 10
168.81638634802
 20
467.034949907623
 30
0.0
 11
169.56638634802
 21
467.034949907623
 31
0.0
  0
LINE
  5
CD
330
1F
100
AcDbEntity
  8
1
  6
Continuous
 62
     3
100
AcDbLine
 10
172.56638634802
 20
467.034949907623
 30
0.0
 11
173.31638634802
 21
467.034949907623
 31
0.0
  0
LINE
  5
CE
330
1F
100
AcDbEntity
  8
1
  6
Continuous
 62
     3
100
AcDbLine
 10
168.81638634802
 20
466.034949907623
 30
0.0
 11
169.56638634802
 21
466.034949907623
 31
0.0
  0
LINE
  5
CF
330
1F
100
AcDbEntity
  8
1
  6
Continuous
 62
     3
100
AcDbLine
 10
172.56638634802
 20
466.034949907623
 30
0.0
 11
173.31638634802
 21
466.034949907623
 31
0.0
  0
LINE
  5
D0
330
1F
100
AcDbEntity
  8
1
  6
Continuous
 62
     3
100
AcDbLine
 10
128.56638634802
 20
507.284949907623
 30
0.0
 11
127.56638634802
 21
507.284949907623
 31
0.0
  0
LINE
  5
D1
330
1F
100
AcDbEntity
  8
1
  6
Continuous
 62
     3
100
AcDbLine
 10
128.56638634802
 20
511.784949907623
 30
0.0
 11
127.56638634802
 21
511.784949907623
 31
0.0
  0
LINE
  5
D2
330
1F
100
AcDbEntity
  8
1
  6
Continuous
 62
     3
100
AcDbLine
 10
130.31638634802
 20
509.034949907623
 30
0.0
 11
130.31638634802
 21
510.034949907623
 31
0.0
  0
LINE
  5
D3
330
1F
100
AcDbEntity
  8
1
  6
Continuous
 62
     3
100
AcDbLine
 10
125.81638634802
 20
509.034949907623
 30
0.0
 11
125.81638634802
 21
510.034949907623
 31
0.0
  0
LINE
  5
D4
330
1F
100
AcDbEntity
  8
1
  6
Continuous
 62
     3
100
AcDbLine
 10
130.31638634802
 20
509.034949907623
 30
0.0
 11
129.56638634802
 21
509.034949907623
 31
0.0
  0
LINE
  5
D5
330
1F
100
AcDbEntity
  8
1
  6
Continuous
 62
     3
100
AcDbLine
 10
126.56638634802
 20
509.034949907623
 30
0.0
 11
125.81638634802
 21
509.034949907623
 31
0.0
  0
LINE
  5
D6
330
1F
100
AcDbEntity
  8
1
  6
Continuous
 62
     3
100
AcDbLine
 10
130.31638634802
 20
510.034949907623
 30
0.0
 11
129.56638634802
 21
510.034949907623
 31
0.0
  0
LINE
  5
D7
330
1F
100
AcDbEntity
  8
1
  6
Continuous
 62
     3
100
AcDbLine
 10
126.56638634802
 20
510.034949907623
 30
0.0
 11
125.81638634802
 21
510.034949907623
 31
0.0
  0
LINE
  5
D8
330
1F
100
AcDbEntity
  8
1
  6
Continuous
 62
     3
100
AcDbLine
 10
127.56638634802
 20
507.284949907623
 30
0.0
 11
127.56638634802
 21
508.034949907623
 31
0.0
  0
LINE
  5
D9
330
1F
100
AcDbEntity
  8
1
  6
Continuous
 62
     3
100
AcDbLine
 10
127.56638634802
 20
511.034949907623
 30
0.0
 11
127.56638634802
 21
511.784949907623
 31
0.0
  0
LINE
  5
DA
330
1F
100
AcDbEntity
  8
1
  6
Continuous
 62
     3
100
AcDbLine
 10
128.56638634802
 20
507.284949907623
 30
0.0
 11
128.56638634802
 21
508.034949907623
 31
0.0
  0
LINE
  5
DB
330
1F
100
AcDbEntity
  8
1
  6
Continuous
 62
     3
100
AcDbLine
 10
128.56638634802
 20
511.034949907623
 30
0.0
 11
128.56638634802
 21
511.784949907623
 31
0.0
  0
LINE
  5
DC
330
1F
100
AcDbEntity
  8
1
  6
Continuous
 62
     3
100
AcDbLine
 10
169.16638634802
 20
356.047986481603
 30
0.0
 11
169.16638634802
 21
354.235169411904
 31
0.0
  0
LINE
  5
DD
330
1F
100
AcDbEntity
  8
1
  6
Continuous
 62
     3
100
AcDbLine
 10
172.96638634802
 20
356.047986481603
 30
0.0
 11
172.96638634802
 21
354.235169411904
 31
0.0
  0
LINE
  5
DE
330
1F
100
AcDbEntity
  8
1
  6
Continuous
 62
     3
100
AcDbLine
 10
172.96638634802
 20
354.235169411904
 30
0.0
 11
169.16638634802
 21
354.235169411904
 31
0.0
  0
LINE
  5
DF
330
1F
100
AcDbEntity
  8
1
  6
Continuous
 62
     3
100
AcDbLine
 10
172.96638634802
 20
353.435169411904
 30
0.0
 11
169.16638634802
 21
354.235169411904
 31
0.0
  0
LINE
  5
E0
330
1F
100
AcDbEntity
  8
1
  6
Continuous
 62
     3
100
AcDbLine
 10
172.96638634802
 20
351.835169411904
 30
0.0
 11
169.16638634802
 21
352.635169411904
 31
0.0
  0
LINE
  5
E1
330
1F
100
AcDbEntity
  8
1
  6
Continuous
 62
     3
100
AcDbLine
 10
172.96638634802
 20
350.235169411904
 30
0.0
 11
169.16638634802
 21
351.035169411904
 31
0.0
  0
LINE
  5
E2
330
1F
100
AcDbEntity
  8
1
  6
Continuous
 62
     3
100
AcDbLine
 10
172.96638634802
 20
348.635169411904
 30
0.0
 11
169.16638634802
 21
349.435169411904
 31
0.0
  0
LINE
  5
E3
330
1F
100
AcDbEntity
  8
1
  6
Continuous
 62
     3
100
AcDbLine
 10
172.545584210257
 20
347.123759335644
 30
0.0
 11
169.410327539912
 21
347.783813371506
 31
0.0
  0
LINE
  5
E4
330
1F
100
AcDbEntity
  8
1
  6
Continuous
 62
     3
100
AcDbLine
 10
172.139758287279
 20
345.60919637206
 30
0.0
 11
169.864676218655
 21
346.088161018086
 31
0.0
  0
LINE
  5
E5
330
1F
100
AcDbEntity
  8
1
  6
Continuous
 62
     3
100
AcDbLine
 10
171.733932364301
 20
344.094633408477
 30
0.0
 11
170.319024897397
 21
344.392508664667
 31
0.0
  0
LINE
  5
E6
330
1F
100
AcDbEntity
  8
1
  6
Continuous
 62
     3
100
AcDbLine
 10
169.66638634802
 20
354.235169411904
 30
0.0
 11
169.66638634802
 21
348.760040542501
 31
0.0
  0
LINE
  5
E7
330
1F
100
AcDbEntity
  8
1
  6
Continuous
 62
     3
100
AcDbLine
 10
172.46638634802
 20
354.235169411904
 30
0.0
 11
172.46638634802
 21
348.760040542501
 31
0.0
  0
LINE
  5
E8
330
1F
100
AcDbEntity
  8
1
  6
Continuous
 62
     3
100
AcDbLine
 10
171.06638634802
 20
343.535169411904
 30
0.0
 11
172.46638634802
 21
348.760040542501
 31
0.0
  0
LINE
  5
E9
330
1F
100
AcDbEntity
  8
1
  6
Continuous
 62
     3
100
AcDbLine
 10
171.06638634802
 20
343.535169411904
 30
0.0
 11
169.66638634802
 21
348.760040542501
 31
0.0
  0
LINE
  5
EA
330
1F
100
AcDbEntity
  8
11
  6
DOT_CENTER
 62
     1
100
AcDbLine
 10
140.316173032852
 20
-83.0439787458455
 30
0.0
 11
115.816173032852
 21
-83.0439787458455
 31
0.0
  0
LINE
  5
EB
330
1F
100
AcDbEntity
  8
1
  6
DOT_CENTER
 62
     1
100
AcDbLine
 10
139.066173032852
 20
292.535169411902
 30
0.0
 11
117.066173032852
 21
292.535169411902
 31
0.0
  0
LINE
  5
EC
330
1F
100
AcDbEntity
  8
1
  6
DOT_CENTER
 62
     1
100
AcDbLine
 10
132.066173032852
 20
321.035169411902
 30
0.0
 11
124.066173032852
 21
321.035169411902
 31
0.0
  0
LINE
  5
ED
330
1F
100
AcDbEntity
  8
1
  6
Continuous
 62
     3
100
AcDbLine
 10
136.066173032852
 20
-61.5439787458455
 30
0.0
 11
120.066173032852
 21
-61.5439787458455
 31
0.0
  0
LINE
  5
EE
330
1F
100
AcDbEntity
  8
1
  6
Continuous
 62
     3
100
AcDbLine
 10
132.566173032852
 20
-60.9688055055205
 30
0.0
 11
132.566173032852
 21
-14.5648305880974
 31
0.0
  0
LINE
  5
EF
330
1F
100
AcDbEntity
  8
1
  6
Continuous
 62
     3
100
AcDbLine
 10
136.066173032852
 20
288.035169411902
 30
0.0
 11
128.271944398792
 21
288.035169411902
 31
0.0
  0
LINE
  5
F0
330
1F
100
AcDbEntity
  8
1
  6
Continuous
 62
     3
100
AcDbLine
 10
120.066173032852
 20
288.035169411902
 30
0.0
 11
127.860401666912
 21
288.035169411902
 31
0.0
  0
LINE
  5
F1
330
1F
100
AcDbEntity
  8
1
  6
DOT_CENTER
 62
     1
100
AcDbLine
 10
128.066173032852
 20
-131.876911612293
 30
0.0
 11
128.066173032852
 21
390.198261628032
 31
0.0
  0
LINE
  5
F2
330
1F
100
AcDbEntity
  8
1
  6
Continuous
 62
     3
100
AcDbLine
 10
118.566173032852
 20
-69.5439787458455
 30
0.0
 11
137.566173032852
 21
-69.5439787458455
 31
0.0
  0
LINE
  5
F3
330
1F
100
AcDbEntity
  8
1
  6
Continuous
 62
     3
100
AcDbLine
 10
123.566173032852
 20
-60.9688055055205
 30
0.0
 11
123.566173032852
 21
-14.5648305880975
 31
0.0
  0
LINE
  5
F4
330
1F
100
AcDbEntity
  8
1
  6
Continuous
 62
     3
100
AcDbLine
 10
135.566173032852
 20
-61.0439787458455
 30
0.0
 11
120.566173032852
 21
-61.0439787458455
 31
0.0
  0
LINE
  5
F5
330
1F
100
AcDbEntity
  8
1
  6
Continuous
 62
     3
100
AcDbLine
 10
123.566173032852
 20
287.535169411902
 30
0.0
 11
123.566173032852
 21
285.435169411903
 31
0.0
  0
LINE
  5
F6
330
1F
100
AcDbEntity
  8
1
  6
Continuous
 62
     3
100
AcDbLine
 10
132.566173032852
 20
287.535169411902
 30
0.0
 11
132.566173032852
 21
285.435169411903
 31
0.0
  0
LINE
  5
F7
330
1F
100
AcDbEntity
  8
2
  6
Continuous
 62
     3
100
AcDbLine
 10
134.166173032852
 20
-14.5648305880974
 30
0.0
 11
121.966173032852
 21
-14.5648305880975
 31
0.0
  0
LINE
  5
F8
330
1F
100
AcDbEntity
  8
11
  6
Continuous
 62
     3
100
AcDbLine
 10
135.566173032852
 20
331.535169411902
 30
0.0
 11
120.566173032852
 21
331.535169411902
 31
0.0
  0
LINE
  5
F9
330
1F
100
AcDbEntity
  8
11
  6
Continuous
 62
     3
100
AcDbLine
 10
120.566173032852
 20
331.535169411902
 30
0.0
 11
120.066173032852
 21
331.035169411902
 31
0.0
  0
LINE
  5
FA
330
1F
100
AcDbEntity
  8
11
  6
Continuous
 62
     3
100
AcDbLine
 10
120.066173032852
 20
320.035169411902
 30
0.0
 11
120.066173032852
 21
331.035169411902
 31
0.0
  0
LINE
  5
FB
330
1F
100
AcDbEntity
  8
11
  6
Continuous
 62
     3
100
AcDbLine
 10
136.066173032852
 20
331.035169411902
 30
0.0
 11
135.566173032852
 21
331.535169411902
 31
0.0
  0
LINE
  5
FC
330
1F
100
AcDbEntity
  8
11
  6
Continuous
 62
     3
100
AcDbLine
 10
136.066173032852
 20
320.035169411902
 30
0.0
 11
136.066173032852
 21
331.035169411902
 31
0.0
  0
LINE
  5
FD
330
1F
100
AcDbEntity
  8
11
  6
Continuous
 62
     3
100
AcDbLine
 10
120.566173032852
 20
287.535169411902
 30
0.0
 11
120.066173032852
 21
288.035169411902
 31
0.0
  0
LINE
  5
FE
330
1F
100
AcDbEntity
  8
11
  6
Continuous
 62
     3
100
AcDbLine
 10
136.066173032852
 20
288.035169411902
 30
0.0
 11
135.566173032852
 21
287.535169411902
 31
0.0
  0
LINE
  5
FF
330
1F
100
AcDbEntity
  8
11
  6
Continuous
 62
     3
100
AcDbLine
 10
120.066173032852
 20
313.535169411902
 30
0.0
 11
120.066173032852
 21
288.035169411902
 31
0.0
  0
LINE
  5
100
330
1F
100
AcDbEntity
  8
11
  6
Continuous
 62
     3
100
AcDbLine
 10
136.066173032852
 20
313.535169411902
 30
0.0
 11
136.066173032852
 21
288.035169411902
 31
0.0
  0
LINE
  5
101
330
1F
100
AcDbEntity
  8
11
  6
Continuous
 62
     3
100
AcDbLine
 10
120.066173032852
 20
313.535169411902
 30
0.0
 11
121.288452176989
 21
309.535169411902
 31
0.0
  0
LINE
  5
102
330
1F
100
AcDbEntity
  8
11
  6
Continuous
 62
     3
100
AcDbLine
 10
121.288452176989
 20
309.535169411902
 30
0.0
 11
121.288452176989
 21
303.876398594662
 31
0.0
  0
LINE
  5
103
330
1F
100
AcDbEntity
  8
11
  6
Continuous
 62
     3
100
AcDbLine
 10
136.066173032852
 20
313.535169411902
 30
0.0
 11
134.843893888715
 21
309.535169411902
 31
0.0
  0
LINE
  5
104
330
1F
100
AcDbEntity
  8
11
  6
Continuous
 62
     3
100
AcDbLine
 10
134.843893888715
 20
309.535169411902
 30
0.0
 11
134.843893888715
 21
303.876398594662
 31
0.0
  0
LINE
  5
105
330
1F
100
AcDbEntity
  8
11
  6
Continuous
 62
     3
100
AcDbLine
 10
123.066173032852
 20
313.535169411902
 30
0.0
 11
120.066173032852
 21
313.535169411902
 31
0.0
  0
LINE
  5
106
330
1F
100
AcDbEntity
  8
11
  6
Continuous
 62
     3
100
AcDbLine
 10
136.066173032852
 20
313.535169411902
 30
0.0
 11
133.066173032852
 21
313.535169411902
 31
0.0
  0
LINE
  5
107
330
1F
100
AcDbEntity
  8
11
  6
Continuous
 62
     3
100
AcDbLine
 10
123.066173032852
 20
313.535169411902
 30
0.0
 11
123.066173032852
 21
304.035169411902
 31
0.0
  0
LINE
  5
108
330
1F
100
AcDbEntity
  8
11
  6
Continuous
 62
     3
100
AcDbLine
 10
133.066173032852
 20
313.535169411902
 30
0.0
 11
133.066173032852
 21
304.035169411902
 31
0.0
  0
LINE
  5
109
330
1F
100
AcDbEntity
  8
11
  6
Continuous
 62
     3
100
AcDbLine
 10
135.566173032852
 20
287.535169411902
 30
0.0
 11
120.566173032852
 21
287.535169411902
 31
0.0
  0
LINE
  5
10A
330
1F
100
AcDbEntity
  8
11
  6
Continuous
 62
     3
100
AcDbLine
 10
123.816173032852
 20
315.193940229143
 30
0.0
 11
123.816173032852
 21
309.785169411902
 31
0.0
  0
LINE
  5
10B
330
1F
100
AcDbEntity
  8
11
  6
Continuous
 62
     3
100
AcDbLine
 10
132.316173032852
 20
315.193940229143
 30
0.0
 11
132.316173032852
 21
309.785169411902
 31
0.0
  0
LINE
  5
10C
330
1F
100
AcDbEntity
  8
11
  6
DOT_CENTER
 62
     1
100
AcDbLine
 10
137.316173032852
 20
309.535169411902
 30
0.0
 11
118.816173032852
 21
309.535169411902
 31
0.0
  0
LINE
  5
10D
330
1F
100
AcDbEntity
  8
1
  6
Continuous
 62
     3
100
AcDbLine
 10
120.566173032852
 20
-61.0439787458455
 30
0.0
 11
120.066173032852
 21
-61.5439787458455
 31
0.0
  0
LINE
  5
10E
330
1F
100
AcDbEntity
  8
1
  6
Continuous
 62
     3
100
AcDbLine
 10
120.066173032852
 20
-69.5439787458455
 30
0.0
 11
120.066173032852
 21
-61.5439787458455
 31
0.0
  0
LINE
  5
10F
330
1F
100
AcDbEntity
  8
1
  6
Continuous
 62
     3
100
AcDbLine
 10
136.066173032852
 20
-61.5439787458455
 30
0.0
 11
135.566173032852
 21
-61.0439787458455
 31
0.0
  0
LINE
  5
110
330
1F
100
AcDbEntity
  8
1
  6
Continuous
 62
     3
100
AcDbLine
 10
136.066173032852
 20
-69.5439787458455
 30
0.0
 11
136.066173032852
 21
-61.5439787458455
 31
0.0
  0
LINE
  5
111
330
1F
100
AcDbEntity
  8
1
  6
DOT_CENTER
 62
     1
100
AcDbLine
 10
140.316173032852
 20
-83.0439787458455
 30
0.0
 11
115.816173032852
 21
-83.0439787458455
 31
0.0
  0
LINE
  5
112
330
1F
100
AcDbEntity
  8
2
  6
Continuous
 62
     3
100
AcDbLine
 10
121.966173032852
 20
285.435169411903
 30
0.0
 11
121.966173032852
 21
-14.5648305880975
 31
0.0
  0
LINE
  5
113
330
1F
100
AcDbEntity
  8
2
  6
Continuous
 62
     3
100
AcDbLine
 10
134.166173032852
 20
285.435169411903
 30
0.0
 11
121.966173032852
 21
285.435169411903
 31
0.0
  0
LINE
  5
114
330
1F
100
AcDbEntity
  8
1
  6
Continuous
 62
     3
100
AcDbLine
 10
126.040568532571
 20
-14.5648305880975
 30
0.0
 11
123.930673032852
 21
-60.9688055055205
 31
0.0
  0
LINE
  5
115
330
1F
100
AcDbEntity
  8
1
  6
DASHED
 62
     3
100
AcDbLine
 10
132.566173032852
 20
-14.5648305880974
 30
0.0
 11
132.566173032852
 21
128.956015630324
 31
0.0
  0
LINE
  5
116
330
1F
100
AcDbEntity
  8
0
  6
DASHED
 62
     6
100
AcDbLine
 10
125.601072529553
 20
386.881569540386
 30
0.0
 11
125.101072529553
 21
386.899029925132
 31
0.0
  0
LINE
  5
117
330
1F
100
AcDbEntity
  8
0
  6
DASHED
 62
     6
100
AcDbLine
 10
124.06617303285
 20
359.535169411904
 30
0.0
 11
124.06617303285
 21
385.899639098113
 31
0.0
  0
LINE
  5
118
330
1F
100
AcDbEntity
  8
0
  6
DASHED
 62
     6
100
AcDbLine
 10
127.531273536148
 20
362.068871464118
 30
0.0
 11
128.10107269628
 21
362.088769289245
 31
0.0
  0
LINE
  5
119
330
1F
100
AcDbEntity
  8
0
  6
DASHED
 62
     6
100
AcDbLine
 10
127.56617303285
 20
384.330439022335
 30
0.0
 11
128.06617303285
 21
384.330439022335
 31
0.0
  0
LINE
  5
11A
330
1F
100
AcDbEntity
  8
0
  6
DASHED
 62
     6
100
AcDbLine
 10
126.56617303285
 20
363.612916430536
 30
0.0
 11
126.56617303285
 21
385.330439022335
 31
0.0
  0
LINE
  5
11B
330
1F
100
AcDbEntity
  8
0
  6
DASHED
 62
     6
100
AcDbLine
 10
126.56617303285
 20
385.330439022335
 30
0.0
 11
126.56617303285
 21
385.882178713367
 31
0.0
  0
LINE
  5
11C
330
1F
100
AcDbEntity
  8
0
  6
DASHED
 62
     6
100
AcDbLine
 10
126.56617303285
 20
361.069480637098
 30
0.0
 11
126.56617303285
 21
363.612916430536
 31
0.0
  0
LINE
  5
11D
330
1F
100
AcDbEntity
  8
0
  6
DASHED
 62
     6
100
AcDbLine
 10
128.10107269628
 20
362.088769289245
 30
0.0
 11
131.101072529553
 21
362.193531591898
 31
0.0
  0
LINE
  5
11E
330
1F
100
AcDbEntity
  8
0
  6
DASHED
 62
     6
100
AcDbLine
 10
125.06617303285
 20
359.535169411904
 30
0.0
 11
125.56617303285
 21
359.535169411904
 31
0.0
  0
LINE
  5
11F
330
1F
100
AcDbEntity
  8
0
  6
DASHED
 62
     6
100
AcDbLine
 10
126.56617303285
 20
360.535169411904
 30
0.0
 11
126.56617303285
 21
361.069480637098
 31
0.0
  0
LINE
  5
120
330
1F
100
AcDbEntity
  8
0
  6
DASHED
 62
     6
100
AcDbLine
 10
132.06617303285
 20
380.330439022335
 30
0.0
 11
132.06617303285
 21
363.192922418918
 31
0.0
  0
LINE
  5
121
330
1F
100
AcDbEntity
  8
0
  6
DASHED
 62
     6
100
AcDbLine
 10
132.06617303285
 20
360.797684727391
 30
0.0
 11
132.06617303285
 21
363.192922418918
 31
0.0
  0
LINE
  5
122
330
1F
100
AcDbEntity
  8
0
  6
Continuous
 62
     3
100
AcDbLine
 10
134.333074738178
 20
464.162518335123
 30
0.0
 11
134.21386587249
 21
463.889132669813
 31
0.0
  0
LINE
  5
123
330
1F
100
AcDbEntity
  8
0
  6
Continuous
 62
     3
100
AcDbLine
 10
132.900367589696
 20
464.282072828704
 30
0.0
 11
132.661108640667
 21
463.921988110415
 31
0.0
  0
LINE
  5
124
330
1F
100
AcDbEntity
  8
0
  6
Continuous
 62
     3
100
AcDbLine
 10
135.212839800783
 20
463.838404541818
 30
0.0
 11
135.328821865756
 21
464.254006941305
 31
0.0
  0
LINE
  5
125
330
1F
100
AcDbEntity
  8
0
  6
Continuous
 62
     3
100
AcDbLine
 10
133.777605989859
 20
464.039444522267
 30
0.0
 11
133.877514724925
 21
464.348761966032
 31
0.0
  0
LINE
  5
126
330
1F
100
AcDbEntity
  8
0
  6
Continuous
 62
     3
100
AcDbLine
 10
131.555374190328
 20
464.118728390744
 30
0.0
 11
131.727429829434
 21
463.674824841852
 31
0.0
  0
LINE
  5
127
330
1F
100
AcDbEntity
  8
0
  6
Continuous
 62
     3
100
AcDbLine
 10
135.270391756691
 20
462.47409579257
 30
0.0
 11
135.127805847316
 21
462.555845047278
 31
0.0
  0
LINE
  5
128
330
1F
100
AcDbEntity
  8
0
  6
Continuous
 62
     3
100
AcDbLine
 10
135.332120770614
 20
462.354650150629
 30
0.0
 11
135.270391756691
 21
462.47409579257
 31
0.0
  0
LINE
  5
129
330
1F
100
AcDbEntity
  8
0
  6
Continuous
 62
     3
100
AcDbLine
 10
135.366461306552
 20
462.17745298519
 30
0.0
 11
135.332120770614
 21
462.354650150629
 31
0.0
  0
LINE
  5
12A
330
1F
100
AcDbEntity
  8
0
  6
Continuous
 62
     3
100
AcDbLine
 10
135.332079450334
 20
462.014826805279
 30
0.0
 11
135.366461306552
 21
462.17745298519
 31
0.0
  0
LINE
  5
12B
330
1F
100
AcDbEntity
  8
0
  6
Continuous
 62
     3
100
AcDbLine
 10
135.266832264908
 20
461.874545356614
 30
0.0
 11
135.332079450334
 21
462.014826805279
 31
0.0
  0
LINE
  5
12C
330
1F
100
AcDbEntity
  8
0
  6
Continuous
 62
     3
100
AcDbLine
 10
135.121003740525
 20
461.777002276971
 30
0.0
 11
135.266832264908
 21
461.874545356614
 31
0.0
  0
LINE
  5
12D
330
1F
100
AcDbEntity
  8
0
  6
Continuous
 62
     3
100
AcDbLine
 10
135.267154219552
 20
460.315560426933
 30
0.0
 11
135.120321164995
 21
460.42780613975
 31
0.0
  0
LINE
  5
12E
330
1F
100
AcDbEntity
  8
0
  6
Continuous
 62
     3
100
AcDbLine
 10
135.33251680338
 20
460.189083827226
 30
0.0
 11
135.267154219552
 21
460.315560426933
 31
0.0
  0
LINE
  5
12F
330
1F
100
AcDbEntity
  8
0
  6
Continuous
 62
     3
100
AcDbLine
 10
135.331039825271
 20
467.008309378734
 30
0.0
 11
135.366278784568
 21
467.174989656208
 31
0.0
  0
LINE
  5
130
330
1F
100
AcDbEntity
  8
0
  6
Continuous
 62
     3
100
AcDbLine
 10
135.366278784568
 20
467.174989656208
 30
0.0
 11
135.33251680338
 21
467.334683827226
 31
0.0
  0
LINE
  5
131
330
1F
100
AcDbEntity
  8
0
  6
Continuous
 62
     3
100
AcDbLine
 10
135.33251680338
 20
467.334683827226
 30
0.0
 11
135.268687910394
 21
467.458192735154
 31
0.0
  0
LINE
  5
132
330
1F
100
AcDbEntity
  8
0
  6
Continuous
 62
     3
100
AcDbLine
 10
135.330759837589
 20
469.066706747378
 30
0.0
 11
135.366461306552
 21
469.250926327226
 31
0.0
  0
LINE
  5
133
330
1F
100
AcDbEntity
  8
0
  6
Continuous
 62
     3
100
AcDbLine
 10
135.366461306552
 20
469.250926327226
 30
0.0
 11
135.33251680338
 21
469.411483827226
 31
0.0
  0
LINE
  5
134
330
1F
100
AcDbEntity
  8
0
  6
Continuous
 62
     3
100
AcDbLine
 10
135.282761428624
 20
466.869911308344
 30
0.0
 11
135.331039825271
 21
467.008309378734
 31
0.0
  0
LINE
  5
135
330
1F
100
AcDbEntity
  8
0
  6
Continuous
 62
     3
100
AcDbLine
 10
135.33251680338
 20
469.411483827226
 30
0.0
 11
135.270391756691
 21
469.53169579257
 31
0.0
  0
LINE
  5
136
330
1F
100
AcDbEntity
  8
0
  6
Continuous
 62
     3
100
AcDbLine
 10
135.282761428624
 20
468.929111308344
 30
0.0
 11
135.330759837589
 21
469.066706747378
 31
0.0
  0
LINE
  5
137
330
1F
100
AcDbEntity
  8
0
  6
Continuous
 62
     3
100
AcDbLine
 10
135.127805847316
 20
469.613445047278
 30
0.0
 11
134.928625208812
 21
469.644589656208
 31
0.0
  0
LINE
  5
138
330
1F
100
AcDbEntity
  8
0
  6
Continuous
 62
     3
100
AcDbLine
 10
135.124258967473
 20
467.554799650308
 30
0.0
 11
134.928625208812
 21
467.585389656208
 31
0.0
  0
LINE
  5
139
330
1F
100
AcDbEntity
  8
0
  6
Continuous
 62
     3
100
AcDbLine
 10
134.925767617007
 20
466.729389656208
 30
0.0
 11
135.142268933214
 21
466.775937439192
 31
0.0
  0
LINE
  5
13A
330
1F
100
AcDbEntity
  8
0
  6
Continuous
 62
     3
100
AcDbLine
 10
135.270391756691
 20
469.53169579257
 30
0.0
 11
135.127805847316
 21
469.613445047278
 31
0.0
  0
LINE
  5
13B
330
1F
100
AcDbEntity
  8
0
  6
Continuous
 62
     3
100
AcDbLine
 10
134.925767617007
 20
468.788589656208
 30
0.0
 11
135.142268933214
 21
468.835137439192
 31
0.0
  0
LINE
  5
13C
330
1F
100
AcDbEntity
  8
0
  6
Continuous
 62
     3
100
AcDbLine
 10
135.142268933214
 20
468.835137439192
 30
0.0
 11
135.282761428624
 21
468.929111308344
 31
0.0
  0
LINE
  5
13D
330
1F
100
AcDbEntity
  8
0
  6
Continuous
 62
     3
100
AcDbLine
 10
134.517938801189
 20
470.263856169964
 30
0.0
 11
134.915175845334
 21
470.459069803086
 31
0.0
  0
LINE
  5
13E
330
1F
100
AcDbEntity
  8
0
  6
Continuous
 62
     3
100
AcDbLine
 10
135.192549876158
 20
470.777125358431
 30
0.0
 11
135.28662873636
 21
471.1816644573
 31
0.0
  0
LINE
  5
13F
330
1F
100
AcDbEntity
  8
0
  6
Continuous
 62
     3
100
AcDbLine
 10
135.12806089157
 20
473.0527690674
 30
0.0
 11
134.921918785772
 21
473.185730725639
 31
0.0
  0
LINE
  5
140
330
1F
100
AcDbEntity
  8
0
  6
Continuous
 62
     3
100
AcDbLine
 10
135.28662873636
 20
471.1816644573
 30
0.0
 11
135.28662873636
 21
472.637114855115
 31
0.0
  0
LINE
  5
141
330
1F
100
AcDbEntity
  8
0
  6
Continuous
 62
     3
100
AcDbLine
 10
135.28662873636
 20
472.637114855115
 30
0.0
 11
135.231234349055
 21
472.875310720525
 31
0.0
  0
LINE
  5
142
330
1F
100
AcDbEntity
  8
0
  6
Continuous
 62
     3
100
AcDbLine
 10
135.231234349055
 20
472.875310720525
 30
0.0
 11
135.12806089157
 21
473.0527690674
 31
0.0
  0
LINE
  5
143
330
1F
100
AcDbEntity
  8
0
  6
Continuous
 62
     3
100
AcDbLine
 10
134.921918785772
 20
473.185730725639
 30
0.0
 11
134.664229816029
 21
473.217389656208
 31
0.0
  0
LINE
  5
144
330
1F
100
AcDbEntity
  8
0
  6
Continuous
 62
     3
100
AcDbLine
 10
134.686395554682
 20
465.9908962957
 30
0.0
 11
134.127578080124
 21
466.103032335595
 31
0.0
  0
LINE
  5
145
330
1F
100
AcDbEntity
  8
0
  6
Continuous
 62
     3
100
AcDbLine
 10
135.099819963049
 20
465.635351304505
 30
0.0
 11
134.686395554682
 21
465.9908962957
 31
0.0
  0
LINE
  5
146
330
1F
100
AcDbEntity
  8
0
  6
Continuous
 62
     3
100
AcDbLine
 10
135.289667778199
 20
465.21085158983
 30
0.0
 11
135.099819963049
 21
465.635351304505
 31
0.0
  0
LINE
  5
147
330
1F
100
AcDbEntity
  8
0
  6
Continuous
 62
     3
100
AcDbLine
 10
134.915175845334
 20
470.459069803086
 30
0.0
 11
135.192549876158
 21
470.777125358431
 31
0.0
  0
LINE
  5
148
330
1F
100
AcDbEntity
  8
0
  6
Continuous
 62
     3
100
AcDbLine
 10
135.142268933214
 20
466.775937439192
 30
0.0
 11
135.282761428624
 21
466.869911308344
 31
0.0
  0
LINE
  5
149
330
1F
100
AcDbEntity
  8
0
  6
Continuous
 62
     3
100
AcDbLine
 10
135.268687910394
 20
467.458192735154
 30
0.0
 11
135.124258967473
 21
467.554799650308
 31
0.0
  0
LINE
  5
14A
330
1F
100
AcDbEntity
  8
0
  6
Continuous
 62
     3
100
AcDbLine
 10
135.366278784568
 20
460.029389656208
 30
0.0
 11
135.33251680338
 21
460.189083827226
 31
0.0
  0
LINE
  5
14B
330
1F
100
AcDbEntity
  8
0
  6
Continuous
 62
     3
100
AcDbLine
 10
135.33251680338
 20
459.86969548519
 30
0.0
 11
135.366278784568
 21
460.029389656208
 31
0.0
  0
LINE
  5
14C
330
1F
100
AcDbEntity
  8
0
  6
Continuous
 62
     3
100
AcDbLine
 10
135.268687910394
 20
459.746186577262
 30
0.0
 11
135.33251680338
 21
459.86969548519
 31
0.0
  0
LINE
  5
14D
330
1F
100
AcDbEntity
  8
0
  6
Continuous
 62
     3
100
AcDbLine
 10
135.1200563208
 20
459.646768558444
 30
0.0
 11
135.268687910394
 21
459.746186577262
 31
0.0
  0
LINE
  5
14E
330
1F
100
AcDbEntity
  8
0
  6
Continuous
 62
     3
100
AcDbLine
 10
134.94416910283
 20
459.601389656208
 30
0.0
 11
135.1200563208
 21
459.646768558444
 31
0.0
  0
LINE
  5
14F
330
1F
100
AcDbEntity
  8
0
  6
Continuous
 62
     3
100
AcDbLine
 10
132.06617303285
 20
496.484925188572
 30
0.0
 11
132.06617303285
 21
475.588550150391
 31
0.0
  0
LINE
  5
150
330
1F
100
AcDbEntity
  8
0
  6
Continuous
 62
     3
100
AcDbLine
 10
134.401977573569
 20
472.244891661983
 30
0.0
 11
134.350001606815
 21
472.378989656208
 31
0.0
  0
LINE
  5
151
330
1F
100
AcDbEntity
  8
0
  6
Continuous
 62
     3
100
AcDbLine
 10
134.401977573569
 20
471.321877236911
 30
0.0
 11
134.401977573569
 21
472.244891661983
 31
0.0
  0
LINE
  5
152
330
1F
100
AcDbEntity
  8
0
  6
Continuous
 62
     3
100
AcDbLine
 10
134.039404749798
 20
471.031957672658
 30
0.0
 11
134.289147226892
 21
471.103550516091
 31
0.0
  0
LINE
  5
153
330
1F
100
AcDbEntity
  8
0
  6
Continuous
 62
     3
100
AcDbLine
 10
133.628954317755
 20
471.287453042098
 30
0.0
 11
133.722302332574
 21
471.100134692361
 31
0.0
  0
LINE
  5
154
330
1F
100
AcDbEntity
  8
0
  6
Continuous
 62
     3
100
AcDbLine
 10
133.628954317755
 20
472.378989656208
 30
0.0
 11
133.628954317755
 21
471.287453042098
 31
0.0
  0
LINE
  5
155
330
1F
100
AcDbEntity
  8
0
  6
Continuous
 62
     3
100
AcDbLine
 10
134.350001606815
 20
472.378989656208
 30
0.0
 11
133.628954317755
 21
472.378989656208
 31
0.0
  0
LINE
  5
156
330
1F
100
AcDbEntity
  8
0
  6
Continuous
 62
     3
100
AcDbLine
 10
132.918886984802
 20
466.729389656208
 30
0.0
 11
134.925767617007
 21
466.729389656208
 31
0.0
  0
LINE
  5
157
330
1F
100
AcDbEntity
  8
0
  6
Continuous
 62
     3
100
AcDbLine
 10
134.928625208812
 20
467.585389656208
 30
0.0
 11
133.088821102985
 21
467.585389656208
 31
0.0
  0
LINE
  5
158
330
1F
100
AcDbEntity
  8
0
  6
Continuous
 62
     3
100
AcDbLine
 10
133.091671398336
 20
468.788589656208
 30
0.0
 11
134.925767617007
 21
468.788589656208
 31
0.0
  0
LINE
  5
159
330
1F
100
AcDbEntity
  8
0
  6
Continuous
 62
     3
100
AcDbLine
 10
134.505977620232
 20
464.784484050978
 30
0.0
 11
134.460531553009
 21
464.491356917389
 31
0.0
  0
LINE
  5
15A
330
1F
100
AcDbEntity
  8
0
  6
Continuous
 62
     3
100
AcDbLine
 10
133.086889832178
 20
464.977179052354
 30
0.0
 11
132.900367589696
 21
464.282072828704
 31
0.0
  0
LINE
  5
15B
330
1F
100
AcDbEntity
  8
0
  6
Continuous
 62
     3
100
AcDbLine
 10
134.460531553009
 20
464.491356917389
 30
0.0
 11
134.333074738178
 21
464.162518335123
 31
0.0
  0
LINE
  5
15C
330
1F
100
AcDbEntity
  8
0
  6
Continuous
 62
     3
100
AcDbLine
 10
133.938477528885
 20
464.663330034467
 30
0.0
 11
134.017791527057
 21
464.953222697786
 31
0.0
  0
LINE
  5
15D
330
1F
100
AcDbEntity
  8
0
  6
Continuous
 62
     3
100
AcDbLine
 10
134.928625208812
 20
469.644589656208
 30
0.0
 11
132.917894703893
 21
469.644589656208
 31
0.0
  0
LINE
  5
15E
330
1F
100
AcDbEntity
  8
0
  6
Continuous
 62
     3
100
AcDbLine
 10
133.722302332574
 20
471.100134692361
 30
0.0
 11
134.039404749798
 21
471.031957672658
 31
0.0
  0
LINE
  5
15F
330
1F
100
AcDbEntity
  8
0
  6
Continuous
 62
     3
100
AcDbLine
 10
134.289147226892
 20
471.103550516091
 30
0.0
 11
134.401977573569
 21
471.321877236911
 31
0.0
  0
LINE
  5
160
330
1F
100
AcDbEntity
  8
0
  6
Continuous
 62
     3
100
AcDbLine
 10
131.935154316389
 20
473.217389656208
 30
0.0
 11
131.7215306949
 21
473.186770270461
 31
0.0
  0
LINE
  5
161
330
1F
100
AcDbEntity
  8
0
  6
Continuous
 62
     3
100
AcDbLine
 10
131.7215306949
 20
473.186770270461
 30
0.0
 11
131.613253943171
 21
473.106954836329
 31
0.0
  0
LINE
  5
162
330
1F
100
AcDbEntity
  8
0
  6
Continuous
 62
     3
100
AcDbLine
 10
131.613253943171
 20
473.106954836329
 30
0.0
 11
131.531354641344
 21
472.980174717101
 31
0.0
  0
LINE
  5
163
330
1F
100
AcDbEntity
  8
0
  6
Continuous
 62
     3
100
AcDbLine
 10
131.531354641344
 20
472.980174717101
 30
0.0
 11
131.497958956865
 21
472.80785298519
 31
0.0
  0
LINE
  5
164
330
1F
100
AcDbEntity
  8
0
  6
Continuous
 62
     3
100
AcDbLine
 10
131.497958956865
 20
472.80785298519
 30
0.0
 11
131.532340813083
 21
472.645226805279
 31
0.0
  0
LINE
  5
165
330
1F
100
AcDbEntity
  8
0
  6
Continuous
 62
     3
100
AcDbLine
 10
131.532340813083
 20
472.645226805279
 30
0.0
 11
131.598620343225
 21
472.502725815475
 31
0.0
  0
LINE
  5
166
330
1F
100
AcDbEntity
  8
0
  6
Continuous
 62
     3
100
AcDbLine
 10
131.598620343225
 20
472.502725815475
 30
0.0
 11
131.703342474346
 21
472.425530644535
 31
0.0
  0
LINE
  5
167
330
1F
100
AcDbEntity
  8
0
  6
Continuous
 62
     3
100
AcDbLine
 10
131.703342474346
 20
472.425530644535
 30
0.0
 11
131.937851330257
 21
472.378989656208
 31
0.0
  0
LINE
  5
168
330
1F
100
AcDbEntity
  8
0
  6
Continuous
 62
     3
100
AcDbLine
 10
132.763636847496
 20
467.622677450837
 30
0.0
 11
132.541502122014
 21
467.707582279244
 31
0.0
  0
LINE
  5
169
330
1F
100
AcDbEntity
  8
0
  6
Continuous
 62
     3
100
AcDbLine
 10
133.088821102985
 20
467.585389656208
 30
0.0
 11
132.763636847496
 21
467.622677450837
 31
0.0
  0
LINE
  5
16A
330
1F
100
AcDbEntity
  8
0
  6
Continuous
 62
     3
100
AcDbLine
 10
132.359772782325
 20
468.195789656208
 30
0.0
 11
132.383642240828
 21
468.483177936587
 31
0.0
  0
LINE
  5
16B
330
1F
100
AcDbEntity
  8
0
  6
Continuous
 62
     3
100
AcDbLine
 10
132.38337990128
 20
467.91155994399
 30
0.0
 11
132.359772782325
 21
468.195789656208
 31
0.0
  0
LINE
  5
16C
330
1F
100
AcDbEntity
  8
0
  6
Continuous
 62
     3
100
AcDbLine
 10
132.762197247456
 20
468.769699804891
 30
0.0
 11
133.091671398336
 21
468.788589656208
 31
0.0
  0
LINE
  5
16D
330
1F
100
AcDbEntity
  8
0
  6
Continuous
 62
     3
100
AcDbLine
 10
131.937851330257
 20
472.378989656208
 30
0.0
 11
132.744303154964
 21
472.378989656208
 31
0.0
  0
LINE
  5
16E
330
1F
100
AcDbEntity
  8
0
  6
Continuous
 62
     3
100
AcDbLine
 10
132.854878938606
 20
465.533053126575
 30
0.0
 11
132.961942520765
 21
465.671165147561
 31
0.0
  0
LINE
  5
16F
330
1F
100
AcDbEntity
  8
0
  6
Continuous
 62
     3
100
AcDbLine
 10
132.664248503029
 20
463.142398341858
 30
0.0
 11
133.264594889125
 21
463.303741433121
 31
0.0
  0
LINE
  5
170
330
1F
100
AcDbEntity
  8
0
  6
Continuous
 62
     3
100
AcDbLine
 10
132.103046473111
 20
463.287188465577
 30
0.0
 11
132.664248503029
 21
463.142398341858
 31
0.0
  0
LINE
  5
171
330
1F
100
AcDbEntity
  8
0
  6
Continuous
 62
     3
100
AcDbLine
 10
132.541600760137
 20
468.664303705394
 30
0.0
 11
132.762197247456
 21
468.769699804891
 31
0.0
  0
LINE
  5
172
330
1F
100
AcDbEntity
  8
0
  6
Continuous
 62
     3
100
AcDbLine
 10
132.383642240828
 20
468.483177936587
 30
0.0
 11
132.541600760137
 21
468.664303705394
 31
0.0
  0
LINE
  5
173
330
1F
100
AcDbEntity
  8
0
  6
Continuous
 62
     3
100
AcDbLine
 10
132.541502122014
 20
467.707582279244
 30
0.0
 11
132.38337990128
 21
467.91155994399
 31
0.0
  0
LINE
  5
174
330
1F
100
AcDbEntity
  8
0
  6
Continuous
 62
     3
100
AcDbLine
 10
132.917894703893
 20
469.644589656208
 30
0.0
 11
132.252019583932
 21
469.543533314472
 31
0.0
  0
LINE
  5
175
330
1F
100
AcDbEntity
  8
0
  6
Continuous
 62
     3
100
AcDbLine
 10
132.232409656881
 20
466.84746375661
 30
0.0
 11
132.918886984802
 21
466.729389656208
 31
0.0
  0
LINE
  5
176
330
1F
100
AcDbEntity
  8
0
  6
Continuous
 62
     3
100
AcDbLine
 10
131.802112014075
 20
469.237221243995
 30
0.0
 11
131.59471209873
 21
468.799418877239
 31
0.0
  0
LINE
  5
177
330
1F
100
AcDbEntity
  8
0
  6
Continuous
 62
     3
100
AcDbLine
 10
131.574953456651
 20
467.607761575197
 30
0.0
 11
131.782265342424
 21
467.153937010703
 31
0.0
  0
LINE
  5
178
330
1F
100
AcDbEntity
  8
0
  6
Continuous
 62
     3
100
AcDbLine
 10
132.252019583932
 20
469.543533314472
 30
0.0
 11
131.802112014075
 21
469.237221243995
 31
0.0
  0
LINE
  5
179
330
1F
100
AcDbEntity
  8
0
  6
Continuous
 62
     3
100
AcDbLine
 10
131.782265342424
 20
467.153937010703
 30
0.0
 11
132.232409656881
 21
466.84746375661
 31
0.0
  0
LINE
  5
17A
330
1F
100
AcDbEntity
  8
0
  6
Continuous
 62
     3
100
AcDbLine
 10
130.56617303285
 20
458.482568753318
 30
0.0
 11
130.56617303285
 21
474.587331173212
 31
0.0
  0
LINE
  5
17B
330
1F
100
AcDbEntity
  8
0
  6
Continuous
 62
     3
100
AcDbLine
 10
128.566173032851
 20
458.482568753318
 30
0.0
 11
128.566173032851
 21
474.587331084077
 31
0.0
  0
LINE
  5
17C
330
1F
100
AcDbEntity
  8
0
  6
Continuous
 62
     3
100
AcDbLine
 10
126.566173032851
 20
458.623512474755
 30
0.0
 11
126.566173032851
 21
474.446387340357
 31
0.0
  0
LINE
  5
17D
330
1F
100
AcDbEntity
  8
0
  6
Continuous
 62
     3
100
AcDbLine
 10
124.566173032851
 20
459.282995532829
 30
0.0
 11
124.566173032851
 21
473.786904282283
 31
0.0
  0
LINE
  5
17E
330
1F
100
AcDbEntity
  8
0
  6
Continuous
 62
     3
100
AcDbLine
 10
131.691626143212
 20
459.645149475114
 30
0.0
 11
131.878199014519
 21
459.601389656208
 31
0.0
  0
LINE
  5
17F
330
1F
100
AcDbEntity
  8
0
  6
Continuous
 62
     3
100
AcDbLine
 10
131.598645966636
 20
462.465430577495
 30
0.0
 11
131.531903460037
 21
462.336283827226
 31
0.0
  0
LINE
  5
180
330
1F
100
AcDbEntity
  8
0
  6
Continuous
 62
     3
100
AcDbLine
 10
131.531903460037
 20
462.336283827226
 30
0.0
 11
131.498141478849
 21
462.176589656208
 31
0.0
  0
LINE
  5
181
330
1F
100
AcDbEntity
  8
0
  6
Continuous
 62
     3
100
AcDbLine
 10
131.498141478849
 20
462.176589656208
 30
0.0
 11
131.532340813083
 21
462.014826805279
 31
0.0
  0
LINE
  5
182
330
1F
100
AcDbEntity
  8
0
  6
Continuous
 62
     3
100
AcDbLine
 10
131.532340813083
 20
462.014826805279
 30
0.0
 11
131.600290920295
 21
461.868734074773
 31
0.0
  0
LINE
  5
183
330
1F
100
AcDbEntity
  8
0
  6
Continuous
 62
     3
100
AcDbLine
 10
131.582447404397
 20
460.33949981397
 30
0.0
 11
131.533025604359
 21
460.211991569872
 31
0.0
  0
LINE
  5
184
330
1F
100
AcDbEntity
  8
0
  6
Continuous
 62
     3
100
AcDbLine
 10
131.498141478849
 20
460.046989656208
 30
0.0
 11
131.533025604359
 21
459.881987742544
 31
0.0
  0
LINE
  5
185
330
1F
100
AcDbEntity
  8
0
  6
Continuous
 62
     3
100
AcDbLine
 10
131.533025604359
 20
460.211991569872
 30
0.0
 11
131.498141478849
 21
460.046989656208
 31
0.0
  0
LINE
  5
186
330
1F
100
AcDbEntity
  8
0
  6
Continuous
 62
     3
100
AcDbLine
 10
133.05127989915
 20
460.457389656208
 30
0.0
 11
131.874399705769
 21
460.457389656208
 31
0.0
  0
LINE
  5
187
330
1F
100
AcDbEntity
  8
0
  6
Continuous
 62
     3
100
AcDbLine
 10
134.948323976289
 20
460.457389656208
 30
0.0
 11
133.95639617822
 21
460.457389656208
 31
0.0
  0
LINE
  5
188
330
1F
100
AcDbEntity
  8
0
  6
Continuous
 62
     3
100
AcDbLine
 10
135.120321164995
 20
460.42780613975
 30
0.0
 11
134.948323976289
 21
460.457389656208
 31
0.0
  0
LINE
  5
189
330
1F
100
AcDbEntity
  8
0
  6
Continuous
 62
     3
100
AcDbLine
 10
131.91468920011
 20
462.586989656208
 30
0.0
 11
131.705054639075
 21
462.556942035793
 31
0.0
  0
LINE
  5
18A
330
1F
100
AcDbEntity
  8
0
  6
Continuous
 62
     3
100
AcDbLine
 10
131.70788262177
 20
461.776205211505
 30
0.0
 11
131.918187530131
 21
461.730989656208
 31
0.0
  0
LINE
  5
18B
330
1F
100
AcDbEntity
  8
0
  6
Continuous
 62
     3
100
AcDbLine
 10
131.685112818643
 20
460.427792070221
 30
0.0
 11
131.582447404397
 21
460.33949981397
 31
0.0
  0
LINE
  5
18C
330
1F
100
AcDbEntity
  8
0
  6
Continuous
 62
     3
100
AcDbLine
 10
131.533025604359
 20
459.881987742544
 30
0.0
 11
131.583713991184
 21
459.751211704537
 31
0.0
  0
LINE
  5
18D
330
1F
100
AcDbEntity
  8
0
  6
Continuous
 62
     3
100
AcDbLine
 10
134.928625208811
 20
462.586989656208
 30
0.0
 11
131.91468920011
 21
462.586989656208
 31
0.0
  0
LINE
  5
18E
330
1F
100
AcDbEntity
  8
0
  6
Continuous
 62
     3
100
AcDbLine
 10
135.127805847316
 20
462.555845047278
 30
0.0
 11
134.928625208811
 21
462.586989656208
 31
0.0
  0
LINE
  5
18F
330
1F
100
AcDbEntity
  8
0
  6
Continuous
 62
     3
100
AcDbLine
 10
133.95639617822
 20
461.730989656208
 30
0.0
 11
134.924825900061
 21
461.730989656208
 31
0.0
  0
LINE
  5
190
330
1F
100
AcDbEntity
  8
0
  6
Continuous
 62
     3
100
AcDbLine
 10
131.918187530131
 20
461.730989656208
 30
0.0
 11
133.05127989915
 21
461.730989656208
 31
0.0
  0
LINE
  5
191
330
1F
100
AcDbEntity
  8
0
  6
Continuous
 62
     3
100
AcDbLine
 10
134.924825900061
 20
461.730989656208
 30
0.0
 11
135.121003740525
 21
461.777002276971
 31
0.0
  0
LINE
  5
192
330
1F
100
AcDbEntity
  8
0
  6
Continuous
 62
     3
100
AcDbLine
 10
133.05127989915
 20
461.730989656208
 30
0.0
 11
133.05127989915
 21
460.457389656208
 31
0.0
  0
LINE
  5
193
330
1F
100
AcDbEntity
  8
0
  6
Continuous
 62
     3
100
AcDbLine
 10
133.95639617822
 20
460.457389656208
 30
0.0
 11
133.95639617822
 21
461.730989656208
 31
0.0
  0
LINE
  5
194
330
1F
100
AcDbEntity
  8
0
  6
Continuous
 62
     3
100
AcDbLine
 10
131.874399705769
 20
460.457389656208
 30
0.0
 11
131.685112818643
 21
460.427792070221
 31
0.0
  0
LINE
  5
195
330
1F
100
AcDbEntity
  8
0
  6
Continuous
 62
     3
100
AcDbLine
 10
134.437437415842
 20
463.346462411953
 30
0.0
 11
134.636225633629
 21
463.31796943407
 31
0.0
  0
LINE
  5
196
330
1F
100
AcDbEntity
  8
0
  6
Continuous
 62
     3
100
AcDbLine
 10
134.287025449135
 20
463.432698606198
 30
0.0
 11
134.437437415842
 21
463.346462411953
 31
0.0
  0
LINE
  5
197
330
1F
100
AcDbEntity
  8
0
  6
Continuous
 62
     3
100
AcDbLine
 10
134.193782961526
 20
463.552981415214
 30
0.0
 11
134.287025449135
 21
463.432698606198
 31
0.0
  0
LINE
  5
198
330
1F
100
AcDbEntity
  8
0
  6
Continuous
 62
     3
100
AcDbLine
 10
134.21386587249
 20
463.889132669813
 30
0.0
 11
134.177878485874
 21
463.703437754876
 31
0.0
  0
LINE
  5
199
330
1F
100
AcDbEntity
  8
0
  6
Continuous
 62
     3
100
AcDbLine
 10
134.177878485874
 20
463.703437754876
 30
0.0
 11
134.193782961526
 21
463.552981415214
 31
0.0
  0
LINE
  5
19A
330
1F
100
AcDbEntity
  8
0
  6
Continuous
 62
     3
100
AcDbLine
 10
132.661108640667
 20
463.921988110415
 30
0.0
 11
132.38444126836
 21
464.189663793123
 31
0.0
  0
LINE
  5
19B
330
1F
100
AcDbEntity
  8
0
  6
Continuous
 62
     3
100
AcDbLine
 10
134.951904491467
 20
463.45371134294
 30
0.0
 11
135.212839800783
 21
463.838404541818
 31
0.0
  0
LINE
  5
19C
330
1F
100
AcDbEntity
  8
0
  6
Continuous
 62
     3
100
AcDbLine
 10
134.636225633629
 20
463.31796943407
 30
0.0
 11
134.951904491467
 21
463.45371134294
 31
0.0
  0
LINE
  5
19D
330
1F
100
AcDbEntity
  8
0
  6
Continuous
 62
     3
100
AcDbLine
 10
133.682364693687
 20
463.777340475201
 30
0.0
 11
133.777605989859
 21
464.039444522267
 31
0.0
  0
LINE
  5
19E
330
1F
100
AcDbEntity
  8
0
  6
Continuous
 62
     3
100
AcDbLine
 10
131.727429829434
 20
463.674824841852
 30
0.0
 11
132.103046473111
 21
463.287188465577
 31
0.0
  0
LINE
  5
19F
330
1F
100
AcDbEntity
  8
0
  6
Continuous
 62
     3
100
AcDbLine
 10
131.705054639075
 20
462.556942035793
 30
0.0
 11
131.598645966636
 21
462.465430577495
 31
0.0
  0
LINE
  5
1A0
330
1F
100
AcDbEntity
  8
0
  6
Continuous
 62
     3
100
AcDbLine
 10
131.600290920295
 20
461.868734074773
 30
0.0
 11
131.70788262177
 21
461.776205211505
 31
0.0
  0
LINE
  5
1A1
330
1F
100
AcDbEntity
  8
0
  6
Continuous
 62
     3
100
AcDbLine
 10
131.878199014519
 20
459.601389656208
 30
0.0
 11
134.94416910283
 21
459.601389656208
 31
0.0
  0
LINE
  5
1A2
330
1F
100
AcDbEntity
  8
0
  6
Continuous
 62
     3
100
AcDbLine
 10
131.583713991184
 20
459.751211704537
 30
0.0
 11
131.691626143212
 21
459.645149475114
 31
0.0
  0
LINE
  5
1A3
330
1F
100
AcDbEntity
  8
0
  6
Continuous
 62
     3
100
AcDbLine
 10
132.961942520765
 20
465.671165147561
 30
0.0
 11
132.991841943606
 21
465.786875913956
 31
0.0
  0
LINE
  5
1A4
330
1F
100
AcDbEntity
  8
0
  6
Continuous
 62
     3
100
AcDbLine
 10
133.264594889125
 20
463.303741433121
 30
0.0
 11
133.682364693687
 21
463.777340475201
 31
0.0
  0
LINE
  5
1A5
330
1F
100
AcDbEntity
  8
0
  6
Continuous
 62
     3
100
AcDbLine
 10
132.838942301572
 20
470.82751612689
 30
0.0
 11
133.117359883065
 21
470.476338750765
 31
0.0
  0
LINE
  5
1A6
330
1F
100
AcDbEntity
  8
0
  6
Continuous
 62
     3
100
AcDbLine
 10
132.744303154964
 20
471.234464457301
 30
0.0
 11
132.838942301572
 21
470.82751612689
 31
0.0
  0
LINE
  5
1A7
330
1F
100
AcDbEntity
  8
0
  6
Continuous
 62
     3
100
AcDbLine
 10
132.744303154964
 20
472.378989656208
 30
0.0
 11
132.744303154964
 21
471.234464457301
 31
0.0
  0
LINE
  5
1A8
330
1F
100
AcDbEntity
  8
0
  6
Continuous
 62
     3
100
AcDbLine
 10
132.066173032851
 20
457.48134966472
 30
0.0
 11
132.06617303285
 21
436.58497462654
 31
0.0
  0
LINE
  5
1A9
330
1F
100
AcDbEntity
  8
0
  6
Continuous
 62
     3
100
AcDbLine
 10
134.075868925435
 20
465.206616049546
 30
0.0
 11
134.207798530024
 21
465.26334577952
 31
0.0
  0
LINE
  5
1AA
330
1F
100
AcDbEntity
  8
0
  6
Continuous
 62
     3
100
AcDbLine
 10
132.473636461955
 20
465.13232492334
 30
0.0
 11
132.854878938606
 21
465.533053126575
 31
0.0
  0
LINE
  5
1AB
330
1F
100
AcDbEntity
  8
0
  6
Continuous
 62
     3
100
AcDbLine
 10
134.207798530024
 20
465.26334577952
 30
0.0
 11
134.431540002926
 21
465.125904589023
 31
0.0
  0
LINE
  5
1AC
330
1F
100
AcDbEntity
  8
0
  6
Continuous
 62
     3
100
AcDbLine
 10
131.729806637253
 20
465.610669926485
 30
0.0
 11
131.575158291203
 21
465.161803102073
 31
0.0
  0
LINE
  5
1AD
330
1F
100
AcDbEntity
  8
0
  6
Continuous
 62
     3
100
AcDbLine
 10
131.496998233913
 20
468.194374626296
 30
0.0
 11
131.574953456651
 21
467.607761575197
 31
0.0
  0
LINE
  5
1AE
330
1F
100
AcDbEntity
  8
0
  6
Continuous
 62
     3
100
AcDbLine
 10
131.59471209873
 20
468.799418877239
 30
0.0
 11
131.496998233913
 21
468.194374626296
 31
0.0
  0
LINE
  5
1AF
330
1F
100
AcDbEntity
  8
0
  6
Continuous
 62
     3
100
AcDbLine
 10
131.066173032851
 20
474.587331195496
 30
0.0
 11
128.066173032851
 21
474.587331061793
 31
0.0
  0
LINE
  5
1B0
330
1F
100
AcDbEntity
  8
0
  6
Continuous
 62
     3
100
AcDbLine
 10
133.533792398476
 20
470.280994043537
 30
0.0
 11
134.03730449394
 21
470.197720889287
 31
0.0
  0
LINE
  5
1B1
330
1F
100
AcDbEntity
  8
0
  6
Continuous
 62
     3
100
AcDbLine
 10
134.03730449394
 20
470.197720889287
 30
0.0
 11
134.517938801189
 21
470.263856169964
 31
0.0
  0
LINE
  5
1B2
330
1F
100
AcDbEntity
  8
0
  6
Continuous
 62
     3
100
AcDbLine
 10
134.664229816029
 20
473.217389656208
 30
0.0
 11
131.935154316389
 21
473.217389656208
 31
0.0
  0
LINE
  5
1B3
330
1F
100
AcDbEntity
  8
0
  6
Continuous
 62
     3
100
AcDbLine
 10
132.746763549321
 20
466.147738049646
 30
0.0
 11
132.587427608499
 21
466.175143831468
 31
0.0
  0
LINE
  5
1B4
330
1F
100
AcDbEntity
  8
0
  6
Continuous
 62
     3
100
AcDbLine
 10
132.991841943606
 20
465.786875913956
 30
0.0
 11
132.960177929312
 21
465.936646701569
 31
0.0
  0
LINE
  5
1B5
330
1F
100
AcDbEntity
  8
0
  6
Continuous
 62
     3
100
AcDbLine
 10
132.960177929312
 20
465.936646701569
 30
0.0
 11
132.879188310813
 21
466.048088416624
 31
0.0
  0
LINE
  5
1B6
330
1F
100
AcDbEntity
  8
0
  6
Continuous
 62
     3
100
AcDbLine
 10
134.127578080124
 20
466.103032335595
 30
0.0
 11
133.45655526219
 21
465.830522513423
 31
0.0
  0
LINE
  5
1B7
330
1F
100
AcDbEntity
  8
0
  6
Continuous
 62
     3
100
AcDbLine
 10
132.106357278607
 20
466.047845221097
 30
0.0
 11
131.729806637253
 21
465.610669926485
 31
0.0
  0
LINE
  5
1B8
330
1F
100
AcDbEntity
  8
0
  6
Continuous
 62
     3
100
AcDbLine
 10
132.587427608499
 20
466.175143831468
 30
0.0
 11
132.106357278607
 21
466.047845221097
 31
0.0
  0
LINE
  5
1B9
330
1F
100
AcDbEntity
  8
0
  6
Continuous
 62
     3
100
AcDbLine
 10
132.879188310813
 20
466.048088416624
 30
0.0
 11
132.746763549321
 21
466.147738049646
 31
0.0
  0
LINE
  5
1BA
330
1F
100
AcDbEntity
  8
0
  6
Continuous
 62
     3
100
AcDbLine
 10
133.117359883065
 20
470.476338750765
 30
0.0
 11
133.533792398476
 21
470.280994043537
 31
0.0
  0
LINE
  5
1BB
330
1F
100
AcDbEntity
  8
0
  6
Continuous
 62
     3
100
AcDbLine
 10
128.066173032851
 20
458.482568753318
 30
0.0
 11
131.066173032851
 21
458.482568753318
 31
0.0
  0
LINE
  5
1BC
330
1F
100
AcDbEntity
  8
0
  6
Continuous
 62
     3
100
AcDbLine
 10
135.328821865756
 20
464.254006941305
 30
0.0
 11
135.36781588312
 21
464.67319262797
 31
0.0
  0
LINE
  5
1BD
330
1F
100
AcDbEntity
  8
0
  6
Continuous
 62
     3
100
AcDbLine
 10
132.38444126836
 20
464.189663793123
 30
0.0
 11
132.338265593799
 21
464.686052294652
 31
0.0
  0
LINE
  5
1BE
330
1F
100
AcDbEntity
  8
0
  6
Continuous
 62
     3
100
AcDbLine
 10
133.877514724925
 20
464.348761966032
 30
0.0
 11
133.938477528885
 21
464.663330034467
 31
0.0
  0
LINE
  5
1BF
330
1F
100
AcDbEntity
  8
0
  6
Continuous
 62
     3
100
AcDbLine
 10
131.496774582658
 20
464.6730806793
 30
0.0
 11
131.555374190328
 21
464.118728390744
 31
0.0
  0
LINE
  5
1C0
330
1F
100
AcDbEntity
  8
0
  6
Continuous
 62
     3
100
AcDbLine
 10
120.566173032851
 20
463.798878246603
 30
0.0
 11
120.566173032851
 21
469.271021567479
 31
0.0
  0
LINE
  5
1C1
330
1F
100
AcDbEntity
  8
0
  6
Continuous
 62
     3
100
AcDbLine
 10
134.017791527057
 20
464.953222697786
 30
0.0
 11
134.017791527057
 21
465.028891661983
 31
0.0
  0
LINE
  5
1C2
330
1F
100
AcDbEntity
  8
0
  6
Continuous
 62
     3
100
AcDbLine
 10
134.017791527057
 20
465.028891661983
 30
0.0
 11
134.043444855958
 21
465.095077250547
 31
0.0
  0
LINE
  5
1C3
330
1F
100
AcDbEntity
  8
0
  6
Continuous
 62
     3
100
AcDbLine
 10
134.043444855958
 20
465.095077250547
 30
0.0
 11
134.075868925435
 21
465.206616049546
 31
0.0
  0
LINE
  5
1C4
330
1F
100
AcDbEntity
  8
0
  6
Continuous
 62
     3
100
AcDbLine
 10
134.431540002926
 20
465.125904589023
 30
0.0
 11
134.505977620232
 21
464.784484050978
 31
0.0
  0
LINE
  5
1C5
330
1F
100
AcDbEntity
  8
0
  6
Continuous
 62
     3
100
AcDbLine
 10
132.338265593799
 20
464.686052294652
 30
0.0
 11
132.473636461955
 21
465.13232492334
 31
0.0
  0
LINE
  5
1C6
330
1F
100
AcDbEntity
  8
0
  6
Continuous
 62
     3
100
AcDbLine
 10
135.36781588312
 20
464.67319262797
 30
0.0
 11
135.289667778199
 21
465.21085158983
 31
0.0
  0
LINE
  5
1C7
330
1F
100
AcDbEntity
  8
0
  6
Continuous
 62
     3
100
AcDbLine
 10
131.575158291203
 20
465.161803102073
 30
0.0
 11
131.496774582658
 21
464.6730806793
 31
0.0
  0
LINE
  5
1C8
330
1F
100
AcDbEntity
  8
0
  6
Continuous
 62
     3
100
AcDbLine
 10
133.45655526219
 20
465.830522513423
 30
0.0
 11
133.086889832178
 21
464.977179052354
 31
0.0
  0
LINE
  5
1C9
330
1F
100
AcDbEntity
  8
0
  6
Continuous
 62
     3
100
AcDbLine
 10
122.566173032853
 20
460.653551922965
 30
0.0
 11
122.566173032853
 21
472.416347892146
 31
0.0
  0
LINE
  5
1CA
330
1F
100
AcDbEntity
  8
0
  6
Continuous
 62
     3
100
AcDbLine
 10
162.91093953832
 20
355.082885978306
 30
0.0
 11
162.785011454153
 21
351.476777464664
 31
0.0
  0
LINE
  5
1CB
330
1F
100
AcDbEntity
  8
0
  6
Continuous
 62
     3
100
AcDbLine
 10
109.337161213523
 20
336.035169411904
 30
0.0
 11
146.794758221848
 21
336.035169411904
 31
0.0
  0
LINE
  5
1CC
330
1F
100
AcDbEntity
  8
0
  6
Continuous
 62
     3
100
AcDbLine
 10
183.065959717685
 20
356.047986481603
 30
0.0
 11
163.910330365339
 21
356.047986481603
 31
0.0
  0
LINE
  5
1CD
330
1F
100
AcDbEntity
  8
0
  6
Continuous
 62
     3
100
AcDbLine
 10
93.2209852859981
 20
355.082885978306
 30
0.0
 11
93.3469133701652
 21
351.476777464664
 31
0.0
  0
LINE
  5
1CE
330
1F
100
AcDbEntity
  8
1
  6
Continuous
 62
     3
100
AcDbLine
 10
128.066388205258
 20
413.912377087855
 30
0.0
 11
128.066388205258
 21
411.900220759329
 31
0.0
  0
LINE
  5
1CF
330
1F
100
AcDbEntity
  8
1
  6
Continuous
 62
     3
100
AcDbLine
 10
97.1356145881163
 20
423.962391711939
 30
0.0
 11
95.9545034806685
 21
422.336708813648
 31
0.0
  0
LINE
  5
1D0
330
1F
100
AcDbEntity
  8
1
  6
Continuous
 62
     3
100
AcDbLine
 10
78.0193280432999
 20
450.27367297736
 30
0.0
 11
76.1056738592601
 21
449.65187488937
 31
0.0
  0
LINE
  5
1D1
330
1F
100
AcDbEntity
  8
1
  6
Continuous
 62
     3
100
AcDbLine
 10
78.0193268979753
 20
482.79622331294
 30
0.0
 11
76.1056661707192
 21
483.417995223333
 31
0.0
  0
LINE
  5
1D2
330
1F
100
AcDbEntity
  8
1
  6
Continuous
 62
     3
100
AcDbLine
 10
97.1356115836014
 20
509.107505920403
 30
0.0
 11
95.9528858583786
 21
510.735365270635
 31
0.0
  0
LINE
  5
1D3
330
1F
100
AcDbEntity
  8
1
  6
Continuous
 62
     3
100
AcDbLine
 10
128.066590441721
 20
519.157298008495
 30
0.0
 11
128.066590441721
 21
521.169679036289
 31
0.0
  0
LINE
  5
1D4
330
1F
100
AcDbEntity
  8
1
  6
Continuous
 62
     3
100
AcDbLine
 10
158.997158100522
 20
509.107508093646
 30
0.0
 11
160.179863074329
 21
510.73538484264
 31
0.0
  0
LINE
  5
1D5
330
1F
100
AcDbEntity
  8
1
  6
Continuous
 62
     3
100
AcDbLine
 10
178.11344465274
 20
482.796226837886
 30
0.0
 11
180.027097061785
 21
483.418024349129
 31
0.0
  0
LINE
  5
1D6
330
1F
100
AcDbEntity
  8
1
  6
Continuous
 62
     3
100
AcDbLine
 10
178.113445798065
 20
450.273676502307
 30
0.0
 11
180.027108300324
 21
449.651904015195
 31
0.0
  0
LINE
  5
1D7
330
1F
100
AcDbEntity
  8
1
  6
Continuous
 62
     3
100
AcDbLine
 10
158.997161112439
 20
423.962393894845
 30
0.0
 11
160.179887934686
 21
422.334533034714
 31
0.0
  0
LINE
  5
1D8
330
1F
100
AcDbEntity
  8
1
  6
DOT_CENTER
 62
     1
100
AcDbLine
 10
189.961001980431
 20
466.534949907556
 30
0.0
 11
64.7624551644257
 21
466.534949907556
 31
0.0
  0
LINE
  5
1D9
330
1F
100
AcDbEntity
  8
1
  6
DOT_CENTER
 62
     1
100
AcDbLine
 10
85.0659597176852
 20
363.61666836884
 30
0.0
 11
85.0659597176852
 21
340.61666836884
 31
0.0
  0
LINE
  5
1DA
330
1F
100
AcDbEntity
  8
1
  6
DOT_CENTER
 62
     1
100
AcDbLine
 10
171.06638634802
 20
340.61666836884
 30
0.0
 11
171.06638634802
 21
363.61666836884
 31
0.0
  0
LINE
  5
1DB
330
1F
100
AcDbEntity
  8
0
  6
Continuous
 62
     3
100
AcDbLine
 10
77.5108590594752
 20
359.535169411904
 30
0.0
 11
176.465940026427
 21
359.535169411904
 31
0.0
  0
LINE
  5
1DC
330
1F
100
AcDbEntity
  8
1
  6
Continuous
 62
     3
100
AcDbLine
 10
128.066173032851
 20
458.071394909112
 30
0.0
 11
130.667279189487
 21
458.071394909112
 31
0.0
  0
LINE
  5
1DD
330
1F
100
AcDbEntity
  8
1
  6
Continuous
 62
     3
100
AcDbLine
 10
128.066173032851
 20
474.998504905999
 30
0.0
 11
130.667279189487
 21
474.998504905999
 31
0.0
  0
LINE
  5
1DE
330
1F
100
AcDbEntity
  8
0
  6
DASHED
 62
     6
100
AcDbLine
 10
131.101072529553
 20
359.798293900372
 30
0.0
 11
126.961474542743
 21
359.63627556854
 31
0.0
  0
LINE
  5
1DF
330
1F
100
AcDbEntity
  8
1
  6
Continuous
 62
     3
100
AcDbLine
 10
124.903895372682
 20
332.535169411904
 30
0.0
 11
125.525108131941
 21
331.535169411902
 31
0.0
  0
LINE
  5
1E0
330
1F
100
AcDbEntity
  8
1
  6
Continuous
 62
     3
100
AcDbLine
 10
130.607237933762
 20
331.535169411902
 30
0.0
 11
131.228450693019
 21
332.535169411903
 31
0.0
  0
LINE
  5
1E1
330
1F
100
AcDbEntity
  8
1
  6
Continuous
 62
     3
100
AcDbLine
 10
118.566173032852
 20
-69.5439787458455
 30
0.0
 11
118.566173032852
 21
-94.0439844824772
 31
0.0
  0
LINE
  5
1E2
330
1F
100
AcDbEntity
  8
1
  6
Continuous
 62
     3
100
AcDbLine
 10
137.566173032852
 20
-69.5439787458455
 30
0.0
 11
137.566173032852
 21
-94.0439844824772
 31
0.0
  0
LINE
  5
1E3
330
1F
100
AcDbEntity
  8
2
  6
DOT_CENTER
 62
     1
100
AcDbLine
 10
145.801325792029
 20
-118.543969110889
 30
0.0
 11
138.001325792029
 21
-118.543969110889
 31
0.0
  0
LINE
  5
1E4
330
1F
100
AcDbEntity
  8
2
  6
DOT_CENTER
 62
     1
100
AcDbLine
 10
113.479934495642
 20
-100.043969110889
 30
0.0
 11
142.65241221781
 21
-100.043999628466
 31
0.0
  0
LINE
  5
1E5
330
1F
100
AcDbEntity
  8
4
  6
Continuous
 62
     3
100
AcDbLine
 10
140.566172948253
 20
-113.793984111177
 30
0.0
 11
140.566172948253
 21
-123.293983932577
 31
0.0
  0
LINE
  5
1E6
330
1F
100
AcDbEntity
  8
4
  6
Continuous
 62
     3
100
AcDbLine
 10
115.566173418253
 20
-123.043983937277
 30
0.0
 11
115.566173418253
 21
-107.705422053408
 31
0.0
  0
LINE
  5
1E7
330
1F
100
AcDbEntity
  8
4
  6
Continuous
 62
     3
100
AcDbLine
 10
116.066173408852
 20
-106.382546422746
 30
0.0
 11
116.066173408852
 21
-96.0439844448772
 31
0.0
  0
LINE
  5
1E8
330
1F
100
AcDbEntity
  8
4
  6
Continuous
 62
     3
100
AcDbLine
 10
140.566172948253
 20
-116.260484064807
 30
0.0
 11
140.566172948252
 21
-107.705422053408
 31
0.0
  0
LINE
  5
1E9
330
1F
100
AcDbEntity
  8
4
  6
Continuous
 62
     3
100
AcDbLine
 10
140.566172948253
 20
-123.043983937277
 30
0.0
 11
140.566172948253
 21
-120.827483978947
 31
0.0
  0
LINE
  5
1EA
330
1F
100
AcDbEntity
  8
4
  6
Continuous
 62
     3
100
AcDbLine
 10
140.066172957652
 20
-106.382546422746
 30
0.0
 11
140.066172957652
 21
-96.0439844448772
 31
0.0
  0
LINE
  5
1EB
330
1F
100
AcDbEntity
  8
4
  6
Continuous
 62
     3
100
AcDbLine
 10
138.066172995252
 20
-94.0439844824772
 30
0.0
 11
118.066173371252
 21
-94.0439844824772
 31
0.0
  0
LINE
  5
1EC
330
1F
100
AcDbEntity
  8
4
  6
Continuous
 62
     3
100
AcDbLine
 10
138.566172985852
 20
-125.043983899677
 30
0.0
 11
117.566173380653
 21
-125.043983899677
 31
0.0
  0
LINE
  5
1ED
330
1F
100
AcDbEntity
  8
1
  6
Continuous
 62
     3
100
AcDbLine
 10
141.837303892684
 20
-113.793969110889
 30
0.0
 11
140.566172948253
 21
-113.793969110889
 31
0.0
  0
LINE
  5
1EE
330
1F
100
AcDbEntity
  8
1
  6
Continuous
 62
     3
100
AcDbLine
 10
141.837303892684
 20
-123.293969110889
 30
0.0
 11
140.566172948253
 21
-123.293969110889
 31
0.0
  0
LINE
  5
1EF
330
1F
100
AcDbEntity
  8
1
  6
Continuous
 62
     3
100
AcDbLine
 10
143.848883545394
 20
-118.043969110889
 30
0.0
 11
143.848883545394
 21
-119.043969110889
 31
0.0
  0
LINE
  5
1F0
330
1F
100
AcDbEntity
  8
1
  6
Continuous
 62
     3
100
AcDbLine
 10
144.250532659588
 20
-119.043969110889
 30
0.0
 11
143.848883545394
 21
-119.043969110889
 31
0.0
  0
LINE
  5
1F1
330
1F
100
AcDbEntity
  8
1
  6
Continuous
 62
     3
100
AcDbLine
 10
144.250532659588
 20
-118.043969110889
 30
0.0
 11
143.848883545394
 21
-118.043969110889
 31
0.0
  0
LINE
  5
1F2
330
1F
100
AcDbEntity
  8
1
  6
Continuous
 62
     3
100
AcDbLine
 10
139.316172952953
 20
-107.043984238077
 30
0.0
 11
116.816173413552
 21
-107.043984238077
 31
0.0
  0
LINE
  5
1F3
330
1F
100
AcDbEntity
  8
1
  6
Continuous
 62
     3
100
AcDbLine
 10
177.06638634802
 20
482.455945712736
 30
0.0
 11
158.350133275878
 21
508.216658060196
 31
0.0
  0
LINE
  5
1F4
330
1F
100
AcDbEntity
  8
1
  6
Continuous
 62
     3
100
AcDbLine
 10
158.350133275878
 20
508.216658060196
 30
0.0
 11
128.066599663108
 21
518.056374602516
 31
0.0
  0
LINE
  5
1F5
330
1F
100
AcDbEntity
  8
1
  6
Continuous
 62
     3
100
AcDbLine
 10
128.066599663108
 20
518.056374602516
 30
0.0
 11
97.7830660503374
 21
508.216658060196
 31
0.0
  0
LINE
  5
1F6
330
1F
100
AcDbEntity
  8
1
  6
Continuous
 62
     3
100
AcDbLine
 10
97.7830660503374
 20
508.216658060196
 30
0.0
 11
79.0668129781954
 21
482.455945712736
 31
0.0
  0
LINE
  5
1F7
330
1F
100
AcDbEntity
  8
1
  6
Continuous
 62
     3
100
AcDbLine
 10
79.0668129781954
 20
482.455945712736
 30
0.0
 11
79.0668129781954
 21
450.613954102459
 31
0.0
  0
LINE
  5
1F8
330
1F
100
AcDbEntity
  8
1
  6
Continuous
 62
     3
100
AcDbLine
 10
79.0668129781954
 20
450.613954102459
 30
0.0
 11
97.7830660503374
 21
424.853241754999
 31
0.0
  0
LINE
  5
1F9
330
1F
100
AcDbEntity
  8
1
  6
Continuous
 62
     3
100
AcDbLine
 10
97.7830660503374
 20
424.853241754999
 30
0.0
 11
128.066599663108
 21
415.013525212679
 31
0.0
  0
LINE
  5
1FA
330
1F
100
AcDbEntity
  8
1
  6
Continuous
 62
     3
100
AcDbLine
 10
128.066599663108
 20
415.013525212679
 30
0.0
 11
158.350133275878
 21
424.853241754999
 31
0.0
  0
LINE
  5
1FB
330
1F
100
AcDbEntity
  8
1
  6
Continuous
 62
     3
100
AcDbLine
 10
158.350133275878
 20
424.853241754999
 30
0.0
 11
177.06638634802
 21
450.613954102459
 31
0.0
  0
LINE
  5
1FC
330
1F
100
AcDbEntity
  8
1
  6
Continuous
 62
     3
100
AcDbLine
 10
177.06638634802
 20
450.613954102459
 30
0.0
 11
177.06638634802
 21
482.455945712736
 31
0.0
  0
LINE
  5
1FD
330
1F
100
AcDbEntity
  8
1
  6
Continuous
 62
     3
100
AcDbLine
 10
108.50046873678
 20
463.957172129846
 30
0.0
 11
107.651276280104
 21
463.957172129846
 31
0.0
  0
LINE
  5
1FE
330
1F
100
AcDbEntity
  8
1
  6
Continuous
 62
     3
100
AcDbLine
 10
108.749638982894
 20
463.725676359856
 30
0.0
 11
108.50046873678
 21
463.957172129846
 31
0.0
  0
LINE
  5
1FF
330
1F
100
AcDbEntity
  8
1
  6
Continuous
 62
     3
100
AcDbLine
 10
107.45816311657
 20
462.913800420187
 30
0.0
 11
108.749638982894
 21
463.725676359856
 31
0.0
  0
LINE
  5
200
330
1F
100
AcDbEntity
  8
1
  6
Continuous
 62
     3
100
AcDbLine
 10
109.354718552852
 20
463.175135907699
 30
0.0
 11
107.906461391025
 21
462.218280446752
 31
0.0
  0
LINE
  5
201
330
1F
100
AcDbEntity
  8
1
  6
Continuous
 62
     3
100
AcDbLine
 10
110.205152122978
 20
462.392039231535
 30
0.0
 11
109.354718552852
 21
463.175135907699
 31
0.0
  0
LINE
  5
202
330
1F
100
AcDbEntity
  8
1
  6
Continuous
 62
     3
100
AcDbLine
 10
109.6404356374
 20
463.957172129846
 30
0.0
 11
110.736570630077
 21
462.977958203055
 31
0.0
  0
LINE
  5
203
330
1F
100
AcDbEntity
  8
1
  6
Continuous
 62
     3
100
AcDbLine
 10
110.481923046273
 20
463.957172129846
 30
0.0
 11
109.6404356374
 21
463.957172129846
 31
0.0
  0
LINE
  5
204
330
1F
100
AcDbEntity
  8
1
  6
Continuous
 62
     3
100
AcDbLine
 10
107.651276280105
 20
464.730505463179
 30
0.0
 11
110.481923046273
 21
464.730505463179
 31
0.0
  0
LINE
  5
205
330
1F
100
AcDbEntity
  8
1
  6
Continuous
 62
     3
100
AcDbLine
 10
110.090480260204
 20
468.595115745103
 30
0.0
 11
110.090480260204
 21
469.148283240957
 31
0.0
  0
LINE
  5
206
330
1F
100
AcDbEntity
  8
1
  6
Continuous
 62
     3
100
AcDbLine
 10
110.86858971294
 20
470.474784070144
 30
0.0
 11
110.86858971294
 21
468.595115745103
 31
0.0
  0
LINE
  5
207
330
1F
100
AcDbEntity
  8
1
  6
Continuous
 62
     3
100
AcDbLine
 10
110.090480260204
 20
469.92161657429
 30
0.0
 11
110.090480260204
 21
470.474784070144
 31
0.0
  0
LINE
  5
208
330
1F
100
AcDbEntity
  8
1
  6
Continuous
 62
     3
100
AcDbLine
 10
107.651276280104
 20
469.92161657429
 30
0.0
 11
110.090480260204
 21
469.92161657429
 31
0.0
  0
LINE
  5
209
330
1F
100
AcDbEntity
  8
1
  6
Continuous
 62
     3
100
AcDbLine
 10
110.090480260204
 20
469.148283240957
 30
0.0
 11
107.651276280104
 21
469.148283240957
 31
0.0
  0
LINE
  5
20A
330
1F
100
AcDbEntity
  8
1
  6
Continuous
 62
     3
100
AcDbLine
 10
106.868873565605
 20
466.884949907623
 30
0.0
 11
104.666599663189
 21
466.884949907623
 31
0.0
  0
LINE
  5
20B
330
1F
100
AcDbEntity
  8
1
  6
Continuous
 62
     3
100
AcDbLine
 10
106.868873565605
 20
466.184949907623
 30
0.0
 11
104.666599663189
 21
466.184949907623
 31
0.0
  0
LINE
  5
20C
330
1F
100
AcDbEntity
  8
1
  6
Continuous
 62
     3
100
AcDbLine
 10
113.466599663187
 20
466.884949907623
 30
0.0
 11
111.264325760773
 21
466.884949907623
 31
0.0
  0
LINE
  5
20D
330
1F
100
AcDbEntity
  8
1
  6
Continuous
 62
     3
100
AcDbLine
 10
113.466599663187
 20
466.184949907623
 30
0.0
 11
111.264325760773
 21
466.184949907623
 31
0.0
  0
LINE
  5
20E
330
1F
100
AcDbEntity
  8
0
  6
Continuous
 62
     3
100
AcDbLine
 10
73.0657517914598
 20
356.035169411904
 30
0.0
 11
73.0657517914598
 21
356.522352342205
 31
0.0
  0
LINE
  5
20F
330
1F
100
AcDbEntity
  8
1
  6
Continuous
 62
     3
100
AcDbLine
 10
73.4821971294764
 20
357.334426203672
 30
0.0
 11
75.7601950735249
 21
358.971390996304
 31
0.0
  0
LINE
  5
210
330
1F
100
AcDbEntity
  8
0
  6
Continuous
 62
     3
100
AcDbLine
 10
183.065746402512
 20
356.035169411904
 30
0.0
 11
183.065746402512
 21
356.368511861508
 31
0.0
  0
LINE
  5
211
330
1F
100
AcDbEntity
  8
1
  6
Continuous
 62
     3
100
AcDbLine
 10
182.45037343871
 20
357.291583929672
 30
0.0
 11
177.619821135022
 21
359.304385616397
 31
0.0
  0
LINE
  5
212
330
1F
100
AcDbEntity
  8
0
  6
Continuous
 62
     3
100
AcDbLine
 10
92.221594458979
 20
356.047986481603
 30
0.0
 11
73.0659651066333
 21
356.047986481603
 31
0.0
  0
LINE
  5
213
330
1F
100
AcDbEntity
  8
1
  6
Continuous
 62
     3
100
AcDbLine
 10
92.221594458979
 20
356.047986481603
 30
0.0
 11
93.187283233786
 21
356.047986481603
 31
0.0
  0
LINE
  5
214
330
1F
100
AcDbEntity
  8
0
  6
Continuous
 62
     3
100
AcDbLine
 10
162.944641590532
 20
356.047986481603
 30
0.0
 11
93.187283233786
 21
356.047986481603
 31
0.0
  0
LINE
  5
215
330
1F
100
AcDbEntity
  8
1
  6
Continuous
 62
     3
100
AcDbLine
 10
163.910330365339
 20
356.047986481603
 30
0.0
 11
162.944641590532
 21
356.047986481603
 31
0.0
  0
LINE
  5
216
330
1F
100
AcDbEntity
  8
1
  6
DASHED
 62
     3
100
AcDbLine
 10
123.566173032852
 20
128.956015630323
 30
0.0
 11
132.566173032852
 21
128.956015630324
 31
0.0
  0
LINE
  5
217
330
1F
100
AcDbEntity
  8
1
  6
DASHED
 62
     3
100
AcDbLine
 10
123.566173032852
 20
-14.5648305880975
 30
0.0
 11
123.566173032852
 21
128.956015630323
 31
0.0
  0
LINE
  5
218
330
1F
100
AcDbEntity
  8
1
  6
DASHED
 62
     3
100
AcDbLine
 10
132.566173032852
 20
128.956015630324
 30
0.0
 11
126.040568532571
 21
-14.5648305880975
 31
0.0
  0
LINE
  5
219
330
1F
100
AcDbEntity
  8
1
  6
Continuous
 62
     3
100
AcDbLine
 10
132.201673032852
 20
-60.9688055055205
 30
0.0
 11
130.091777533134
 21
-14.5648305880975
 31
0.0
  0
LINE
  5
21A
330
1F
100
AcDbEntity
  8
1
  6
DASHED
 62
     3
100
AcDbLine
 10
130.091777533134
 20
-14.5648305880975
 30
0.0
 11
123.566173032852
 21
128.956015630323
 31
0.0
  0
LINE
  5
21B
330
1F
100
AcDbEntity
  8
1
  6
Continuous
 62
     3
100
AcDbLine
 10
136.962792254581
 20
336.035169411904
 30
0.0
 11
136.962792254581
 21
335.035169411906
 31
0.0
  0
LINE
  5
21C
330
1F
100
AcDbEntity
  8
1
  6
Continuous
 62
     3
100
AcDbLine
 10
134.419505800987
 20
334.835169411904
 30
0.0
 11
134.339188031156
 21
332.535169411903
 31
0.0
  0
LINE
  5
21D
330
1F
100
AcDbEntity
  8
0
  6
Continuous
 62
     3
100
AcDbLine
 10
132.549322006744
 20
332.052619160255
 30
0.0
 11
132.531252263359
 21
331.535169411902
 31
0.0
  0
LINE
  5
21E
330
1F
100
AcDbEntity
  8
0
  6
Continuous
 62
     3
100
AcDbLine
 10
123.601093802343
 20
331.535169411902
 30
0.0
 11
123.583024058958
 21
332.052619160255
 31
0.0
  0
LINE
  5
21F
330
1F
100
AcDbEntity
  8
0
  6
Continuous
 62
     3
100
AcDbLine
 10
121.793158034549
 20
332.535169411904
 30
0.0
 11
134.339188031156
 21
332.535169411903
 31
0.0
  0
LINE
  5
220
330
1F
100
AcDbEntity
  8
1
  6
Continuous
 62
     3
100
AcDbLine
 10
121.712840264718
 20
334.835169411904
 30
0.0
 11
121.793158034549
 21
332.535169411904
 31
0.0
  0
LINE
  5
221
330
1F
100
AcDbEntity
  8
0
  6
Continuous
 62
     3
100
AcDbLine
 10
121.712840264718
 20
334.835169411904
 30
0.0
 11
134.419505800987
 21
334.835169411904
 31
0.0
  0
LINE
  5
222
330
1F
100
AcDbEntity
  8
0
  6
Continuous
 62
     3
100
AcDbLine
 10
120.516173032852
 20
335.035169411906
 30
0.0
 11
136.962792254581
 21
335.035169411906
 31
0.0
  0
LINE
  5
223
330
1F
100
AcDbEntity
  8
1
  6
Continuous
 62
     3
100
AcDbLine
 10
120.516173032852
 20
335.035169411906
 30
0.0
 11
120.516173032852
 21
336.035169411904
 31
0.0
  0
LINE
  5
224
330
1F
100
AcDbEntity
  8
0
  6
Continuous
 62
     3
100
AcDbLine
 10
133.81617303285
 20
335.035169411906
 30
0.0
 11
133.81617303285
 21
334.835169411904
 31
0.0
  0
LINE
  5
225
330
1F
100
AcDbEntity
  8
0
  6
Continuous
 62
     3
100
AcDbLine
 10
122.316173032851
 20
335.035169411906
 30
0.0
 11
122.316173032851
 21
334.835169411904
 31
0.0
  0
ARC
  5
226
330
1F
100
AcDbEntity
  8
1
  6
Continuous
 62
     3
100
AcDbCircle
 10
130.667279189487
 20
456.571394909112
 30
0.0
 40
1.5
100
AcDbArc
 50
0.0
 51
90.0
  0
ARC
  5
227
330
1F
100
AcDbEntity
  8
1
  6
Continuous
 62
     3
100
AcDbCircle
 10
130.667279189487
 20
476.498504905999
 30
0.0
 40
1.5
100
AcDbArc
 50
270.0
 51
0.0
  0
ARC
  5
228
330
1F
100
AcDbEntity
  8
1
  6
Continuous
 62
     3
100
AcDbCircle
 10
74.0657517914598
 20
356.522352342205
 30
0.0
 40
1.000000000000252
100
AcDbArc
 50
125.7009490018296
 51
180.0
  0
ARC
  5
229
330
1F
100
AcDbEntity
  8
1
  6
Continuous
 62
     3
100
AcDbCircle
 10
77.5108590594752
 20
356.535169411904
 30
0.0
 40
3.0
100
AcDbArc
 50
90.0
 51
125.7009490018426
  0
ARC
  5
22A
330
1F
100
AcDbEntity
  8
1
  6
Continuous
 62
     3
100
AcDbCircle
 10
182.065746402512
 20
356.368511861508
 30
0.0
 40
1.0
100
AcDbArc
 50
0.0
 51
67.37941183132868
  0
ARC
  5
22B
330
1F
100
AcDbEntity
  8
1
  6
Continuous
 62
     3
100
AcDbCircle
 10
176.465940026427
 20
356.535169411904
 30
0.0
 40
2.999999999999815
100
AcDbArc
 50
67.37941183131825
 51
90.0
  0
ARC
  5
22C
330
1F
100
AcDbEntity
  8
1
  6
Continuous
 62
     3
100
AcDbCircle
 10
92.221594458979
 20
355.047986481603
 30
0.0
 40
1.000000000000021
100
AcDbArc
 50
2.00000000002968
 51
90.0
  0
ARC
  5
22D
330
1F
100
AcDbEntity
  8
1
  6
Continuous
 62
     3
100
AcDbCircle
 10
163.910330365339
 20
355.047986481603
 30
0.0
 40
1.0
100
AcDbArc
 50
90.0
 51
177.9999999999701
  0
ARC
  5
22E
330
1F
100
AcDbEntity
  8
1
  6
Continuous
 62
     3
100
AcDbCircle
 10
133.049017420254
 20
332.035169411903
 30
0.0
 40
0.5
100
AcDbArc
 50
90.0
 51
177.9999999999135
  0
ARC
  5
22F
330
1F
100
AcDbEntity
  8
1
  6
Continuous
 62
     3
100
AcDbCircle
 10
123.083328645448
 20
332.035169411904
 30
0.0
 40
0.50000000000044
100
AcDbArc
 50
1.9999999999693
 51
90.0
  0
ARC
  5
230
330
1F
100
AcDbEntity
  8
1
  6
Continuous
 62
     3
100
AcDbCircle
 10
83.5663863480197
 20
465.034949907623
 30
0.0
 40
1.0
100
AcDbArc
 50
0.0
 51
90.0
  0
ARC
  5
231
330
1F
100
AcDbEntity
  8
1
  6
Continuous
 62
     3
100
AcDbCircle
 10
83.5663863480197
 20
468.034949907623
 30
0.0
 40
1.0
100
AcDbArc
 50
270.0
 51
0.0
  0
ARC
  5
232
330
1F
100
AcDbEntity
  8
1
  6
Continuous
 62
     3
100
AcDbCircle
 10
86.5663863480197
 20
468.034949907623
 30
0.0
 40
1.0
100
AcDbArc
 50
180.0
 51
270.0
  0
ARC
  5
233
330
1F
100
AcDbEntity
  8
1
  6
Continuous
 62
     3
100
AcDbCircle
 10
86.5663863480197
 20
465.034949907623
 30
0.0
 40
1.0
100
AcDbArc
 50
90.0
 51
180.0
  0
ARC
  5
234
330
1F
100
AcDbEntity
  8
1
  6
Continuous
 62
     3
100
AcDbCircle
 10
129.56638634802
 20
425.034949907623
 30
0.0
 40
1.0
100
AcDbArc
 50
180.0
 51
270.0
  0
ARC
  5
235
330
1F
100
AcDbEntity
  8
1
  6
Continuous
 62
     3
100
AcDbCircle
 10
126.56638634802
 20
425.034949907623
 30
0.0
 40
1.0
100
AcDbArc
 50
270.0
 51
0.0
  0
ARC
  5
236
330
1F
100
AcDbEntity
  8
1
  6
Continuous
 62
     3
100
AcDbCircle
 10
126.56638634802
 20
422.034949907623
 30
0.0
 40
1.0
100
AcDbArc
 50
0.0
 51
90.0
  0
ARC
  5
237
330
1F
100
AcDbEntity
  8
1
  6
Continuous
 62
     3
100
AcDbCircle
 10
129.56638634802
 20
422.034949907623
 30
0.0
 40
1.0
100
AcDbArc
 50
90.0
 51
180.0
  0
ARC
  5
238
330
1F
100
AcDbEntity
  8
1
  6
Continuous
 62
     3
100
AcDbCircle
 10
169.56638634802
 20
468.034949907623
 30
0.0
 40
1.0
100
AcDbArc
 50
270.0
 51
0.0
  0
ARC
  5
239
330
1F
100
AcDbEntity
  8
1
  6
Continuous
 62
     3
100
AcDbCircle
 10
169.56638634802
 20
465.034949907623
 30
0.0
 40
1.0
100
AcDbArc
 50
0.0
 51
90.0
  0
ARC
  5
23A
330
1F
100
AcDbEntity
  8
1
  6
Continuous
 62
     3
100
AcDbCircle
 10
172.56638634802
 20
465.034949907623
 30
0.0
 40
1.0
100
AcDbArc
 50
90.0
 51
180.0
  0
ARC
  5
23B
330
1F
100
AcDbEntity
  8
1
  6
Continuous
 62
     3
100
AcDbCircle
 10
172.56638634802
 20
468.034949907623
 30
0.0
 40
1.0
100
AcDbArc
 50
180.0
 51
270.0
  0
ARC
  5
23C
330
1F
100
AcDbEntity
  8
1
  6
Continuous
 62
     3
100
AcDbCircle
 10
126.56638634802
 20
508.034949907623
 30
0.0
 40
1.0
100
AcDbArc
 50
0.0
 51
90.0
  0
ARC
  5
23D
330
1F
100
AcDbEntity
  8
1
  6
Continuous
 62
     3
100
AcDbCircle
 10
129.56638634802
 20
508.034949907623
 30
0.0
 40
1.0
100
AcDbArc
 50
90.0
 51
180.0
  0
ARC
  5
23E
330
1F
100
AcDbEntity
  8
1
  6
Continuous
 62
     3
100
AcDbCircle
 10
129.56638634802
 20
511.034949907623
 30
0.0
 40
1.0
100
AcDbArc
 50
180.0
 51
270.0
  0
ARC
  5
23F
330
1F
100
AcDbEntity
  8
1
  6
Continuous
 62
     3
100
AcDbCircle
 10
126.56638634802
 20
511.034949907623
 30
0.0
 40
1.0
100
AcDbArc
 50
270.0
 51
0.0
  0
ARC
  5
240
330
1F
100
AcDbEntity
  8
0
  6
DASHED
 62
     6
100
AcDbCircle
 10
125.066173020981
 20
360.535169440559
 30
0.0
 40
0.999999988130995
100
AcDbArc
 50
180.0000016418103
 51
225.0000016418403
  0
ARC
  5
241
330
1F
100
AcDbEntity
  8
1
  6
Continuous
 62
     3
100
AcDbCircle
 10
128.066173032852
 20
309.535169411902
 30
0.0
 40
4.850000000000183
100
AcDbArc
 50
151.1978568940758
 51
270.0
  0
ARC
  5
242
330
1F
100
AcDbEntity
  8
1
  6
Continuous
 62
     3
100
AcDbCircle
 10
128.066173032852
 20
309.535169411902
 30
0.0
 40
4.850000000000023
100
AcDbArc
 50
270.0
 51
28.80214310592409
  0
ARC
  5
243
330
1F
100
AcDbEntity
  8
11
  6
Continuous
 62
     3
100
AcDbCircle
 10
128.066173032852
 20
306.200188602386
 30
0.0
 40
7.165019190483581
100
AcDbArc
 50
198.9246444160476
 51
341.0753555839525
  0
ARC
  5
244
330
1F
100
AcDbEntity
  8
11
  6
Continuous
 62
     3
100
AcDbCircle
 10
128.066173032852
 20
304.035169411902
 30
0.0
 40
4.999999999999986
100
AcDbArc
 50
180.0
 51
0.0
  0
ARC
  5
245
330
1F
100
AcDbEntity
  8
11
  6
Continuous
 62
     3
100
AcDbCircle
 10
128.066173032852
 20
309.785169411902
 30
0.0
 40
4.249999999999986
100
AcDbArc
 50
180.0
 51
0.0
  0
ARC
  5
246
330
1F
100
AcDbEntity
  8
11
  6
Continuous
 62
     3
100
AcDbCircle
 10
118.816173032852
 20
315.193940229143
 30
0.0
 40
5.0
100
AcDbArc
 50
0.0
 51
75.52248781406941
  0
ARC
  5
247
330
1F
100
AcDbEntity
  8
11
  6
Continuous
 62
     3
100
AcDbCircle
 10
137.316173032852
 20
315.193940229143
 30
0.0
 40
4.999999999999773
100
AcDbArc
 50
104.4775121859306
 51
180.0
  0
ARC
  5
248
330
1F
100
AcDbEntity
  8
1
  6
Continuous
 62
     3
100
AcDbCircle
 10
128.066173032852
 20
321.035169411902
 30
0.0
 40
2.199999999999989
100
AcDbArc
 50
90.0
 51
340.0677295278022
  0
ARC
  5
249
330
1F
100
AcDbEntity
  8
1
  6
Continuous
 62
     3
100
AcDbCircle
 10
128.066173032852
 20
321.035169411902
 30
0.0
 40
1.400000000001
100
AcDbArc
 50
90.0
 51
327.6076345141639
  0
ARC
  5
24A
330
1F
100
AcDbEntity
  8
1
  6
Continuous
 62
     3
100
AcDbCircle
 10
128.066173032852
 20
321.035169411902
 30
0.0
 40
1.949999999999938
100
AcDbArc
 50
14.85716554492425
 51
345.1428344550758
  0
ARC
  5
24B
330
1F
100
AcDbEntity
  8
1
  6
Continuous
 62
     3
100
AcDbCircle
 10
128.066173032852
 20
321.035169411902
 30
0.0
 40
2.200000000000346
100
AcDbArc
 50
19.93227047219782
 51
90.0
  0
ARC
  5
24C
330
1F
100
AcDbEntity
  8
1
  6
Continuous
 62
     3
100
AcDbCircle
 10
128.066173032852
 20
321.035169411902
 30
0.0
 40
1.400000000000267
100
AcDbArc
 50
32.39236548583607
 51
90.0
  0
ARC
  5
24D
330
1F
100
AcDbEntity
  8
0
  6
DASHED
 62
     6
100
AcDbCircle
 10
125.06617303285
 20
385.899639098113
 30
0.0
 40
0.9999999999999205
100
AcDbArc
 50
87.99999999997175
 51
180.0
  0
ARC
  5
24E
330
1F
100
AcDbEntity
  8
0
  6
DASHED
 62
     6
100
AcDbCircle
 10
127.56617303285
 20
385.330439022335
 30
0.0
 40
1.0
100
AcDbArc
 50
180.0
 51
270.0
  0
ARC
  5
24F
330
1F
100
AcDbEntity
  8
0
  6
DASHED
 62
     6
100
AcDbCircle
 10
125.56617303285
 20
385.882178713367
 30
0.0
 40
1.0
100
AcDbArc
 50
0.0
 51
87.99999999997175
  0
ARC
  5
250
330
1F
100
AcDbEntity
  8
0
  6
DASHED
 62
     6
100
AcDbCircle
 10
127.56617303285
 20
361.069480637098
 30
0.0
 40
1.000000000000852
100
AcDbArc
 50
91.99999999996938
 51
180.0
  0
ARC
  5
251
330
1F
100
AcDbEntity
  8
0
  6
DASHED
 62
     6
100
AcDbCircle
 10
125.066173061505
 20
360.535169400035
 30
0.0
 40
0.9999999881304511
100
AcDbArc
 50
224.999998358242
 51
269.9999983581898
  0
ARC
  5
252
330
1F
100
AcDbEntity
  8
0
  6
DASHED
 62
     6
100
AcDbCircle
 10
125.566173004195
 20
360.535169400034
 30
0.0
 40
0.9999999881300144
100
AcDbArc
 50
270.0000016418111
 51
315.0000016417972
  0
ARC
  5
253
330
1F
100
AcDbEntity
  8
0
  6
DASHED
 62
     6
100
AcDbCircle
 10
125.56617304472
 20
360.53516944056
 30
0.0
 40
0.9999999881304712
100
AcDbArc
 50
314.9999983580773
 51
359.9999983581311
  0
ARC
  5
254
330
1F
100
AcDbEntity
  8
0
  6
DASHED
 62
     6
100
AcDbCircle
 10
131.06617303285
 20
363.192922418917
 30
0.0
 40
0.9999999999999205
100
AcDbArc
 50
272.0000000000283
 51
0.00000000005537
  0
ARC
  5
255
330
1F
100
AcDbEntity
  8
0
  6
DASHED
 62
     6
100
AcDbCircle
 10
128.06617303285
 20
380.330439022335
 30
0.0
 40
4.0
100
AcDbArc
 50
0.0
 51
90.0
  0
ARC
  5
256
330
1F
100
AcDbEntity
  8
0
  6
Continuous
 62
     3
100
AcDbCircle
 10
133.068881461931
 20
436.585108820574
 30
0.0
 40
1.002708438060695
100
AcDbArc
 50
180.0076679835512
 51
229.6583966973064
  0
ARC
  5
257
330
1F
100
AcDbEntity
  8
0
  6
Continuous
 62
     3
100
AcDbCircle
 10
128.066173032851
 20
466.534949907556
 30
0.0
 40
8.052381154237025
100
AcDbArc
 50
90.0
 51
157.1721146668497
  0
ARC
  5
258
330
1F
100
AcDbEntity
  8
0
  6
Continuous
 62
     3
100
AcDbCircle
 10
128.066173032851
 20
466.534949907556
 30
0.0
 40
8.052381154237706
100
AcDbArc
 50
202.8278853408543
 51
270.0
  0
ARC
  5
259
330
1F
100
AcDbEntity
  8
0
  6
Continuous
 62
     3
100
AcDbCircle
 10
121.557667251683
 20
469.270952879723
 30
0.0
 40
0.9914942212115573
100
AcDbArc
 50
168.4957380865273
 51
179.9960307196517
  0
ARC
  5
25A
330
1F
100
AcDbEntity
  8
0
  6
Continuous
 62
     3
100
AcDbCircle
 10
121.557667229802
 20
463.798946935546
 30
0.0
 40
0.9914941993303189
100
AcDbArc
 50
180.0039693490264
 51
191.5042620327673
  0
ARC
  5
25B
330
1F
100
AcDbEntity
  8
0
  6
Continuous
 62
     3
100
AcDbCircle
 10
121.562181909426
 20
463.799884342808
 30
0.0
 40
0.9961051359066925
100
AcDbArc
 50
191.5053067761314
 51
202.9702895500854
  0
ARC
  5
25C
330
1F
100
AcDbEntity
  8
0
  6
Continuous
 62
     3
100
AcDbCircle
 10
121.562181860164
 20
469.270015485105
 30
0.0
 40
0.99610508555155
100
AcDbArc
 50
157.0297100856684
 51
168.4946932390904
  0
ARC
  5
25D
330
1F
100
AcDbEntity
  8
0
  6
Continuous
 62
     3
100
AcDbCircle
 10
128.066173032851
 20
466.534949907556
 30
0.0
 40
31.36446981993384
100
AcDbArc
 50
279.4778403860571
 51
80.52215961394289
  0
ARC
  5
25E
330
1F
100
AcDbEntity
  8
0
  6
Continuous
 62
     3
100
AcDbCircle
 10
146.794758221848
 20
352.035169411904
 30
0.0
 40
16.0
100
AcDbArc
 50
270.0
 51
357.9999999999999
  0
ARC
  5
25F
330
1F
100
AcDbEntity
  8
0
  6
Continuous
 62
     3
100
AcDbCircle
 10
109.337166602471
 20
352.035169411904
 30
0.0
 40
16.00000000000027
100
AcDbArc
 50
181.9999999999999
 51
270.0
  0
ARC
  5
260
330
1F
100
AcDbEntity
  8
0
  6
Continuous
 62
     3
100
AcDbCircle
 10
128.066173032851
 20
466.534949907556
 30
0.0
 40
8.463554998443044
100
AcDbArc
 50
90.0
 51
270.0
  0
ARC
  5
261
330
1F
100
AcDbEntity
  8
0
  6
Continuous
 62
     3
100
AcDbCircle
 10
128.066173032851
 20
466.534949907556
 30
0.0
 40
31.60003046541746
100
AcDbArc
 50
87.99980312263813
 51
272.0001968773799
  0
ARC
  5
262
330
1F
100
AcDbEntity
  8
0
  6
DASHED
 62
     6
100
AcDbCircle
 10
131.06617303285
 20
360.797684727391
 30
0.0
 40
0.9999999999999205
100
AcDbArc
 50
272.0000000000283
 51
0.0
  0
ARC
  5
263
330
1F
100
AcDbEntity
  8
0
  6
DASHED
 62
     6
100
AcDbCircle
 10
127.066173032851
 20
356.638103087483
 30
0.0
 40
2.999999999999727
100
AcDbArc
 50
92.00000000000955
 51
105.0523876341393
  0
ARC
  5
264
330
1F
100
AcDbEntity
  8
4
  6
Continuous
 62
     3
100
AcDbCircle
 10
116.566173399452
 20
-107.705422053408
 30
0.0
 40
0.9999999811999251
100
AcDbArc
 50
138.5903778907344
 51
180.0
  0
ARC
  5
265
330
1F
100
AcDbEntity
  8
4
  6
Continuous
 62
     3
100
AcDbCircle
 10
115.066173427652
 20
-106.382546422746
 30
0.0
 40
0.9999999811999144
100
AcDbArc
 50
318.5903778907339
 51
0.0
  0
ARC
  5
266
330
1F
100
AcDbEntity
  8
4
  6
Continuous
 62
     3
100
AcDbCircle
 10
139.566172967052
 20
-107.705422053408
 30
0.0
 40
0.9999999811999771
100
AcDbArc
 50
0.0
 51
41.40962210926618
  0
ARC
  5
267
330
1F
100
AcDbEntity
  8
4
  6
Continuous
 62
     3
100
AcDbCircle
 10
141.066172938852
 20
-106.382546422746
 30
0.0
 40
0.9999999812000055
100
AcDbArc
 50
180.0
 51
221.4096221092662
  0
ARC
  5
268
330
1F
100
AcDbEntity
  8
4
  6
Continuous
 62
     3
100
AcDbCircle
 10
118.066173371252
 20
-96.0439844448772
 30
0.0
 40
1.999999962399997
100
AcDbArc
 50
90.0
 51
180.0
  0
ARC
  5
269
330
1F
100
AcDbEntity
  8
4
  6
Continuous
 62
     3
100
AcDbCircle
 10
117.566173380653
 20
-123.043983937277
 30
0.0
 40
1.999999962399997
100
AcDbArc
 50
180.0
 51
270.0
  0
ARC
  5
26A
330
1F
100
AcDbEntity
  8
4
  6
Continuous
 62
     3
100
AcDbCircle
 10
138.566172985852
 20
-123.043983937277
 30
0.0
 40
1.999999962399997
100
AcDbArc
 50
270.0
 51
0.0
  0
ARC
  5
26B
330
1F
100
AcDbEntity
  8
4
  6
Continuous
 62
     3
100
AcDbCircle
 10
138.066172995252
 20
-96.0439844448772
 30
0.0
 40
1.999999962399983
100
AcDbArc
 50
0.0
 51
90.0
  0
ARC
  5
26C
330
1F
100
AcDbEntity
  8
1
  6
Continuous
 62
     3
100
AcDbCircle
 10
136.266172948252
 20
-118.543969110889
 30
0.0
 40
8.000000000000341
100
AcDbArc
 50
3.58332169847182
 51
29.48446128369827
  0
ARC
  5
26D
330
1F
100
AcDbEntity
  8
1
  6
Continuous
 62
     3
100
AcDbCircle
 10
136.266172948252
 20
-118.543969110889
 30
0.0
 40
8.000000000000762
100
AcDbArc
 50
330.5155387163017
 51
356.4166783015282
  0
ARC
  5
26E
330
1F
100
AcDbEntity
  8
1
  6
Continuous
 62
     3
100
AcDbCircle
 10
141.837303892684
 20
-115.393969110889
 30
0.0
 40
1.600000000000172
100
AcDbArc
 50
29.48446128369824
 51
90.0
  0
ARC
  5
26F
330
1F
100
AcDbEntity
  8
1
  6
Continuous
 62
     3
100
AcDbCircle
 10
141.837303892684
 20
-121.693969110889
 30
0.0
 40
1.599999999999994
100
AcDbArc
 50
270.0
 51
330.5155387163022
  0
ARC
  5
270
330
1F
100
AcDbEntity
  8
1
  6
Continuous
 62
     3
100
AcDbCircle
 10
110.473070356459
 20
462.682995210198
 30
0.0
 40
0.3955193564811991
100
AcDbArc
 50
227.3604930412211
 51
48.22452260661958
  0
ARC
  5
271
330
1F
100
AcDbEntity
  8
1
  6
Continuous
 62
     3
100
AcDbCircle
 10
107.678374989468
 20
462.56350266479
 30
0.0
 40
0.4137653760301886
100
AcDbArc
 50
122.15519234991
 51
303.4525180882562
  0
ARC
  5
272
330
1F
100
AcDbEntity
  8
1
  6
Continuous
 62
     3
100
AcDbCircle
 10
107.651276280104
 20
464.343838796512
 30
0.0
 40
0.3866666666669971
100
AcDbArc
 50
89.9999999998526
 51
270.0
  0
ARC
  5
273
330
1F
100
AcDbEntity
  8
1
  6
Continuous
 62
     3
100
AcDbCircle
 10
110.481923046273
 20
464.343838796512
 30
0.0
 40
0.3866666666659739
100
AcDbArc
 50
270.0
 51
90.0
  0
ARC
  5
274
330
1F
100
AcDbEntity
  8
1
  6
Continuous
 62
     3
100
AcDbCircle
 10
107.651276280104
 20
469.534949907623
 30
0.0
 40
0.3866666666669971
100
AcDbArc
 50
90.0
 51
270.0
  0
ARC
  5
275
330
1F
100
AcDbEntity
  8
1
  6
Continuous
 62
     3
100
AcDbCircle
 10
110.479534986572
 20
470.474784070144
 30
0.0
 40
0.3890547263679878
100
AcDbArc
 50
0.0
 51
180.0
  0
ARC
  5
276
330
1F
100
AcDbEntity
  8
1
  6
Continuous
 62
     3
100
AcDbCircle
 10
110.479534986572
 20
468.595115745103
 30
0.0
 40
0.389054726368002
100
AcDbArc
 50
180.0
 51
270.0
  0
ARC
  5
277
330
1F
100
AcDbEntity
  8
1
  6
Continuous
 62
     3
100
AcDbCircle
 10
110.479534986572
 20
468.595115745103
 30
0.0
 40
0.389054726369011
100
AcDbArc
 50
270.0
 51
0.0
  0
ARC
  5
278
330
1F
100
AcDbEntity
  8
1
  6
Continuous
 62
     3
100
AcDbCircle
 10
109.066599663189
 20
469.984949907623
 30
0.0
 40
3.800000000000041
100
AcDbArc
 50
185.2604028612485
 51
234.6654982081717
  0
ARC
  5
279
330
1F
100
AcDbEntity
  8
1
  6
Continuous
 62
     3
100
AcDbCircle
 10
105.63113003597
 20
469.668645559797
 30
0.0
 40
0.3499999999999659
100
AcDbArc
 50
90.0
 51
185.2604028612645
  0
ARC
  5
27A
330
1F
100
AcDbEntity
  8
1
  6
Continuous
 62
     3
100
AcDbCircle
 10
105.63113003597
 20
469.668645559797
 30
0.0
 40
0.3499999999993486
100
AcDbArc
 50
5.26040286127042
 51
90.0
  0
ARC
  5
27B
330
1F
100
AcDbEntity
  8
1
  6
Continuous
 62
     3
100
AcDbCircle
 10
112.502069290408
 20
469.668645559797
 30
0.0
 40
0.3499999999999659
100
AcDbArc
 50
90.0
 51
174.7395971387298
  0
ARC
  5
27C
330
1F
100
AcDbEntity
  8
1
  6
Continuous
 62
     3
100
AcDbCircle
 10
112.502069290408
 20
469.668645559797
 30
0.0
 40
0.3500000000003585
100
AcDbArc
 50
354.7395971387355
 51
90.0
  0
ARC
  5
27D
330
1F
100
AcDbEntity
  8
1
  6
Continuous
 62
     3
100
AcDbCircle
 10
109.066599663189
 20
469.984949907623
 30
0.0
 40
3.100000000000334
100
AcDbArc
 50
185.2604028612442
 51
354.7395971387558
  0
ARC
  5
27E
330
1F
100
AcDbEntity
  8
1
  6
Continuous
 62
     3
100
AcDbCircle
 10
109.066599663189
 20
469.984949907623
 30
0.0
 40
3.800000000000214
100
AcDbArc
 50
305.3345017918285
 51
354.7395971387515
  0
ARC
  5
27F
330
1F
100
AcDbEntity
  8
1
  6
Continuous
 62
     3
100
AcDbCircle
 10
109.066599663189
 20
463.084949907624
 30
0.0
 40
3.799999999999967
100
AcDbArc
 50
5.26040286123396
 51
54.66549820816307
  0
ARC
  5
280
330
1F
100
AcDbEntity
  8
1
  6
Continuous
 62
     3
100
AcDbCircle
 10
112.502069290408
 20
463.401254255449
 30
0.0
 40
0.349999999999269
100
AcDbArc
 50
185.2604028611034
 51
270.0
  0
ARC
  5
281
330
1F
100
AcDbEntity
  8
1
  6
Continuous
 62
     3
100
AcDbCircle
 10
112.502069290408
 20
463.401254255449
 30
0.0
 40
0.3499999999999659
100
AcDbArc
 50
270.0
 51
5.26040286126454
  0
ARC
  5
282
330
1F
100
AcDbEntity
  8
1
  6
Continuous
 62
     3
100
AcDbCircle
 10
109.066599663189
 20
463.084949907624
 30
0.0
 40
3.799999999999418
100
AcDbArc
 50
125.3345017918367
 51
174.739597138766
  0
ARC
  5
283
330
1F
100
AcDbEntity
  8
1
  6
Continuous
 62
     3
100
AcDbCircle
 10
109.066599663189
 20
463.084949907624
 30
0.0
 40
3.100000000000339
100
AcDbArc
 50
5.26040286124525
 51
174.7395971387548
  0
ARC
  5
284
330
1F
100
AcDbEntity
  8
1
  6
Continuous
 62
     3
100
AcDbCircle
 10
105.63113003597
 20
463.401254255449
 30
0.0
 40
0.3500000000003585
100
AcDbArc
 50
174.7395971387355
 51
270.0
  0
ARC
  5
285
330
1F
100
AcDbEntity
  8
1
  6
Continuous
 62
     3
100
AcDbCircle
 10
105.63113003597
 20
463.401254255449
 30
0.0
 40
0.3499999999999659
100
AcDbArc
 50
270.0
 51
354.7395971388964
  0
ARC
  5
286
330
1F
100
AcDbEntity
  8
1
  6
Continuous
 62
     3
100
AcDbCircle
 10
113.466599663187
 20
466.534949907624
 30
0.0
 40
0.3500000000010459
100
AcDbArc
 50
270.0
 51
90.0
  0
ARC
  5
287
330
1F
100
AcDbEntity
  8
1
  6
Continuous
 62
     3
100
AcDbCircle
 10
104.666599663189
 20
466.534949907623
 30
0.0
 40
0.3500000000000227
100
AcDbArc
 50
90.0
 51
270.0
  0
CIRCLE
  5
288
330
1F
100
AcDbEntity
  8
5
  6
Continuous
 62
     3
100
AcDbCircle
 10
128.066173032853
 20
-66.0439843696765
 30
0.0
 40
1.5
  0
CIRCLE
  5
289
330
1F
100
AcDbEntity
  8
5
  6
Continuous
 62
     3
100
AcDbCircle
 10
128.066173032853
 20
-66.0439843696765
 30
0.0
 40
1.0
  0
CIRCLE
  5
28A
330
1F
100
AcDbEntity
  8
1
  6
Continuous
 62
     3
100
AcDbCircle
 10
85.0663863480197
 20
466.534949907623
 30
0.0
 40
3.799999999999898
  0
CIRCLE
  5
28B
330
1F
100
AcDbEntity
  8
1
  6
Continuous
 62
     3
100
AcDbCircle
 10
128.06638634802
 20
423.534949907624
 30
0.0
 40
3.800000000000011
  0
CIRCLE
  5
28C
330
1F
100
AcDbEntity
  8
1
  6
Continuous
 62
     3
100
AcDbCircle
 10
171.06638634802
 20
466.534949907623
 30
0.0
 40
3.800000000000011
  0
CIRCLE
  5
28D
330
1F
100
AcDbEntity
  8
1
  6
Continuous
 62
     3
100
AcDbCircle
 10
128.06638634802
 20
509.534949907623
 30
0.0
 40
3.800000000000011
  0
CIRCLE
  5
28E
330
1F
100
AcDbEntity
  8
1
  6
Continuous
 62
     3
100
AcDbCircle
 10
128.066173032852
 20
321.035169411902
 30
0.0
 40
2.099999999999994
  0
CIRCLE
  5
28F
330
1F
100
AcDbEntity
  8
11
  6
Continuous
 62
     3
100
AcDbCircle
 10
128.066173032852
 20
309.535169411902
 30
0.0
 40
1.75
  0
CIRCLE
  5
290
330
1F
100
AcDbEntity
  8
11
  6
Continuous
 62
     3
100
AcDbCircle
 10
128.066173032852
 20
309.535169411902
 30
0.0
 40
2.25
  0
CIRCLE
  5
291
330
1F
100
AcDbEntity
  8
0
  6
Continuous
 62
     3
100
AcDbCircle
 10
128.06638634802
 20
423.534949907624
 30
0.0
 40
4.0
  0
CIRCLE
  5
292
330
1F
100
AcDbEntity
  8
0
  6
Continuous
 62
     3
100
AcDbCircle
 10
85.0663863480197
 20
466.534949907623
 30
0.0
 40
4.0
  0
CIRCLE
  5
293
330
1F
100
AcDbEntity
  8
0
  6
Continuous
 62
     3
100
AcDbCircle
 10
128.06638634802
 20
509.534949907623
 30
0.0
 40
4.0
  0
CIRCLE
  5
294
330
1F
100
AcDbEntity
  8
0
  6
Continuous
 62
     3
100
AcDbCircle
 10
171.06638634802
 20
466.534949907623
 30
0.0
 40
4.0
  0
CIRCLE
  5
295
330
1F
100
AcDbEntity
  8
0
  6
Continuous
 62
     3
100
AcDbCircle
 10
128.066386347971
 20
466.534949907691
 30
0.0
 40
31.96629794783701
  0
CIRCLE
  5
296
330
1F
100
AcDbEntity
  8
1
  6
Continuous
 62
     3
100
AcDbCircle
 10
128.066386347971
 20
466.534949907691
 30
0.0
 40
54.999999992613
  0
CIRCLE
  5
297
330
1F
100
AcDbEntity
  8
1
  6
Continuous
 62
     3
100
AcDbCircle
 10
171.066173033035
 20
466.534523277201
 30
0.0
 40
4.25
  0
CIRCLE
  5
298
330
1F
100
AcDbEntity
  8
1
  6
Continuous
 62
     3
100
AcDbCircle
 10
128.065746402496
 20
423.534949907372
 30
0.0
 40
4.25
  0
CIRCLE
  5
299
330
1F
100
AcDbEntity
  8
1
  6
Continuous
 62
     3
100
AcDbCircle
 10
85.0661730326664
 20
466.535376537911
 30
0.0
 40
4.25
  0
CIRCLE
  5
29A
330
1F
100
AcDbEntity
  8
1
  6
Continuous
 62
     3
100
AcDbCircle
 10
128.066599663206
 20
509.53494990774
 30
0.0
 40
4.25
  0
CIRCLE
  5
29B
330
1F
100
AcDbEntity
  8
1
  6
Continuous
 62
     3
100
AcDbCircle
 10
109.066599663189
 20
466.534949907623
 30
0.0
 40
5.300000000000011
  0
CIRCLE
  5
29C
330
1F
100
AcDbEntity
  8
1
  6
Continuous
 62
     3
100
AcDbCircle
 10
109.066599663189
 20
466.534949907623
 30
0.0
 40
6.0
  0
SPLINE
  5
29D
330
1F
100
AcDbEntity
  8
0
  6
Continuous
 62
     3
100
AcDbSpline
210
0.0
220
0.0
230
1.0
 70
     8
 71
     3
 72
     9
 73
     5
 74
     3
 42
0.0000000001
 43
0.0000000001
 44
0.00000001
 40
0.0
 40
0.0
 40
0.0
 40
0.0
 40
0.5000305925179264
 40
1.000061185035439
 40
1.000061185035439
 40
1.000061185035439
 40
1.000061185035439
 10
124.903895372682
 20
332.535169411904
 30
0.0
 10
124.9057366610964
 20
332.3685027184387
 30
0.0
 10
124.9094192379251
 20
332.0351693315082
 30
0.0
 10
124.9131115050224
 20
331.701836051774
 30
0.0
 10
124.914957638571
 20
331.535169411907
 30
0.0
 11
124.903895372682
 21
332.535169411904
 31
0.0
 11
124.9094216604923
 21
332.0351693583071
 31
0.0
 11
124.914957638571
 21
331.535169411907
 31
0.0
  0
SPLINE
  5
29E
330
1F
100
AcDbEntity
  8
0
  6
Continuous
 62
     3
100
AcDbSpline
210
0.0
220
0.0
230
1.0
 70
     8
 71
     3
 72
     9
 73
     5
 74
     3
 42
0.0000000001
 43
0.0000000001
 44
0.00000001
 40
0.0
 40
0.0
 40
0.0
 40
0.0
 40
0.5000305925214219
 40
1.000061185042651
 40
1.000061185042651
 40
1.000061185042651
 40
1.000061185042651
 10
131.21738842711
 20
331.535169411899
 30
0.0
 10
131.2192345606589
 20
331.7018360517673
 30
0.0
 10
131.2229268277569
 20
332.0351693315039
 30
0.0
 10
131.2266094045983
 20
332.3685027184366
 30
0.0
 10
131.228450693019
 20
332.535169411903
 30
0.0
 11
131.21738842711
 21
331.535169411899
 31
0.0
 11
131.2229244051927
 21
332.035169358303
 31
0.0
 11
131.228450693019
 21
332.535169411903
 31
0.0
  0
SPLINE
  5
29F
330
1F
100
AcDbEntity
  8
0
  6
Continuous
 62
     3
100
AcDbSpline
210
0.0
220
0.0
230
1.0
 70
     8
 71
     3
 72
    11
 73
     7
 74
     5
 42
0.0000000001
 43
0.0000000001
 44
0.00000001
 40
0.0
 40
0.0
 40
0.0
 40
0.0
 40
0.470805529920307
 40
0.9416021559824532
 40
1.485184670214312
 40
2.028762991308341
 40
2.028762991308341
 40
2.028762991308341
 40
2.028762991308341
 10
131.190599238286
 20
497.952649015104
 30
0.0
 10
131.0348360303768
 20
497.9718655615936
 30
0.0
 10
130.723312560347
 20
498.0102982911502
 30
0.0
 10
130.2302760829334
 20
498.0556614341293
 30
0.0
 10
129.7122452219974
 20
498.093123645496
 30
0.0
 10
129.3501524140924
 20
498.1081923669052
 30
0.0
 10
129.169106708429
 20
498.11572669855
 30
0.0
 11
131.190599238286
 21
497.952649015104
 31
0.0
 11
130.7230446041164
 21
498.0078804470066
 31
0.0
 11
130.2543215475789
 21
498.0520184055197
 31
0.0
 11
129.7120926144515
 21
498.0903555136289
 31
0.0
 11
129.169106708429
 21
498.11572669855
 31
0.0
  0
SPLINE
  5
2A0
330
1F
100
AcDbEntity
  8
0
  6
Continuous
 62
     3
100
AcDbSpline
210
0.0
220
0.0
230
1.0
 70
     8
 71
     3
 72
    11
 73
     7
 74
     5
 42
0.0000000001
 43
0.0000000001
 44
0.00000001
 40
0.0
 40
0.0
 40
0.0
 40
0.0
 40
0.1837317110981232
 40
0.3675677232530393
 40
0.5739917080803802
 40
0.7804078780418356
 40
0.7804078780418356
 40
0.7804078780418356
 40
0.7804078780418356
 10
131.866100678775
 20
497.592739275067
 30
0.0
 10
131.8228970082138
 20
497.6363614599167
 30
0.0
 10
131.7364651411754
 20
497.7236305931146
 30
0.0
 10
131.5760772985752
 20
497.8297821656578
 30
0.0
 10
131.3940932210323
 20
497.9140491393148
 30
0.0
 10
131.2584297098531
 20
497.9397825522148
 30
0.0
 10
131.190599238286
 20
497.952649015104
 30
0.0
 11
131.866100678775
 21
497.592739275067
 31
0.0
 11
131.7324230064277
 21
497.7187853840067
 31
0.0
 11
131.5801745550417
 21
497.8218197880453
 31
0.0
 11
131.3916535567838
 21
497.9059072111706
 31
0.0
 11
131.190599238286
 21
497.952649015104
 31
0.0
  0
SPLINE
  5
2A1
330
1F
100
AcDbEntity
  8
0
  6
Continuous
 62
     3
100
AcDbSpline
210
0.0
220
0.0
230
1.0
 70
     8
 71
     3
 72
    11
 73
     7
 74
     5
 42
0.0000000001
 43
0.0000000001
 44
0.00000001
 40
0.0
 40
0.0
 40
0.0
 40
0.0
 40
0.5435410045055791
 40
1.087077910845373
 40
1.557916152559919
 40
2.028762923190684
 40
2.028762923190684
 40
2.028762923190684
 40
2.028762923190684
 10
129.169106708439
 20
434.954173116561
 30
0.0
 10
129.3501399104031
 20
434.9617083367245
 30
0.0
 10
129.7122049493854
 20
434.9767787202378
 30
0.0
 10
130.2302225340142
 20
435.0142329683517
 30
0.0
 10
130.7232714255379
 20
435.0595971855831
 30
0.0
 10
131.0348223601028
 20
435.0980328124929
 30
0.0
 10
131.190599238256
 20
435.117250800005
 30
0.0
 11
129.169106708439
 21
434.954173116561
 31
0.0
 11
129.712055230153
 21
434.9795448793589
 31
0.0
 11
130.2542389670333
 21
435.0178745547551
 31
0.0
 11
130.7230035755201
 21
435.0620151448173
 31
0.0
 11
131.190599238256
 21
435.117250800005
 31
0.0
  0
SPLINE
  5
2A2
330
1F
100
AcDbEntity
  8
0
  6
Continuous
 62
     3
100
AcDbSpline
210
0.0
220
0.0
230
1.0
 70
     8
 71
     3
 72
    11
 73
     7
 74
     5
 42
0.0000000001
 43
0.0000000001
 44
0.00000001
 40
0.0
 40
0.0
 40
0.0
 40
0.0
 40
0.1927498979644412
 40
0.3855024084314642
 40
0.5895027459089082
 40
0.7935022487031872
 40
0.7935022487031872
 40
0.7935022487031872
 40
0.7935022487031872
 10
132.167279189487
 20
496.873905572279
 30
0.0
 10
132.1605399764638
 20
496.9379700024643
 30
0.0
 10
132.1470614590752
 20
497.0660997311546
 30
0.0
 10
132.0854149143941
 20
497.2538770705615
 30
0.0
 10
131.9955272060959
 20
497.4343102872147
 30
0.0
 10
131.9092427957086
 20
497.5399296844748
 30
0.0
 10
131.866100678775
 20
497.592739275067
 30
0.0
 11
132.167279189487
 21
496.873905572279
 31
0.0
 11
132.1403529073557
 21
497.0647654645977
 31
0.0
 11
132.0823723460339
 21
497.2485908839502
 31
0.0
 11
131.9892177202192
 21
497.4300801491431
 31
0.0
 11
131.866100678775
 21
497.592739275067
 31
0.0
  0
SPLINE
  5
2A3
330
1F
100
AcDbEntity
  8
0
  6
Continuous
 62
     3
100
AcDbSpline
210
0.0
220
0.0
230
1.0
 70
     8
 71
     3
 72
    11
 73
     7
 74
     5
 42
0.0000000001
 43
0.0000000001
 44
0.00000001
 40
0.0
 40
0.0
 40
0.0
 40
0.0
 40
0.1837277446337505
 40
0.3675680418369515
 40
0.5740933205988107
 40
0.780405717317014
 40
0.780405717317014
 40
0.780405717317014
 40
0.780405717317014
 10
131.866100678748
 20
435.477160540001
 30
0.0
 10
131.8228985179362
 20
435.4335388457628
 30
0.0
 10
131.7364677304447
 20
435.3462687344104
 30
0.0
 10
131.576051796866
 20
435.2400956067255
 30
0.0
 10
131.3940530868846
 20
435.1558588649016
 30
0.0
 10
131.2583938699889
 20
435.130115730107
 30
0.0
 10
131.190599238256
 20
435.117250800005
 30
0.0
 11
131.866100678748
 21
435.477160540001
 31
0.0
 11
131.7324274746499
 21
435.3511154740352
 31
0.0
 11
131.5801745550118
 21
435.2480800270402
 31
0.0
 11
131.3915517746953
 21
435.1639721349412
 31
0.0
 11
131.190599238256
 21
435.117250800005
 31
0.0
  0
SPLINE
  5
2A4
330
1F
100
AcDbEntity
  8
0
  6
Continuous
 62
     3
100
AcDbSpline
210
0.0
220
0.0
230
1.0
 70
     8
 71
     3
 72
    11
 73
     7
 74
     5
 42
0.0000000001
 43
0.0000000001
 44
0.00000001
 40
0.0
 40
0.0
 40
0.0
 40
0.0
 40
0.1927498278808232
 40
0.3855024156415989
 40
0.5895777534905854
 40
0.7935010021357358
 40
0.7935010021357358
 40
0.7935010021357358
 40
0.7935010021357358
 10
132.167279189487
 20
436.195994242832
 30
0.0
 10
132.1605397768103
 20
436.1319299457505
 30
0.0
 10
132.1470608549589
 20
436.0038004342857
 30
0.0
 10
132.0854097706663
 20
435.8159974937141
 30
0.0
 10
131.995503639527
 20
435.6355736144327
 30
0.0
 10
131.9092242782521
 20
435.5299517739642
 30
0.0
 10
131.866100678748
 20
435.477160540001
 30
0.0
 11
132.167279189487
 21
436.195994242832
 31
0.0
 11
132.1403529545679
 21
436.0051344146303
 31
0.0
 11
132.0823723453003
 21
435.8213089293531
 31
0.0
 11
131.9891712150233
 21
435.6397592313823
 31
0.0
 11
131.866100678748
 21
435.477160540001
 31
0.0
  0
SPLINE
  5
2A5
330
1F
100
AcDbEntity
  8
0
  6
Continuous
 62
     3
100
AcDbSpline
210
0.0
220
0.0
230
1.0
 70
     8
 71
     3
 72
     9
 73
     5
 74
     3
 42
0.0000000001
 43
0.0000000001
 44
0.00000001
 40
0.0
 40
0.0
 40
0.0
 40
0.0
 40
0.765954299298574
 40
1.531860468264391
 40
1.531860468264391
 40
1.531860468264391
 40
1.531860468264391
 10
132.06617303285
 20
475.588550150391
 30
0.0
 10
132.0031182901247
 20
475.318142771464
 30
0.0
 10
131.8770127668502
 20
474.7773450052206
 30
0.0
 10
131.3364472827466
 20
474.650261596648
 30
0.0
 10
131.066173032851
 20
474.586721888812
 30
0.0
 11
132.06617303285
 21
475.588550150391
 31
0.0
 11
131.7733873032965
 21
474.8807631024848
 31
0.0
 11
131.066173032851
 21
474.586721888812
 31
0.0
  0
SPLINE
  5
2A6
330
1F
100
AcDbEntity
  8
0
  6
Continuous
 62
     3
100
AcDbSpline
210
0.0
220
0.0
230
1.0
 70
     8
 71
     3
 72
    11
 73
     7
 74
     5
 42
0.0000000001
 43
0.0000000001
 44
0.00000001
 40
0.0
 40
0.0
 40
0.0
 40
0.0
 40
0.2165273723677509
 40
0.4330548889845485
 40
0.6498040395353968
 40
0.8662921283950658
 40
0.8662921283950658
 40
0.8662921283950658
 40
0.8662921283950658
 10
132.419784997505
 20
497.249054032345
 30
0.0
 10
132.4779588446139
 20
497.2923068856456
 30
0.0
 10
132.5943065775867
 20
497.3788126210617
 30
0.0
 10
132.7989324266917
 20
497.4563700169368
 30
0.0
 10
133.0145026225959
 20
497.4939306526384
 30
0.0
 10
133.1587559786075
 20
497.4788236375505
 30
0.0
 10
133.230839194254
 20
497.471274681627
 30
0.0
 11
132.419784997505
 21
497.249054032345
 31
0.0
 11
132.5993122744194
 21
497.3701079865479
 31
0.0
 11
132.8006873069181
 21
497.4496834962127
 31
0.0
 11
133.0147193262939
 21
497.4838959054588
 31
0.0
 11
133.230839194254
 21
497.471274681627
 31
0.0
  0
SPLINE
  5
2A7
330
1F
100
AcDbEntity
  8
0
  6
Continuous
 62
     3
100
AcDbSpline
210
0.0
220
0.0
230
1.0
 70
     8
 71
     3
 72
     9
 73
     5
 74
     3
 42
0.0000000001
 43
0.0000000001
 44
0.00000001
 40
0.0
 40
0.0
 40
0.0
 40
0.0
 40
0.7659061689662021
 40
1.531860468265171
 40
1.531860468265171
 40
1.531860468265171
 40
1.531860468265171
 10
131.066173032851
 20
458.483177926299
 30
0.0
 10
131.3364472827468
 20
458.4196382184631
 30
0.0
 10
131.8770127668507
 20
458.2925548098908
 30
0.0
 10
132.0031182901256
 20
457.7517570436471
 30
0.0
 10
132.066173032851
 20
457.48134966472
 30
0.0
 11
131.066173032851
 21
458.483177926299
 31
0.0
 11
131.773387303297
 21
458.1891367126265
 31
0.0
 11
132.066173032851
 21
457.48134966472
 31
0.0
  0
SPLINE
  5
2A8
330
1F
100
AcDbEntity
  8
0
  6
Continuous
 62
     3
100
AcDbSpline
210
0.0
220
0.0
230
1.0
 70
     8
 71
     3
 72
    19
 73
    15
 74
    13
 42
0.0000000001
 43
0.0000000001
 44
0.00000001
 40
0.0
 40
0.0
 40
0.0
 40
0.0
 40
0.1432651606277768
 40
0.2865395900083616
 40
0.3625800612243256
 40
0.4386282606417267
 40
0.5211390512796649
 40
0.6036454772460077
 40
0.6705956934680992
 40
0.7375322575543429
 40
0.7858669728246569
 40
0.8341890810115189
 40
0.8514109005269357
 40
0.8686327296197494
 40
0.8686327296197494
 40
0.8686327296197494
 40
0.8686327296197494
 10
132.06617303285
 20
496.484925188572
 30
0.0
 10
132.0681507052388
 20
496.5327173702469
 30
0.0
 10
132.0721061779651
 20
496.6283048255835
 30
0.0
 10
132.098951559377
 20
496.7468374251144
 30
0.0
 10
132.1301455921952
 20
496.8402542523709
 30
0.0
 10
132.1606258701983
 20
496.9123665477534
 30
0.0
 10
132.1976803158638
 20
496.9837651854851
 30
0.0
 10
132.2388633293583
 20
497.0493156176344
 30
0.0
 10
132.281707706027
 20
497.1074066105748
 30
0.0
 10
132.3209909696054
 20
497.1537980754422
 30
0.0
 10
132.3586009790331
 20
497.1933115541256
 30
0.0
 10
132.3861072010685
 20
497.2194950498208
 30
0.0
 10
132.4066883932345
 20
497.2378697801822
 30
0.0
 10
132.4154194619389
 20
497.2453259475996
 30
0.0
 10
132.419784997505
 20
497.249054032345
 30
0.0
 11
132.06617303285
 21
496.484925188572
 31
0.0
 11
132.0764207413445
 21
496.6278233716266
 31
0.0
 11
132.1068847051904
 21
496.7678216181197
 31
0.0
 11
132.131069087103
 21
496.8399137046081
 31
0.0
 11
132.160653812213
 21
496.9099713428411
 31
0.0
 11
132.1986639946432
 21
496.9832056012406
 31
0.0
 11
132.2425568231537
 21
497.0530678222981
 31
0.0
 11
132.2822991816231
 21
497.106946170412
 31
0.0
 11
132.3255577422081
 21
497.1580265046687
 31
0.0
 11
132.3588852330455
 21
497.1930339760819
 31
0.0
 11
132.3938731020716
 21
497.2263637699702
 31
0.0
 11
132.4067299000197
 21
497.2378221212453
 31
0.0
 11
132.419784997505
 21
497.249054032345
 31
0.0
  0
SPLINE
  5
2A9
330
1F
100
AcDbEntity
  8
0
  6
Continuous
 62
     3
100
AcDbSpline
210
0.0
220
0.0
230
1.0
 70
     8
 71
     3
 72
    23
 73
    19
 74
    17
 42
0.0000000001
 43
0.0000000001
 44
0.00000001
 40
0.0
 40
0.0
 40
0.0
 40
0.0
 40
0.1317660516426637
 40
0.2635034396481631
 40
0.3134786397629663
 40
0.3634455885984635
 40
0.4005042507176415
 40
0.4375664714122846
 40
0.5018879883925347
 40
0.5662176375633522
 40
0.6218744863663679
 40
0.6775242763955803
 40
0.7235170454348452
 40
0.7695066110033982
 40
0.8042478073989449
 40
0.8389847593678287
 40
0.8534199152303705
 40
0.8678550631237132
 40
0.8678550631237132
 40
0.8678550631237132
 40
0.8678550631237132
 10
133.230839194254
 20
435.598625133485
 30
0.0
 10
133.1872211102277
 20
435.592978767797
 30
0.0
 10
133.0999944306048
 20
435.5816872646996
 30
0.0
 10
132.9950722934647
 20
435.5857251278425
 30
0.0
 10
132.9184009874476
 20
435.5949550939974
 30
0.0
 10
132.8733766253414
 20
435.6027450614854
 30
0.0
 10
132.8329591166995
 20
435.6115744443278
 30
0.0
 10
132.7882641755874
 20
435.623100486755
 30
0.0
 10
132.7355017884565
 20
435.639586324251
 30
0.0
 10
132.6781196565122
 20
435.6616538989614
 30
0.0
 10
132.6248197382211
 20
435.6859474711267
 30
0.0
 10
132.5783746221745
 20
435.710341300061
 30
0.0
 10
132.536017356056
 20
435.7354251928265
 30
0.0
 10
132.5007005760027
 20
435.7586290891223
 30
0.0
 10
132.4694254907973
 20
435.7810762629428
 30
0.0
 10
132.4472907752435
 20
435.7981868254224
 30
0.0
 10
132.4308254381502
 20
435.8115462013089
 30
0.0
 10
132.4234649979549
 20
435.8177460463502
 30
0.0
 10
132.419784778873
 20
435.820845968015
 30
0.0
 11
133.230839194254
 21
435.598625133485
 31
0.0
 11
133.0997427333149
 21
435.5853582463321
 31
0.0
 11
132.9680659272021
 21
435.5893530092117
 31
0.0
 11
132.9184555795649
 21
435.5953807810913
 31
0.0
 11
132.869218354183
 21
435.6038891071672
 31
0.0
 11
132.8330135546425
 21
435.6117984009596
 31
0.0
 11
132.7971248423524
 21
435.6210508888942
 31
0.0
 11
132.7357313285301
 21
435.6402366650628
 31
0.0
 11
132.6756909392164
 21
435.6633333187922
 31
0.0
 11
132.6250458564872
 21
435.6864149221603
 31
0.0
 11
132.5757777929979
 21
435.7122907226369
 31
0.0
 11
132.536205458415
 21
435.7357292622577
 31
0.0
 11
132.4977710406333
 21
435.7609846710045
 31
0.0
 11
132.4695472440438
 21
435.7812422136262
 31
0.0
 11
132.4420563190581
 21
435.8024767344712
 31
0.0
 11
132.4308536635492
 21
435.8115802631455
 31
0.0
 11
132.419784778873
 21
435.820845968015
 31
0.0
  0
XLINE
  5
2AA
330
1F
100
AcDbEntity
  8
1
  6
DOT_CENTER
 62
     3
 60
     1
100
AcDbXline
 10
128.271944398792
 20
288.035169411902
 30
0.0
 11
0.0
 21
1.0
 31
0.0
  0
XLINE
  5
2AB
330
1F
100
AcDbEntity
  8
1
  6
DOT_CENTER
 62
     3
 60
     1
100
AcDbXline
 10
128.066173032852
 20
-131.876911612293
 30
0.0
 11
0.0
 21
1.0
 31
0.0
  0
LWPOLYLINE
  5
2AC
330
1F
100
AcDbEntity
  8
1
  6
Continuous
 62
     3
100
AcDbPolyline
 90
        8
 70
     0
 43
0.0
 10
130.134384820847
 20
320.285169411902
 10
130.123090770379
 20
320.397113874125
 10
130.089968736752
 20
320.473292733454
 10
130.032525599461
 20
320.519692697598
 10
129.950980715349
 20
320.535169411902
 10
129.837291033934
 20
320.519692697598
 10
129.683476185373
 20
320.473292733454
 10
129.248332074606
 20
320.285169411902
  0
LWPOLYLINE
  5
2AD
330
1F
100
AcDbEntity
  8
1
  6
Continuous
 62
     3
100
AcDbPolyline
 90
        8
 70
     0
 43
0.0
 10
130.134384820847
 20
321.785169411902
 10
130.123090770379
 20
321.67322494968
 10
130.089968736752
 20
321.597046090351
 10
130.032525599461
 20
321.550646126207
 10
129.950980715349
 20
321.535169411902
 10
129.837291033934
 20
321.550646126207
 10
129.683476185373
 20
321.597046090351
 10
129.248332074606
 20
321.785169411902
  0
ENDSEC
  0
SECTION
  2
OBJECTS
  0
DICTIONARY
  5
C
330
0
100
AcDbDictionary
281
     1
  3
ACAD_GROUP
350
D
  3
ACAD_LAYOUT
350
1A
  3
ACAD_MATERIAL
350
3B
  3
ACAD_MLEADERSTYLE
350
2B0
  3
ACAD_MLINESTYLE
350
17
  3
ACAD_PLOTSETTINGS
350
19
  3
ACAD_PLOTSTYLENAME
350
E
  3
ACAD_VISUALSTYLE
350
2A
  3
AcDbVariableDictionary
350
2AE
  0
DICTIONARY
  5
D
102
{ACAD_REACTORS
330
C
102
}
330
C
100
AcDbDictionary
281
     1
  0
DICTIONARY
  5
1A
102
{ACAD_REACTORS
330
C
102
}
330
C
100
AcDbDictionary
281
     1
  3
Layout1
350
1E
  3
Layout2
350
26
  3
Model
350
22
  0
DICTIONARY
  5
3B
102
{ACAD_REACTORS
330
C
102
}
330
C
100
AcDbDictionary
281
     1
  3
ByBlock
350
3D
  3
ByLayer
350
3C
  3
Global
350
3E
  0
DICTIONARY
  5
2B0
102
{ACAD_REACTORS
330
C
102
}
330
C
100
AcDbDictionary
281
     1
  0
DICTIONARY
  5
17
102
{ACAD_REACTORS
330
C
102
}
330
C
100
AcDbDictionary
281
     1
  3
Standard
350
18
  0
DICTIONARY
  5
19
102
{ACAD_REACTORS
330
C
102
}
330
C
100
AcDbDictionary
281
     1
  0
ACDBDICTIONARYWDFLT
  5
E
102
{ACAD_REACTORS
330
C
102
}
330
C
100
AcDbDictionary
281
     1
  3
Normal
350
F
100
AcDbDictionaryWithDefault
340
F
  0
DICTIONARY
  5
2A
102
{ACAD_REACTORS
330
C
102
}
330
C
100
AcDbDictionary
281
     1
  3
2dWireframe
350
2F
  3
3D Hidden
350
31
  3
3dWireframe
350
30
  3
Basic
350
32
  3
Brighten
350
36
  3
ColorChange
350
3A
  3
Conceptual
350
34
  3
Dim
350
35
  3
Facepattern
350
39
  3
Flat
350
2B
  3
FlatWithEdges
350
2C
  3
Gouraud
350
2D
  3
GouraudWithEdges
350
2E
  3
Linepattern
350
38
  3
Realistic
350
33
  3
Thicken
350
37
  0
DICTIONARY
  5
2AE
102
{ACAD_REACTORS
330
C
102
}
330
C
100
AcDbDictionary
281
     1
  3
DIMASSOC
350
2B1
  3
HIDETEXT
350
2B2
  0
LAYOUT
  5
1E
102
{ACAD_REACTORS
330
1A
102
}
330
1A
100
AcDbPlotSettings
  1

  2
none_device
  4

  6

 40
0.0
 41
0.0
 42
0.0
 43
0.0
 44
0.0
 45
0.0
 46
0.0
 47
0.0
 48
0.0
 49
0.0
140
0.0
141
0.0
142
1.0
143
1.0
 70
   688
 72
     0
 73
     0
 74
     5
  7

 75
    16
147
1.0
148
0.0
149
0.0
100
AcDbLayout
  1
Layout1
 70
     1
 71
     1
 10
0.0
 20
0.0
 11
12.0
 21
9.0
 12
0.0
 22
0.0
 32
0.0
 14
1.00000000000000E+20
 24
1.00000000000000E+20
 34
1.00000000000000E+20
 15
-1.00000000000000E+20
 25
-1.00000000000000E+20
 35
-1.00000000000000E+20
146
0.0
 13
0.0
 23
0.0
 33
0.0
 16
1.0
 26
0.0
 36
0.0
 17
0.0
 27
1.0
 37
0.0
 76
     0
330
1B
  0
LAYOUT
  5
26
102
{ACAD_REACTORS
330
1A
102
}
330
1A
100
AcDbPlotSettings
  1

  2
none_device
  4

  6

 40
0.0
 41
0.0
 42
0.0
 43
0.0
 44
0.0
 45
0.0
 46
0.0
 47
0.0
 48
0.0
 49
0.0
140
0.0
141
0.0
142
1.0
143
1.0
 70
   688
 72
     0
 73
     0
 74
     5
  7

 75
    16
147
1.0
148
0.0
149
0.0
100
AcDbLayout
  1
Layout2
 70
     1
 71
     2
 10
0.0
 20
0.0
 11
0.0
 21
0.0
 12
0.0
 22
0.0
 32
0.0
 14
0.0
 24
0.0
 34
0.0
 15
0.0
 25
0.0
 35
0.0
146
0.0
 13
0.0
 23
0.0
 33
0.0
 16
1.0
 26
0.0
 36
0.0
 17
0.0
 27
1.0
 37
0.0
 76
     0
330
23
  0
LAYOUT
  5
22
102
{ACAD_REACTORS
330
1A
102
}
330
1A
100
AcDbPlotSettings
  1

  2
none_device
  4

  6

 40
0.0
 41
0.0
 42
0.0
 43
0.0
 44
0.0
 45
0.0
 46
0.0
 47
0.0
 48
0.0
 49
0.0
140
0.0
141
0.0
142
1.0
143
1.0
 70
  1712
 72
     0
 73
     0
 74
     0
  7

 75
     0
147
1.0
148
0.0
149
0.0
100
AcDbLayout
  1
Model
 70
     1
 71
     0
 10
0.0
 20
0.0
 11
12.0
 21
9.0
 12
0.0
 22
0.0
 32
0.0
 14
64.7624551644257
 24
-131.876911612293
 34
0.0
 15
275.346677298969
 25
530.198261628032
 35
0.0
146
0.0
 13
0.0
 23
0.0
 33
0.0
 16
1.0
 26
0.0
 36
0.0
 17
0.0
 27
1.0
 37
0.0
 76
     0
330
1F
331
29
  0
MATERIAL
  5
3D
102
{ACAD_REACTORS
330
3B
102
}
102
{ACAD_XDICTIONARY
360
2D5
102
}
330
3B
100
AcDbMaterial
  1
ByBlock
  0
MATERIAL
  5
3C
102
{ACAD_REACTORS
330
3B
102
}
102
{ACAD_XDICTIONARY
360
2D3
102
}
330
3B
100
AcDbMaterial
  1
ByLayer
  0
MATERIAL
  5
3E
102
{ACAD_REACTORS
330
3B
102
}
102
{ACAD_XDICTIONARY
360
2D7
102
}
330
3B
100
AcDbMaterial
  1
Global
  0
MLINESTYLE
  5
18
102
{ACAD_REACTORS
330
17
102
}
330
17
100
AcDbMlineStyle
  2
Standard
 70
     0
  3

 62
   256
 51
90.0
 52
90.0
 71
     2
 49
0.5
 62
   256
  6
BYLAYER
 49
-0.5
 62
   256
  6
BYLAYER
  0
ACDBPLACEHOLDER
  5
F
102
{ACAD_REACTORS
330
E
102
}
330
E
  0
VISUALSTYLE
  5
2F
102
{ACAD_REACTORS
330
2A
102
}
102
{ACAD_XDICTIONARY
360
2BB
102
}
330
2A
100
AcDbVisualStyle
  2
2dWireframe
 70
     4
 71
     0
 72
     2
 73
     0
 90
        0
 40
-0.6
 41
-30.0
 62
     5
 63
     7
 74
     1
 91
        4
 64
     7
 65
   257
 75
     1
175
     1
 42
1.0
 92
        0
 66
   257
 43
1.0
 76
     1
 77
     6
 78
     2
 67
     7
 79
     5
170
     0
171
     0
290
     0
174
     0
 93
        1
 44
0.0
173
     0
291
     0
 45
0.0
1001
ACAD
1000
AcDbSavedByObjectVersion
1070
     0
  0
VISUALSTYLE
  5
31
102
{ACAD_REACTORS
330
2A
102
}
102
{ACAD_XDICTIONARY
360
2BF
102
}
330
2A
100
AcDbVisualStyle
  2
3D Hidden
 70
     6
 71
     1
 72
     2
 73
     2
 90
        0
 40
-0.6
 41
-30.0
 62
     5
 63
     7
 74
     2
 91
        2
 64
     7
 65
   257
 75
     2
175
     1
 42
40.0
 92
        0
 66
   257
 43
1.0
 76
     1
 77
     6
 78
     2
 67
     7
 79
     3
170
     0
171
     0
290
     0
174
     0
 93
        1
 44
0.0
173
     0
291
     0
 45
0.0
1001
ACAD
1000
AcDbSavedByObjectVersion
1070
     0
  0
VISUALSTYLE
  5
30
102
{ACAD_REACTORS
330
2A
102
}
102
{ACAD_XDICTIONARY
360
2BD
102
}
330
2A
100
AcDbVisualStyle
  2
3dWireframe
 70
     5
 71
     0
 72
     2
 73
     0
 90
        0
 40
-0.6
 41
-30.0
 62
     5
 63
     7
 74
     1
 91
        4
 64
     7
 65
   257
 75
     1
175
     1
 42
1.0
 92
        0
 66
   257
 43
1.0
 76
     1
 77
     6
 78
     2
 67
     7
 79
     5
170
     0
171
     0
290
     0
174
     0
 93
        1
 44
0.0
173
     0
291
     0
 45
0.0
1001
ACAD
1000
AcDbSavedByObjectVersion
1070
     0
  0
VISUALSTYLE
  5
32
102
{ACAD_REACTORS
330
2A
102
}
102
{ACAD_XDICTIONARY
360
2C1
102
}
330
2A
100
AcDbVisualStyle
  2
Basic
 70
     7
 71
     1
 72
     0
 73
     1
 90
        0
 40
-0.6
 41
-30.0
 62
     5
 63
     7
 74
     0
 91
        4
 64
     7
 65
   257
 75
     1
175
     1
 42
1.0
 92
        8
 66
     7
 43
1.0
 76
     1
 77
     6
 78
     2
 67
     7
 79
     5
170
     0
171
     0
290
     0
174
     0
 93
        1
 44
0.0
173
     0
291
     1
 45
0.0
1001
ACAD
1000
AcDbSavedByObjectVersion
1070
     0
  0
VISUALSTYLE
  5
36
102
{ACAD_REACTORS
330
2A
102
}
102
{ACAD_XDICTIONARY
360
2C9
102
}
330
2A
100
AcDbVisualStyle
  2
Brighten
 70
    12
 71
     2
 72
     2
 73
     0
 90
        0
 40
-0.6
 41
-30.0
 62
     5
 63
     7
 74
     1
 91
        4
 64
     7
 65
   257
 75
     1
175
     1
 42
1.0
 92
        8
 66
     7
 43
1.0
 76
     1
 77
     6
 78
     2
 67
     7
 79
     5
170
     0
171
     0
290
     0
174
     0
 93
        1
 44
50.0
173
     0
291
     1
 45
0.0
1001
ACAD
1000
AcDbSavedByObjectVersion
1070
     0
  0
VISUALSTYLE
  5
3A
102
{ACAD_REACTORS
330
2A
102
}
102
{ACAD_XDICTIONARY
360
2D1
102
}
330
2A
100
AcDbVisualStyle
  2
ColorChange
 70
    16
 71
     2
 72
     2
 73
     3
 90
        0
 40
-0.6
 41
-30.0
 62
     5
 63
     8
 74
     1
 91
        4
 64
     7
 65
   257
 75
     1
175
     1
 42
1.0
 92
        8
 66
     8
 43
1.0
 76
     1
 77
     6
 78
     2
 67
     7
 79
     5
170
     0
171
     0
290
     0
174
     0
 93
        1
 44
0.0
173
     0
291
     1
 45
0.0
1001
ACAD
1000
AcDbSavedByObjectVersion
1070
     0
  0
VISUALSTYLE
  5
34
102
{ACAD_REACTORS
330
2A
102
}
102
{ACAD_XDICTIONARY
360
2C5
102
}
330
2A
100
AcDbVisualStyle
  2
Conceptual
 70
     9
 71
     3
 72
     2
 73
     0
 90
        0
 40
-0.6
 41
-30.0
 62
     5
 63
     7
 74
     2
 91
        2
 64
     7
 65
   257
 75
     1
175
     1
 42
40.0
 92
        8
 66
     7
 43
1.0
 76
     1
 77
     6
 78
     2
 67
     7
 79
     3
170
     0
171
     0
290
     0
174
     0
 93
        1
 44
0.0
173
     0
291
     0
 45
0.0
1001
ACAD
1000
AcDbSavedByObjectVersion
1070
     0
  0
VISUALSTYLE
  5
35
102
{ACAD_REACTORS
330
2A
102
}
102
{ACAD_XDICTIONARY
360
2C7
102
}
330
2A
100
AcDbVisualStyle
  2
Dim
 70
    11
 71
     2
 72
     2
 73
     0
 90
        0
 40
-0.6
 41
-30.0
 62
     5
 63
     7
 74
     1
 91
        4
 64
     7
 65
   257
 75
     1
175
     1
 42
1.0
 92
        8
 66
     7
 43
1.0
 76
     1
 77
     6
 78
     2
 67
     7
 79
     5
170
     0
171
     0
290
     0
174
     0
 93
        1
 44
-50.0
173
     0
291
     1
 45
0.0
1001
ACAD
1000
AcDbSavedByObjectVersion
1070
     0
  0
VISUALSTYLE
  5
39
102
{ACAD_REACTORS
330
2A
102
}
102
{ACAD_XDICTIONARY
360
2CF
102
}
330
2A
100
AcDbVisualStyle
  2
Facepattern
 70
    15
 71
     2
 72
     2
 73
     0
 90
        0
 40
-0.6
 41
-30.0
 62
     5
 63
     7
 74
     1
 91
        4
 64
     7
 65
   257
 75
     1
175
     1
 42
1.0
 92
        8
 66
     7
 43
1.0
 76
     1
 77
     6
 78
     2
 67
     7
 79
     5
170
     0
171
     0
290
     0
174
     0
 93
        1
 44
0.0
173
     0
291
     1
 45
0.0
1001
ACAD
1000
AcDbSavedByObjectVersion
1070
     0
  0
VISUALSTYLE
  5
2B
102
{ACAD_REACTORS
330
2A
102
}
102
{ACAD_XDICTIONARY
360
2B3
102
}
330
2A
100
AcDbVisualStyle
  2
Flat
 70
     0
 71
     2
 72
     1
 73
     1
 90
        2
 40
-0.6
 41
30.0
 62
     5
 63
     7
 74
     0
 91
        4
 64
     7
 65
   257
 75
     1
175
     1
 42
1.0
 92
        8
 66
     7
 43
1.0
 76
     1
 77
     6
 78
     2
 67
     7
 79
     5
170
     0
171
     0
290
     0
174
     0
 93
       13
 44
0.0
173
     0
291
     1
 45
0.0
1001
ACAD
1000
AcDbSavedByObjectVersion
1070
     0
  0
VISUALSTYLE
  5
2C
102
{ACAD_REACTORS
330
2A
102
}
102
{ACAD_XDICTIONARY
360
2B5
102
}
330
2A
100
AcDbVisualStyle
  2
FlatWithEdges
 70
     1
 71
     2
 72
     1
 73
     1
 90
        2
 40
-0.6
 41
30.0
 62
     5
 63
     7
 74
     1
 91
        4
 64
     7
 65
   257
 75
     1
175
     1
 42
1.0
 92
        0
 66
   257
 43
1.0
 76
     1
 77
     6
 78
     2
 67
     7
 79
     5
170
     0
171
     0
290
     0
174
     0
 93
       13
 44
0.0
173
     0
291
     1
 45
0.0
1001
ACAD
1000
AcDbSavedByObjectVersion
1070
     0
  0
VISUALSTYLE
  5
2D
102
{ACAD_REACTORS
330
2A
102
}
102
{ACAD_XDICTIONARY
360
2B7
102
}
330
2A
100
AcDbVisualStyle
  2
Gouraud
 70
     2
 71
     2
 72
     2
 73
     1
 90
        2
 40
-0.6
 41
30.0
 62
     5
 63
     7
 74
     0
 91
        4
 64
     7
 65
   257
 75
     1
175
     1
 42
1.0
 92
        0
 66
     7
 43
1.0
 76
     1
 77
     6
 78
     2
 67
     7
 79
     5
170
     0
171
     0
290
     0
174
     0
 93
       13
 44
0.0
173
     0
291
     1
 45
0.0
1001
ACAD
1000
AcDbSavedByObjectVersion
1070
     0
  0
VISUALSTYLE
  5
2E
102
{ACAD_REACTORS
330
2A
102
}
102
{ACAD_XDICTIONARY
360
2B9
102
}
330
2A
100
AcDbVisualStyle
  2
GouraudWithEdges
 70
     3
 71
     2
 72
     2
 73
     1
 90
        2
 40
-0.6
 41
30.0
 62
     5
 63
     7
 74
     1
 91
        4
 64
     7
 65
   257
 75
     1
175
     1
 42
1.0
 92
        0
 66
   257
 43
1.0
 76
     1
 77
     6
 78
     2
 67
     7
 79
     5
170
     0
171
     0
290
     0
174
     0
 93
       13
 44
0.0
173
     0
291
     1
 45
0.0
1001
ACAD
1000
AcDbSavedByObjectVersion
1070
     0
  0
VISUALSTYLE
  5
38
102
{ACAD_REACTORS
330
2A
102
}
102
{ACAD_XDICTIONARY
360
2CD
102
}
330
2A
100
AcDbVisualStyle
  2
Linepattern
 70
    14
 71
     2
 72
     2
 73
     0
 90
        0
 40
-0.6
 41
-30.0
 62
     5
 63
     7
 74
     1
 91
        4
 64
     7
 65
   257
 75
     7
175
     7
 42
1.0
 92
        8
 66
     7
 43
1.0
 76
     1
 77
     6
 78
     2
 67
     7
 79
     5
170
     0
171
     0
290
     0
174
     0
 93
        1
 44
0.0
173
     0
291
     1
 45
0.0
1001
ACAD
1000
AcDbSavedByObjectVersion
1070
     0
  0
VISUALSTYLE
  5
33
102
{ACAD_REACTORS
330
2A
102
}
102
{ACAD_XDICTIONARY
360
2C3
102
}
330
2A
100
AcDbVisualStyle
  2
Realistic
 70
     8
 71
     2
 72
     2
 73
     0
 90
        0
 40
-0.6
 41
-30.0
 62
     5
 63
     7
 74
     1
 91
        0
 64
     7
 65
   257
 75
     1
175
     1
 42
1.0
 92
        8
 66
     8
 43
1.0
 76
     1
 77
     6
 78
     2
 67
     7
 79
     5
170
     0
171
     0
290
     0
174
     0
 93
       13
 44
0.0
173
     0
291
     0
 45
0.0
1001
ACAD
1000
AcDbSavedByObjectVersion
1070
     0
  0
VISUALSTYLE
  5
37
102
{ACAD_REACTORS
330
2A
102
}
102
{ACAD_XDICTIONARY
360
2CB
102
}
330
2A
100
AcDbVisualStyle
  2
Thicken
 70
    13
 71
     2
 72
     2
 73
     0
 90
        0
 40
-0.6
 41
-30.0
 62
     5
 63
     7
 74
     1
 91
        4
 64
     7
 65
   257
 75
     1
175
     1
 42
1.0
 92
       12
 66
     7
 43
1.0
 76
     1
 77
     6
 78
     2
 67
     7
 79
     5
170
     0
171
     0
290
     0
174
     0
 93
        1
 44
0.0
173
     0
291
     1
 45
0.0
1001
ACAD
1000
AcDbSavedByObjectVersion
1070
     0
  0
DICTIONARYVAR
  5
2B1
102
{ACAD_REACTORS
330
2AE
102
}
330
2AE
100
DictionaryVariables
280
     0
  1
2
  0
DICTIONARYVAR
  5
2B2
102
{ACAD_REACTORS
330
2AE
102
}
330
2AE
100
DictionaryVariables
280
     0
  1
1
  0
DICTIONARY
  5
2D5
330
3D
100
AcDbDictionary
280
     1
281
     1
  3
ACAD_XREC_ROUNDTRIP
360
2D6
  0
DICTIONARY
  5
2D3
330
3C
100
AcDbDictionary
280
     1
281
     1
  3
ACAD_XREC_ROUNDTRIP
360
2D4
  0
DICTIONARY
  5
2D7
330
3E
100
AcDbDictionary
280
     1
281
     1
  3
ACAD_XREC_ROUNDTRIP
360
2D8
  0
DICTIONARY
  5
2BB
330
2F
100
AcDbDictionary
280
     1
281
     1
  3
ACAD_XREC_ROUNDTRIP
360
2BC
  0
DICTIONARY
  5
2BF
330
31
100
AcDbDictionary
280
     1
281
     1
  3
ACAD_XREC_ROUNDTRIP
360
2C0
  0
DICTIONARY
  5
2BD
330
30
100
AcDbDictionary
280
     1
281
     1
  3
ACAD_XREC_ROUNDTRIP
360
2BE
  0
DICTIONARY
  5
2C1
330
32
100
AcDbDictionary
280
     1
281
     1
  3
ACAD_XREC_ROUNDTRIP
360
2C2
  0
DICTIONARY
  5
2C9
330
36
100
AcDbDictionary
280
     1
281
     1
  3
ACAD_XREC_ROUNDTRIP
360
2CA
  0
DICTIONARY
  5
2D1
330
3A
100
AcDbDictionary
280
     1
281
     1
  3
ACAD_XREC_ROUNDTRIP
360
2D2
  0
DICTIONARY
  5
2C5
330
34
100
AcDbDictionary
280
     1
281
     1
  3
ACAD_XREC_ROUNDTRIP
360
2C6
  0
DICTIONARY
  5
2C7
330
35
100
AcDbDictionary
280
     1
281
     1
  3
ACAD_XREC_ROUNDTRIP
360
2C8
  0
DICTIONARY
  5
2CF
330
39
100
AcDbDictionary
280
     1
281
     1
  3
ACAD_XREC_ROUNDTRIP
360
2D0
  0
DICTIONARY
  5
2B3
330
2B
100
AcDbDictionary
280
     1
281
     1
  3
ACAD_XREC_ROUNDTRIP
360
2B4
  0
DICTIONARY
  5
2B5
330
2C
100
AcDbDictionary
280
     1
281
     1
  3
ACAD_XREC_ROUNDTRIP
360
2B6
  0
DICTIONARY
  5
2B7
330
2D
100
AcDbDictionary
280
     1
281
     1
  3
ACAD_XREC_ROUNDTRIP
360
2B8
  0
DICTIONARY
  5
2B9
330
2E
100
AcDbDictionary
280
     1
281
     1
  3
ACAD_XREC_ROUNDTRIP
360
2BA
  0
DICTIONARY
  5
2CD
330
38
100
AcDbDictionary
280
     1
281
     1
  3
ACAD_XREC_ROUNDTRIP
360
2CE
  0
DICTIONARY
  5
2C3
330
33
100
AcDbDictionary
280
     1
281
     1
  3
ACAD_XREC_ROUNDTRIP
360
2C4
  0
DICTIONARY
  5
2CB
330
37
100
AcDbDictionary
280
     1
281
     1
  3
ACAD_XREC_ROUNDTRIP
360
2CC
  0
XRECORD
  5
2D6
102
{ACAD_REACTORS
330
2D5
102
}
330
2D5
100
AcDbXrecord
280
     1
102
MATERIAL
148
0.0
149
0.0
149
0.0
 93
        0
 94
      127
282
     0
 72
     1
 77
     1
171
     1
175
     1
179
     1
273
     0
  0
XRECORD
  5
2D4
102
{ACAD_REACTORS
330
2D3
102
}
330
2D3
100
AcDbXrecord
280
     1
102
MATERIAL
148
0.0
149
0.0
149
0.0
 93
        0
 94
      127
282
     0
 72
     1
 77
     1
171
     1
175
     1
179
     1
273
     0
  0
XRECORD
  5
2D8
102
{ACAD_REACTORS
330
2D7
102
}
330
2D7
100
AcDbXrecord
280
     1
102
MATERIAL
148
0.0
149
0.0
149
0.0
 93
        0
 94
      127
282
     0
 72
     1
 77
     1
171
     1
175
     1
179
     1
273
     0
  0
XRECORD
  5
2BC
102
{ACAD_REACTORS
330
2BB
102
}
330
2BB
100
AcDbXrecord
280
     1
102
RTVSPropertyOp0
 70
     1
102
RTVSPropertyOp1
 70
     1
102
RTVSPropertyOp2
 70
     1
102
RTVSPropertyOp3
 70
     1
102
RTVSPropertyOp4
 70
     1
102
RTVSPropertyOp5
 70
     1
102
RTVSPropertyOp6
 70
     1
102
RTVSPropertyOp7
 70
     1
102
RTVSPropertyOp8
 70
     1
102
RTVSPropertyOp9
 70
     1
102
RTVSPropertyOp10
 70
     1
102
RTVSPropertyOp11
 70
     1
102
RTVSPropertyOp12
 70
     1
102
RTVSPropertyOp13
 70
     1
102
RTVSPropertyOp14
 70
     1
102
RTVSPropertyOp15
 70
     1
102
RTVSPropertyOp16
 70
     1
102
RTVSPropertyOp17
 70
     1
102
RTVSPropertyOp18
 70
     1
102
RTVSPropertyOp19
 70
     1
102
RTVSPropertyOp20
 70
     1
102
RTVSPropertyOp21
 70
     1
102
RTVSPropertyOp22
 70
     1
102
RTVSPropertyOp23
 70
     1
102
RTVSPropertyOp24
 70
     1
102
RTVSPropertyOp25
 70
     1
102
RTVSPropertyOp26
 70
     1
102
RTVSPropertyOp27
 70
     1
  0
XRECORD
  5
2C0
102
{ACAD_REACTORS
330
2BF
102
}
330
2BF
100
AcDbXrecord
280
     1
102
RTVSPropertyOp0
 70
     1
102
RTVSPropertyOp1
 70
     1
102
RTVSPropertyOp2
 70
     1
102
RTVSPropertyOp3
 70
     1
102
RTVSPropertyOp4
 70
     1
102
RTVSPropertyOp5
 70
     1
102
RTVSPropertyOp6
 70
     1
102
RTVSPropertyOp7
 70
     1
102
RTVSPropertyOp8
 70
     1
102
RTVSPropertyOp9
 70
     1
102
RTVSPropertyOp10
 70
     1
102
RTVSPropertyOp11
 70
     1
102
RTVSPropertyOp12
 70
     1
102
RTVSPropertyOp13
 70
     1
102
RTVSPropertyOp14
 70
     1
102
RTVSPropertyOp15
 70
     1
102
RTVSPropertyOp16
 70
     1
102
RTVSPropertyOp17
 70
     1
102
RTVSPropertyOp18
 70
     1
102
RTVSPropertyOp19
 70
     1
102
RTVSPropertyOp20
 70
     1
102
RTVSPropertyOp21
 70
     1
102
RTVSPropertyOp22
 70
     1
102
RTVSPropertyOp23
 70
     1
102
RTVSPropertyOp24
 70
     1
102
RTVSPropertyOp25
 70
     1
102
RTVSPropertyOp26
 70
     1
102
RTVSPropertyOp27
 70
     1
  0
XRECORD
  5
2BE
102
{ACAD_REACTORS
330
2BD
102
}
330
2BD
100
AcDbXrecord
280
     1
102
RTVSPropertyOp0
 70
     1
102
RTVSPropertyOp1
 70
     1
102
RTVSPropertyOp2
 70
     1
102
RTVSPropertyOp3
 70
     1
102
RTVSPropertyOp4
 70
     1
102
RTVSPropertyOp5
 70
     1
102
RTVSPropertyOp6
 70
     1
102
RTVSPropertyOp7
 70
     1
102
RTVSPropertyOp8
 70
     1
102
RTVSPropertyOp9
 70
     1
102
RTVSPropertyOp10
 70
     1
102
RTVSPropertyOp11
 70
     1
102
RTVSPropertyOp12
 70
     1
102
RTVSPropertyOp13
 70
     1
102
RTVSPropertyOp14
 70
     1
102
RTVSPropertyOp15
 70
     1
102
RTVSPropertyOp16
 70
     1
102
RTVSPropertyOp17
 70
     1
102
RTVSPropertyOp18
 70
     1
102
RTVSPropertyOp19
 70
     1
102
RTVSPropertyOp20
 70
     1
102
RTVSPropertyOp21
 70
     1
102
RTVSPropertyOp22
 70
     1
102
RTVSPropertyOp23
 70
     1
102
RTVSPropertyOp24
 70
     1
102
RTVSPropertyOp25
 70
     1
102
RTVSPropertyOp26
 70
     1
102
RTVSPropertyOp27
 70
     1
  0
XRECORD
  5
2C2
102
{ACAD_REACTORS
330
2C1
102
}
330
2C1
100
AcDbXrecord
280
     1
102
RTVSPropertyOp0
 70
     1
102
RTVSPropertyOp1
 70
     1
102
RTVSPropertyOp2
 70
     1
102
RTVSPropertyOp3
 70
     1
102
RTVSPropertyOp4
 70
     1
102
RTVSPropertyOp5
 70
     1
102
RTVSPropertyOp6
 70
     1
102
RTVSPropertyOp7
 70
     1
102
RTVSPropertyOp8
 70
     1
102
RTVSPropertyOp9
 70
     1
102
RTVSPropertyOp10
 70
     1
102
RTVSPropertyOp11
 70
     1
102
RTVSPropertyOp12
 70
     1
102
RTVSPropertyOp13
 70
     1
102
RTVSPropertyOp14
 70
     1
102
RTVSPropertyOp15
 70
     1
102
RTVSPropertyOp16
 70
     1
102
RTVSPropertyOp17
 70
     1
102
RTVSPropertyOp18
 70
     1
102
RTVSPropertyOp19
 70
     1
102
RTVSPropertyOp20
 70
     1
102
RTVSPropertyOp21
 70
     1
102
RTVSPropertyOp22
 70
     1
102
RTVSPropertyOp23
 70
     1
102
RTVSPropertyOp24
 70
     1
102
RTVSPropertyOp25
 70
     1
102
RTVSPropertyOp26
 70
     1
102
RTVSPropertyOp27
 70
     1
  0
XRECORD
  5
2CA
102
{ACAD_REACTORS
330
2C9
102
}
330
2C9
100
AcDbXrecord
280
     1
102
RTVSPropertyOp0
 70
     1
102
RTVSPropertyOp1
 70
     1
102
RTVSPropertyOp2
 70
     1
102
RTVSPropertyOp3
 70
     1
102
RTVSPropertyOp4
 70
     1
102
RTVSPropertyOp5
 70
     1
102
RTVSPropertyOp6
 70
     1
102
RTVSPropertyOp7
 70
     1
102
RTVSPropertyOp8
 70
     1
102
RTVSPropertyOp9
 70
     1
102
RTVSPropertyOp10
 70
     1
102
RTVSPropertyOp11
 70
     1
102
RTVSPropertyOp12
 70
     1
102
RTVSPropertyOp13
 70
     1
102
RTVSPropertyOp14
 70
     1
102
RTVSPropertyOp15
 70
     1
102
RTVSPropertyOp16
 70
     1
102
RTVSPropertyOp17
 70
     1
102
RTVSPropertyOp18
 70
     1
102
RTVSPropertyOp19
 70
     1
102
RTVSPropertyOp20
 70
     1
102
RTVSPropertyOp21
 70
     1
102
RTVSPropertyOp22
 70
     1
102
RTVSPropertyOp23
 70
     1
102
RTVSPropertyOp24
 70
     1
102
RTVSPropertyOp25
 70
     1
102
RTVSPropertyOp26
 70
     1
102
RTVSPropertyOp27
 70
     1
  0
XRECORD
  5
2D2
102
{ACAD_REACTORS
330
2D1
102
}
330
2D1
100
AcDbXrecord
280
     1
102
RTVSPropertyOp0
 70
     1
102
RTVSPropertyOp1
 70
     1
102
RTVSPropertyOp2
 70
     1
102
RTVSPropertyOp3
 70
     1
102
RTVSPropertyOp4
 70
     1
102
RTVSPropertyOp5
 70
     1
102
RTVSPropertyOp6
 70
     1
102
RTVSPropertyOp7
 70
     1
102
RTVSPropertyOp8
 70
     1
102
RTVSPropertyOp9
 70
     1
102
RTVSPropertyOp10
 70
     1
102
RTVSPropertyOp11
 70
     1
102
RTVSPropertyOp12
 70
     1
102
RTVSPropertyOp13
 70
     1
102
RTVSPropertyOp14
 70
     1
102
RTVSPropertyOp15
 70
     1
102
RTVSPropertyOp16
 70
     1
102
RTVSPropertyOp17
 70
     1
102
RTVSPropertyOp18
 70
     1
102
RTVSPropertyOp19
 70
     1
102
RTVSPropertyOp20
 70
     1
102
RTVSPropertyOp21
 70
     1
102
RTVSPropertyOp22
 70
     1
102
RTVSPropertyOp23
 70
     1
102
RTVSPropertyOp24
 70
     1
102
RTVSPropertyOp25
 70
     1
102
RTVSPropertyOp26
 70
     1
102
RTVSPropertyOp27
 70
     1
  0
XRECORD
  5
2C6
102
{ACAD_REACTORS
330
2C5
102
}
330
2C5
100
AcDbXrecord
280
     1
102
RTVSPropertyOp0
 70
     1
102
RTVSPropertyOp1
 70
     1
102
RTVSPropertyOp2
 70
     1
102
RTVSPropertyOp3
 70
     1
102
RTVSPropertyOp4
 70
     1
102
RTVSPropertyOp5
 70
     1
102
RTVSPropertyOp6
 70
     1
102
RTVSPropertyOp7
 70
     1
102
RTVSPropertyOp8
 70
     1
102
RTVSPropertyOp9
 70
     1
102
RTVSPropertyOp10
 70
     1
102
RTVSPropertyOp11
 70
     1
102
RTVSPropertyOp12
 70
     1
102
RTVSPropertyOp13
 70
     1
102
RTVSPropertyOp14
 70
     1
102
RTVSPropertyOp15
 70
     1
102
RTVSPropertyOp16
 70
     1
102
RTVSPropertyOp17
 70
     1
102
RTVSPropertyOp18
 70
     1
102
RTVSPropertyOp19
 70
     1
102
RTVSPropertyOp20
 70
     1
102
RTVSPropertyOp21
 70
     1
102
RTVSPropertyOp22
 70
     1
102
RTVSPropertyOp23
 70
     1
102
RTVSPropertyOp24
 70
     1
102
RTVSPropertyOp25
 70
     1
102
RTVSPropertyOp26
 70
     1
102
RTVSPropertyOp27
 70
     1
  0
XRECORD
  5
2C8
102
{ACAD_REACTORS
330
2C7
102
}
330
2C7
100
AcDbXrecord
280
     1
102
RTVSPropertyOp0
 70
     1
102
RTVSPropertyOp1
 70
     1
102
RTVSPropertyOp2
 70
     1
102
RTVSPropertyOp3
 70
     1
102
RTVSPropertyOp4
 70
     1
102
RTVSPropertyOp5
 70
     1
102
RTVSPropertyOp6
 70
     1
102
RTVSPropertyOp7
 70
     1
102
RTVSPropertyOp8
 70
     1
102
RTVSPropertyOp9
 70
     1
102
RTVSPropertyOp10
 70
     1
102
RTVSPropertyOp11
 70
     1
102
RTVSPropertyOp12
 70
     1
102
RTVSPropertyOp13
 70
     1
102
RTVSPropertyOp14
 70
     1
102
RTVSPropertyOp15
 70
     1
102
RTVSPropertyOp16
 70
     1
102
RTVSPropertyOp17
 70
     1
102
RTVSPropertyOp18
 70
     1
102
RTVSPropertyOp19
 70
     1
102
RTVSPropertyOp20
 70
     1
102
RTVSPropertyOp21
 70
     1
102
RTVSPropertyOp22
 70
     1
102
RTVSPropertyOp23
 70
     1
102
RTVSPropertyOp24
 70
     1
102
RTVSPropertyOp25
 70
     1
102
RTVSPropertyOp26
 70
     1
102
RTVSPropertyOp27
 70
     1
  0
XRECORD
  5
2D0
102
{ACAD_REACTORS
330
2CF
102
}
330
2CF
100
AcDbXrecord
280
     1
102
RTVSPropertyOp0
 70
     1
102
RTVSPropertyOp1
 70
     1
102
RTVSPropertyOp2
 70
     1
102
RTVSPropertyOp3
 70
     1
102
RTVSPropertyOp4
 70
     1
102
RTVSPropertyOp5
 70
     1
102
RTVSPropertyOp6
 70
     1
102
RTVSPropertyOp7
 70
     1
102
RTVSPropertyOp8
 70
     1
102
RTVSPropertyOp9
 70
     1
102
RTVSPropertyOp10
 70
     1
102
RTVSPropertyOp11
 70
     1
102
RTVSPropertyOp12
 70
     1
102
RTVSPropertyOp13
 70
     1
102
RTVSPropertyOp14
 70
     1
102
RTVSPropertyOp15
 70
     1
102
RTVSPropertyOp16
 70
     1
102
RTVSPropertyOp17
 70
     1
102
RTVSPropertyOp18
 70
     1
102
RTVSPropertyOp19
 70
     1
102
RTVSPropertyOp20
 70
     1
102
RTVSPropertyOp21
 70
     1
102
RTVSPropertyOp22
 70
     1
102
RTVSPropertyOp23
 70
     1
102
RTVSPropertyOp24
 70
     1
102
RTVSPropertyOp25
 70
     1
102
RTVSPropertyOp26
 70
     1
102
RTVSPropertyOp27
 70
     1
  0
XRECORD
  5
2B4
102
{ACAD_REACTORS
330
2B3
102
}
330
2B3
100
AcDbXrecord
280
     1
102
RTVSPropertyOp0
 70
     1
102
RTVSPropertyOp1
 70
     1
102
RTVSPropertyOp2
 70
     1
102
RTVSPropertyOp3
 70
     1
102
RTVSPropertyOp4
 70
     1
102
RTVSPropertyOp5
 70
     1
102
RTVSPropertyOp6
 70
     1
102
RTVSPropertyOp7
 70
     1
102
RTVSPropertyOp8
 70
     1
102
RTVSPropertyOp9
 70
     1
102
RTVSPropertyOp10
 70
     1
102
RTVSPropertyOp11
 70
     1
102
RTVSPropertyOp12
 70
     1
102
RTVSPropertyOp13
 70
     1
102
RTVSPropertyOp14
 70
     1
102
RTVSPropertyOp15
 70
     1
102
RTVSPropertyOp16
 70
     1
102
RTVSPropertyOp17
 70
     1
102
RTVSPropertyOp18
 70
     1
102
RTVSPropertyOp19
 70
     1
102
RTVSPropertyOp20
 70
     1
102
RTVSPropertyOp21
 70
     1
102
RTVSPropertyOp22
 70
     1
102
RTVSPropertyOp23
 70
     1
102
RTVSPropertyOp24
 70
     1
102
RTVSPropertyOp25
 70
     1
102
RTVSPropertyOp26
 70
     1
102
RTVSPropertyOp27
 70
     1
  0
XRECORD
  5
2B6
102
{ACAD_REACTORS
330
2B5
102
}
330
2B5
100
AcDbXrecord
280
     1
102
RTVSPropertyOp0
 70
     1
102
RTVSPropertyOp1
 70
     1
102
RTVSPropertyOp2
 70
     1
102
RTVSPropertyOp3
 70
     1
102
RTVSPropertyOp4
 70
     1
102
RTVSPropertyOp5
 70
     1
102
RTVSPropertyOp6
 70
     1
102
RTVSPropertyOp7
 70
     1
102
RTVSPropertyOp8
 70
     1
102
RTVSPropertyOp9
 70
     1
102
RTVSPropertyOp10
 70
     1
102
RTVSPropertyOp11
 70
     1
102
RTVSPropertyOp12
 70
     1
102
RTVSPropertyOp13
 70
     1
102
RTVSPropertyOp14
 70
     1
102
RTVSPropertyOp15
 70
     1
102
RTVSPropertyOp16
 70
     1
102
RTVSPropertyOp17
 70
     1
102
RTVSPropertyOp18
 70
     1
102
RTVSPropertyOp19
 70
     1
102
RTVSPropertyOp20
 70
     1
102
RTVSPropertyOp21
 70
     1
102
RTVSPropertyOp22
 70
     1
102
RTVSPropertyOp23
 70
     1
102
RTVSPropertyOp24
 70
     1
102
RTVSPropertyOp25
 70
     1
102
RTVSPropertyOp26
 70
     1
102
RTVSPropertyOp27
 70
     1
  0
XRECORD
  5
2B8
102
{ACAD_REACTORS
330
2B7
102
}
330
2B7
100
AcDbXrecord
280
     1
102
RTVSPropertyOp0
 70
     1
102
RTVSPropertyOp1
 70
     1
102
RTVSPropertyOp2
 70
     1
102
RTVSPropertyOp3
 70
     1
102
RTVSPropertyOp4
 70
     1
102
RTVSPropertyOp5
 70
     1
102
RTVSPropertyOp6
 70
     1
102
RTVSPropertyOp7
 70
     1
102
RTVSPropertyOp8
 70
     1
102
RTVSPropertyOp9
 70
     1
102
RTVSPropertyOp10
 70
     1
102
RTVSPropertyOp11
 70
     1
102
RTVSPropertyOp12
 70
     1
102
RTVSPropertyOp13
 70
     1
102
RTVSPropertyOp14
 70
     1
102
RTVSPropertyOp15
 70
     1
102
RTVSPropertyOp16
 70
     1
102
RTVSPropertyOp17
 70
     1
102
RTVSPropertyOp18
 70
     1
102
RTVSPropertyOp19
 70
     1
102
RTVSPropertyOp20
 70
     1
102
RTVSPropertyOp21
 70
     1
102
RTVSPropertyOp22
 70
     1
102
RTVSPropertyOp23
 70
     1
102
RTVSPropertyOp24
 70
     1
102
RTVSPropertyOp25
 70
     1
102
RTVSPropertyOp26
 70
     1
102
RTVSPropertyOp27
 70
     1
  0
XRECORD
  5
2BA
102
{ACAD_REACTORS
330
2B9
102
}
330
2B9
100
AcDbXrecord
280
     1
102
RTVSPropertyOp0
 70
     1
102
RTVSPropertyOp1
 70
     1
102
RTVSPropertyOp2
 70
     1
102
RTVSPropertyOp3
 70
     1
102
RTVSPropertyOp4
 70
     1
102
RTVSPropertyOp5
 70
     1
102
RTVSPropertyOp6
 70
     1
102
RTVSPropertyOp7
 70
     1
102
RTVSPropertyOp8
 70
     1
102
RTVSPropertyOp9
 70
     1
102
RTVSPropertyOp10
 70
     1
102
RTVSPropertyOp11
 70
     1
102
RTVSPropertyOp12
 70
     1
102
RTVSPropertyOp13
 70
     1
102
RTVSPropertyOp14
 70
     1
102
RTVSPropertyOp15
 70
     1
102
RTVSPropertyOp16
 70
     1
102
RTVSPropertyOp17
 70
     1
102
RTVSPropertyOp18
 70
     1
102
RTVSPropertyOp19
 70
     1
102
RTVSPropertyOp20
 70
     1
102
RTVSPropertyOp21
 70
     1
102
RTVSPropertyOp22
 70
     1
102
RTVSPropertyOp23
 70
     1
102
RTVSPropertyOp24
 70
     1
102
RTVSPropertyOp25
 70
     1
102
RTVSPropertyOp26
 70
     1
102
RTVSPropertyOp27
 70
     1
  0
XRECORD
  5
2CE
102
{ACAD_REACTORS
330
2CD
102
}
330
2CD
100
AcDbXrecord
280
     1
102
RTVSPropertyOp0
 70
     1
102
RTVSPropertyOp1
 70
     1
102
RTVSPropertyOp2
 70
     1
102
RTVSPropertyOp3
 70
     1
102
RTVSPropertyOp4
 70
     1
102
RTVSPropertyOp5
 70
     1
102
RTVSPropertyOp6
 70
     1
102
RTVSPropertyOp7
 70
     1
102
RTVSPropertyOp8
 70
     1
102
RTVSPropertyOp9
 70
     1
102
RTVSPropertyOp10
 70
     1
102
RTVSPropertyOp11
 70
     1
102
RTVSPropertyOp12
 70
     1
102
RTVSPropertyOp13
 70
     1
102
RTVSPropertyOp14
 70
     1
102
RTVSPropertyOp15
 70
     1
102
RTVSPropertyOp16
 70
     1
102
RTVSPropertyOp17
 70
     1
102
RTVSPropertyOp18
 70
     1
102
RTVSPropertyOp19
 70
     1
102
RTVSPropertyOp20
 70
     1
102
RTVSPropertyOp21
 70
     1
102
RTVSPropertyOp22
 70
     1
102
RTVSPropertyOp23
 70
     1
102
RTVSPropertyOp24
 70
     1
102
RTVSPropertyOp25
 70
     1
102
RTVSPropertyOp26
 70
     1
102
RTVSPropertyOp27
 70
     1
  0
XRECORD
  5
2C4
102
{ACAD_REACTORS
330
2C3
102
}
330
2C3
100
AcDbXrecord
280
     1
102
RTVSPropertyOp0
 70
     1
102
RTVSPropertyOp1
 70
     1
102
RTVSPropertyOp2
 70
     1
102
RTVSPropertyOp3
 70
     1
102
RTVSPropertyOp4
 70
     1
102
RTVSPropertyOp5
 70
     1
102
RTVSPropertyOp6
 70
     1
102
RTVSPropertyOp7
 70
     1
102
RTVSPropertyOp8
 70
     1
102
RTVSPropertyOp9
 70
     1
102
RTVSPropertyOp10
 70
     1
102
RTVSPropertyOp11
 70
     1
102
RTVSPropertyOp12
 70
     1
102
RTVSPropertyOp13
 70
     1
102
RTVSPropertyOp14
 70
     1
102
RTVSPropertyOp15
 70
     1
102
RTVSPropertyOp16
 70
     1
102
RTVSPropertyOp17
 70
     1
102
RTVSPropertyOp18
 70
     1
102
RTVSPropertyOp19
 70
     1
102
RTVSPropertyOp20
 70
     1
102
RTVSPropertyOp21
 70
     1
102
RTVSPropertyOp22
 70
     1
102
RTVSPropertyOp23
 70
     1
102
RTVSPropertyOp24
 70
     1
102
RTVSPropertyOp25
 70
     1
102
RTVSPropertyOp26
 70
     1
102
RTVSPropertyOp27
 70
     1
  0
XRECORD
  5
2CC
102
{ACAD_REACTORS
330
2CB
102
}
330
2CB
100
AcDbXrecord
280
     1
102
RTVSPropertyOp0
 70
     1
102
RTVSPropertyOp1
 70
     1
102
RTVSPropertyOp2
 70
     1
102
RTVSPropertyOp3
 70
     1
102
RTVSPropertyOp4
 70
     1
102
RTVSPropertyOp5
 70
     1
102
RTVSPropertyOp6
 70
     1
102
RTVSPropertyOp7
 70
     1
102
RTVSPropertyOp8
 70
     1
102
RTVSPropertyOp9
 70
     1
102
RTVSPropertyOp10
 70
     1
102
RTVSPropertyOp11
 70
     1
102
RTVSPropertyOp12
 70
     1
102
RTVSPropertyOp13
 70
     1
102
RTVSPropertyOp14
 70
     1
102
RTVSPropertyOp15
 70
     1
102
RTVSPropertyOp16
 70
     1
102
RTVSPropertyOp17
 70
     1
102
RTVSPropertyOp18
 70
     1
102
RTVSPropertyOp19
 70
     1
102
RTVSPropertyOp20
 70
     1
102
RTVSPropertyOp21
 70
     1
102
RTVSPropertyOp22
 70
     1
102
RTVSPropertyOp23
 70
     1
102
RTVSPropertyOp24
 70
     1
102
RTVSPropertyOp25
 70
     1
102
RTVSPropertyOp26
 70
     1
102
RTVSPropertyOp27
 70
     1
  0
ENDSEC
  0
EOF
