  0
SECTION
  2
HEADER
  9
$ACADVER
  1
AC1015
  9
$ACADMAINTVER
 70
     6
  9
$DWGCODEPAGE
  3
ANSI_932
  9
$INSBASE
 10
0.0
 20
0.0
 30
0.0
  9
$EXTMIN
 10
194.108045053199
 20
272.302023079789
 30
0.0
  9
$EXTMAX
 10
397.722874875873
 20
485.0406434756031
 30
0.0
  9
$LIMMIN
 10
0.0
 20
0.0
  9
$LIMMAX
 10
12.0
 20
9.0
  9
$ORTHOMODE
 70
     0
  9
$REGENMODE
 70
     1
  9
$FILLMODE
 70
     1
  9
$QTEXTMODE
 70
     0
  9
$MIRRTEXT
 70
     1
  9
$LTSCALE
 40
1.0
  9
$ATTMODE
 70
     1
  9
$TEXTSIZE
 40
0.2
  9
$TRACEWID
 40
0.05
  9
$TEXTSTYLE
  7
Standard
  9
$CLAYER
  8
0
  9
$CELTYPE
  6
ByLayer
  9
$CECOLOR
 62
   256
  9
$CELTSCALE
 40
1.0
  9
$DISPSILH
 70
     0
  9
$DIMSCALE
 40
1.0
  9
$DIMASZ
 40
0.18
  9
$DIMEXO
 40
0.0625
  9
$DIMDLI
 40
0.38
  9
$DIMRND
 40
0.0
  9
$DIMDLE
 40
0.0
  9
$DIMEXE
 40
0.18
  9
$DIMTP
 40
0.0
  9
$DIMTM
 40
0.0
  9
$DIMTXT
 40
0.18
  9
$DIMCEN
 40
0.09
  9
$DIMTSZ
 40
0.0
  9
$DIMTOL
 70
     0
  9
$DIMLIM
 70
     0
  9
$DIMTIH
 70
     1
  9
$DIMTOH
 70
     1
  9
$DIMSE1
 70
     0
  9
$DIMSE2
 70
     0
  9
$DIMTAD
 70
     0
  9
$DIMZIN
 70
     0
  9
$DIMBLK
  1

  9
$DIMASO
 70
     1
  9
$DIMSHO
 70
     1
  9
$DIMPOST
  1

  9
$DIMAPOST
  1

  9
$DIMALT
 70
     0
  9
$DIMALTD
 70
     2
  9
$DIMALTF
 40
25.4
  9
$DIMLFAC
 40
1.0
  9
$DIMTOFL
 70
     0
  9
$DIMTVP
 40
0.0
  9
$DIMTIX
 70
     0
  9
$DIMSOXD
 70
     0
  9
$DIMSAH
 70
     0
  9
$DIMBLK1
  1

  9
$DIMBLK2
  1

  9
$DIMSTYLE
  2
Standard
  9
$DIMCLRD
 70
     0
  9
$DIMCLRE
 70
     0
  9
$DIMCLRT
 70
     0
  9
$DIMTFAC
 40
1.0
  9
$DIMGAP
 40
0.09
  9
$DIMJUST
 70
     0
  9
$DIMSD1
 70
     0
  9
$DIMSD2
 70
     0
  9
$DIMTOLJ
 70
     1
  9
$DIMTZIN
 70
     0
  9
$DIMALTZ
 70
     0
  9
$DIMALTTZ
 70
     0
  9
$DIMUPT
 70
     0
  9
$DIMDEC
 70
     4
  9
$DIMTDEC
 70
     4
  9
$DIMALTU
 70
     2
  9
$DIMALTTD
 70
     2
  9
$DIMTXSTY
  7
Standard
  9
$DIMAUNIT
 70
     0
  9
$DIMADEC
 70
     0
  9
$DIMALTRND
 40
0.0
  9
$DIMAZIN
 70
     0
  9
$DIMDSEP
 70
    46
  9
$DIMATFIT
 70
     3
  9
$DIMFRAC
 70
     0
  9
$DIMLDRBLK
  1

  9
$DIMLUNIT
 70
     2
  9
$DIMLWD
 70
    -2
  9
$DIMLWE
 70
    -2
  9
$DIMTMOVE
 70
     0
  9
$LUNITS
 70
     2
  9
$LUPREC
 70
     4
  9
$SKETCHINC
 40
0.1
  9
$FILLETRAD
 40
0.5
  9
$AUNITS
 70
     0
  9
$AUPREC
 70
     0
  9
$MENU
  1
.
  9
$ELEVATION
 40
0.0
  9
$PELEVATION
 40
0.0
  9
$THICKNESS
 40
0.0
  9
$LIMCHECK
 70
     0
  9
$CHAMFERA
 40
0.5
  9
$CHAMFERB
 40
0.5
  9
$CHAMFERC
 40
1.0
  9
$CHAMFERD
 40
0.0
  9
$SKPOLY
 70
     0
  9
$TDCREATE
 40
2458260.373546377
  9
$TDUCREATE
 40
2458259.998546377
  9
$TDUPDATE
 40
2458260.373546389
  9
$TDUUPDATE
 40
2458259.998546389
  9
$TDINDWG
 40
0.0000000116
  9
$TDUSRTIMER
 40
0.0000000116
  9
$USRTIMER
 70
     1
  9
$ANGBASE
 50
0.0
  9
$ANGDIR
 70
     0
  9
$PDMODE
 70
     0
  9
$PDSIZE
 40
0.0
  9
$PLINEWID
 40
0.0
  9
$SPLFRAME
 70
     0
  9
$SPLINETYPE
 70
     6
  9
$SPLINESEGS
 70
     8
  9
$HANDSEED
  5
33D
  9
$SURFTAB1
 70
     6
  9
$SURFTAB2
 70
     6
  9
$SURFTYPE
 70
     6
  9
$SURFU
 70
     6
  9
$SURFV
 70
     6
  9
$UCSBASE
  2

  9
$UCSNAME
  2

  9
$UCSORG
 10
0.0
 20
0.0
 30
0.0
  9
$UCSXDIR
 10
1.0
 20
0.0
 30
0.0
  9
$UCSYDIR
 10
0.0
 20
1.0
 30
0.0
  9
$UCSORTHOREF
  2

  9
$UCSORTHOVIEW
 70
     0
  9
$UCSORGTOP
 10
0.0
 20
0.0
 30
0.0
  9
$UCSORGBOTTOM
 10
0.0
 20
0.0
 30
0.0
  9
$UCSORGLEFT
 10
0.0
 20
0.0
 30
0.0
  9
$UCSORGRIGHT
 10
0.0
 20
0.0
 30
0.0
  9
$UCSORGFRONT
 10
0.0
 20
0.0
 30
0.0
  9
$UCSORGBACK
 10
0.0
 20
0.0
 30
0.0
  9
$PUCSBASE
  2

  9
$PUCSNAME
  2

  9
$PUCSORG
 10
0.0
 20
0.0
 30
0.0
  9
$PUCSXDIR
 10
1.0
 20
0.0
 30
0.0
  9
$PUCSYDIR
 10
0.0
 20
1.0
 30
0.0
  9
$PUCSORTHOREF
  2

  9
$PUCSORTHOVIEW
 70
     0
  9
$PUCSORGTOP
 10
0.0
 20
0.0
 30
0.0
  9
$PUCSORGBOTTOM
 10
0.0
 20
0.0
 30
0.0
  9
$PUCSORGLEFT
 10
0.0
 20
0.0
 30
0.0
  9
$PUCSORGRIGHT
 10
0.0
 20
0.0
 30
0.0
  9
$PUCSORGFRONT
 10
0.0
 20
0.0
 30
0.0
  9
$PUCSORGBACK
 10
0.0
 20
0.0
 30
0.0
  9
$USERI1
 70
     0
  9
$USERI2
 70
     0
  9
$USERI3
 70
     0
  9
$USERI4
 70
     0
  9
$USERI5
 70
     0
  9
$USERR1
 40
18.0
  9
$USERR2
 40
0.0
  9
$USERR3
 40
0.0
  9
$USERR4
 40
0.0
  9
$USERR5
 40
0.0
  9
$WORLDVIEW
 70
     1
  9
$SHADEDGE
 70
     3
  9
$SHADEDIF
 70
    70
  9
$TILEMODE
 70
     1
  9
$MAXACTVP
 70
    64
  9
$PINSBASE
 10
0.0
 20
0.0
 30
0.0
  9
$PLIMCHECK
 70
     0
  9
$PEXTMIN
 10
1.00000000000000E+20
 20
1.00000000000000E+20
 30
1.00000000000000E+20
  9
$PEXTMAX
 10
-1.00000000000000E+20
 20
-1.00000000000000E+20
 30
-1.00000000000000E+20
  9
$PLIMMIN
 10
0.0
 20
0.0
  9
$PLIMMAX
 10
12.0
 20
9.0
  9
$UNITMODE
 70
     0
  9
$VISRETAIN
 70
     1
  9
$PLINEGEN
 70
     0
  9
$PSLTSCALE
 70
     1
  9
$TREEDEPTH
 70
  3020
  9
$CMLSTYLE
  2
Standard
  9
$CMLJUST
 70
     0
  9
$CMLSCALE
 40
1.0
  9
$PROXYGRAPHICS
 70
     1
  9
$MEASUREMENT
 70
     1
  9
$CELWEIGHT
370
    -1
  9
$ENDCAPS
280
     0
  9
$JOINSTYLE
280
     0
  9
$LWDISPLAY
290
     0
  9
$INSUNITS
 70
     1
  9
$HYPERLINKBASE
  1

  9
$STYLESHEET
  1

  9
$XEDIT
290
     1
  9
$CEPSNTYPE
380
     0
  9
$PSTYLEMODE
290
     1
  9
$FINGERPRINTGUID
  2
{61C127A9-199F-47A6-9667-C1D775DF4AA6}
  9
$VERSIONGUID
  2
{FAEB1C32-E019-11D5-929B-00C0DF256EC4}
  9
$EXTNAMES
290
     1
  9
$PSVPSCALE
 40
0.0
  9
$OLESTARTUP
290
     0
  0
ENDSEC
  0
SECTION
  2
CLASSES
  0
CLASS
  1
ACDBDICTIONARYWDFLT
  2
AcDbDictionaryWithDefault
  3
ObjectDBX Classes
 90
        0
280
     0
281
     0
  0
CLASS
  1
VISUALSTYLE
  2
AcDbVisualStyle
  3
ObjectDBX Classes
 90
     4095
280
     0
281
     0
  0
CLASS
  1
MATERIAL
  2
AcDbMaterial
  3
ObjectDBX Classes
 90
     1153
280
     0
281
     0
  0
CLASS
  1

  2
exOdDbCircle
  3

 90
        0
280
     0
281
     1
  0
CLASS
  1

  2
exOdDbPolyline
  3

 90
        0
280
     0
281
     1
  0
CLASS
  1
DICTIONARYVAR
  2
AcDbDictionaryVar
  3
ObjectDBX Classes
 90
        0
280
     0
281
     0
  0
CLASS
  1
ACDBPLACEHOLDER
  2
AcDbPlaceHolder
  3
ObjectDBX Classes
 90
        0
280
     0
281
     0
  0
CLASS
  1
LAYOUT
  2
AcDbLayout
  3
ObjectDBX Classes
 90
        0
280
     0
281
     0
  0
ENDSEC
  0
SECTION
  2
TABLES
  0
TABLE
  2
VPORT
  5
8
330
0
100
AcDbSymbolTable
 70
     1
  0
VPORT
  5
29
330
8
100
AcDbSymbolTableRecord
100
AcDbViewportTableRecord
  2
*Active
 70
     0
 10
0.0
 20
0.0
 11
1.0
 21
1.0
 12
295.915459964536
 22
378.671333277696
 13
0.0
 23
0.0
 14
0.5
 24
0.5
 15
0.5
 25
0.5
 16
0.0
 26
0.0
 36
1.0
 17
0.0
 27
0.0
 37
0.0
 40
234.0124824353955
 41
1.60267857142857
 42
50.0
 43
0.0
 44
0.0
 50
0.0
 51
0.0
 71
     0
 72
   100
 73
     1
 74
     3
 75
     0
 76
     0
 77
     0
 78
     0
281
     0
 65
     1
110
0.0
120
0.0
130
0.0
111
1.0
121
0.0
131
0.0
112
0.0
122
1.0
132
0.0
 79
     0
146
0.0
  0
ENDTAB
  0
TABLE
  2
LTYPE
  5
5
330
0
100
AcDbSymbolTable
 70
     8
  0
LTYPE
  5
14
330
5
100
AcDbSymbolTableRecord
100
AcDbLinetypeTableRecord
  2
ByBlock
 70
     0
  3

 72
    65
 73
     0
 40
0.0
  0
LTYPE
  5
15
330
5
100
AcDbSymbolTableRecord
100
AcDbLinetypeTableRecord
  2
ByLayer
 70
     0
  3

 72
    65
 73
     0
 40
0.0
  0
LTYPE
  5
16
330
5
100
AcDbSymbolTableRecord
100
AcDbLinetypeTableRecord
  2
Continuous
 70
     0
  3
Solid line
 72
    65
 73
     0
 40
0.0
  0
LTYPE
  5
3F
330
5
100
AcDbSymbolTableRecord
100
AcDbLinetypeTableRecord
  2
DASHED
 70
     0
  3
Dashed
 72
    65
 73
     2
 40
15.0
 49
7.0
 74
     0
 49
-8.0
 74
     0
  0
LTYPE
  5
40
330
5
100
AcDbSymbolTableRecord
100
AcDbLinetypeTableRecord
  2
DOTTED
 70
     0
  3
Dotted
 72
    65
 73
     2
 40
1.0
 49
0.0
 74
     0
 49
-1.0
 74
     0
  0
LTYPE
  5
41
330
5
100
AcDbSymbolTableRecord
100
AcDbLinetypeTableRecord
  2
DOT_CENTER
 70
     0
  3
Dot_Center
 72
    65
 73
     4
 40
14.0
 49
12.0
 74
     0
 49
-1.0
 74
     0
 49
0.0
 74
     0
 49
-1.0
 74
     0
  0
LTYPE
  5
42
330
5
100
AcDbSymbolTableRecord
100
AcDbLinetypeTableRecord
  2
LONG_DASHED
 70
     0
  3
Long_Dashed
 72
    65
 73
     2
 40
15.0
 49
10.0
 74
     0
 49
-5.0
 74
     0
  0
LTYPE
  5
43
330
5
100
AcDbSymbolTableRecord
100
AcDbLinetypeTableRecord
  2
DASH_CENTER
 70
     0
  3
Dash_Center
 72
    65
 73
     4
 40
14.0
 49
11.0
 74
     0
 49
-1.0
 74
     0
 49
1.0
 74
     0
 49
-1.0
 74
     0
  0
LTYPE
  5
44
330
5
100
AcDbSymbolTableRecord
100
AcDbLinetypeTableRecord
  2
PHANTOM
 70
     0
  3
Phantom
 72
    65
 73
     6
 40
13.0
 49
10.0
 74
     0
 49
-1.0
 74
     0
 49
0.0
 74
     0
 49
-1.0
 74
     0
 49
0.0
 74
     0
 49
-1.0
 74
     0
  0
LTYPE
  5
45
330
5
100
AcDbSymbolTableRecord
100
AcDbLinetypeTableRecord
  2
CENTER_DASH_DASH
 70
     0
  3
Center_Dash_Dash
 72
    65
 73
     6
 40
14.0
 49
9.0
 74
     0
 49
-1.0
 74
     0
 49
1.0
 74
     0
 49
-1.0
 74
     0
 49
1.0
 74
     0
 49
-1.0
 74
     0
  0
ENDTAB
  0
TABLE
  2
LAYER
  5
2
330
0
100
AcDbSymbolTable
 70
     4
  0
LAYER
  5
10
330
2
100
AcDbSymbolTableRecord
100
AcDbLayerTableRecord
  2
0
 70
     0
 62
     7
  6
Continuous
370
    -3
390
F
  0
LAYER
  5
46
330
2
100
AcDbSymbolTableRecord
100
AcDbLayerTableRecord
  2
1
 70
     0
 62
     7
  6
Continuous
370
    -3
390
F
  0
LAYER
  5
47
330
2
100
AcDbSymbolTableRecord
100
AcDbLayerTableRecord
  2
2
 70
     0
 62
     7
  6
Continuous
370
    -3
390
F
  0
LAYER
  5
48
330
2
100
AcDbSymbolTableRecord
100
AcDbLayerTableRecord
  2
3
 70
     0
 62
     7
  6
Continuous
370
    -3
390
F
  0
ENDTAB
  0
TABLE
  2
STYLE
  5
3
330
0
100
AcDbSymbolTable
 70
     1
  0
STYLE
  5
11
330
3
100
AcDbSymbolTableRecord
100
AcDbTextStyleTableRecord
  2
Standard
 70
     0
 40
0.0
 41
1.0
 50
0.0
 71
     0
 42
0.2
  3
txt
  4

  0
ENDTAB
  0
TABLE
  2
VIEW
  5
6
330
0
100
AcDbSymbolTable
 70
     0
  0
ENDTAB
  0
TABLE
  2
UCS
  5
7
330
0
100
AcDbSymbolTable
 70
     0
  0
ENDTAB
  0
TABLE
  2
APPID
  5
9
330
0
100
AcDbSymbolTable
 70
     1
  0
APPID
  5
12
330
9
100
AcDbSymbolTableRecord
100
AcDbRegAppTableRecord
  2
ACAD
 70
     0
  0
ENDTAB
  0
TABLE
  2
DIMSTYLE
  5
A
330
0
100
AcDbSymbolTable
 70
     1
100
AcDbDimStyleTable
  0
DIMSTYLE
105
27
330
A
100
AcDbSymbolTableRecord
100
AcDbDimStyleTableRecord
  2
Standard
 70
     0
340
11
  0
ENDTAB
  0
TABLE
  2
BLOCK_RECORD
  5
1
330
0
100
AcDbSymbolTable
 70
     1
  0
BLOCK_RECORD
  5
1F
330
1
100
AcDbSymbolTableRecord
100
AcDbBlockTableRecord
  2
*Model_Space
340
22
  0
BLOCK_RECORD
  5
1B
330
1
100
AcDbSymbolTableRecord
100
AcDbBlockTableRecord
  2
*Paper_Space
340
1E
  0
BLOCK_RECORD
  5
23
330
1
100
AcDbSymbolTableRecord
100
AcDbBlockTableRecord
  2
*Paper_Space0
340
26
  0
ENDTAB
  0
ENDSEC
  0
SECTION
  2
BLOCKS
  0
BLOCK
  5
20
330
1F
100
AcDbEntity
  8
0
100
AcDbBlockBegin
  2
*Model_Space
 70
     0
 10
0.0
 20
0.0
 30
0.0
  3
*Model_Space
  1

  0
ENDBLK
  5
21
330
1F
100
AcDbEntity
  8
0
100
AcDbBlockEnd
  0
BLOCK
  5
1C
330
1B
100
AcDbEntity
 67
     1
  8
0
100
AcDbBlockBegin
  2
*Paper_Space
 70
     0
 10
0.0
 20
0.0
 30
0.0
  3
*Paper_Space
  1

  0
ENDBLK
  5
1D
330
1B
100
AcDbEntity
 67
     1
  8
0
100
AcDbBlockEnd
  0
BLOCK
  5
24
330
23
100
AcDbEntity
  8
0
100
AcDbBlockBegin
  2
*Paper_Space0
 70
     0
 10
0.0
 20
0.0
 30
0.0
  3
*Paper_Space0
  1

  0
ENDBLK
  5
25
330
23
100
AcDbEntity
  8
0
100
AcDbBlockEnd
  0
ENDSEC
  0
SECTION
  2
ENTITIES
  0
POINT
  5
49
330
1F
100
AcDbEntity
  8
1
 62
     3
100
AcDbPoint
 10
204.9339552310997
 20
440.9406434756033
 30
0.0
  0
POINT
  5
4A
330
1F
100
AcDbEntity
  8
1
 62
     3
100
AcDbPoint
 10
204.9339552310997
 20
440.9406434756033
 30
0.0
  0
POINT
  5
4B
330
1F
100
AcDbEntity
  8
1
 62
     3
100
AcDbPoint
 10
205.9339552310997
 20
439.9406434756033
 30
0.0
  0
POINT
  5
4C
330
1F
100
AcDbEntity
  8
1
 62
     3
100
AcDbPoint
 10
205.9339552310997
 20
466.1406434756037
 30
0.0
  0
POINT
  5
4D
330
1F
100
AcDbEntity
  8
1
 62
     3
100
AcDbPoint
 10
212.4892078532951
 20
442.7081908017451
 30
0.0
  0
POINT
  5
4E
330
1F
100
AcDbEntity
  8
1
 62
     3
100
AcDbPoint
 10
262.3787026089045
 20
463.3730961494603
 30
0.0
  0
POINT
  5
4F
330
1F
100
AcDbEntity
  8
1
 62
     3
100
AcDbPoint
 10
208.9447481917915
 20
458.0406434756033
 30
0.0
  0
POINT
  5
50
330
1F
100
AcDbEntity
  8
1
 62
     3
100
AcDbPoint
 10
239.9156882496984
 20
428.1641284217532
 30
0.0
  0
POINT
  5
51
330
1F
100
AcDbEntity
  8
1
 62
     3
100
AcDbPoint
 10
240.3127655326742
 20
424.1838860131372
 30
0.0
  0
POINT
  5
52
330
1F
100
AcDbEntity
  8
1
 62
     3
100
AcDbPoint
 10
237.4339552310998
 20
386.3502476014583
 30
0.0
  0
POINT
  5
53
330
1F
100
AcDbEntity
  8
1
 62
     3
100
AcDbPoint
 10
234.8839552310998
 20
382.1502476014582
 30
0.0
  0
POINT
  5
54
330
1F
100
AcDbEntity
  8
1
 62
     3
100
AcDbPoint
 10
239.9839552310998
 20
382.1502476014582
 30
0.0
  0
POINT
  5
55
330
1F
100
AcDbEntity
  8
1
 62
     3
100
AcDbPoint
 10
371.272874875873
 20
382.1502476014582
 30
0.0
  0
POINT
  5
56
330
1F
100
AcDbEntity
  8
1
 62
     3
100
AcDbPoint
 10
366.1728748758731
 20
382.1502476014582
 30
0.0
  0
LINE
  5
57
330
1F
100
AcDbEntity
  8
1
  6
Continuous
 62
     4
100
AcDbLine
 10
325.3161993243708
 20
275.102023079789
 30
0.0
 11
324.7867875596649
 21
275.302023079789
 31
0.0
  0
LINE
  5
58
330
1F
100
AcDbEntity
  8
1
  6
Continuous
 62
     4
100
AcDbLine
 10
325.6691405008414
 20
274.602023079789
 30
0.0
 11
325.3161993243708
 21
275.102023079789
 31
0.0
  0
LINE
  5
59
330
1F
100
AcDbEntity
  8
1
  6
Continuous
 62
     4
100
AcDbLine
 10
325.757375794959
 20
273.802023079789
 30
0.0
 11
325.6691405008414
 21
274.602023079789
 31
0.0
  0
LINE
  5
5A
330
1F
100
AcDbEntity
  8
1
  6
Continuous
 62
     4
100
AcDbLine
 10
325.6691405008414
 20
273.002023079789
 30
0.0
 11
325.757375794959
 21
273.802023079789
 31
0.0
  0
LINE
  5
5B
330
1F
100
AcDbEntity
  8
1
  6
Continuous
 62
     4
100
AcDbLine
 10
325.3161993243708
 20
272.502023079789
 30
0.0
 11
325.6691405008414
 21
273.002023079789
 31
0.0
  0
LINE
  5
5C
330
1F
100
AcDbEntity
  8
1
  6
Continuous
 62
     4
100
AcDbLine
 10
324.7867875596649
 20
272.302023079789
 30
0.0
 11
325.3161993243708
 21
272.502023079789
 31
0.0
  0
LINE
  5
5D
330
1F
100
AcDbEntity
  8
1
  6
Continuous
 62
     4
100
AcDbLine
 10
324.257375794959
 20
272.502023079789
 30
0.0
 11
324.7867875596649
 21
272.302023079789
 31
0.0
  0
LINE
  5
5E
330
1F
100
AcDbEntity
  8
1
  6
Continuous
 62
     4
100
AcDbLine
 10
323.9926699126061
 20
273.002023079789
 30
0.0
 11
324.257375794959
 21
272.502023079789
 31
0.0
  0
LINE
  5
5F
330
1F
100
AcDbEntity
  8
1
  6
Continuous
 62
     4
100
AcDbLine
 10
323.8161993243708
 20
273.802023079789
 30
0.0
 11
323.9926699126061
 21
273.002023079789
 31
0.0
  0
LINE
  5
60
330
1F
100
AcDbEntity
  8
1
  6
Continuous
 62
     4
100
AcDbLine
 10
323.9926699126061
 20
274.602023079789
 30
0.0
 11
323.8161993243708
 21
273.802023079789
 31
0.0
  0
LINE
  5
61
330
1F
100
AcDbEntity
  8
1
  6
Continuous
 62
     4
100
AcDbLine
 10
324.257375794959
 20
275.102023079789
 30
0.0
 11
323.9926699126061
 21
274.602023079789
 31
0.0
  0
LINE
  5
62
330
1F
100
AcDbEntity
  8
1
  6
Continuous
 62
     4
100
AcDbLine
 10
324.7867875596649
 20
275.302023079789
 30
0.0
 11
324.257375794959
 21
275.102023079789
 31
0.0
  0
LINE
  5
63
330
1F
100
AcDbEntity
  8
1
  6
Continuous
 62
     4
100
AcDbLine
 10
321.3456110890767
 20
273.802023079789
 30
0.0
 11
322.9338463831943
 21
273.802023079789
 31
0.0
  0
LINE
  5
64
330
1F
100
AcDbEntity
  8
1
  6
Continuous
 62
     4
100
AcDbLine
 10
320.4632581479002
 20
275.302023079789
 30
0.0
 11
320.4632581479002
 21
272.302023079789
 31
0.0
  0
LINE
  5
65
330
1F
100
AcDbEntity
  8
1
  6
Continuous
 62
     4
100
AcDbLine
 10
320.0220816773119
 20
275.002023079789
 30
0.0
 11
320.4632581479002
 21
275.302023079789
 31
0.0
  0
LINE
  5
66
330
1F
100
AcDbEntity
  8
1
  6
Continuous
 62
     4
100
AcDbLine
 10
318.6985522655472
 20
275.102023079789
 30
0.0
 11
318.1691405008414
 21
275.302023079789
 31
0.0
  0
LINE
  5
67
330
1F
100
AcDbEntity
  8
1
  6
Continuous
 62
     4
100
AcDbLine
 10
319.0514934420178
 20
274.602023079789
 30
0.0
 11
318.6985522655472
 21
275.102023079789
 31
0.0
  0
LINE
  5
68
330
1F
100
AcDbEntity
  8
1
  6
Continuous
 62
     4
100
AcDbLine
 10
319.1397287361355
 20
273.802023079789
 30
0.0
 11
319.0514934420178
 21
274.602023079789
 31
0.0
  0
LINE
  5
69
330
1F
100
AcDbEntity
  8
1
  6
Continuous
 62
     4
100
AcDbLine
 10
319.0514934420178
 20
273.002023079789
 30
0.0
 11
319.1397287361355
 21
273.802023079789
 31
0.0
  0
LINE
  5
6A
330
1F
100
AcDbEntity
  8
1
  6
Continuous
 62
     4
100
AcDbLine
 10
318.6985522655472
 20
272.502023079789
 30
0.0
 11
319.0514934420178
 21
273.002023079789
 31
0.0
  0
LINE
  5
6B
330
1F
100
AcDbEntity
  8
1
  6
Continuous
 62
     4
100
AcDbLine
 10
318.1691405008414
 20
272.302023079789
 30
0.0
 11
318.6985522655472
 21
272.502023079789
 31
0.0
  0
LINE
  5
6C
330
1F
100
AcDbEntity
  8
1
  6
Continuous
 62
     4
100
AcDbLine
 10
317.6397287361355
 20
272.502023079789
 30
0.0
 11
318.1691405008414
 21
272.302023079789
 31
0.0
  0
LINE
  5
6D
330
1F
100
AcDbEntity
  8
1
  6
Continuous
 62
     4
100
AcDbLine
 10
317.3750228537825
 20
273.002023079789
 30
0.0
 11
317.6397287361355
 21
272.502023079789
 31
0.0
  0
LINE
  5
6E
330
1F
100
AcDbEntity
  8
1
  6
Continuous
 62
     4
100
AcDbLine
 10
317.1985522655472
 20
273.802023079789
 30
0.0
 11
317.3750228537825
 21
273.002023079789
 31
0.0
  0
LINE
  5
6F
330
1F
100
AcDbEntity
  8
1
  6
Continuous
 62
     4
100
AcDbLine
 10
317.3750228537825
 20
274.602023079789
 30
0.0
 11
317.1985522655472
 21
273.802023079789
 31
0.0
  0
LINE
  5
70
330
1F
100
AcDbEntity
  8
1
  6
Continuous
 62
     4
100
AcDbLine
 10
317.6397287361355
 20
275.102023079789
 30
0.0
 11
317.3750228537825
 21
274.602023079789
 31
0.0
  0
LINE
  5
71
330
1F
100
AcDbEntity
  8
1
  6
Continuous
 62
     4
100
AcDbLine
 10
318.1691405008414
 20
275.302023079789
 30
0.0
 11
317.6397287361355
 21
275.102023079789
 31
0.0
  0
LINE
  5
72
330
1F
100
AcDbEntity
  8
1
  6
Continuous
 62
     4
100
AcDbLine
 10
314.6397287361355
 20
273.802023079789
 30
0.0
 11
314.6397287361355
 21
272.302023079789
 31
0.0
  0
LINE
  5
73
330
1F
100
AcDbEntity
  8
1
  6
Continuous
 62
     4
100
AcDbLine
 10
314.6397287361355
 20
273.802023079789
 30
0.0
 11
316.1397287361355
 21
273.802023079789
 31
0.0
  0
LINE
  5
74
330
1F
100
AcDbEntity
  8
1
  6
Continuous
 62
     4
100
AcDbLine
 10
314.6397287361355
 20
275.302023079789
 30
0.0
 11
314.6397287361355
 21
273.802023079789
 31
0.0
  0
LINE
  5
75
330
1F
100
AcDbEntity
  8
1
  6
Continuous
 62
     4
100
AcDbLine
 10
316.3161993243708
 20
275.302023079789
 30
0.0
 11
314.6397287361355
 21
275.302023079789
 31
0.0
  0
LINE
  5
76
330
1F
100
AcDbEntity
  8
1
  6
Continuous
 62
     4
100
AcDbLine
 10
313.1397287361355
 20
272.302023079789
 30
0.0
 11
313.757375794959
 21
275.302023079789
 31
0.0
  0
LINE
  5
77
330
1F
100
AcDbEntity
  8
1
  6
Continuous
 62
     4
100
AcDbLine
 10
312.4338463831943
 20
275.202023079789
 30
0.0
 11
313.1397287361355
 21
272.302023079789
 31
0.0
  0
LINE
  5
78
330
1F
100
AcDbEntity
  8
1
  6
Continuous
 62
     4
100
AcDbLine
 10
311.8161993243708
 20
272.302023079789
 30
0.0
 11
312.4338463831943
 21
275.202023079789
 31
0.0
  0
LINE
  5
79
330
1F
100
AcDbEntity
  8
1
  6
Continuous
 62
     4
100
AcDbLine
 10
311.1103169714296
 20
275.302023079789
 30
0.0
 11
311.8161993243708
 21
272.302023079789
 31
0.0
  0
LINE
  5
7A
330
1F
100
AcDbEntity
  8
1
  6
Continuous
 62
     4
100
AcDbLine
 10
308.8161993243708
 20
272.502023079789
 30
0.0
 11
308.5514934420178
 21
272.802023079789
 31
0.0
  0
LINE
  5
7B
330
1F
100
AcDbEntity
  8
1
  6
Continuous
 62
     4
100
AcDbLine
 10
309.4338463831943
 20
272.302023079789
 30
0.0
 11
308.8161993243708
 21
272.502023079789
 31
0.0
  0
LINE
  5
7C
330
1F
100
AcDbEntity
  8
1
  6
Continuous
 62
     4
100
AcDbLine
 10
309.8750228537825
 20
272.502023079789
 30
0.0
 11
309.4338463831943
 21
272.302023079789
 31
0.0
  0
LINE
  5
7D
330
1F
100
AcDbEntity
  8
1
  6
Continuous
 62
     4
100
AcDbLine
 10
310.1397287361355
 20
272.802023079789
 30
0.0
 11
309.8750228537825
 21
272.502023079789
 31
0.0
  0
LINE
  5
7E
330
1F
100
AcDbEntity
  8
1
  6
Continuous
 62
     4
100
AcDbLine
 10
310.2279640302531
 20
273.202023079789
 30
0.0
 11
310.1397287361355
 21
272.802023079789
 31
0.0
  0
LINE
  5
7F
330
1F
100
AcDbEntity
  8
1
  6
Continuous
 62
     4
100
AcDbLine
 10
310.2279640302531
 20
274.4020230797891
 30
0.0
 11
310.2279640302531
 21
273.202023079789
 31
0.0
  0
LINE
  5
80
330
1F
100
AcDbEntity
  8
1
  6
Continuous
 62
     4
100
AcDbLine
 10
310.0514934420178
 20
273.802023079789
 30
0.0
 11
310.2279640302531
 21
274.4020230797891
 31
0.0
  0
LINE
  5
81
330
1F
100
AcDbEntity
  8
1
  6
Continuous
 62
     4
100
AcDbLine
 10
309.7867875596649
 20
273.502023079789
 30
0.0
 11
310.0514934420178
 21
273.802023079789
 31
0.0
  0
LINE
  5
82
330
1F
100
AcDbEntity
  8
1
  6
Continuous
 62
     4
100
AcDbLine
 10
309.4338463831943
 20
273.4020230797891
 30
0.0
 11
309.7867875596649
 21
273.502023079789
 31
0.0
  0
LINE
  5
83
330
1F
100
AcDbEntity
  8
1
  6
Continuous
 62
     4
100
AcDbLine
 10
309.0809052067237
 20
273.502023079789
 30
0.0
 11
309.4338463831943
 21
273.4020230797891
 31
0.0
  0
LINE
  5
84
330
1F
100
AcDbEntity
  8
1
  6
Continuous
 62
     4
100
AcDbLine
 10
308.7279640302531
 20
273.802023079789
 30
0.0
 11
309.0809052067237
 21
273.502023079789
 31
0.0
  0
LINE
  5
85
330
1F
100
AcDbEntity
  8
1
  6
Continuous
 62
     4
100
AcDbLine
 10
308.6397287361355
 20
274.002023079789
 30
0.0
 11
308.7279640302531
 21
273.802023079789
 31
0.0
  0
LINE
  5
86
330
1F
100
AcDbEntity
  8
1
  6
Continuous
 62
     4
100
AcDbLine
 10
308.5514934420178
 20
274.4020230797891
 30
0.0
 11
308.6397287361355
 21
274.002023079789
 31
0.0
  0
LINE
  5
87
330
1F
100
AcDbEntity
  8
1
  6
Continuous
 62
     4
100
AcDbLine
 10
308.7279640302531
 20
274.9020230797891
 30
0.0
 11
308.5514934420178
 21
274.4020230797891
 31
0.0
  0
LINE
  5
88
330
1F
100
AcDbEntity
  8
1
  6
Continuous
 62
     4
100
AcDbLine
 10
308.9926699126061
 20
275.202023079789
 30
0.0
 11
308.7279640302531
 21
274.9020230797891
 31
0.0
  0
LINE
  5
89
330
1F
100
AcDbEntity
  8
1
  6
Continuous
 62
     4
100
AcDbLine
 10
309.4338463831943
 20
275.302023079789
 30
0.0
 11
308.9926699126061
 21
275.202023079789
 31
0.0
  0
LINE
  5
8A
330
1F
100
AcDbEntity
  8
1
  6
Continuous
 62
     4
100
AcDbLine
 10
309.8750228537825
 20
275.202023079789
 30
0.0
 11
309.4338463831943
 21
275.302023079789
 31
0.0
  0
LINE
  5
8B
330
1F
100
AcDbEntity
  8
1
  6
Continuous
 62
     4
100
AcDbLine
 10
310.1397287361355
 20
274.9020230797891
 30
0.0
 11
309.8750228537825
 21
275.202023079789
 31
0.0
  0
LINE
  5
8C
330
1F
100
AcDbEntity
  8
1
  6
Continuous
 62
     4
100
AcDbLine
 10
310.2279640302531
 20
274.4020230797891
 30
0.0
 11
310.1397287361355
 21
274.9020230797891
 31
0.0
  0
LINE
  5
8D
330
1F
100
AcDbEntity
  8
1
  6
Continuous
 62
     4
100
AcDbLine
 10
305.9044346184884
 20
272.602023079789
 30
0.0
 11
305.7279640302531
 21
272.802023079789
 31
0.0
  0
LINE
  5
8E
330
1F
100
AcDbEntity
  8
1
  6
Continuous
 62
     4
100
AcDbLine
 10
306.257375794959
 20
272.4020230797891
 30
0.0
 11
305.9044346184884
 21
272.602023079789
 31
0.0
  0
LINE
  5
8F
330
1F
100
AcDbEntity
  8
1
  6
Continuous
 62
     4
100
AcDbLine
 10
306.6985522655473
 20
272.302023079789
 30
0.0
 11
306.257375794959
 21
272.4020230797891
 31
0.0
  0
LINE
  5
90
330
1F
100
AcDbEntity
  8
1
  6
Continuous
 62
     4
100
AcDbLine
 10
307.2279640302531
 20
272.4020230797891
 30
0.0
 11
306.6985522655473
 21
272.302023079789
 31
0.0
  0
LINE
  5
91
330
1F
100
AcDbEntity
  8
1
  6
Continuous
 62
     4
100
AcDbLine
 10
307.4926699126061
 20
272.602023079789
 30
0.0
 11
307.2279640302531
 21
272.4020230797891
 31
0.0
  0
LINE
  5
92
330
1F
100
AcDbEntity
  8
1
  6
Continuous
 62
     4
100
AcDbLine
 10
307.6691405008414
 20
273.102023079789
 30
0.0
 11
307.4926699126061
 21
272.602023079789
 31
0.0
  0
LINE
  5
93
330
1F
100
AcDbEntity
  8
1
  6
Continuous
 62
     4
100
AcDbLine
 10
307.4926699126061
 20
273.602023079789
 30
0.0
 11
307.6691405008414
 21
273.102023079789
 31
0.0
  0
LINE
  5
94
330
1F
100
AcDbEntity
  8
1
  6
Continuous
 62
     4
100
AcDbLine
 10
307.0514934420178
 20
273.9020230797891
 30
0.0
 11
307.4926699126061
 21
273.602023079789
 31
0.0
  0
LINE
  5
95
330
1F
100
AcDbEntity
  8
1
  6
Continuous
 62
     4
100
AcDbLine
 10
306.6103169714296
 20
273.9020230797891
 30
0.0
 11
307.0514934420178
 21
273.9020230797891
 31
0.0
  0
LINE
  5
96
330
1F
100
AcDbEntity
  8
1
  6
Continuous
 62
     4
100
AcDbLine
 10
307.0514934420178
 20
273.9020230797891
 30
0.0
 11
306.6103169714296
 21
273.9020230797891
 31
0.0
  0
LINE
  5
97
330
1F
100
AcDbEntity
  8
1
  6
Continuous
 62
     4
100
AcDbLine
 10
307.4044346184884
 20
274.102023079789
 30
0.0
 11
307.0514934420178
 21
273.9020230797891
 31
0.0
  0
LINE
  5
98
330
1F
100
AcDbEntity
  8
1
  6
Continuous
 62
     4
100
AcDbLine
 10
307.5809052067237
 20
274.502023079789
 30
0.0
 11
307.4044346184884
 21
274.102023079789
 31
0.0
  0
LINE
  5
99
330
1F
100
AcDbEntity
  8
1
  6
Continuous
 62
     4
100
AcDbLine
 10
307.4926699126061
 20
274.802023079789
 30
0.0
 11
307.5809052067237
 21
274.502023079789
 31
0.0
  0
LINE
  5
9A
330
1F
100
AcDbEntity
  8
1
  6
Continuous
 62
     4
100
AcDbLine
 10
307.2279640302531
 20
275.202023079789
 30
0.0
 11
307.4926699126061
 21
274.802023079789
 31
0.0
  0
LINE
  5
9B
330
1F
100
AcDbEntity
  8
1
  6
Continuous
 62
     4
100
AcDbLine
 10
306.6985522655473
 20
275.302023079789
 30
0.0
 11
307.2279640302531
 21
275.202023079789
 31
0.0
  0
LINE
  5
9C
330
1F
100
AcDbEntity
  8
1
  6
Continuous
 62
     4
100
AcDbLine
 10
306.1691405008414
 20
275.202023079789
 30
0.0
 11
306.6985522655473
 21
275.302023079789
 31
0.0
  0
LINE
  5
9D
330
1F
100
AcDbEntity
  8
1
  6
Continuous
 62
     4
100
AcDbLine
 10
305.8161993243708
 20
274.802023079789
 30
0.0
 11
306.1691405008414
 21
275.202023079789
 31
0.0
  0
LINE
  5
9E
330
1F
100
AcDbEntity
  8
1
  6
Continuous
 62
     4
100
AcDbLine
 10
304.8456110890766
 20
275.302023079789
 30
0.0
 11
304.8456110890766
 21
272.302023079789
 31
0.0
  0
LINE
  5
9F
330
1F
100
AcDbEntity
  8
1
  6
Continuous
 62
     4
100
AcDbLine
 10
304.4044346184884
 20
275.002023079789
 30
0.0
 11
304.8456110890766
 21
275.302023079789
 31
0.0
  0
LINE
  5
A0
330
1F
100
AcDbEntity
  8
1
  6
Continuous
 62
     4
100
AcDbLine
 10
303.0809052067237
 20
275.102023079789
 30
0.0
 11
302.5514934420178
 21
275.302023079789
 31
0.0
  0
LINE
  5
A1
330
1F
100
AcDbEntity
  8
1
  6
Continuous
 62
     4
100
AcDbLine
 10
303.4338463831943
 20
274.602023079789
 30
0.0
 11
303.0809052067237
 21
275.102023079789
 31
0.0
  0
LINE
  5
A2
330
1F
100
AcDbEntity
  8
1
  6
Continuous
 62
     4
100
AcDbLine
 10
303.5220816773119
 20
273.802023079789
 30
0.0
 11
303.4338463831943
 21
274.602023079789
 31
0.0
  0
LINE
  5
A3
330
1F
100
AcDbEntity
  8
1
  6
Continuous
 62
     4
100
AcDbLine
 10
303.4338463831943
 20
273.002023079789
 30
0.0
 11
303.5220816773119
 21
273.802023079789
 31
0.0
  0
LINE
  5
A4
330
1F
100
AcDbEntity
  8
1
  6
Continuous
 62
     4
100
AcDbLine
 10
303.0809052067237
 20
272.502023079789
 30
0.0
 11
303.4338463831943
 21
273.002023079789
 31
0.0
  0
LINE
  5
A5
330
1F
100
AcDbEntity
  8
1
  6
Continuous
 62
     4
100
AcDbLine
 10
302.5514934420178
 20
272.302023079789
 30
0.0
 11
303.0809052067237
 21
272.502023079789
 31
0.0
  0
LINE
  5
A6
330
1F
100
AcDbEntity
  8
1
  6
Continuous
 62
     4
100
AcDbLine
 10
302.0220816773119
 20
272.502023079789
 30
0.0
 11
302.5514934420178
 21
272.302023079789
 31
0.0
  0
LINE
  5
A7
330
1F
100
AcDbEntity
  8
1
  6
Continuous
 62
     4
100
AcDbLine
 10
301.757375794959
 20
273.002023079789
 30
0.0
 11
302.0220816773119
 21
272.502023079789
 31
0.0
  0
LINE
  5
A8
330
1F
100
AcDbEntity
  8
1
  6
Continuous
 62
     4
100
AcDbLine
 10
301.5809052067237
 20
273.802023079789
 30
0.0
 11
301.757375794959
 21
273.002023079789
 31
0.0
  0
LINE
  5
A9
330
1F
100
AcDbEntity
  8
1
  6
Continuous
 62
     4
100
AcDbLine
 10
301.757375794959
 20
274.602023079789
 30
0.0
 11
301.5809052067237
 21
273.802023079789
 31
0.0
  0
LINE
  5
AA
330
1F
100
AcDbEntity
  8
1
  6
Continuous
 62
     4
100
AcDbLine
 10
302.0220816773119
 20
275.102023079789
 30
0.0
 11
301.757375794959
 21
274.602023079789
 31
0.0
  0
LINE
  5
AB
330
1F
100
AcDbEntity
  8
1
  6
Continuous
 62
     4
100
AcDbLine
 10
302.5514934420178
 20
275.302023079789
 30
0.0
 11
302.0220816773119
 21
275.102023079789
 31
0.0
  0
LINE
  5
AC
330
1F
100
AcDbEntity
  8
1
  6
Continuous
 62
     4
100
AcDbLine
 10
297.8750228537825
 20
272.302023079789
 30
0.0
 11
300.6985522655472
 21
272.302023079789
 31
0.0
  0
LINE
  5
AD
330
1F
100
AcDbEntity
  8
1
  6
Continuous
 62
     4
100
AcDbLine
 10
295.2279640302531
 20
272.602023079789
 30
0.0
 11
295.0514934420178
 21
272.802023079789
 31
0.0
  0
LINE
  5
AE
330
1F
100
AcDbEntity
  8
1
  6
Continuous
 62
     4
100
AcDbLine
 10
295.5809052067237
 20
272.4020230797891
 30
0.0
 11
295.2279640302531
 21
272.602023079789
 31
0.0
  0
LINE
  5
AF
330
1F
100
AcDbEntity
  8
1
  6
Continuous
 62
     4
100
AcDbLine
 10
296.022081677312
 20
272.302023079789
 30
0.0
 11
295.5809052067237
 21
272.4020230797891
 31
0.0
  0
LINE
  5
B0
330
1F
100
AcDbEntity
  8
1
  6
Continuous
 62
     4
100
AcDbLine
 10
296.5514934420178
 20
272.4020230797891
 30
0.0
 11
296.022081677312
 21
272.302023079789
 31
0.0
  0
LINE
  5
B1
330
1F
100
AcDbEntity
  8
1
  6
Continuous
 62
     4
100
AcDbLine
 10
296.8161993243708
 20
272.602023079789
 30
0.0
 11
296.5514934420178
 21
272.4020230797891
 31
0.0
  0
LINE
  5
B2
330
1F
100
AcDbEntity
  8
1
  6
Continuous
 62
     4
100
AcDbLine
 10
296.9926699126061
 20
273.102023079789
 30
0.0
 11
296.8161993243708
 21
272.602023079789
 31
0.0
  0
LINE
  5
B3
330
1F
100
AcDbEntity
  8
1
  6
Continuous
 62
     4
100
AcDbLine
 10
296.8161993243708
 20
273.602023079789
 30
0.0
 11
296.9926699126061
 21
273.102023079789
 31
0.0
  0
LINE
  5
B4
330
1F
100
AcDbEntity
  8
1
  6
Continuous
 62
     4
100
AcDbLine
 10
296.3750228537825
 20
273.9020230797891
 30
0.0
 11
296.8161993243708
 21
273.602023079789
 31
0.0
  0
LINE
  5
B5
330
1F
100
AcDbEntity
  8
1
  6
Continuous
 62
     4
100
AcDbLine
 10
295.9338463831943
 20
273.9020230797891
 30
0.0
 11
296.3750228537825
 21
273.9020230797891
 31
0.0
  0
LINE
  5
B6
330
1F
100
AcDbEntity
  8
1
  6
Continuous
 62
     4
100
AcDbLine
 10
296.3750228537825
 20
273.9020230797891
 30
0.0
 11
295.9338463831943
 21
273.9020230797891
 31
0.0
  0
LINE
  5
B7
330
1F
100
AcDbEntity
  8
1
  6
Continuous
 62
     4
100
AcDbLine
 10
296.7279640302531
 20
274.102023079789
 30
0.0
 11
296.3750228537825
 21
273.9020230797891
 31
0.0
  0
LINE
  5
B8
330
1F
100
AcDbEntity
  8
1
  6
Continuous
 62
     4
100
AcDbLine
 10
296.9044346184884
 20
274.502023079789
 30
0.0
 11
296.7279640302531
 21
274.102023079789
 31
0.0
  0
LINE
  5
B9
330
1F
100
AcDbEntity
  8
1
  6
Continuous
 62
     4
100
AcDbLine
 10
296.8161993243708
 20
274.802023079789
 30
0.0
 11
296.9044346184884
 21
274.502023079789
 31
0.0
  0
LINE
  5
BA
330
1F
100
AcDbEntity
  8
1
  6
Continuous
 62
     4
100
AcDbLine
 10
296.5514934420178
 20
275.202023079789
 30
0.0
 11
296.8161993243708
 21
274.802023079789
 31
0.0
  0
LINE
  5
BB
330
1F
100
AcDbEntity
  8
1
  6
Continuous
 62
     4
100
AcDbLine
 10
296.022081677312
 20
275.302023079789
 30
0.0
 11
296.5514934420178
 21
275.202023079789
 31
0.0
  0
LINE
  5
BC
330
1F
100
AcDbEntity
  8
1
  6
Continuous
 62
     4
100
AcDbLine
 10
295.4926699126061
 20
275.202023079789
 30
0.0
 11
296.022081677312
 21
275.302023079789
 31
0.0
  0
LINE
  5
BD
330
1F
100
AcDbEntity
  8
1
  6
Continuous
 62
     4
100
AcDbLine
 10
295.1397287361355
 20
274.802023079789
 30
0.0
 11
295.4926699126061
 21
275.202023079789
 31
0.0
  0
LINE
  5
BE
330
1F
100
AcDbEntity
  8
1
  6
Continuous
 62
     4
100
AcDbLine
 10
294.1691405008414
 20
275.302023079789
 30
0.0
 11
294.1691405008414
 21
272.302023079789
 31
0.0
  0
LINE
  5
BF
330
1F
100
AcDbEntity
  8
1
  6
Continuous
 62
     4
100
AcDbLine
 10
293.7279640302531
 20
275.002023079789
 30
0.0
 11
294.1691405008414
 21
275.302023079789
 31
0.0
  0
LINE
  5
C0
330
1F
100
AcDbEntity
  8
1
  6
Continuous
 62
     4
100
AcDbLine
 10
290.0220816773119
 20
272.302023079789
 30
0.0
 11
292.8456110890766
 21
272.302023079789
 31
0.0
  0
LINE
  5
C1
330
1F
100
AcDbEntity
  8
1
  6
Continuous
 62
     4
100
AcDbLine
 10
289.1397287361355
 20
273.702023079789
 30
0.0
 11
288.3456110890766
 21
273.702023079789
 31
0.0
  0
LINE
  5
C2
330
1F
100
AcDbEntity
  8
1
  6
Continuous
 62
     4
100
AcDbLine
 10
289.1397287361355
 20
273.102023079789
 30
0.0
 11
289.1397287361355
 21
273.702023079789
 31
0.0
  0
LINE
  5
C3
330
1F
100
AcDbEntity
  8
1
  6
Continuous
 62
     4
100
AcDbLine
 10
289.0514934420178
 20
272.802023079789
 30
0.0
 11
289.1397287361355
 21
273.102023079789
 31
0.0
  0
LINE
  5
C4
330
1F
100
AcDbEntity
  8
1
  6
Continuous
 62
     4
100
AcDbLine
 10
288.8750228537825
 20
272.602023079789
 30
0.0
 11
289.0514934420178
 21
272.802023079789
 31
0.0
  0
LINE
  5
C5
330
1F
100
AcDbEntity
  8
1
  6
Continuous
 62
     4
100
AcDbLine
 10
288.6103169714296
 20
272.4020230797891
 30
0.0
 11
288.8750228537825
 21
272.602023079789
 31
0.0
  0
LINE
  5
C6
330
1F
100
AcDbEntity
  8
1
  6
Continuous
 62
     4
100
AcDbLine
 10
288.1691405008414
 20
272.302023079789
 30
0.0
 11
288.6103169714296
 21
272.4020230797891
 31
0.0
  0
LINE
  5
C7
330
1F
100
AcDbEntity
  8
1
  6
Continuous
 62
     4
100
AcDbLine
 10
287.7279640302531
 20
272.4020230797891
 30
0.0
 11
288.1691405008414
 21
272.302023079789
 31
0.0
  0
LINE
  5
C8
330
1F
100
AcDbEntity
  8
1
  6
Continuous
 62
     4
100
AcDbLine
 10
287.4632581479002
 20
272.802023079789
 30
0.0
 11
287.7279640302531
 21
272.4020230797891
 31
0.0
  0
LINE
  5
C9
330
1F
100
AcDbEntity
  8
1
  6
Continuous
 62
     4
100
AcDbLine
 10
287.3750228537825
 20
273.002023079789
 30
0.0
 11
287.4632581479002
 21
272.802023079789
 31
0.0
  0
LINE
  5
CA
330
1F
100
AcDbEntity
  8
1
  6
Continuous
 62
     4
100
AcDbLine
 10
287.2867875596648
 20
273.4020230797891
 30
0.0
 11
287.3750228537825
 21
273.002023079789
 31
0.0
  0
LINE
  5
CB
330
1F
100
AcDbEntity
  8
1
  6
Continuous
 62
     4
100
AcDbLine
 10
287.1985522655472
 20
273.802023079789
 30
0.0
 11
287.2867875596648
 21
273.4020230797891
 31
0.0
  0
LINE
  5
CC
330
1F
100
AcDbEntity
  8
1
  6
Continuous
 62
     4
100
AcDbLine
 10
287.2867875596648
 20
274.202023079789
 30
0.0
 11
287.1985522655472
 21
273.802023079789
 31
0.0
  0
LINE
  5
CD
330
1F
100
AcDbEntity
  8
1
  6
Continuous
 62
     4
100
AcDbLine
 10
287.4632581479002
 20
274.802023079789
 30
0.0
 11
287.2867875596648
 21
274.202023079789
 31
0.0
  0
LINE
  5
CE
330
1F
100
AcDbEntity
  8
1
  6
Continuous
 62
     4
100
AcDbLine
 10
287.5514934420178
 20
275.002023079789
 30
0.0
 11
287.4632581479002
 21
274.802023079789
 31
0.0
  0
LINE
  5
CF
330
1F
100
AcDbEntity
  8
1
  6
Continuous
 62
     4
100
AcDbLine
 10
287.8161993243708
 20
275.202023079789
 30
0.0
 11
287.5514934420178
 21
275.002023079789
 31
0.0
  0
LINE
  5
D0
330
1F
100
AcDbEntity
  8
1
  6
Continuous
 62
     4
100
AcDbLine
 10
288.1691405008414
 20
275.302023079789
 30
0.0
 11
287.8161993243708
 21
275.202023079789
 31
0.0
  0
LINE
  5
D1
330
1F
100
AcDbEntity
  8
1
  6
Continuous
 62
     4
100
AcDbLine
 10
288.6103169714296
 20
275.202023079789
 30
0.0
 11
288.1691405008414
 21
275.302023079789
 31
0.0
  0
LINE
  5
D2
330
1F
100
AcDbEntity
  8
1
  6
Continuous
 62
     4
100
AcDbLine
 10
288.7867875596648
 20
275.102023079789
 30
0.0
 11
288.6103169714296
 21
275.202023079789
 31
0.0
  0
LINE
  5
D3
330
1F
100
AcDbEntity
  8
1
  6
Continuous
 62
     4
100
AcDbLine
 10
288.9632581479002
 20
274.9020230797891
 30
0.0
 11
288.7867875596648
 21
275.102023079789
 31
0.0
  0
LINE
  5
D4
330
1F
100
AcDbEntity
  8
1
  6
Continuous
 62
     4
100
AcDbLine
 10
289.1397287361355
 20
274.602023079789
 30
0.0
 11
288.9632581479002
 21
274.9020230797891
 31
0.0
  0
LINE
  5
D5
330
1F
100
AcDbEntity
  8
1
  6
Continuous
 62
     4
100
AcDbLine
 10
285.4338463831942
 20
273.102023079789
 30
0.0
 11
286.3161993243707
 21
272.302023079789
 31
0.0
  0
LINE
  5
D6
330
1F
100
AcDbEntity
  8
1
  6
Continuous
 62
     4
100
AcDbLine
 10
285.7867875596648
 20
275.102023079789
 30
0.0
 11
285.257375794959
 21
275.302023079789
 31
0.0
  0
LINE
  5
D7
330
1F
100
AcDbEntity
  8
1
  6
Continuous
 62
     4
100
AcDbLine
 10
286.1397287361355
 20
274.502023079789
 30
0.0
 11
285.7867875596648
 21
275.102023079789
 31
0.0
  0
LINE
  5
D8
330
1F
100
AcDbEntity
  8
1
  6
Continuous
 62
     4
100
AcDbLine
 10
286.2279640302531
 20
273.802023079789
 30
0.0
 11
286.1397287361355
 21
274.502023079789
 31
0.0
  0
LINE
  5
D9
330
1F
100
AcDbEntity
  8
1
  6
Continuous
 62
     4
100
AcDbLine
 10
286.1397287361355
 20
273.102023079789
 30
0.0
 11
286.2279640302531
 21
273.802023079789
 31
0.0
  0
LINE
  5
DA
330
1F
100
AcDbEntity
  8
1
  6
Continuous
 62
     4
100
AcDbLine
 10
285.7867875596648
 20
272.502023079789
 30
0.0
 11
286.1397287361355
 21
273.102023079789
 31
0.0
  0
LINE
  5
DB
330
1F
100
AcDbEntity
  8
1
  6
Continuous
 62
     4
100
AcDbLine
 10
285.257375794959
 20
272.302023079789
 30
0.0
 11
285.7867875596648
 21
272.502023079789
 31
0.0
  0
LINE
  5
DC
330
1F
100
AcDbEntity
  8
1
  6
Continuous
 62
     4
100
AcDbLine
 10
284.7279640302531
 20
272.502023079789
 30
0.0
 11
285.257375794959
 21
272.302023079789
 31
0.0
  0
LINE
  5
DD
330
1F
100
AcDbEntity
  8
1
  6
Continuous
 62
     4
100
AcDbLine
 10
284.3750228537825
 20
273.102023079789
 30
0.0
 11
284.7279640302531
 21
272.502023079789
 31
0.0
  0
LINE
  5
DE
330
1F
100
AcDbEntity
  8
1
  6
Continuous
 62
     4
100
AcDbLine
 10
284.2867875596648
 20
273.802023079789
 30
0.0
 11
284.3750228537825
 21
273.102023079789
 31
0.0
  0
LINE
  5
DF
330
1F
100
AcDbEntity
  8
1
  6
Continuous
 62
     4
100
AcDbLine
 10
284.3750228537825
 20
274.502023079789
 30
0.0
 11
284.2867875596648
 21
273.802023079789
 31
0.0
  0
LINE
  5
E0
330
1F
100
AcDbEntity
  8
1
  6
Continuous
 62
     4
100
AcDbLine
 10
284.7279640302531
 20
275.102023079789
 30
0.0
 11
284.3750228537825
 21
274.502023079789
 31
0.0
  0
LINE
  5
E1
330
1F
100
AcDbEntity
  8
1
  6
Continuous
 62
     4
100
AcDbLine
 10
285.257375794959
 20
275.302023079789
 30
0.0
 11
284.7279640302531
 21
275.102023079789
 31
0.0
  0
LINE
  5
E2
330
1F
100
AcDbEntity
  8
1
  6
Continuous
 62
     4
100
AcDbLine
 10
281.8161993243708
 20
273.802023079789
 30
0.0
 11
283.4044346184884
 21
273.802023079789
 31
0.0
  0
LINE
  5
E3
330
1F
100
AcDbEntity
  8
1
  6
Continuous
 62
     4
100
AcDbLine
 10
279.0809052067237
 20
273.502023079789
 30
0.0
 11
279.0809052067237
 21
272.302023079789
 31
0.0
  0
LINE
  5
E4
330
1F
100
AcDbEntity
  8
1
  6
Continuous
 62
     4
100
AcDbLine
 10
279.5220816773119
 20
274.002023079789
 30
0.0
 11
280.9338463831943
 21
272.302023079789
 31
0.0
  0
LINE
  5
E5
330
1F
100
AcDbEntity
  8
1
  6
Continuous
 62
     4
100
AcDbLine
 10
280.757375794959
 20
275.302023079789
 30
0.0
 11
279.0809052067237
 21
273.502023079789
 31
0.0
  0
LINE
  5
E6
330
1F
100
AcDbEntity
  8
1
  6
Continuous
 62
     4
100
AcDbLine
 10
279.0809052067237
 20
275.302023079789
 30
0.0
 11
279.0809052067237
 21
273.502023079789
 31
0.0
  0
LINE
  5
E7
330
1F
100
AcDbEntity
  8
1
  6
Continuous
 62
     4
100
AcDbLine
 10
277.2279640302531
 20
275.202023079789
 30
0.0
 11
278.1985522655472
 21
275.202023079789
 31
0.0
  0
LINE
  5
E8
330
1F
100
AcDbEntity
  8
1
  6
Continuous
 62
     4
100
AcDbLine
 10
277.2279640302531
 20
275.202023079789
 30
0.0
 11
277.2279640302531
 21
272.302023079789
 31
0.0
  0
LINE
  5
E9
330
1F
100
AcDbEntity
  8
1
  6
Continuous
 62
     4
100
AcDbLine
 10
276.257375794959
 20
275.202023079789
 30
0.0
 11
277.2279640302531
 21
275.202023079789
 31
0.0
  0
LINE
  5
EA
330
1F
100
AcDbEntity
  8
1
  6
Continuous
 62
     4
100
AcDbLine
 10
240.6624873689983
 20
281.701211450722
 30
0.0
 11
241.9860167807631
 21
281.701211450722
 31
0.0
  0
LINE
  5
EB
330
1F
100
AcDbEntity
  8
1
  6
Continuous
 62
     4
100
AcDbLine
 10
240.0448403101748
 20
279.801211450722
 30
0.0
 11
240.0448403101748
 21
281.201211450722
 31
0.0
  0
LINE
  5
EC
330
1F
100
AcDbEntity
  8
1
  6
Continuous
 62
     4
100
AcDbLine
 10
241.5448403101748
 20
279.801211450722
 30
0.0
 11
240.0448403101748
 21
279.801211450722
 31
0.0
  0
LINE
  5
ED
330
1F
100
AcDbEntity
  8
1
  6
Continuous
 62
     4
100
AcDbLine
 10
241.5448403101748
 20
281.201211450722
 30
0.0
 11
241.5448403101748
 21
279.801211450722
 31
0.0
  0
LINE
  5
EE
330
1F
100
AcDbEntity
  8
1
  6
Continuous
 62
     4
100
AcDbLine
 10
240.0448403101748
 20
281.201211450722
 30
0.0
 11
241.5448403101748
 21
281.201211450722
 31
0.0
  0
LINE
  5
EF
330
1F
100
AcDbEntity
  8
1
  6
Continuous
 62
     4
100
AcDbLine
 10
241.7213108984101
 20
279.101211450722
 30
0.0
 11
241.2801344278219
 21
279.201211450722
 31
0.0
  0
LINE
  5
F0
330
1F
100
AcDbEntity
  8
1
  6
Continuous
 62
     4
100
AcDbLine
 10
241.9860167807631
 20
279.401211450722
 30
0.0
 11
241.7213108984101
 21
279.101211450722
 31
0.0
  0
LINE
  5
F1
330
1F
100
AcDbEntity
  8
1
  6
Continuous
 62
     4
100
AcDbLine
 10
241.9860167807631
 20
281.701211450722
 30
0.0
 11
241.9860167807631
 21
279.401211450722
 31
0.0
  0
LINE
  5
F2
330
1F
100
AcDbEntity
  8
1
  6
Continuous
 62
     4
100
AcDbLine
 10
239.6036638395866
 20
281.701211450722
 30
0.0
 11
240.6624873689983
 21
281.701211450722
 31
0.0
  0
LINE
  5
F3
330
1F
100
AcDbEntity
  8
1
  6
Continuous
 62
     4
100
AcDbLine
 10
239.6036638395866
 20
279.101211450722
 30
0.0
 11
239.6036638395866
 21
281.701211450722
 31
0.0
  0
LINE
  5
F4
330
1F
100
AcDbEntity
  8
1
  6
Continuous
 62
     4
100
AcDbLine
 10
240.8389579572337
 20
282.101211450722
 30
0.0
 11
240.6624873689983
 21
281.701211450722
 31
0.0
  0
LINE
  5
F5
330
1F
100
AcDbEntity
  8
1
  6
Continuous
 62
     4
100
AcDbLine
 10
236.6918991337042
 20
281.701211450722
 30
0.0
 11
238.5448403101748
 21
281.701211450722
 31
0.0
  0
LINE
  5
F6
330
1F
100
AcDbEntity
  8
1
  6
Continuous
 62
     4
100
AcDbLine
 10
236.6918991337042
 20
281.001211450722
 30
0.0
 11
236.6918991337042
 21
280.701211450722
 31
0.0
  0
LINE
  5
F7
330
1F
100
AcDbEntity
  8
1
  6
Continuous
 62
     4
100
AcDbLine
 10
237.8389579572337
 20
279.101211450722
 30
0.0
 11
237.0448403101748
 21
279.201211450722
 31
0.0
  0
LINE
  5
F8
330
1F
100
AcDbEntity
  8
1
  6
Continuous
 62
     4
100
AcDbLine
 10
238.3683697219395
 20
279.801211450722
 30
0.0
 11
237.8389579572337
 21
279.101211450722
 31
0.0
  0
LINE
  5
F9
330
1F
100
AcDbEntity
  8
1
  6
Continuous
 62
     4
100
AcDbLine
 10
238.3683697219395
 20
281.001211450722
 30
0.0
 11
238.3683697219395
 21
279.801211450722
 31
0.0
  0
LINE
  5
FA
330
1F
100
AcDbEntity
  8
1
  6
Continuous
 62
     4
100
AcDbLine
 10
236.6918991337042
 20
281.001211450722
 30
0.0
 11
238.3683697219395
 21
281.001211450722
 31
0.0
  0
LINE
  5
FB
330
1F
100
AcDbEntity
  8
1
  6
Continuous
 62
     4
100
AcDbLine
 10
236.4271932513513
 20
279.801211450722
 30
0.0
 11
235.8977814866454
 21
279.101211450722
 31
0.0
  0
LINE
  5
FC
330
1F
100
AcDbEntity
  8
1
  6
Continuous
 62
     4
100
AcDbLine
 10
236.6918991337042
 20
280.701211450722
 30
0.0
 11
236.4271932513513
 21
279.801211450722
 31
0.0
  0
LINE
  5
FD
330
1F
100
AcDbEntity
  8
1
  6
Continuous
 62
     4
100
AcDbLine
 10
236.6918991337042
 20
281.701211450722
 30
0.0
 11
236.6918991337042
 21
281.001211450722
 31
0.0
  0
LINE
  5
FE
330
1F
100
AcDbEntity
  8
1
  6
Continuous
 62
     4
100
AcDbLine
 10
235.8977814866454
 20
281.701211450722
 30
0.0
 11
236.6918991337042
 21
281.701211450722
 31
0.0
  0
LINE
  5
FF
330
1F
100
AcDbEntity
  8
1
  6
Continuous
 62
     4
100
AcDbLine
 10
237.3095461925278
 20
282.101211450722
 30
0.0
 11
237.3095461925278
 21
281.701211450722
 31
0.0
  0
LINE
  5
100
330
1F
100
AcDbEntity
  8
1
  6
Continuous
 62
     4
100
AcDbLine
 10
233.6918991337042
 20
281.801211450722
 30
0.0
 11
233.6918991337042
 21
279.001211450722
 31
0.0
  0
LINE
  5
101
330
1F
100
AcDbEntity
  8
1
  6
Continuous
 62
     4
100
AcDbLine
 10
234.4860167807631
 20
279.901211450722
 30
0.0
 11
235.1036638395866
 21
279.201211450722
 31
0.0
  0
LINE
  5
102
330
1F
100
AcDbEntity
  8
1
  6
Continuous
 62
     4
100
AcDbLine
 10
234.0448403101748
 20
280.701211450722
 30
0.0
 11
234.4860167807631
 21
279.901211450722
 31
0.0
  0
LINE
  5
103
330
1F
100
AcDbEntity
  8
1
  6
Continuous
 62
     4
100
AcDbLine
 10
233.6918991337042
 20
281.801211450722
 30
0.0
 11
234.0448403101748
 21
280.701211450722
 31
0.0
  0
LINE
  5
104
330
1F
100
AcDbEntity
  8
1
  6
Continuous
 62
     4
100
AcDbLine
 10
234.9271932513513
 20
281.801211450722
 30
0.0
 11
234.2213108984101
 21
280.801211450722
 31
0.0
  0
LINE
  5
105
330
1F
100
AcDbEntity
  8
1
  6
Continuous
 62
     4
100
AcDbLine
 10
232.8977814866454
 20
280.001211450722
 30
0.0
 11
232.3683697219395
 21
279.301211450722
 31
0.0
  0
LINE
  5
106
330
1F
100
AcDbEntity
  8
1
  6
Continuous
 62
     4
100
AcDbLine
 10
233.1624873689983
 20
280.701211450722
 30
0.0
 11
232.8977814866454
 21
280.001211450722
 31
0.0
  0
LINE
  5
107
330
1F
100
AcDbEntity
  8
1
  6
Continuous
 62
     4
100
AcDbLine
 10
233.250722663116
 20
281.501211450722
 30
0.0
 11
233.1624873689983
 21
280.701211450722
 31
0.0
  0
LINE
  5
108
330
1F
100
AcDbEntity
  8
1
  6
Continuous
 62
     4
100
AcDbLine
 10
232.3683697219395
 20
281.501211450722
 30
0.0
 11
233.250722663116
 21
281.501211450722
 31
0.0
  0
LINE
  5
109
330
1F
100
AcDbEntity
  8
1
  6
Continuous
 62
     4
100
AcDbLine
 10
233.6918991337042
 20
279.001211450722
 30
0.0
 11
233.0742520748807
 21
279.401211450722
 31
0.0
  0
LINE
  5
10A
330
1F
100
AcDbEntity
  8
1
  6
Continuous
 62
     4
100
AcDbLine
 10
233.6918991337042
 20
282.101211450722
 30
0.0
 11
233.6918991337042
 21
281.801211450722
 31
0.0
  0
LINE
  5
10B
330
1F
100
AcDbEntity
  8
1
  6
Continuous
 62
     4
100
AcDbLine
 10
230.4271932513513
 20
281.801211450722
 30
0.0
 11
231.3977814866454
 21
281.801211450722
 31
0.0
  0
LINE
  5
10C
330
1F
100
AcDbEntity
  8
1
  6
Continuous
 62
     4
100
AcDbLine
 10
231.4860167807631
 20
279.101211450722
 30
0.0
 11
231.4860167807631
 21
279.801211450722
 31
0.0
  0
LINE
  5
10D
330
1F
100
AcDbEntity
  8
1
  6
Continuous
 62
     4
100
AcDbLine
 10
231.0448403101748
 20
279.101211450722
 30
0.0
 11
231.4860167807631
 21
279.101211450722
 31
0.0
  0
LINE
  5
10E
330
1F
100
AcDbEntity
  8
1
  6
Continuous
 62
     4
100
AcDbLine
 10
231.0448403101748
 20
280.701211450722
 30
0.0
 11
231.0448403101748
 21
279.101211450722
 31
0.0
  0
LINE
  5
10F
330
1F
100
AcDbEntity
  8
1
  6
Continuous
 62
     4
100
AcDbLine
 10
230.4271932513513
 20
280.701211450722
 30
0.0
 11
230.4271932513513
 21
279.101211450722
 31
0.0
  0
LINE
  5
110
330
1F
100
AcDbEntity
  8
1
  6
Continuous
 62
     4
100
AcDbLine
 10
229.6330756042925
 20
279.601211450722
 30
0.0
 11
229.2801344278219
 21
279.101211450722
 31
0.0
  0
LINE
  5
111
330
1F
100
AcDbEntity
  8
1
  6
Continuous
 62
     4
100
AcDbLine
 10
229.8095461925278
 20
280.101211450722
 30
0.0
 11
229.6330756042925
 21
279.601211450722
 31
0.0
  0
LINE
  5
112
330
1F
100
AcDbEntity
  8
1
  6
Continuous
 62
     4
100
AcDbLine
 10
229.8977814866454
 20
280.701211450722
 30
0.0
 11
229.8095461925278
 21
280.101211450722
 31
0.0
  0
LINE
  5
113
330
1F
100
AcDbEntity
  8
1
  6
Continuous
 62
     4
100
AcDbLine
 10
231.3095461925278
 20
280.801211450722
 30
0.0
 11
231.4860167807631
 21
280.401211450722
 31
0.0
  0
LINE
  5
114
330
1F
100
AcDbEntity
  8
1
  6
Continuous
 62
     4
100
AcDbLine
 10
230.9566050160572
 20
281.401211450722
 30
0.0
 11
231.3095461925278
 21
280.801211450722
 31
0.0
  0
LINE
  5
115
330
1F
100
AcDbEntity
  8
1
  6
Continuous
 62
     4
100
AcDbLine
 10
229.7213108984101
 20
280.701211450722
 30
0.0
 11
231.3095461925278
 21
280.801211450722
 31
0.0
  0
LINE
  5
116
330
1F
100
AcDbEntity
  8
1
  6
Continuous
 62
     4
100
AcDbLine
 10
229.4566050160572
 20
280.701211450722
 30
0.0
 11
229.7213108984101
 21
280.701211450722
 31
0.0
  0
LINE
  5
117
330
1F
100
AcDbEntity
  8
1
  6
Continuous
 62
     4
100
AcDbLine
 10
230.4271932513513
 20
281.801211450722
 30
0.0
 11
229.7213108984101
 21
280.701211450722
 31
0.0
  0
LINE
  5
118
330
1F
100
AcDbEntity
  8
1
  6
Continuous
 62
     4
100
AcDbLine
 10
230.4271932513513
 20
282.201211450722
 30
0.0
 11
230.4271932513513
 21
281.801211450722
 31
0.0
  0
LINE
  5
119
330
1F
100
AcDbEntity
  8
1
  6
Continuous
 62
     4
100
AcDbLine
 10
229.4566050160572
 20
281.801211450722
 30
0.0
 11
230.4271932513513
 21
281.801211450722
 31
0.0
  0
LINE
  5
11A
330
1F
100
AcDbEntity
  8
1
  6
Continuous
 62
     4
100
AcDbLine
 10
228.9271932513513
 20
279.101211450722
 30
0.0
 11
229.3683697219395
 21
280.301211450722
 31
0.0
  0
LINE
  5
11B
330
1F
100
AcDbEntity
  8
1
  6
Continuous
 62
     4
100
AcDbLine
 10
228.9271932513513
 20
281.001211450722
 30
0.0
 11
229.3683697219395
 21
280.601211450722
 31
0.0
  0
LINE
  5
11C
330
1F
100
AcDbEntity
  8
1
  6
Continuous
 62
     4
100
AcDbLine
 10
229.0154285454689
 20
281.901211450722
 30
0.0
 11
229.4566050160572
 21
281.501211450722
 31
0.0
  0
LINE
  5
11D
330
1F
100
AcDbEntity
  8
1
  6
Continuous
 62
     4
100
AcDbLine
 10
248.5516022899233
 20
280.906347922865
 30
0.0
 11
247.139837584041
 21
279.8396812561983
 31
0.0
  0
LINE
  5
11E
330
1F
100
AcDbEntity
  8
1
  6
Continuous
 62
     4
100
AcDbLine
 10
247.139837584041
 20
281.9730145895317
 30
0.0
 11
248.5516022899233
 21
280.906347922865
 31
0.0
  0
LINE
  5
11F
330
1F
100
AcDbEntity
  8
1
  6
Continuous
 62
     4
100
AcDbLine
 10
243.375131701688
 20
280.906347922865
 30
0.0
 11
248.5516022899233
 21
280.906347922865
 31
0.0
  0
LINE
  5
120
330
1F
100
AcDbEntity
  8
1
  6
Continuous
 62
     4
100
AcDbLine
 10
203.5312159989253
 20
325.4594549546361
 30
0.0
 11
205.6488630577488
 21
325.4594549546361
 31
0.0
  0
LINE
  5
121
330
1F
100
AcDbEntity
  8
1
  6
Continuous
 62
     4
100
AcDbLine
 10
205.1194512930429
 20
327.7594549546361
 30
0.0
 11
203.5312159989253
 21
325.4594549546361
 31
0.0
  0
LINE
  5
122
330
1F
100
AcDbEntity
  8
1
  6
Continuous
 62
     4
100
AcDbLine
 10
205.1194512930429
 20
324.7594549546361
 30
0.0
 11
205.1194512930429
 21
327.7594549546361
 31
0.0
  0
LINE
  5
123
330
1F
100
AcDbEntity
  8
1
  6
Continuous
 62
     4
100
AcDbLine
 10
202.6488630577488
 20
327.4594549546361
 30
0.0
 11
200.7959218812782
 21
325.2594549546361
 31
0.0
  0
LINE
  5
124
330
1F
100
AcDbEntity
  8
1
  6
Continuous
 62
     4
100
AcDbLine
 10
198.1488630577488
 20
325.0594549546361
 30
0.0
 11
197.9723924695135
 21
325.2594549546361
 31
0.0
  0
LINE
  5
125
330
1F
100
AcDbEntity
  8
1
  6
Continuous
 62
     4
100
AcDbLine
 10
198.5018042342194
 20
324.8594549546361
 30
0.0
 11
198.1488630577488
 21
325.0594549546361
 31
0.0
  0
LINE
  5
126
330
1F
100
AcDbEntity
  8
1
  6
Continuous
 62
     4
100
AcDbLine
 10
198.9429807048076
 20
324.7594549546361
 30
0.0
 11
198.5018042342194
 21
324.8594549546361
 31
0.0
  0
LINE
  5
127
330
1F
100
AcDbEntity
  8
1
  6
Continuous
 62
     4
100
AcDbLine
 10
199.4723924695135
 20
324.8594549546361
 30
0.0
 11
198.9429807048076
 21
324.7594549546361
 31
0.0
  0
LINE
  5
128
330
1F
100
AcDbEntity
  8
1
  6
Continuous
 62
     4
100
AcDbLine
 10
199.7370983518664
 20
325.0594549546361
 30
0.0
 11
199.4723924695135
 21
324.8594549546361
 31
0.0
  0
LINE
  5
129
330
1F
100
AcDbEntity
  8
1
  6
Continuous
 62
     4
100
AcDbLine
 10
199.9135689401017
 20
325.5594549546361
 30
0.0
 11
199.7370983518664
 21
325.0594549546361
 31
0.0
  0
LINE
  5
12A
330
1F
100
AcDbEntity
  8
1
  6
Continuous
 62
     4
100
AcDbLine
 10
199.7370983518664
 20
326.0594549546361
 30
0.0
 11
199.9135689401017
 21
325.5594549546361
 31
0.0
  0
LINE
  5
12B
330
1F
100
AcDbEntity
  8
1
  6
Continuous
 62
     4
100
AcDbLine
 10
199.2959218812782
 20
326.3594549546361
 30
0.0
 11
199.7370983518664
 21
326.0594549546361
 31
0.0
  0
LINE
  5
12C
330
1F
100
AcDbEntity
  8
1
  6
Continuous
 62
     4
100
AcDbLine
 10
198.85474541069
 20
326.3594549546361
 30
0.0
 11
199.2959218812782
 21
326.3594549546361
 31
0.0
  0
LINE
  5
12D
330
1F
100
AcDbEntity
  8
1
  6
Continuous
 62
     4
100
AcDbLine
 10
199.2959218812782
 20
326.3594549546361
 30
0.0
 11
198.85474541069
 21
326.3594549546361
 31
0.0
  0
LINE
  5
12E
330
1F
100
AcDbEntity
  8
1
  6
Continuous
 62
     4
100
AcDbLine
 10
199.6488630577488
 20
326.5594549546361
 30
0.0
 11
199.2959218812782
 21
326.3594549546361
 31
0.0
  0
LINE
  5
12F
330
1F
100
AcDbEntity
  8
1
  6
Continuous
 62
     4
100
AcDbLine
 10
199.8253336459841
 20
326.9594549546361
 30
0.0
 11
199.6488630577488
 21
326.5594549546361
 31
0.0
  0
LINE
  5
130
330
1F
100
AcDbEntity
  8
1
  6
Continuous
 62
     4
100
AcDbLine
 10
199.7370983518664
 20
327.2594549546361
 30
0.0
 11
199.8253336459841
 21
326.9594549546361
 31
0.0
  0
LINE
  5
131
330
1F
100
AcDbEntity
  8
1
  6
Continuous
 62
     4
100
AcDbLine
 10
199.4723924695135
 20
327.6594549546361
 30
0.0
 11
199.7370983518664
 21
327.2594549546361
 31
0.0
  0
LINE
  5
132
330
1F
100
AcDbEntity
  8
1
  6
Continuous
 62
     4
100
AcDbLine
 10
198.9429807048076
 20
327.7594549546361
 30
0.0
 11
199.4723924695135
 21
327.6594549546361
 31
0.0
  0
LINE
  5
133
330
1F
100
AcDbEntity
  8
1
  6
Continuous
 62
     4
100
AcDbLine
 10
198.4135689401017
 20
327.6594549546361
 30
0.0
 11
198.9429807048076
 21
327.7594549546361
 31
0.0
  0
LINE
  5
134
330
1F
100
AcDbEntity
  8
1
  6
Continuous
 62
     4
100
AcDbLine
 10
198.0606277636312
 20
327.2594549546361
 30
0.0
 11
198.4135689401017
 21
327.6594549546361
 31
0.0
  0
LINE
  5
135
330
1F
100
AcDbEntity
  8
1
  6
Continuous
 62
     4
100
AcDbLine
 10
197.090039528337
 20
326.1594549546361
 30
0.0
 11
196.2959218812782
 21
326.1594549546361
 31
0.0
  0
LINE
  5
136
330
1F
100
AcDbEntity
  8
1
  6
Continuous
 62
     4
100
AcDbLine
 10
197.090039528337
 20
325.5594549546361
 30
0.0
 11
197.090039528337
 21
326.1594549546361
 31
0.0
  0
LINE
  5
137
330
1F
100
AcDbEntity
  8
1
  6
Continuous
 62
     4
100
AcDbLine
 10
197.0018042342194
 20
325.2594549546361
 30
0.0
 11
197.090039528337
 21
325.5594549546361
 31
0.0
  0
LINE
  5
138
330
1F
100
AcDbEntity
  8
1
  6
Continuous
 62
     4
100
AcDbLine
 10
196.8253336459841
 20
325.0594549546361
 30
0.0
 11
197.0018042342194
 21
325.2594549546361
 31
0.0
  0
LINE
  5
139
330
1F
100
AcDbEntity
  8
1
  6
Continuous
 62
     4
100
AcDbLine
 10
196.5606277636312
 20
324.8594549546361
 30
0.0
 11
196.8253336459841
 21
325.0594549546361
 31
0.0
  0
LINE
  5
13A
330
1F
100
AcDbEntity
  8
1
  6
Continuous
 62
     4
100
AcDbLine
 10
196.1194512930429
 20
324.7594549546361
 30
0.0
 11
196.5606277636312
 21
324.8594549546361
 31
0.0
  0
LINE
  5
13B
330
1F
100
AcDbEntity
  8
1
  6
Continuous
 62
     4
100
AcDbLine
 10
195.6782748224547
 20
324.8594549546361
 30
0.0
 11
196.1194512930429
 21
324.7594549546361
 31
0.0
  0
LINE
  5
13C
330
1F
100
AcDbEntity
  8
1
  6
Continuous
 62
     4
100
AcDbLine
 10
195.4135689401017
 20
325.2594549546361
 30
0.0
 11
195.6782748224547
 21
324.8594549546361
 31
0.0
  0
LINE
  5
13D
330
1F
100
AcDbEntity
  8
1
  6
Continuous
 62
     4
100
AcDbLine
 10
195.3253336459841
 20
325.4594549546361
 30
0.0
 11
195.4135689401017
 21
325.2594549546361
 31
0.0
  0
LINE
  5
13E
330
1F
100
AcDbEntity
  8
1
  6
Continuous
 62
     4
100
AcDbLine
 10
195.2370983518665
 20
325.8594549546361
 30
0.0
 11
195.3253336459841
 21
325.4594549546361
 31
0.0
  0
LINE
  5
13F
330
1F
100
AcDbEntity
  8
1
  6
Continuous
 62
     4
100
AcDbLine
 10
195.1488630577488
 20
326.2594549546361
 30
0.0
 11
195.2370983518665
 21
325.8594549546361
 31
0.0
  0
LINE
  5
140
330
1F
100
AcDbEntity
  8
1
  6
Continuous
 62
     4
100
AcDbLine
 10
195.2370983518665
 20
326.6594549546361
 30
0.0
 11
195.1488630577488
 21
326.2594549546361
 31
0.0
  0
LINE
  5
141
330
1F
100
AcDbEntity
  8
1
  6
Continuous
 62
     4
100
AcDbLine
 10
195.4135689401017
 20
327.2594549546361
 30
0.0
 11
195.2370983518665
 21
326.6594549546361
 31
0.0
  0
LINE
  5
142
330
1F
100
AcDbEntity
  8
1
  6
Continuous
 62
     4
100
AcDbLine
 10
195.5018042342194
 20
327.4594549546361
 30
0.0
 11
195.4135689401017
 21
327.2594549546361
 31
0.0
  0
LINE
  5
143
330
1F
100
AcDbEntity
  8
1
  6
Continuous
 62
     4
100
AcDbLine
 10
195.7665101165723
 20
327.6594549546361
 30
0.0
 11
195.5018042342194
 21
327.4594549546361
 31
0.0
  0
LINE
  5
144
330
1F
100
AcDbEntity
  8
1
  6
Continuous
 62
     4
100
AcDbLine
 10
196.1194512930429
 20
327.7594549546361
 30
0.0
 11
195.7665101165723
 21
327.6594549546361
 31
0.0
  0
LINE
  5
145
330
1F
100
AcDbEntity
  8
1
  6
Continuous
 62
     4
100
AcDbLine
 10
196.5606277636312
 20
327.6594549546361
 30
0.0
 11
196.1194512930429
 21
327.7594549546361
 31
0.0
  0
LINE
  5
146
330
1F
100
AcDbEntity
  8
1
  6
Continuous
 62
     4
100
AcDbLine
 10
196.7370983518665
 20
327.5594549546361
 30
0.0
 11
196.5606277636312
 21
327.6594549546361
 31
0.0
  0
LINE
  5
147
330
1F
100
AcDbEntity
  8
1
  6
Continuous
 62
     4
100
AcDbLine
 10
196.9135689401017
 20
327.3594549546361
 30
0.0
 11
196.7370983518665
 21
327.5594549546361
 31
0.0
  0
LINE
  5
148
330
1F
100
AcDbEntity
  8
1
  6
Continuous
 62
     4
100
AcDbLine
 10
197.090039528337
 20
327.0594549546361
 30
0.0
 11
196.9135689401017
 21
327.3594549546361
 31
0.0
  0
LINE
  5
149
330
1F
100
AcDbEntity
  8
1
  6
Continuous
 62
     4
100
AcDbLine
 10
310.4277308861961
 20
312.3594549546361
 30
0.0
 11
312.5453779450196
 21
312.3594549546361
 31
0.0
  0
LINE
  5
14A
330
1F
100
AcDbEntity
  8
1
  6
Continuous
 62
     4
100
AcDbLine
 10
312.0159661803137
 20
314.6594549546361
 30
0.0
 11
310.4277308861961
 21
312.3594549546361
 31
0.0
  0
LINE
  5
14B
330
1F
100
AcDbEntity
  8
1
  6
Continuous
 62
     4
100
AcDbLine
 10
312.0159661803137
 20
311.6594549546361
 30
0.0
 11
312.0159661803137
 21
314.6594549546361
 31
0.0
  0
LINE
  5
14C
330
1F
100
AcDbEntity
  8
1
  6
Continuous
 62
     4
100
AcDbLine
 10
309.5453779450196
 20
314.3594549546361
 30
0.0
 11
307.692436768549
 21
312.1594549546361
 31
0.0
  0
LINE
  5
14D
330
1F
100
AcDbEntity
  8
1
  6
Continuous
 62
     4
100
AcDbLine
 10
305.0453779450196
 20
311.9594549546361
 30
0.0
 11
304.8689073567843
 21
312.1594549546361
 31
0.0
  0
LINE
  5
14E
330
1F
100
AcDbEntity
  8
1
  6
Continuous
 62
     4
100
AcDbLine
 10
305.3983191214902
 20
311.7594549546361
 30
0.0
 11
305.0453779450196
 21
311.9594549546361
 31
0.0
  0
LINE
  5
14F
330
1F
100
AcDbEntity
  8
1
  6
Continuous
 62
     4
100
AcDbLine
 10
305.8394955920784
 20
311.6594549546361
 30
0.0
 11
305.3983191214902
 21
311.7594549546361
 31
0.0
  0
LINE
  5
150
330
1F
100
AcDbEntity
  8
1
  6
Continuous
 62
     4
100
AcDbLine
 10
306.3689073567843
 20
311.7594549546361
 30
0.0
 11
305.8394955920784
 21
311.6594549546361
 31
0.0
  0
LINE
  5
151
330
1F
100
AcDbEntity
  8
1
  6
Continuous
 62
     4
100
AcDbLine
 10
306.6336132391372
 20
311.9594549546361
 30
0.0
 11
306.3689073567843
 21
311.7594549546361
 31
0.0
  0
LINE
  5
152
330
1F
100
AcDbEntity
  8
1
  6
Continuous
 62
     4
100
AcDbLine
 10
306.8100838273725
 20
312.4594549546361
 30
0.0
 11
306.6336132391372
 21
311.9594549546361
 31
0.0
  0
LINE
  5
153
330
1F
100
AcDbEntity
  8
1
  6
Continuous
 62
     4
100
AcDbLine
 10
306.6336132391372
 20
312.9594549546361
 30
0.0
 11
306.8100838273725
 21
312.4594549546361
 31
0.0
  0
LINE
  5
154
330
1F
100
AcDbEntity
  8
1
  6
Continuous
 62
     4
100
AcDbLine
 10
306.192436768549
 20
313.2594549546361
 30
0.0
 11
306.6336132391372
 21
312.9594549546361
 31
0.0
  0
LINE
  5
155
330
1F
100
AcDbEntity
  8
1
  6
Continuous
 62
     4
100
AcDbLine
 10
305.7512602979608
 20
313.2594549546361
 30
0.0
 11
306.192436768549
 21
313.2594549546361
 31
0.0
  0
LINE
  5
156
330
1F
100
AcDbEntity
  8
1
  6
Continuous
 62
     4
100
AcDbLine
 10
306.192436768549
 20
313.2594549546361
 30
0.0
 11
305.7512602979608
 21
313.2594549546361
 31
0.0
  0
LINE
  5
157
330
1F
100
AcDbEntity
  8
1
  6
Continuous
 62
     4
100
AcDbLine
 10
306.5453779450196
 20
313.4594549546361
 30
0.0
 11
306.192436768549
 21
313.2594549546361
 31
0.0
  0
LINE
  5
158
330
1F
100
AcDbEntity
  8
1
  6
Continuous
 62
     4
100
AcDbLine
 10
306.7218485332549
 20
313.8594549546361
 30
0.0
 11
306.5453779450196
 21
313.4594549546361
 31
0.0
  0
LINE
  5
159
330
1F
100
AcDbEntity
  8
1
  6
Continuous
 62
     4
100
AcDbLine
 10
306.6336132391372
 20
314.1594549546361
 30
0.0
 11
306.7218485332549
 21
313.8594549546361
 31
0.0
  0
LINE
  5
15A
330
1F
100
AcDbEntity
  8
1
  6
Continuous
 62
     4
100
AcDbLine
 10
306.3689073567843
 20
314.5594549546361
 30
0.0
 11
306.6336132391372
 21
314.1594549546361
 31
0.0
  0
LINE
  5
15B
330
1F
100
AcDbEntity
  8
1
  6
Continuous
 62
     4
100
AcDbLine
 10
305.8394955920784
 20
314.6594549546361
 30
0.0
 11
306.3689073567843
 21
314.5594549546361
 31
0.0
  0
LINE
  5
15C
330
1F
100
AcDbEntity
  8
1
  6
Continuous
 62
     4
100
AcDbLine
 10
305.3100838273725
 20
314.5594549546361
 30
0.0
 11
305.8394955920784
 21
314.6594549546361
 31
0.0
  0
LINE
  5
15D
330
1F
100
AcDbEntity
  8
1
  6
Continuous
 62
     4
100
AcDbLine
 10
304.9571426509019
 20
314.1594549546361
 30
0.0
 11
305.3100838273725
 21
314.5594549546361
 31
0.0
  0
LINE
  5
15E
330
1F
100
AcDbEntity
  8
1
  6
Continuous
 62
     4
100
AcDbLine
 10
303.9865544156078
 20
313.0594549546361
 30
0.0
 11
303.192436768549
 21
313.0594549546361
 31
0.0
  0
LINE
  5
15F
330
1F
100
AcDbEntity
  8
1
  6
Continuous
 62
     4
100
AcDbLine
 10
303.9865544156078
 20
312.4594549546361
 30
0.0
 11
303.9865544156078
 21
313.0594549546361
 31
0.0
  0
LINE
  5
160
330
1F
100
AcDbEntity
  8
1
  6
Continuous
 62
     4
100
AcDbLine
 10
303.8983191214902
 20
312.1594549546361
 30
0.0
 11
303.9865544156078
 21
312.4594549546361
 31
0.0
  0
LINE
  5
161
330
1F
100
AcDbEntity
  8
1
  6
Continuous
 62
     4
100
AcDbLine
 10
303.7218485332549
 20
311.9594549546361
 30
0.0
 11
303.8983191214902
 21
312.1594549546361
 31
0.0
  0
LINE
  5
162
330
1F
100
AcDbEntity
  8
1
  6
Continuous
 62
     4
100
AcDbLine
 10
303.457142650902
 20
311.7594549546361
 30
0.0
 11
303.7218485332549
 21
311.9594549546361
 31
0.0
  0
LINE
  5
163
330
1F
100
AcDbEntity
  8
1
  6
Continuous
 62
     4
100
AcDbLine
 10
303.0159661803137
 20
311.6594549546361
 30
0.0
 11
303.457142650902
 21
311.7594549546361
 31
0.0
  0
LINE
  5
164
330
1F
100
AcDbEntity
  8
1
  6
Continuous
 62
     4
100
AcDbLine
 10
302.5747897097255
 20
311.7594549546361
 30
0.0
 11
303.0159661803137
 21
311.6594549546361
 31
0.0
  0
LINE
  5
165
330
1F
100
AcDbEntity
  8
1
  6
Continuous
 62
     4
100
AcDbLine
 10
302.3100838273725
 20
312.1594549546361
 30
0.0
 11
302.5747897097255
 21
311.7594549546361
 31
0.0
  0
LINE
  5
166
330
1F
100
AcDbEntity
  8
1
  6
Continuous
 62
     4
100
AcDbLine
 10
302.2218485332549
 20
312.3594549546361
 30
0.0
 11
302.3100838273725
 21
312.1594549546361
 31
0.0
  0
LINE
  5
167
330
1F
100
AcDbEntity
  8
1
  6
Continuous
 62
     4
100
AcDbLine
 10
302.1336132391372
 20
312.7594549546361
 30
0.0
 11
302.2218485332549
 21
312.3594549546361
 31
0.0
  0
LINE
  5
168
330
1F
100
AcDbEntity
  8
1
  6
Continuous
 62
     4
100
AcDbLine
 10
302.0453779450196
 20
313.1594549546361
 30
0.0
 11
302.1336132391372
 21
312.7594549546361
 31
0.0
  0
LINE
  5
169
330
1F
100
AcDbEntity
  8
1
  6
Continuous
 62
     4
100
AcDbLine
 10
302.1336132391372
 20
313.5594549546361
 30
0.0
 11
302.0453779450196
 21
313.1594549546361
 31
0.0
  0
LINE
  5
16A
330
1F
100
AcDbEntity
  8
1
  6
Continuous
 62
     4
100
AcDbLine
 10
302.3100838273725
 20
314.1594549546361
 30
0.0
 11
302.1336132391372
 21
313.5594549546361
 31
0.0
  0
LINE
  5
16B
330
1F
100
AcDbEntity
  8
1
  6
Continuous
 62
     4
100
AcDbLine
 10
302.3983191214902
 20
314.3594549546361
 30
0.0
 11
302.3100838273725
 21
314.1594549546361
 31
0.0
  0
LINE
  5
16C
330
1F
100
AcDbEntity
  8
1
  6
Continuous
 62
     4
100
AcDbLine
 10
302.6630250038431
 20
314.5594549546361
 30
0.0
 11
302.3983191214902
 21
314.3594549546361
 31
0.0
  0
LINE
  5
16D
330
1F
100
AcDbEntity
  8
1
  6
Continuous
 62
     4
100
AcDbLine
 10
303.0159661803137
 20
314.6594549546361
 30
0.0
 11
302.6630250038431
 21
314.5594549546361
 31
0.0
  0
LINE
  5
16E
330
1F
100
AcDbEntity
  8
1
  6
Continuous
 62
     4
100
AcDbLine
 10
303.457142650902
 20
314.5594549546361
 30
0.0
 11
303.0159661803137
 21
314.6594549546361
 31
0.0
  0
LINE
  5
16F
330
1F
100
AcDbEntity
  8
1
  6
Continuous
 62
     4
100
AcDbLine
 10
303.6336132391372
 20
314.4594549546361
 30
0.0
 11
303.457142650902
 21
314.5594549546361
 31
0.0
  0
LINE
  5
170
330
1F
100
AcDbEntity
  8
1
  6
Continuous
 62
     4
100
AcDbLine
 10
303.8100838273725
 20
314.2594549546361
 30
0.0
 11
303.6336132391372
 21
314.4594549546361
 31
0.0
  0
LINE
  5
171
330
1F
100
AcDbEntity
  8
1
  6
Continuous
 62
     4
100
AcDbLine
 10
303.9865544156078
 20
313.9594549546361
 30
0.0
 11
303.8100838273725
 21
314.2594549546361
 31
0.0
  0
LINE
  5
172
330
1F
100
AcDbEntity
  8
2
  6
DOTTED
 62
     4
100
AcDbLine
 10
282.9339552310996
 20
315.2002476014581
 30
0.0
 11
282.9339552310996
 21
316.2002476014581
 31
0.0
  0
LINE
  5
173
330
1F
100
AcDbEntity
  8
1
  6
Continuous
 62
     3
100
AcDbLine
 10
205.9339552310997
 20
439.9406434756033
 30
0.0
 11
204.9339552310997
 21
440.9406434756033
 31
0.0
  0
LINE
  5
174
330
1F
100
AcDbEntity
  8
1
  6
Continuous
 62
     3
100
AcDbLine
 10
213.0664516051805
 20
440.7906434756033
 30
0.0
 11
205.0839552310998
 21
440.7906434756033
 31
0.0
  0
LINE
  5
175
330
1F
100
AcDbEntity
  8
1
  6
Continuous
 62
     3
100
AcDbLine
 10
213.1941498063349
 20
439.9406434756033
 30
0.0
 11
205.9339552310997
 21
439.9406434756033
 31
0.0
  0
LINE
  5
176
330
1F
100
AcDbEntity
  8
1
  6
Continuous
 62
     3
100
AcDbLine
 10
205.9339552310997
 20
439.9406434756033
 30
0.0
 11
205.9339552310997
 21
466.1406434756037
 31
0.0
  0
LINE
  5
177
330
1F
100
AcDbEntity
  8
1
  6
Continuous
 62
     3
100
AcDbLine
 10
204.9339552310997
 20
440.9406434756033
 30
0.0
 11
204.9339552310997
 21
465.1406434756037
 31
0.0
  0
LINE
  5
178
330
1F
100
AcDbEntity
  8
1
  6
Continuous
 62
     3
100
AcDbLine
 10
205.9339552310997
 20
466.1406434756037
 30
0.0
 11
204.9339552310997
 21
465.1406434756037
 31
0.0
  0
LINE
  5
179
330
1F
100
AcDbEntity
  8
1
  6
Continuous
 62
     3
100
AcDbLine
 10
213.1941498063343
 20
466.1406434756037
 30
0.0
 11
205.9339552310997
 21
466.1406434756037
 31
0.0
  0
LINE
  5
17A
330
1F
100
AcDbEntity
  8
1
  6
Continuous
 62
     3
100
AcDbLine
 10
213.0664516051801
 20
465.2906434756036
 30
0.0
 11
205.0839552310998
 21
465.2906434756036
 31
0.0
  0
LINE
  5
17B
330
1F
100
AcDbEntity
  8
1
  6
DOT_CENTER
 62
     1
100
AcDbLine
 10
237.4339552310998
 20
421.0406434756033
 30
0.0
 11
237.4339552310998
 21
485.0406434756031
 31
0.0
  0
LINE
  5
17C
330
1F
100
AcDbEntity
  8
1
  6
Continuous
 62
     3
100
AcDbLine
 10
240.999063925095
 20
452.5406434756033
 30
0.0
 11
238.4339552310998
 21
452.5406434756033
 31
0.0
  0
LINE
  5
17D
330
1F
100
AcDbEntity
  8
1
  6
Continuous
 62
     3
100
AcDbLine
 10
237.9339552310998
 20
452.0406434756033
 30
0.0
 11
237.9339552310998
 21
450.9406434756033
 31
0.0
  0
LINE
  5
17E
330
1F
100
AcDbEntity
  8
1
  6
Continuous
 62
     3
100
AcDbLine
 10
237.9339552310998
 20
450.9406434756033
 30
0.0
 11
236.9339552310998
 21
450.9406434756033
 31
0.0
  0
LINE
  5
17F
330
1F
100
AcDbEntity
  8
1
  6
Continuous
 62
     3
100
AcDbLine
 10
236.9339552310998
 20
450.9406434756033
 30
0.0
 11
236.9339552310998
 21
452.0406434756033
 31
0.0
  0
LINE
  5
180
330
1F
100
AcDbEntity
  8
1
  6
Continuous
 62
     3
100
AcDbLine
 10
236.4339552310998
 20
452.5406434756033
 30
0.0
 11
233.8688465371046
 21
452.5406434756033
 31
0.0
  0
LINE
  5
181
330
1F
100
AcDbEntity
  8
1
  6
Continuous
 62
     3
100
AcDbLine
 10
233.8688465371046
 20
453.5406434756033
 30
0.0
 11
236.4339552310998
 21
453.5406434756033
 31
0.0
  0
LINE
  5
182
330
1F
100
AcDbEntity
  8
1
  6
Continuous
 62
     3
100
AcDbLine
 10
236.9339552310998
 20
454.0406434756033
 30
0.0
 11
236.9339552310998
 21
455.1406434756033
 31
0.0
  0
LINE
  5
183
330
1F
100
AcDbEntity
  8
1
  6
Continuous
 62
     3
100
AcDbLine
 10
236.9339552310998
 20
455.1406434756033
 30
0.0
 11
237.9339552310998
 21
455.1406434756033
 31
0.0
  0
LINE
  5
184
330
1F
100
AcDbEntity
  8
1
  6
Continuous
 62
     3
100
AcDbLine
 10
237.9339552310998
 20
455.1406434756033
 30
0.0
 11
237.9339552310998
 21
454.0406434756033
 31
0.0
  0
LINE
  5
185
330
1F
100
AcDbEntity
  8
1
  6
Continuous
 62
     3
100
AcDbLine
 10
238.4339552310998
 20
453.5406434756033
 30
0.0
 11
240.999063925095
 21
453.5406434756033
 31
0.0
  0
LINE
  5
186
330
1F
100
AcDbEntity
  8
1
  6
DOT_CENTER
 62
     1
100
AcDbLine
 10
201.9339552310998
 20
453.0406434756033
 30
0.0
 11
299.7602857716686
 21
453.0406434756033
 31
0.0
  0
LINE
  5
187
330
1F
100
AcDbEntity
  8
1
  6
Continuous
 62
     3
100
AcDbLine
 10
280.1446899325626
 20
453.0406434756033
 30
0.0
 11
295.3758816107745
 21
453.0406434756033
 31
0.0
  0
LINE
  5
188
330
1F
100
AcDbEntity
  8
1
  6
Continuous
 62
     3
100
AcDbLine
 10
296.7602857716686
 20
437.5406434756033
 30
0.0
 11
278.7602857716686
 21
437.5406434756033
 31
0.0
  0
LINE
  5
189
330
1F
100
AcDbEntity
  8
1
  6
Continuous
 62
     3
100
AcDbLine
 10
296.7602857716686
 20
468.5406434756033
 30
0.0
 11
296.7602857716686
 21
437.5406434756033
 31
0.0
  0
LINE
  5
18A
330
1F
100
AcDbEntity
  8
1
  6
Continuous
 62
     3
100
AcDbLine
 10
278.7602857716686
 20
468.5406434756033
 30
0.0
 11
296.7602857716686
 21
468.5406434756033
 31
0.0
  0
LINE
  5
18B
330
1F
100
AcDbEntity
  8
1
  6
Continuous
 62
     3
100
AcDbLine
 10
278.7602857716686
 20
437.5406434756033
 30
0.0
 11
278.7602857716686
 21
468.5406434756033
 31
0.0
  0
LINE
  5
18C
330
1F
100
AcDbEntity
  8
1
  6
Continuous
 62
     3
100
AcDbLine
 10
278.7602857716686
 20
462.5169740161722
 30
0.0
 11
277.7839552310996
 21
461.5406434756033
 31
0.0
  0
LINE
  5
18D
330
1F
100
AcDbEntity
  8
1
  6
Continuous
 62
     3
100
AcDbLine
 10
268.4339552310996
 20
462.5406434756033
 30
0.0
 11
269.4339552310996
 21
461.5406434756033
 31
0.0
  0
LINE
  5
18E
330
1F
100
AcDbEntity
  8
1
  6
Continuous
 62
     3
100
AcDbLine
 10
268.4339552310996
 20
468.0406434756033
 30
0.0
 11
267.4339552310996
 21
469.0406434756033
 31
0.0
  0
LINE
  5
18F
330
1F
100
AcDbEntity
  8
1
  6
Continuous
 62
     3
100
AcDbLine
 10
261.3631837215343
 20
469.0406434756033
 30
0.0
 11
267.4339552310996
 21
469.0406434756033
 31
0.0
  0
LINE
  5
190
330
1F
100
AcDbEntity
  8
2
  6
Continuous
 62
     3
100
AcDbLine
 10
268.4339552310996
 20
453.0406434756033
 30
0.0
 11
268.4339552310996
 21
468.0406434756033
 31
0.0
  0
LINE
  5
191
330
1F
100
AcDbEntity
  8
2
  6
Continuous
 62
     3
100
AcDbLine
 10
277.7839552310996
 20
461.5406434756033
 30
0.0
 11
269.4339552310996
 21
461.5406434756033
 31
0.0
  0
LINE
  5
192
330
1F
100
AcDbEntity
  8
1
  6
Continuous
 62
     3
100
AcDbLine
 10
269.4339552310996
 20
461.5406434756033
 30
0.0
 11
269.4339552310998
 21
453.0406434756033
 31
0.0
  0
LINE
  5
193
330
1F
100
AcDbEntity
  8
1
  6
Continuous
 62
     3
100
AcDbLine
 10
277.7839552310996
 20
461.5406434756033
 30
0.0
 11
277.7839552310996
 21
453.0406434756033
 31
0.0
  0
LINE
  5
194
330
1F
100
AcDbEntity
  8
1
  6
Continuous
 62
     3
100
AcDbLine
 10
277.7839552310996
 20
453.0406434756033
 30
0.0
 11
277.7839552310996
 21
444.5406434756033
 31
0.0
  0
LINE
  5
195
330
1F
100
AcDbEntity
  8
1
  6
Continuous
 62
     3
100
AcDbLine
 10
269.4339552310998
 20
453.0406434756033
 30
0.0
 11
269.4339552310996
 21
444.5406434756033
 31
0.0
  0
LINE
  5
196
330
1F
100
AcDbEntity
  8
1
  6
Continuous
 62
     3
100
AcDbLine
 10
277.7839552310996
 20
444.5406434756033
 30
0.0
 11
278.7602857716686
 21
443.5643129350344
 31
0.0
  0
LINE
  5
197
330
1F
100
AcDbEntity
  8
2
  6
Continuous
 62
     3
100
AcDbLine
 10
269.4339552310996
 20
444.5406434756033
 30
0.0
 11
277.7839552310996
 21
444.5406434756033
 31
0.0
  0
LINE
  5
198
330
1F
100
AcDbEntity
  8
2
  6
Continuous
 62
     3
100
AcDbLine
 10
268.4339552310996
 20
438.0406434756033
 30
0.0
 11
268.4339552310996
 21
453.0406434756033
 31
0.0
  0
LINE
  5
199
330
1F
100
AcDbEntity
  8
1
  6
Continuous
 62
     3
100
AcDbLine
 10
267.4339552310996
 20
437.0406434756033
 30
0.0
 11
261.3631837215346
 21
437.0406434756033
 31
0.0
  0
LINE
  5
19A
330
1F
100
AcDbEntity
  8
1
  6
Continuous
 62
     3
100
AcDbLine
 10
267.4339552310996
 20
437.0406434756033
 30
0.0
 11
268.4339552310996
 21
438.0406434756033
 31
0.0
  0
LINE
  5
19B
330
1F
100
AcDbEntity
  8
1
  6
Continuous
 62
     3
100
AcDbLine
 10
269.4339552310996
 20
444.5406434756033
 30
0.0
 11
268.4339552310996
 21
443.5406434756033
 31
0.0
  0
LINE
  5
19C
330
1F
100
AcDbEntity
  8
1
  6
Continuous
 62
     3
100
AcDbLine
 10
267.4339552310996
 20
469.0406434756033
 30
0.0
 11
267.4339552310996
 21
437.0406434756033
 31
0.0
  0
LINE
  5
1A5
330
1F
100
AcDbEntity
  8
1
  6
Continuous
 62
     3
100
AcDbLine
 10
241.1839552310998
 20
382.1502476014583
 30
0.0
 11
233.6839552310998
 21
382.1502476014582
 31
0.0
  0
LINE
  5
1A6
330
1F
100
AcDbEntity
  8
1
  6
Continuous
 62
     3
100
AcDbLine
 10
238.0054942620173
 20
382.1502476014583
 30
0.0
 11
237.6839552310998
 21
383.3502476014583
 31
0.0
  0
LINE
  5
1A7
330
1F
100
AcDbEntity
  8
1
  6
Continuous
 62
     3
100
AcDbLine
 10
237.1839552310998
 20
382.1502476014583
 30
0.0
 11
236.8624162001823
 21
383.3502476014583
 31
0.0
  0
LINE
  5
1A8
330
1F
100
AcDbEntity
  8
1
  6
Continuous
 62
     3
100
AcDbLine
 10
233.6839552310998
 20
383.3502476014583
 30
0.0
 11
241.1839552310998
 21
383.3502476014583
 31
0.0
  0
LINE
  5
1B9
330
1F
100
AcDbEntity
  8
3
  6
DOTTED
 62
     6
100
AcDbLine
 10
266.4339552310998
 20
368.0502476014582
 30
0.0
 11
266.4339552310998
 21
374.5272386307092
 31
0.0
  0
LINE
  5
1BA
330
1F
100
AcDbEntity
  8
3
  6
DOTTED
 62
     6
100
AcDbLine
 10
210.9339552310998
 20
365.5502476014582
 30
0.0
 11
263.9339552310998
 21
365.5502476014582
 31
0.0
  0
LINE
  5
1BB
330
1F
100
AcDbEntity
  8
3
  6
DOTTED
 62
     6
100
AcDbLine
 10
208.4339552310998
 20
374.5272386307092
 30
0.0
 11
208.4339552310998
 21
368.0502476014582
 31
0.0
  0
LINE
  5
1BC
330
1F
100
AcDbEntity
  8
3
  6
Continuous
 62
     3
100
AcDbLine
 10
265.6498150066087
 20
380.5272386307092
 30
0.0
 11
265.6498150066087
 21
374.0502476014582
 31
0.0
  0
LINE
  5
1BD
330
1F
100
AcDbEntity
  8
3
  6
Continuous
 62
     3
100
AcDbLine
 10
209.2180954555904
 20
380.5272386307092
 30
0.0
 11
209.2180954555904
 21
374.0502476014582
 31
0.0
  0
LINE
  5
1BE
330
1F
100
AcDbEntity
  8
3
  6
Continuous
 62
     3
100
AcDbLine
 10
261.3759088511868
 20
380.5272386307092
 30
0.0
 11
261.3759088511868
 21
374.0502476014582
 31
0.0
  0
LINE
  5
1BF
330
1F
100
AcDbEntity
  8
3
  6
Continuous
 62
     3
100
AcDbLine
 10
253.3952531795556
 20
380.5272386307092
 30
0.0
 11
253.3952531795556
 21
374.0502476014582
 31
0.0
  0
LINE
  5
1C0
330
1F
100
AcDbEntity
  8
3
  6
Continuous
 62
     3
100
AcDbLine
 10
243.0771309748252
 20
380.5272386307092
 30
0.0
 11
243.0771309748252
 21
374.0502476014582
 31
0.0
  0
LINE
  5
1C1
330
1F
100
AcDbEntity
  8
3
  6
Continuous
 62
     3
100
AcDbLine
 10
231.7907794873745
 20
380.5272386307092
 30
0.0
 11
231.7907794873745
 21
374.0502476014582
 31
0.0
  0
LINE
  5
1C2
330
1F
100
AcDbEntity
  8
3
  6
Continuous
 62
     3
100
AcDbLine
 10
221.4726572826439
 20
380.5272386307092
 30
0.0
 11
221.4726572826439
 21
374.0502476014582
 31
0.0
  0
LINE
  5
1C3
330
1F
100
AcDbEntity
  8
3
  6
Continuous
 62
     3
100
AcDbLine
 10
213.4920016110127
 20
380.5272386307092
 30
0.0
 11
213.4920016110127
 21
374.0502476014582
 31
0.0
  0
LINE
  5
1C4
330
1F
100
AcDbEntity
  8
3
  6
Continuous
 62
     3
100
AcDbLine
 10
210.9339552310998
 20
371.5502476014582
 30
0.0
 11
263.9339552310998
 21
371.5502476014582
 31
0.0
  0
LINE
  5
1C5
330
1F
100
AcDbEntity
  8
3
  6
Continuous
 62
     3
100
AcDbLine
 10
266.4339552310998
 20
374.0502476014582
 30
0.0
 11
266.4339552310998
 21
380.5272386307092
 31
0.0
  0
LINE
  5
1C6
330
1F
100
AcDbEntity
  8
3
  6
Continuous
 62
     3
100
AcDbLine
 10
208.4339552310998
 20
380.5272386307092
 30
0.0
 11
208.4339552310998
 21
374.0502476014582
 31
0.0
  0
LINE
  5
1C7
330
1F
100
AcDbEntity
  8
3
  6
Continuous
 62
     3
100
AcDbLine
 10
233.9339552310998
 20
370.5502476014582
 30
0.0
 11
240.9339552310998
 21
370.5502476014582
 31
0.0
  0
LINE
  5
1C8
330
1F
100
AcDbEntity
  8
3
  6
Continuous
 62
     3
100
AcDbLine
 10
242.1839552310998
 20
368.3851840919973
 30
0.0
 11
232.6839552310998
 21
368.3851840919973
 31
0.0
  0
LINE
  5
1C9
330
1F
100
AcDbEntity
  8
3
  6
Continuous
 62
     3
100
AcDbLine
 10
215.1335750972239
 20
328.8962555180012
 30
0.0
 11
259.7343353649756
 21
328.8962555180012
 31
0.0
  0
LINE
  5
1CA
330
1F
100
AcDbEntity
  8
3
  6
Continuous
 62
     3
100
AcDbLine
 10
215.3575419847451
 20
341.2144343316683
 30
0.0
 11
215.1335750972239
 21
328.8962555180012
 31
0.0
  0
LINE
  5
1CB
330
1F
100
AcDbEntity
  8
3
  6
Continuous
 62
     3
100
AcDbLine
 10
258.510533725741
 20
342.1962555180013
 30
0.0
 11
216.3573767364585
 21
342.1962555180013
 31
0.0
  0
LINE
  5
1CC
330
1F
100
AcDbEntity
  8
3
  6
Continuous
 62
     3
100
AcDbLine
 10
219.0419862029273
 20
356.2462399003213
 30
0.0
 11
218.7090179897852
 21
342.9275113746311
 31
0.0
  0
LINE
  5
1CD
330
1F
100
AcDbEntity
  8
3
  6
Continuous
 62
     3
100
AcDbLine
 10
253.8265489664558
 20
358.1962555180013
 30
0.0
 11
221.0413614957436
 21
358.1962555180013
 31
0.0
  0
LINE
  5
1CE
330
1F
100
AcDbEntity
  8
3
  6
Continuous
 62
     3
100
AcDbLine
 10
243.9839552310998
 20
359.1962555180013
 30
0.0
 11
230.8839552310997
 21
359.1962555180013
 31
0.0
  0
LINE
  5
1CF
330
1F
100
AcDbEntity
  8
3
  6
Continuous
 62
     3
100
AcDbLine
 10
259.5103684774544
 20
341.2144343316683
 30
0.0
 11
259.7343353649756
 21
328.8962555180012
 31
0.0
  0
LINE
  5
1D0
330
1F
100
AcDbEntity
  8
3
  6
Continuous
 62
     3
100
AcDbLine
 10
255.8259242592721
 20
356.2462399003213
 30
0.0
 11
256.1588924724143
 21
342.9275113746311
 31
0.0
  0
LINE
  5
1D1
330
1F
100
AcDbEntity
  8
3
  6
Continuous
 62
     3
100
AcDbLine
 10
205.9339552310998
 20
317.6502476014582
 30
0.0
 11
205.9339552310998
 21
291.4502476014583
 31
0.0
  0
LINE
  5
1D2
330
1F
100
AcDbEntity
  8
3
  6
Continuous
 62
     3
100
AcDbLine
 10
215.9339552310998
 20
317.6502476014582
 30
0.0
 11
215.9339552310995
 21
291.4502476014583
 31
0.0
  0
LINE
  5
1D3
330
1F
100
AcDbEntity
  8
3
  6
DOT_CENTER
 62
     1
100
AcDbLine
 10
237.4339552310998
 20
286.5502476014582
 30
0.0
 11
237.4339552310998
 21
392.5502476014582
 31
0.0
  0
LINE
  5
1D4
330
1F
100
AcDbEntity
  8
3
  6
DOT_CENTER
 62
     1
100
AcDbLine
 10
201.9339552310998
 20
304.5502476014582
 30
0.0
 11
299.7602857716686
 21
304.5502476014582
 31
0.0
  0
LINE
  5
1D5
330
1F
100
AcDbEntity
  8
3
  6
Continuous
 62
     3
100
AcDbLine
 10
219.449587018677
 20
293.3002476014582
 30
0.0
 11
217.7839552310998
 21
293.3002476014582
 31
0.0
  0
LINE
  5
1D6
330
1F
100
AcDbEntity
  8
3
  6
Continuous
 62
     3
100
AcDbLine
 10
205.9339552310998
 20
291.4502476014583
 30
0.0
 11
204.9339552310998
 21
292.4502476014583
 31
0.0
  0
LINE
  5
1D7
330
1F
100
AcDbEntity
  8
3
  6
Continuous
 62
     3
100
AcDbLine
 10
216.1407875585841
 20
292.3002476014582
 30
0.0
 11
205.0839552310997
 21
292.3002476014582
 31
0.0
  0
LINE
  5
1D8
330
1F
100
AcDbEntity
  8
3
  6
Continuous
 62
     3
100
AcDbLine
 10
215.9339552310995
 20
291.4502476014583
 30
0.0
 11
205.9339552310998
 21
291.4502476014583
 31
0.0
  0
LINE
  5
1D9
330
1F
100
AcDbEntity
  8
3
  6
Continuous
 62
     3
100
AcDbLine
 10
217.9339552310998
 20
315.8002476014582
 30
0.0
 11
217.7839552310998
 21
315.8002476014582
 31
0.0
  0
LINE
  5
1DA
330
1F
100
AcDbEntity
  8
3
  6
Continuous
 62
     3
100
AcDbLine
 10
204.9339552310998
 20
292.4502476014583
 30
0.0
 11
204.9339552310998
 21
316.6502476014582
 31
0.0
  0
LINE
  5
1DB
330
1F
100
AcDbEntity
  8
3
  6
Continuous
 62
     3
100
AcDbLine
 10
216.1407875585841
 20
316.8002476014582
 30
0.0
 11
205.0839552310997
 21
316.8002476014582
 31
0.0
  0
LINE
  5
1DC
330
1F
100
AcDbEntity
  8
3
  6
Continuous
 62
     3
100
AcDbLine
 10
205.9339552310998
 20
317.6502476014582
 30
0.0
 11
204.9339552310998
 21
316.6502476014582
 31
0.0
  0
LINE
  5
1DD
330
1F
100
AcDbEntity
  8
3
  6
Continuous
 62
     3
100
AcDbLine
 10
215.9339552310998
 20
317.6502476014582
 30
0.0
 11
205.9339552310998
 21
317.6502476014582
 31
0.0
  0
LINE
  5
1DE
330
1F
100
AcDbEntity
  8
3
  6
Continuous
 62
     3
100
AcDbLine
 10
255.4183234435225
 20
293.3002476014582
 30
0.0
 11
257.0839552310997
 21
293.3002476014582
 31
0.0
  0
LINE
  5
1DF
330
1F
100
AcDbEntity
  8
3
  6
Continuous
 62
     3
100
AcDbLine
 10
256.9339552310998
 20
315.8002476014582
 30
0.0
 11
257.0839552310997
 21
315.8002476014582
 31
0.0
  0
LINE
  5
1E0
330
1F
100
AcDbEntity
  8
3
  6
Continuous
 62
     3
100
AcDbLine
 10
220.9339552310998
 20
328.8962555180012
 30
0.0
 11
220.9339552310998
 21
318.8002476014582
 31
0.0
  0
LINE
  5
1E1
330
1F
100
AcDbEntity
  8
3
  6
Continuous
 62
     3
100
AcDbLine
 10
253.9339552310998
 20
328.8962555180012
 30
0.0
 11
253.9339552310998
 21
318.8002476014582
 31
0.0
  0
LINE
  5
1E2
330
1F
100
AcDbEntity
  8
3
  6
Continuous
 62
     3
100
AcDbLine
 10
242.1839552310998
 20
368.3851840919973
 30
0.0
 11
242.1839552310998
 21
359.1962555180013
 31
0.0
  0
LINE
  5
1E3
330
1F
100
AcDbEntity
  8
3
  6
Continuous
 62
     3
100
AcDbLine
 10
240.9339552310998
 20
370.5502476014582
 30
0.0
 11
242.1839552310998
 21
368.3851840919973
 31
0.0
  0
LINE
  5
1E4
330
1F
100
AcDbEntity
  8
3
  6
Continuous
 62
     3
100
AcDbLine
 10
240.9339552310998
 20
371.5502476014582
 30
0.0
 11
240.9339552310998
 21
370.5502476014582
 31
0.0
  0
LINE
  5
1E5
330
1F
100
AcDbEntity
  8
3
  6
Continuous
 62
     3
100
AcDbLine
 10
233.9339552310998
 20
370.5502476014582
 30
0.0
 11
233.9339552310998
 21
371.5502476014582
 31
0.0
  0
LINE
  5
1E6
330
1F
100
AcDbEntity
  8
3
  6
Continuous
 62
     3
100
AcDbLine
 10
232.6839552310998
 20
368.3851840919973
 30
0.0
 11
233.9339552310998
 21
370.5502476014582
 31
0.0
  0
LINE
  5
1E7
330
1F
100
AcDbEntity
  8
3
  6
Continuous
 62
     3
100
AcDbLine
 10
232.6839552310998
 20
359.1962555180013
 30
0.0
 11
232.6839552310998
 21
368.3851840919973
 31
0.0
  0
LINE
  5
1E8
330
1F
100
AcDbEntity
  8
1
  6
DOTTED
 62
     4
100
AcDbLine
 10
278.7602857716686
 20
295.0739170608893
 30
0.0
 11
279.9339552310996
 21
293.9002476014582
 31
0.0
  0
LINE
  5
1E9
330
1F
100
AcDbEntity
  8
1
  6
Continuous
 62
     3
100
AcDbLine
 10
278.7602857716686
 20
314.0265781420271
 30
0.0
 11
277.7839552310998
 21
313.0502476014582
 31
0.0
  0
LINE
  5
1EA
330
1F
100
AcDbEntity
  8
1
  6
Continuous
 62
     3
100
AcDbLine
 10
258.4339552310996
 20
288.5502476014582
 30
0.0
 11
258.4339552310996
 21
320.5502476014582
 31
0.0
  0
LINE
  5
1EB
330
1F
100
AcDbEntity
  8
1
  6
Continuous
 62
     3
100
AcDbLine
 10
267.4339552310996
 20
320.5502476014582
 30
0.0
 11
267.4339552310996
 21
288.5502476014582
 31
0.0
  0
LINE
  5
1EC
330
1F
100
AcDbEntity
  8
1
  6
Continuous
 62
     3
100
AcDbLine
 10
269.4339552310996
 20
296.0502476014582
 30
0.0
 11
268.4339552310996
 21
295.0502476014582
 31
0.0
  0
LINE
  5
1ED
330
1F
100
AcDbEntity
  8
1
  6
Continuous
 62
     3
100
AcDbLine
 10
267.4339552310996
 20
288.5502476014582
 30
0.0
 11
268.4339552310996
 21
289.5502476014582
 31
0.0
  0
LINE
  5
1EE
330
1F
100
AcDbEntity
  8
1
  6
Continuous
 62
     3
100
AcDbLine
 10
267.4339552310996
 20
288.5502476014582
 30
0.0
 11
258.4339552310996
 21
288.5502476014582
 31
0.0
  0
LINE
  5
1EF
330
1F
100
AcDbEntity
  8
2
  6
Continuous
 62
     3
100
AcDbLine
 10
257.4339552310996
 20
289.5502476014582
 30
0.0
 11
257.4339552310996
 21
304.5502476014582
 31
0.0
  0
LINE
  5
1F0
330
1F
100
AcDbEntity
  8
2
  6
Continuous
 62
     3
100
AcDbLine
 10
268.4339552310996
 20
289.5502476014582
 30
0.0
 11
268.4339552310996
 21
304.5502476014582
 31
0.0
  0
LINE
  5
1F1
330
1F
100
AcDbEntity
  8
2
  6
Continuous
 62
     3
100
AcDbLine
 10
269.4339552310996
 20
296.0502476014582
 30
0.0
 11
277.7839552310998
 21
296.0502476014582
 31
0.0
  0
LINE
  5
1F2
330
1F
100
AcDbEntity
  8
2
  6
DOTTED
 62
     4
100
AcDbLine
 10
282.9339552310996
 20
292.9002476014582
 30
0.0
 11
284.9339552310996
 21
292.9002476014582
 31
0.0
  0
LINE
  5
1F3
330
1F
100
AcDbEntity
  8
2
  6
DOTTED
 62
     4
100
AcDbLine
 10
282.9339552310996
 20
292.9002476014582
 30
0.0
 11
282.9339552310996
 21
293.9002476014582
 31
0.0
  0
LINE
  5
1F4
330
1F
100
AcDbEntity
  8
2
  6
DOTTED
 62
     4
100
AcDbLine
 10
279.9339552310996
 20
293.9002476014582
 30
0.0
 11
282.9339552310996
 21
293.9002476014582
 31
0.0
  0
LINE
  5
1F5
330
1F
100
AcDbEntity
  8
1
  6
Continuous
 62
     3
100
AcDbLine
 10
277.7839552310998
 20
296.0502476014582
 30
0.0
 11
278.7602857716686
 21
295.0739170608893
 31
0.0
  0
LINE
  5
1F6
330
1F
100
AcDbEntity
  8
1
  6
Continuous
 62
     3
100
AcDbLine
 10
269.4339552310996
 20
304.5502476014582
 30
0.0
 11
269.4339552310996
 21
296.0502476014582
 31
0.0
  0
LINE
  5
1F7
330
1F
100
AcDbEntity
  8
1
  6
Continuous
 62
     3
100
AcDbLine
 10
277.7839552310998
 20
304.5502476014582
 30
0.0
 11
277.7839552310998
 21
296.0502476014582
 31
0.0
  0
LINE
  5
1F8
330
1F
100
AcDbEntity
  8
1
  6
Continuous
 62
     3
100
AcDbLine
 10
277.7839552310998
 20
313.0502476014582
 30
0.0
 11
277.7839552310998
 21
304.5502476014582
 31
0.0
  0
LINE
  5
1F9
330
1F
100
AcDbEntity
  8
1
  6
Continuous
 62
     3
100
AcDbLine
 10
269.4339552310996
 20
313.0502476014582
 30
0.0
 11
269.4339552310996
 21
304.5502476014582
 31
0.0
  0
LINE
  5
1FA
330
1F
100
AcDbEntity
  8
1
  6
DOTTED
 62
     4
100
AcDbLine
 10
279.9339552310996
 20
315.2002476014581
 30
0.0
 11
278.7602857716686
 21
314.0265781420271
 31
0.0
  0
LINE
  5
1FB
330
1F
100
AcDbEntity
  8
2
  6
DOTTED
 62
     4
100
AcDbLine
 10
284.9339552310996
 20
292.9002476014582
 30
0.0
 11
284.9339552310996
 21
316.2002476014581
 31
0.0
  0
LINE
  5
1FC
330
1F
100
AcDbEntity
  8
2
  6
DOTTED
 62
     4
100
AcDbLine
 10
282.9339552310996
 20
315.2002476014581
 30
0.0
 11
279.9339552310996
 21
315.2002476014581
 31
0.0
  0
LINE
  5
1FD
330
1F
100
AcDbEntity
  8
2
  6
DOTTED
 62
     4
100
AcDbLine
 10
284.9339552310996
 20
316.2002476014581
 30
0.0
 11
282.9339552310996
 21
316.2002476014581
 31
0.0
  0
LINE
  5
1FE
330
1F
100
AcDbEntity
  8
2
  6
Continuous
 62
     3
100
AcDbLine
 10
277.7839552310998
 20
313.0502476014582
 30
0.0
 11
269.4339552310996
 21
313.0502476014582
 31
0.0
  0
LINE
  5
1FF
330
1F
100
AcDbEntity
  8
2
  6
Continuous
 62
     3
100
AcDbLine
 10
268.4339552310996
 20
304.5502476014582
 30
0.0
 11
268.4339552310996
 21
319.5502476014582
 31
0.0
  0
LINE
  5
200
330
1F
100
AcDbEntity
  8
2
  6
Continuous
 62
     3
100
AcDbLine
 10
257.4339552310996
 20
304.5502476014582
 30
0.0
 11
257.4339552310996
 21
319.5502476014582
 31
0.0
  0
LINE
  5
201
330
1F
100
AcDbEntity
  8
1
  6
Continuous
 62
     3
100
AcDbLine
 10
258.4339552310996
 20
320.5502476014582
 30
0.0
 11
267.4339552310996
 21
320.5502476014582
 31
0.0
  0
LINE
  5
202
330
1F
100
AcDbEntity
  8
1
  6
Continuous
 62
     3
100
AcDbLine
 10
257.4339552310996
 20
319.5502476014582
 30
0.0
 11
258.4339552310996
 21
320.5502476014582
 31
0.0
  0
LINE
  5
203
330
1F
100
AcDbEntity
  8
1
  6
Continuous
 62
     3
100
AcDbLine
 10
268.4339552310996
 20
319.5502476014582
 30
0.0
 11
267.4339552310996
 21
320.5502476014582
 31
0.0
  0
LINE
  5
204
330
1F
100
AcDbEntity
  8
1
  6
Continuous
 62
     3
100
AcDbLine
 10
268.4339552310996
 20
314.0502476014582
 30
0.0
 11
269.4339552310996
 21
313.0502476014582
 31
0.0
  0
LINE
  5
205
330
1F
100
AcDbEntity
  8
1
  6
Continuous
 62
     3
100
AcDbLine
 10
258.4339552310996
 20
288.5502476014582
 30
0.0
 11
257.4339552310996
 21
289.5502476014582
 31
0.0
  0
LINE
  5
206
330
1F
100
AcDbEntity
  8
1
  6
Continuous
 62
     3
100
AcDbLine
 10
295.3758816107745
 20
295.6013184290193
 30
0.0
 11
280.1446899325627
 21
295.6013184290193
 31
0.0
  0
LINE
  5
207
330
1F
100
AcDbEntity
  8
1
  6
Continuous
 62
     3
100
AcDbLine
 10
295.3758816107745
 20
313.4991767738973
 30
0.0
 11
280.1446899325627
 21
313.4991767738973
 31
0.0
  0
LINE
  5
210
330
1F
100
AcDbEntity
  8
1
  6
Continuous
 62
     3
100
AcDbLine
 10
233.6839552310998
 20
381.5502476014582
 30
0.0
 11
241.1839552310998
 21
381.5502476014582
 31
0.0
  0
LINE
  5
217
330
1F
100
AcDbEntity
  8
1
  6
DOT_CENTER
 62
     1
100
AcDbLine
 10
349.722874875873
 20
304.5502476014582
 30
0.0
 11
387.722874875873
 21
304.5502476014582
 31
0.0
  0
LINE
  5
218
330
1F
100
AcDbEntity
  8
1
  6
DOT_CENTER
 62
     1
100
AcDbLine
 10
368.722874875873
 20
392.5502476014582
 30
0.0
 11
368.722874875873
 21
283.1882876414422
 31
0.0
  0
LINE
  5
219
330
1F
100
AcDbEntity
  8
1
  6
Continuous
 62
     3
100
AcDbLine
 10
368.722874875873
 20
305.5502476014582
 30
0.0
 11
374.4360176187073
 21
305.5502476014582
 31
0.0
  0
LINE
  5
21A
330
1F
100
AcDbEntity
  8
1
  6
Continuous
 62
     3
100
AcDbLine
 10
374.1671379113995
 20
306.5502476014582
 30
0.0
 11
363.2786118403465
 21
306.5502476014582
 31
0.0
  0
LINE
  5
21B
330
1F
100
AcDbEntity
  8
1
  6
Continuous
 62
     3
100
AcDbLine
 10
368.722874875873
 20
305.5502476014582
 30
0.0
 11
363.0097321330387
 21
305.5502476014582
 31
0.0
  0
LINE
  5
21C
330
1F
100
AcDbEntity
  8
1
  6
Continuous
 62
     3
100
AcDbLine
 10
383.722874875873
 20
313.787851908492
 30
0.0
 11
383.722874875873
 21
315.3002476014582
 31
0.0
  0
LINE
  5
21D
330
1F
100
AcDbEntity
  8
1
  6
Continuous
 62
     3
100
AcDbLine
 10
385.222874875873
 20
328.8962555180012
 30
0.0
 11
385.222874875873
 21
316.8002476014582
 31
0.0
  0
LINE
  5
21E
330
1F
100
AcDbEntity
  8
1
  6
Continuous
 62
     3
100
AcDbLine
 10
352.222874875873
 20
328.8962555180012
 30
0.0
 11
352.222874875873
 21
316.8002476014582
 31
0.0
  0
LINE
  5
21F
330
1F
100
AcDbEntity
  8
1
  6
Continuous
 62
     3
100
AcDbLine
 10
353.722874875873
 20
313.787851908492
 30
0.0
 11
353.722874875873
 21
315.3002476014582
 31
0.0
  0
LINE
  5
220
330
1F
100
AcDbEntity
  8
1
  6
Continuous
 62
     3
100
AcDbLine
 10
364.972874875873
 20
381.5502476014582
 30
0.0
 11
372.472874875873
 21
381.5502476014582
 31
0.0
  0
LINE
  5
221
330
1F
100
AcDbEntity
  8
3
  6
Continuous
 62
     3
100
AcDbLine
 10
363.972874875873
 20
359.1962555180013
 30
0.0
 11
363.972874875873
 21
368.3851840919973
 31
0.0
  0
LINE
  5
222
330
1F
100
AcDbEntity
  8
3
  6
Continuous
 62
     3
100
AcDbLine
 10
363.972874875873
 20
368.3851840919973
 30
0.0
 11
365.222874875873
 21
370.5502476014582
 31
0.0
  0
LINE
  5
223
330
1F
100
AcDbEntity
  8
3
  6
Continuous
 62
     3
100
AcDbLine
 10
365.222874875873
 20
370.5502476014582
 30
0.0
 11
365.222874875873
 21
371.5502476014582
 31
0.0
  0
LINE
  5
224
330
1F
100
AcDbEntity
  8
3
  6
Continuous
 62
     3
100
AcDbLine
 10
372.222874875873
 20
371.5502476014582
 30
0.0
 11
372.222874875873
 21
370.5502476014582
 31
0.0
  0
LINE
  5
225
330
1F
100
AcDbEntity
  8
3
  6
Continuous
 62
     3
100
AcDbLine
 10
372.222874875873
 20
370.5502476014582
 30
0.0
 11
373.472874875873
 21
368.3851840919973
 31
0.0
  0
LINE
  5
226
330
1F
100
AcDbEntity
  8
3
  6
Continuous
 62
     3
100
AcDbLine
 10
373.472874875873
 20
368.3851840919973
 30
0.0
 11
373.472874875873
 21
359.1962555180013
 31
0.0
  0
LINE
  5
227
330
1F
100
AcDbEntity
  8
3
  6
Continuous
 62
     3
100
AcDbLine
 10
387.1148439040453
 20
356.2462399003213
 30
0.0
 11
387.4478121171875
 21
342.9275113746311
 31
0.0
  0
LINE
  5
228
330
1F
100
AcDbEntity
  8
3
  6
Continuous
 62
     3
100
AcDbLine
 10
390.7992881222276
 20
341.2144343316683
 30
0.0
 11
391.0232550097488
 21
328.8962555180012
 31
0.0
  0
LINE
  5
229
330
1F
100
AcDbEntity
  8
3
  6
Continuous
 62
     3
100
AcDbLine
 10
375.272874875873
 20
359.1962555180013
 30
0.0
 11
362.1728748758729
 21
359.1962555180013
 31
0.0
  0
LINE
  5
22A
330
1F
100
AcDbEntity
  8
3
  6
Continuous
 62
     3
100
AcDbLine
 10
385.115468611229
 20
358.1962555180013
 30
0.0
 11
352.3302811405168
 21
358.1962555180013
 31
0.0
  0
LINE
  5
22B
330
1F
100
AcDbEntity
  8
3
  6
Continuous
 62
     3
100
AcDbLine
 10
350.3309058477005
 20
356.2462399003213
 30
0.0
 11
349.9979376345584
 21
342.9275113746311
 31
0.0
  0
LINE
  5
22C
330
1F
100
AcDbEntity
  8
3
  6
Continuous
 62
     3
100
AcDbLine
 10
389.7994533705142
 20
342.1962555180013
 30
0.0
 11
347.6462963812317
 21
342.1962555180013
 31
0.0
  0
LINE
  5
22D
330
1F
100
AcDbEntity
  8
3
  6
Continuous
 62
     3
100
AcDbLine
 10
346.6464616295183
 20
341.2144343316683
 30
0.0
 11
346.4224947419971
 21
328.8962555180012
 31
0.0
  0
LINE
  5
22E
330
1F
100
AcDbEntity
  8
3
  6
Continuous
 62
     3
100
AcDbLine
 10
346.4224947419971
 20
328.8962555180012
 30
0.0
 11
391.0232550097488
 21
328.8962555180012
 31
0.0
  0
LINE
  5
22F
330
1F
100
AcDbEntity
  8
3
  6
Continuous
 62
     3
100
AcDbLine
 10
373.472874875873
 20
368.3851840919973
 30
0.0
 11
363.972874875873
 21
368.3851840919973
 31
0.0
  0
LINE
  5
230
330
1F
100
AcDbEntity
  8
3
  6
Continuous
 62
     3
100
AcDbLine
 10
365.222874875873
 20
370.5502476014582
 30
0.0
 11
372.222874875873
 21
370.5502476014582
 31
0.0
  0
LINE
  5
231
330
1F
100
AcDbEntity
  8
3
  6
Continuous
 62
     3
100
AcDbLine
 10
339.722874875873
 20
380.5272386307092
 30
0.0
 11
339.722874875873
 21
374.0502476014582
 31
0.0
  0
LINE
  5
232
330
1F
100
AcDbEntity
  8
3
  6
Continuous
 62
     3
100
AcDbLine
 10
397.722874875873
 20
374.0502476014582
 30
0.0
 11
397.722874875873
 21
380.5272386307092
 31
0.0
  0
LINE
  5
233
330
1F
100
AcDbEntity
  8
3
  6
Continuous
 62
     3
100
AcDbLine
 10
342.222874875873
 20
371.5502476014582
 30
0.0
 11
395.222874875873
 21
371.5502476014582
 31
0.0
  0
LINE
  5
234
330
1F
100
AcDbEntity
  8
3
  6
Continuous
 62
     3
100
AcDbLine
 10
344.7809212557859
 20
380.5272386307092
 30
0.0
 11
344.7809212557859
 21
374.0502476014582
 31
0.0
  0
LINE
  5
235
330
1F
100
AcDbEntity
  8
3
  6
Continuous
 62
     3
100
AcDbLine
 10
352.7615769274171
 20
380.5272386307092
 30
0.0
 11
352.7615769274171
 21
374.0502476014582
 31
0.0
  0
LINE
  5
236
330
1F
100
AcDbEntity
  8
3
  6
Continuous
 62
     3
100
AcDbLine
 10
363.0796991321477
 20
380.5272386307092
 30
0.0
 11
363.0796991321477
 21
374.0502476014582
 31
0.0
  0
LINE
  5
237
330
1F
100
AcDbEntity
  8
3
  6
Continuous
 62
     3
100
AcDbLine
 10
374.3660506195984
 20
380.5272386307092
 30
0.0
 11
374.3660506195984
 21
374.0502476014582
 31
0.0
  0
LINE
  5
238
330
1F
100
AcDbEntity
  8
3
  6
Continuous
 62
     3
100
AcDbLine
 10
384.6841728243288
 20
380.5272386307092
 30
0.0
 11
384.6841728243288
 21
374.0502476014582
 31
0.0
  0
LINE
  5
239
330
1F
100
AcDbEntity
  8
3
  6
Continuous
 62
     3
100
AcDbLine
 10
392.66482849596
 20
380.5272386307092
 30
0.0
 11
392.66482849596
 21
374.0502476014582
 31
0.0
  0
LINE
  5
23A
330
1F
100
AcDbEntity
  8
3
  6
Continuous
 62
     3
100
AcDbLine
 10
340.5070151003636
 20
380.5272386307092
 30
0.0
 11
340.5070151003636
 21
374.0502476014582
 31
0.0
  0
LINE
  5
23B
330
1F
100
AcDbEntity
  8
3
  6
Continuous
 62
     3
100
AcDbLine
 10
396.9387346513819
 20
380.5272386307092
 30
0.0
 11
396.9387346513819
 21
374.0502476014582
 31
0.0
  0
LINE
  5
240
330
1F
100
AcDbEntity
  8
1
  6
Continuous
 62
     3
100
AcDbLine
 10
364.972874875873
 20
383.3502476014583
 30
0.0
 11
372.472874875873
 21
383.3502476014583
 31
0.0
  0
LINE
  5
241
330
1F
100
AcDbEntity
  8
1
  6
Continuous
 62
     3
100
AcDbLine
 10
372.472874875873
 20
382.1502476014583
 30
0.0
 11
364.972874875873
 21
382.1502476014582
 31
0.0
  0
LINE
  5
242
330
1F
100
AcDbEntity
  8
1
  6
Continuous
 62
     3
100
AcDbLine
 10
368.222874875873
 20
384.8502476014583
 30
0.0
 11
368.222874875873
 21
386.3363479792639
 31
0.0
  0
LINE
  5
243
330
1F
100
AcDbEntity
  8
1
  6
Continuous
 62
     3
100
AcDbLine
 10
369.222874875873
 20
384.8502476014583
 30
0.0
 11
368.222874875873
 21
384.8502476014583
 31
0.0
  0
LINE
  5
244
330
1F
100
AcDbEntity
  8
1
  6
Continuous
 62
     3
100
AcDbLine
 10
369.222874875873
 20
386.3363479792639
 30
0.0
 11
369.222874875873
 21
384.8502476014583
 31
0.0
  0
ARC
  5
245
330
1F
100
AcDbEntity
  8
1
  6
Continuous
 62
     3
100
AcDbCircle
 10
238.4339552310997
 20
452.0406434756033
 30
0.0
 40
0.5
100
AcDbArc
 50
89.99999999999022
 51
180.0
  0
ARC
  5
246
330
1F
100
AcDbEntity
  8
1
  6
Continuous
 62
     3
100
AcDbCircle
 10
236.4339552310998
 20
452.0406434756033
 30
0.0
 40
0.5
100
AcDbArc
 50
0.0
 51
90.0
  0
ARC
  5
247
330
1F
100
AcDbEntity
  8
1
  6
Continuous
 62
     3
100
AcDbCircle
 10
237.4339552310998
 20
453.0406434756033
 30
0.0
 40
3.600000000000022
100
AcDbArc
 50
172.0164438544446
 51
187.9835561455554
  0
ARC
  5
248
330
1F
100
AcDbEntity
  8
1
  6
Continuous
 62
     3
100
AcDbCircle
 10
236.4339552310997
 20
454.0406434756033
 30
0.0
 40
0.5
100
AcDbArc
 50
270.0000000000098
 51
0.0
  0
ARC
  5
249
330
1F
100
AcDbEntity
  8
1
  6
Continuous
 62
     3
100
AcDbCircle
 10
238.4339552310998
 20
454.0406434756033
 30
0.0
 40
0.5
100
AcDbArc
 50
180.0
 51
270.0
  0
ARC
  5
24A
330
1F
100
AcDbEntity
  8
1
  6
Continuous
 62
     3
100
AcDbCircle
 10
237.4339552310998
 20
453.0406434756033
 30
0.0
 40
3.600000000000022
100
AcDbArc
 50
352.0164438544447
 51
7.98355614555536
  0
ARC
  5
24B
330
1F
100
AcDbEntity
  8
1
  6
Continuous
 62
     3
100
AcDbCircle
 10
274.3755383722263
 20
445.2906434756033
 30
0.0
 40
22.38474739944229
100
AcDbArc
 50
339.7438419995847
 51
20.2561580004153
  0
ARC
  5
24C
330
1F
100
AcDbEntity
  8
1
  6
Continuous
 62
     3
100
AcDbCircle
 10
274.3755383722263
 20
460.7906434756033
 30
0.0
 40
22.38474739944229
100
AcDbArc
 50
339.7438419995847
 51
20.2561580004153
  0
ARC
  5
24D
330
1F
100
AcDbEntity
  8
1
  6
Continuous
 62
     3
100
AcDbCircle
 10
301.1450331711112
 20
460.7906434756033
 30
0.0
 40
22.38474739944266
100
AcDbArc
 50
159.7438419995851
 51
200.2561580004149
  0
ARC
  5
24E
330
1F
100
AcDbEntity
  8
1
  6
Continuous
 62
     3
100
AcDbCircle
 10
301.1450331711106
 20
445.2906434756033
 30
0.0
 40
22.38474739944207
100
AcDbArc
 50
159.7438419995845
 51
200.2561580004155
  0
ARC
  5
254
330
1F
100
AcDbEntity
  8
1
  6
Continuous
 62
     3
100
AcDbCircle
 10
237.4339552310998
 20
453.0406434756033
 30
0.0
 40
11.50000000000015
100
AcDbArc
 50
341.6450253534812
 51
359.9999907415647
  0
ARC
  5
255
330
1F
100
AcDbEntity
  8
1
  6
Continuous
 62
     3
100
AcDbCircle
 10
237.4339552310998
 20
453.0406434756033
 30
0.0
 40
25.00000000000023
100
AcDbArc
 50
259.1838626983024
 51
280.8161373016976
  0
ARC
  5
256
330
1F
100
AcDbEntity
  8
1
  6
Continuous
 62
     3
100
AcDbCircle
 10
237.4339552310998
 20
453.0406434756033
 30
0.0
 40
25.00000000000001
100
AcDbArc
 50
349.1838626983023
 51
10.81613730169713
  0
ARC
  5
257
330
1F
100
AcDbEntity
  8
1
  6
Continuous
 62
     3
100
AcDbCircle
 10
237.4339552310998
 20
453.0406434756033
 30
0.0
 40
25.00000000000001
100
AcDbArc
 50
79.18386269830229
 51
100.8161373016977
  0
ARC
  5
258
330
1F
100
AcDbEntity
  8
1
  6
Continuous
 62
     3
100
AcDbCircle
 10
237.4339552310998
 20
453.0406434756033
 30
0.0
 40
24.99999999999996
100
AcDbArc
 50
169.1838626983029
 51
190.8161373016976
  0
ARC
  5
259
330
1F
100
AcDbEntity
  8
1
  6
Continuous
 62
     3
100
AcDbCircle
 10
237.4339552310998
 20
453.0406434756033
 30
0.0
 40
11.50000000000035
100
AcDbArc
 50
359.9999907415647
 51
18.35497464651774
  0
ARC
  5
25A
330
1F
100
AcDbEntity
  8
1
  6
Continuous
 62
     3
100
AcDbCircle
 10
237.4339552310998
 20
453.0406434756033
 30
0.0
 40
11.49999999999982
100
AcDbArc
 50
71.64502535348258
 51
108.3549746465173
  0
ARC
  5
25B
330
1F
100
AcDbEntity
  8
1
  6
Continuous
 62
     3
100
AcDbCircle
 10
237.4339552310998
 20
453.0406434756033
 30
0.0
 40
11.50000000000006
100
AcDbArc
 50
161.6450253534822
 51
198.3549746465189
  0
ARC
  5
25C
330
1F
100
AcDbEntity
  8
1
  6
Continuous
 62
     3
100
AcDbCircle
 10
237.4339552310998
 20
453.0406434756033
 30
0.0
 40
11.50000000000003
100
AcDbArc
 50
251.645025353483
 51
288.3549746465171
  0
ARC
  5
290
330
1F
100
AcDbEntity
  8
1
  6
Continuous
 62
     3
100
AcDbCircle
 10
234.8839552310998
 20
384.6157482724373
 30
0.0
 40
1.300000000000419
100
AcDbArc
 50
109.3397341389717
 51
157.3801350519599
  0
ARC
  5
291
330
1F
100
AcDbEntity
  8
1
  6
Continuous
 62
     3
100
AcDbCircle
 10
239.9839552310997
 20
384.6157482724373
 30
0.0
 40
1.300000000000527
100
AcDbArc
 50
22.61986494808774
 51
70.66026586102
  0
ARC
  5
292
330
1F
100
AcDbEntity
  8
1
  6
Continuous
 62
     3
100
AcDbCircle
 10
237.4339552310998
 20
377.3502476014583
 30
0.0
 40
9.000000000000227
100
AcDbArc
 50
70.66026586102593
 51
109.3397341389732
  0
ARC
  5
293
330
1F
100
AcDbEntity
  8
3
  6
Continuous
 62
     3
100
AcDbCircle
 10
257.0839552310997
 20
317.6502476014582
 30
0.0
 40
1.850000000000023
100
AcDbArc
 50
270.0
 51
280.905469996726
  0
ARC
  5
298
330
1F
100
AcDbEntity
  8
3
  6
DOTTED
 62
     6
100
AcDbCircle
 10
260.4339552310998
 20
374.5272386307092
 30
0.0
 40
6.0
100
AcDbArc
 50
0.0
 51
69.44454780460937
  0
ARC
  5
299
330
1F
100
AcDbEntity
  8
3
  6
DOTTED
 62
     6
100
AcDbCircle
 10
263.9339552310998
 20
368.0502476014582
 30
0.0
 40
2.5
100
AcDbArc
 50
270.0
 51
0.0
  0
ARC
  5
29A
330
1F
100
AcDbEntity
  8
3
  6
DOTTED
 62
     6
100
AcDbCircle
 10
210.9339552310998
 20
368.0502476014582
 30
0.0
 40
2.5
100
AcDbArc
 50
180.0
 51
270.0
  0
ARC
  5
29B
330
1F
100
AcDbEntity
  8
3
  6
DOTTED
 62
     6
100
AcDbCircle
 10
214.4339552310998
 20
374.5272386307092
 30
0.0
 40
6.000000000000725
100
AcDbArc
 50
110.5554521953914
 51
180.0
  0
ARC
  5
29C
330
1F
100
AcDbEntity
  8
3
  6
DOTTED
 62
     6
100
AcDbCircle
 10
236.9052352536442
 20
314.6019386802845
 30
0.0
 40
70.00000000000004
100
AcDbArc
 50
101.2741638648807
 51
110.5554521953942
  0
ARC
  5
29D
330
1F
100
AcDbEntity
  8
3
  6
DOTTED
 62
     6
100
AcDbCircle
 10
226.2502705203949
 20
368.0502476014582
 30
0.0
 40
15.5
100
AcDbArc
 50
90.0
 51
101.2741638648807
  0
ARC
  5
29E
330
1F
100
AcDbEntity
  8
3
  6
DOTTED
 62
     6
100
AcDbCircle
 10
248.6176399418046
 20
368.0502476014582
 30
0.0
 40
15.50000000000002
100
AcDbArc
 50
78.72583613511944
 51
90.0
  0
ARC
  5
29F
330
1F
100
AcDbEntity
  8
3
  6
DOTTED
 62
     6
100
AcDbCircle
 10
237.9626752085553
 20
314.6019386802845
 30
0.0
 40
70.0000000000005
100
AcDbArc
 50
69.44454780460583
 51
78.72583613511935
  0
ARC
  5
2A0
330
1F
100
AcDbEntity
  8
3
  6
Continuous
 62
     3
100
AcDbCircle
 10
226.2502705203949
 20
374.0502476014582
 30
0.0
 40
15.5
100
AcDbArc
 50
90.0
 51
101.2741638648807
  0
ARC
  5
2A1
330
1F
100
AcDbEntity
  8
3
  6
Continuous
 62
     3
100
AcDbCircle
 10
248.6176399418046
 20
374.0502476014582
 30
0.0
 40
15.50000000000002
100
AcDbArc
 50
78.72583613511944
 51
90.0
  0
ARC
  5
2A2
330
1F
100
AcDbEntity
  8
3
  6
Continuous
 62
     3
100
AcDbCircle
 10
234.2907794873745
 20
374.0502476014582
 30
0.0
 40
2.5
100
AcDbArc
 50
180.0
 51
270.0
  0
ARC
  5
2A3
330
1F
100
AcDbEntity
  8
3
  6
Continuous
 62
     3
100
AcDbCircle
 10
223.9726572826439
 20
374.0502476014582
 30
0.0
 40
2.5
100
AcDbArc
 50
180.0
 51
270.0
  0
ARC
  5
2A4
330
1F
100
AcDbEntity
  8
3
  6
Continuous
 62
     3
100
AcDbCircle
 10
215.9920016110127
 20
374.0502476014582
 30
0.0
 40
2.5
100
AcDbArc
 50
180.0
 51
270.0
  0
ARC
  5
2A5
330
1F
100
AcDbEntity
  8
3
  6
Continuous
 62
     3
100
AcDbCircle
 10
211.7180954555904
 20
374.0502476014582
 30
0.0
 40
2.5
100
AcDbArc
 50
180.0
 51
270.0
  0
ARC
  5
2A6
330
1F
100
AcDbEntity
  8
3
  6
Continuous
 62
     3
100
AcDbCircle
 10
240.5771309748252
 20
374.0502476014582
 30
0.0
 40
2.5
100
AcDbArc
 50
270.0
 51
0.0
  0
ARC
  5
2A7
330
1F
100
AcDbEntity
  8
3
  6
Continuous
 62
     3
100
AcDbCircle
 10
250.8952531795556
 20
374.0502476014582
 30
0.0
 40
2.5
100
AcDbArc
 50
270.0
 51
0.0
  0
ARC
  5
2A8
330
1F
100
AcDbEntity
  8
3
  6
Continuous
 62
     3
100
AcDbCircle
 10
258.8759088511868
 20
374.0502476014582
 30
0.0
 40
2.5
100
AcDbArc
 50
270.0
 51
0.0
  0
ARC
  5
2A9
330
1F
100
AcDbEntity
  8
3
  6
Continuous
 62
     3
100
AcDbCircle
 10
263.1498150066091
 20
374.0502476014582
 30
0.0
 40
2.5
100
AcDbArc
 50
270.0
 51
0.0
  0
ARC
  5
2AA
330
1F
100
AcDbEntity
  8
3
  6
Continuous
 62
     3
100
AcDbCircle
 10
237.9626752085553
 20
320.6019386802845
 30
0.0
 40
70.0000000000005
100
AcDbArc
 50
69.44454780460583
 51
78.72583613511935
  0
ARC
  5
2AB
330
1F
100
AcDbEntity
  8
3
  6
Continuous
 62
     3
100
AcDbCircle
 10
260.4339552310998
 20
380.5272386307092
 30
0.0
 40
6.0
100
AcDbArc
 50
0.0
 51
69.44454780460937
  0
ARC
  5
2AC
330
1F
100
AcDbEntity
  8
3
  6
Continuous
 62
     3
100
AcDbCircle
 10
263.9339552310998
 20
374.0502476014582
 30
0.0
 40
2.5
100
AcDbArc
 50
270.0
 51
0.0
  0
ARC
  5
2AD
330
1F
100
AcDbEntity
  8
3
  6
Continuous
 62
     3
100
AcDbCircle
 10
210.9339552310998
 20
374.0502476014582
 30
0.0
 40
2.5
100
AcDbArc
 50
180.0
 51
270.0
  0
ARC
  5
2AE
330
1F
100
AcDbEntity
  8
3
  6
Continuous
 62
     3
100
AcDbCircle
 10
214.4339552310998
 20
380.5272386307092
 30
0.0
 40
6.000000000000725
100
AcDbArc
 50
110.5554521953914
 51
180.0
  0
ARC
  5
2AF
330
1F
100
AcDbEntity
  8
3
  6
Continuous
 62
     3
100
AcDbCircle
 10
236.9052352536442
 20
320.6019386802845
 30
0.0
 40
70.00000000000004
100
AcDbArc
 50
101.2741638648807
 51
110.5554521953942
  0
ARC
  5
2B0
330
1F
100
AcDbEntity
  8
3
  6
Continuous
 62
     3
100
AcDbCircle
 10
216.3573767364585
 20
341.1962555180013
 30
0.0
 40
1.0
100
AcDbArc
 50
90.0
 51
178.9583733240184
  0
ARC
  5
2B1
330
1F
100
AcDbEntity
  8
3
  6
Continuous
 62
     3
100
AcDbCircle
 10
217.959252254979
 20
342.9462555180013
 30
0.0
 40
0.75
100
AcDbArc
 50
270.0
 51
358.5679038158309
  0
ARC
  5
2B2
330
1F
100
AcDbEntity
  8
3
  6
Continuous
 62
     3
100
AcDbCircle
 10
221.0413614957436
 20
356.1962555180013
 30
0.0
 40
2.0
100
AcDbArc
 50
90.0
 51
178.5679038158465
  0
ARC
  5
2B3
330
1F
100
AcDbEntity
  8
3
  6
Continuous
 62
     3
100
AcDbCircle
 10
229.4697416687266
 20
358.9462555180013
 30
0.0
 40
0.75
100
AcDbArc
 50
270.0
 51
340.5287793655102
  0
ARC
  5
2B4
330
1F
100
AcDbEntity
  8
3
  6
Continuous
 62
     3
100
AcDbCircle
 10
230.8839552310997
 20
358.4462555180013
 30
0.0
 40
0.75
100
AcDbArc
 50
90.0
 51
160.528779365508
  0
ARC
  5
2B5
330
1F
100
AcDbEntity
  8
3
  6
Continuous
 62
     3
100
AcDbCircle
 10
258.510533725741
 20
341.1962555180013
 30
0.0
 40
1.000000000000033
100
AcDbArc
 50
1.04162667598161
 51
90.0
  0
ARC
  5
2B6
330
1F
100
AcDbEntity
  8
3
  6
Continuous
 62
     3
100
AcDbCircle
 10
256.9086582072205
 20
342.9462555180013
 30
0.0
 40
0.7500000000001129
100
AcDbArc
 50
181.4320961841691
 51
270.0
  0
ARC
  5
2B7
330
1F
100
AcDbEntity
  8
3
  6
Continuous
 62
     3
100
AcDbCircle
 10
253.8265489664558
 20
356.1962555180013
 30
0.0
 40
2.000000000000069
100
AcDbArc
 50
1.43209618415352
 51
90.0
  0
ARC
  5
2B8
330
1F
100
AcDbEntity
  8
3
  6
Continuous
 62
     3
100
AcDbCircle
 10
245.3981687934729
 20
358.9462555180013
 30
0.0
 40
0.7499999999999517
100
AcDbArc
 50
199.471220634492
 51
270.0
  0
ARC
  5
2B9
330
1F
100
AcDbEntity
  8
3
  6
Continuous
 62
     3
100
AcDbCircle
 10
243.9839552310998
 20
358.4462555180013
 30
0.0
 40
0.750000000000059
100
AcDbArc
 50
19.4712206344891
 51
90.0
  0
ARC
  5
2BA
330
1F
100
AcDbEntity
  8
3
  6
Continuous
 62
     3
100
AcDbCircle
 10
219.449587018677
 20
283.3002476014582
 30
0.0
 40
10.00000000000018
100
AcDbArc
 50
66.44353569089827
 51
90.0
  0
ARC
  5
2BB
330
1F
100
AcDbEntity
  8
3
  6
Continuous
 62
     3
100
AcDbCircle
 10
217.7839552310998
 20
291.4502476014583
 30
0.0
 40
1.849999999999909
100
AcDbArc
 50
90.0
 51
180.0
  0
ARC
  5
2BC
330
1F
100
AcDbEntity
  8
3
  6
Continuous
 62
     3
100
AcDbCircle
 10
217.9339552310998
 20
318.8002476014582
 30
0.0
 40
3.0
100
AcDbArc
 50
270.0
 51
0.0
  0
ARC
  5
2BD
330
1F
100
AcDbEntity
  8
3
  6
Continuous
 62
     3
100
AcDbCircle
 10
217.7839552310998
 20
317.6502476014582
 30
0.0
 40
1.850000000000023
100
AcDbArc
 50
180.0
 51
270.0
  0
ARC
  5
2BE
330
1F
100
AcDbEntity
  8
3
  6
Continuous
 62
     3
100
AcDbCircle
 10
255.4183234435225
 20
283.3002476014582
 30
0.0
 40
10.0
100
AcDbArc
 50
90.0
 51
113.5564643091016
  0
ARC
  5
2BF
330
1F
100
AcDbEntity
  8
3
  6
Continuous
 62
     3
100
AcDbCircle
 10
237.4339552310998
 20
324.5502476014582
 30
0.0
 40
34.99999999999985
100
AcDbArc
 50
246.4435356908988
 51
293.5564643091011
  0
ARC
  5
2C0
330
1F
100
AcDbEntity
  8
3
  6
Continuous
 62
     3
100
AcDbCircle
 10
257.0839552310997
 20
291.4502476014583
 30
0.0
 40
1.850000000000037
100
AcDbArc
 50
79.09453000327274
 51
90.0
  0
ARC
  5
2C1
330
1F
100
AcDbEntity
  8
3
  6
Continuous
 62
     3
100
AcDbCircle
 10
256.9339552310998
 20
318.8002476014582
 30
0.0
 40
3.0
100
AcDbArc
 50
180.0
 51
270.0
  0
ARC
  5
2C2
330
1F
100
AcDbEntity
  8
1
  6
Continuous
 62
     3
100
AcDbCircle
 10
267.1446899325622
 20
304.5502476014582
 30
0.0
 40
29.61559583910634
100
AcDbArc
 50
342.4120462260071
 51
17.58795377399331
  0
ARC
  5
2C3
330
1F
100
AcDbEntity
  8
1
  6
Continuous
 62
     3
100
AcDbCircle
 10
288.8372352515567
 20
291.1268538427992
 30
0.0
 40
7.923050520111588
100
AcDbArc
 50
325.6157525319622
 51
34.38424746804394
  0
ARC
  5
2C4
330
1F
100
AcDbEntity
  8
1
  6
Continuous
 62
     3
100
AcDbCircle
 10
286.6833362917804
 20
291.1268538427992
 30
0.0
 40
7.923050520112072
100
AcDbArc
 50
145.6157525319556
 51
214.3842474680383
  0
ARC
  5
2C5
330
1F
100
AcDbEntity
  8
1
  6
Continuous
 62
     3
100
AcDbCircle
 10
308.3758816107748
 20
304.5502476014582
 30
0.0
 40
29.6155958391062
100
AcDbArc
 50
162.4120462260066
 51
197.587953773993
  0
ARC
  5
2C6
330
1F
100
AcDbEntity
  8
1
  6
Continuous
 62
     3
100
AcDbCircle
 10
288.8372352515568
 20
317.9736413601173
 30
0.0
 40
7.92305052011204
100
AcDbArc
 50
325.6157525319559
 51
34.38424746803796
  0
ARC
  5
2C7
330
1F
100
AcDbEntity
  8
1
  6
Continuous
 62
     3
100
AcDbCircle
 10
286.6833362917804
 20
317.9736413601173
 30
0.0
 40
7.923050520111462
100
AcDbArc
 50
145.615752531962
 51
214.3842474680441
  0
ARC
  5
2C8
330
1F
100
AcDbEntity
  8
1
  6
Continuous
 62
     3
100
AcDbCircle
 10
368.722874875873
 20
304.5502476014582
 30
0.0
 40
15.99999999999998
100
AcDbArc
 50
45.63848843708038
 51
74.36151156292063
  0
ARC
  5
2C9
330
1F
100
AcDbEntity
  8
1
  6
Continuous
 62
     3
100
AcDbCircle
 10
368.722874875873
 20
304.5502476014582
 30
0.0
 40
16.0
100
AcDbArc
 50
345.6384884370834
 51
0.0
  0
ARC
  5
2CA
330
1F
100
AcDbEntity
  8
1
  6
Continuous
 62
     3
100
AcDbCircle
 10
368.722874875873
 20
304.5502476014582
 30
0.0
 40
15.99999999999995
100
AcDbArc
 50
105.6384884370794
 51
134.3615115629198
  0
ARC
  5
2CB
330
1F
100
AcDbEntity
  8
1
  6
Continuous
 62
     3
100
AcDbCircle
 10
368.722874875873
 20
304.5502476014582
 30
0.0
 40
16.0
100
AcDbArc
 50
165.6384884370834
 51
194.3615115629166
  0
ARC
  5
2CC
330
1F
100
AcDbEntity
  8
1
  6
Continuous
 62
     3
100
AcDbCircle
 10
368.722874875873
 20
304.5502476014582
 30
0.0
 40
16.00000000000002
100
AcDbArc
 50
225.6384884370808
 51
254.3615115629202
  0
ARC
  5
2CD
330
1F
100
AcDbEntity
  8
1
  6
Continuous
 62
     3
100
AcDbCircle
 10
368.722874875873
 20
304.5502476014582
 30
0.0
 40
15.99999999999996
100
AcDbArc
 50
285.6384884370796
 51
314.3615115629192
  0
ARC
  5
2CE
330
1F
100
AcDbEntity
  8
1
  6
Continuous
 62
     3
100
AcDbCircle
 10
368.722874875873
 20
304.5502476014582
 30
0.0
 40
16.0
100
AcDbArc
 50
0.0
 51
14.36151156291661
  0
ARC
  5
2CF
330
1F
100
AcDbEntity
  8
1
  6
Continuous
 62
     3
100
AcDbCircle
 10
384.472874875873
 20
316.8002476014582
 30
0.0
 40
0.75
100
AcDbArc
 50
270.0
 51
0.0
  0
ARC
  5
2D0
330
1F
100
AcDbEntity
  8
1
  6
Continuous
 62
     3
100
AcDbCircle
 10
384.472874875873
 20
315.3002476014582
 30
0.0
 40
0.75
100
AcDbArc
 50
90.0
 51
180.0
  0
ARC
  5
2D1
330
1F
100
AcDbEntity
  8
1
  6
Continuous
 62
     3
100
AcDbCircle
 10
352.972874875873
 20
316.8002476014582
 30
0.0
 40
0.75
100
AcDbArc
 50
180.0
 51
270.0
  0
ARC
  5
2D2
330
1F
100
AcDbEntity
  8
1
  6
Continuous
 62
     3
100
AcDbCircle
 10
352.972874875873
 20
315.3002476014582
 30
0.0
 40
0.75
100
AcDbArc
 50
0.0
 51
90.0
  0
ARC
  5
2D3
330
1F
100
AcDbEntity
  8
3
  6
Continuous
 62
     3
100
AcDbCircle
 10
375.272874875873
 20
358.4462555180013
 30
0.0
 40
0.750000000000059
100
AcDbArc
 50
19.4712206344891
 51
90.0
  0
ARC
  5
2D4
330
1F
100
AcDbEntity
  8
3
  6
Continuous
 62
     3
100
AcDbCircle
 10
376.6870884382461
 20
358.9462555180013
 30
0.0
 40
0.7499999999999517
100
AcDbArc
 50
199.471220634492
 51
270.0
  0
ARC
  5
2D5
330
1F
100
AcDbEntity
  8
3
  6
Continuous
 62
     3
100
AcDbCircle
 10
385.115468611229
 20
356.1962555180013
 30
0.0
 40
2.000000000000041
100
AcDbArc
 50
1.43209618415354
 51
90.0
  0
ARC
  5
2D6
330
1F
100
AcDbEntity
  8
3
  6
Continuous
 62
     3
100
AcDbCircle
 10
388.1975778519937
 20
342.9462555180013
 30
0.0
 40
0.7500000000001129
100
AcDbArc
 50
181.4320961841691
 51
270.0
  0
ARC
  5
2D7
330
1F
100
AcDbEntity
  8
3
  6
Continuous
 62
     3
100
AcDbCircle
 10
389.7994533705142
 20
341.1962555180013
 30
0.0
 40
1.00000000000009
100
AcDbArc
 50
1.04162667598156
 51
90.0
  0
ARC
  5
2D8
330
1F
100
AcDbEntity
  8
3
  6
Continuous
 62
     3
100
AcDbCircle
 10
362.1728748758729
 20
358.4462555180013
 30
0.0
 40
0.75
100
AcDbArc
 50
90.0
 51
160.528779365508
  0
ARC
  5
2D9
330
1F
100
AcDbEntity
  8
3
  6
Continuous
 62
     3
100
AcDbCircle
 10
360.7586613134998
 20
358.9462555180013
 30
0.0
 40
0.75
100
AcDbArc
 50
270.0
 51
340.5287793655109
  0
ARC
  5
2DA
330
1F
100
AcDbEntity
  8
3
  6
Continuous
 62
     3
100
AcDbCircle
 10
352.3302811405168
 20
356.1962555180013
 30
0.0
 40
2.0
100
AcDbArc
 50
90.0
 51
178.5679038158465
  0
ARC
  5
2DB
330
1F
100
AcDbEntity
  8
3
  6
Continuous
 62
     3
100
AcDbCircle
 10
349.2481718997522
 20
342.9462555180013
 30
0.0
 40
0.75
100
AcDbArc
 50
270.0
 51
358.5679038158309
  0
ARC
  5
2DC
330
1F
100
AcDbEntity
  8
3
  6
Continuous
 62
     3
100
AcDbCircle
 10
347.6462963812317
 20
341.1962555180013
 30
0.0
 40
1.0
100
AcDbArc
 50
90.0
 51
178.9583733240185
  0
ARC
  5
2DD
330
1F
100
AcDbEntity
  8
3
  6
Continuous
 62
     3
100
AcDbCircle
 10
368.1941548984174
 20
320.6019386802845
 30
0.0
 40
70.00000000000004
100
AcDbArc
 50
101.2741638648807
 51
110.5554521953942
  0
ARC
  5
2DE
330
1F
100
AcDbEntity
  8
3
  6
Continuous
 62
     3
100
AcDbCircle
 10
345.722874875873
 20
380.5272386307092
 30
0.0
 40
6.000000000000735
100
AcDbArc
 50
110.5554521953917
 51
180.0
  0
ARC
  5
2DF
330
1F
100
AcDbEntity
  8
3
  6
Continuous
 62
     3
100
AcDbCircle
 10
342.222874875873
 20
374.0502476014582
 30
0.0
 40
2.5
100
AcDbArc
 50
180.0
 51
270.0
  0
ARC
  5
2E0
330
1F
100
AcDbEntity
  8
3
  6
Continuous
 62
     3
100
AcDbCircle
 10
395.222874875873
 20
374.0502476014582
 30
0.0
 40
2.5
100
AcDbArc
 50
270.0
 51
0.0
  0
ARC
  5
2E1
330
1F
100
AcDbEntity
  8
3
  6
Continuous
 62
     3
100
AcDbCircle
 10
391.722874875873
 20
380.5272386307092
 30
0.0
 40
6.0
100
AcDbArc
 50
0.0
 51
69.44454780460937
  0
ARC
  5
2E2
330
1F
100
AcDbEntity
  8
3
  6
Continuous
 62
     3
100
AcDbCircle
 10
369.2515948533285
 20
320.6019386802845
 30
0.0
 40
70.0000000000005
100
AcDbArc
 50
69.44454780460583
 51
78.72583613511935
  0
ARC
  5
2E3
330
1F
100
AcDbEntity
  8
3
  6
Continuous
 62
     3
100
AcDbCircle
 10
394.4387346513823
 20
374.0502476014582
 30
0.0
 40
2.5
100
AcDbArc
 50
270.0
 51
0.0
  0
ARC
  5
2E4
330
1F
100
AcDbEntity
  8
3
  6
Continuous
 62
     3
100
AcDbCircle
 10
390.16482849596
 20
374.0502476014582
 30
0.0
 40
2.5
100
AcDbArc
 50
270.0
 51
0.0
  0
ARC
  5
2E5
330
1F
100
AcDbEntity
  8
3
  6
Continuous
 62
     3
100
AcDbCircle
 10
382.1841728243288
 20
374.0502476014582
 30
0.0
 40
2.5
100
AcDbArc
 50
270.0
 51
0.0
  0
ARC
  5
2E6
330
1F
100
AcDbEntity
  8
3
  6
Continuous
 62
     3
100
AcDbCircle
 10
371.8660506195984
 20
374.0502476014582
 30
0.0
 40
2.5
100
AcDbArc
 50
270.0
 51
0.0
  0
ARC
  5
2E7
330
1F
100
AcDbEntity
  8
3
  6
Continuous
 62
     3
100
AcDbCircle
 10
343.0070151003636
 20
374.0502476014582
 30
0.0
 40
2.5
100
AcDbArc
 50
180.0
 51
270.0
  0
ARC
  5
2E8
330
1F
100
AcDbEntity
  8
3
  6
Continuous
 62
     3
100
AcDbCircle
 10
347.2809212557859
 20
374.0502476014582
 30
0.0
 40
2.5
100
AcDbArc
 50
180.0
 51
270.0
  0
ARC
  5
2E9
330
1F
100
AcDbEntity
  8
3
  6
Continuous
 62
     3
100
AcDbCircle
 10
355.2615769274171
 20
374.0502476014582
 30
0.0
 40
2.5
100
AcDbArc
 50
180.0
 51
270.0
  0
ARC
  5
2EA
330
1F
100
AcDbEntity
  8
3
  6
Continuous
 62
     3
100
AcDbCircle
 10
365.5796991321477
 20
374.0502476014582
 30
0.0
 40
2.5
100
AcDbArc
 50
180.0
 51
270.0
  0
ARC
  5
2EB
330
1F
100
AcDbEntity
  8
3
  6
Continuous
 62
     3
100
AcDbCircle
 10
379.9065595865778
 20
374.0502476014582
 30
0.0
 40
15.50000000000002
100
AcDbArc
 50
78.72583613511944
 51
90.0
  0
ARC
  5
2EC
330
1F
100
AcDbEntity
  8
3
  6
Continuous
 62
     3
100
AcDbCircle
 10
357.5391901651681
 20
374.0502476014582
 30
0.0
 40
15.5
100
AcDbArc
 50
90.0
 51
101.2741638648808
  0
ARC
  5
2EF
330
1F
100
AcDbEntity
  8
1
  6
Continuous
 62
     3
100
AcDbCircle
 10
368.722874875873
 20
377.3502476014583
 30
0.0
 40
9.000000000000227
100
AcDbArc
 50
70.66026586102593
 51
86.81526146327955
  0
ARC
  5
2F0
330
1F
100
AcDbEntity
  8
1
  6
Continuous
 62
     3
100
AcDbCircle
 10
371.272874875873
 20
384.6157482724373
 30
0.0
 40
1.300000000000449
100
AcDbArc
 50
22.61986494808918
 51
70.66026586102355
  0
ARC
  5
2F1
330
1F
100
AcDbEntity
  8
1
  6
Continuous
 62
     3
100
AcDbCircle
 10
366.1728748758731
 20
384.6157482724373
 30
0.0
 40
1.300000000000419
100
AcDbArc
 50
109.3397341389717
 51
157.3801350519613
  0
ARC
  5
2F2
330
1F
100
AcDbEntity
  8
1
  6
Continuous
 62
     3
100
AcDbCircle
 10
368.722874875873
 20
377.3502476014583
 30
0.0
 40
8.999999999999885
100
AcDbArc
 50
93.18473853672046
 51
109.3397341389727
  0
CIRCLE
  5
2F3
330
1F
100
AcDbEntity
  8
1
  6
Continuous
 62
     3
100
AcDbCircle
 10
237.4339552310998
 20
453.0406434756033
 30
0.0
 40
3.850000000000023
  0
CIRCLE
  5
2F4
330
1F
100
AcDbEntity
  8
1
  6
Continuous
 62
     3
100
AcDbCircle
 10
368.722874875873
 20
304.5502476014582
 30
0.0
 40
11.64999999999998
  0
CIRCLE
  5
2F5
330
1F
100
AcDbEntity
  8
1
  6
Continuous
 62
     3
100
AcDbCircle
 10
368.722874875873
 20
304.5502476014582
 30
0.0
 40
9.75
  0
CIRCLE
  5
2F6
330
1F
100
AcDbEntity
  8
1
  6
Continuous
 62
     3
100
AcDbCircle
 10
368.722874875873
 20
304.5502476014582
 30
0.0
 40
9.5
  0
CIRCLE
  5
2F7
330
1F
100
AcDbEntity
  8
1
  6
Continuous
 62
     3
100
AcDbCircle
 10
368.722874875873
 20
304.5502476014582
 30
0.0
 40
9.25
  0
CIRCLE
  5
2F8
330
1F
100
AcDbEntity
  8
1
  6
Continuous
 62
     3
100
AcDbCircle
 10
368.722874875873
 20
304.5502476014582
 30
0.0
 40
6.800000000000011
  0
CIRCLE
  5
2F9
330
1F
100
AcDbEntity
  8
1
  6
Continuous
 62
     3
100
AcDbCircle
 10
368.722874875873
 20
304.5502476014582
 30
0.0
 40
5.800000000000011
  0
CIRCLE
  5
2FA
330
1F
100
AcDbEntity
  8
1
  6
Continuous
 62
     3
100
AcDbCircle
 10
368.722874875873
 20
304.5502476014582
 30
0.0
 40
15.5
  0
CIRCLE
  5
2FB
330
1F
100
AcDbEntity
  8
1
  6
Continuous
 62
     3
100
AcDbCircle
 10
368.722874875873
 20
304.5502476014582
 30
0.0
 40
11.80000000000007
  0
CIRCLE
  5
2FC
330
1F
100
AcDbEntity
  8
1
  6
Continuous
 62
     3
100
AcDbCircle
 10
368.722874875873
 20
304.5502476014582
 30
0.0
 40
12.30000000000007
  0
CIRCLE
  5
2FD
330
1F
100
AcDbEntity
  8
1
  6
Continuous
 62
     3
100
AcDbCircle
 10
368.722874875873
 20
304.5502476014582
 30
0.0
 40
13.22050000000002
  0
LWPOLYLINE
  5
2FE
330
1F
100
AcDbEntity
  8
1
  6
Continuous
 62
     3
100
AcDbPolyline
 90
       37
 70
     1
 43
0.0
 10
266.4339552310998
 20
453.0406434756033
 42
0.03524230352864
 10
266.1465210422409
 20
457.1135496298001
 42
0.16697572803969
 10
264.6698850853455
 20
460.007526444904
 42
-0.1028628272365
 10
262.3787026089045
 20
463.3730961494603
 42
-0.1028628272365
 10
261.6189961142841
 20
467.3730239761352
 42
0.16697572803969
 10
260.6167847821922
 20
470.4635139051563
 42
0.07057225921172
 10
254.8568256606532
 20
476.223473026695
 42
0.16697572803972
 10
251.7663357316321
 20
477.2256843587875
 42
-0.20792566630112
 10
244.4008382004011
 20
480.2765733298483
 42
0.16697572803971
 10
241.5068613852969
 20
481.7532092867436
 42
0.07057225921172
 10
233.3610490769026
 20
481.7532092867441
 42
0.16697572803971
 10
230.4670722617982
 20
480.2765733298486
 42
-0.20792566630113
 10
223.1015747305675
 20
477.2256843587873
 42
0.16697572803972
 10
220.0110848015464
 20
476.2234730266951
 42
0.07057225921172
 10
214.2511256800075
 20
470.4635139051563
 42
0.16697572803969
 10
213.2489143479158
 20
467.3730239761352
 42
-0.20792566630113
 10
210.1980253768541
 20
460.0075264449041
 42
0.11824225874853
 10
208.9447481917915
 20
458.0406434756033
 42
0.04778992474284
 10
208.7213894199586
 20
457.1135496298001
 42
0.07057225921171
 10
208.7213894199588
 20
448.9677373214062
 42
0.04778992474283
 10
208.9447481917914
 20
448.0406434756032
 42
0.11824225874855
 10
210.1980253768539
 20
446.0737605063021
 42
-0.20792566630112
 10
213.2489143479156
 20
438.7082629750712
 42
0.16697572803974
 10
214.2511256800076
 20
435.6177730460492
 42
0.07057225921172
 10
220.0110848015462
 20
429.8578139245109
 42
0.16697572803972
 10
223.1015747305675
 20
428.8556025924188
 42
-0.20792566630112
 10
230.4670722617985
 20
425.8047136213572
 42
0.16697572803971
 10
233.3610490769026
 20
424.3280776644619
 42
0.07057225921172
 10
241.506861385297
 20
424.3280776644622
 42
0.16697572803971
 10
244.4008382004009
 20
425.8047136213575
 42
-0.20792566630112
 10
251.7663357316321
 20
428.8556025924193
 42
0.16697572803972
 10
254.856825660653
 20
429.8578139245115
 42
0.07057225921172
 10
260.6167847821917
 20
435.6177730460494
 42
0.16697572803973
 10
261.6189961142845
 20
438.7082629750712
 42
-0.20792566630111
 10
264.6698850853455
 20
446.0737605063022
 42
0.16697572803972
 10
266.1465210422405
 20
448.9677373214063
 42
0.03524230352865
 10
266.4339552310998
 20
453.0406434756033
  0
LWPOLYLINE
  5
2FF
330
1F
100
AcDbEntity
  8
1
  6
Continuous
 62
     3
100
AcDbPolyline
 90
        8
 70
     0
 43
0.0
 10
211.0933118564335
 20
460.9959857500412
 42
0.60002697727055
 10
212.5054824898252
 20
457.761322147363
 10
227.6979343055675
 20
456.5695522860962
 42
0.3245869568289
 10
228.1987946430354
 20
456.8762410708491
 42
-0.19841928723585
 10
233.5983576358533
 20
462.2758040636672
 42
0.32458695682937
 10
233.9050464206063
 20
462.7766644011352
 10
232.7132765593388
 20
477.9691162168772
 42
0.60002697727053
 10
229.4786129566619
 20
479.3812868502695
  0
LWPOLYLINE
  5
300
330
1F
100
AcDbEntity
  8
1
  6
Continuous
 62
     3
100
AcDbPolyline
 90
        8
 70
     0
 43
0.0
 10
245.3892975055376
 20
479.3812868502693
 42
0.60002697727053
 10
242.154633902861
 20
477.9691162168772
 10
240.962864041593
 20
462.7766644011352
 42
0.32458695682903
 10
241.2695528263467
 20
462.2758040636679
 42
-0.19841928723585
 10
246.6691158191642
 20
456.8762410708492
 42
0.32458695682891
 10
247.1699761566321
 20
456.5695522860962
 10
262.3624279723743
 20
457.7613221473642
 42
0.60002697727054
 10
263.7745986057651
 20
460.9959857500405
  0
LWPOLYLINE
  5
301
330
1F
100
AcDbEntity
  8
1
  6
Continuous
 62
     3
100
AcDbPolyline
 90
        8
 70
     0
 43
0.0
 10
263.7745986057661
 20
445.0853012011652
 42
0.60002697727042
 10
262.3624279723742
 20
448.3199648038417
 10
247.1699761566321
 20
449.5117346651102
 42
0.32458695682934
 10
246.6691158191638
 20
449.2050458803564
 42
-0.19841928723583
 10
241.2695528263463
 20
443.8054828875382
 42
0.32458695682881
 10
240.9628640415933
 20
443.3046225500713
 10
242.1546339028609
 20
428.1121707343282
 42
0.60002697727035
 10
245.3892975055377
 20
426.7000001009371
  0
LWPOLYLINE
  5
302
330
1F
100
AcDbEntity
  8
1
  6
Continuous
 62
     3
100
AcDbPolyline
 90
        8
 70
     0
 43
0.0
 10
229.478612956662
 20
426.7000001009373
 42
0.60002697727034
 10
232.7132765593384
 20
428.1121707343282
 10
233.9050464206066
 20
443.3046225500713
 42
0.3245869568288
 10
233.5983576358534
 20
443.8054828875384
 42
-0.19841928723584
 10
228.1987946430353
 20
449.2050458803562
 42
0.32458695682935
 10
227.6979343055675
 20
449.5117346651097
 10
212.5054824898253
 20
448.3199648038423
 42
0.60002697727042
 10
211.093311856433
 20
445.0853012011648
  0
LWPOLYLINE
  5
303
330
1F
100
AcDbEntity
  8
1
  6
Continuous
 62
     3
100
AcDbPolyline
 90
        9
 70
     1
 43
0.0
 10
280.1446899325627
 20
322.4481059463363
 10
295.3758816107745
 20
322.4481059463363
 10
296.7602857716686
 20
320.0502476014582
 10
296.7602857716686
 20
289.0502476014582
 10
295.3758816107745
 20
286.6523892565802
 10
280.1446899325627
 20
286.6523892565802
 10
278.7602857716686
 20
289.0502476014582
 10
278.7602857716686
 20
320.0502476014582
 10
280.1446899325627
 20
322.4481059463363
  0
LWPOLYLINE
  5
304
330
1F
100
AcDbEntity
  8
3
  6
Continuous
 62
     3
100
AcDbPolyline
 90
        9
 70
     1
 43
0.0
 10
250.4339552306997
 20
304.5502476014582
 10
243.9339552308998
 20
299.5502476014582
 10
244.6561774530998
 20
303.1216761728869
 10
237.4339552310998
 20
303.1216761728869
 10
235.2672885644997
 20
299.5502476014582
 10
224.4339552314998
 20
299.5502476014582
 10
226.6006218980997
 20
303.1216761728869
 10
226.6006218980997
 20
304.5502476014582
 10
250.4339552306997
 20
304.5502476014582
  0
LWPOLYLINE
  5
305
330
1F
100
AcDbEntity
  8
3
  6
Continuous
 62
     3
100
AcDbPolyline
 90
        4
 70
     0
 43
0.0
 10
226.2502705203949
 20
389.5502476014582
 10
231.1839552310998
 20
389.5502476014582
 42
-0.41421356237303
 10
233.6839552310998
 20
387.0502476014582
 10
233.6839552310998
 20
381.5502476014582
  0
LWPOLYLINE
  5
306
330
1F
100
AcDbEntity
  8
3
  6
Continuous
 62
     3
100
AcDbPolyline
 90
        4
 70
     0
 43
0.0
 10
248.6176399418046
 20
389.5502476014582
 10
243.6839552310998
 20
389.5502476014582
 42
0.41421356237327
 10
241.1839552311001
 20
387.0502476014582
 10
241.1839552310998
 20
381.5502476014582
  0
LWPOLYLINE
  5
307
330
1F
100
AcDbEntity
  8
3
  6
DOTTED
 62
     6
100
AcDbPolyline
 90
        4
 70
     0
 43
0.0
 10
248.6176399418046
 20
383.5502476014582
 10
243.6839552310998
 20
383.5502476014582
 42
0.41421356237327
 10
241.1839552311001
 20
381.0502476014582
 10
241.1839552310998
 20
375.5502476014582
  0
LWPOLYLINE
  5
308
330
1F
100
AcDbEntity
  8
3
  6
DOTTED
 62
     6
100
AcDbPolyline
 90
        4
 70
     0
 43
0.0
 10
226.2502705203949
 20
383.5502476014582
 10
231.1839552310998
 20
383.5502476014582
 42
-0.41421356237303
 10
233.6839552310998
 20
381.0502476014582
 10
233.6839552310998
 20
375.5502476014582
  0
LWPOLYLINE
  5
309
330
1F
100
AcDbEntity
  8
1
  6
Continuous
 62
     3
100
AcDbPolyline
 90
        7
 70
     1
 43
0.0
 10
368.722874875873
 20
286.6523892565801
 10
353.222874875873
 20
295.6013184290191
 10
353.222874875873
 20
313.4991767738972
 10
368.722874875873
 20
322.4481059463362
 10
384.222874875873
 20
313.4991767738972
 10
384.222874875873
 20
295.6013184290191
 10
368.722874875873
 20
286.6523892565801
  0
LWPOLYLINE
  5
30A
330
1F
100
AcDbEntity
  8
3
  6
Continuous
 62
     3
100
AcDbPolyline
 90
        4
 70
     0
 43
0.0
 10
357.5391901651681
 20
389.5502476014582
 10
362.472874875873
 20
389.5502476014582
 42
-0.41421356237302
 10
364.972874875873
 20
387.0502476014582
 10
364.972874875873
 20
381.5502476014582
  0
LWPOLYLINE
  5
30B
330
1F
100
AcDbEntity
  8
3
  6
Continuous
 62
     3
100
AcDbPolyline
 90
        4
 70
     0
 43
0.0
 10
379.9065595865778
 20
389.5502476014582
 10
374.972874875873
 20
389.5502476014582
 42
0.41421356237327
 10
372.4728748758733
 20
387.0502476014582
 10
372.472874875873
 20
381.5502476014582
  0
LINE
  5
30C
330
1F
100
AcDbEntity
  8
1
 62
     4
100
AcDbLine
 10
210.9339552310998
 20
317.6502476014582
 30
0.0
 11
209.0414167158592
 21
319.2601691405227
 31
0.0
  0
LINE
  5
30D
330
1F
100
AcDbEntity
  8
1
 62
     4
100
AcDbLine
 10
210.9339552310998
 20
317.6502476014582
 30
0.0
 11
210.0999295687932
 21
319.9907498100081
 31
0.0
  0
LEADER
  5
30E
330
1F
100
AcDbEntity
  8
1
  6
Continuous
 62
     4
100
AcDbLeader
  3
Standard
 71
     0
 76
     3
 10
210.9339552310998
 20
317.6502476014582
 30
0.0
 10
206.3723109209068
 20
324.2594549546361
 30
0.0
 10
194.108045053199
 20
324.2594549546361
 30
0.0
  0
LINE
  5
30F
330
1F
100
AcDbEntity
  8
1
 62
     4
100
AcDbLine
 10
296.7602857716686
 20
304.5502476014582
 30
0.0
 11
297.5943114339751
 21
306.8907498100081
 31
0.0
  0
LINE
  5
310
330
1F
100
AcDbEntity
  8
1
 62
     4
100
AcDbLine
 10
296.7602857716686
 20
304.5502476014582
 30
0.0
 11
298.6528242869092
 21
306.1601691405227
 31
0.0
  0
LEADER
  5
311
330
1F
100
AcDbEntity
  8
1
  6
Continuous
 62
     4
100
AcDbLeader
  3
Standard
 71
     0
 76
     3
 10
296.7602857716686
 20
304.5502476014582
 30
0.0
 10
301.3219300818616
 20
311.1594549546361
 30
0.0
 10
313.017220083877
 20
311.1594549546361
 30
0.0
  0
ENDSEC
  0
SECTION
  2
OBJECTS
  0
DICTIONARY
  5
C
330
0
100
AcDbDictionary
281
     1
  3
ACAD_GROUP
350
D
  3
ACAD_LAYOUT
350
1A
  3
ACAD_MATERIAL
350
3B
  3
ACAD_MLEADERSTYLE
350
314
  3
ACAD_MLINESTYLE
350
17
  3
ACAD_PLOTSETTINGS
350
19
  3
ACAD_PLOTSTYLENAME
350
E
  3
ACAD_VISUALSTYLE
350
2A
  3
AcDbVariableDictionary
350
312
  0
DICTIONARY
  5
D
102
{ACAD_REACTORS
330
C
102
}
330
C
100
AcDbDictionary
281
     1
  0
DICTIONARY
  5
1A
102
{ACAD_REACTORS
330
C
102
}
330
C
100
AcDbDictionary
281
     1
  3
Layout1
350
1E
  3
Layout2
350
26
  3
Model
350
22
  0
DICTIONARY
  5
3B
102
{ACAD_REACTORS
330
C
102
}
330
C
100
AcDbDictionary
281
     1
  3
ByBlock
350
3D
  3
ByLayer
350
3C
  3
Global
350
3E
  0
DICTIONARY
  5
314
102
{ACAD_REACTORS
330
C
102
}
330
C
100
AcDbDictionary
281
     1
  0
DICTIONARY
  5
17
102
{ACAD_REACTORS
330
C
102
}
330
C
100
AcDbDictionary
281
     1
  3
Standard
350
18
  0
DICTIONARY
  5
19
102
{ACAD_REACTORS
330
C
102
}
330
C
100
AcDbDictionary
281
     1
  0
ACDBDICTIONARYWDFLT
  5
E
102
{ACAD_REACTORS
330
C
102
}
330
C
100
AcDbDictionary
281
     1
  3
Normal
350
F
100
AcDbDictionaryWithDefault
340
F
  0
DICTIONARY
  5
2A
102
{ACAD_REACTORS
330
C
102
}
330
C
100
AcDbDictionary
281
     1
  3
2dWireframe
350
2F
  3
3D Hidden
350
31
  3
3dWireframe
350
30
  3
Basic
350
32
  3
Brighten
350
36
  3
ColorChange
350
3A
  3
Conceptual
350
34
  3
Dim
350
35
  3
Facepattern
350
39
  3
Flat
350
2B
  3
FlatWithEdges
350
2C
  3
Gouraud
350
2D
  3
GouraudWithEdges
350
2E
  3
Linepattern
350
38
  3
Realistic
350
33
  3
Thicken
350
37
  0
DICTIONARY
  5
312
102
{ACAD_REACTORS
330
C
102
}
330
C
100
AcDbDictionary
281
     1
  3
DIMASSOC
350
315
  3
HIDETEXT
350
316
  0
LAYOUT
  5
1E
102
{ACAD_REACTORS
330
1A
102
}
330
1A
100
AcDbPlotSettings
  1

  2
none_device
  4

  6

 40
0.0
 41
0.0
 42
0.0
 43
0.0
 44
0.0
 45
0.0
 46
0.0
 47
0.0
 48
0.0
 49
0.0
140
0.0
141
0.0
142
1.0
143
1.0
 70
   688
 72
     0
 73
     0
 74
     5
  7

 75
    16
147
1.0
148
0.0
149
0.0
100
AcDbLayout
  1
Layout1
 70
     1
 71
     1
 10
0.0
 20
0.0
 11
12.0
 21
9.0
 12
0.0
 22
0.0
 32
0.0
 14
1.00000000000000E+20
 24
1.00000000000000E+20
 34
1.00000000000000E+20
 15
-1.00000000000000E+20
 25
-1.00000000000000E+20
 35
-1.00000000000000E+20
146
0.0
 13
0.0
 23
0.0
 33
0.0
 16
1.0
 26
0.0
 36
0.0
 17
0.0
 27
1.0
 37
0.0
 76
     0
330
1B
  0
LAYOUT
  5
26
102
{ACAD_REACTORS
330
1A
102
}
330
1A
100
AcDbPlotSettings
  1

  2
none_device
  4

  6

 40
0.0
 41
0.0
 42
0.0
 43
0.0
 44
0.0
 45
0.0
 46
0.0
 47
0.0
 48
0.0
 49
0.0
140
0.0
141
0.0
142
1.0
143
1.0
 70
   688
 72
     0
 73
     0
 74
     5
  7

 75
    16
147
1.0
148
0.0
149
0.0
100
AcDbLayout
  1
Layout2
 70
     1
 71
     2
 10
0.0
 20
0.0
 11
0.0
 21
0.0
 12
0.0
 22
0.0
 32
0.0
 14
0.0
 24
0.0
 34
0.0
 15
0.0
 25
0.0
 35
0.0
146
0.0
 13
0.0
 23
0.0
 33
0.0
 16
1.0
 26
0.0
 36
0.0
 17
0.0
 27
1.0
 37
0.0
 76
     0
330
23
  0
LAYOUT
  5
22
102
{ACAD_REACTORS
330
1A
102
}
330
1A
100
AcDbPlotSettings
  1

  2
none_device
  4

  6

 40
0.0
 41
0.0
 42
0.0
 43
0.0
 44
0.0
 45
0.0
 46
0.0
 47
0.0
 48
0.0
 49
0.0
140
0.0
141
0.0
142
1.0
143
1.0
 70
  1712
 72
     0
 73
     0
 74
     0
  7

 75
     0
147
1.0
148
0.0
149
0.0
100
AcDbLayout
  1
Model
 70
     1
 71
     0
 10
0.0
 20
0.0
 11
12.0
 21
9.0
 12
0.0
 22
0.0
 32
0.0
 14
194.108045053199
 24
272.302023079789
 34
0.0
 15
397.722874875873
 25
485.0406434756031
 35
0.0
146
0.0
 13
0.0
 23
0.0
 33
0.0
 16
1.0
 26
0.0
 36
0.0
 17
0.0
 27
1.0
 37
0.0
 76
     0
330
1F
331
29
  0
MATERIAL
  5
3D
102
{ACAD_REACTORS
330
3B
102
}
102
{ACAD_XDICTIONARY
360
339
102
}
330
3B
100
AcDbMaterial
  1
ByBlock
  0
MATERIAL
  5
3C
102
{ACAD_REACTORS
330
3B
102
}
102
{ACAD_XDICTIONARY
360
337
102
}
330
3B
100
AcDbMaterial
  1
ByLayer
  0
MATERIAL
  5
3E
102
{ACAD_REACTORS
330
3B
102
}
102
{ACAD_XDICTIONARY
360
33B
102
}
330
3B
100
AcDbMaterial
  1
Global
  0
MLINESTYLE
  5
18
102
{ACAD_REACTORS
330
17
102
}
330
17
100
AcDbMlineStyle
  2
Standard
 70
     0
  3

 62
   256
 51
90.0
 52
90.0
 71
     2
 49
0.5
 62
   256
  6
BYLAYER
 49
-0.5
 62
   256
  6
BYLAYER
  0
ACDBPLACEHOLDER
  5
F
102
{ACAD_REACTORS
330
E
102
}
330
E
  0
VISUALSTYLE
  5
2F
102
{ACAD_REACTORS
330
2A
102
}
102
{ACAD_XDICTIONARY
360
31F
102
}
330
2A
100
AcDbVisualStyle
  2
2dWireframe
 70
     4
 71
     0
 72
     2
 73
     0
 90
        0
 40
-0.6
 41
-30.0
 62
     5
 63
     7
 74
     1
 91
        4
 64
     7
 65
   257
 75
     1
175
     1
 42
1.0
 92
        0
 66
   257
 43
1.0
 76
     1
 77
     6
 78
     2
 67
     7
 79
     5
170
     0
171
     0
290
     0
174
     0
 93
        1
 44
0.0
173
     0
291
     0
 45
0.0
1001
ACAD
1000
AcDbSavedByObjectVersion
1070
     0
  0
VISUALSTYLE
  5
31
102
{ACAD_REACTORS
330
2A
102
}
102
{ACAD_XDICTIONARY
360
323
102
}
330
2A
100
AcDbVisualStyle
  2
3D Hidden
 70
     6
 71
     1
 72
     2
 73
     2
 90
        0
 40
-0.6
 41
-30.0
 62
     5
 63
     7
 74
     2
 91
        2
 64
     7
 65
   257
 75
     2
175
     1
 42
40.0
 92
        0
 66
   257
 43
1.0
 76
     1
 77
     6
 78
     2
 67
     7
 79
     3
170
     0
171
     0
290
     0
174
     0
 93
        1
 44
0.0
173
     0
291
     0
 45
0.0
1001
ACAD
1000
AcDbSavedByObjectVersion
1070
     0
  0
VISUALSTYLE
  5
30
102
{ACAD_REACTORS
330
2A
102
}
102
{ACAD_XDICTIONARY
360
321
102
}
330
2A
100
AcDbVisualStyle
  2
3dWireframe
 70
     5
 71
     0
 72
     2
 73
     0
 90
        0
 40
-0.6
 41
-30.0
 62
     5
 63
     7
 74
     1
 91
        4
 64
     7
 65
   257
 75
     1
175
     1
 42
1.0
 92
        0
 66
   257
 43
1.0
 76
     1
 77
     6
 78
     2
 67
     7
 79
     5
170
     0
171
     0
290
     0
174
     0
 93
        1
 44
0.0
173
     0
291
     0
 45
0.0
1001
ACAD
1000
AcDbSavedByObjectVersion
1070
     0
  0
VISUALSTYLE
  5
32
102
{ACAD_REACTORS
330
2A
102
}
102
{ACAD_XDICTIONARY
360
325
102
}
330
2A
100
AcDbVisualStyle
  2
Basic
 70
     7
 71
     1
 72
     0
 73
     1
 90
        0
 40
-0.6
 41
-30.0
 62
     5
 63
     7
 74
     0
 91
        4
 64
     7
 65
   257
 75
     1
175
     1
 42
1.0
 92
        8
 66
     7
 43
1.0
 76
     1
 77
     6
 78
     2
 67
     7
 79
     5
170
     0
171
     0
290
     0
174
     0
 93
        1
 44
0.0
173
     0
291
     1
 45
0.0
1001
ACAD
1000
AcDbSavedByObjectVersion
1070
     0
  0
VISUALSTYLE
  5
36
102
{ACAD_REACTORS
330
2A
102
}
102
{ACAD_XDICTIONARY
360
32D
102
}
330
2A
100
AcDbVisualStyle
  2
Brighten
 70
    12
 71
     2
 72
     2
 73
     0
 90
        0
 40
-0.6
 41
-30.0
 62
     5
 63
     7
 74
     1
 91
        4
 64
     7
 65
   257
 75
     1
175
     1
 42
1.0
 92
        8
 66
     7
 43
1.0
 76
     1
 77
     6
 78
     2
 67
     7
 79
     5
170
     0
171
     0
290
     0
174
     0
 93
        1
 44
50.0
173
     0
291
     1
 45
0.0
1001
ACAD
1000
AcDbSavedByObjectVersion
1070
     0
  0
VISUALSTYLE
  5
3A
102
{ACAD_REACTORS
330
2A
102
}
102
{ACAD_XDICTIONARY
360
335
102
}
330
2A
100
AcDbVisualStyle
  2
ColorChange
 70
    16
 71
     2
 72
     2
 73
     3
 90
        0
 40
-0.6
 41
-30.0
 62
     5
 63
     8
 74
     1
 91
        4
 64
     7
 65
   257
 75
     1
175
     1
 42
1.0
 92
        8
 66
     8
 43
1.0
 76
     1
 77
     6
 78
     2
 67
     7
 79
     5
170
     0
171
     0
290
     0
174
     0
 93
        1
 44
0.0
173
     0
291
     1
 45
0.0
1001
ACAD
1000
AcDbSavedByObjectVersion
1070
     0
  0
VISUALSTYLE
  5
34
102
{ACAD_REACTORS
330
2A
102
}
102
{ACAD_XDICTIONARY
360
329
102
}
330
2A
100
AcDbVisualStyle
  2
Conceptual
 70
     9
 71
     3
 72
     2
 73
     0
 90
        0
 40
-0.6
 41
-30.0
 62
     5
 63
     7
 74
     2
 91
        2
 64
     7
 65
   257
 75
     1
175
     1
 42
40.0
 92
        8
 66
     7
 43
1.0
 76
     1
 77
     6
 78
     2
 67
     7
 79
     3
170
     0
171
     0
290
     0
174
     0
 93
        1
 44
0.0
173
     0
291
     0
 45
0.0
1001
ACAD
1000
AcDbSavedByObjectVersion
1070
     0
  0
VISUALSTYLE
  5
35
102
{ACAD_REACTORS
330
2A
102
}
102
{ACAD_XDICTIONARY
360
32B
102
}
330
2A
100
AcDbVisualStyle
  2
Dim
 70
    11
 71
     2
 72
     2
 73
     0
 90
        0
 40
-0.6
 41
-30.0
 62
     5
 63
     7
 74
     1
 91
        4
 64
     7
 65
   257
 75
     1
175
     1
 42
1.0
 92
        8
 66
     7
 43
1.0
 76
     1
 77
     6
 78
     2
 67
     7
 79
     5
170
     0
171
     0
290
     0
174
     0
 93
        1
 44
-50.0
173
     0
291
     1
 45
0.0
1001
ACAD
1000
AcDbSavedByObjectVersion
1070
     0
  0
VISUALSTYLE
  5
39
102
{ACAD_REACTORS
330
2A
102
}
102
{ACAD_XDICTIONARY
360
333
102
}
330
2A
100
AcDbVisualStyle
  2
Facepattern
 70
    15
 71
     2
 72
     2
 73
     0
 90
        0
 40
-0.6
 41
-30.0
 62
     5
 63
     7
 74
     1
 91
        4
 64
     7
 65
   257
 75
     1
175
     1
 42
1.0
 92
        8
 66
     7
 43
1.0
 76
     1
 77
     6
 78
     2
 67
     7
 79
     5
170
     0
171
     0
290
     0
174
     0
 93
        1
 44
0.0
173
     0
291
     1
 45
0.0
1001
ACAD
1000
AcDbSavedByObjectVersion
1070
     0
  0
VISUALSTYLE
  5
2B
102
{ACAD_REACTORS
330
2A
102
}
102
{ACAD_XDICTIONARY
360
317
102
}
330
2A
100
AcDbVisualStyle
  2
Flat
 70
     0
 71
     2
 72
     1
 73
     1
 90
        2
 40
-0.6
 41
30.0
 62
     5
 63
     7
 74
     0
 91
        4
 64
     7
 65
   257
 75
     1
175
     1
 42
1.0
 92
        8
 66
     7
 43
1.0
 76
     1
 77
     6
 78
     2
 67
     7
 79
     5
170
     0
171
     0
290
     0
174
     0
 93
       13
 44
0.0
173
     0
291
     1
 45
0.0
1001
ACAD
1000
AcDbSavedByObjectVersion
1070
     0
  0
VISUALSTYLE
  5
2C
102
{ACAD_REACTORS
330
2A
102
}
102
{ACAD_XDICTIONARY
360
319
102
}
330
2A
100
AcDbVisualStyle
  2
FlatWithEdges
 70
     1
 71
     2
 72
     1
 73
     1
 90
        2
 40
-0.6
 41
30.0
 62
     5
 63
     7
 74
     1
 91
        4
 64
     7
 65
   257
 75
     1
175
     1
 42
1.0
 92
        0
 66
   257
 43
1.0
 76
     1
 77
     6
 78
     2
 67
     7
 79
     5
170
     0
171
     0
290
     0
174
     0
 93
       13
 44
0.0
173
     0
291
     1
 45
0.0
1001
ACAD
1000
AcDbSavedByObjectVersion
1070
     0
  0
VISUALSTYLE
  5
2D
102
{ACAD_REACTORS
330
2A
102
}
102
{ACAD_XDICTIONARY
360
31B
102
}
330
2A
100
AcDbVisualStyle
  2
Gouraud
 70
     2
 71
     2
 72
     2
 73
     1
 90
        2
 40
-0.6
 41
30.0
 62
     5
 63
     7
 74
     0
 91
        4
 64
     7
 65
   257
 75
     1
175
     1
 42
1.0
 92
        0
 66
     7
 43
1.0
 76
     1
 77
     6
 78
     2
 67
     7
 79
     5
170
     0
171
     0
290
     0
174
     0
 93
       13
 44
0.0
173
     0
291
     1
 45
0.0
1001
ACAD
1000
AcDbSavedByObjectVersion
1070
     0
  0
VISUALSTYLE
  5
2E
102
{ACAD_REACTORS
330
2A
102
}
102
{ACAD_XDICTIONARY
360
31D
102
}
330
2A
100
AcDbVisualStyle
  2
GouraudWithEdges
 70
     3
 71
     2
 72
     2
 73
     1
 90
        2
 40
-0.6
 41
30.0
 62
     5
 63
     7
 74
     1
 91
        4
 64
     7
 65
   257
 75
     1
175
     1
 42
1.0
 92
        0
 66
   257
 43
1.0
 76
     1
 77
     6
 78
     2
 67
     7
 79
     5
170
     0
171
     0
290
     0
174
     0
 93
       13
 44
0.0
173
     0
291
     1
 45
0.0
1001
ACAD
1000
AcDbSavedByObjectVersion
1070
     0
  0
VISUALSTYLE
  5
38
102
{ACAD_REACTORS
330
2A
102
}
102
{ACAD_XDICTIONARY
360
331
102
}
330
2A
100
AcDbVisualStyle
  2
Linepattern
 70
    14
 71
     2
 72
     2
 73
     0
 90
        0
 40
-0.6
 41
-30.0
 62
     5
 63
     7
 74
     1
 91
        4
 64
     7
 65
   257
 75
     7
175
     7
 42
1.0
 92
        8
 66
     7
 43
1.0
 76
     1
 77
     6
 78
     2
 67
     7
 79
     5
170
     0
171
     0
290
     0
174
     0
 93
        1
 44
0.0
173
     0
291
     1
 45
0.0
1001
ACAD
1000
AcDbSavedByObjectVersion
1070
     0
  0
VISUALSTYLE
  5
33
102
{ACAD_REACTORS
330
2A
102
}
102
{ACAD_XDICTIONARY
360
327
102
}
330
2A
100
AcDbVisualStyle
  2
Realistic
 70
     8
 71
     2
 72
     2
 73
     0
 90
        0
 40
-0.6
 41
-30.0
 62
     5
 63
     7
 74
     1
 91
        0
 64
     7
 65
   257
 75
     1
175
     1
 42
1.0
 92
        8
 66
     8
 43
1.0
 76
     1
 77
     6
 78
     2
 67
     7
 79
     5
170
     0
171
     0
290
     0
174
     0
 93
       13
 44
0.0
173
     0
291
     0
 45
0.0
1001
ACAD
1000
AcDbSavedByObjectVersion
1070
     0
  0
VISUALSTYLE
  5
37
102
{ACAD_REACTORS
330
2A
102
}
102
{ACAD_XDICTIONARY
360
32F
102
}
330
2A
100
AcDbVisualStyle
  2
Thicken
 70
    13
 71
     2
 72
     2
 73
     0
 90
        0
 40
-0.6
 41
-30.0
 62
     5
 63
     7
 74
     1
 91
        4
 64
     7
 65
   257
 75
     1
175
     1
 42
1.0
 92
       12
 66
     7
 43
1.0
 76
     1
 77
     6
 78
     2
 67
     7
 79
     5
170
     0
171
     0
290
     0
174
     0
 93
        1
 44
0.0
173
     0
291
     1
 45
0.0
1001
ACAD
1000
AcDbSavedByObjectVersion
1070
     0
  0
DICTIONARYVAR
  5
315
102
{ACAD_REACTORS
330
312
102
}
330
312
100
DictionaryVariables
280
     0
  1
2
  0
DICTIONARYVAR
  5
316
102
{ACAD_REACTORS
330
312
102
}
330
312
100
DictionaryVariables
280
     0
  1
1
  0
DICTIONARY
  5
339
330
3D
100
AcDbDictionary
280
     1
281
     1
  3
ACAD_XREC_ROUNDTRIP
360
33A
  0
DICTIONARY
  5
337
330
3C
100
AcDbDictionary
280
     1
281
     1
  3
ACAD_XREC_ROUNDTRIP
360
338
  0
DICTIONARY
  5
33B
330
3E
100
AcDbDictionary
280
     1
281
     1
  3
ACAD_XREC_ROUNDTRIP
360
33C
  0
DICTIONARY
  5
31F
330
2F
100
AcDbDictionary
280
     1
281
     1
  3
ACAD_XREC_ROUNDTRIP
360
320
  0
DICTIONARY
  5
323
330
31
100
AcDbDictionary
280
     1
281
     1
  3
ACAD_XREC_ROUNDTRIP
360
324
  0
DICTIONARY
  5
321
330
30
100
AcDbDictionary
280
     1
281
     1
  3
ACAD_XREC_ROUNDTRIP
360
322
  0
DICTIONARY
  5
325
330
32
100
AcDbDictionary
280
     1
281
     1
  3
ACAD_XREC_ROUNDTRIP
360
326
  0
DICTIONARY
  5
32D
330
36
100
AcDbDictionary
280
     1
281
     1
  3
ACAD_XREC_ROUNDTRIP
360
32E
  0
DICTIONARY
  5
335
330
3A
100
AcDbDictionary
280
     1
281
     1
  3
ACAD_XREC_ROUNDTRIP
360
336
  0
DICTIONARY
  5
329
330
34
100
AcDbDictionary
280
     1
281
     1
  3
ACAD_XREC_ROUNDTRIP
360
32A
  0
DICTIONARY
  5
32B
330
35
100
AcDbDictionary
280
     1
281
     1
  3
ACAD_XREC_ROUNDTRIP
360
32C
  0
DICTIONARY
  5
333
330
39
100
AcDbDictionary
280
     1
281
     1
  3
ACAD_XREC_ROUNDTRIP
360
334
  0
DICTIONARY
  5
317
330
2B
100
AcDbDictionary
280
     1
281
     1
  3
ACAD_XREC_ROUNDTRIP
360
318
  0
DICTIONARY
  5
319
330
2C
100
AcDbDictionary
280
     1
281
     1
  3
ACAD_XREC_ROUNDTRIP
360
31A
  0
DICTIONARY
  5
31B
330
2D
100
AcDbDictionary
280
     1
281
     1
  3
ACAD_XREC_ROUNDTRIP
360
31C
  0
DICTIONARY
  5
31D
330
2E
100
AcDbDictionary
280
     1
281
     1
  3
ACAD_XREC_ROUNDTRIP
360
31E
  0
DICTIONARY
  5
331
330
38
100
AcDbDictionary
280
     1
281
     1
  3
ACAD_XREC_ROUNDTRIP
360
332
  0
DICTIONARY
  5
327
330
33
100
AcDbDictionary
280
     1
281
     1
  3
ACAD_XREC_ROUNDTRIP
360
328
  0
DICTIONARY
  5
32F
330
37
100
AcDbDictionary
280
     1
281
     1
  3
ACAD_XREC_ROUNDTRIP
360
330
  0
XRECORD
  5
33A
102
{ACAD_REACTORS
330
339
102
}
330
339
100
AcDbXrecord
280
     1
102
MATERIAL
148
0.0
149
0.0
149
0.0
 93
        0
 94
      127
282
     0
 72
     1
 77
     1
171
     1
175
     1
179
     1
273
     0
  0
XRECORD
  5
338
102
{ACAD_REACTORS
330
337
102
}
330
337
100
AcDbXrecord
280
     1
102
MATERIAL
148
0.0
149
0.0
149
0.0
 93
        0
 94
      127
282
     0
 72
     1
 77
     1
171
     1
175
     1
179
     1
273
     0
  0
XRECORD
  5
33C
102
{ACAD_REACTORS
330
33B
102
}
330
33B
100
AcDbXrecord
280
     1
102
MATERIAL
148
0.0
149
0.0
149
0.0
 93
        0
 94
      127
282
     0
 72
     1
 77
     1
171
     1
175
     1
179
     1
273
     0
  0
XRECORD
  5
320
102
{ACAD_REACTORS
330
31F
102
}
330
31F
100
AcDbXrecord
280
     1
102
RTVSPropertyOp0
 70
     1
102
RTVSPropertyOp1
 70
     1
102
RTVSPropertyOp2
 70
     1
102
RTVSPropertyOp3
 70
     1
102
RTVSPropertyOp4
 70
     1
102
RTVSPropertyOp5
 70
     1
102
RTVSPropertyOp6
 70
     1
102
RTVSPropertyOp7
 70
     1
102
RTVSPropertyOp8
 70
     1
102
RTVSPropertyOp9
 70
     1
102
RTVSPropertyOp10
 70
     1
102
RTVSPropertyOp11
 70
     1
102
RTVSPropertyOp12
 70
     1
102
RTVSPropertyOp13
 70
     1
102
RTVSPropertyOp14
 70
     1
102
RTVSPropertyOp15
 70
     1
102
RTVSPropertyOp16
 70
     1
102
RTVSPropertyOp17
 70
     1
102
RTVSPropertyOp18
 70
     1
102
RTVSPropertyOp19
 70
     1
102
RTVSPropertyOp20
 70
     1
102
RTVSPropertyOp21
 70
     1
102
RTVSPropertyOp22
 70
     1
102
RTVSPropertyOp23
 70
     1
102
RTVSPropertyOp24
 70
     1
102
RTVSPropertyOp25
 70
     1
102
RTVSPropertyOp26
 70
     1
102
RTVSPropertyOp27
 70
     1
  0
XRECORD
  5
324
102
{ACAD_REACTORS
330
323
102
}
330
323
100
AcDbXrecord
280
     1
102
RTVSPropertyOp0
 70
     1
102
RTVSPropertyOp1
 70
     1
102
RTVSPropertyOp2
 70
     1
102
RTVSPropertyOp3
 70
     1
102
RTVSPropertyOp4
 70
     1
102
RTVSPropertyOp5
 70
     1
102
RTVSPropertyOp6
 70
     1
102
RTVSPropertyOp7
 70
     1
102
RTVSPropertyOp8
 70
     1
102
RTVSPropertyOp9
 70
     1
102
RTVSPropertyOp10
 70
     1
102
RTVSPropertyOp11
 70
     1
102
RTVSPropertyOp12
 70
     1
102
RTVSPropertyOp13
 70
     1
102
RTVSPropertyOp14
 70
     1
102
RTVSPropertyOp15
 70
     1
102
RTVSPropertyOp16
 70
     1
102
RTVSPropertyOp17
 70
     1
102
RTVSPropertyOp18
 70
     1
102
RTVSPropertyOp19
 70
     1
102
RTVSPropertyOp20
 70
     1
102
RTVSPropertyOp21
 70
     1
102
RTVSPropertyOp22
 70
     1
102
RTVSPropertyOp23
 70
     1
102
RTVSPropertyOp24
 70
     1
102
RTVSPropertyOp25
 70
     1
102
RTVSPropertyOp26
 70
     1
102
RTVSPropertyOp27
 70
     1
  0
XRECORD
  5
322
102
{ACAD_REACTORS
330
321
102
}
330
321
100
AcDbXrecord
280
     1
102
RTVSPropertyOp0
 70
     1
102
RTVSPropertyOp1
 70
     1
102
RTVSPropertyOp2
 70
     1
102
RTVSPropertyOp3
 70
     1
102
RTVSPropertyOp4
 70
     1
102
RTVSPropertyOp5
 70
     1
102
RTVSPropertyOp6
 70
     1
102
RTVSPropertyOp7
 70
     1
102
RTVSPropertyOp8
 70
     1
102
RTVSPropertyOp9
 70
     1
102
RTVSPropertyOp10
 70
     1
102
RTVSPropertyOp11
 70
     1
102
RTVSPropertyOp12
 70
     1
102
RTVSPropertyOp13
 70
     1
102
RTVSPropertyOp14
 70
     1
102
RTVSPropertyOp15
 70
     1
102
RTVSPropertyOp16
 70
     1
102
RTVSPropertyOp17
 70
     1
102
RTVSPropertyOp18
 70
     1
102
RTVSPropertyOp19
 70
     1
102
RTVSPropertyOp20
 70
     1
102
RTVSPropertyOp21
 70
     1
102
RTVSPropertyOp22
 70
     1
102
RTVSPropertyOp23
 70
     1
102
RTVSPropertyOp24
 70
     1
102
RTVSPropertyOp25
 70
     1
102
RTVSPropertyOp26
 70
     1
102
RTVSPropertyOp27
 70
     1
  0
XRECORD
  5
326
102
{ACAD_REACTORS
330
325
102
}
330
325
100
AcDbXrecord
280
     1
102
RTVSPropertyOp0
 70
     1
102
RTVSPropertyOp1
 70
     1
102
RTVSPropertyOp2
 70
     1
102
RTVSPropertyOp3
 70
     1
102
RTVSPropertyOp4
 70
     1
102
RTVSPropertyOp5
 70
     1
102
RTVSPropertyOp6
 70
     1
102
RTVSPropertyOp7
 70
     1
102
RTVSPropertyOp8
 70
     1
102
RTVSPropertyOp9
 70
     1
102
RTVSPropertyOp10
 70
     1
102
RTVSPropertyOp11
 70
     1
102
RTVSPropertyOp12
 70
     1
102
RTVSPropertyOp13
 70
     1
102
RTVSPropertyOp14
 70
     1
102
RTVSPropertyOp15
 70
     1
102
RTVSPropertyOp16
 70
     1
102
RTVSPropertyOp17
 70
     1
102
RTVSPropertyOp18
 70
     1
102
RTVSPropertyOp19
 70
     1
102
RTVSPropertyOp20
 70
     1
102
RTVSPropertyOp21
 70
     1
102
RTVSPropertyOp22
 70
     1
102
RTVSPropertyOp23
 70
     1
102
RTVSPropertyOp24
 70
     1
102
RTVSPropertyOp25
 70
     1
102
RTVSPropertyOp26
 70
     1
102
RTVSPropertyOp27
 70
     1
  0
XRECORD
  5
32E
102
{ACAD_REACTORS
330
32D
102
}
330
32D
100
AcDbXrecord
280
     1
102
RTVSPropertyOp0
 70
     1
102
RTVSPropertyOp1
 70
     1
102
RTVSPropertyOp2
 70
     1
102
RTVSPropertyOp3
 70
     1
102
RTVSPropertyOp4
 70
     1
102
RTVSPropertyOp5
 70
     1
102
RTVSPropertyOp6
 70
     1
102
RTVSPropertyOp7
 70
     1
102
RTVSPropertyOp8
 70
     1
102
RTVSPropertyOp9
 70
     1
102
RTVSPropertyOp10
 70
     1
102
RTVSPropertyOp11
 70
     1
102
RTVSPropertyOp12
 70
     1
102
RTVSPropertyOp13
 70
     1
102
RTVSPropertyOp14
 70
     1
102
RTVSPropertyOp15
 70
     1
102
RTVSPropertyOp16
 70
     1
102
RTVSPropertyOp17
 70
     1
102
RTVSPropertyOp18
 70
     1
102
RTVSPropertyOp19
 70
     1
102
RTVSPropertyOp20
 70
     1
102
RTVSPropertyOp21
 70
     1
102
RTVSPropertyOp22
 70
     1
102
RTVSPropertyOp23
 70
     1
102
RTVSPropertyOp24
 70
     1
102
RTVSPropertyOp25
 70
     1
102
RTVSPropertyOp26
 70
     1
102
RTVSPropertyOp27
 70
     1
  0
XRECORD
  5
336
102
{ACAD_REACTORS
330
335
102
}
330
335
100
AcDbXrecord
280
     1
102
RTVSPropertyOp0
 70
     1
102
RTVSPropertyOp1
 70
     1
102
RTVSPropertyOp2
 70
     1
102
RTVSPropertyOp3
 70
     1
102
RTVSPropertyOp4
 70
     1
102
RTVSPropertyOp5
 70
     1
102
RTVSPropertyOp6
 70
     1
102
RTVSPropertyOp7
 70
     1
102
RTVSPropertyOp8
 70
     1
102
RTVSPropertyOp9
 70
     1
102
RTVSPropertyOp10
 70
     1
102
RTVSPropertyOp11
 70
     1
102
RTVSPropertyOp12
 70
     1
102
RTVSPropertyOp13
 70
     1
102
RTVSPropertyOp14
 70
     1
102
RTVSPropertyOp15
 70
     1
102
RTVSPropertyOp16
 70
     1
102
RTVSPropertyOp17
 70
     1
102
RTVSPropertyOp18
 70
     1
102
RTVSPropertyOp19
 70
     1
102
RTVSPropertyOp20
 70
     1
102
RTVSPropertyOp21
 70
     1
102
RTVSPropertyOp22
 70
     1
102
RTVSPropertyOp23
 70
     1
102
RTVSPropertyOp24
 70
     1
102
RTVSPropertyOp25
 70
     1
102
RTVSPropertyOp26
 70
     1
102
RTVSPropertyOp27
 70
     1
  0
XRECORD
  5
32A
102
{ACAD_REACTORS
330
329
102
}
330
329
100
AcDbXrecord
280
     1
102
RTVSPropertyOp0
 70
     1
102
RTVSPropertyOp1
 70
     1
102
RTVSPropertyOp2
 70
     1
102
RTVSPropertyOp3
 70
     1
102
RTVSPropertyOp4
 70
     1
102
RTVSPropertyOp5
 70
     1
102
RTVSPropertyOp6
 70
     1
102
RTVSPropertyOp7
 70
     1
102
RTVSPropertyOp8
 70
     1
102
RTVSPropertyOp9
 70
     1
102
RTVSPropertyOp10
 70
     1
102
RTVSPropertyOp11
 70
     1
102
RTVSPropertyOp12
 70
     1
102
RTVSPropertyOp13
 70
     1
102
RTVSPropertyOp14
 70
     1
102
RTVSPropertyOp15
 70
     1
102
RTVSPropertyOp16
 70
     1
102
RTVSPropertyOp17
 70
     1
102
RTVSPropertyOp18
 70
     1
102
RTVSPropertyOp19
 70
     1
102
RTVSPropertyOp20
 70
     1
102
RTVSPropertyOp21
 70
     1
102
RTVSPropertyOp22
 70
     1
102
RTVSPropertyOp23
 70
     1
102
RTVSPropertyOp24
 70
     1
102
RTVSPropertyOp25
 70
     1
102
RTVSPropertyOp26
 70
     1
102
RTVSPropertyOp27
 70
     1
  0
XRECORD
  5
32C
102
{ACAD_REACTORS
330
32B
102
}
330
32B
100
AcDbXrecord
280
     1
102
RTVSPropertyOp0
 70
     1
102
RTVSPropertyOp1
 70
     1
102
RTVSPropertyOp2
 70
     1
102
RTVSPropertyOp3
 70
     1
102
RTVSPropertyOp4
 70
     1
102
RTVSPropertyOp5
 70
     1
102
RTVSPropertyOp6
 70
     1
102
RTVSPropertyOp7
 70
     1
102
RTVSPropertyOp8
 70
     1
102
RTVSPropertyOp9
 70
     1
102
RTVSPropertyOp10
 70
     1
102
RTVSPropertyOp11
 70
     1
102
RTVSPropertyOp12
 70
     1
102
RTVSPropertyOp13
 70
     1
102
RTVSPropertyOp14
 70
     1
102
RTVSPropertyOp15
 70
     1
102
RTVSPropertyOp16
 70
     1
102
RTVSPropertyOp17
 70
     1
102
RTVSPropertyOp18
 70
     1
102
RTVSPropertyOp19
 70
     1
102
RTVSPropertyOp20
 70
     1
102
RTVSPropertyOp21
 70
     1
102
RTVSPropertyOp22
 70
     1
102
RTVSPropertyOp23
 70
     1
102
RTVSPropertyOp24
 70
     1
102
RTVSPropertyOp25
 70
     1
102
RTVSPropertyOp26
 70
     1
102
RTVSPropertyOp27
 70
     1
  0
XRECORD
  5
334
102
{ACAD_REACTORS
330
333
102
}
330
333
100
AcDbXrecord
280
     1
102
RTVSPropertyOp0
 70
     1
102
RTVSPropertyOp1
 70
     1
102
RTVSPropertyOp2
 70
     1
102
RTVSPropertyOp3
 70
     1
102
RTVSPropertyOp4
 70
     1
102
RTVSPropertyOp5
 70
     1
102
RTVSPropertyOp6
 70
     1
102
RTVSPropertyOp7
 70
     1
102
RTVSPropertyOp8
 70
     1
102
RTVSPropertyOp9
 70
     1
102
RTVSPropertyOp10
 70
     1
102
RTVSPropertyOp11
 70
     1
102
RTVSPropertyOp12
 70
     1
102
RTVSPropertyOp13
 70
     1
102
RTVSPropertyOp14
 70
     1
102
RTVSPropertyOp15
 70
     1
102
RTVSPropertyOp16
 70
     1
102
RTVSPropertyOp17
 70
     1
102
RTVSPropertyOp18
 70
     1
102
RTVSPropertyOp19
 70
     1
102
RTVSPropertyOp20
 70
     1
102
RTVSPropertyOp21
 70
     1
102
RTVSPropertyOp22
 70
     1
102
RTVSPropertyOp23
 70
     1
102
RTVSPropertyOp24
 70
     1
102
RTVSPropertyOp25
 70
     1
102
RTVSPropertyOp26
 70
     1
102
RTVSPropertyOp27
 70
     1
  0
XRECORD
  5
318
102
{ACAD_REACTORS
330
317
102
}
330
317
100
AcDbXrecord
280
     1
102
RTVSPropertyOp0
 70
     1
102
RTVSPropertyOp1
 70
     1
102
RTVSPropertyOp2
 70
     1
102
RTVSPropertyOp3
 70
     1
102
RTVSPropertyOp4
 70
     1
102
RTVSPropertyOp5
 70
     1
102
RTVSPropertyOp6
 70
     1
102
RTVSPropertyOp7
 70
     1
102
RTVSPropertyOp8
 70
     1
102
RTVSPropertyOp9
 70
     1
102
RTVSPropertyOp10
 70
     1
102
RTVSPropertyOp11
 70
     1
102
RTVSPropertyOp12
 70
     1
102
RTVSPropertyOp13
 70
     1
102
RTVSPropertyOp14
 70
     1
102
RTVSPropertyOp15
 70
     1
102
RTVSPropertyOp16
 70
     1
102
RTVSPropertyOp17
 70
     1
102
RTVSPropertyOp18
 70
     1
102
RTVSPropertyOp19
 70
     1
102
RTVSPropertyOp20
 70
     1
102
RTVSPropertyOp21
 70
     1
102
RTVSPropertyOp22
 70
     1
102
RTVSPropertyOp23
 70
     1
102
RTVSPropertyOp24
 70
     1
102
RTVSPropertyOp25
 70
     1
102
RTVSPropertyOp26
 70
     1
102
RTVSPropertyOp27
 70
     1
  0
XRECORD
  5
31A
102
{ACAD_REACTORS
330
319
102
}
330
319
100
AcDbXrecord
280
     1
102
RTVSPropertyOp0
 70
     1
102
RTVSPropertyOp1
 70
     1
102
RTVSPropertyOp2
 70
     1
102
RTVSPropertyOp3
 70
     1
102
RTVSPropertyOp4
 70
     1
102
RTVSPropertyOp5
 70
     1
102
RTVSPropertyOp6
 70
     1
102
RTVSPropertyOp7
 70
     1
102
RTVSPropertyOp8
 70
     1
102
RTVSPropertyOp9
 70
     1
102
RTVSPropertyOp10
 70
     1
102
RTVSPropertyOp11
 70
     1
102
RTVSPropertyOp12
 70
     1
102
RTVSPropertyOp13
 70
     1
102
RTVSPropertyOp14
 70
     1
102
RTVSPropertyOp15
 70
     1
102
RTVSPropertyOp16
 70
     1
102
RTVSPropertyOp17
 70
     1
102
RTVSPropertyOp18
 70
     1
102
RTVSPropertyOp19
 70
     1
102
RTVSPropertyOp20
 70
     1
102
RTVSPropertyOp21
 70
     1
102
RTVSPropertyOp22
 70
     1
102
RTVSPropertyOp23
 70
     1
102
RTVSPropertyOp24
 70
     1
102
RTVSPropertyOp25
 70
     1
102
RTVSPropertyOp26
 70
     1
102
RTVSPropertyOp27
 70
     1
  0
XRECORD
  5
31C
102
{ACAD_REACTORS
330
31B
102
}
330
31B
100
AcDbXrecord
280
     1
102
RTVSPropertyOp0
 70
     1
102
RTVSPropertyOp1
 70
     1
102
RTVSPropertyOp2
 70
     1
102
RTVSPropertyOp3
 70
     1
102
RTVSPropertyOp4
 70
     1
102
RTVSPropertyOp5
 70
     1
102
RTVSPropertyOp6
 70
     1
102
RTVSPropertyOp7
 70
     1
102
RTVSPropertyOp8
 70
     1
102
RTVSPropertyOp9
 70
     1
102
RTVSPropertyOp10
 70
     1
102
RTVSPropertyOp11
 70
     1
102
RTVSPropertyOp12
 70
     1
102
RTVSPropertyOp13
 70
     1
102
RTVSPropertyOp14
 70
     1
102
RTVSPropertyOp15
 70
     1
102
RTVSPropertyOp16
 70
     1
102
RTVSPropertyOp17
 70
     1
102
RTVSPropertyOp18
 70
     1
102
RTVSPropertyOp19
 70
     1
102
RTVSPropertyOp20
 70
     1
102
RTVSPropertyOp21
 70
     1
102
RTVSPropertyOp22
 70
     1
102
RTVSPropertyOp23
 70
     1
102
RTVSPropertyOp24
 70
     1
102
RTVSPropertyOp25
 70
     1
102
RTVSPropertyOp26
 70
     1
102
RTVSPropertyOp27
 70
     1
  0
XRECORD
  5
31E
102
{ACAD_REACTORS
330
31D
102
}
330
31D
100
AcDbXrecord
280
     1
102
RTVSPropertyOp0
 70
     1
102
RTVSPropertyOp1
 70
     1
102
RTVSPropertyOp2
 70
     1
102
RTVSPropertyOp3
 70
     1
102
RTVSPropertyOp4
 70
     1
102
RTVSPropertyOp5
 70
     1
102
RTVSPropertyOp6
 70
     1
102
RTVSPropertyOp7
 70
     1
102
RTVSPropertyOp8
 70
     1
102
RTVSPropertyOp9
 70
     1
102
RTVSPropertyOp10
 70
     1
102
RTVSPropertyOp11
 70
     1
102
RTVSPropertyOp12
 70
     1
102
RTVSPropertyOp13
 70
     1
102
RTVSPropertyOp14
 70
     1
102
RTVSPropertyOp15
 70
     1
102
RTVSPropertyOp16
 70
     1
102
RTVSPropertyOp17
 70
     1
102
RTVSPropertyOp18
 70
     1
102
RTVSPropertyOp19
 70
     1
102
RTVSPropertyOp20
 70
     1
102
RTVSPropertyOp21
 70
     1
102
RTVSPropertyOp22
 70
     1
102
RTVSPropertyOp23
 70
     1
102
RTVSPropertyOp24
 70
     1
102
RTVSPropertyOp25
 70
     1
102
RTVSPropertyOp26
 70
     1
102
RTVSPropertyOp27
 70
     1
  0
XRECORD
  5
332
102
{ACAD_REACTORS
330
331
102
}
330
331
100
AcDbXrecord
280
     1
102
RTVSPropertyOp0
 70
     1
102
RTVSPropertyOp1
 70
     1
102
RTVSPropertyOp2
 70
     1
102
RTVSPropertyOp3
 70
     1
102
RTVSPropertyOp4
 70
     1
102
RTVSPropertyOp5
 70
     1
102
RTVSPropertyOp6
 70
     1
102
RTVSPropertyOp7
 70
     1
102
RTVSPropertyOp8
 70
     1
102
RTVSPropertyOp9
 70
     1
102
RTVSPropertyOp10
 70
     1
102
RTVSPropertyOp11
 70
     1
102
RTVSPropertyOp12
 70
     1
102
RTVSPropertyOp13
 70
     1
102
RTVSPropertyOp14
 70
     1
102
RTVSPropertyOp15
 70
     1
102
RTVSPropertyOp16
 70
     1
102
RTVSPropertyOp17
 70
     1
102
RTVSPropertyOp18
 70
     1
102
RTVSPropertyOp19
 70
     1
102
RTVSPropertyOp20
 70
     1
102
RTVSPropertyOp21
 70
     1
102
RTVSPropertyOp22
 70
     1
102
RTVSPropertyOp23
 70
     1
102
RTVSPropertyOp24
 70
     1
102
RTVSPropertyOp25
 70
     1
102
RTVSPropertyOp26
 70
     1
102
RTVSPropertyOp27
 70
     1
  0
XRECORD
  5
328
102
{ACAD_REACTORS
330
327
102
}
330
327
100
AcDbXrecord
280
     1
102
RTVSPropertyOp0
 70
     1
102
RTVSPropertyOp1
 70
     1
102
RTVSPropertyOp2
 70
     1
102
RTVSPropertyOp3
 70
     1
102
RTVSPropertyOp4
 70
     1
102
RTVSPropertyOp5
 70
     1
102
RTVSPropertyOp6
 70
     1
102
RTVSPropertyOp7
 70
     1
102
RTVSPropertyOp8
 70
     1
102
RTVSPropertyOp9
 70
     1
102
RTVSPropertyOp10
 70
     1
102
RTVSPropertyOp11
 70
     1
102
RTVSPropertyOp12
 70
     1
102
RTVSPropertyOp13
 70
     1
102
RTVSPropertyOp14
 70
     1
102
RTVSPropertyOp15
 70
     1
102
RTVSPropertyOp16
 70
     1
102
RTVSPropertyOp17
 70
     1
102
RTVSPropertyOp18
 70
     1
102
RTVSPropertyOp19
 70
     1
102
RTVSPropertyOp20
 70
     1
102
RTVSPropertyOp21
 70
     1
102
RTVSPropertyOp22
 70
     1
102
RTVSPropertyOp23
 70
     1
102
RTVSPropertyOp24
 70
     1
102
RTVSPropertyOp25
 70
     1
102
RTVSPropertyOp26
 70
     1
102
RTVSPropertyOp27
 70
     1
  0
XRECORD
  5
330
102
{ACAD_REACTORS
330
32F
102
}
330
32F
100
AcDbXrecord
280
     1
102
RTVSPropertyOp0
 70
     1
102
RTVSPropertyOp1
 70
     1
102
RTVSPropertyOp2
 70
     1
102
RTVSPropertyOp3
 70
     1
102
RTVSPropertyOp4
 70
     1
102
RTVSPropertyOp5
 70
     1
102
RTVSPropertyOp6
 70
     1
102
RTVSPropertyOp7
 70
     1
102
RTVSPropertyOp8
 70
     1
102
RTVSPropertyOp9
 70
     1
102
RTVSPropertyOp10
 70
     1
102
RTVSPropertyOp11
 70
     1
102
RTVSPropertyOp12
 70
     1
102
RTVSPropertyOp13
 70
     1
102
RTVSPropertyOp14
 70
     1
102
RTVSPropertyOp15
 70
     1
102
RTVSPropertyOp16
 70
     1
102
RTVSPropertyOp17
 70
     1
102
RTVSPropertyOp18
 70
     1
102
RTVSPropertyOp19
 70
     1
102
RTVSPropertyOp20
 70
     1
102
RTVSPropertyOp21
 70
     1
102
RTVSPropertyOp22
 70
     1
102
RTVSPropertyOp23
 70
     1
102
RTVSPropertyOp24
 70
     1
102
RTVSPropertyOp25
 70
     1
102
RTVSPropertyOp26
 70
     1
102
RTVSPropertyOp27
 70
     1
  0
ENDSEC
  0
EOF
