  0
SECTION
  2
HEADER
  9
$ACADVER
  1
AC1015
  9
$ACADMAINTVER
 70
     6
  9
$DWGCODEPAGE
  3
ANSI_932
  9
$INSBASE
 10
0.0
 20
0.0
 30
0.0
  9
$EXTMIN
 10
-79.5250015258789
 20
-58.5504662787529
 30
0.0
  9
$EXTMAX
 10
341.950718958067
 20
550.999999999999
 30
0.0
  9
$LIMMIN
 10
0.0
 20
0.0
  9
$LIMMAX
 10
12.0
 20
9.0
  9
$ORTHOMODE
 70
     0
  9
$REGENMODE
 70
     1
  9
$FILLMODE
 70
     1
  9
$QTEXTMODE
 70
     0
  9
$MIRRTEXT
 70
     1
  9
$LTSCALE
 40
1.0
  9
$ATTMODE
 70
     1
  9
$TEXTSIZE
 40
0.2
  9
$TRACEWID
 40
0.05
  9
$TEXTSTYLE
  7
Standard
  9
$CLAYER
  8
0
  9
$CELTYPE
  6
ByLayer
  9
$CECOLOR
 62
   256
  9
$CELTSCALE
 40
1.0
  9
$DISPSILH
 70
     0
  9
$DIMSCALE
 40
1.0
  9
$DIMASZ
 40
0.18
  9
$DIMEXO
 40
0.0625
  9
$DIMDLI
 40
0.38
  9
$DIMRND
 40
0.0
  9
$DIMDLE
 40
0.0
  9
$DIMEXE
 40
0.18
  9
$DIMTP
 40
0.0
  9
$DIMTM
 40
0.0
  9
$DIMTXT
 40
0.18
  9
$DIMCEN
 40
0.09
  9
$DIMTSZ
 40
0.0
  9
$DIMTOL
 70
     0
  9
$DIMLIM
 70
     0
  9
$DIMTIH
 70
     1
  9
$DIMTOH
 70
     1
  9
$DIMSE1
 70
     0
  9
$DIMSE2
 70
     0
  9
$DIMTAD
 70
     0
  9
$DIMZIN
 70
     0
  9
$DIMBLK
  1

  9
$DIMASO
 70
     1
  9
$DIMSHO
 70
     1
  9
$DIMPOST
  1

  9
$DIMAPOST
  1

  9
$DIMALT
 70
     0
  9
$DIMALTD
 70
     2
  9
$DIMALTF
 40
25.4
  9
$DIMLFAC
 40
1.0
  9
$DIMTOFL
 70
     0
  9
$DIMTVP
 40
0.0
  9
$DIMTIX
 70
     0
  9
$DIMSOXD
 70
     0
  9
$DIMSAH
 70
     0
  9
$DIMBLK1
  1

  9
$DIMBLK2
  1

  9
$DIMSTYLE
  2
Standard
  9
$DIMCLRD
 70
     0
  9
$DIMCLRE
 70
     0
  9
$DIMCLRT
 70
     0
  9
$DIMTFAC
 40
1.0
  9
$DIMGAP
 40
0.09
  9
$DIMJUST
 70
     0
  9
$DIMSD1
 70
     0
  9
$DIMSD2
 70
     0
  9
$DIMTOLJ
 70
     1
  9
$DIMTZIN
 70
     0
  9
$DIMALTZ
 70
     0
  9
$DIMALTTZ
 70
     0
  9
$DIMUPT
 70
     0
  9
$DIMDEC
 70
     4
  9
$DIMTDEC
 70
     4
  9
$DIMALTU
 70
     2
  9
$DIMALTTD
 70
     2
  9
$DIMTXSTY
  7
Standard
  9
$DIMAUNIT
 70
     0
  9
$DIMADEC
 70
     0
  9
$DIMALTRND
 40
0.0
  9
$DIMAZIN
 70
     0
  9
$DIMDSEP
 70
    46
  9
$DIMATFIT
 70
     3
  9
$DIMFRAC
 70
     0
  9
$DIMLDRBLK
  1

  9
$DIMLUNIT
 70
     2
  9
$DIMLWD
 70
    -2
  9
$DIMLWE
 70
    -2
  9
$DIMTMOVE
 70
     0
  9
$LUNITS
 70
     2
  9
$LUPREC
 70
     4
  9
$SKETCHINC
 40
0.1
  9
$FILLETRAD
 40
0.5
  9
$AUNITS
 70
     0
  9
$AUPREC
 70
     0
  9
$MENU
  1
.
  9
$ELEVATION
 40
0.0
  9
$PELEVATION
 40
0.0
  9
$THICKNESS
 40
0.0
  9
$LIMCHECK
 70
     0
  9
$CHAMFERA
 40
0.5
  9
$CHAMFERB
 40
0.5
  9
$CHAMFERC
 40
1.0
  9
$CHAMFERD
 40
0.0
  9
$SKPOLY
 70
     0
  9
$TDCREATE
 40
2457624.601135347
  9
$TDUCREATE
 40
2457624.226135347
  9
$TDUPDATE
 40
2457624.601135359
  9
$TDUUPDATE
 40
2457624.226135359
  9
$TDINDWG
 40
0.0000000116
  9
$TDUSRTIMER
 40
0.0000000116
  9
$USRTIMER
 70
     1
  9
$ANGBASE
 50
0.0
  9
$ANGDIR
 70
     0
  9
$PDMODE
 70
     0
  9
$PDSIZE
 40
0.0
  9
$PLINEWID
 40
0.0
  9
$SPLFRAME
 70
     0
  9
$SPLINETYPE
 70
     6
  9
$SPLINESEGS
 70
     8
  9
$HANDSEED
  5
577
  9
$SURFTAB1
 70
     6
  9
$SURFTAB2
 70
     6
  9
$SURFTYPE
 70
     6
  9
$SURFU
 70
     6
  9
$SURFV
 70
     6
  9
$UCSBASE
  2

  9
$UCSNAME
  2

  9
$UCSORG
 10
0.0
 20
0.0
 30
0.0
  9
$UCSXDIR
 10
1.0
 20
0.0
 30
0.0
  9
$UCSYDIR
 10
0.0
 20
1.0
 30
0.0
  9
$UCSORTHOREF
  2

  9
$UCSORTHOVIEW
 70
     0
  9
$UCSORGTOP
 10
0.0
 20
0.0
 30
0.0
  9
$UCSORGBOTTOM
 10
0.0
 20
0.0
 30
0.0
  9
$UCSORGLEFT
 10
0.0
 20
0.0
 30
0.0
  9
$UCSORGRIGHT
 10
0.0
 20
0.0
 30
0.0
  9
$UCSORGFRONT
 10
0.0
 20
0.0
 30
0.0
  9
$UCSORGBACK
 10
0.0
 20
0.0
 30
0.0
  9
$PUCSBASE
  2

  9
$PUCSNAME
  2

  9
$PUCSORG
 10
0.0
 20
0.0
 30
0.0
  9
$PUCSXDIR
 10
1.0
 20
0.0
 30
0.0
  9
$PUCSYDIR
 10
0.0
 20
1.0
 30
0.0
  9
$PUCSORTHOREF
  2

  9
$PUCSORTHOVIEW
 70
     0
  9
$PUCSORGTOP
 10
0.0
 20
0.0
 30
0.0
  9
$PUCSORGBOTTOM
 10
0.0
 20
0.0
 30
0.0
  9
$PUCSORGLEFT
 10
0.0
 20
0.0
 30
0.0
  9
$PUCSORGRIGHT
 10
0.0
 20
0.0
 30
0.0
  9
$PUCSORGFRONT
 10
0.0
 20
0.0
 30
0.0
  9
$PUCSORGBACK
 10
0.0
 20
0.0
 30
0.0
  9
$USERI1
 70
     0
  9
$USERI2
 70
     0
  9
$USERI3
 70
     0
  9
$USERI4
 70
     0
  9
$USERI5
 70
     0
  9
$USERR1
 40
18.0
  9
$USERR2
 40
0.0
  9
$USERR3
 40
0.0
  9
$USERR4
 40
0.0
  9
$USERR5
 40
0.0
  9
$WORLDVIEW
 70
     1
  9
$SHADEDGE
 70
     3
  9
$SHADEDIF
 70
    70
  9
$TILEMODE
 70
     1
  9
$MAXACTVP
 70
    64
  9
$PINSBASE
 10
0.0
 20
0.0
 30
0.0
  9
$PLIMCHECK
 70
     0
  9
$PEXTMIN
 10
1.00000000000000E+20
 20
1.00000000000000E+20
 30
1.00000000000000E+20
  9
$PEXTMAX
 10
-1.00000000000000E+20
 20
-1.00000000000000E+20
 30
-1.00000000000000E+20
  9
$PLIMMIN
 10
0.0
 20
0.0
  9
$PLIMMAX
 10
12.0
 20
9.0
  9
$UNITMODE
 70
     0
  9
$VISRETAIN
 70
     1
  9
$PLINEGEN
 70
     0
  9
$PSLTSCALE
 70
     1
  9
$TREEDEPTH
 70
  3020
  9
$CMLSTYLE
  2
Standard
  9
$CMLJUST
 70
     0
  9
$CMLSCALE
 40
1.0
  9
$PROXYGRAPHICS
 70
     1
  9
$MEASUREMENT
 70
     1
  9
$CELWEIGHT
370
    -1
  9
$ENDCAPS
280
     0
  9
$JOINSTYLE
280
     0
  9
$LWDISPLAY
290
     0
  9
$INSUNITS
 70
     1
  9
$HYPERLINKBASE
  1

  9
$STYLESHEET
  1

  9
$XEDIT
290
     1
  9
$CEPSNTYPE
380
     0
  9
$PSTYLEMODE
290
     1
  9
$FINGERPRINTGUID
  2
{378AF5B9-5C5B-46D8-9A30-6ED3D50D8665}
  9
$VERSIONGUID
  2
{FAEB1C32-E019-11D5-929B-00C0DF256EC4}
  9
$EXTNAMES
290
     1
  9
$PSVPSCALE
 40
0.0
  9
$OLESTARTUP
290
     0
  0
ENDSEC
  0
SECTION
  2
CLASSES
  0
CLASS
  1
ACDBDICTIONARYWDFLT
  2
AcDbDictionaryWithDefault
  3
ObjectDBX Classes
 90
        0
280
     0
281
     0
  0
CLASS
  1
VISUALSTYLE
  2
AcDbVisualStyle
  3
ObjectDBX Classes
 90
     4095
280
     0
281
     0
  0
CLASS
  1
MATERIAL
  2
AcDbMaterial
  3
ObjectDBX Classes
 90
     1153
280
     0
281
     0
  0
CLASS
  1

  2
exOdDbCircle
  3

 90
        0
280
     0
281
     1
  0
CLASS
  1

  2
exOdDbSpline
  3

 90
        0
280
     0
281
     1
  0
CLASS
  1

  2
exOdDbPolyline
  3

 90
        0
280
     0
281
     1
  0
CLASS
  1
DICTIONARYVAR
  2
AcDbDictionaryVar
  3
ObjectDBX Classes
 90
        0
280
     0
281
     0
  0
CLASS
  1
ACDBPLACEHOLDER
  2
AcDbPlaceHolder
  3
ObjectDBX Classes
 90
        0
280
     0
281
     0
  0
CLASS
  1
LAYOUT
  2
AcDbLayout
  3
ObjectDBX Classes
 90
        0
280
     0
281
     0
  0
ENDSEC
  0
SECTION
  2
TABLES
  0
TABLE
  2
VPORT
  5
8
330
0
100
AcDbSymbolTable
 70
     1
  0
VPORT
  5
29
330
8
100
AcDbSymbolTableRecord
100
AcDbViewportTableRecord
  2
*Active
 70
     0
 10
0.0
 20
0.0
 11
1.0
 21
1.0
 12
131.212858716094
 22
246.224766860623
 13
0.0
 23
0.0
 14
0.5
 24
0.5
 15
0.5
 25
0.5
 16
0.0
 26
0.0
 36
1.0
 17
0.0
 27
0.0
 37
0.0
 40
670.5055129066271
 41
1.60267857142857
 42
50.0
 43
0.0
 44
0.0
 50
0.0
 51
0.0
 71
     0
 72
   100
 73
     1
 74
     3
 75
     0
 76
     0
 77
     0
 78
     0
281
     0
 65
     1
110
0.0
120
0.0
130
0.0
111
1.0
121
0.0
131
0.0
112
0.0
122
1.0
132
0.0
 79
     0
146
0.0
  0
ENDTAB
  0
TABLE
  2
LTYPE
  5
5
330
0
100
AcDbSymbolTable
 70
     9
  0
LTYPE
  5
14
330
5
100
AcDbSymbolTableRecord
100
AcDbLinetypeTableRecord
  2
ByBlock
 70
     0
  3

 72
    65
 73
     0
 40
0.0
  0
LTYPE
  5
15
330
5
100
AcDbSymbolTableRecord
100
AcDbLinetypeTableRecord
  2
ByLayer
 70
     0
  3

 72
    65
 73
     0
 40
0.0
  0
LTYPE
  5
16
330
5
100
AcDbSymbolTableRecord
100
AcDbLinetypeTableRecord
  2
Continuous
 70
     0
  3
Solid line
 72
    65
 73
     0
 40
0.0
  0
LTYPE
  5
3F
330
5
100
AcDbSymbolTableRecord
100
AcDbLinetypeTableRecord
  2
DASHED
 70
     0
  3
Dashed
 72
    65
 73
     2
 40
15.0
 49
7.0
 74
     0
 49
-8.0
 74
     0
  0
LTYPE
  5
40
330
5
100
AcDbSymbolTableRecord
100
AcDbLinetypeTableRecord
  2
DOTTED
 70
     0
  3
Dotted
 72
    65
 73
     2
 40
1.0
 49
0.0
 74
     0
 49
-1.0
 74
     0
  0
LTYPE
  5
41
330
5
100
AcDbSymbolTableRecord
100
AcDbLinetypeTableRecord
  2
DOT_CENTER
 70
     0
  3
Dot_Center
 72
    65
 73
     4
 40
14.0
 49
12.0
 74
     0
 49
-1.0
 74
     0
 49
0.0
 74
     0
 49
-1.0
 74
     0
  0
LTYPE
  5
42
330
5
100
AcDbSymbolTableRecord
100
AcDbLinetypeTableRecord
  2
LONG_DASHED
 70
     0
  3
Long_Dashed
 72
    65
 73
     2
 40
15.0
 49
10.0
 74
     0
 49
-5.0
 74
     0
  0
LTYPE
  5
43
330
5
100
AcDbSymbolTableRecord
100
AcDbLinetypeTableRecord
  2
DASH_CENTER
 70
     0
  3
Dash_Center
 72
    65
 73
     4
 40
14.0
 49
11.0
 74
     0
 49
-1.0
 74
     0
 49
1.0
 74
     0
 49
-1.0
 74
     0
  0
LTYPE
  5
44
330
5
100
AcDbSymbolTableRecord
100
AcDbLinetypeTableRecord
  2
PHANTOM
 70
     0
  3
Phantom
 72
    65
 73
     6
 40
13.0
 49
10.0
 74
     0
 49
-1.0
 74
     0
 49
0.0
 74
     0
 49
-1.0
 74
     0
 49
0.0
 74
     0
 49
-1.0
 74
     0
  0
LTYPE
  5
45
330
5
100
AcDbSymbolTableRecord
100
AcDbLinetypeTableRecord
  2
CENTER_DASH_DASH
 70
     0
  3
Center_Dash_Dash
 72
    65
 73
     6
 40
14.0
 49
9.0
 74
     0
 49
-1.0
 74
     0
 49
1.0
 74
     0
 49
-1.0
 74
     0
 49
1.0
 74
     0
 49
-1.0
 74
     0
  0
LTYPE
  5
46
330
5
100
AcDbSymbolTableRecord
100
AcDbLinetypeTableRecord
  2
CENTER
 70
     0
  3
CENTER
 72
    65
 73
     4
 40
6.0
 49
3.0
 74
     0
 49
-1.0
 74
     0
 49
1.0
 74
     0
 49
-1.0
 74
     0
  0
ENDTAB
  0
TABLE
  2
LAYER
  5
2
330
0
100
AcDbSymbolTable
 70
     5
  0
LAYER
  5
10
330
2
100
AcDbSymbolTableRecord
100
AcDbLayerTableRecord
  2
0
 70
     0
 62
     7
  6
Continuous
370
    -3
390
F
  0
LAYER
  5
47
330
2
100
AcDbSymbolTableRecord
100
AcDbLayerTableRecord
  2
1
 70
     0
 62
     7
  6
Continuous
370
    -3
390
F
  0
LAYER
  5
48
330
2
100
AcDbSymbolTableRecord
100
AcDbLayerTableRecord
  2
100
 70
     0
 62
     7
  6
Continuous
370
    -3
390
F
  0
LAYER
  5
49
330
2
100
AcDbSymbolTableRecord
100
AcDbLayerTableRecord
  2
2
 70
     0
 62
     7
  6
Continuous
370
    -3
390
F
  0
LAYER
  5
4A
330
2
100
AcDbSymbolTableRecord
100
AcDbLayerTableRecord
  2
3
 70
     0
 62
     7
  6
Continuous
370
    -3
390
F
  0
ENDTAB
  0
TABLE
  2
STYLE
  5
3
330
0
100
AcDbSymbolTable
 70
     1
  0
STYLE
  5
11
330
3
100
AcDbSymbolTableRecord
100
AcDbTextStyleTableRecord
  2
Standard
 70
     0
 40
0.0
 41
1.0
 50
0.0
 71
     0
 42
0.2
  3
txt
  4

  0
ENDTAB
  0
TABLE
  2
VIEW
  5
6
330
0
100
AcDbSymbolTable
 70
     0
  0
ENDTAB
  0
TABLE
  2
UCS
  5
7
330
0
100
AcDbSymbolTable
 70
     0
  0
ENDTAB
  0
TABLE
  2
APPID
  5
9
330
0
100
AcDbSymbolTable
 70
     1
  0
APPID
  5
12
330
9
100
AcDbSymbolTableRecord
100
AcDbRegAppTableRecord
  2
ACAD
 70
     0
  0
ENDTAB
  0
TABLE
  2
DIMSTYLE
  5
A
330
0
100
AcDbSymbolTable
 70
     1
100
AcDbDimStyleTable
  0
DIMSTYLE
105
27
330
A
100
AcDbSymbolTableRecord
100
AcDbDimStyleTableRecord
  2
Standard
 70
     0
340
11
  0
ENDTAB
  0
TABLE
  2
BLOCK_RECORD
  5
1
330
0
100
AcDbSymbolTable
 70
     1
  0
BLOCK_RECORD
  5
1F
330
1
100
AcDbSymbolTableRecord
100
AcDbBlockTableRecord
  2
*Model_Space
340
22
  0
BLOCK_RECORD
  5
1B
330
1
100
AcDbSymbolTableRecord
100
AcDbBlockTableRecord
  2
*Paper_Space
340
1E
  0
BLOCK_RECORD
  5
23
330
1
100
AcDbSymbolTableRecord
100
AcDbBlockTableRecord
  2
*Paper_Space0
340
26
  0
ENDTAB
  0
ENDSEC
  0
SECTION
  2
BLOCKS
  0
BLOCK
  5
20
330
1F
100
AcDbEntity
  8
0
100
AcDbBlockBegin
  2
*Model_Space
 70
     0
 10
0.0
 20
0.0
 30
0.0
  3
*Model_Space
  1

  0
ENDBLK
  5
21
330
1F
100
AcDbEntity
  8
0
100
AcDbBlockEnd
  0
BLOCK
  5
1C
330
1B
100
AcDbEntity
 67
     1
  8
0
100
AcDbBlockBegin
  2
*Paper_Space
 70
     0
 10
0.0
 20
0.0
 30
0.0
  3
*Paper_Space
  1

  0
ENDBLK
  5
1D
330
1B
100
AcDbEntity
 67
     1
  8
0
100
AcDbBlockEnd
  0
BLOCK
  5
24
330
23
100
AcDbEntity
  8
0
100
AcDbBlockBegin
  2
*Paper_Space0
 70
     0
 10
0.0
 20
0.0
 30
0.0
  3
*Paper_Space0
  1

  0
ENDBLK
  5
25
330
23
100
AcDbEntity
  8
0
100
AcDbBlockEnd
  0
ENDSEC
  0
SECTION
  2
ENTITIES
  0
LINE
  5
4B
330
1F
100
AcDbEntity
  8
1
  6
Continuous
 62
     4
100
AcDbLine
 10
14.8129489429515
 20
-53.5504662787529
 30
0.0
 11
14.0208489429515
 21
-54.8004662787529
 31
0.0
  0
LINE
  5
4C
330
1F
100
AcDbEntity
  8
1
  6
Continuous
 62
     4
100
AcDbLine
 10
14.0208489429515
 20
-52.3004662787529
 30
0.0
 11
14.8129489429515
 21
-53.5504662787529
 31
0.0
  0
LINE
  5
4D
330
1F
100
AcDbEntity
  8
1
  6
Continuous
 62
     4
100
AcDbLine
 10
8.8721989429515
 20
-53.5504662787529
 30
0.0
 11
14.8129489429515
 21
-53.5504662787529
 31
0.0
  0
LINE
  5
4E
330
1F
100
AcDbEntity
  8
1
  6
Continuous
 62
     4
100
AcDbLine
 10
2.3373739429515
 20
-50.6754662787529
 30
0.0
 11
6.8919489429515
 21
-50.6754662787529
 31
0.0
  0
LINE
  5
4F
330
1F
100
AcDbEntity
  8
1
  6
Continuous
 62
     4
100
AcDbLine
 10
2.3373739429515
 20
-50.6754662787529
 30
0.0
 11
3.4265114429515
 21
-48.8004662787529
 31
0.0
  0
LINE
  5
50
330
1F
100
AcDbEntity
  8
1
  6
Continuous
 62
     4
100
AcDbLine
 10
4.9116989429515
 20
-55.4254662787529
 30
0.0
 11
3.2284864429515
 21
-55.4254662787529
 31
0.0
  0
LINE
  5
51
330
1F
100
AcDbEntity
  8
1
  6
Continuous
 62
     4
100
AcDbLine
 10
4.9116989429515
 20
-52.9254662787529
 30
0.0
 11
4.9116989429515
 21
-55.4254662787529
 31
0.0
  0
LINE
  5
52
330
1F
100
AcDbEntity
  8
1
  6
Continuous
 62
     4
100
AcDbLine
 10
3.2284864429515
 20
-52.9254662787529
 30
0.0
 11
4.9116989429515
 21
-52.9254662787529
 31
0.0
  0
LINE
  5
53
330
1F
100
AcDbEntity
  8
1
  6
Continuous
 62
     4
100
AcDbLine
 10
3.2284864429515
 20
-55.4254662787529
 30
0.0
 11
3.2284864429515
 21
-52.9254662787529
 31
0.0
  0
LINE
  5
54
330
1F
100
AcDbEntity
  8
1
  6
Continuous
 62
     4
100
AcDbLine
 10
6.8919489429515
 20
-58.1754662787529
 30
0.0
 11
5.8028114429515
 21
-58.1754662787529
 31
0.0
  0
LINE
  5
55
330
1F
100
AcDbEntity
  8
1
  6
Continuous
 62
     4
100
AcDbLine
 10
6.8919489429515
 20
-50.6754662787529
 30
0.0
 11
6.8919489429515
 21
-58.1754662787529
 31
0.0
  0
LINE
  5
56
330
1F
100
AcDbEntity
  8
1
  6
Continuous
 62
     4
100
AcDbLine
 10
1.2482364429515
 20
-50.6754662787529
 30
0.0
 11
2.3373739429515
 21
-50.6754662787529
 31
0.0
  0
LINE
  5
57
330
1F
100
AcDbEntity
  8
1
  6
Continuous
 62
     4
100
AcDbLine
 10
1.2482364429515
 20
-58.1754662787529
 30
0.0
 11
1.2482364429515
 21
-50.6754662787529
 31
0.0
  0
LINE
  5
58
330
1F
100
AcDbEntity
  8
1
  6
Continuous
 62
     4
100
AcDbLine
 10
-3.0093010570485
 20
-58.5504662787529
 30
0.0
 11
-3.8014010570485
 21
-57.9254662787529
 31
0.0
  0
LINE
  5
59
330
1F
100
AcDbEntity
  8
1
  6
Continuous
 62
     4
100
AcDbLine
 10
-2.5142385570485
 20
-57.5504662787529
 30
0.0
 11
-3.0093010570485
 21
-58.5504662787529
 31
0.0
  0
LINE
  5
5A
330
1F
100
AcDbEntity
  8
1
  6
Continuous
 62
     4
100
AcDbLine
 10
-2.1181885570485
 20
-56.0504662787529
 30
0.0
 11
-2.5142385570485
 21
-57.5504662787529
 31
0.0
  0
LINE
  5
5B
330
1F
100
AcDbEntity
  8
1
  6
Continuous
 62
     4
100
AcDbLine
 10
-1.6231260570485
 20
-53.8004662787529
 30
0.0
 11
-2.1181885570485
 21
-56.0504662787529
 31
0.0
  0
LINE
  5
5C
330
1F
100
AcDbEntity
  8
1
  6
Continuous
 62
     4
100
AcDbLine
 10
-1.6231260570485
 20
-52.9254662787529
 30
0.0
 11
-1.6231260570485
 21
-53.8004662787529
 31
0.0
  0
LINE
  5
5D
330
1F
100
AcDbEntity
  8
1
  6
Continuous
 62
     4
100
AcDbLine
 10
-4.4944885570485
 20
-52.9254662787529
 30
0.0
 11
-1.6231260570485
 21
-52.9254662787529
 31
0.0
  0
LINE
  5
5E
330
1F
100
AcDbEntity
  8
1
  6
Continuous
 62
     4
100
AcDbLine
 10
-7.1678260570485
 20
-50.4254662787529
 30
0.0
 11
-0.5339885570485
 21
-50.4254662787529
 31
0.0
  0
LINE
  5
5F
330
1F
100
AcDbEntity
  8
1
  6
Continuous
 62
     4
100
AcDbLine
 10
-4.2964635570485
 20
-51.3004662787529
 30
0.0
 11
-4.0984385570485
 21
-48.8004662787529
 31
0.0
  0
LINE
  5
60
330
1F
100
AcDbEntity
  8
1
  6
Continuous
 62
     4
100
AcDbLine
 10
-4.6925135570485
 20
-53.8004662787529
 30
0.0
 11
-4.2964635570485
 21
-51.3004662787529
 31
0.0
  0
LINE
  5
61
330
1F
100
AcDbEntity
  8
1
  6
Continuous
 62
     4
100
AcDbLine
 10
-5.1875760570485
 20
-55.4254662787529
 30
0.0
 11
-4.6925135570485
 21
-53.8004662787529
 31
0.0
  0
LINE
  5
62
330
1F
100
AcDbEntity
  8
1
  6
Continuous
 62
     4
100
AcDbLine
 10
-5.7816510570485
 20
-56.9254662787529
 30
0.0
 11
-5.1875760570485
 21
-55.4254662787529
 31
0.0
  0
LINE
  5
63
330
1F
100
AcDbEntity
  8
1
  6
Continuous
 62
     4
100
AcDbLine
 10
-6.6727635570485
 20
-58.1754662787529
 30
0.0
 11
-5.7816510570485
 21
-56.9254662787529
 31
0.0
  0
LINE
  5
64
330
1F
100
AcDbEntity
  8
1
  6
Continuous
 62
     4
100
AcDbLine
 10
-9.3461010570485
 20
-55.4254662787529
 30
0.0
 11
-8.2569635570485
 21
-56.9254662787529
 31
0.0
  0
LINE
  5
65
330
1F
100
AcDbEntity
  8
1
  6
Continuous
 62
     4
100
AcDbLine
 10
-10.2372135570485
 20
-53.5504662787529
 30
0.0
 11
-9.3461010570485
 21
-55.4254662787529
 31
0.0
  0
LINE
  5
66
330
1F
100
AcDbEntity
  8
1
  6
Continuous
 62
     4
100
AcDbLine
 10
-10.9303010570485
 20
-51.3004662787529
 30
0.0
 11
-10.2372135570485
 21
-53.5504662787529
 31
0.0
  0
LINE
  5
67
330
1F
100
AcDbEntity
  8
1
  6
Continuous
 62
     4
100
AcDbLine
 10
-8.9500510570485
 20
-51.0504662787529
 30
0.0
 11
-10.4352385570485
 21
-52.5504662787529
 31
0.0
  0
LINE
  5
68
330
1F
100
AcDbEntity
  8
1
  6
Continuous
 62
     4
100
AcDbLine
 10
-11.5243760570485
 20
-58.5504662787529
 30
0.0
 11
-12.2174635570485
 21
-58.1754662787529
 31
0.0
  0
LINE
  5
69
330
1F
100
AcDbEntity
  8
1
  6
Continuous
 62
     4
100
AcDbLine
 10
-11.5243760570485
 20
-48.8004662787529
 30
0.0
 11
-11.5243760570485
 21
-58.5504662787529
 31
0.0
  0
LINE
  5
6A
330
1F
100
AcDbEntity
  8
1
  6
Continuous
 62
     4
100
AcDbLine
 10
-12.6135135570485
 20
-51.9254662787529
 30
0.0
 11
-14.8908010570485
 21
-51.9254662787529
 31
0.0
  0
LINE
  5
6B
330
1F
100
AcDbEntity
  8
1
  6
Continuous
 62
     4
100
AcDbLine
 10
-13.1085760570485
 20
-53.8004662787529
 30
0.0
 11
-12.6135135570485
 21
-51.9254662787529
 31
0.0
  0
LINE
  5
6C
330
1F
100
AcDbEntity
  8
1
  6
Continuous
 62
     4
100
AcDbLine
 10
-13.9996885570485
 20
-55.6754662787529
 30
0.0
 11
-13.1085760570485
 21
-53.8004662787529
 31
0.0
  0
LINE
  5
6D
330
1F
100
AcDbEntity
  8
1
  6
Continuous
 62
     4
100
AcDbLine
 10
-14.8908010570485
 20
-56.9254662787529
 30
0.0
 11
-13.9996885570485
 21
-55.6754662787529
 31
0.0
  0
LINE
  5
6E
330
1F
100
AcDbEntity
  8
1
  6
Continuous
 62
     4
100
AcDbLine
 10
-19.2473510570485
 20
-50.0504662787529
 30
0.0
 11
-16.5740135570485
 21
-50.0504662787529
 31
0.0
  0
LINE
  5
6F
330
1F
100
AcDbEntity
  8
1
  6
Continuous
 62
     4
100
AcDbLine
 10
-16.1779635570485
 20
-57.5504662787529
 30
0.0
 11
-16.1779635570485
 21
-56.9254662787529
 31
0.0
  0
LINE
  5
70
330
1F
100
AcDbEntity
  8
1
  6
Continuous
 62
     4
100
AcDbLine
 10
-16.5740135570485
 20
-58.1754662787529
 30
0.0
 11
-16.1779635570485
 21
-57.5504662787529
 31
0.0
  0
LINE
  5
71
330
1F
100
AcDbEntity
  8
1
  6
Continuous
 62
     4
100
AcDbLine
 10
-17.4651260570485
 20
-58.1754662787529
 30
0.0
 11
-16.5740135570485
 21
-58.1754662787529
 31
0.0
  0
LINE
  5
72
330
1F
100
AcDbEntity
  8
1
  6
Continuous
 62
     4
100
AcDbLine
 10
-17.9601885570485
 20
-57.3004662787529
 30
0.0
 11
-17.4651260570485
 21
-58.1754662787529
 31
0.0
  0
LINE
  5
73
330
1F
100
AcDbEntity
  8
1
  6
Continuous
 62
     4
100
AcDbLine
 10
-17.9601885570485
 20
-54.1754662787529
 30
0.0
 11
-17.9601885570485
 21
-57.3004662787529
 31
0.0
  0
LINE
  5
74
330
1F
100
AcDbEntity
  8
1
  6
Continuous
 62
     4
100
AcDbLine
 10
-19.2473510570485
 20
-58.1754662787529
 30
0.0
 11
-19.2473510570485
 21
-54.1754662787529
 31
0.0
  0
LINE
  5
75
330
1F
100
AcDbEntity
  8
1
  6
Continuous
 62
     4
100
AcDbLine
 10
-21.2276010570485
 20
-57.9254662787529
 30
0.0
 11
-21.9206885570485
 21
-58.5504662787529
 31
0.0
  0
LINE
  5
76
330
1F
100
AcDbEntity
  8
1
  6
Continuous
 62
     4
100
AcDbLine
 10
-20.8315510570485
 20
-57.3004662787529
 30
0.0
 11
-21.2276010570485
 21
-57.9254662787529
 31
0.0
  0
LINE
  5
77
330
1F
100
AcDbEntity
  8
1
  6
Continuous
 62
     4
100
AcDbLine
 10
-20.5345135570485
 20
-56.3004662787529
 30
0.0
 11
-20.8315510570485
 21
-57.3004662787529
 31
0.0
  0
LINE
  5
78
330
1F
100
AcDbEntity
  8
1
  6
Continuous
 62
     4
100
AcDbLine
 10
-20.3364885570485
 20
-54.1754662787529
 30
0.0
 11
-20.5345135570485
 21
-56.3004662787529
 31
0.0
  0
LINE
  5
79
330
1F
100
AcDbEntity
  8
1
  6
Continuous
 62
     4
100
AcDbLine
 10
-18.1582135570485
 20
-51.0504662787529
 30
0.0
 11
-17.2671010570485
 21
-53.1754662787529
 31
0.0
  0
LINE
  5
7A
330
1F
100
AcDbEntity
  8
1
  6
Continuous
 62
     4
100
AcDbLine
 10
-21.0295760570485
 20
-52.5504662787529
 30
0.0
 11
-17.6631510570485
 21
-52.3004662787529
 31
0.0
  0
LINE
  5
7B
330
1F
100
AcDbEntity
  8
1
  6
Continuous
 62
     4
100
AcDbLine
 10
-19.2473510570485
 20
-50.0504662787529
 30
0.0
 11
-20.1384635570485
 21
-52.5504662787529
 31
0.0
  0
LINE
  5
7C
330
1F
100
AcDbEntity
  8
1
  6
Continuous
 62
     4
100
AcDbLine
 10
-19.0493260570485
 20
-48.5504662787529
 30
0.0
 11
-19.0493260570485
 21
-50.0504662787529
 31
0.0
  0
LINE
  5
7D
330
1F
100
AcDbEntity
  8
1
  6
Continuous
 62
     4
100
AcDbLine
 10
-21.4256260570485
 20
-50.0504662787529
 30
0.0
 11
-19.2473510570485
 21
-50.0504662787529
 31
0.0
  0
LINE
  5
7E
330
1F
100
AcDbEntity
  8
1
  6
Continuous
 62
     4
100
AcDbLine
 10
-23.0098260570485
 20
-58.1754662787529
 30
0.0
 11
-22.1187135570485
 21
-54.1754662787529
 31
0.0
  0
LINE
  5
7F
330
1F
100
AcDbEntity
  8
1
  6
Continuous
 62
     4
100
AcDbLine
 10
-23.2078510570485
 20
-51.6754662787529
 30
0.0
 11
-22.5147635570485
 21
-52.5504662787529
 31
0.0
  0
LINE
  5
80
330
1F
100
AcDbEntity
  8
1
  6
Continuous
 62
     4
100
AcDbLine
 10
-22.5147635570485
 20
-48.8004662787529
 30
0.0
 11
-22.1187135570485
 21
-49.8004662787529
 31
0.0
  0
LINE
  5
81
330
1F
100
AcDbEntity
  8
1
  6
Continuous
 62
     4
100
AcDbLine
 10
-50.5750007629395
 20
-25.2000045776367
 30
0.0
 11
-48.5750007629395
 21
-26.4500045776367
 31
0.0
  0
LINE
  5
82
330
1F
100
AcDbEntity
  8
1
  6
Continuous
 62
     4
100
AcDbLine
 10
-47.8250007629395
 20
-24.5750045776367
 30
0.0
 11
-49.4500007629395
 21
-23.3250045776367
 31
0.0
  0
LINE
  5
83
330
1F
100
AcDbEntity
  8
1
  6
Continuous
 62
     4
100
AcDbLine
 10
-46.4500007629395
 20
-23.0750045776367
 30
0.0
 11
-45.5750007629395
 21
-23.9500045776367
 31
0.0
  0
LINE
  5
84
330
1F
100
AcDbEntity
  8
1
  6
Continuous
 62
     4
100
AcDbLine
 10
-44.9500007629395
 20
-23.3250045776367
 30
0.0
 11
-45.8250007629395
 21
-22.4500045776367
 31
0.0
  0
LINE
  5
85
330
1F
100
AcDbEntity
  8
1
  6
Continuous
 62
     4
100
AcDbLine
 10
-45.5750007629395
 20
-27.0750045776367
 30
0.0
 11
-44.2000007629395
 21
-25.2000045776367
 31
0.0
  0
LINE
  5
86
330
1F
100
AcDbEntity
  8
1
  6
Continuous
 62
     4
100
AcDbLine
 10
-47.8250007629395
 20
-28.9500045776367
 30
0.0
 11
-45.5750007629395
 21
-27.0750045776367
 31
0.0
  0
LINE
  5
87
330
1F
100
AcDbEntity
  8
1
  6
Continuous
 62
     4
100
AcDbLine
 10
-49.9500007629395
 20
-30.2000045776367
 30
0.0
 11
-47.8250007629395
 21
-28.9500045776367
 31
0.0
  0
LINE
  5
88
330
1F
100
AcDbEntity
  8
1
  6
Continuous
 62
     4
100
AcDbLine
 10
-55.3250007629395
 20
-27.4500045776367
 30
0.0
 11
-54.4500007629395
 21
-28.7000045776367
 31
0.0
  0
LINE
  5
89
330
1F
100
AcDbEntity
  8
1
  6
Continuous
 62
     4
100
AcDbLine
 10
-56.4500007629395
 20
-26.4500045776367
 30
0.0
 11
-55.3250007629395
 21
-27.4500045776367
 31
0.0
  0
LINE
  5
8A
330
1F
100
AcDbEntity
  8
1
  6
Continuous
 62
     4
100
AcDbLine
 10
-57.2000007629395
 20
-22.4500045776367
 30
0.0
 11
-56.7000007629395
 21
-23.0750045776367
 31
0.0
  0
LINE
  5
8B
330
1F
100
AcDbEntity
  8
1
  6
Continuous
 62
     4
100
AcDbLine
 10
-58.3250007629395
 20
-21.8250045776367
 30
0.0
 11
-57.2000007629395
 21
-22.4500045776367
 31
0.0
  0
LINE
  5
8C
330
1F
100
AcDbEntity
  8
1
  6
Continuous
 62
     4
100
AcDbLine
 10
-55.8250007629395
 20
-24.3250045776367
 30
0.0
 11
-59.7000007629395
 21
-24.3250045776367
 31
0.0
  0
LINE
  5
8D
330
1F
100
AcDbEntity
  8
1
  6
Continuous
 62
     4
100
AcDbLine
 10
-57.8250007629395
 20
-26.4500045776367
 30
0.0
 11
-55.8250007629395
 21
-24.3250045776367
 31
0.0
  0
LINE
  5
8E
330
1F
100
AcDbEntity
  8
1
  6
Continuous
 62
     4
100
AcDbLine
 10
-60.5750007629395
 20
-28.3250045776367
 30
0.0
 11
-57.8250007629395
 21
-26.4500045776367
 31
0.0
  0
LINE
  5
8F
330
1F
100
AcDbEntity
  8
1
  6
Continuous
 62
     4
100
AcDbLine
 10
-57.4500007629395
 20
-30.2000045776367
 30
0.0
 11
-57.4500007629395
 21
-26.2000045776367
 31
0.0
  0
LINE
  5
90
330
1F
100
AcDbEntity
  8
1
  6
Continuous
 62
     4
100
AcDbLine
 10
-64.9500007629395
 20
-21.2000045776367
 30
0.0
 11
-64.9500007629395
 21
-31.2000045776367
 31
0.0
  0
LINE
  5
91
330
1F
100
AcDbEntity
  8
1
  6
Continuous
 62
     4
100
AcDbLine
 10
-67.9500007629395
 20
-24.2000045776367
 30
0.0
 11
-64.9500007629395
 21
-21.2000045776367
 31
0.0
  0
LINE
  5
92
330
1F
100
AcDbEntity
  8
1
  6
Continuous
 62
     4
100
AcDbLine
 10
-70.9500007629395
 20
-25.7000045776367
 30
0.0
 11
-73.4500007629395
 21
-25.7000045776367
 31
0.0
  0
LINE
  5
93
330
1F
100
AcDbEntity
  8
1
  6
Continuous
 62
     4
100
AcDbLine
 10
-70.9500007629395
 20
-31.2000045776367
 30
0.0
 11
-70.9500007629395
 21
-25.7000045776367
 31
0.0
  0
LINE
  5
94
330
1F
100
AcDbEntity
  8
1
  6
Continuous
 62
     4
100
AcDbLine
 10
-75.2000007629395
 20
-31.2000045776367
 30
0.0
 11
-70.9500007629395
 21
-31.2000045776367
 31
0.0
  0
LINE
  5
95
330
1F
100
AcDbEntity
  8
1
  6
Continuous
 62
     4
100
AcDbLine
 10
-75.9500007629395
 20
-30.9500045776367
 30
0.0
 11
-75.2000007629395
 21
-31.2000045776367
 31
0.0
  0
LINE
  5
96
330
1F
100
AcDbEntity
  8
1
  6
Continuous
 62
     4
100
AcDbLine
 10
-76.9500007629395
 20
-30.4500045776367
 30
0.0
 11
-75.9500007629395
 21
-30.9500045776367
 31
0.0
  0
LINE
  5
97
330
1F
100
AcDbEntity
  8
1
  6
Continuous
 62
     4
100
AcDbLine
 10
-77.4500007629395
 20
-29.9500045776367
 30
0.0
 11
-76.9500007629395
 21
-30.4500045776367
 31
0.0
  0
LINE
  5
98
330
1F
100
AcDbEntity
  8
1
  6
Continuous
 62
     4
100
AcDbLine
 10
-77.7000007629395
 20
-29.2000045776367
 30
0.0
 11
-77.4500007629395
 21
-29.9500045776367
 31
0.0
  0
LINE
  5
99
330
1F
100
AcDbEntity
  8
1
  6
Continuous
 62
     4
100
AcDbLine
 10
-77.9500007629395
 20
-28.2000045776367
 30
0.0
 11
-77.7000007629395
 21
-29.2000045776367
 31
0.0
  0
LINE
  5
9A
330
1F
100
AcDbEntity
  8
1
  6
Continuous
 62
     4
100
AcDbLine
 10
-77.9500007629395
 20
-24.2000045776367
 30
0.0
 11
-77.9500007629395
 21
-28.2000045776367
 31
0.0
  0
LINE
  5
9B
330
1F
100
AcDbEntity
  8
1
  6
Continuous
 62
     4
100
AcDbLine
 10
-77.7000007629395
 20
-23.2000045776367
 30
0.0
 11
-77.9500007629395
 21
-24.2000045776367
 31
0.0
  0
LINE
  5
9C
330
1F
100
AcDbEntity
  8
1
  6
Continuous
 62
     4
100
AcDbLine
 10
-77.4500007629395
 20
-22.4500045776367
 30
0.0
 11
-77.7000007629395
 21
-23.2000045776367
 31
0.0
  0
LINE
  5
9D
330
1F
100
AcDbEntity
  8
1
  6
Continuous
 62
     4
100
AcDbLine
 10
-76.9500007629395
 20
-21.9500045776367
 30
0.0
 11
-77.4500007629395
 21
-22.4500045776367
 31
0.0
  0
LINE
  5
9E
330
1F
100
AcDbEntity
  8
1
  6
Continuous
 62
     4
100
AcDbLine
 10
-76.2000007629395
 20
-21.4500045776367
 30
0.0
 11
-76.9500007629395
 21
-21.9500045776367
 31
0.0
  0
LINE
  5
9F
330
1F
100
AcDbEntity
  8
1
  6
Continuous
 62
     4
100
AcDbLine
 10
-75.2000007629395
 20
-21.2000045776367
 30
0.0
 11
-76.2000007629395
 21
-21.4500045776367
 31
0.0
  0
LINE
  5
A0
330
1F
100
AcDbEntity
  8
1
  6
Continuous
 62
     4
100
AcDbLine
 10
-70.9500007629395
 20
-21.2000045776367
 30
0.0
 11
-75.2000007629395
 21
-21.2000045776367
 31
0.0
  0
LINE
  5
A1
330
1F
100
AcDbEntity
  8
1
  6
Continuous
 62
     4
100
AcDbLine
 10
280.450718958067
 20
435.913244459226
 30
0.0
 11
280.450718958067
 21
433.413244459226
 31
0.0
  0
LINE
  5
A2
330
1F
100
AcDbEntity
  8
1
  6
Continuous
 62
     4
100
AcDbLine
 10
280.200718958067
 20
437.413244459226
 30
0.0
 11
280.450718958067
 21
435.913244459226
 31
0.0
  0
LINE
  5
A3
330
1F
100
AcDbEntity
  8
1
  6
Continuous
 62
     4
100
AcDbLine
 10
279.700718958067
 20
438.413244459226
 30
0.0
 11
280.200718958067
 21
437.413244459226
 31
0.0
  0
LINE
  5
A4
330
1F
100
AcDbEntity
  8
1
  6
Continuous
 62
     4
100
AcDbLine
 10
279.200718958067
 20
438.913244459226
 30
0.0
 11
279.700718958067
 21
438.413244459226
 31
0.0
  0
LINE
  5
A5
330
1F
100
AcDbEntity
  8
1
  6
Continuous
 62
     4
100
AcDbLine
 10
278.450718958067
 20
439.413244459226
 30
0.0
 11
279.200718958067
 21
438.913244459226
 31
0.0
  0
LINE
  5
A6
330
1F
100
AcDbEntity
  8
1
  6
Continuous
 62
     4
100
AcDbLine
 10
277.700718958067
 20
439.663244459226
 30
0.0
 11
278.450718958067
 21
439.413244459226
 31
0.0
  0
LINE
  5
A7
330
1F
100
AcDbEntity
  8
1
  6
Continuous
 62
     4
100
AcDbLine
 10
277.200718958067
 20
439.663244459226
 30
0.0
 11
277.700718958067
 21
439.663244459226
 31
0.0
  0
LINE
  5
A8
330
1F
100
AcDbEntity
  8
1
  6
Continuous
 62
     4
100
AcDbLine
 10
276.450718958067
 20
439.413244459226
 30
0.0
 11
277.200718958067
 21
439.663244459226
 31
0.0
  0
LINE
  5
A9
330
1F
100
AcDbEntity
  8
1
  6
Continuous
 62
     4
100
AcDbLine
 10
275.700718958067
 20
438.913244459226
 30
0.0
 11
276.450718958067
 21
439.413244459226
 31
0.0
  0
LINE
  5
AA
330
1F
100
AcDbEntity
  8
1
  6
Continuous
 62
     4
100
AcDbLine
 10
275.200718958067
 20
438.413244459226
 30
0.0
 11
275.700718958067
 21
438.913244459226
 31
0.0
  0
LINE
  5
AB
330
1F
100
AcDbEntity
  8
1
  6
Continuous
 62
     4
100
AcDbLine
 10
274.700718958067
 20
437.413244459226
 30
0.0
 11
275.200718958067
 21
438.413244459226
 31
0.0
  0
LINE
  5
AC
330
1F
100
AcDbEntity
  8
1
  6
Continuous
 62
     4
100
AcDbLine
 10
274.450718958067
 20
435.913244459226
 30
0.0
 11
274.700718958067
 21
437.413244459226
 31
0.0
  0
LINE
  5
AD
330
1F
100
AcDbEntity
  8
1
  6
Continuous
 62
     4
100
AcDbLine
 10
274.450718958067
 20
433.413244459226
 30
0.0
 11
274.450718958067
 21
435.913244459226
 31
0.0
  0
LINE
  5
AE
330
1F
100
AcDbEntity
  8
1
  6
Continuous
 62
     4
100
AcDbLine
 10
274.700718958067
 20
431.913244459226
 30
0.0
 11
274.450718958067
 21
433.413244459226
 31
0.0
  0
LINE
  5
AF
330
1F
100
AcDbEntity
  8
1
  6
Continuous
 62
     4
100
AcDbLine
 10
275.200718958067
 20
430.913244459226
 30
0.0
 11
274.700718958067
 21
431.913244459226
 31
0.0
  0
LINE
  5
B0
330
1F
100
AcDbEntity
  8
1
  6
Continuous
 62
     4
100
AcDbLine
 10
275.700718958067
 20
430.413244459226
 30
0.0
 11
275.200718958067
 21
430.913244459226
 31
0.0
  0
LINE
  5
B1
330
1F
100
AcDbEntity
  8
1
  6
Continuous
 62
     4
100
AcDbLine
 10
276.450718958067
 20
429.913244459226
 30
0.0
 11
275.700718958067
 21
430.413244459226
 31
0.0
  0
LINE
  5
B2
330
1F
100
AcDbEntity
  8
1
  6
Continuous
 62
     4
100
AcDbLine
 10
277.200718958067
 20
429.663244459226
 30
0.0
 11
276.450718958067
 21
429.913244459226
 31
0.0
  0
LINE
  5
B3
330
1F
100
AcDbEntity
  8
1
  6
Continuous
 62
     4
100
AcDbLine
 10
277.700718958067
 20
429.663244459226
 30
0.0
 11
277.200718958067
 21
429.663244459226
 31
0.0
  0
LINE
  5
B4
330
1F
100
AcDbEntity
  8
1
  6
Continuous
 62
     4
100
AcDbLine
 10
278.450718958067
 20
429.913244459226
 30
0.0
 11
277.700718958067
 21
429.663244459226
 31
0.0
  0
LINE
  5
B5
330
1F
100
AcDbEntity
  8
1
  6
Continuous
 62
     4
100
AcDbLine
 10
279.200718958067
 20
430.413244459226
 30
0.0
 11
278.450718958067
 21
429.913244459226
 31
0.0
  0
LINE
  5
B6
330
1F
100
AcDbEntity
  8
1
  6
Continuous
 62
     4
100
AcDbLine
 10
279.700718958067
 20
430.913244459226
 30
0.0
 11
279.200718958067
 21
430.413244459226
 31
0.0
  0
LINE
  5
B7
330
1F
100
AcDbEntity
  8
1
  6
Continuous
 62
     4
100
AcDbLine
 10
280.200718958067
 20
431.913244459226
 30
0.0
 11
279.700718958067
 21
430.913244459226
 31
0.0
  0
LINE
  5
B8
330
1F
100
AcDbEntity
  8
1
  6
Continuous
 62
     4
100
AcDbLine
 10
280.450718958067
 20
433.413244459226
 30
0.0
 11
280.200718958067
 21
431.913244459226
 31
0.0
  0
LINE
  5
B9
330
1F
100
AcDbEntity
  8
1
  6
Continuous
 62
     4
100
AcDbLine
 10
265.450718958067
 20
429.663244459226
 30
0.0
 11
271.450718958067
 21
429.663244459226
 31
0.0
  0
LINE
  5
BA
330
1F
100
AcDbEntity
  8
1
  6
Continuous
 62
     4
100
AcDbLine
 10
270.950718958067
 20
436.163244459226
 30
0.0
 11
265.450718958067
 21
429.663244459226
 31
0.0
  0
LINE
  5
BB
330
1F
100
AcDbEntity
  8
1
  6
Continuous
 62
     4
100
AcDbLine
 10
271.450718958067
 20
437.163244459226
 30
0.0
 11
270.950718958067
 21
436.163244459226
 31
0.0
  0
LINE
  5
BC
330
1F
100
AcDbEntity
  8
1
  6
Continuous
 62
     4
100
AcDbLine
 10
271.450718958067
 20
438.163244459226
 30
0.0
 11
271.450718958067
 21
437.163244459226
 31
0.0
  0
LINE
  5
BD
330
1F
100
AcDbEntity
  8
1
  6
Continuous
 62
     4
100
AcDbLine
 10
270.950718958067
 20
438.913244459226
 30
0.0
 11
271.450718958067
 21
438.163244459226
 31
0.0
  0
LINE
  5
BE
330
1F
100
AcDbEntity
  8
1
  6
Continuous
 62
     4
100
AcDbLine
 10
270.200718958067
 20
439.413244459226
 30
0.0
 11
270.950718958067
 21
438.913244459226
 31
0.0
  0
LINE
  5
BF
330
1F
100
AcDbEntity
  8
1
  6
Continuous
 62
     4
100
AcDbLine
 10
269.200718958067
 20
439.663244459226
 30
0.0
 11
270.200718958067
 21
439.413244459226
 31
0.0
  0
LINE
  5
C0
330
1F
100
AcDbEntity
  8
1
  6
Continuous
 62
     4
100
AcDbLine
 10
267.700718958067
 20
439.663244459226
 30
0.0
 11
269.200718958067
 21
439.663244459226
 31
0.0
  0
LINE
  5
C1
330
1F
100
AcDbEntity
  8
1
  6
Continuous
 62
     4
100
AcDbLine
 10
266.700718958067
 20
439.413244459226
 30
0.0
 11
267.700718958067
 21
439.663244459226
 31
0.0
  0
LINE
  5
C2
330
1F
100
AcDbEntity
  8
1
  6
Continuous
 62
     4
100
AcDbLine
 10
265.950718958067
 20
438.913244459226
 30
0.0
 11
266.700718958067
 21
439.413244459226
 31
0.0
  0
LINE
  5
C3
330
1F
100
AcDbEntity
  8
1
  6
Continuous
 62
     4
100
AcDbLine
 10
265.450718958067
 20
438.163244459226
 30
0.0
 11
265.950718958067
 21
438.913244459226
 31
0.0
  0
LINE
  5
C4
330
1F
100
AcDbEntity
  8
1
  6
Continuous
 62
     4
100
AcDbLine
 10
257.450718958067
 20
433.163244459226
 30
0.0
 11
262.450718958067
 21
433.163244459226
 31
0.0
  0
LINE
  5
C5
330
1F
100
AcDbEntity
  8
1
  6
Continuous
 62
     4
100
AcDbLine
 10
252.200718958067
 20
429.663244459226
 30
0.0
 11
248.450718958067
 21
429.663244459226
 31
0.0
  0
LINE
  5
C6
330
1F
100
AcDbEntity
  8
1
  6
Continuous
 62
     4
100
AcDbLine
 10
252.950718958067
 20
429.913244459226
 30
0.0
 11
252.200718958067
 21
429.663244459226
 31
0.0
  0
LINE
  5
C7
330
1F
100
AcDbEntity
  8
1
  6
Continuous
 62
     4
100
AcDbLine
 10
253.700718958067
 20
430.413244459226
 30
0.0
 11
252.950718958067
 21
429.913244459226
 31
0.0
  0
LINE
  5
C8
330
1F
100
AcDbEntity
  8
1
  6
Continuous
 62
     4
100
AcDbLine
 10
254.200718958067
 20
431.163244459226
 30
0.0
 11
253.700718958067
 21
430.413244459226
 31
0.0
  0
LINE
  5
C9
330
1F
100
AcDbEntity
  8
1
  6
Continuous
 62
     4
100
AcDbLine
 10
254.450718958067
 20
432.163244459226
 30
0.0
 11
254.200718958067
 21
431.163244459226
 31
0.0
  0
LINE
  5
CA
330
1F
100
AcDbEntity
  8
1
  6
Continuous
 62
     4
100
AcDbLine
 10
254.450718958067
 20
433.413244459226
 30
0.0
 11
254.450718958067
 21
432.163244459226
 31
0.0
  0
LINE
  5
CB
330
1F
100
AcDbEntity
  8
1
  6
Continuous
 62
     4
100
AcDbLine
 10
254.200718958067
 20
434.413244459226
 30
0.0
 11
254.450718958067
 21
433.413244459226
 31
0.0
  0
LINE
  5
CC
330
1F
100
AcDbEntity
  8
1
  6
Continuous
 62
     4
100
AcDbLine
 10
253.950718958067
 20
434.913244459226
 30
0.0
 11
254.200718958067
 21
434.413244459226
 31
0.0
  0
LINE
  5
CD
330
1F
100
AcDbEntity
  8
1
  6
Continuous
 62
     4
100
AcDbLine
 10
253.450718958067
 20
435.413244459226
 30
0.0
 11
253.950718958067
 21
434.913244459226
 31
0.0
  0
LINE
  5
CE
330
1F
100
AcDbEntity
  8
1
  6
Continuous
 62
     4
100
AcDbLine
 10
252.450718958067
 20
435.663244459226
 30
0.0
 11
253.450718958067
 21
435.413244459226
 31
0.0
  0
LINE
  5
CF
330
1F
100
AcDbEntity
  8
1
  6
Continuous
 62
     4
100
AcDbLine
 10
253.200718958067
 20
435.913244459226
 30
0.0
 11
252.450718958067
 21
435.663244459226
 31
0.0
  0
LINE
  5
D0
330
1F
100
AcDbEntity
  8
1
  6
Continuous
 62
     4
100
AcDbLine
 10
253.700718958067
 20
436.163244459226
 30
0.0
 11
253.200718958067
 21
435.913244459226
 31
0.0
  0
LINE
  5
D1
330
1F
100
AcDbEntity
  8
1
  6
Continuous
 62
     4
100
AcDbLine
 10
254.200718958067
 20
436.663244459226
 30
0.0
 11
253.700718958067
 21
436.163244459226
 31
0.0
  0
LINE
  5
D2
330
1F
100
AcDbEntity
  8
1
  6
Continuous
 62
     4
100
AcDbLine
 10
254.450718958067
 20
437.413244459226
 30
0.0
 11
254.200718958067
 21
436.663244459226
 31
0.0
  0
LINE
  5
D3
330
1F
100
AcDbEntity
  8
1
  6
Continuous
 62
     4
100
AcDbLine
 10
254.450718958067
 20
438.163244459226
 30
0.0
 11
254.450718958067
 21
437.413244459226
 31
0.0
  0
LINE
  5
D4
330
1F
100
AcDbEntity
  8
1
  6
Continuous
 62
     4
100
AcDbLine
 10
254.200718958067
 20
438.913244459226
 30
0.0
 11
254.450718958067
 21
438.163244459226
 31
0.0
  0
LINE
  5
D5
330
1F
100
AcDbEntity
  8
1
  6
Continuous
 62
     4
100
AcDbLine
 10
253.450718958067
 20
439.413244459226
 30
0.0
 11
254.200718958067
 21
438.913244459226
 31
0.0
  0
LINE
  5
D6
330
1F
100
AcDbEntity
  8
1
  6
Continuous
 62
     4
100
AcDbLine
 10
252.200718958067
 20
439.663244459226
 30
0.0
 11
253.450718958067
 21
439.413244459226
 31
0.0
  0
LINE
  5
D7
330
1F
100
AcDbEntity
  8
1
  6
Continuous
 62
     4
100
AcDbLine
 10
248.450718958067
 20
439.663244459226
 30
0.0
 11
252.200718958067
 21
439.663244459226
 31
0.0
  0
LINE
  5
D8
330
1F
100
AcDbEntity
  8
1
  6
Continuous
 62
     4
100
AcDbLine
 10
249.950718958067
 20
435.663244459226
 30
0.0
 11
252.450718958067
 21
435.663244459226
 31
0.0
  0
LINE
  5
D9
330
1F
100
AcDbEntity
  8
1
  6
Continuous
 62
     4
100
AcDbLine
 10
238.450718958067
 20
435.163244459226
 30
0.0
 11
238.450718958067
 21
434.663244459226
 31
0.0
  0
LINE
  5
DA
330
1F
100
AcDbEntity
  8
1
  6
Continuous
 62
     4
100
AcDbLine
 10
245.450718958067
 20
435.163244459226
 30
0.0
 11
245.450718958067
 21
429.663244459226
 31
0.0
  0
LINE
  5
DB
330
1F
100
AcDbEntity
  8
1
  6
Continuous
 62
     4
100
AcDbLine
 10
238.450718958067
 20
434.663244459226
 30
0.0
 11
238.450718958067
 21
429.663244459226
 31
0.0
  0
LINE
  5
DC
330
1F
100
AcDbEntity
  8
1
  6
Continuous
 62
     4
100
AcDbLine
 10
238.450718958067
 20
439.663244459226
 30
0.0
 11
238.450718958067
 21
435.163244459226
 31
0.0
  0
LINE
  5
DD
330
1F
100
AcDbEntity
  8
1
  6
Continuous
 62
     4
100
AcDbLine
 10
238.450718958067
 20
435.163244459226
 30
0.0
 11
245.450718958067
 21
435.163244459226
 31
0.0
  0
LINE
  5
DE
330
1F
100
AcDbEntity
  8
1
  6
Continuous
 62
     4
100
AcDbLine
 10
245.450718958067
 20
439.663244459226
 30
0.0
 11
245.450718958067
 21
435.163244459226
 31
0.0
  0
LINE
  5
DF
330
1F
100
AcDbEntity
  8
1
  6
Continuous
 62
     4
100
AcDbLine
 10
230.450718958067
 20
433.163244459226
 30
0.0
 11
235.450718958067
 21
433.163244459226
 31
0.0
  0
LINE
  5
E0
330
1F
100
AcDbEntity
  8
1
  6
Continuous
 62
     4
100
AcDbLine
 10
220.450718958067
 20
432.663244459226
 30
0.0
 11
220.450718958067
 21
439.663244459226
 31
0.0
  0
LINE
  5
E1
330
1F
100
AcDbEntity
  8
1
  6
Continuous
 62
     4
100
AcDbLine
 10
220.450718958067
 20
429.663244459226
 30
0.0
 11
220.450718958067
 21
432.663244459226
 31
0.0
  0
LINE
  5
E2
330
1F
100
AcDbEntity
  8
1
  6
Continuous
 62
     4
100
AcDbLine
 10
222.450718958067
 20
434.663244459226
 30
0.0
 11
227.450718958067
 21
429.663244459226
 31
0.0
  0
LINE
  5
E3
330
1F
100
AcDbEntity
  8
1
  6
Continuous
 62
     4
100
AcDbLine
 10
227.450718958067
 20
439.663244459226
 30
0.0
 11
222.450718958067
 21
434.663244459226
 31
0.0
  0
LINE
  5
E4
330
1F
100
AcDbEntity
  8
1
  6
Continuous
 62
     4
100
AcDbLine
 10
222.450718958067
 20
434.663244459226
 30
0.0
 11
220.450718958067
 21
432.663244459226
 31
0.0
  0
LINE
  5
E5
330
1F
100
AcDbEntity
  8
1
  6
Continuous
 62
     4
100
AcDbLine
 10
213.950718958067
 20
439.663244459226
 30
0.0
 11
213.950718958067
 21
429.663244459226
 31
0.0
  0
LINE
  5
E6
330
1F
100
AcDbEntity
  8
1
  6
Continuous
 62
     4
100
AcDbLine
 10
210.450718958067
 20
439.663244459226
 30
0.0
 11
213.950718958067
 21
439.663244459226
 31
0.0
  0
LINE
  5
E7
330
1F
100
AcDbEntity
  8
1
  6
Continuous
 62
     4
100
AcDbLine
 10
213.950718958067
 20
439.663244459226
 30
0.0
 11
217.450718958067
 21
439.663244459226
 31
0.0
  0
LINE
  5
E8
330
1F
100
AcDbEntity
  8
1
  6
Continuous
 62
     4
100
AcDbLine
 10
322.450718958067
 20
389.663244459226
 30
0.0
 11
322.450718958067
 21
399.663244459226
 31
0.0
  0
LINE
  5
E9
330
1F
100
AcDbEntity
  8
1
  6
Continuous
 62
     4
100
AcDbLine
 10
328.450718958067
 20
389.663244459226
 30
0.0
 11
322.450718958067
 21
389.663244459226
 31
0.0
  0
LINE
  5
EA
330
1F
100
AcDbEntity
  8
1
  6
Continuous
 62
     4
100
AcDbLine
 10
335.200718958067
 20
369.663244459226
 30
0.0
 11
331.450718958067
 21
369.663244459226
 31
0.0
  0
LINE
  5
EB
330
1F
100
AcDbEntity
  8
1
  6
Continuous
 62
     4
100
AcDbLine
 10
335.950718958067
 20
369.913244459226
 30
0.0
 11
335.200718958067
 21
369.663244459226
 31
0.0
  0
LINE
  5
EC
330
1F
100
AcDbEntity
  8
1
  6
Continuous
 62
     4
100
AcDbLine
 10
336.700718958067
 20
370.413244459226
 30
0.0
 11
335.950718958067
 21
369.913244459226
 31
0.0
  0
LINE
  5
ED
330
1F
100
AcDbEntity
  8
1
  6
Continuous
 62
     4
100
AcDbLine
 10
337.200718958067
 20
371.163244459226
 30
0.0
 11
336.700718958067
 21
370.413244459226
 31
0.0
  0
LINE
  5
EE
330
1F
100
AcDbEntity
  8
1
  6
Continuous
 62
     4
100
AcDbLine
 10
337.450718958067
 20
372.163244459226
 30
0.0
 11
337.200718958067
 21
371.163244459226
 31
0.0
  0
LINE
  5
EF
330
1F
100
AcDbEntity
  8
1
  6
Continuous
 62
     4
100
AcDbLine
 10
337.450718958067
 20
373.413244459226
 30
0.0
 11
337.450718958067
 21
372.163244459226
 31
0.0
  0
LINE
  5
F0
330
1F
100
AcDbEntity
  8
1
  6
Continuous
 62
     4
100
AcDbLine
 10
337.200718958067
 20
374.413244459226
 30
0.0
 11
337.450718958067
 21
373.413244459226
 31
0.0
  0
LINE
  5
F1
330
1F
100
AcDbEntity
  8
1
  6
Continuous
 62
     4
100
AcDbLine
 10
336.950718958067
 20
374.913244459226
 30
0.0
 11
337.200718958067
 21
374.413244459226
 31
0.0
  0
LINE
  5
F2
330
1F
100
AcDbEntity
  8
1
  6
Continuous
 62
     4
100
AcDbLine
 10
336.450718958067
 20
375.413244459226
 30
0.0
 11
336.950718958067
 21
374.913244459226
 31
0.0
  0
LINE
  5
F3
330
1F
100
AcDbEntity
  8
1
  6
Continuous
 62
     4
100
AcDbLine
 10
335.450718958067
 20
375.663244459226
 30
0.0
 11
336.450718958067
 21
375.413244459226
 31
0.0
  0
LINE
  5
F4
330
1F
100
AcDbEntity
  8
1
  6
Continuous
 62
     4
100
AcDbLine
 10
336.200718958067
 20
375.913244459226
 30
0.0
 11
335.450718958067
 21
375.663244459226
 31
0.0
  0
LINE
  5
F5
330
1F
100
AcDbEntity
  8
1
  6
Continuous
 62
     4
100
AcDbLine
 10
336.700718958067
 20
376.163244459226
 30
0.0
 11
336.200718958067
 21
375.913244459226
 31
0.0
  0
LINE
  5
F6
330
1F
100
AcDbEntity
  8
1
  6
Continuous
 62
     4
100
AcDbLine
 10
337.200718958067
 20
376.663244459226
 30
0.0
 11
336.700718958067
 21
376.163244459226
 31
0.0
  0
LINE
  5
F7
330
1F
100
AcDbEntity
  8
1
  6
Continuous
 62
     4
100
AcDbLine
 10
337.450718958067
 20
377.413244459226
 30
0.0
 11
337.200718958067
 21
376.663244459226
 31
0.0
  0
LINE
  5
F8
330
1F
100
AcDbEntity
  8
1
  6
Continuous
 62
     4
100
AcDbLine
 10
337.450718958067
 20
378.163244459226
 30
0.0
 11
337.450718958067
 21
377.413244459226
 31
0.0
  0
LINE
  5
F9
330
1F
100
AcDbEntity
  8
1
  6
Continuous
 62
     4
100
AcDbLine
 10
337.200718958067
 20
378.913244459226
 30
0.0
 11
337.450718958067
 21
378.163244459226
 31
0.0
  0
LINE
  5
FA
330
1F
100
AcDbEntity
  8
1
  6
Continuous
 62
     4
100
AcDbLine
 10
336.450718958067
 20
379.413244459226
 30
0.0
 11
337.200718958067
 21
378.913244459226
 31
0.0
  0
LINE
  5
FB
330
1F
100
AcDbEntity
  8
1
  6
Continuous
 62
     4
100
AcDbLine
 10
335.200718958067
 20
379.663244459226
 30
0.0
 11
336.450718958067
 21
379.413244459226
 31
0.0
  0
LINE
  5
FC
330
1F
100
AcDbEntity
  8
1
  6
Continuous
 62
     4
100
AcDbLine
 10
331.450718958067
 20
379.663244459226
 30
0.0
 11
335.200718958067
 21
379.663244459226
 31
0.0
  0
LINE
  5
FD
330
1F
100
AcDbEntity
  8
1
  6
Continuous
 62
     4
100
AcDbLine
 10
332.950718958067
 20
375.663244459226
 30
0.0
 11
335.450718958067
 21
375.663244459226
 31
0.0
  0
LINE
  5
FE
330
1F
100
AcDbEntity
  8
1
  6
Continuous
 62
     4
100
AcDbLine
 10
326.950718958067
 20
373.663244459226
 30
0.0
 11
326.950718958067
 21
369.663244459226
 31
0.0
  0
LINE
  5
FF
330
1F
100
AcDbEntity
  8
1
  6
Continuous
 62
     4
100
AcDbLine
 10
322.450718958067
 20
371.663244459226
 30
0.0
 11
328.450718958067
 21
371.663244459226
 31
0.0
  0
LINE
  5
100
330
1F
100
AcDbEntity
  8
1
  6
Continuous
 62
     4
100
AcDbLine
 10
326.950718958067
 20
379.663244459226
 30
0.0
 11
322.450718958067
 21
371.663244459226
 31
0.0
  0
LINE
  5
101
330
1F
100
AcDbEntity
  8
1
  6
Continuous
 62
     4
100
AcDbLine
 10
317.950718958067
 20
373.663244459226
 30
0.0
 11
317.950718958067
 21
369.663244459226
 31
0.0
  0
LINE
  5
102
330
1F
100
AcDbEntity
  8
1
  6
Continuous
 62
     4
100
AcDbLine
 10
313.450718958067
 20
371.663244459226
 30
0.0
 11
319.450718958067
 21
371.663244459226
 31
0.0
  0
LINE
  5
103
330
1F
100
AcDbEntity
  8
1
  6
Continuous
 62
     4
100
AcDbLine
 10
317.950718958067
 20
379.663244459226
 30
0.0
 11
313.450718958067
 21
371.663244459226
 31
0.0
  0
LINE
  5
104
330
1F
100
AcDbEntity
  8
1
  6
Continuous
 62
     4
100
AcDbLine
 10
335.200718958067
 20
349.663244459226
 30
0.0
 11
331.450718958067
 21
349.663244459226
 31
0.0
  0
LINE
  5
105
330
1F
100
AcDbEntity
  8
1
  6
Continuous
 62
     4
100
AcDbLine
 10
335.950718958067
 20
349.913244459226
 30
0.0
 11
335.200718958067
 21
349.663244459226
 31
0.0
  0
LINE
  5
106
330
1F
100
AcDbEntity
  8
1
  6
Continuous
 62
     4
100
AcDbLine
 10
336.700718958067
 20
350.413244459226
 30
0.0
 11
335.950718958067
 21
349.913244459226
 31
0.0
  0
LINE
  5
107
330
1F
100
AcDbEntity
  8
1
  6
Continuous
 62
     4
100
AcDbLine
 10
337.200718958067
 20
351.163244459226
 30
0.0
 11
336.700718958067
 21
350.413244459226
 31
0.0
  0
LINE
  5
108
330
1F
100
AcDbEntity
  8
1
  6
Continuous
 62
     4
100
AcDbLine
 10
337.450718958067
 20
352.163244459226
 30
0.0
 11
337.200718958067
 21
351.163244459226
 31
0.0
  0
LINE
  5
109
330
1F
100
AcDbEntity
  8
1
  6
Continuous
 62
     4
100
AcDbLine
 10
337.450718958067
 20
353.413244459226
 30
0.0
 11
337.450718958067
 21
352.163244459226
 31
0.0
  0
LINE
  5
10A
330
1F
100
AcDbEntity
  8
1
  6
Continuous
 62
     4
100
AcDbLine
 10
337.200718958067
 20
354.413244459226
 30
0.0
 11
337.450718958067
 21
353.413244459226
 31
0.0
  0
LINE
  5
10B
330
1F
100
AcDbEntity
  8
1
  6
Continuous
 62
     4
100
AcDbLine
 10
336.950718958067
 20
354.913244459226
 30
0.0
 11
337.200718958067
 21
354.413244459226
 31
0.0
  0
LINE
  5
10C
330
1F
100
AcDbEntity
  8
1
  6
Continuous
 62
     4
100
AcDbLine
 10
336.450718958067
 20
355.413244459226
 30
0.0
 11
336.950718958067
 21
354.913244459226
 31
0.0
  0
LINE
  5
10D
330
1F
100
AcDbEntity
  8
1
  6
Continuous
 62
     4
100
AcDbLine
 10
335.450718958067
 20
355.663244459226
 30
0.0
 11
336.450718958067
 21
355.413244459226
 31
0.0
  0
LINE
  5
10E
330
1F
100
AcDbEntity
  8
1
  6
Continuous
 62
     4
100
AcDbLine
 10
336.200718958067
 20
355.913244459226
 30
0.0
 11
335.450718958067
 21
355.663244459226
 31
0.0
  0
LINE
  5
10F
330
1F
100
AcDbEntity
  8
1
  6
Continuous
 62
     4
100
AcDbLine
 10
336.700718958067
 20
356.163244459226
 30
0.0
 11
336.200718958067
 21
355.913244459226
 31
0.0
  0
LINE
  5
110
330
1F
100
AcDbEntity
  8
1
  6
Continuous
 62
     4
100
AcDbLine
 10
337.200718958067
 20
356.663244459226
 30
0.0
 11
336.700718958067
 21
356.163244459226
 31
0.0
  0
LINE
  5
111
330
1F
100
AcDbEntity
  8
1
  6
Continuous
 62
     4
100
AcDbLine
 10
337.450718958067
 20
357.413244459226
 30
0.0
 11
337.200718958067
 21
356.663244459226
 31
0.0
  0
LINE
  5
112
330
1F
100
AcDbEntity
  8
1
  6
Continuous
 62
     4
100
AcDbLine
 10
337.450718958067
 20
358.163244459226
 30
0.0
 11
337.450718958067
 21
357.413244459226
 31
0.0
  0
LINE
  5
113
330
1F
100
AcDbEntity
  8
1
  6
Continuous
 62
     4
100
AcDbLine
 10
337.200718958067
 20
358.913244459226
 30
0.0
 11
337.450718958067
 21
358.163244459226
 31
0.0
  0
LINE
  5
114
330
1F
100
AcDbEntity
  8
1
  6
Continuous
 62
     4
100
AcDbLine
 10
336.450718958067
 20
359.413244459226
 30
0.0
 11
337.200718958067
 21
358.913244459226
 31
0.0
  0
LINE
  5
115
330
1F
100
AcDbEntity
  8
1
  6
Continuous
 62
     4
100
AcDbLine
 10
335.200718958067
 20
359.663244459226
 30
0.0
 11
336.450718958067
 21
359.413244459226
 31
0.0
  0
LINE
  5
116
330
1F
100
AcDbEntity
  8
1
  6
Continuous
 62
     4
100
AcDbLine
 10
331.450718958067
 20
359.663244459226
 30
0.0
 11
335.200718958067
 21
359.663244459226
 31
0.0
  0
LINE
  5
117
330
1F
100
AcDbEntity
  8
1
  6
Continuous
 62
     4
100
AcDbLine
 10
332.950718958067
 20
355.663244459226
 30
0.0
 11
335.450718958067
 21
355.663244459226
 31
0.0
  0
LINE
  5
118
330
1F
100
AcDbEntity
  8
1
  6
Continuous
 62
     4
100
AcDbLine
 10
326.950718958067
 20
353.663244459226
 30
0.0
 11
326.950718958067
 21
349.663244459226
 31
0.0
  0
LINE
  5
119
330
1F
100
AcDbEntity
  8
1
  6
Continuous
 62
     4
100
AcDbLine
 10
322.450718958067
 20
351.663244459226
 30
0.0
 11
328.450718958067
 21
351.663244459226
 31
0.0
  0
LINE
  5
11A
330
1F
100
AcDbEntity
  8
1
  6
Continuous
 62
     4
100
AcDbLine
 10
326.950718958067
 20
359.663244459226
 30
0.0
 11
322.450718958067
 21
351.663244459226
 31
0.0
  0
LINE
  5
11B
330
1F
100
AcDbEntity
  8
1
  6
Continuous
 62
     4
100
AcDbLine
 10
315.200718958067
 20
357.413244459226
 30
0.0
 11
317.950718958067
 21
359.663244459226
 31
0.0
  0
LINE
  5
11C
330
1F
100
AcDbEntity
  8
1
  6
Continuous
 62
     4
100
AcDbLine
 10
314.200718958067
 20
356.163244459226
 30
0.0
 11
315.200718958067
 21
357.413244459226
 31
0.0
  0
LINE
  5
11D
330
1F
100
AcDbEntity
  8
1
  6
Continuous
 62
     4
100
AcDbLine
 10
313.700718958067
 20
355.163244459226
 30
0.0
 11
314.200718958067
 21
356.163244459226
 31
0.0
  0
LINE
  5
11E
330
1F
100
AcDbEntity
  8
1
  6
Continuous
 62
     4
100
AcDbLine
 10
313.450718958067
 20
353.163244459226
 30
0.0
 11
313.700718958067
 21
355.163244459226
 31
0.0
  0
LINE
  5
11F
330
1F
100
AcDbEntity
  8
1
  6
Continuous
 62
     4
100
AcDbLine
 10
313.450718958067
 20
352.163244459226
 30
0.0
 11
313.450718958067
 21
353.163244459226
 31
0.0
  0
LINE
  5
120
330
1F
100
AcDbEntity
  8
1
  6
Continuous
 62
     4
100
AcDbLine
 10
313.700718958067
 20
351.163244459226
 30
0.0
 11
313.450718958067
 21
352.163244459226
 31
0.0
  0
LINE
  5
121
330
1F
100
AcDbEntity
  8
1
  6
Continuous
 62
     4
100
AcDbLine
 10
314.200718958067
 20
350.413244459226
 30
0.0
 11
313.700718958067
 21
351.163244459226
 31
0.0
  0
LINE
  5
122
330
1F
100
AcDbEntity
  8
1
  6
Continuous
 62
     4
100
AcDbLine
 10
314.950718958067
 20
349.913244459226
 30
0.0
 11
314.200718958067
 21
350.413244459226
 31
0.0
  0
LINE
  5
123
330
1F
100
AcDbEntity
  8
1
  6
Continuous
 62
     4
100
AcDbLine
 10
315.700718958067
 20
349.663244459226
 30
0.0
 11
314.950718958067
 21
349.913244459226
 31
0.0
  0
LINE
  5
124
330
1F
100
AcDbEntity
  8
1
  6
Continuous
 62
     4
100
AcDbLine
 10
317.200718958067
 20
349.663244459226
 30
0.0
 11
315.700718958067
 21
349.663244459226
 31
0.0
  0
LINE
  5
125
330
1F
100
AcDbEntity
  8
1
  6
Continuous
 62
     4
100
AcDbLine
 10
317.950718958067
 20
349.913244459226
 30
0.0
 11
317.200718958067
 21
349.663244459226
 31
0.0
  0
LINE
  5
126
330
1F
100
AcDbEntity
  8
1
  6
Continuous
 62
     4
100
AcDbLine
 10
318.700718958067
 20
350.413244459226
 30
0.0
 11
317.950718958067
 21
349.913244459226
 31
0.0
  0
LINE
  5
127
330
1F
100
AcDbEntity
  8
1
  6
Continuous
 62
     4
100
AcDbLine
 10
319.200718958067
 20
351.163244459226
 30
0.0
 11
318.700718958067
 21
350.413244459226
 31
0.0
  0
LINE
  5
128
330
1F
100
AcDbEntity
  8
1
  6
Continuous
 62
     4
100
AcDbLine
 10
319.450718958067
 20
352.163244459226
 30
0.0
 11
319.200718958067
 21
351.163244459226
 31
0.0
  0
LINE
  5
129
330
1F
100
AcDbEntity
  8
1
  6
Continuous
 62
     4
100
AcDbLine
 10
319.450718958067
 20
353.163244459226
 30
0.0
 11
319.450718958067
 21
352.163244459226
 31
0.0
  0
LINE
  5
12A
330
1F
100
AcDbEntity
  8
1
  6
Continuous
 62
     4
100
AcDbLine
 10
319.200718958067
 20
354.163244459226
 30
0.0
 11
319.450718958067
 21
353.163244459226
 31
0.0
  0
LINE
  5
12B
330
1F
100
AcDbEntity
  8
1
  6
Continuous
 62
     4
100
AcDbLine
 10
318.700718958067
 20
354.913244459226
 30
0.0
 11
319.200718958067
 21
354.163244459226
 31
0.0
  0
LINE
  5
12C
330
1F
100
AcDbEntity
  8
1
  6
Continuous
 62
     4
100
AcDbLine
 10
317.950718958067
 20
355.413244459226
 30
0.0
 11
318.700718958067
 21
354.913244459226
 31
0.0
  0
LINE
  5
12D
330
1F
100
AcDbEntity
  8
1
  6
Continuous
 62
     4
100
AcDbLine
 10
317.200718958067
 20
355.663244459226
 30
0.0
 11
317.950718958067
 21
355.413244459226
 31
0.0
  0
LINE
  5
12E
330
1F
100
AcDbEntity
  8
1
  6
Continuous
 62
     4
100
AcDbLine
 10
315.700718958067
 20
355.663244459226
 30
0.0
 11
317.200718958067
 21
355.663244459226
 31
0.0
  0
LINE
  5
12F
330
1F
100
AcDbEntity
  8
1
  6
Continuous
 62
     4
100
AcDbLine
 10
314.950718958067
 20
355.413244459226
 30
0.0
 11
315.700718958067
 21
355.663244459226
 31
0.0
  0
LINE
  5
130
330
1F
100
AcDbEntity
  8
1
  6
Continuous
 62
     4
100
AcDbLine
 10
314.200718958067
 20
354.913244459226
 30
0.0
 11
314.950718958067
 21
355.413244459226
 31
0.0
  0
LINE
  5
131
330
1F
100
AcDbEntity
  8
1
  6
Continuous
 62
     4
100
AcDbLine
 10
313.700718958067
 20
354.163244459226
 30
0.0
 11
314.200718958067
 21
354.913244459226
 31
0.0
  0
LINE
  5
132
330
1F
100
AcDbEntity
  8
1
  6
Continuous
 62
     4
100
AcDbLine
 10
313.450718958067
 20
353.163244459226
 30
0.0
 11
313.700718958067
 21
354.163244459226
 31
0.0
  0
LINE
  5
133
330
1F
100
AcDbEntity
  8
1
  6
Continuous
 62
     4
100
AcDbLine
 10
335.200718958067
 20
329.663244459226
 30
0.0
 11
331.450718958067
 21
329.663244459226
 31
0.0
  0
LINE
  5
134
330
1F
100
AcDbEntity
  8
1
  6
Continuous
 62
     4
100
AcDbLine
 10
335.950718958067
 20
329.913244459226
 30
0.0
 11
335.200718958067
 21
329.663244459226
 31
0.0
  0
LINE
  5
135
330
1F
100
AcDbEntity
  8
1
  6
Continuous
 62
     4
100
AcDbLine
 10
336.700718958067
 20
330.413244459226
 30
0.0
 11
335.950718958067
 21
329.913244459226
 31
0.0
  0
LINE
  5
136
330
1F
100
AcDbEntity
  8
1
  6
Continuous
 62
     4
100
AcDbLine
 10
337.200718958067
 20
331.163244459226
 30
0.0
 11
336.700718958067
 21
330.413244459226
 31
0.0
  0
LINE
  5
137
330
1F
100
AcDbEntity
  8
1
  6
Continuous
 62
     4
100
AcDbLine
 10
337.450718958067
 20
332.163244459226
 30
0.0
 11
337.200718958067
 21
331.163244459226
 31
0.0
  0
LINE
  5
138
330
1F
100
AcDbEntity
  8
1
  6
Continuous
 62
     4
100
AcDbLine
 10
337.450718958067
 20
333.413244459226
 30
0.0
 11
337.450718958067
 21
332.163244459226
 31
0.0
  0
LINE
  5
139
330
1F
100
AcDbEntity
  8
1
  6
Continuous
 62
     4
100
AcDbLine
 10
337.200718958067
 20
334.413244459226
 30
0.0
 11
337.450718958067
 21
333.413244459226
 31
0.0
  0
LINE
  5
13A
330
1F
100
AcDbEntity
  8
1
  6
Continuous
 62
     4
100
AcDbLine
 10
336.950718958067
 20
334.913244459226
 30
0.0
 11
337.200718958067
 21
334.413244459226
 31
0.0
  0
LINE
  5
13B
330
1F
100
AcDbEntity
  8
1
  6
Continuous
 62
     4
100
AcDbLine
 10
336.450718958067
 20
335.413244459226
 30
0.0
 11
336.950718958067
 21
334.913244459226
 31
0.0
  0
LINE
  5
13C
330
1F
100
AcDbEntity
  8
1
  6
Continuous
 62
     4
100
AcDbLine
 10
335.450718958067
 20
335.663244459226
 30
0.0
 11
336.450718958067
 21
335.413244459226
 31
0.0
  0
LINE
  5
13D
330
1F
100
AcDbEntity
  8
1
  6
Continuous
 62
     4
100
AcDbLine
 10
336.200718958067
 20
335.913244459226
 30
0.0
 11
335.450718958067
 21
335.663244459226
 31
0.0
  0
LINE
  5
13E
330
1F
100
AcDbEntity
  8
1
  6
Continuous
 62
     4
100
AcDbLine
 10
336.700718958067
 20
336.163244459226
 30
0.0
 11
336.200718958067
 21
335.913244459226
 31
0.0
  0
LINE
  5
13F
330
1F
100
AcDbEntity
  8
1
  6
Continuous
 62
     4
100
AcDbLine
 10
337.200718958067
 20
336.663244459226
 30
0.0
 11
336.700718958067
 21
336.163244459226
 31
0.0
  0
LINE
  5
140
330
1F
100
AcDbEntity
  8
1
  6
Continuous
 62
     4
100
AcDbLine
 10
337.450718958067
 20
337.413244459226
 30
0.0
 11
337.200718958067
 21
336.663244459226
 31
0.0
  0
LINE
  5
141
330
1F
100
AcDbEntity
  8
1
  6
Continuous
 62
     4
100
AcDbLine
 10
337.450718958067
 20
338.163244459226
 30
0.0
 11
337.450718958067
 21
337.413244459226
 31
0.0
  0
LINE
  5
142
330
1F
100
AcDbEntity
  8
1
  6
Continuous
 62
     4
100
AcDbLine
 10
337.200718958067
 20
338.913244459226
 30
0.0
 11
337.450718958067
 21
338.163244459226
 31
0.0
  0
LINE
  5
143
330
1F
100
AcDbEntity
  8
1
  6
Continuous
 62
     4
100
AcDbLine
 10
336.450718958067
 20
339.413244459226
 30
0.0
 11
337.200718958067
 21
338.913244459226
 31
0.0
  0
LINE
  5
144
330
1F
100
AcDbEntity
  8
1
  6
Continuous
 62
     4
100
AcDbLine
 10
335.200718958067
 20
339.663244459226
 30
0.0
 11
336.450718958067
 21
339.413244459226
 31
0.0
  0
LINE
  5
145
330
1F
100
AcDbEntity
  8
1
  6
Continuous
 62
     4
100
AcDbLine
 10
331.450718958067
 20
339.663244459226
 30
0.0
 11
335.200718958067
 21
339.663244459226
 31
0.0
  0
LINE
  5
146
330
1F
100
AcDbEntity
  8
1
  6
Continuous
 62
     4
100
AcDbLine
 10
332.950718958067
 20
335.663244459226
 30
0.0
 11
335.450718958067
 21
335.663244459226
 31
0.0
  0
LINE
  5
147
330
1F
100
AcDbEntity
  8
1
  6
Continuous
 62
     4
100
AcDbLine
 10
326.950718958067
 20
333.663244459226
 30
0.0
 11
326.950718958067
 21
329.663244459226
 31
0.0
  0
LINE
  5
148
330
1F
100
AcDbEntity
  8
1
  6
Continuous
 62
     4
100
AcDbLine
 10
322.450718958067
 20
331.663244459226
 30
0.0
 11
328.450718958067
 21
331.663244459226
 31
0.0
  0
LINE
  5
149
330
1F
100
AcDbEntity
  8
1
  6
Continuous
 62
     4
100
AcDbLine
 10
326.950718958067
 20
339.663244459226
 30
0.0
 11
322.450718958067
 21
331.663244459226
 31
0.0
  0
LINE
  5
14A
330
1F
100
AcDbEntity
  8
1
  6
Continuous
 62
     4
100
AcDbLine
 10
314.450718958067
 20
338.913244459226
 30
0.0
 11
315.200718958067
 21
339.413244459226
 31
0.0
  0
LINE
  5
14B
330
1F
100
AcDbEntity
  8
1
  6
Continuous
 62
     4
100
AcDbLine
 10
313.950718958067
 20
338.163244459226
 30
0.0
 11
314.450718958067
 21
338.913244459226
 31
0.0
  0
LINE
  5
14C
330
1F
100
AcDbEntity
  8
1
  6
Continuous
 62
     4
100
AcDbLine
 10
313.950718958067
 20
337.163244459226
 30
0.0
 11
313.950718958067
 21
338.163244459226
 31
0.0
  0
LINE
  5
14D
330
1F
100
AcDbEntity
  8
1
  6
Continuous
 62
     4
100
AcDbLine
 10
314.450718958067
 20
336.413244459226
 30
0.0
 11
313.950718958067
 21
337.163244459226
 31
0.0
  0
LINE
  5
14E
330
1F
100
AcDbEntity
  8
1
  6
Continuous
 62
     4
100
AcDbLine
 10
315.200718958067
 20
335.913244459226
 30
0.0
 11
314.450718958067
 21
336.413244459226
 31
0.0
  0
LINE
  5
14F
330
1F
100
AcDbEntity
  8
1
  6
Continuous
 62
     4
100
AcDbLine
 10
315.950718958067
 20
335.663244459226
 30
0.0
 11
315.200718958067
 21
335.913244459226
 31
0.0
  0
LINE
  5
150
330
1F
100
AcDbEntity
  8
1
  6
Continuous
 62
     4
100
AcDbLine
 10
316.950718958067
 20
335.663244459226
 30
0.0
 11
315.950718958067
 21
335.663244459226
 31
0.0
  0
LINE
  5
151
330
1F
100
AcDbEntity
  8
1
  6
Continuous
 62
     4
100
AcDbLine
 10
317.700718958067
 20
335.913244459226
 30
0.0
 11
316.950718958067
 21
335.663244459226
 31
0.0
  0
LINE
  5
152
330
1F
100
AcDbEntity
  8
1
  6
Continuous
 62
     4
100
AcDbLine
 10
318.450718958067
 20
336.413244459226
 30
0.0
 11
317.700718958067
 21
335.913244459226
 31
0.0
  0
LINE
  5
153
330
1F
100
AcDbEntity
  8
1
  6
Continuous
 62
     4
100
AcDbLine
 10
318.950718958067
 20
337.163244459226
 30
0.0
 11
318.450718958067
 21
336.413244459226
 31
0.0
  0
LINE
  5
154
330
1F
100
AcDbEntity
  8
1
  6
Continuous
 62
     4
100
AcDbLine
 10
318.950718958067
 20
338.163244459226
 30
0.0
 11
318.950718958067
 21
337.163244459226
 31
0.0
  0
LINE
  5
155
330
1F
100
AcDbEntity
  8
1
  6
Continuous
 62
     4
100
AcDbLine
 10
318.450718958067
 20
338.913244459226
 30
0.0
 11
318.950718958067
 21
338.163244459226
 31
0.0
  0
LINE
  5
156
330
1F
100
AcDbEntity
  8
1
  6
Continuous
 62
     4
100
AcDbLine
 10
317.700718958067
 20
339.413244459226
 30
0.0
 11
318.450718958067
 21
338.913244459226
 31
0.0
  0
LINE
  5
157
330
1F
100
AcDbEntity
  8
1
  6
Continuous
 62
     4
100
AcDbLine
 10
316.950718958067
 20
339.663244459226
 30
0.0
 11
317.700718958067
 21
339.413244459226
 31
0.0
  0
LINE
  5
158
330
1F
100
AcDbEntity
  8
1
  6
Continuous
 62
     4
100
AcDbLine
 10
315.950718958067
 20
339.663244459226
 30
0.0
 11
316.950718958067
 21
339.663244459226
 31
0.0
  0
LINE
  5
159
330
1F
100
AcDbEntity
  8
1
  6
Continuous
 62
     4
100
AcDbLine
 10
315.200718958067
 20
339.413244459226
 30
0.0
 11
315.950718958067
 21
339.663244459226
 31
0.0
  0
LINE
  5
15A
330
1F
100
AcDbEntity
  8
1
  6
Continuous
 62
     4
100
AcDbLine
 10
318.200718958067
 20
335.163244459226
 30
0.0
 11
316.950718958067
 21
335.663244459226
 31
0.0
  0
LINE
  5
15B
330
1F
100
AcDbEntity
  8
1
  6
Continuous
 62
     4
100
AcDbLine
 10
318.950718958067
 20
334.413244459226
 30
0.0
 11
318.200718958067
 21
335.163244459226
 31
0.0
  0
LINE
  5
15C
330
1F
100
AcDbEntity
  8
1
  6
Continuous
 62
     4
100
AcDbLine
 10
319.450718958067
 20
333.413244459226
 30
0.0
 11
318.950718958067
 21
334.413244459226
 31
0.0
  0
LINE
  5
15D
330
1F
100
AcDbEntity
  8
1
  6
Continuous
 62
     4
100
AcDbLine
 10
319.450718958067
 20
331.913244459226
 30
0.0
 11
319.450718958067
 21
333.413244459226
 31
0.0
  0
LINE
  5
15E
330
1F
100
AcDbEntity
  8
1
  6
Continuous
 62
     4
100
AcDbLine
 10
318.950718958067
 20
330.913244459226
 30
0.0
 11
319.450718958067
 21
331.913244459226
 31
0.0
  0
LINE
  5
15F
330
1F
100
AcDbEntity
  8
1
  6
Continuous
 62
     4
100
AcDbLine
 10
318.200718958067
 20
330.163244459226
 30
0.0
 11
318.950718958067
 21
330.913244459226
 31
0.0
  0
LINE
  5
160
330
1F
100
AcDbEntity
  8
1
  6
Continuous
 62
     4
100
AcDbLine
 10
317.200718958067
 20
329.663244459226
 30
0.0
 11
318.200718958067
 21
330.163244459226
 31
0.0
  0
LINE
  5
161
330
1F
100
AcDbEntity
  8
1
  6
Continuous
 62
     4
100
AcDbLine
 10
315.700718958067
 20
329.663244459226
 30
0.0
 11
317.200718958067
 21
329.663244459226
 31
0.0
  0
LINE
  5
162
330
1F
100
AcDbEntity
  8
1
  6
Continuous
 62
     4
100
AcDbLine
 10
314.700718958067
 20
330.163244459226
 30
0.0
 11
315.700718958067
 21
329.663244459226
 31
0.0
  0
LINE
  5
163
330
1F
100
AcDbEntity
  8
1
  6
Continuous
 62
     4
100
AcDbLine
 10
313.950718958067
 20
330.913244459226
 30
0.0
 11
314.700718958067
 21
330.163244459226
 31
0.0
  0
LINE
  5
164
330
1F
100
AcDbEntity
  8
1
  6
Continuous
 62
     4
100
AcDbLine
 10
313.450718958067
 20
331.913244459226
 30
0.0
 11
313.950718958067
 21
330.913244459226
 31
0.0
  0
LINE
  5
165
330
1F
100
AcDbEntity
  8
1
  6
Continuous
 62
     4
100
AcDbLine
 10
313.450718958067
 20
333.413244459226
 30
0.0
 11
313.450718958067
 21
331.913244459226
 31
0.0
  0
LINE
  5
166
330
1F
100
AcDbEntity
  8
1
  6
Continuous
 62
     4
100
AcDbLine
 10
313.950718958067
 20
334.413244459226
 30
0.0
 11
313.450718958067
 21
333.413244459226
 31
0.0
  0
LINE
  5
167
330
1F
100
AcDbEntity
  8
1
  6
Continuous
 62
     4
100
AcDbLine
 10
314.700718958067
 20
335.163244459226
 30
0.0
 11
313.950718958067
 21
334.413244459226
 31
0.0
  0
LINE
  5
168
330
1F
100
AcDbEntity
  8
1
  6
Continuous
 62
     4
100
AcDbLine
 10
315.950718958067
 20
335.663244459226
 30
0.0
 11
314.700718958067
 21
335.163244459226
 31
0.0
  0
LINE
  5
169
330
1F
100
AcDbEntity
  8
1
  6
Continuous
 62
     4
100
AcDbLine
 10
338.200718958067
 20
309.663244459226
 30
0.0
 11
334.450718958067
 21
309.663244459226
 31
0.0
  0
LINE
  5
16A
330
1F
100
AcDbEntity
  8
1
  6
Continuous
 62
     4
100
AcDbLine
 10
338.950718958067
 20
309.913244459226
 30
0.0
 11
338.200718958067
 21
309.663244459226
 31
0.0
  0
LINE
  5
16B
330
1F
100
AcDbEntity
  8
1
  6
Continuous
 62
     4
100
AcDbLine
 10
339.700718958067
 20
310.413244459226
 30
0.0
 11
338.950718958067
 21
309.913244459226
 31
0.0
  0
LINE
  5
16C
330
1F
100
AcDbEntity
  8
1
  6
Continuous
 62
     4
100
AcDbLine
 10
340.200718958067
 20
311.163244459226
 30
0.0
 11
339.700718958067
 21
310.413244459226
 31
0.0
  0
LINE
  5
16D
330
1F
100
AcDbEntity
  8
1
  6
Continuous
 62
     4
100
AcDbLine
 10
340.450718958067
 20
312.163244459226
 30
0.0
 11
340.200718958067
 21
311.163244459226
 31
0.0
  0
LINE
  5
16E
330
1F
100
AcDbEntity
  8
1
  6
Continuous
 62
     4
100
AcDbLine
 10
340.450718958067
 20
313.413244459226
 30
0.0
 11
340.450718958067
 21
312.163244459226
 31
0.0
  0
LINE
  5
16F
330
1F
100
AcDbEntity
  8
1
  6
Continuous
 62
     4
100
AcDbLine
 10
340.200718958067
 20
314.413244459226
 30
0.0
 11
340.450718958067
 21
313.413244459226
 31
0.0
  0
LINE
  5
170
330
1F
100
AcDbEntity
  8
1
  6
Continuous
 62
     4
100
AcDbLine
 10
339.950718958067
 20
314.913244459226
 30
0.0
 11
340.200718958067
 21
314.413244459226
 31
0.0
  0
LINE
  5
171
330
1F
100
AcDbEntity
  8
1
  6
Continuous
 62
     4
100
AcDbLine
 10
339.450718958067
 20
315.413244459226
 30
0.0
 11
339.950718958067
 21
314.913244459226
 31
0.0
  0
LINE
  5
172
330
1F
100
AcDbEntity
  8
1
  6
Continuous
 62
     4
100
AcDbLine
 10
338.450718958067
 20
315.663244459226
 30
0.0
 11
339.450718958067
 21
315.413244459226
 31
0.0
  0
LINE
  5
173
330
1F
100
AcDbEntity
  8
1
  6
Continuous
 62
     4
100
AcDbLine
 10
339.200718958067
 20
315.913244459226
 30
0.0
 11
338.450718958067
 21
315.663244459226
 31
0.0
  0
LINE
  5
174
330
1F
100
AcDbEntity
  8
1
  6
Continuous
 62
     4
100
AcDbLine
 10
339.700718958067
 20
316.163244459226
 30
0.0
 11
339.200718958067
 21
315.913244459226
 31
0.0
  0
LINE
  5
175
330
1F
100
AcDbEntity
  8
1
  6
Continuous
 62
     4
100
AcDbLine
 10
340.200718958067
 20
316.663244459226
 30
0.0
 11
339.700718958067
 21
316.163244459226
 31
0.0
  0
LINE
  5
176
330
1F
100
AcDbEntity
  8
1
  6
Continuous
 62
     4
100
AcDbLine
 10
340.450718958067
 20
317.413244459226
 30
0.0
 11
340.200718958067
 21
316.663244459226
 31
0.0
  0
LINE
  5
177
330
1F
100
AcDbEntity
  8
1
  6
Continuous
 62
     4
100
AcDbLine
 10
340.450718958067
 20
318.163244459226
 30
0.0
 11
340.450718958067
 21
317.413244459226
 31
0.0
  0
LINE
  5
178
330
1F
100
AcDbEntity
  8
1
  6
Continuous
 62
     4
100
AcDbLine
 10
340.200718958067
 20
318.913244459226
 30
0.0
 11
340.450718958067
 21
318.163244459226
 31
0.0
  0
LINE
  5
179
330
1F
100
AcDbEntity
  8
1
  6
Continuous
 62
     4
100
AcDbLine
 10
339.450718958067
 20
319.413244459226
 30
0.0
 11
340.200718958067
 21
318.913244459226
 31
0.0
  0
LINE
  5
17A
330
1F
100
AcDbEntity
  8
1
  6
Continuous
 62
     4
100
AcDbLine
 10
338.200718958067
 20
319.663244459226
 30
0.0
 11
339.450718958067
 21
319.413244459226
 31
0.0
  0
LINE
  5
17B
330
1F
100
AcDbEntity
  8
1
  6
Continuous
 62
     4
100
AcDbLine
 10
334.450718958067
 20
319.663244459226
 30
0.0
 11
338.200718958067
 21
319.663244459226
 31
0.0
  0
LINE
  5
17C
330
1F
100
AcDbEntity
  8
1
  6
Continuous
 62
     4
100
AcDbLine
 10
335.950718958067
 20
315.663244459226
 30
0.0
 11
338.450718958067
 21
315.663244459226
 31
0.0
  0
LINE
  5
17D
330
1F
100
AcDbEntity
  8
1
  6
Continuous
 62
     4
100
AcDbLine
 10
329.950718958067
 20
313.663244459226
 30
0.0
 11
329.950718958067
 21
309.663244459226
 31
0.0
  0
LINE
  5
17E
330
1F
100
AcDbEntity
  8
1
  6
Continuous
 62
     4
100
AcDbLine
 10
325.450718958067
 20
311.663244459226
 30
0.0
 11
331.450718958067
 21
311.663244459226
 31
0.0
  0
LINE
  5
17F
330
1F
100
AcDbEntity
  8
1
  6
Continuous
 62
     4
100
AcDbLine
 10
329.950718958067
 20
319.663244459226
 30
0.0
 11
325.450718958067
 21
311.663244459226
 31
0.0
  0
LINE
  5
180
330
1F
100
AcDbEntity
  8
1
  6
Continuous
 62
     4
100
AcDbLine
 10
322.450718958067
 20
315.913244459226
 30
0.0
 11
322.450718958067
 21
313.413244459226
 31
0.0
  0
LINE
  5
181
330
1F
100
AcDbEntity
  8
1
  6
Continuous
 62
     4
100
AcDbLine
 10
322.200718958067
 20
317.413244459226
 30
0.0
 11
322.450718958067
 21
315.913244459226
 31
0.0
  0
LINE
  5
182
330
1F
100
AcDbEntity
  8
1
  6
Continuous
 62
     4
100
AcDbLine
 10
321.700718958067
 20
318.413244459226
 30
0.0
 11
322.200718958067
 21
317.413244459226
 31
0.0
  0
LINE
  5
183
330
1F
100
AcDbEntity
  8
1
  6
Continuous
 62
     4
100
AcDbLine
 10
321.200718958067
 20
318.913244459226
 30
0.0
 11
321.700718958067
 21
318.413244459226
 31
0.0
  0
LINE
  5
184
330
1F
100
AcDbEntity
  8
1
  6
Continuous
 62
     4
100
AcDbLine
 10
320.450718958067
 20
319.413244459226
 30
0.0
 11
321.200718958067
 21
318.913244459226
 31
0.0
  0
LINE
  5
185
330
1F
100
AcDbEntity
  8
1
  6
Continuous
 62
     4
100
AcDbLine
 10
319.700718958067
 20
319.663244459226
 30
0.0
 11
320.450718958067
 21
319.413244459226
 31
0.0
  0
LINE
  5
186
330
1F
100
AcDbEntity
  8
1
  6
Continuous
 62
     4
100
AcDbLine
 10
319.200718958067
 20
319.663244459226
 30
0.0
 11
319.700718958067
 21
319.663244459226
 31
0.0
  0
LINE
  5
187
330
1F
100
AcDbEntity
  8
1
  6
Continuous
 62
     4
100
AcDbLine
 10
318.450718958067
 20
319.413244459226
 30
0.0
 11
319.200718958067
 21
319.663244459226
 31
0.0
  0
LINE
  5
188
330
1F
100
AcDbEntity
  8
1
  6
Continuous
 62
     4
100
AcDbLine
 10
317.700718958067
 20
318.913244459226
 30
0.0
 11
318.450718958067
 21
319.413244459226
 31
0.0
  0
LINE
  5
189
330
1F
100
AcDbEntity
  8
1
  6
Continuous
 62
     4
100
AcDbLine
 10
317.200718958067
 20
318.413244459226
 30
0.0
 11
317.700718958067
 21
318.913244459226
 31
0.0
  0
LINE
  5
18A
330
1F
100
AcDbEntity
  8
1
  6
Continuous
 62
     4
100
AcDbLine
 10
316.700718958067
 20
317.413244459226
 30
0.0
 11
317.200718958067
 21
318.413244459226
 31
0.0
  0
LINE
  5
18B
330
1F
100
AcDbEntity
  8
1
  6
Continuous
 62
     4
100
AcDbLine
 10
316.450718958067
 20
315.913244459226
 30
0.0
 11
316.700718958067
 21
317.413244459226
 31
0.0
  0
LINE
  5
18C
330
1F
100
AcDbEntity
  8
1
  6
Continuous
 62
     4
100
AcDbLine
 10
316.450718958067
 20
313.413244459226
 30
0.0
 11
316.450718958067
 21
315.913244459226
 31
0.0
  0
LINE
  5
18D
330
1F
100
AcDbEntity
  8
1
  6
Continuous
 62
     4
100
AcDbLine
 10
316.700718958067
 20
311.913244459226
 30
0.0
 11
316.450718958067
 21
313.413244459226
 31
0.0
  0
LINE
  5
18E
330
1F
100
AcDbEntity
  8
1
  6
Continuous
 62
     4
100
AcDbLine
 10
317.200718958067
 20
310.913244459226
 30
0.0
 11
316.700718958067
 21
311.913244459226
 31
0.0
  0
LINE
  5
18F
330
1F
100
AcDbEntity
  8
1
  6
Continuous
 62
     4
100
AcDbLine
 10
317.700718958067
 20
310.413244459226
 30
0.0
 11
317.200718958067
 21
310.913244459226
 31
0.0
  0
LINE
  5
190
330
1F
100
AcDbEntity
  8
1
  6
Continuous
 62
     4
100
AcDbLine
 10
318.450718958067
 20
309.913244459226
 30
0.0
 11
317.700718958067
 21
310.413244459226
 31
0.0
  0
LINE
  5
191
330
1F
100
AcDbEntity
  8
1
  6
Continuous
 62
     4
100
AcDbLine
 10
319.200718958067
 20
309.663244459226
 30
0.0
 11
318.450718958067
 21
309.913244459226
 31
0.0
  0
LINE
  5
192
330
1F
100
AcDbEntity
  8
1
  6
Continuous
 62
     4
100
AcDbLine
 10
319.700718958067
 20
309.663244459226
 30
0.0
 11
319.200718958067
 21
309.663244459226
 31
0.0
  0
LINE
  5
193
330
1F
100
AcDbEntity
  8
1
  6
Continuous
 62
     4
100
AcDbLine
 10
320.450718958067
 20
309.913244459226
 30
0.0
 11
319.700718958067
 21
309.663244459226
 31
0.0
  0
LINE
  5
194
330
1F
100
AcDbEntity
  8
1
  6
Continuous
 62
     4
100
AcDbLine
 10
321.200718958067
 20
310.413244459226
 30
0.0
 11
320.450718958067
 21
309.913244459226
 31
0.0
  0
LINE
  5
195
330
1F
100
AcDbEntity
  8
1
  6
Continuous
 62
     4
100
AcDbLine
 10
321.700718958067
 20
310.913244459226
 30
0.0
 11
321.200718958067
 21
310.413244459226
 31
0.0
  0
LINE
  5
196
330
1F
100
AcDbEntity
  8
1
  6
Continuous
 62
     4
100
AcDbLine
 10
322.200718958067
 20
311.913244459226
 30
0.0
 11
321.700718958067
 21
310.913244459226
 31
0.0
  0
LINE
  5
197
330
1F
100
AcDbEntity
  8
1
  6
Continuous
 62
     4
100
AcDbLine
 10
322.450718958067
 20
313.413244459226
 30
0.0
 11
322.200718958067
 21
311.913244459226
 31
0.0
  0
LINE
  5
198
330
1F
100
AcDbEntity
  8
1
  6
Continuous
 62
     4
100
AcDbLine
 10
313.450718958067
 20
319.663244459226
 30
0.0
 11
313.450718958067
 21
309.663244459226
 31
0.0
  0
LINE
  5
199
330
1F
100
AcDbEntity
  8
1
  6
Continuous
 62
     4
100
AcDbLine
 10
310.450718958067
 20
316.663244459226
 30
0.0
 11
313.450718958067
 21
319.663244459226
 31
0.0
  0
LINE
  5
19A
330
1F
100
AcDbEntity
  8
1
  6
Continuous
 62
     4
100
AcDbLine
 10
338.200718958067
 20
289.663244459226
 30
0.0
 11
334.450718958067
 21
289.663244459226
 31
0.0
  0
LINE
  5
19B
330
1F
100
AcDbEntity
  8
1
  6
Continuous
 62
     4
100
AcDbLine
 10
338.950718958067
 20
289.913244459226
 30
0.0
 11
338.200718958067
 21
289.663244459226
 31
0.0
  0
LINE
  5
19C
330
1F
100
AcDbEntity
  8
1
  6
Continuous
 62
     4
100
AcDbLine
 10
339.700718958067
 20
290.413244459226
 30
0.0
 11
338.950718958067
 21
289.913244459226
 31
0.0
  0
LINE
  5
19D
330
1F
100
AcDbEntity
  8
1
  6
Continuous
 62
     4
100
AcDbLine
 10
340.200718958067
 20
291.163244459226
 30
0.0
 11
339.700718958067
 21
290.413244459226
 31
0.0
  0
LINE
  5
19E
330
1F
100
AcDbEntity
  8
1
  6
Continuous
 62
     4
100
AcDbLine
 10
340.450718958067
 20
292.163244459226
 30
0.0
 11
340.200718958067
 21
291.163244459226
 31
0.0
  0
LINE
  5
19F
330
1F
100
AcDbEntity
  8
1
  6
Continuous
 62
     4
100
AcDbLine
 10
340.450718958067
 20
293.413244459226
 30
0.0
 11
340.450718958067
 21
292.163244459226
 31
0.0
  0
LINE
  5
1A0
330
1F
100
AcDbEntity
  8
1
  6
Continuous
 62
     4
100
AcDbLine
 10
340.200718958067
 20
294.413244459226
 30
0.0
 11
340.450718958067
 21
293.413244459226
 31
0.0
  0
LINE
  5
1A1
330
1F
100
AcDbEntity
  8
1
  6
Continuous
 62
     4
100
AcDbLine
 10
339.950718958067
 20
294.913244459226
 30
0.0
 11
340.200718958067
 21
294.413244459226
 31
0.0
  0
LINE
  5
1A2
330
1F
100
AcDbEntity
  8
1
  6
Continuous
 62
     4
100
AcDbLine
 10
339.450718958067
 20
295.413244459226
 30
0.0
 11
339.950718958067
 21
294.913244459226
 31
0.0
  0
LINE
  5
1A3
330
1F
100
AcDbEntity
  8
1
  6
Continuous
 62
     4
100
AcDbLine
 10
338.450718958067
 20
295.663244459226
 30
0.0
 11
339.450718958067
 21
295.413244459226
 31
0.0
  0
LINE
  5
1A4
330
1F
100
AcDbEntity
  8
1
  6
Continuous
 62
     4
100
AcDbLine
 10
339.200718958067
 20
295.913244459226
 30
0.0
 11
338.450718958067
 21
295.663244459226
 31
0.0
  0
LINE
  5
1A5
330
1F
100
AcDbEntity
  8
1
  6
Continuous
 62
     4
100
AcDbLine
 10
339.700718958067
 20
296.163244459226
 30
0.0
 11
339.200718958067
 21
295.913244459226
 31
0.0
  0
LINE
  5
1A6
330
1F
100
AcDbEntity
  8
1
  6
Continuous
 62
     4
100
AcDbLine
 10
340.200718958067
 20
296.663244459226
 30
0.0
 11
339.700718958067
 21
296.163244459226
 31
0.0
  0
LINE
  5
1A7
330
1F
100
AcDbEntity
  8
1
  6
Continuous
 62
     4
100
AcDbLine
 10
340.450718958067
 20
297.413244459226
 30
0.0
 11
340.200718958067
 21
296.663244459226
 31
0.0
  0
LINE
  5
1A8
330
1F
100
AcDbEntity
  8
1
  6
Continuous
 62
     4
100
AcDbLine
 10
340.450718958067
 20
298.163244459226
 30
0.0
 11
340.450718958067
 21
297.413244459226
 31
0.0
  0
LINE
  5
1A9
330
1F
100
AcDbEntity
  8
1
  6
Continuous
 62
     4
100
AcDbLine
 10
340.200718958067
 20
298.913244459226
 30
0.0
 11
340.450718958067
 21
298.163244459226
 31
0.0
  0
LINE
  5
1AA
330
1F
100
AcDbEntity
  8
1
  6
Continuous
 62
     4
100
AcDbLine
 10
339.450718958067
 20
299.413244459226
 30
0.0
 11
340.200718958067
 21
298.913244459226
 31
0.0
  0
LINE
  5
1AB
330
1F
100
AcDbEntity
  8
1
  6
Continuous
 62
     4
100
AcDbLine
 10
338.200718958067
 20
299.663244459226
 30
0.0
 11
339.450718958067
 21
299.413244459226
 31
0.0
  0
LINE
  5
1AC
330
1F
100
AcDbEntity
  8
1
  6
Continuous
 62
     4
100
AcDbLine
 10
334.450718958067
 20
299.663244459226
 30
0.0
 11
338.200718958067
 21
299.663244459226
 31
0.0
  0
LINE
  5
1AD
330
1F
100
AcDbEntity
  8
1
  6
Continuous
 62
     4
100
AcDbLine
 10
335.950718958067
 20
295.663244459226
 30
0.0
 11
338.450718958067
 21
295.663244459226
 31
0.0
  0
LINE
  5
1AE
330
1F
100
AcDbEntity
  8
1
  6
Continuous
 62
     4
100
AcDbLine
 10
329.950718958067
 20
293.663244459226
 30
0.0
 11
329.950718958067
 21
289.663244459226
 31
0.0
  0
LINE
  5
1AF
330
1F
100
AcDbEntity
  8
1
  6
Continuous
 62
     4
100
AcDbLine
 10
325.450718958067
 20
291.663244459226
 30
0.0
 11
331.450718958067
 21
291.663244459226
 31
0.0
  0
LINE
  5
1B0
330
1F
100
AcDbEntity
  8
1
  6
Continuous
 62
     4
100
AcDbLine
 10
329.950718958067
 20
299.663244459226
 30
0.0
 11
325.450718958067
 21
291.663244459226
 31
0.0
  0
LINE
  5
1B1
330
1F
100
AcDbEntity
  8
1
  6
Continuous
 62
     4
100
AcDbLine
 10
316.450718958067
 20
289.663244459226
 30
0.0
 11
322.450718958067
 21
289.663244459226
 31
0.0
  0
LINE
  5
1B2
330
1F
100
AcDbEntity
  8
1
  6
Continuous
 62
     4
100
AcDbLine
 10
321.950718958067
 20
296.163244459226
 30
0.0
 11
316.450718958067
 21
289.663244459226
 31
0.0
  0
LINE
  5
1B3
330
1F
100
AcDbEntity
  8
1
  6
Continuous
 62
     4
100
AcDbLine
 10
322.450718958067
 20
297.163244459226
 30
0.0
 11
321.950718958067
 21
296.163244459226
 31
0.0
  0
LINE
  5
1B4
330
1F
100
AcDbEntity
  8
1
  6
Continuous
 62
     4
100
AcDbLine
 10
322.450718958067
 20
298.163244459226
 30
0.0
 11
322.450718958067
 21
297.163244459226
 31
0.0
  0
LINE
  5
1B5
330
1F
100
AcDbEntity
  8
1
  6
Continuous
 62
     4
100
AcDbLine
 10
321.950718958067
 20
298.913244459226
 30
0.0
 11
322.450718958067
 21
298.163244459226
 31
0.0
  0
LINE
  5
1B6
330
1F
100
AcDbEntity
  8
1
  6
Continuous
 62
     4
100
AcDbLine
 10
321.200718958067
 20
299.413244459226
 30
0.0
 11
321.950718958067
 21
298.913244459226
 31
0.0
  0
LINE
  5
1B7
330
1F
100
AcDbEntity
  8
1
  6
Continuous
 62
     4
100
AcDbLine
 10
320.200718958067
 20
299.663244459226
 30
0.0
 11
321.200718958067
 21
299.413244459226
 31
0.0
  0
LINE
  5
1B8
330
1F
100
AcDbEntity
  8
1
  6
Continuous
 62
     4
100
AcDbLine
 10
318.700718958067
 20
299.663244459226
 30
0.0
 11
320.200718958067
 21
299.663244459226
 31
0.0
  0
LINE
  5
1B9
330
1F
100
AcDbEntity
  8
1
  6
Continuous
 62
     4
100
AcDbLine
 10
317.700718958067
 20
299.413244459226
 30
0.0
 11
318.700718958067
 21
299.663244459226
 31
0.0
  0
LINE
  5
1BA
330
1F
100
AcDbEntity
  8
1
  6
Continuous
 62
     4
100
AcDbLine
 10
316.950718958067
 20
298.913244459226
 30
0.0
 11
317.700718958067
 21
299.413244459226
 31
0.0
  0
LINE
  5
1BB
330
1F
100
AcDbEntity
  8
1
  6
Continuous
 62
     4
100
AcDbLine
 10
316.450718958067
 20
298.163244459226
 30
0.0
 11
316.950718958067
 21
298.913244459226
 31
0.0
  0
LINE
  5
1BC
330
1F
100
AcDbEntity
  8
1
  6
Continuous
 62
     4
100
AcDbLine
 10
313.450718958067
 20
299.663244459226
 30
0.0
 11
313.450718958067
 21
289.663244459226
 31
0.0
  0
LINE
  5
1BD
330
1F
100
AcDbEntity
  8
1
  6
Continuous
 62
     4
100
AcDbLine
 10
310.450718958067
 20
296.663244459226
 30
0.0
 11
313.450718958067
 21
299.663244459226
 31
0.0
  0
LINE
  5
1BE
330
1F
100
AcDbEntity
  8
1
  6
Continuous
 62
     4
100
AcDbLine
 10
338.200718958067
 20
269.663244459226
 30
0.0
 11
334.450718958067
 21
269.663244459226
 31
0.0
  0
LINE
  5
1BF
330
1F
100
AcDbEntity
  8
1
  6
Continuous
 62
     4
100
AcDbLine
 10
338.950718958067
 20
269.913244459226
 30
0.0
 11
338.200718958067
 21
269.663244459226
 31
0.0
  0
LINE
  5
1C0
330
1F
100
AcDbEntity
  8
1
  6
Continuous
 62
     4
100
AcDbLine
 10
339.700718958067
 20
270.413244459226
 30
0.0
 11
338.950718958067
 21
269.913244459226
 31
0.0
  0
LINE
  5
1C1
330
1F
100
AcDbEntity
  8
1
  6
Continuous
 62
     4
100
AcDbLine
 10
340.200718958067
 20
271.163244459226
 30
0.0
 11
339.700718958067
 21
270.413244459226
 31
0.0
  0
LINE
  5
1C2
330
1F
100
AcDbEntity
  8
1
  6
Continuous
 62
     4
100
AcDbLine
 10
340.450718958067
 20
272.163244459226
 30
0.0
 11
340.200718958067
 21
271.163244459226
 31
0.0
  0
LINE
  5
1C3
330
1F
100
AcDbEntity
  8
1
  6
Continuous
 62
     4
100
AcDbLine
 10
340.450718958067
 20
273.413244459226
 30
0.0
 11
340.450718958067
 21
272.163244459226
 31
0.0
  0
LINE
  5
1C4
330
1F
100
AcDbEntity
  8
1
  6
Continuous
 62
     4
100
AcDbLine
 10
340.200718958067
 20
274.413244459226
 30
0.0
 11
340.450718958067
 21
273.413244459226
 31
0.0
  0
LINE
  5
1C5
330
1F
100
AcDbEntity
  8
1
  6
Continuous
 62
     4
100
AcDbLine
 10
339.950718958067
 20
274.913244459226
 30
0.0
 11
340.200718958067
 21
274.413244459226
 31
0.0
  0
LINE
  5
1C6
330
1F
100
AcDbEntity
  8
1
  6
Continuous
 62
     4
100
AcDbLine
 10
339.450718958067
 20
275.413244459226
 30
0.0
 11
339.950718958067
 21
274.913244459226
 31
0.0
  0
LINE
  5
1C7
330
1F
100
AcDbEntity
  8
1
  6
Continuous
 62
     4
100
AcDbLine
 10
338.450718958067
 20
275.663244459226
 30
0.0
 11
339.450718958067
 21
275.413244459226
 31
0.0
  0
LINE
  5
1C8
330
1F
100
AcDbEntity
  8
1
  6
Continuous
 62
     4
100
AcDbLine
 10
339.200718958067
 20
275.913244459226
 30
0.0
 11
338.450718958067
 21
275.663244459226
 31
0.0
  0
LINE
  5
1C9
330
1F
100
AcDbEntity
  8
1
  6
Continuous
 62
     4
100
AcDbLine
 10
339.700718958067
 20
276.163244459226
 30
0.0
 11
339.200718958067
 21
275.913244459226
 31
0.0
  0
LINE
  5
1CA
330
1F
100
AcDbEntity
  8
1
  6
Continuous
 62
     4
100
AcDbLine
 10
340.200718958067
 20
276.663244459226
 30
0.0
 11
339.700718958067
 21
276.163244459226
 31
0.0
  0
LINE
  5
1CB
330
1F
100
AcDbEntity
  8
1
  6
Continuous
 62
     4
100
AcDbLine
 10
340.450718958067
 20
277.413244459226
 30
0.0
 11
340.200718958067
 21
276.663244459226
 31
0.0
  0
LINE
  5
1CC
330
1F
100
AcDbEntity
  8
1
  6
Continuous
 62
     4
100
AcDbLine
 10
340.450718958067
 20
278.163244459226
 30
0.0
 11
340.450718958067
 21
277.413244459226
 31
0.0
  0
LINE
  5
1CD
330
1F
100
AcDbEntity
  8
1
  6
Continuous
 62
     4
100
AcDbLine
 10
340.200718958067
 20
278.913244459226
 30
0.0
 11
340.450718958067
 21
278.163244459226
 31
0.0
  0
LINE
  5
1CE
330
1F
100
AcDbEntity
  8
1
  6
Continuous
 62
     4
100
AcDbLine
 10
339.450718958067
 20
279.413244459226
 30
0.0
 11
340.200718958067
 21
278.913244459226
 31
0.0
  0
LINE
  5
1CF
330
1F
100
AcDbEntity
  8
1
  6
Continuous
 62
     4
100
AcDbLine
 10
338.200718958067
 20
279.663244459226
 30
0.0
 11
339.450718958067
 21
279.413244459226
 31
0.0
  0
LINE
  5
1D0
330
1F
100
AcDbEntity
  8
1
  6
Continuous
 62
     4
100
AcDbLine
 10
334.450718958067
 20
279.663244459226
 30
0.0
 11
338.200718958067
 21
279.663244459226
 31
0.0
  0
LINE
  5
1D1
330
1F
100
AcDbEntity
  8
1
  6
Continuous
 62
     4
100
AcDbLine
 10
335.950718958067
 20
275.663244459226
 30
0.0
 11
338.450718958067
 21
275.663244459226
 31
0.0
  0
LINE
  5
1D2
330
1F
100
AcDbEntity
  8
1
  6
Continuous
 62
     4
100
AcDbLine
 10
329.950718958067
 20
273.663244459226
 30
0.0
 11
329.950718958067
 21
269.663244459226
 31
0.0
  0
LINE
  5
1D3
330
1F
100
AcDbEntity
  8
1
  6
Continuous
 62
     4
100
AcDbLine
 10
325.450718958067
 20
271.663244459226
 30
0.0
 11
331.450718958067
 21
271.663244459226
 31
0.0
  0
LINE
  5
1D4
330
1F
100
AcDbEntity
  8
1
  6
Continuous
 62
     4
100
AcDbLine
 10
329.950718958067
 20
279.663244459226
 30
0.0
 11
325.450718958067
 21
271.663244459226
 31
0.0
  0
LINE
  5
1D5
330
1F
100
AcDbEntity
  8
1
  6
Continuous
 62
     4
100
AcDbLine
 10
320.200718958067
 20
269.663244459226
 30
0.0
 11
316.450718958067
 21
269.663244459226
 31
0.0
  0
LINE
  5
1D6
330
1F
100
AcDbEntity
  8
1
  6
Continuous
 62
     4
100
AcDbLine
 10
320.950718958067
 20
269.913244459226
 30
0.0
 11
320.200718958067
 21
269.663244459226
 31
0.0
  0
LINE
  5
1D7
330
1F
100
AcDbEntity
  8
1
  6
Continuous
 62
     4
100
AcDbLine
 10
321.700718958067
 20
270.413244459226
 30
0.0
 11
320.950718958067
 21
269.913244459226
 31
0.0
  0
LINE
  5
1D8
330
1F
100
AcDbEntity
  8
1
  6
Continuous
 62
     4
100
AcDbLine
 10
322.200718958067
 20
271.163244459226
 30
0.0
 11
321.700718958067
 21
270.413244459226
 31
0.0
  0
LINE
  5
1D9
330
1F
100
AcDbEntity
  8
1
  6
Continuous
 62
     4
100
AcDbLine
 10
322.450718958067
 20
272.163244459226
 30
0.0
 11
322.200718958067
 21
271.163244459226
 31
0.0
  0
LINE
  5
1DA
330
1F
100
AcDbEntity
  8
1
  6
Continuous
 62
     4
100
AcDbLine
 10
322.450718958067
 20
273.663244459226
 30
0.0
 11
322.450718958067
 21
272.163244459226
 31
0.0
  0
LINE
  5
1DB
330
1F
100
AcDbEntity
  8
1
  6
Continuous
 62
     4
100
AcDbLine
 10
322.200718958067
 20
274.663244459226
 30
0.0
 11
322.450718958067
 21
273.663244459226
 31
0.0
  0
LINE
  5
1DC
330
1F
100
AcDbEntity
  8
1
  6
Continuous
 62
     4
100
AcDbLine
 10
321.450718958067
 20
275.413244459226
 30
0.0
 11
322.200718958067
 21
274.663244459226
 31
0.0
  0
LINE
  5
1DD
330
1F
100
AcDbEntity
  8
1
  6
Continuous
 62
     4
100
AcDbLine
 10
320.200718958067
 20
275.663244459226
 30
0.0
 11
321.450718958067
 21
275.413244459226
 31
0.0
  0
LINE
  5
1DE
330
1F
100
AcDbEntity
  8
1
  6
Continuous
 62
     4
100
AcDbLine
 10
316.450718958067
 20
275.663244459226
 30
0.0
 11
320.200718958067
 21
275.663244459226
 31
0.0
  0
LINE
  5
1DF
330
1F
100
AcDbEntity
  8
1
  6
Continuous
 62
     4
100
AcDbLine
 10
316.450718958067
 20
279.663244459226
 30
0.0
 11
316.450718958067
 21
275.663244459226
 31
0.0
  0
LINE
  5
1E0
330
1F
100
AcDbEntity
  8
1
  6
Continuous
 62
     4
100
AcDbLine
 10
321.950718958067
 20
279.663244459226
 30
0.0
 11
316.450718958067
 21
279.663244459226
 31
0.0
  0
LINE
  5
1E1
330
1F
100
AcDbEntity
  8
1
  6
Continuous
 62
     4
100
AcDbLine
 10
313.450718958067
 20
279.663244459226
 30
0.0
 11
313.450718958067
 21
269.663244459226
 31
0.0
  0
LINE
  5
1E2
330
1F
100
AcDbEntity
  8
1
  6
Continuous
 62
     4
100
AcDbLine
 10
310.450718958067
 20
276.663244459226
 30
0.0
 11
313.450718958067
 21
279.663244459226
 31
0.0
  0
LINE
  5
1E3
330
1F
100
AcDbEntity
  8
1
  6
Continuous
 62
     4
100
AcDbLine
 10
338.200718958067
 20
249.663244459226
 30
0.0
 11
334.450718958067
 21
249.663244459226
 31
0.0
  0
LINE
  5
1E4
330
1F
100
AcDbEntity
  8
1
  6
Continuous
 62
     4
100
AcDbLine
 10
338.950718958067
 20
249.913244459226
 30
0.0
 11
338.200718958067
 21
249.663244459226
 31
0.0
  0
LINE
  5
1E5
330
1F
100
AcDbEntity
  8
1
  6
Continuous
 62
     4
100
AcDbLine
 10
339.700718958067
 20
250.413244459226
 30
0.0
 11
338.950718958067
 21
249.913244459226
 31
0.0
  0
LINE
  5
1E6
330
1F
100
AcDbEntity
  8
1
  6
Continuous
 62
     4
100
AcDbLine
 10
340.200718958067
 20
251.163244459226
 30
0.0
 11
339.700718958067
 21
250.413244459226
 31
0.0
  0
LINE
  5
1E7
330
1F
100
AcDbEntity
  8
1
  6
Continuous
 62
     4
100
AcDbLine
 10
340.450718958067
 20
252.163244459226
 30
0.0
 11
340.200718958067
 21
251.163244459226
 31
0.0
  0
LINE
  5
1E8
330
1F
100
AcDbEntity
  8
1
  6
Continuous
 62
     4
100
AcDbLine
 10
340.450718958067
 20
253.413244459226
 30
0.0
 11
340.450718958067
 21
252.163244459226
 31
0.0
  0
LINE
  5
1E9
330
1F
100
AcDbEntity
  8
1
  6
Continuous
 62
     4
100
AcDbLine
 10
340.200718958067
 20
254.413244459226
 30
0.0
 11
340.450718958067
 21
253.413244459226
 31
0.0
  0
LINE
  5
1EA
330
1F
100
AcDbEntity
  8
1
  6
Continuous
 62
     4
100
AcDbLine
 10
339.950718958067
 20
254.913244459226
 30
0.0
 11
340.200718958067
 21
254.413244459226
 31
0.0
  0
LINE
  5
1EB
330
1F
100
AcDbEntity
  8
1
  6
Continuous
 62
     4
100
AcDbLine
 10
339.450718958067
 20
255.413244459226
 30
0.0
 11
339.950718958067
 21
254.913244459226
 31
0.0
  0
LINE
  5
1EC
330
1F
100
AcDbEntity
  8
1
  6
Continuous
 62
     4
100
AcDbLine
 10
338.450718958067
 20
255.663244459226
 30
0.0
 11
339.450718958067
 21
255.413244459226
 31
0.0
  0
LINE
  5
1ED
330
1F
100
AcDbEntity
  8
1
  6
Continuous
 62
     4
100
AcDbLine
 10
339.200718958067
 20
255.913244459226
 30
0.0
 11
338.450718958067
 21
255.663244459226
 31
0.0
  0
LINE
  5
1EE
330
1F
100
AcDbEntity
  8
1
  6
Continuous
 62
     4
100
AcDbLine
 10
339.700718958067
 20
256.163244459226
 30
0.0
 11
339.200718958067
 21
255.913244459226
 31
0.0
  0
LINE
  5
1EF
330
1F
100
AcDbEntity
  8
1
  6
Continuous
 62
     4
100
AcDbLine
 10
340.200718958067
 20
256.663244459226
 30
0.0
 11
339.700718958067
 21
256.163244459226
 31
0.0
  0
LINE
  5
1F0
330
1F
100
AcDbEntity
  8
1
  6
Continuous
 62
     4
100
AcDbLine
 10
340.450718958067
 20
257.413244459226
 30
0.0
 11
340.200718958067
 21
256.663244459226
 31
0.0
  0
LINE
  5
1F1
330
1F
100
AcDbEntity
  8
1
  6
Continuous
 62
     4
100
AcDbLine
 10
340.450718958067
 20
258.163244459226
 30
0.0
 11
340.450718958067
 21
257.413244459226
 31
0.0
  0
LINE
  5
1F2
330
1F
100
AcDbEntity
  8
1
  6
Continuous
 62
     4
100
AcDbLine
 10
340.200718958067
 20
258.913244459226
 30
0.0
 11
340.450718958067
 21
258.163244459226
 31
0.0
  0
LINE
  5
1F3
330
1F
100
AcDbEntity
  8
1
  6
Continuous
 62
     4
100
AcDbLine
 10
339.450718958067
 20
259.413244459226
 30
0.0
 11
340.200718958067
 21
258.913244459226
 31
0.0
  0
LINE
  5
1F4
330
1F
100
AcDbEntity
  8
1
  6
Continuous
 62
     4
100
AcDbLine
 10
338.200718958067
 20
259.663244459226
 30
0.0
 11
339.450718958067
 21
259.413244459226
 31
0.0
  0
LINE
  5
1F5
330
1F
100
AcDbEntity
  8
1
  6
Continuous
 62
     4
100
AcDbLine
 10
334.450718958067
 20
259.663244459226
 30
0.0
 11
338.200718958067
 21
259.663244459226
 31
0.0
  0
LINE
  5
1F6
330
1F
100
AcDbEntity
  8
1
  6
Continuous
 62
     4
100
AcDbLine
 10
335.950718958067
 20
255.663244459226
 30
0.0
 11
338.450718958067
 21
255.663244459226
 31
0.0
  0
LINE
  5
1F7
330
1F
100
AcDbEntity
  8
1
  6
Continuous
 62
     4
100
AcDbLine
 10
329.950718958067
 20
253.663244459226
 30
0.0
 11
329.950718958067
 21
249.663244459226
 31
0.0
  0
LINE
  5
1F8
330
1F
100
AcDbEntity
  8
1
  6
Continuous
 62
     4
100
AcDbLine
 10
325.450718958067
 20
251.663244459226
 30
0.0
 11
331.450718958067
 21
251.663244459226
 31
0.0
  0
LINE
  5
1F9
330
1F
100
AcDbEntity
  8
1
  6
Continuous
 62
     4
100
AcDbLine
 10
329.950718958067
 20
259.663244459226
 30
0.0
 11
325.450718958067
 21
251.663244459226
 31
0.0
  0
LINE
  5
1FA
330
1F
100
AcDbEntity
  8
1
  6
Continuous
 62
     4
100
AcDbLine
 10
318.200718958067
 20
257.413244459226
 30
0.0
 11
320.950718958067
 21
259.663244459226
 31
0.0
  0
LINE
  5
1FB
330
1F
100
AcDbEntity
  8
1
  6
Continuous
 62
     4
100
AcDbLine
 10
317.200718958067
 20
256.163244459226
 30
0.0
 11
318.200718958067
 21
257.413244459226
 31
0.0
  0
LINE
  5
1FC
330
1F
100
AcDbEntity
  8
1
  6
Continuous
 62
     4
100
AcDbLine
 10
316.700718958067
 20
255.163244459226
 30
0.0
 11
317.200718958067
 21
256.163244459226
 31
0.0
  0
LINE
  5
1FD
330
1F
100
AcDbEntity
  8
1
  6
Continuous
 62
     4
100
AcDbLine
 10
316.450718958067
 20
253.163244459226
 30
0.0
 11
316.700718958067
 21
255.163244459226
 31
0.0
  0
LINE
  5
1FE
330
1F
100
AcDbEntity
  8
1
  6
Continuous
 62
     4
100
AcDbLine
 10
316.450718958067
 20
252.163244459226
 30
0.0
 11
316.450718958067
 21
253.163244459226
 31
0.0
  0
LINE
  5
1FF
330
1F
100
AcDbEntity
  8
1
  6
Continuous
 62
     4
100
AcDbLine
 10
316.700718958067
 20
251.163244459226
 30
0.0
 11
316.450718958067
 21
252.163244459226
 31
0.0
  0
LINE
  5
200
330
1F
100
AcDbEntity
  8
1
  6
Continuous
 62
     4
100
AcDbLine
 10
317.200718958067
 20
250.413244459226
 30
0.0
 11
316.700718958067
 21
251.163244459226
 31
0.0
  0
LINE
  5
201
330
1F
100
AcDbEntity
  8
1
  6
Continuous
 62
     4
100
AcDbLine
 10
317.950718958067
 20
249.913244459226
 30
0.0
 11
317.200718958067
 21
250.413244459226
 31
0.0
  0
LINE
  5
202
330
1F
100
AcDbEntity
  8
1
  6
Continuous
 62
     4
100
AcDbLine
 10
318.700718958067
 20
249.663244459226
 30
0.0
 11
317.950718958067
 21
249.913244459226
 31
0.0
  0
LINE
  5
203
330
1F
100
AcDbEntity
  8
1
  6
Continuous
 62
     4
100
AcDbLine
 10
320.200718958067
 20
249.663244459226
 30
0.0
 11
318.700718958067
 21
249.663244459226
 31
0.0
  0
LINE
  5
204
330
1F
100
AcDbEntity
  8
1
  6
Continuous
 62
     4
100
AcDbLine
 10
320.950718958067
 20
249.913244459226
 30
0.0
 11
320.200718958067
 21
249.663244459226
 31
0.0
  0
LINE
  5
205
330
1F
100
AcDbEntity
  8
1
  6
Continuous
 62
     4
100
AcDbLine
 10
321.700718958067
 20
250.413244459226
 30
0.0
 11
320.950718958067
 21
249.913244459226
 31
0.0
  0
LINE
  5
206
330
1F
100
AcDbEntity
  8
1
  6
Continuous
 62
     4
100
AcDbLine
 10
322.200718958067
 20
251.163244459226
 30
0.0
 11
321.700718958067
 21
250.413244459226
 31
0.0
  0
LINE
  5
207
330
1F
100
AcDbEntity
  8
1
  6
Continuous
 62
     4
100
AcDbLine
 10
322.450718958067
 20
252.163244459226
 30
0.0
 11
322.200718958067
 21
251.163244459226
 31
0.0
  0
LINE
  5
208
330
1F
100
AcDbEntity
  8
1
  6
Continuous
 62
     4
100
AcDbLine
 10
322.450718958067
 20
253.163244459226
 30
0.0
 11
322.450718958067
 21
252.163244459226
 31
0.0
  0
LINE
  5
209
330
1F
100
AcDbEntity
  8
1
  6
Continuous
 62
     4
100
AcDbLine
 10
322.200718958067
 20
254.163244459226
 30
0.0
 11
322.450718958067
 21
253.163244459226
 31
0.0
  0
LINE
  5
20A
330
1F
100
AcDbEntity
  8
1
  6
Continuous
 62
     4
100
AcDbLine
 10
321.700718958067
 20
254.913244459226
 30
0.0
 11
322.200718958067
 21
254.163244459226
 31
0.0
  0
LINE
  5
20B
330
1F
100
AcDbEntity
  8
1
  6
Continuous
 62
     4
100
AcDbLine
 10
320.950718958067
 20
255.413244459226
 30
0.0
 11
321.700718958067
 21
254.913244459226
 31
0.0
  0
LINE
  5
20C
330
1F
100
AcDbEntity
  8
1
  6
Continuous
 62
     4
100
AcDbLine
 10
320.200718958067
 20
255.663244459226
 30
0.0
 11
320.950718958067
 21
255.413244459226
 31
0.0
  0
LINE
  5
20D
330
1F
100
AcDbEntity
  8
1
  6
Continuous
 62
     4
100
AcDbLine
 10
318.700718958067
 20
255.663244459226
 30
0.0
 11
320.200718958067
 21
255.663244459226
 31
0.0
  0
LINE
  5
20E
330
1F
100
AcDbEntity
  8
1
  6
Continuous
 62
     4
100
AcDbLine
 10
317.950718958067
 20
255.413244459226
 30
0.0
 11
318.700718958067
 21
255.663244459226
 31
0.0
  0
LINE
  5
20F
330
1F
100
AcDbEntity
  8
1
  6
Continuous
 62
     4
100
AcDbLine
 10
317.200718958067
 20
254.913244459226
 30
0.0
 11
317.950718958067
 21
255.413244459226
 31
0.0
  0
LINE
  5
210
330
1F
100
AcDbEntity
  8
1
  6
Continuous
 62
     4
100
AcDbLine
 10
316.700718958067
 20
254.163244459226
 30
0.0
 11
317.200718958067
 21
254.913244459226
 31
0.0
  0
LINE
  5
211
330
1F
100
AcDbEntity
  8
1
  6
Continuous
 62
     4
100
AcDbLine
 10
316.450718958067
 20
253.163244459226
 30
0.0
 11
316.700718958067
 21
254.163244459226
 31
0.0
  0
LINE
  5
212
330
1F
100
AcDbEntity
  8
1
  6
Continuous
 62
     4
100
AcDbLine
 10
313.450718958067
 20
259.663244459226
 30
0.0
 11
313.450718958067
 21
249.663244459226
 31
0.0
  0
LINE
  5
213
330
1F
100
AcDbEntity
  8
1
  6
Continuous
 62
     4
100
AcDbLine
 10
310.450718958067
 20
256.663244459226
 30
0.0
 11
313.450718958067
 21
259.663244459226
 31
0.0
  0
LINE
  5
214
330
1F
100
AcDbEntity
  8
1
  6
Continuous
 62
     4
100
AcDbLine
 10
338.200718958067
 20
229.663244459226
 30
0.0
 11
334.450718958067
 21
229.663244459226
 31
0.0
  0
LINE
  5
215
330
1F
100
AcDbEntity
  8
1
  6
Continuous
 62
     4
100
AcDbLine
 10
338.950718958067
 20
229.913244459226
 30
0.0
 11
338.200718958067
 21
229.663244459226
 31
0.0
  0
LINE
  5
216
330
1F
100
AcDbEntity
  8
1
  6
Continuous
 62
     4
100
AcDbLine
 10
339.700718958067
 20
230.413244459226
 30
0.0
 11
338.950718958067
 21
229.913244459226
 31
0.0
  0
LINE
  5
217
330
1F
100
AcDbEntity
  8
1
  6
Continuous
 62
     4
100
AcDbLine
 10
340.200718958067
 20
231.163244459226
 30
0.0
 11
339.700718958067
 21
230.413244459226
 31
0.0
  0
LINE
  5
218
330
1F
100
AcDbEntity
  8
1
  6
Continuous
 62
     4
100
AcDbLine
 10
340.450718958067
 20
232.163244459226
 30
0.0
 11
340.200718958067
 21
231.163244459226
 31
0.0
  0
LINE
  5
219
330
1F
100
AcDbEntity
  8
1
  6
Continuous
 62
     4
100
AcDbLine
 10
340.450718958067
 20
233.413244459226
 30
0.0
 11
340.450718958067
 21
232.163244459226
 31
0.0
  0
LINE
  5
21A
330
1F
100
AcDbEntity
  8
1
  6
Continuous
 62
     4
100
AcDbLine
 10
340.200718958067
 20
234.413244459226
 30
0.0
 11
340.450718958067
 21
233.413244459226
 31
0.0
  0
LINE
  5
21B
330
1F
100
AcDbEntity
  8
1
  6
Continuous
 62
     4
100
AcDbLine
 10
339.950718958067
 20
234.913244459226
 30
0.0
 11
340.200718958067
 21
234.413244459226
 31
0.0
  0
LINE
  5
21C
330
1F
100
AcDbEntity
  8
1
  6
Continuous
 62
     4
100
AcDbLine
 10
339.450718958067
 20
235.413244459226
 30
0.0
 11
339.950718958067
 21
234.913244459226
 31
0.0
  0
LINE
  5
21D
330
1F
100
AcDbEntity
  8
1
  6
Continuous
 62
     4
100
AcDbLine
 10
338.450718958067
 20
235.663244459226
 30
0.0
 11
339.450718958067
 21
235.413244459226
 31
0.0
  0
LINE
  5
21E
330
1F
100
AcDbEntity
  8
1
  6
Continuous
 62
     4
100
AcDbLine
 10
339.200718958067
 20
235.913244459226
 30
0.0
 11
338.450718958067
 21
235.663244459226
 31
0.0
  0
LINE
  5
21F
330
1F
100
AcDbEntity
  8
1
  6
Continuous
 62
     4
100
AcDbLine
 10
339.700718958067
 20
236.163244459226
 30
0.0
 11
339.200718958067
 21
235.913244459226
 31
0.0
  0
LINE
  5
220
330
1F
100
AcDbEntity
  8
1
  6
Continuous
 62
     4
100
AcDbLine
 10
340.200718958067
 20
236.663244459226
 30
0.0
 11
339.700718958067
 21
236.163244459226
 31
0.0
  0
LINE
  5
221
330
1F
100
AcDbEntity
  8
1
  6
Continuous
 62
     4
100
AcDbLine
 10
340.450718958067
 20
237.413244459226
 30
0.0
 11
340.200718958067
 21
236.663244459226
 31
0.0
  0
LINE
  5
222
330
1F
100
AcDbEntity
  8
1
  6
Continuous
 62
     4
100
AcDbLine
 10
340.450718958067
 20
238.163244459226
 30
0.0
 11
340.450718958067
 21
237.413244459226
 31
0.0
  0
LINE
  5
223
330
1F
100
AcDbEntity
  8
1
  6
Continuous
 62
     4
100
AcDbLine
 10
340.200718958067
 20
238.913244459226
 30
0.0
 11
340.450718958067
 21
238.163244459226
 31
0.0
  0
LINE
  5
224
330
1F
100
AcDbEntity
  8
1
  6
Continuous
 62
     4
100
AcDbLine
 10
339.450718958067
 20
239.413244459226
 30
0.0
 11
340.200718958067
 21
238.913244459226
 31
0.0
  0
LINE
  5
225
330
1F
100
AcDbEntity
  8
1
  6
Continuous
 62
     4
100
AcDbLine
 10
338.200718958067
 20
239.663244459226
 30
0.0
 11
339.450718958067
 21
239.413244459226
 31
0.0
  0
LINE
  5
226
330
1F
100
AcDbEntity
  8
1
  6
Continuous
 62
     4
100
AcDbLine
 10
334.450718958067
 20
239.663244459226
 30
0.0
 11
338.200718958067
 21
239.663244459226
 31
0.0
  0
LINE
  5
227
330
1F
100
AcDbEntity
  8
1
  6
Continuous
 62
     4
100
AcDbLine
 10
335.950718958067
 20
235.663244459226
 30
0.0
 11
338.450718958067
 21
235.663244459226
 31
0.0
  0
LINE
  5
228
330
1F
100
AcDbEntity
  8
1
  6
Continuous
 62
     4
100
AcDbLine
 10
329.950718958067
 20
233.663244459226
 30
0.0
 11
329.950718958067
 21
229.663244459226
 31
0.0
  0
LINE
  5
229
330
1F
100
AcDbEntity
  8
1
  6
Continuous
 62
     4
100
AcDbLine
 10
325.450718958067
 20
231.663244459226
 30
0.0
 11
331.450718958067
 21
231.663244459226
 31
0.0
  0
LINE
  5
22A
330
1F
100
AcDbEntity
  8
1
  6
Continuous
 62
     4
100
AcDbLine
 10
329.950718958067
 20
239.663244459226
 30
0.0
 11
325.450718958067
 21
231.663244459226
 31
0.0
  0
LINE
  5
22B
330
1F
100
AcDbEntity
  8
1
  6
Continuous
 62
     4
100
AcDbLine
 10
317.450718958067
 20
238.913244459226
 30
0.0
 11
318.200718958067
 21
239.413244459226
 31
0.0
  0
LINE
  5
22C
330
1F
100
AcDbEntity
  8
1
  6
Continuous
 62
     4
100
AcDbLine
 10
316.950718958067
 20
238.163244459226
 30
0.0
 11
317.450718958067
 21
238.913244459226
 31
0.0
  0
LINE
  5
22D
330
1F
100
AcDbEntity
  8
1
  6
Continuous
 62
     4
100
AcDbLine
 10
316.950718958067
 20
237.163244459226
 30
0.0
 11
316.950718958067
 21
238.163244459226
 31
0.0
  0
LINE
  5
22E
330
1F
100
AcDbEntity
  8
1
  6
Continuous
 62
     4
100
AcDbLine
 10
317.450718958067
 20
236.413244459226
 30
0.0
 11
316.950718958067
 21
237.163244459226
 31
0.0
  0
LINE
  5
22F
330
1F
100
AcDbEntity
  8
1
  6
Continuous
 62
     4
100
AcDbLine
 10
318.200718958067
 20
235.913244459226
 30
0.0
 11
317.450718958067
 21
236.413244459226
 31
0.0
  0
LINE
  5
230
330
1F
100
AcDbEntity
  8
1
  6
Continuous
 62
     4
100
AcDbLine
 10
318.950718958067
 20
235.663244459226
 30
0.0
 11
318.200718958067
 21
235.913244459226
 31
0.0
  0
LINE
  5
231
330
1F
100
AcDbEntity
  8
1
  6
Continuous
 62
     4
100
AcDbLine
 10
319.950718958067
 20
235.663244459226
 30
0.0
 11
318.950718958067
 21
235.663244459226
 31
0.0
  0
LINE
  5
232
330
1F
100
AcDbEntity
  8
1
  6
Continuous
 62
     4
100
AcDbLine
 10
320.700718958067
 20
235.913244459226
 30
0.0
 11
319.950718958067
 21
235.663244459226
 31
0.0
  0
LINE
  5
233
330
1F
100
AcDbEntity
  8
1
  6
Continuous
 62
     4
100
AcDbLine
 10
321.450718958067
 20
236.413244459226
 30
0.0
 11
320.700718958067
 21
235.913244459226
 31
0.0
  0
LINE
  5
234
330
1F
100
AcDbEntity
  8
1
  6
Continuous
 62
     4
100
AcDbLine
 10
321.950718958067
 20
237.163244459226
 30
0.0
 11
321.450718958067
 21
236.413244459226
 31
0.0
  0
LINE
  5
235
330
1F
100
AcDbEntity
  8
1
  6
Continuous
 62
     4
100
AcDbLine
 10
321.950718958067
 20
238.163244459226
 30
0.0
 11
321.950718958067
 21
237.163244459226
 31
0.0
  0
LINE
  5
236
330
1F
100
AcDbEntity
  8
1
  6
Continuous
 62
     4
100
AcDbLine
 10
321.450718958067
 20
238.913244459226
 30
0.0
 11
321.950718958067
 21
238.163244459226
 31
0.0
  0
LINE
  5
237
330
1F
100
AcDbEntity
  8
1
  6
Continuous
 62
     4
100
AcDbLine
 10
320.700718958067
 20
239.413244459226
 30
0.0
 11
321.450718958067
 21
238.913244459226
 31
0.0
  0
LINE
  5
238
330
1F
100
AcDbEntity
  8
1
  6
Continuous
 62
     4
100
AcDbLine
 10
319.950718958067
 20
239.663244459226
 30
0.0
 11
320.700718958067
 21
239.413244459226
 31
0.0
  0
LINE
  5
239
330
1F
100
AcDbEntity
  8
1
  6
Continuous
 62
     4
100
AcDbLine
 10
318.950718958067
 20
239.663244459226
 30
0.0
 11
319.950718958067
 21
239.663244459226
 31
0.0
  0
LINE
  5
23A
330
1F
100
AcDbEntity
  8
1
  6
Continuous
 62
     4
100
AcDbLine
 10
318.200718958067
 20
239.413244459226
 30
0.0
 11
318.950718958067
 21
239.663244459226
 31
0.0
  0
LINE
  5
23B
330
1F
100
AcDbEntity
  8
1
  6
Continuous
 62
     4
100
AcDbLine
 10
321.200718958067
 20
235.163244459226
 30
0.0
 11
319.950718958067
 21
235.663244459226
 31
0.0
  0
LINE
  5
23C
330
1F
100
AcDbEntity
  8
1
  6
Continuous
 62
     4
100
AcDbLine
 10
321.950718958067
 20
234.413244459226
 30
0.0
 11
321.200718958067
 21
235.163244459226
 31
0.0
  0
LINE
  5
23D
330
1F
100
AcDbEntity
  8
1
  6
Continuous
 62
     4
100
AcDbLine
 10
322.450718958067
 20
233.413244459226
 30
0.0
 11
321.950718958067
 21
234.413244459226
 31
0.0
  0
LINE
  5
23E
330
1F
100
AcDbEntity
  8
1
  6
Continuous
 62
     4
100
AcDbLine
 10
322.450718958067
 20
231.913244459226
 30
0.0
 11
322.450718958067
 21
233.413244459226
 31
0.0
  0
LINE
  5
23F
330
1F
100
AcDbEntity
  8
1
  6
Continuous
 62
     4
100
AcDbLine
 10
321.950718958067
 20
230.913244459226
 30
0.0
 11
322.450718958067
 21
231.913244459226
 31
0.0
  0
LINE
  5
240
330
1F
100
AcDbEntity
  8
1
  6
Continuous
 62
     4
100
AcDbLine
 10
321.200718958067
 20
230.163244459226
 30
0.0
 11
321.950718958067
 21
230.913244459226
 31
0.0
  0
LINE
  5
241
330
1F
100
AcDbEntity
  8
1
  6
Continuous
 62
     4
100
AcDbLine
 10
320.200718958067
 20
229.663244459226
 30
0.0
 11
321.200718958067
 21
230.163244459226
 31
0.0
  0
LINE
  5
242
330
1F
100
AcDbEntity
  8
1
  6
Continuous
 62
     4
100
AcDbLine
 10
318.700718958067
 20
229.663244459226
 30
0.0
 11
320.200718958067
 21
229.663244459226
 31
0.0
  0
LINE
  5
243
330
1F
100
AcDbEntity
  8
1
  6
Continuous
 62
     4
100
AcDbLine
 10
317.700718958067
 20
230.163244459226
 30
0.0
 11
318.700718958067
 21
229.663244459226
 31
0.0
  0
LINE
  5
244
330
1F
100
AcDbEntity
  8
1
  6
Continuous
 62
     4
100
AcDbLine
 10
316.950718958067
 20
230.913244459226
 30
0.0
 11
317.700718958067
 21
230.163244459226
 31
0.0
  0
LINE
  5
245
330
1F
100
AcDbEntity
  8
1
  6
Continuous
 62
     4
100
AcDbLine
 10
316.450718958067
 20
231.913244459226
 30
0.0
 11
316.950718958067
 21
230.913244459226
 31
0.0
  0
LINE
  5
246
330
1F
100
AcDbEntity
  8
1
  6
Continuous
 62
     4
100
AcDbLine
 10
316.450718958067
 20
233.413244459226
 30
0.0
 11
316.450718958067
 21
231.913244459226
 31
0.0
  0
LINE
  5
247
330
1F
100
AcDbEntity
  8
1
  6
Continuous
 62
     4
100
AcDbLine
 10
316.950718958067
 20
234.413244459226
 30
0.0
 11
316.450718958067
 21
233.413244459226
 31
0.0
  0
LINE
  5
248
330
1F
100
AcDbEntity
  8
1
  6
Continuous
 62
     4
100
AcDbLine
 10
317.700718958067
 20
235.163244459226
 30
0.0
 11
316.950718958067
 21
234.413244459226
 31
0.0
  0
LINE
  5
249
330
1F
100
AcDbEntity
  8
1
  6
Continuous
 62
     4
100
AcDbLine
 10
318.950718958067
 20
235.663244459226
 30
0.0
 11
317.700718958067
 21
235.163244459226
 31
0.0
  0
LINE
  5
24A
330
1F
100
AcDbEntity
  8
1
  6
Continuous
 62
     4
100
AcDbLine
 10
313.450718958067
 20
239.663244459226
 30
0.0
 11
313.450718958067
 21
229.663244459226
 31
0.0
  0
LINE
  5
24B
330
1F
100
AcDbEntity
  8
1
  6
Continuous
 62
     4
100
AcDbLine
 10
310.450718958067
 20
236.663244459226
 30
0.0
 11
313.450718958067
 21
239.663244459226
 31
0.0
  0
LINE
  5
24C
330
1F
100
AcDbEntity
  8
1
  6
Continuous
 62
     4
100
AcDbLine
 10
339.700718958067
 20
209.663244459226
 30
0.0
 11
335.950718958067
 21
209.663244459226
 31
0.0
  0
LINE
  5
24D
330
1F
100
AcDbEntity
  8
1
  6
Continuous
 62
     4
100
AcDbLine
 10
340.450718958067
 20
209.913244459226
 30
0.0
 11
339.700718958067
 21
209.663244459226
 31
0.0
  0
LINE
  5
24E
330
1F
100
AcDbEntity
  8
1
  6
Continuous
 62
     4
100
AcDbLine
 10
341.200718958067
 20
210.413244459226
 30
0.0
 11
340.450718958067
 21
209.913244459226
 31
0.0
  0
LINE
  5
24F
330
1F
100
AcDbEntity
  8
1
  6
Continuous
 62
     4
100
AcDbLine
 10
341.700718958067
 20
211.163244459226
 30
0.0
 11
341.200718958067
 21
210.413244459226
 31
0.0
  0
LINE
  5
250
330
1F
100
AcDbEntity
  8
1
  6
Continuous
 62
     4
100
AcDbLine
 10
341.950718958067
 20
212.163244459226
 30
0.0
 11
341.700718958067
 21
211.163244459226
 31
0.0
  0
LINE
  5
251
330
1F
100
AcDbEntity
  8
1
  6
Continuous
 62
     4
100
AcDbLine
 10
341.950718958067
 20
213.413244459226
 30
0.0
 11
341.950718958067
 21
212.163244459226
 31
0.0
  0
LINE
  5
252
330
1F
100
AcDbEntity
  8
1
  6
Continuous
 62
     4
100
AcDbLine
 10
341.700718958067
 20
214.413244459226
 30
0.0
 11
341.950718958067
 21
213.413244459226
 31
0.0
  0
LINE
  5
253
330
1F
100
AcDbEntity
  8
1
  6
Continuous
 62
     4
100
AcDbLine
 10
341.450718958067
 20
214.913244459226
 30
0.0
 11
341.700718958067
 21
214.413244459226
 31
0.0
  0
LINE
  5
254
330
1F
100
AcDbEntity
  8
1
  6
Continuous
 62
     4
100
AcDbLine
 10
340.950718958067
 20
215.413244459226
 30
0.0
 11
341.450718958067
 21
214.913244459226
 31
0.0
  0
LINE
  5
255
330
1F
100
AcDbEntity
  8
1
  6
Continuous
 62
     4
100
AcDbLine
 10
339.950718958067
 20
215.663244459226
 30
0.0
 11
340.950718958067
 21
215.413244459226
 31
0.0
  0
LINE
  5
256
330
1F
100
AcDbEntity
  8
1
  6
Continuous
 62
     4
100
AcDbLine
 10
340.700718958067
 20
215.913244459226
 30
0.0
 11
339.950718958067
 21
215.663244459226
 31
0.0
  0
LINE
  5
257
330
1F
100
AcDbEntity
  8
1
  6
Continuous
 62
     4
100
AcDbLine
 10
341.200718958067
 20
216.163244459226
 30
0.0
 11
340.700718958067
 21
215.913244459226
 31
0.0
  0
LINE
  5
258
330
1F
100
AcDbEntity
  8
1
  6
Continuous
 62
     4
100
AcDbLine
 10
341.700718958067
 20
216.663244459226
 30
0.0
 11
341.200718958067
 21
216.163244459226
 31
0.0
  0
LINE
  5
259
330
1F
100
AcDbEntity
  8
1
  6
Continuous
 62
     4
100
AcDbLine
 10
341.950718958067
 20
217.413244459226
 30
0.0
 11
341.700718958067
 21
216.663244459226
 31
0.0
  0
LINE
  5
25A
330
1F
100
AcDbEntity
  8
1
  6
Continuous
 62
     4
100
AcDbLine
 10
341.950718958067
 20
218.163244459226
 30
0.0
 11
341.950718958067
 21
217.413244459226
 31
0.0
  0
LINE
  5
25B
330
1F
100
AcDbEntity
  8
1
  6
Continuous
 62
     4
100
AcDbLine
 10
341.700718958067
 20
218.913244459226
 30
0.0
 11
341.950718958067
 21
218.163244459226
 31
0.0
  0
LINE
  5
25C
330
1F
100
AcDbEntity
  8
1
  6
Continuous
 62
     4
100
AcDbLine
 10
340.950718958067
 20
219.413244459226
 30
0.0
 11
341.700718958067
 21
218.913244459226
 31
0.0
  0
LINE
  5
25D
330
1F
100
AcDbEntity
  8
1
  6
Continuous
 62
     4
100
AcDbLine
 10
339.700718958067
 20
219.663244459226
 30
0.0
 11
340.950718958067
 21
219.413244459226
 31
0.0
  0
LINE
  5
25E
330
1F
100
AcDbEntity
  8
1
  6
Continuous
 62
     4
100
AcDbLine
 10
335.950718958067
 20
219.663244459226
 30
0.0
 11
339.700718958067
 21
219.663244459226
 31
0.0
  0
LINE
  5
25F
330
1F
100
AcDbEntity
  8
1
  6
Continuous
 62
     4
100
AcDbLine
 10
337.450718958067
 20
215.663244459226
 30
0.0
 11
339.950718958067
 21
215.663244459226
 31
0.0
  0
LINE
  5
260
330
1F
100
AcDbEntity
  8
1
  6
Continuous
 62
     4
100
AcDbLine
 10
331.450718958067
 20
213.663244459226
 30
0.0
 11
331.450718958067
 21
209.663244459226
 31
0.0
  0
LINE
  5
261
330
1F
100
AcDbEntity
  8
1
  6
Continuous
 62
     4
100
AcDbLine
 10
326.950718958067
 20
211.663244459226
 30
0.0
 11
332.950718958067
 21
211.663244459226
 31
0.0
  0
LINE
  5
262
330
1F
100
AcDbEntity
  8
1
  6
Continuous
 62
     4
100
AcDbLine
 10
331.450718958067
 20
219.663244459226
 30
0.0
 11
326.950718958067
 21
211.663244459226
 31
0.0
  0
LINE
  5
263
330
1F
100
AcDbEntity
  8
1
  6
Continuous
 62
     4
100
AcDbLine
 10
323.950718958067
 20
215.913244459226
 30
0.0
 11
323.950718958067
 21
213.413244459226
 31
0.0
  0
LINE
  5
264
330
1F
100
AcDbEntity
  8
1
  6
Continuous
 62
     4
100
AcDbLine
 10
323.700718958067
 20
217.413244459226
 30
0.0
 11
323.950718958067
 21
215.913244459226
 31
0.0
  0
LINE
  5
265
330
1F
100
AcDbEntity
  8
1
  6
Continuous
 62
     4
100
AcDbLine
 10
323.200718958067
 20
218.413244459226
 30
0.0
 11
323.700718958067
 21
217.413244459226
 31
0.0
  0
LINE
  5
266
330
1F
100
AcDbEntity
  8
1
  6
Continuous
 62
     4
100
AcDbLine
 10
322.700718958067
 20
218.913244459226
 30
0.0
 11
323.200718958067
 21
218.413244459226
 31
0.0
  0
LINE
  5
267
330
1F
100
AcDbEntity
  8
1
  6
Continuous
 62
     4
100
AcDbLine
 10
321.950718958067
 20
219.413244459226
 30
0.0
 11
322.700718958067
 21
218.913244459226
 31
0.0
  0
LINE
  5
268
330
1F
100
AcDbEntity
  8
1
  6
Continuous
 62
     4
100
AcDbLine
 10
321.200718958067
 20
219.663244459226
 30
0.0
 11
321.950718958067
 21
219.413244459226
 31
0.0
  0
LINE
  5
269
330
1F
100
AcDbEntity
  8
1
  6
Continuous
 62
     4
100
AcDbLine
 10
320.700718958067
 20
219.663244459226
 30
0.0
 11
321.200718958067
 21
219.663244459226
 31
0.0
  0
LINE
  5
26A
330
1F
100
AcDbEntity
  8
1
  6
Continuous
 62
     4
100
AcDbLine
 10
319.950718958067
 20
219.413244459226
 30
0.0
 11
320.700718958067
 21
219.663244459226
 31
0.0
  0
LINE
  5
26B
330
1F
100
AcDbEntity
  8
1
  6
Continuous
 62
     4
100
AcDbLine
 10
319.200718958067
 20
218.913244459226
 30
0.0
 11
319.950718958067
 21
219.413244459226
 31
0.0
  0
LINE
  5
26C
330
1F
100
AcDbEntity
  8
1
  6
Continuous
 62
     4
100
AcDbLine
 10
318.700718958067
 20
218.413244459226
 30
0.0
 11
319.200718958067
 21
218.913244459226
 31
0.0
  0
LINE
  5
26D
330
1F
100
AcDbEntity
  8
1
  6
Continuous
 62
     4
100
AcDbLine
 10
318.200718958067
 20
217.413244459226
 30
0.0
 11
318.700718958067
 21
218.413244459226
 31
0.0
  0
LINE
  5
26E
330
1F
100
AcDbEntity
  8
1
  6
Continuous
 62
     4
100
AcDbLine
 10
317.950718958067
 20
215.913244459226
 30
0.0
 11
318.200718958067
 21
217.413244459226
 31
0.0
  0
LINE
  5
26F
330
1F
100
AcDbEntity
  8
1
  6
Continuous
 62
     4
100
AcDbLine
 10
317.950718958067
 20
213.413244459226
 30
0.0
 11
317.950718958067
 21
215.913244459226
 31
0.0
  0
LINE
  5
270
330
1F
100
AcDbEntity
  8
1
  6
Continuous
 62
     4
100
AcDbLine
 10
318.200718958067
 20
211.913244459226
 30
0.0
 11
317.950718958067
 21
213.413244459226
 31
0.0
  0
LINE
  5
271
330
1F
100
AcDbEntity
  8
1
  6
Continuous
 62
     4
100
AcDbLine
 10
318.700718958067
 20
210.913244459226
 30
0.0
 11
318.200718958067
 21
211.913244459226
 31
0.0
  0
LINE
  5
272
330
1F
100
AcDbEntity
  8
1
  6
Continuous
 62
     4
100
AcDbLine
 10
319.200718958067
 20
210.413244459226
 30
0.0
 11
318.700718958067
 21
210.913244459226
 31
0.0
  0
LINE
  5
273
330
1F
100
AcDbEntity
  8
1
  6
Continuous
 62
     4
100
AcDbLine
 10
319.950718958067
 20
209.913244459226
 30
0.0
 11
319.200718958067
 21
210.413244459226
 31
0.0
  0
LINE
  5
274
330
1F
100
AcDbEntity
  8
1
  6
Continuous
 62
     4
100
AcDbLine
 10
320.700718958067
 20
209.663244459226
 30
0.0
 11
319.950718958067
 21
209.913244459226
 31
0.0
  0
LINE
  5
275
330
1F
100
AcDbEntity
  8
1
  6
Continuous
 62
     4
100
AcDbLine
 10
321.200718958067
 20
209.663244459226
 30
0.0
 11
320.700718958067
 21
209.663244459226
 31
0.0
  0
LINE
  5
276
330
1F
100
AcDbEntity
  8
1
  6
Continuous
 62
     4
100
AcDbLine
 10
321.950718958067
 20
209.913244459226
 30
0.0
 11
321.200718958067
 21
209.663244459226
 31
0.0
  0
LINE
  5
277
330
1F
100
AcDbEntity
  8
1
  6
Continuous
 62
     4
100
AcDbLine
 10
322.700718958067
 20
210.413244459226
 30
0.0
 11
321.950718958067
 21
209.913244459226
 31
0.0
  0
LINE
  5
278
330
1F
100
AcDbEntity
  8
1
  6
Continuous
 62
     4
100
AcDbLine
 10
323.200718958067
 20
210.913244459226
 30
0.0
 11
322.700718958067
 21
210.413244459226
 31
0.0
  0
LINE
  5
279
330
1F
100
AcDbEntity
  8
1
  6
Continuous
 62
     4
100
AcDbLine
 10
323.700718958067
 20
211.913244459226
 30
0.0
 11
323.200718958067
 21
210.913244459226
 31
0.0
  0
LINE
  5
27A
330
1F
100
AcDbEntity
  8
1
  6
Continuous
 62
     4
100
AcDbLine
 10
323.950718958067
 20
213.413244459226
 30
0.0
 11
323.700718958067
 21
211.913244459226
 31
0.0
  0
LINE
  5
27B
330
1F
100
AcDbEntity
  8
1
  6
Continuous
 62
     4
100
AcDbLine
 10
308.950718958067
 20
209.663244459226
 30
0.0
 11
314.950718958067
 21
209.663244459226
 31
0.0
  0
LINE
  5
27C
330
1F
100
AcDbEntity
  8
1
  6
Continuous
 62
     4
100
AcDbLine
 10
314.450718958067
 20
216.163244459226
 30
0.0
 11
308.950718958067
 21
209.663244459226
 31
0.0
  0
LINE
  5
27D
330
1F
100
AcDbEntity
  8
1
  6
Continuous
 62
     4
100
AcDbLine
 10
314.950718958067
 20
217.163244459226
 30
0.0
 11
314.450718958067
 21
216.163244459226
 31
0.0
  0
LINE
  5
27E
330
1F
100
AcDbEntity
  8
1
  6
Continuous
 62
     4
100
AcDbLine
 10
314.950718958067
 20
218.163244459226
 30
0.0
 11
314.950718958067
 21
217.163244459226
 31
0.0
  0
LINE
  5
27F
330
1F
100
AcDbEntity
  8
1
  6
Continuous
 62
     4
100
AcDbLine
 10
314.450718958067
 20
218.913244459226
 30
0.0
 11
314.950718958067
 21
218.163244459226
 31
0.0
  0
LINE
  5
280
330
1F
100
AcDbEntity
  8
1
  6
Continuous
 62
     4
100
AcDbLine
 10
313.700718958067
 20
219.413244459226
 30
0.0
 11
314.450718958067
 21
218.913244459226
 31
0.0
  0
LINE
  5
281
330
1F
100
AcDbEntity
  8
1
  6
Continuous
 62
     4
100
AcDbLine
 10
312.700718958067
 20
219.663244459226
 30
0.0
 11
313.700718958067
 21
219.413244459226
 31
0.0
  0
LINE
  5
282
330
1F
100
AcDbEntity
  8
1
  6
Continuous
 62
     4
100
AcDbLine
 10
311.200718958067
 20
219.663244459226
 30
0.0
 11
312.700718958067
 21
219.663244459226
 31
0.0
  0
LINE
  5
283
330
1F
100
AcDbEntity
  8
1
  6
Continuous
 62
     4
100
AcDbLine
 10
310.200718958067
 20
219.413244459226
 30
0.0
 11
311.200718958067
 21
219.663244459226
 31
0.0
  0
LINE
  5
284
330
1F
100
AcDbEntity
  8
1
  6
Continuous
 62
     4
100
AcDbLine
 10
309.450718958067
 20
218.913244459226
 30
0.0
 11
310.200718958067
 21
219.413244459226
 31
0.0
  0
LINE
  5
285
330
1F
100
AcDbEntity
  8
1
  6
Continuous
 62
     4
100
AcDbLine
 10
308.950718958067
 20
218.163244459226
 30
0.0
 11
309.450718958067
 21
218.913244459226
 31
0.0
  0
LINE
  5
286
330
1F
100
AcDbEntity
  8
1
  6
Continuous
 62
     4
100
AcDbLine
 10
254.575718958067
 20
215.913244459226
 30
0.0
 11
254.575718958067
 21
213.413244459226
 31
0.0
  0
LINE
  5
287
330
1F
100
AcDbEntity
  8
1
  6
Continuous
 62
     4
100
AcDbLine
 10
254.325718958067
 20
217.413244459226
 30
0.0
 11
254.575718958067
 21
215.913244459226
 31
0.0
  0
LINE
  5
288
330
1F
100
AcDbEntity
  8
1
  6
Continuous
 62
     4
100
AcDbLine
 10
253.825718958067
 20
218.413244459226
 30
0.0
 11
254.325718958067
 21
217.413244459226
 31
0.0
  0
LINE
  5
289
330
1F
100
AcDbEntity
  8
1
  6
Continuous
 62
     4
100
AcDbLine
 10
253.325718958067
 20
218.913244459226
 30
0.0
 11
253.825718958067
 21
218.413244459226
 31
0.0
  0
LINE
  5
28A
330
1F
100
AcDbEntity
  8
1
  6
Continuous
 62
     4
100
AcDbLine
 10
252.575718958067
 20
219.413244459226
 30
0.0
 11
253.325718958067
 21
218.913244459226
 31
0.0
  0
LINE
  5
28B
330
1F
100
AcDbEntity
  8
1
  6
Continuous
 62
     4
100
AcDbLine
 10
251.825718958067
 20
219.663244459226
 30
0.0
 11
252.575718958067
 21
219.413244459226
 31
0.0
  0
LINE
  5
28C
330
1F
100
AcDbEntity
  8
1
  6
Continuous
 62
     4
100
AcDbLine
 10
251.325718958067
 20
219.663244459226
 30
0.0
 11
251.825718958067
 21
219.663244459226
 31
0.0
  0
LINE
  5
28D
330
1F
100
AcDbEntity
  8
1
  6
Continuous
 62
     4
100
AcDbLine
 10
250.575718958067
 20
219.413244459226
 30
0.0
 11
251.325718958067
 21
219.663244459226
 31
0.0
  0
LINE
  5
28E
330
1F
100
AcDbEntity
  8
1
  6
Continuous
 62
     4
100
AcDbLine
 10
249.825718958067
 20
218.913244459226
 30
0.0
 11
250.575718958067
 21
219.413244459226
 31
0.0
  0
LINE
  5
28F
330
1F
100
AcDbEntity
  8
1
  6
Continuous
 62
     4
100
AcDbLine
 10
249.325718958067
 20
218.413244459226
 30
0.0
 11
249.825718958067
 21
218.913244459226
 31
0.0
  0
LINE
  5
290
330
1F
100
AcDbEntity
  8
1
  6
Continuous
 62
     4
100
AcDbLine
 10
248.825718958067
 20
217.413244459226
 30
0.0
 11
249.325718958067
 21
218.413244459226
 31
0.0
  0
LINE
  5
291
330
1F
100
AcDbEntity
  8
1
  6
Continuous
 62
     4
100
AcDbLine
 10
248.575718958067
 20
215.913244459226
 30
0.0
 11
248.825718958067
 21
217.413244459226
 31
0.0
  0
LINE
  5
292
330
1F
100
AcDbEntity
  8
1
  6
Continuous
 62
     4
100
AcDbLine
 10
248.575718958067
 20
213.413244459226
 30
0.0
 11
248.575718958067
 21
215.913244459226
 31
0.0
  0
LINE
  5
293
330
1F
100
AcDbEntity
  8
1
  6
Continuous
 62
     4
100
AcDbLine
 10
248.825718958067
 20
211.913244459226
 30
0.0
 11
248.575718958067
 21
213.413244459226
 31
0.0
  0
LINE
  5
294
330
1F
100
AcDbEntity
  8
1
  6
Continuous
 62
     4
100
AcDbLine
 10
249.325718958067
 20
210.913244459226
 30
0.0
 11
248.825718958067
 21
211.913244459226
 31
0.0
  0
LINE
  5
295
330
1F
100
AcDbEntity
  8
1
  6
Continuous
 62
     4
100
AcDbLine
 10
249.825718958067
 20
210.413244459226
 30
0.0
 11
249.325718958067
 21
210.913244459226
 31
0.0
  0
LINE
  5
296
330
1F
100
AcDbEntity
  8
1
  6
Continuous
 62
     4
100
AcDbLine
 10
250.575718958067
 20
209.913244459226
 30
0.0
 11
249.825718958067
 21
210.413244459226
 31
0.0
  0
LINE
  5
297
330
1F
100
AcDbEntity
  8
1
  6
Continuous
 62
     4
100
AcDbLine
 10
251.325718958067
 20
209.663244459226
 30
0.0
 11
250.575718958067
 21
209.913244459226
 31
0.0
  0
LINE
  5
298
330
1F
100
AcDbEntity
  8
1
  6
Continuous
 62
     4
100
AcDbLine
 10
251.825718958067
 20
209.663244459226
 30
0.0
 11
251.325718958067
 21
209.663244459226
 31
0.0
  0
LINE
  5
299
330
1F
100
AcDbEntity
  8
1
  6
Continuous
 62
     4
100
AcDbLine
 10
252.575718958067
 20
209.913244459226
 30
0.0
 11
251.825718958067
 21
209.663244459226
 31
0.0
  0
LINE
  5
29A
330
1F
100
AcDbEntity
  8
1
  6
Continuous
 62
     4
100
AcDbLine
 10
253.325718958067
 20
210.413244459226
 30
0.0
 11
252.575718958067
 21
209.913244459226
 31
0.0
  0
LINE
  5
29B
330
1F
100
AcDbEntity
  8
1
  6
Continuous
 62
     4
100
AcDbLine
 10
253.825718958067
 20
210.913244459226
 30
0.0
 11
253.325718958067
 21
210.413244459226
 31
0.0
  0
LINE
  5
29C
330
1F
100
AcDbEntity
  8
1
  6
Continuous
 62
     4
100
AcDbLine
 10
254.325718958067
 20
211.913244459226
 30
0.0
 11
253.825718958067
 21
210.913244459226
 31
0.0
  0
LINE
  5
29D
330
1F
100
AcDbEntity
  8
1
  6
Continuous
 62
     4
100
AcDbLine
 10
254.575718958067
 20
213.413244459226
 30
0.0
 11
254.325718958067
 21
211.913244459226
 31
0.0
  0
LINE
  5
29E
330
1F
100
AcDbEntity
  8
1
  6
Continuous
 62
     4
100
AcDbLine
 10
245.825718958067
 20
210.163244459226
 30
0.0
 11
245.825718958067
 21
209.913244459226
 31
0.0
  0
LINE
  5
29F
330
1F
100
AcDbEntity
  8
1
  6
Continuous
 62
     4
100
AcDbLine
 10
245.575718958067
 20
210.163244459226
 30
0.0
 11
245.825718958067
 21
210.163244459226
 31
0.0
  0
LINE
  5
2A0
330
1F
100
AcDbEntity
  8
1
  6
Continuous
 62
     4
100
AcDbLine
 10
245.575718958067
 20
209.913244459226
 30
0.0
 11
245.575718958067
 21
210.163244459226
 31
0.0
  0
LINE
  5
2A1
330
1F
100
AcDbEntity
  8
1
  6
Continuous
 62
     4
100
AcDbLine
 10
245.825718958067
 20
209.913244459226
 30
0.0
 11
245.575718958067
 21
209.913244459226
 31
0.0
  0
LINE
  5
2A2
330
1F
100
AcDbEntity
  8
1
  6
Continuous
 62
     4
100
AcDbLine
 10
246.075718958067
 20
210.413244459226
 30
0.0
 11
246.075718958067
 21
209.663244459226
 31
0.0
  0
LINE
  5
2A3
330
1F
100
AcDbEntity
  8
1
  6
Continuous
 62
     4
100
AcDbLine
 10
245.325718958067
 20
210.413244459226
 30
0.0
 11
246.075718958067
 21
210.413244459226
 31
0.0
  0
LINE
  5
2A4
330
1F
100
AcDbEntity
  8
1
  6
Continuous
 62
     4
100
AcDbLine
 10
245.325718958067
 20
209.663244459226
 30
0.0
 11
245.325718958067
 21
210.413244459226
 31
0.0
  0
LINE
  5
2A5
330
1F
100
AcDbEntity
  8
1
  6
Continuous
 62
     4
100
AcDbLine
 10
246.075718958067
 20
209.663244459226
 30
0.0
 11
245.325718958067
 21
209.663244459226
 31
0.0
  0
LINE
  5
2A6
330
1F
100
AcDbEntity
  8
1
  6
Continuous
 62
     4
100
AcDbLine
 10
236.325718958067
 20
209.663244459226
 30
0.0
 11
242.325718958067
 21
209.663244459226
 31
0.0
  0
LINE
  5
2A7
330
1F
100
AcDbEntity
  8
1
  6
Continuous
 62
     4
100
AcDbLine
 10
241.825718958067
 20
216.163244459226
 30
0.0
 11
236.325718958067
 21
209.663244459226
 31
0.0
  0
LINE
  5
2A8
330
1F
100
AcDbEntity
  8
1
  6
Continuous
 62
     4
100
AcDbLine
 10
242.325718958067
 20
217.163244459226
 30
0.0
 11
241.825718958067
 21
216.163244459226
 31
0.0
  0
LINE
  5
2A9
330
1F
100
AcDbEntity
  8
1
  6
Continuous
 62
     4
100
AcDbLine
 10
242.325718958067
 20
218.163244459226
 30
0.0
 11
242.325718958067
 21
217.163244459226
 31
0.0
  0
LINE
  5
2AA
330
1F
100
AcDbEntity
  8
1
  6
Continuous
 62
     4
100
AcDbLine
 10
241.825718958067
 20
218.913244459226
 30
0.0
 11
242.325718958067
 21
218.163244459226
 31
0.0
  0
LINE
  5
2AB
330
1F
100
AcDbEntity
  8
1
  6
Continuous
 62
     4
100
AcDbLine
 10
241.075718958067
 20
219.413244459226
 30
0.0
 11
241.825718958067
 21
218.913244459226
 31
0.0
  0
LINE
  5
2AC
330
1F
100
AcDbEntity
  8
1
  6
Continuous
 62
     4
100
AcDbLine
 10
240.075718958067
 20
219.663244459226
 30
0.0
 11
241.075718958067
 21
219.413244459226
 31
0.0
  0
LINE
  5
2AD
330
1F
100
AcDbEntity
  8
1
  6
Continuous
 62
     4
100
AcDbLine
 10
238.575718958067
 20
219.663244459226
 30
0.0
 11
240.075718958067
 21
219.663244459226
 31
0.0
  0
LINE
  5
2AE
330
1F
100
AcDbEntity
  8
1
  6
Continuous
 62
     4
100
AcDbLine
 10
237.575718958067
 20
219.413244459226
 30
0.0
 11
238.575718958067
 21
219.663244459226
 31
0.0
  0
LINE
  5
2AF
330
1F
100
AcDbEntity
  8
1
  6
Continuous
 62
     4
100
AcDbLine
 10
236.825718958067
 20
218.913244459226
 30
0.0
 11
237.575718958067
 21
219.413244459226
 31
0.0
  0
LINE
  5
2B0
330
1F
100
AcDbEntity
  8
1
  6
Continuous
 62
     4
100
AcDbLine
 10
236.325718958067
 20
218.163244459226
 30
0.0
 11
236.825718958067
 21
218.913244459226
 31
0.0
  0
LINE
  5
2B1
330
1F
100
AcDbEntity
  8
1
  6
Continuous
 62
     4
100
AcDbLine
 10
248.075718958067
 20
238.913244459226
 30
0.0
 11
248.825718958067
 21
239.413244459226
 31
0.0
  0
LINE
  5
2B2
330
1F
100
AcDbEntity
  8
1
  6
Continuous
 62
     4
100
AcDbLine
 10
247.575718958067
 20
238.163244459226
 30
0.0
 11
248.075718958067
 21
238.913244459226
 31
0.0
  0
LINE
  5
2B3
330
1F
100
AcDbEntity
  8
1
  6
Continuous
 62
     4
100
AcDbLine
 10
247.575718958067
 20
237.163244459226
 30
0.0
 11
247.575718958067
 21
238.163244459226
 31
0.0
  0
LINE
  5
2B4
330
1F
100
AcDbEntity
  8
1
  6
Continuous
 62
     4
100
AcDbLine
 10
248.075718958067
 20
236.413244459226
 30
0.0
 11
247.575718958067
 21
237.163244459226
 31
0.0
  0
LINE
  5
2B5
330
1F
100
AcDbEntity
  8
1
  6
Continuous
 62
     4
100
AcDbLine
 10
248.825718958067
 20
235.913244459226
 30
0.0
 11
248.075718958067
 21
236.413244459226
 31
0.0
  0
LINE
  5
2B6
330
1F
100
AcDbEntity
  8
1
  6
Continuous
 62
     4
100
AcDbLine
 10
249.575718958067
 20
235.663244459226
 30
0.0
 11
248.825718958067
 21
235.913244459226
 31
0.0
  0
LINE
  5
2B7
330
1F
100
AcDbEntity
  8
1
  6
Continuous
 62
     4
100
AcDbLine
 10
250.575718958067
 20
235.663244459226
 30
0.0
 11
249.575718958067
 21
235.663244459226
 31
0.0
  0
LINE
  5
2B8
330
1F
100
AcDbEntity
  8
1
  6
Continuous
 62
     4
100
AcDbLine
 10
251.325718958067
 20
235.913244459226
 30
0.0
 11
250.575718958067
 21
235.663244459226
 31
0.0
  0
LINE
  5
2B9
330
1F
100
AcDbEntity
  8
1
  6
Continuous
 62
     4
100
AcDbLine
 10
252.075718958067
 20
236.413244459226
 30
0.0
 11
251.325718958067
 21
235.913244459226
 31
0.0
  0
LINE
  5
2BA
330
1F
100
AcDbEntity
  8
1
  6
Continuous
 62
     4
100
AcDbLine
 10
252.575718958067
 20
237.163244459226
 30
0.0
 11
252.075718958067
 21
236.413244459226
 31
0.0
  0
LINE
  5
2BB
330
1F
100
AcDbEntity
  8
1
  6
Continuous
 62
     4
100
AcDbLine
 10
252.575718958067
 20
238.163244459226
 30
0.0
 11
252.575718958067
 21
237.163244459226
 31
0.0
  0
LINE
  5
2BC
330
1F
100
AcDbEntity
  8
1
  6
Continuous
 62
     4
100
AcDbLine
 10
252.075718958067
 20
238.913244459226
 30
0.0
 11
252.575718958067
 21
238.163244459226
 31
0.0
  0
LINE
  5
2BD
330
1F
100
AcDbEntity
  8
1
  6
Continuous
 62
     4
100
AcDbLine
 10
251.325718958067
 20
239.413244459226
 30
0.0
 11
252.075718958067
 21
238.913244459226
 31
0.0
  0
LINE
  5
2BE
330
1F
100
AcDbEntity
  8
1
  6
Continuous
 62
     4
100
AcDbLine
 10
250.575718958067
 20
239.663244459226
 30
0.0
 11
251.325718958067
 21
239.413244459226
 31
0.0
  0
LINE
  5
2BF
330
1F
100
AcDbEntity
  8
1
  6
Continuous
 62
     4
100
AcDbLine
 10
249.575718958067
 20
239.663244459226
 30
0.0
 11
250.575718958067
 21
239.663244459226
 31
0.0
  0
LINE
  5
2C0
330
1F
100
AcDbEntity
  8
1
  6
Continuous
 62
     4
100
AcDbLine
 10
248.825718958067
 20
239.413244459226
 30
0.0
 11
249.575718958067
 21
239.663244459226
 31
0.0
  0
LINE
  5
2C1
330
1F
100
AcDbEntity
  8
1
  6
Continuous
 62
     4
100
AcDbLine
 10
251.825718958067
 20
235.163244459226
 30
0.0
 11
250.575718958067
 21
235.663244459226
 31
0.0
  0
LINE
  5
2C2
330
1F
100
AcDbEntity
  8
1
  6
Continuous
 62
     4
100
AcDbLine
 10
252.575718958067
 20
234.413244459226
 30
0.0
 11
251.825718958067
 21
235.163244459226
 31
0.0
  0
LINE
  5
2C3
330
1F
100
AcDbEntity
  8
1
  6
Continuous
 62
     4
100
AcDbLine
 10
253.075718958067
 20
233.413244459226
 30
0.0
 11
252.575718958067
 21
234.413244459226
 31
0.0
  0
LINE
  5
2C4
330
1F
100
AcDbEntity
  8
1
  6
Continuous
 62
     4
100
AcDbLine
 10
253.075718958067
 20
231.913244459226
 30
0.0
 11
253.075718958067
 21
233.413244459226
 31
0.0
  0
LINE
  5
2C5
330
1F
100
AcDbEntity
  8
1
  6
Continuous
 62
     4
100
AcDbLine
 10
252.575718958067
 20
230.913244459226
 30
0.0
 11
253.075718958067
 21
231.913244459226
 31
0.0
  0
LINE
  5
2C6
330
1F
100
AcDbEntity
  8
1
  6
Continuous
 62
     4
100
AcDbLine
 10
251.825718958067
 20
230.163244459226
 30
0.0
 11
252.575718958067
 21
230.913244459226
 31
0.0
  0
LINE
  5
2C7
330
1F
100
AcDbEntity
  8
1
  6
Continuous
 62
     4
100
AcDbLine
 10
250.825718958067
 20
229.663244459226
 30
0.0
 11
251.825718958067
 21
230.163244459226
 31
0.0
  0
LINE
  5
2C8
330
1F
100
AcDbEntity
  8
1
  6
Continuous
 62
     4
100
AcDbLine
 10
249.325718958067
 20
229.663244459226
 30
0.0
 11
250.825718958067
 21
229.663244459226
 31
0.0
  0
LINE
  5
2C9
330
1F
100
AcDbEntity
  8
1
  6
Continuous
 62
     4
100
AcDbLine
 10
248.325718958067
 20
230.163244459226
 30
0.0
 11
249.325718958067
 21
229.663244459226
 31
0.0
  0
LINE
  5
2CA
330
1F
100
AcDbEntity
  8
1
  6
Continuous
 62
     4
100
AcDbLine
 10
247.575718958067
 20
230.913244459226
 30
0.0
 11
248.325718958067
 21
230.163244459226
 31
0.0
  0
LINE
  5
2CB
330
1F
100
AcDbEntity
  8
1
  6
Continuous
 62
     4
100
AcDbLine
 10
247.075718958067
 20
231.913244459226
 30
0.0
 11
247.575718958067
 21
230.913244459226
 31
0.0
  0
LINE
  5
2CC
330
1F
100
AcDbEntity
  8
1
  6
Continuous
 62
     4
100
AcDbLine
 10
247.075718958067
 20
233.413244459226
 30
0.0
 11
247.075718958067
 21
231.913244459226
 31
0.0
  0
LINE
  5
2CD
330
1F
100
AcDbEntity
  8
1
  6
Continuous
 62
     4
100
AcDbLine
 10
247.575718958067
 20
234.413244459226
 30
0.0
 11
247.075718958067
 21
233.413244459226
 31
0.0
  0
LINE
  5
2CE
330
1F
100
AcDbEntity
  8
1
  6
Continuous
 62
     4
100
AcDbLine
 10
248.325718958067
 20
235.163244459226
 30
0.0
 11
247.575718958067
 21
234.413244459226
 31
0.0
  0
LINE
  5
2CF
330
1F
100
AcDbEntity
  8
1
  6
Continuous
 62
     4
100
AcDbLine
 10
249.575718958067
 20
235.663244459226
 30
0.0
 11
248.325718958067
 21
235.163244459226
 31
0.0
  0
LINE
  5
2D0
330
1F
100
AcDbEntity
  8
1
  6
Continuous
 62
     4
100
AcDbLine
 10
244.325718958067
 20
230.163244459226
 30
0.0
 11
244.325718958067
 21
229.913244459226
 31
0.0
  0
LINE
  5
2D1
330
1F
100
AcDbEntity
  8
1
  6
Continuous
 62
     4
100
AcDbLine
 10
244.075718958067
 20
230.163244459226
 30
0.0
 11
244.325718958067
 21
230.163244459226
 31
0.0
  0
LINE
  5
2D2
330
1F
100
AcDbEntity
  8
1
  6
Continuous
 62
     4
100
AcDbLine
 10
244.075718958067
 20
229.913244459226
 30
0.0
 11
244.075718958067
 21
230.163244459226
 31
0.0
  0
LINE
  5
2D3
330
1F
100
AcDbEntity
  8
1
  6
Continuous
 62
     4
100
AcDbLine
 10
244.325718958067
 20
229.913244459226
 30
0.0
 11
244.075718958067
 21
229.913244459226
 31
0.0
  0
LINE
  5
2D4
330
1F
100
AcDbEntity
  8
1
  6
Continuous
 62
     4
100
AcDbLine
 10
244.575718958067
 20
230.413244459226
 30
0.0
 11
244.575718958067
 21
229.663244459226
 31
0.0
  0
LINE
  5
2D5
330
1F
100
AcDbEntity
  8
1
  6
Continuous
 62
     4
100
AcDbLine
 10
243.825718958067
 20
230.413244459226
 30
0.0
 11
244.575718958067
 21
230.413244459226
 31
0.0
  0
LINE
  5
2D6
330
1F
100
AcDbEntity
  8
1
  6
Continuous
 62
     4
100
AcDbLine
 10
243.825718958067
 20
229.663244459226
 30
0.0
 11
243.825718958067
 21
230.413244459226
 31
0.0
  0
LINE
  5
2D7
330
1F
100
AcDbEntity
  8
1
  6
Continuous
 62
     4
100
AcDbLine
 10
244.575718958067
 20
229.663244459226
 30
0.0
 11
243.825718958067
 21
229.663244459226
 31
0.0
  0
LINE
  5
2D8
330
1F
100
AcDbEntity
  8
1
  6
Continuous
 62
     4
100
AcDbLine
 10
240.825718958067
 20
239.663244459226
 30
0.0
 11
240.825718958067
 21
229.663244459226
 31
0.0
  0
LINE
  5
2D9
330
1F
100
AcDbEntity
  8
1
  6
Continuous
 62
     4
100
AcDbLine
 10
237.825718958067
 20
236.663244459226
 30
0.0
 11
240.825718958067
 21
239.663244459226
 31
0.0
  0
LINE
  5
2DA
330
1F
100
AcDbEntity
  8
1
  6
Continuous
 62
     4
100
AcDbLine
 10
248.825718958067
 20
257.413244459226
 30
0.0
 11
251.575718958067
 21
259.663244459226
 31
0.0
  0
LINE
  5
2DB
330
1F
100
AcDbEntity
  8
1
  6
Continuous
 62
     4
100
AcDbLine
 10
247.825718958067
 20
256.163244459226
 30
0.0
 11
248.825718958067
 21
257.413244459226
 31
0.0
  0
LINE
  5
2DC
330
1F
100
AcDbEntity
  8
1
  6
Continuous
 62
     4
100
AcDbLine
 10
247.325718958067
 20
255.163244459226
 30
0.0
 11
247.825718958067
 21
256.163244459226
 31
0.0
  0
LINE
  5
2DD
330
1F
100
AcDbEntity
  8
1
  6
Continuous
 62
     4
100
AcDbLine
 10
247.075718958067
 20
253.163244459226
 30
0.0
 11
247.325718958067
 21
255.163244459226
 31
0.0
  0
LINE
  5
2DE
330
1F
100
AcDbEntity
  8
1
  6
Continuous
 62
     4
100
AcDbLine
 10
247.075718958067
 20
252.163244459226
 30
0.0
 11
247.075718958067
 21
253.163244459226
 31
0.0
  0
LINE
  5
2DF
330
1F
100
AcDbEntity
  8
1
  6
Continuous
 62
     4
100
AcDbLine
 10
247.325718958067
 20
251.163244459226
 30
0.0
 11
247.075718958067
 21
252.163244459226
 31
0.0
  0
LINE
  5
2E0
330
1F
100
AcDbEntity
  8
1
  6
Continuous
 62
     4
100
AcDbLine
 10
247.825718958067
 20
250.413244459226
 30
0.0
 11
247.325718958067
 21
251.163244459226
 31
0.0
  0
LINE
  5
2E1
330
1F
100
AcDbEntity
  8
1
  6
Continuous
 62
     4
100
AcDbLine
 10
248.575718958067
 20
249.913244459226
 30
0.0
 11
247.825718958067
 21
250.413244459226
 31
0.0
  0
LINE
  5
2E2
330
1F
100
AcDbEntity
  8
1
  6
Continuous
 62
     4
100
AcDbLine
 10
249.325718958067
 20
249.663244459226
 30
0.0
 11
248.575718958067
 21
249.913244459226
 31
0.0
  0
LINE
  5
2E3
330
1F
100
AcDbEntity
  8
1
  6
Continuous
 62
     4
100
AcDbLine
 10
250.825718958067
 20
249.663244459226
 30
0.0
 11
249.325718958067
 21
249.663244459226
 31
0.0
  0
LINE
  5
2E4
330
1F
100
AcDbEntity
  8
1
  6
Continuous
 62
     4
100
AcDbLine
 10
251.575718958067
 20
249.913244459226
 30
0.0
 11
250.825718958067
 21
249.663244459226
 31
0.0
  0
LINE
  5
2E5
330
1F
100
AcDbEntity
  8
1
  6
Continuous
 62
     4
100
AcDbLine
 10
252.325718958067
 20
250.413244459226
 30
0.0
 11
251.575718958067
 21
249.913244459226
 31
0.0
  0
LINE
  5
2E6
330
1F
100
AcDbEntity
  8
1
  6
Continuous
 62
     4
100
AcDbLine
 10
252.825718958067
 20
251.163244459226
 30
0.0
 11
252.325718958067
 21
250.413244459226
 31
0.0
  0
LINE
  5
2E7
330
1F
100
AcDbEntity
  8
1
  6
Continuous
 62
     4
100
AcDbLine
 10
253.075718958067
 20
252.163244459226
 30
0.0
 11
252.825718958067
 21
251.163244459226
 31
0.0
  0
LINE
  5
2E8
330
1F
100
AcDbEntity
  8
1
  6
Continuous
 62
     4
100
AcDbLine
 10
253.075718958067
 20
253.163244459226
 30
0.0
 11
253.075718958067
 21
252.163244459226
 31
0.0
  0
LINE
  5
2E9
330
1F
100
AcDbEntity
  8
1
  6
Continuous
 62
     4
100
AcDbLine
 10
252.825718958067
 20
254.163244459226
 30
0.0
 11
253.075718958067
 21
253.163244459226
 31
0.0
  0
LINE
  5
2EA
330
1F
100
AcDbEntity
  8
1
  6
Continuous
 62
     4
100
AcDbLine
 10
252.325718958067
 20
254.913244459226
 30
0.0
 11
252.825718958067
 21
254.163244459226
 31
0.0
  0
LINE
  5
2EB
330
1F
100
AcDbEntity
  8
1
  6
Continuous
 62
     4
100
AcDbLine
 10
251.575718958067
 20
255.413244459226
 30
0.0
 11
252.325718958067
 21
254.913244459226
 31
0.0
  0
LINE
  5
2EC
330
1F
100
AcDbEntity
  8
1
  6
Continuous
 62
     4
100
AcDbLine
 10
250.825718958067
 20
255.663244459226
 30
0.0
 11
251.575718958067
 21
255.413244459226
 31
0.0
  0
LINE
  5
2ED
330
1F
100
AcDbEntity
  8
1
  6
Continuous
 62
     4
100
AcDbLine
 10
249.325718958067
 20
255.663244459226
 30
0.0
 11
250.825718958067
 21
255.663244459226
 31
0.0
  0
LINE
  5
2EE
330
1F
100
AcDbEntity
  8
1
  6
Continuous
 62
     4
100
AcDbLine
 10
248.575718958067
 20
255.413244459226
 30
0.0
 11
249.325718958067
 21
255.663244459226
 31
0.0
  0
LINE
  5
2EF
330
1F
100
AcDbEntity
  8
1
  6
Continuous
 62
     4
100
AcDbLine
 10
247.825718958067
 20
254.913244459226
 30
0.0
 11
248.575718958067
 21
255.413244459226
 31
0.0
  0
LINE
  5
2F0
330
1F
100
AcDbEntity
  8
1
  6
Continuous
 62
     4
100
AcDbLine
 10
247.325718958067
 20
254.163244459226
 30
0.0
 11
247.825718958067
 21
254.913244459226
 31
0.0
  0
LINE
  5
2F1
330
1F
100
AcDbEntity
  8
1
  6
Continuous
 62
     4
100
AcDbLine
 10
247.075718958067
 20
253.163244459226
 30
0.0
 11
247.325718958067
 21
254.163244459226
 31
0.0
  0
LINE
  5
2F2
330
1F
100
AcDbEntity
  8
1
  6
Continuous
 62
     4
100
AcDbLine
 10
244.325718958067
 20
250.163244459226
 30
0.0
 11
244.325718958067
 21
249.913244459226
 31
0.0
  0
LINE
  5
2F3
330
1F
100
AcDbEntity
  8
1
  6
Continuous
 62
     4
100
AcDbLine
 10
244.075718958067
 20
250.163244459226
 30
0.0
 11
244.325718958067
 21
250.163244459226
 31
0.0
  0
LINE
  5
2F4
330
1F
100
AcDbEntity
  8
1
  6
Continuous
 62
     4
100
AcDbLine
 10
244.075718958067
 20
249.913244459226
 30
0.0
 11
244.075718958067
 21
250.163244459226
 31
0.0
  0
LINE
  5
2F5
330
1F
100
AcDbEntity
  8
1
  6
Continuous
 62
     4
100
AcDbLine
 10
244.325718958067
 20
249.913244459226
 30
0.0
 11
244.075718958067
 21
249.913244459226
 31
0.0
  0
LINE
  5
2F6
330
1F
100
AcDbEntity
  8
1
  6
Continuous
 62
     4
100
AcDbLine
 10
244.575718958067
 20
250.413244459226
 30
0.0
 11
244.575718958067
 21
249.663244459226
 31
0.0
  0
LINE
  5
2F7
330
1F
100
AcDbEntity
  8
1
  6
Continuous
 62
     4
100
AcDbLine
 10
243.825718958067
 20
250.413244459226
 30
0.0
 11
244.575718958067
 21
250.413244459226
 31
0.0
  0
LINE
  5
2F8
330
1F
100
AcDbEntity
  8
1
  6
Continuous
 62
     4
100
AcDbLine
 10
243.825718958067
 20
249.663244459226
 30
0.0
 11
243.825718958067
 21
250.413244459226
 31
0.0
  0
LINE
  5
2F9
330
1F
100
AcDbEntity
  8
1
  6
Continuous
 62
     4
100
AcDbLine
 10
244.575718958067
 20
249.663244459226
 30
0.0
 11
243.825718958067
 21
249.663244459226
 31
0.0
  0
LINE
  5
2FA
330
1F
100
AcDbEntity
  8
1
  6
Continuous
 62
     4
100
AcDbLine
 10
240.825718958067
 20
259.663244459226
 30
0.0
 11
240.825718958067
 21
249.663244459226
 31
0.0
  0
LINE
  5
2FB
330
1F
100
AcDbEntity
  8
1
  6
Continuous
 62
     4
100
AcDbLine
 10
237.825718958067
 20
256.663244459226
 30
0.0
 11
240.825718958067
 21
259.663244459226
 31
0.0
  0
LINE
  5
2FC
330
1F
100
AcDbEntity
  8
1
  6
Continuous
 62
     4
100
AcDbLine
 10
250.825718958067
 20
269.663244459226
 30
0.0
 11
247.075718958067
 21
269.663244459226
 31
0.0
  0
LINE
  5
2FD
330
1F
100
AcDbEntity
  8
1
  6
Continuous
 62
     4
100
AcDbLine
 10
251.575718958067
 20
269.913244459226
 30
0.0
 11
250.825718958067
 21
269.663244459226
 31
0.0
  0
LINE
  5
2FE
330
1F
100
AcDbEntity
  8
1
  6
Continuous
 62
     4
100
AcDbLine
 10
252.325718958067
 20
270.413244459226
 30
0.0
 11
251.575718958067
 21
269.913244459226
 31
0.0
  0
LINE
  5
2FF
330
1F
100
AcDbEntity
  8
1
  6
Continuous
 62
     4
100
AcDbLine
 10
252.825718958067
 20
271.163244459226
 30
0.0
 11
252.325718958067
 21
270.413244459226
 31
0.0
  0
LINE
  5
300
330
1F
100
AcDbEntity
  8
1
  6
Continuous
 62
     4
100
AcDbLine
 10
253.075718958067
 20
272.163244459226
 30
0.0
 11
252.825718958067
 21
271.163244459226
 31
0.0
  0
LINE
  5
301
330
1F
100
AcDbEntity
  8
1
  6
Continuous
 62
     4
100
AcDbLine
 10
253.075718958067
 20
273.663244459226
 30
0.0
 11
253.075718958067
 21
272.163244459226
 31
0.0
  0
LINE
  5
302
330
1F
100
AcDbEntity
  8
1
  6
Continuous
 62
     4
100
AcDbLine
 10
252.825718958067
 20
274.663244459226
 30
0.0
 11
253.075718958067
 21
273.663244459226
 31
0.0
  0
LINE
  5
303
330
1F
100
AcDbEntity
  8
1
  6
Continuous
 62
     4
100
AcDbLine
 10
252.075718958067
 20
275.413244459226
 30
0.0
 11
252.825718958067
 21
274.663244459226
 31
0.0
  0
LINE
  5
304
330
1F
100
AcDbEntity
  8
1
  6
Continuous
 62
     4
100
AcDbLine
 10
250.825718958067
 20
275.663244459226
 30
0.0
 11
252.075718958067
 21
275.413244459226
 31
0.0
  0
LINE
  5
305
330
1F
100
AcDbEntity
  8
1
  6
Continuous
 62
     4
100
AcDbLine
 10
247.075718958067
 20
275.663244459226
 30
0.0
 11
250.825718958067
 21
275.663244459226
 31
0.0
  0
LINE
  5
306
330
1F
100
AcDbEntity
  8
1
  6
Continuous
 62
     4
100
AcDbLine
 10
247.075718958067
 20
279.663244459226
 30
0.0
 11
247.075718958067
 21
275.663244459226
 31
0.0
  0
LINE
  5
307
330
1F
100
AcDbEntity
  8
1
  6
Continuous
 62
     4
100
AcDbLine
 10
252.575718958067
 20
279.663244459226
 30
0.0
 11
247.075718958067
 21
279.663244459226
 31
0.0
  0
LINE
  5
308
330
1F
100
AcDbEntity
  8
1
  6
Continuous
 62
     4
100
AcDbLine
 10
244.325718958067
 20
270.163244459226
 30
0.0
 11
244.325718958067
 21
269.913244459226
 31
0.0
  0
LINE
  5
309
330
1F
100
AcDbEntity
  8
1
  6
Continuous
 62
     4
100
AcDbLine
 10
244.075718958067
 20
270.163244459226
 30
0.0
 11
244.325718958067
 21
270.163244459226
 31
0.0
  0
LINE
  5
30A
330
1F
100
AcDbEntity
  8
1
  6
Continuous
 62
     4
100
AcDbLine
 10
244.075718958067
 20
269.913244459226
 30
0.0
 11
244.075718958067
 21
270.163244459226
 31
0.0
  0
LINE
  5
30B
330
1F
100
AcDbEntity
  8
1
  6
Continuous
 62
     4
100
AcDbLine
 10
244.325718958067
 20
269.913244459226
 30
0.0
 11
244.075718958067
 21
269.913244459226
 31
0.0
  0
LINE
  5
30C
330
1F
100
AcDbEntity
  8
1
  6
Continuous
 62
     4
100
AcDbLine
 10
244.575718958067
 20
270.413244459226
 30
0.0
 11
244.575718958067
 21
269.663244459226
 31
0.0
  0
LINE
  5
30D
330
1F
100
AcDbEntity
  8
1
  6
Continuous
 62
     4
100
AcDbLine
 10
243.825718958067
 20
270.413244459226
 30
0.0
 11
244.575718958067
 21
270.413244459226
 31
0.0
  0
LINE
  5
30E
330
1F
100
AcDbEntity
  8
1
  6
Continuous
 62
     4
100
AcDbLine
 10
243.825718958067
 20
269.663244459226
 30
0.0
 11
243.825718958067
 21
270.413244459226
 31
0.0
  0
LINE
  5
30F
330
1F
100
AcDbEntity
  8
1
  6
Continuous
 62
     4
100
AcDbLine
 10
244.575718958067
 20
269.663244459226
 30
0.0
 11
243.825718958067
 21
269.663244459226
 31
0.0
  0
LINE
  5
310
330
1F
100
AcDbEntity
  8
1
  6
Continuous
 62
     4
100
AcDbLine
 10
240.825718958067
 20
279.663244459226
 30
0.0
 11
240.825718958067
 21
269.663244459226
 31
0.0
  0
LINE
  5
311
330
1F
100
AcDbEntity
  8
1
  6
Continuous
 62
     4
100
AcDbLine
 10
237.825718958067
 20
276.663244459226
 30
0.0
 11
240.825718958067
 21
279.663244459226
 31
0.0
  0
LINE
  5
312
330
1F
100
AcDbEntity
  8
1
  6
Continuous
 62
     4
100
AcDbLine
 10
247.075718958067
 20
289.663244459226
 30
0.0
 11
253.075718958067
 21
289.663244459226
 31
0.0
  0
LINE
  5
313
330
1F
100
AcDbEntity
  8
1
  6
Continuous
 62
     4
100
AcDbLine
 10
252.575718958067
 20
296.163244459226
 30
0.0
 11
247.075718958067
 21
289.663244459226
 31
0.0
  0
LINE
  5
314
330
1F
100
AcDbEntity
  8
1
  6
Continuous
 62
     4
100
AcDbLine
 10
253.075718958067
 20
297.163244459226
 30
0.0
 11
252.575718958067
 21
296.163244459226
 31
0.0
  0
LINE
  5
315
330
1F
100
AcDbEntity
  8
1
  6
Continuous
 62
     4
100
AcDbLine
 10
253.075718958067
 20
298.163244459226
 30
0.0
 11
253.075718958067
 21
297.163244459226
 31
0.0
  0
LINE
  5
316
330
1F
100
AcDbEntity
  8
1
  6
Continuous
 62
     4
100
AcDbLine
 10
252.575718958067
 20
298.913244459226
 30
0.0
 11
253.075718958067
 21
298.163244459226
 31
0.0
  0
LINE
  5
317
330
1F
100
AcDbEntity
  8
1
  6
Continuous
 62
     4
100
AcDbLine
 10
251.825718958067
 20
299.413244459226
 30
0.0
 11
252.575718958067
 21
298.913244459226
 31
0.0
  0
LINE
  5
318
330
1F
100
AcDbEntity
  8
1
  6
Continuous
 62
     4
100
AcDbLine
 10
250.825718958067
 20
299.663244459226
 30
0.0
 11
251.825718958067
 21
299.413244459226
 31
0.0
  0
LINE
  5
319
330
1F
100
AcDbEntity
  8
1
  6
Continuous
 62
     4
100
AcDbLine
 10
249.325718958067
 20
299.663244459226
 30
0.0
 11
250.825718958067
 21
299.663244459226
 31
0.0
  0
LINE
  5
31A
330
1F
100
AcDbEntity
  8
1
  6
Continuous
 62
     4
100
AcDbLine
 10
248.325718958067
 20
299.413244459226
 30
0.0
 11
249.325718958067
 21
299.663244459226
 31
0.0
  0
LINE
  5
31B
330
1F
100
AcDbEntity
  8
1
  6
Continuous
 62
     4
100
AcDbLine
 10
247.575718958067
 20
298.913244459226
 30
0.0
 11
248.325718958067
 21
299.413244459226
 31
0.0
  0
LINE
  5
31C
330
1F
100
AcDbEntity
  8
1
  6
Continuous
 62
     4
100
AcDbLine
 10
247.075718958067
 20
298.163244459226
 30
0.0
 11
247.575718958067
 21
298.913244459226
 31
0.0
  0
LINE
  5
31D
330
1F
100
AcDbEntity
  8
1
  6
Continuous
 62
     4
100
AcDbLine
 10
244.325718958067
 20
290.163244459226
 30
0.0
 11
244.325718958067
 21
289.913244459226
 31
0.0
  0
LINE
  5
31E
330
1F
100
AcDbEntity
  8
1
  6
Continuous
 62
     4
100
AcDbLine
 10
244.075718958067
 20
290.163244459226
 30
0.0
 11
244.325718958067
 21
290.163244459226
 31
0.0
  0
LINE
  5
31F
330
1F
100
AcDbEntity
  8
1
  6
Continuous
 62
     4
100
AcDbLine
 10
244.075718958067
 20
289.913244459226
 30
0.0
 11
244.075718958067
 21
290.163244459226
 31
0.0
  0
LINE
  5
320
330
1F
100
AcDbEntity
  8
1
  6
Continuous
 62
     4
100
AcDbLine
 10
244.325718958067
 20
289.913244459226
 30
0.0
 11
244.075718958067
 21
289.913244459226
 31
0.0
  0
LINE
  5
321
330
1F
100
AcDbEntity
  8
1
  6
Continuous
 62
     4
100
AcDbLine
 10
244.575718958067
 20
290.413244459226
 30
0.0
 11
244.575718958067
 21
289.663244459226
 31
0.0
  0
LINE
  5
322
330
1F
100
AcDbEntity
  8
1
  6
Continuous
 62
     4
100
AcDbLine
 10
243.825718958067
 20
290.413244459226
 30
0.0
 11
244.575718958067
 21
290.413244459226
 31
0.0
  0
LINE
  5
323
330
1F
100
AcDbEntity
  8
1
  6
Continuous
 62
     4
100
AcDbLine
 10
243.825718958067
 20
289.663244459226
 30
0.0
 11
243.825718958067
 21
290.413244459226
 31
0.0
  0
LINE
  5
324
330
1F
100
AcDbEntity
  8
1
  6
Continuous
 62
     4
100
AcDbLine
 10
244.575718958067
 20
289.663244459226
 30
0.0
 11
243.825718958067
 21
289.663244459226
 31
0.0
  0
LINE
  5
325
330
1F
100
AcDbEntity
  8
1
  6
Continuous
 62
     4
100
AcDbLine
 10
240.825718958067
 20
299.663244459226
 30
0.0
 11
240.825718958067
 21
289.663244459226
 31
0.0
  0
LINE
  5
326
330
1F
100
AcDbEntity
  8
1
  6
Continuous
 62
     4
100
AcDbLine
 10
237.825718958067
 20
296.663244459226
 30
0.0
 11
240.825718958067
 21
299.663244459226
 31
0.0
  0
LINE
  5
327
330
1F
100
AcDbEntity
  8
1
  6
Continuous
 62
     4
100
AcDbLine
 10
253.075718958067
 20
315.913244459226
 30
0.0
 11
253.075718958067
 21
313.413244459226
 31
0.0
  0
LINE
  5
328
330
1F
100
AcDbEntity
  8
1
  6
Continuous
 62
     4
100
AcDbLine
 10
252.825718958067
 20
317.413244459226
 30
0.0
 11
253.075718958067
 21
315.913244459226
 31
0.0
  0
LINE
  5
329
330
1F
100
AcDbEntity
  8
1
  6
Continuous
 62
     4
100
AcDbLine
 10
252.325718958067
 20
318.413244459226
 30
0.0
 11
252.825718958067
 21
317.413244459226
 31
0.0
  0
LINE
  5
32A
330
1F
100
AcDbEntity
  8
1
  6
Continuous
 62
     4
100
AcDbLine
 10
251.825718958067
 20
318.913244459226
 30
0.0
 11
252.325718958067
 21
318.413244459226
 31
0.0
  0
LINE
  5
32B
330
1F
100
AcDbEntity
  8
1
  6
Continuous
 62
     4
100
AcDbLine
 10
251.075718958067
 20
319.413244459226
 30
0.0
 11
251.825718958067
 21
318.913244459226
 31
0.0
  0
LINE
  5
32C
330
1F
100
AcDbEntity
  8
1
  6
Continuous
 62
     4
100
AcDbLine
 10
250.325718958067
 20
319.663244459226
 30
0.0
 11
251.075718958067
 21
319.413244459226
 31
0.0
  0
LINE
  5
32D
330
1F
100
AcDbEntity
  8
1
  6
Continuous
 62
     4
100
AcDbLine
 10
249.825718958067
 20
319.663244459226
 30
0.0
 11
250.325718958067
 21
319.663244459226
 31
0.0
  0
LINE
  5
32E
330
1F
100
AcDbEntity
  8
1
  6
Continuous
 62
     4
100
AcDbLine
 10
249.075718958067
 20
319.413244459226
 30
0.0
 11
249.825718958067
 21
319.663244459226
 31
0.0
  0
LINE
  5
32F
330
1F
100
AcDbEntity
  8
1
  6
Continuous
 62
     4
100
AcDbLine
 10
248.325718958067
 20
318.913244459226
 30
0.0
 11
249.075718958067
 21
319.413244459226
 31
0.0
  0
LINE
  5
330
330
1F
100
AcDbEntity
  8
1
  6
Continuous
 62
     4
100
AcDbLine
 10
247.825718958067
 20
318.413244459226
 30
0.0
 11
248.325718958067
 21
318.913244459226
 31
0.0
  0
LINE
  5
331
330
1F
100
AcDbEntity
  8
1
  6
Continuous
 62
     4
100
AcDbLine
 10
247.325718958067
 20
317.413244459226
 30
0.0
 11
247.825718958067
 21
318.413244459226
 31
0.0
  0
LINE
  5
332
330
1F
100
AcDbEntity
  8
1
  6
Continuous
 62
     4
100
AcDbLine
 10
247.075718958067
 20
315.913244459226
 30
0.0
 11
247.325718958067
 21
317.413244459226
 31
0.0
  0
LINE
  5
333
330
1F
100
AcDbEntity
  8
1
  6
Continuous
 62
     4
100
AcDbLine
 10
247.075718958067
 20
313.413244459226
 30
0.0
 11
247.075718958067
 21
315.913244459226
 31
0.0
  0
LINE
  5
334
330
1F
100
AcDbEntity
  8
1
  6
Continuous
 62
     4
100
AcDbLine
 10
247.325718958067
 20
311.913244459226
 30
0.0
 11
247.075718958067
 21
313.413244459226
 31
0.0
  0
LINE
  5
335
330
1F
100
AcDbEntity
  8
1
  6
Continuous
 62
     4
100
AcDbLine
 10
247.825718958067
 20
310.913244459226
 30
0.0
 11
247.325718958067
 21
311.913244459226
 31
0.0
  0
LINE
  5
336
330
1F
100
AcDbEntity
  8
1
  6
Continuous
 62
     4
100
AcDbLine
 10
248.325718958067
 20
310.413244459226
 30
0.0
 11
247.825718958067
 21
310.913244459226
 31
0.0
  0
LINE
  5
337
330
1F
100
AcDbEntity
  8
1
  6
Continuous
 62
     4
100
AcDbLine
 10
249.075718958067
 20
309.913244459226
 30
0.0
 11
248.325718958067
 21
310.413244459226
 31
0.0
  0
LINE
  5
338
330
1F
100
AcDbEntity
  8
1
  6
Continuous
 62
     4
100
AcDbLine
 10
249.825718958067
 20
309.663244459226
 30
0.0
 11
249.075718958067
 21
309.913244459226
 31
0.0
  0
LINE
  5
339
330
1F
100
AcDbEntity
  8
1
  6
Continuous
 62
     4
100
AcDbLine
 10
250.325718958067
 20
309.663244459226
 30
0.0
 11
249.825718958067
 21
309.663244459226
 31
0.0
  0
LINE
  5
33A
330
1F
100
AcDbEntity
  8
1
  6
Continuous
 62
     4
100
AcDbLine
 10
251.075718958067
 20
309.913244459226
 30
0.0
 11
250.325718958067
 21
309.663244459226
 31
0.0
  0
LINE
  5
33B
330
1F
100
AcDbEntity
  8
1
  6
Continuous
 62
     4
100
AcDbLine
 10
251.825718958067
 20
310.413244459226
 30
0.0
 11
251.075718958067
 21
309.913244459226
 31
0.0
  0
LINE
  5
33C
330
1F
100
AcDbEntity
  8
1
  6
Continuous
 62
     4
100
AcDbLine
 10
252.325718958067
 20
310.913244459226
 30
0.0
 11
251.825718958067
 21
310.413244459226
 31
0.0
  0
LINE
  5
33D
330
1F
100
AcDbEntity
  8
1
  6
Continuous
 62
     4
100
AcDbLine
 10
252.825718958067
 20
311.913244459226
 30
0.0
 11
252.325718958067
 21
310.913244459226
 31
0.0
  0
LINE
  5
33E
330
1F
100
AcDbEntity
  8
1
  6
Continuous
 62
     4
100
AcDbLine
 10
253.075718958067
 20
313.413244459226
 30
0.0
 11
252.825718958067
 21
311.913244459226
 31
0.0
  0
LINE
  5
33F
330
1F
100
AcDbEntity
  8
1
  6
Continuous
 62
     4
100
AcDbLine
 10
244.325718958067
 20
310.163244459226
 30
0.0
 11
244.325718958067
 21
309.913244459226
 31
0.0
  0
LINE
  5
340
330
1F
100
AcDbEntity
  8
1
  6
Continuous
 62
     4
100
AcDbLine
 10
244.075718958067
 20
310.163244459226
 30
0.0
 11
244.325718958067
 21
310.163244459226
 31
0.0
  0
LINE
  5
341
330
1F
100
AcDbEntity
  8
1
  6
Continuous
 62
     4
100
AcDbLine
 10
244.075718958067
 20
309.913244459226
 30
0.0
 11
244.075718958067
 21
310.163244459226
 31
0.0
  0
LINE
  5
342
330
1F
100
AcDbEntity
  8
1
  6
Continuous
 62
     4
100
AcDbLine
 10
244.325718958067
 20
309.913244459226
 30
0.0
 11
244.075718958067
 21
309.913244459226
 31
0.0
  0
LINE
  5
343
330
1F
100
AcDbEntity
  8
1
  6
Continuous
 62
     4
100
AcDbLine
 10
244.575718958067
 20
310.413244459226
 30
0.0
 11
244.575718958067
 21
309.663244459226
 31
0.0
  0
LINE
  5
344
330
1F
100
AcDbEntity
  8
1
  6
Continuous
 62
     4
100
AcDbLine
 10
243.825718958067
 20
310.413244459226
 30
0.0
 11
244.575718958067
 21
310.413244459226
 31
0.0
  0
LINE
  5
345
330
1F
100
AcDbEntity
  8
1
  6
Continuous
 62
     4
100
AcDbLine
 10
243.825718958067
 20
309.663244459226
 30
0.0
 11
243.825718958067
 21
310.413244459226
 31
0.0
  0
LINE
  5
346
330
1F
100
AcDbEntity
  8
1
  6
Continuous
 62
     4
100
AcDbLine
 10
244.575718958067
 20
309.663244459226
 30
0.0
 11
243.825718958067
 21
309.663244459226
 31
0.0
  0
LINE
  5
347
330
1F
100
AcDbEntity
  8
1
  6
Continuous
 62
     4
100
AcDbLine
 10
240.825718958067
 20
319.663244459226
 30
0.0
 11
240.825718958067
 21
309.663244459226
 31
0.0
  0
LINE
  5
348
330
1F
100
AcDbEntity
  8
1
  6
Continuous
 62
     4
100
AcDbLine
 10
237.825718958067
 20
316.663244459226
 30
0.0
 11
240.825718958067
 21
319.663244459226
 31
0.0
  0
LINE
  5
349
330
1F
100
AcDbEntity
  8
1
  6
Continuous
 62
     4
100
AcDbLine
 10
249.575718958067
 20
338.913244459226
 30
0.0
 11
250.325718958067
 21
339.413244459226
 31
0.0
  0
LINE
  5
34A
330
1F
100
AcDbEntity
  8
1
  6
Continuous
 62
     4
100
AcDbLine
 10
249.075718958067
 20
338.163244459226
 30
0.0
 11
249.575718958067
 21
338.913244459226
 31
0.0
  0
LINE
  5
34B
330
1F
100
AcDbEntity
  8
1
  6
Continuous
 62
     4
100
AcDbLine
 10
249.075718958067
 20
337.163244459226
 30
0.0
 11
249.075718958067
 21
338.163244459226
 31
0.0
  0
LINE
  5
34C
330
1F
100
AcDbEntity
  8
1
  6
Continuous
 62
     4
100
AcDbLine
 10
249.575718958067
 20
336.413244459226
 30
0.0
 11
249.075718958067
 21
337.163244459226
 31
0.0
  0
LINE
  5
34D
330
1F
100
AcDbEntity
  8
1
  6
Continuous
 62
     4
100
AcDbLine
 10
250.325718958067
 20
335.913244459226
 30
0.0
 11
249.575718958067
 21
336.413244459226
 31
0.0
  0
LINE
  5
34E
330
1F
100
AcDbEntity
  8
1
  6
Continuous
 62
     4
100
AcDbLine
 10
251.075718958067
 20
335.663244459226
 30
0.0
 11
250.325718958067
 21
335.913244459226
 31
0.0
  0
LINE
  5
34F
330
1F
100
AcDbEntity
  8
1
  6
Continuous
 62
     4
100
AcDbLine
 10
252.075718958067
 20
335.663244459226
 30
0.0
 11
251.075718958067
 21
335.663244459226
 31
0.0
  0
LINE
  5
350
330
1F
100
AcDbEntity
  8
1
  6
Continuous
 62
     4
100
AcDbLine
 10
252.825718958067
 20
335.913244459226
 30
0.0
 11
252.075718958067
 21
335.663244459226
 31
0.0
  0
LINE
  5
351
330
1F
100
AcDbEntity
  8
1
  6
Continuous
 62
     4
100
AcDbLine
 10
253.575718958067
 20
336.413244459226
 30
0.0
 11
252.825718958067
 21
335.913244459226
 31
0.0
  0
LINE
  5
352
330
1F
100
AcDbEntity
  8
1
  6
Continuous
 62
     4
100
AcDbLine
 10
254.075718958067
 20
337.163244459226
 30
0.0
 11
253.575718958067
 21
336.413244459226
 31
0.0
  0
LINE
  5
353
330
1F
100
AcDbEntity
  8
1
  6
Continuous
 62
     4
100
AcDbLine
 10
254.075718958067
 20
338.163244459226
 30
0.0
 11
254.075718958067
 21
337.163244459226
 31
0.0
  0
LINE
  5
354
330
1F
100
AcDbEntity
  8
1
  6
Continuous
 62
     4
100
AcDbLine
 10
253.575718958067
 20
338.913244459226
 30
0.0
 11
254.075718958067
 21
338.163244459226
 31
0.0
  0
LINE
  5
355
330
1F
100
AcDbEntity
  8
1
  6
Continuous
 62
     4
100
AcDbLine
 10
252.825718958067
 20
339.413244459226
 30
0.0
 11
253.575718958067
 21
338.913244459226
 31
0.0
  0
LINE
  5
356
330
1F
100
AcDbEntity
  8
1
  6
Continuous
 62
     4
100
AcDbLine
 10
252.075718958067
 20
339.663244459226
 30
0.0
 11
252.825718958067
 21
339.413244459226
 31
0.0
  0
LINE
  5
357
330
1F
100
AcDbEntity
  8
1
  6
Continuous
 62
     4
100
AcDbLine
 10
251.075718958067
 20
339.663244459226
 30
0.0
 11
252.075718958067
 21
339.663244459226
 31
0.0
  0
LINE
  5
358
330
1F
100
AcDbEntity
  8
1
  6
Continuous
 62
     4
100
AcDbLine
 10
250.325718958067
 20
339.413244459226
 30
0.0
 11
251.075718958067
 21
339.663244459226
 31
0.0
  0
LINE
  5
359
330
1F
100
AcDbEntity
  8
1
  6
Continuous
 62
     4
100
AcDbLine
 10
253.325718958067
 20
335.163244459226
 30
0.0
 11
252.075718958067
 21
335.663244459226
 31
0.0
  0
LINE
  5
35A
330
1F
100
AcDbEntity
  8
1
  6
Continuous
 62
     4
100
AcDbLine
 10
254.075718958067
 20
334.413244459226
 30
0.0
 11
253.325718958067
 21
335.163244459226
 31
0.0
  0
LINE
  5
35B
330
1F
100
AcDbEntity
  8
1
  6
Continuous
 62
     4
100
AcDbLine
 10
254.575718958067
 20
333.413244459226
 30
0.0
 11
254.075718958067
 21
334.413244459226
 31
0.0
  0
LINE
  5
35C
330
1F
100
AcDbEntity
  8
1
  6
Continuous
 62
     4
100
AcDbLine
 10
254.575718958067
 20
331.913244459226
 30
0.0
 11
254.575718958067
 21
333.413244459226
 31
0.0
  0
LINE
  5
35D
330
1F
100
AcDbEntity
  8
1
  6
Continuous
 62
     4
100
AcDbLine
 10
254.075718958067
 20
330.913244459226
 30
0.0
 11
254.575718958067
 21
331.913244459226
 31
0.0
  0
LINE
  5
35E
330
1F
100
AcDbEntity
  8
1
  6
Continuous
 62
     4
100
AcDbLine
 10
253.325718958067
 20
330.163244459226
 30
0.0
 11
254.075718958067
 21
330.913244459226
 31
0.0
  0
LINE
  5
35F
330
1F
100
AcDbEntity
  8
1
  6
Continuous
 62
     4
100
AcDbLine
 10
252.325718958067
 20
329.663244459226
 30
0.0
 11
253.325718958067
 21
330.163244459226
 31
0.0
  0
LINE
  5
360
330
1F
100
AcDbEntity
  8
1
  6
Continuous
 62
     4
100
AcDbLine
 10
250.825718958067
 20
329.663244459226
 30
0.0
 11
252.325718958067
 21
329.663244459226
 31
0.0
  0
LINE
  5
361
330
1F
100
AcDbEntity
  8
1
  6
Continuous
 62
     4
100
AcDbLine
 10
249.825718958067
 20
330.163244459226
 30
0.0
 11
250.825718958067
 21
329.663244459226
 31
0.0
  0
LINE
  5
362
330
1F
100
AcDbEntity
  8
1
  6
Continuous
 62
     4
100
AcDbLine
 10
249.075718958067
 20
330.913244459226
 30
0.0
 11
249.825718958067
 21
330.163244459226
 31
0.0
  0
LINE
  5
363
330
1F
100
AcDbEntity
  8
1
  6
Continuous
 62
     4
100
AcDbLine
 10
248.575718958067
 20
331.913244459226
 30
0.0
 11
249.075718958067
 21
330.913244459226
 31
0.0
  0
LINE
  5
364
330
1F
100
AcDbEntity
  8
1
  6
Continuous
 62
     4
100
AcDbLine
 10
248.575718958067
 20
333.413244459226
 30
0.0
 11
248.575718958067
 21
331.913244459226
 31
0.0
  0
LINE
  5
365
330
1F
100
AcDbEntity
  8
1
  6
Continuous
 62
     4
100
AcDbLine
 10
249.075718958067
 20
334.413244459226
 30
0.0
 11
248.575718958067
 21
333.413244459226
 31
0.0
  0
LINE
  5
366
330
1F
100
AcDbEntity
  8
1
  6
Continuous
 62
     4
100
AcDbLine
 10
249.825718958067
 20
335.163244459226
 30
0.0
 11
249.075718958067
 21
334.413244459226
 31
0.0
  0
LINE
  5
367
330
1F
100
AcDbEntity
  8
1
  6
Continuous
 62
     4
100
AcDbLine
 10
251.075718958067
 20
335.663244459226
 30
0.0
 11
249.825718958067
 21
335.163244459226
 31
0.0
  0
LINE
  5
368
330
1F
100
AcDbEntity
  8
1
  6
Continuous
 62
     4
100
AcDbLine
 10
245.825718958067
 20
330.163244459226
 30
0.0
 11
245.825718958067
 21
329.913244459226
 31
0.0
  0
LINE
  5
369
330
1F
100
AcDbEntity
  8
1
  6
Continuous
 62
     4
100
AcDbLine
 10
245.575718958067
 20
330.163244459226
 30
0.0
 11
245.825718958067
 21
330.163244459226
 31
0.0
  0
LINE
  5
36A
330
1F
100
AcDbEntity
  8
1
  6
Continuous
 62
     4
100
AcDbLine
 10
245.575718958067
 20
329.913244459226
 30
0.0
 11
245.575718958067
 21
330.163244459226
 31
0.0
  0
LINE
  5
36B
330
1F
100
AcDbEntity
  8
1
  6
Continuous
 62
     4
100
AcDbLine
 10
245.825718958067
 20
329.913244459226
 30
0.0
 11
245.575718958067
 21
329.913244459226
 31
0.0
  0
LINE
  5
36C
330
1F
100
AcDbEntity
  8
1
  6
Continuous
 62
     4
100
AcDbLine
 10
246.075718958067
 20
330.413244459226
 30
0.0
 11
246.075718958067
 21
329.663244459226
 31
0.0
  0
LINE
  5
36D
330
1F
100
AcDbEntity
  8
1
  6
Continuous
 62
     4
100
AcDbLine
 10
245.325718958067
 20
330.413244459226
 30
0.0
 11
246.075718958067
 21
330.413244459226
 31
0.0
  0
LINE
  5
36E
330
1F
100
AcDbEntity
  8
1
  6
Continuous
 62
     4
100
AcDbLine
 10
245.325718958067
 20
329.663244459226
 30
0.0
 11
245.325718958067
 21
330.413244459226
 31
0.0
  0
LINE
  5
36F
330
1F
100
AcDbEntity
  8
1
  6
Continuous
 62
     4
100
AcDbLine
 10
246.075718958067
 20
329.663244459226
 30
0.0
 11
245.325718958067
 21
329.663244459226
 31
0.0
  0
LINE
  5
370
330
1F
100
AcDbEntity
  8
1
  6
Continuous
 62
     4
100
AcDbLine
 10
242.325718958067
 20
335.913244459226
 30
0.0
 11
242.325718958067
 21
333.413244459226
 31
0.0
  0
LINE
  5
371
330
1F
100
AcDbEntity
  8
1
  6
Continuous
 62
     4
100
AcDbLine
 10
242.075718958067
 20
337.413244459226
 30
0.0
 11
242.325718958067
 21
335.913244459226
 31
0.0
  0
LINE
  5
372
330
1F
100
AcDbEntity
  8
1
  6
Continuous
 62
     4
100
AcDbLine
 10
241.575718958067
 20
338.413244459226
 30
0.0
 11
242.075718958067
 21
337.413244459226
 31
0.0
  0
LINE
  5
373
330
1F
100
AcDbEntity
  8
1
  6
Continuous
 62
     4
100
AcDbLine
 10
241.075718958067
 20
338.913244459226
 30
0.0
 11
241.575718958067
 21
338.413244459226
 31
0.0
  0
LINE
  5
374
330
1F
100
AcDbEntity
  8
1
  6
Continuous
 62
     4
100
AcDbLine
 10
240.325718958067
 20
339.413244459226
 30
0.0
 11
241.075718958067
 21
338.913244459226
 31
0.0
  0
LINE
  5
375
330
1F
100
AcDbEntity
  8
1
  6
Continuous
 62
     4
100
AcDbLine
 10
239.575718958067
 20
339.663244459226
 30
0.0
 11
240.325718958067
 21
339.413244459226
 31
0.0
  0
LINE
  5
376
330
1F
100
AcDbEntity
  8
1
  6
Continuous
 62
     4
100
AcDbLine
 10
239.075718958067
 20
339.663244459226
 30
0.0
 11
239.575718958067
 21
339.663244459226
 31
0.0
  0
LINE
  5
377
330
1F
100
AcDbEntity
  8
1
  6
Continuous
 62
     4
100
AcDbLine
 10
238.325718958067
 20
339.413244459226
 30
0.0
 11
239.075718958067
 21
339.663244459226
 31
0.0
  0
LINE
  5
378
330
1F
100
AcDbEntity
  8
1
  6
Continuous
 62
     4
100
AcDbLine
 10
237.575718958067
 20
338.913244459226
 30
0.0
 11
238.325718958067
 21
339.413244459226
 31
0.0
  0
LINE
  5
379
330
1F
100
AcDbEntity
  8
1
  6
Continuous
 62
     4
100
AcDbLine
 10
237.075718958067
 20
338.413244459226
 30
0.0
 11
237.575718958067
 21
338.913244459226
 31
0.0
  0
LINE
  5
37A
330
1F
100
AcDbEntity
  8
1
  6
Continuous
 62
     4
100
AcDbLine
 10
236.575718958067
 20
337.413244459226
 30
0.0
 11
237.075718958067
 21
338.413244459226
 31
0.0
  0
LINE
  5
37B
330
1F
100
AcDbEntity
  8
1
  6
Continuous
 62
     4
100
AcDbLine
 10
236.325718958067
 20
335.913244459226
 30
0.0
 11
236.575718958067
 21
337.413244459226
 31
0.0
  0
LINE
  5
37C
330
1F
100
AcDbEntity
  8
1
  6
Continuous
 62
     4
100
AcDbLine
 10
236.325718958067
 20
333.413244459226
 30
0.0
 11
236.325718958067
 21
335.913244459226
 31
0.0
  0
LINE
  5
37D
330
1F
100
AcDbEntity
  8
1
  6
Continuous
 62
     4
100
AcDbLine
 10
236.575718958067
 20
331.913244459226
 30
0.0
 11
236.325718958067
 21
333.413244459226
 31
0.0
  0
LINE
  5
37E
330
1F
100
AcDbEntity
  8
1
  6
Continuous
 62
     4
100
AcDbLine
 10
237.075718958067
 20
330.913244459226
 30
0.0
 11
236.575718958067
 21
331.913244459226
 31
0.0
  0
LINE
  5
37F
330
1F
100
AcDbEntity
  8
1
  6
Continuous
 62
     4
100
AcDbLine
 10
237.575718958067
 20
330.413244459226
 30
0.0
 11
237.075718958067
 21
330.913244459226
 31
0.0
  0
LINE
  5
380
330
1F
100
AcDbEntity
  8
1
  6
Continuous
 62
     4
100
AcDbLine
 10
238.325718958067
 20
329.913244459226
 30
0.0
 11
237.575718958067
 21
330.413244459226
 31
0.0
  0
LINE
  5
381
330
1F
100
AcDbEntity
  8
1
  6
Continuous
 62
     4
100
AcDbLine
 10
239.075718958067
 20
329.663244459226
 30
0.0
 11
238.325718958067
 21
329.913244459226
 31
0.0
  0
LINE
  5
382
330
1F
100
AcDbEntity
  8
1
  6
Continuous
 62
     4
100
AcDbLine
 10
239.575718958067
 20
329.663244459226
 30
0.0
 11
239.075718958067
 21
329.663244459226
 31
0.0
  0
LINE
  5
383
330
1F
100
AcDbEntity
  8
1
  6
Continuous
 62
     4
100
AcDbLine
 10
240.325718958067
 20
329.913244459226
 30
0.0
 11
239.575718958067
 21
329.663244459226
 31
0.0
  0
LINE
  5
384
330
1F
100
AcDbEntity
  8
1
  6
Continuous
 62
     4
100
AcDbLine
 10
241.075718958067
 20
330.413244459226
 30
0.0
 11
240.325718958067
 21
329.913244459226
 31
0.0
  0
LINE
  5
385
330
1F
100
AcDbEntity
  8
1
  6
Continuous
 62
     4
100
AcDbLine
 10
241.575718958067
 20
330.913244459226
 30
0.0
 11
241.075718958067
 21
330.413244459226
 31
0.0
  0
LINE
  5
386
330
1F
100
AcDbEntity
  8
1
  6
Continuous
 62
     4
100
AcDbLine
 10
242.075718958067
 20
331.913244459226
 30
0.0
 11
241.575718958067
 21
330.913244459226
 31
0.0
  0
LINE
  5
387
330
1F
100
AcDbEntity
  8
1
  6
Continuous
 62
     4
100
AcDbLine
 10
242.325718958067
 20
333.413244459226
 30
0.0
 11
242.075718958067
 21
331.913244459226
 31
0.0
  0
LINE
  5
388
330
1F
100
AcDbEntity
  8
1
  6
Continuous
 62
     4
100
AcDbLine
 10
250.325718958067
 20
357.413244459226
 30
0.0
 11
253.075718958067
 21
359.663244459226
 31
0.0
  0
LINE
  5
389
330
1F
100
AcDbEntity
  8
1
  6
Continuous
 62
     4
100
AcDbLine
 10
249.325718958067
 20
356.163244459226
 30
0.0
 11
250.325718958067
 21
357.413244459226
 31
0.0
  0
LINE
  5
38A
330
1F
100
AcDbEntity
  8
1
  6
Continuous
 62
     4
100
AcDbLine
 10
248.825718958067
 20
355.163244459226
 30
0.0
 11
249.325718958067
 21
356.163244459226
 31
0.0
  0
LINE
  5
38B
330
1F
100
AcDbEntity
  8
1
  6
Continuous
 62
     4
100
AcDbLine
 10
248.575718958067
 20
353.163244459226
 30
0.0
 11
248.825718958067
 21
355.163244459226
 31
0.0
  0
LINE
  5
38C
330
1F
100
AcDbEntity
  8
1
  6
Continuous
 62
     4
100
AcDbLine
 10
248.575718958067
 20
352.163244459226
 30
0.0
 11
248.575718958067
 21
353.163244459226
 31
0.0
  0
LINE
  5
38D
330
1F
100
AcDbEntity
  8
1
  6
Continuous
 62
     4
100
AcDbLine
 10
248.825718958067
 20
351.163244459226
 30
0.0
 11
248.575718958067
 21
352.163244459226
 31
0.0
  0
LINE
  5
38E
330
1F
100
AcDbEntity
  8
1
  6
Continuous
 62
     4
100
AcDbLine
 10
249.325718958067
 20
350.413244459226
 30
0.0
 11
248.825718958067
 21
351.163244459226
 31
0.0
  0
LINE
  5
38F
330
1F
100
AcDbEntity
  8
1
  6
Continuous
 62
     4
100
AcDbLine
 10
250.075718958067
 20
349.913244459226
 30
0.0
 11
249.325718958067
 21
350.413244459226
 31
0.0
  0
LINE
  5
390
330
1F
100
AcDbEntity
  8
1
  6
Continuous
 62
     4
100
AcDbLine
 10
250.825718958067
 20
349.663244459226
 30
0.0
 11
250.075718958067
 21
349.913244459226
 31
0.0
  0
LINE
  5
391
330
1F
100
AcDbEntity
  8
1
  6
Continuous
 62
     4
100
AcDbLine
 10
252.325718958067
 20
349.663244459226
 30
0.0
 11
250.825718958067
 21
349.663244459226
 31
0.0
  0
LINE
  5
392
330
1F
100
AcDbEntity
  8
1
  6
Continuous
 62
     4
100
AcDbLine
 10
253.075718958067
 20
349.913244459226
 30
0.0
 11
252.325718958067
 21
349.663244459226
 31
0.0
  0
LINE
  5
393
330
1F
100
AcDbEntity
  8
1
  6
Continuous
 62
     4
100
AcDbLine
 10
253.825718958067
 20
350.413244459226
 30
0.0
 11
253.075718958067
 21
349.913244459226
 31
0.0
  0
LINE
  5
394
330
1F
100
AcDbEntity
  8
1
  6
Continuous
 62
     4
100
AcDbLine
 10
254.325718958067
 20
351.163244459226
 30
0.0
 11
253.825718958067
 21
350.413244459226
 31
0.0
  0
LINE
  5
395
330
1F
100
AcDbEntity
  8
1
  6
Continuous
 62
     4
100
AcDbLine
 10
254.575718958067
 20
352.163244459226
 30
0.0
 11
254.325718958067
 21
351.163244459226
 31
0.0
  0
LINE
  5
396
330
1F
100
AcDbEntity
  8
1
  6
Continuous
 62
     4
100
AcDbLine
 10
254.575718958067
 20
353.163244459226
 30
0.0
 11
254.575718958067
 21
352.163244459226
 31
0.0
  0
LINE
  5
397
330
1F
100
AcDbEntity
  8
1
  6
Continuous
 62
     4
100
AcDbLine
 10
254.325718958067
 20
354.163244459226
 30
0.0
 11
254.575718958067
 21
353.163244459226
 31
0.0
  0
LINE
  5
398
330
1F
100
AcDbEntity
  8
1
  6
Continuous
 62
     4
100
AcDbLine
 10
253.825718958067
 20
354.913244459226
 30
0.0
 11
254.325718958067
 21
354.163244459226
 31
0.0
  0
LINE
  5
399
330
1F
100
AcDbEntity
  8
1
  6
Continuous
 62
     4
100
AcDbLine
 10
253.075718958067
 20
355.413244459226
 30
0.0
 11
253.825718958067
 21
354.913244459226
 31
0.0
  0
LINE
  5
39A
330
1F
100
AcDbEntity
  8
1
  6
Continuous
 62
     4
100
AcDbLine
 10
252.325718958067
 20
355.663244459226
 30
0.0
 11
253.075718958067
 21
355.413244459226
 31
0.0
  0
LINE
  5
39B
330
1F
100
AcDbEntity
  8
1
  6
Continuous
 62
     4
100
AcDbLine
 10
250.825718958067
 20
355.663244459226
 30
0.0
 11
252.325718958067
 21
355.663244459226
 31
0.0
  0
LINE
  5
39C
330
1F
100
AcDbEntity
  8
1
  6
Continuous
 62
     4
100
AcDbLine
 10
250.075718958067
 20
355.413244459226
 30
0.0
 11
250.825718958067
 21
355.663244459226
 31
0.0
  0
LINE
  5
39D
330
1F
100
AcDbEntity
  8
1
  6
Continuous
 62
     4
100
AcDbLine
 10
249.325718958067
 20
354.913244459226
 30
0.0
 11
250.075718958067
 21
355.413244459226
 31
0.0
  0
LINE
  5
39E
330
1F
100
AcDbEntity
  8
1
  6
Continuous
 62
     4
100
AcDbLine
 10
248.825718958067
 20
354.163244459226
 30
0.0
 11
249.325718958067
 21
354.913244459226
 31
0.0
  0
LINE
  5
39F
330
1F
100
AcDbEntity
  8
1
  6
Continuous
 62
     4
100
AcDbLine
 10
248.575718958067
 20
353.163244459226
 30
0.0
 11
248.825718958067
 21
354.163244459226
 31
0.0
  0
LINE
  5
3A0
330
1F
100
AcDbEntity
  8
1
  6
Continuous
 62
     4
100
AcDbLine
 10
245.825718958067
 20
350.163244459226
 30
0.0
 11
245.825718958067
 21
349.913244459226
 31
0.0
  0
LINE
  5
3A1
330
1F
100
AcDbEntity
  8
1
  6
Continuous
 62
     4
100
AcDbLine
 10
245.575718958067
 20
350.163244459226
 30
0.0
 11
245.825718958067
 21
350.163244459226
 31
0.0
  0
LINE
  5
3A2
330
1F
100
AcDbEntity
  8
1
  6
Continuous
 62
     4
100
AcDbLine
 10
245.575718958067
 20
349.913244459226
 30
0.0
 11
245.575718958067
 21
350.163244459226
 31
0.0
  0
LINE
  5
3A3
330
1F
100
AcDbEntity
  8
1
  6
Continuous
 62
     4
100
AcDbLine
 10
245.825718958067
 20
349.913244459226
 30
0.0
 11
245.575718958067
 21
349.913244459226
 31
0.0
  0
LINE
  5
3A4
330
1F
100
AcDbEntity
  8
1
  6
Continuous
 62
     4
100
AcDbLine
 10
246.075718958067
 20
350.413244459226
 30
0.0
 11
246.075718958067
 21
349.663244459226
 31
0.0
  0
LINE
  5
3A5
330
1F
100
AcDbEntity
  8
1
  6
Continuous
 62
     4
100
AcDbLine
 10
245.325718958067
 20
350.413244459226
 30
0.0
 11
246.075718958067
 21
350.413244459226
 31
0.0
  0
LINE
  5
3A6
330
1F
100
AcDbEntity
  8
1
  6
Continuous
 62
     4
100
AcDbLine
 10
245.325718958067
 20
349.663244459226
 30
0.0
 11
245.325718958067
 21
350.413244459226
 31
0.0
  0
LINE
  5
3A7
330
1F
100
AcDbEntity
  8
1
  6
Continuous
 62
     4
100
AcDbLine
 10
246.075718958067
 20
349.663244459226
 30
0.0
 11
245.325718958067
 21
349.663244459226
 31
0.0
  0
LINE
  5
3A8
330
1F
100
AcDbEntity
  8
1
  6
Continuous
 62
     4
100
AcDbLine
 10
242.325718958067
 20
355.913244459226
 30
0.0
 11
242.325718958067
 21
353.413244459226
 31
0.0
  0
LINE
  5
3A9
330
1F
100
AcDbEntity
  8
1
  6
Continuous
 62
     4
100
AcDbLine
 10
242.075718958067
 20
357.413244459226
 30
0.0
 11
242.325718958067
 21
355.913244459226
 31
0.0
  0
LINE
  5
3AA
330
1F
100
AcDbEntity
  8
1
  6
Continuous
 62
     4
100
AcDbLine
 10
241.575718958067
 20
358.413244459226
 30
0.0
 11
242.075718958067
 21
357.413244459226
 31
0.0
  0
LINE
  5
3AB
330
1F
100
AcDbEntity
  8
1
  6
Continuous
 62
     4
100
AcDbLine
 10
241.075718958067
 20
358.913244459226
 30
0.0
 11
241.575718958067
 21
358.413244459226
 31
0.0
  0
LINE
  5
3AC
330
1F
100
AcDbEntity
  8
1
  6
Continuous
 62
     4
100
AcDbLine
 10
240.325718958067
 20
359.413244459226
 30
0.0
 11
241.075718958067
 21
358.913244459226
 31
0.0
  0
LINE
  5
3AD
330
1F
100
AcDbEntity
  8
1
  6
Continuous
 62
     4
100
AcDbLine
 10
239.575718958067
 20
359.663244459226
 30
0.0
 11
240.325718958067
 21
359.413244459226
 31
0.0
  0
LINE
  5
3AE
330
1F
100
AcDbEntity
  8
1
  6
Continuous
 62
     4
100
AcDbLine
 10
239.075718958067
 20
359.663244459226
 30
0.0
 11
239.575718958067
 21
359.663244459226
 31
0.0
  0
LINE
  5
3AF
330
1F
100
AcDbEntity
  8
1
  6
Continuous
 62
     4
100
AcDbLine
 10
238.325718958067
 20
359.413244459226
 30
0.0
 11
239.075718958067
 21
359.663244459226
 31
0.0
  0
LINE
  5
3B0
330
1F
100
AcDbEntity
  8
1
  6
Continuous
 62
     4
100
AcDbLine
 10
237.575718958067
 20
358.913244459226
 30
0.0
 11
238.325718958067
 21
359.413244459226
 31
0.0
  0
LINE
  5
3B1
330
1F
100
AcDbEntity
  8
1
  6
Continuous
 62
     4
100
AcDbLine
 10
237.075718958067
 20
358.413244459226
 30
0.0
 11
237.575718958067
 21
358.913244459226
 31
0.0
  0
LINE
  5
3B2
330
1F
100
AcDbEntity
  8
1
  6
Continuous
 62
     4
100
AcDbLine
 10
236.575718958067
 20
357.413244459226
 30
0.0
 11
237.075718958067
 21
358.413244459226
 31
0.0
  0
LINE
  5
3B3
330
1F
100
AcDbEntity
  8
1
  6
Continuous
 62
     4
100
AcDbLine
 10
236.325718958067
 20
355.913244459226
 30
0.0
 11
236.575718958067
 21
357.413244459226
 31
0.0
  0
LINE
  5
3B4
330
1F
100
AcDbEntity
  8
1
  6
Continuous
 62
     4
100
AcDbLine
 10
236.325718958067
 20
353.413244459226
 30
0.0
 11
236.325718958067
 21
355.913244459226
 31
0.0
  0
LINE
  5
3B5
330
1F
100
AcDbEntity
  8
1
  6
Continuous
 62
     4
100
AcDbLine
 10
236.575718958067
 20
351.913244459226
 30
0.0
 11
236.325718958067
 21
353.413244459226
 31
0.0
  0
LINE
  5
3B6
330
1F
100
AcDbEntity
  8
1
  6
Continuous
 62
     4
100
AcDbLine
 10
237.075718958067
 20
350.913244459226
 30
0.0
 11
236.575718958067
 21
351.913244459226
 31
0.0
  0
LINE
  5
3B7
330
1F
100
AcDbEntity
  8
1
  6
Continuous
 62
     4
100
AcDbLine
 10
237.575718958067
 20
350.413244459226
 30
0.0
 11
237.075718958067
 21
350.913244459226
 31
0.0
  0
LINE
  5
3B8
330
1F
100
AcDbEntity
  8
1
  6
Continuous
 62
     4
100
AcDbLine
 10
238.325718958067
 20
349.913244459226
 30
0.0
 11
237.575718958067
 21
350.413244459226
 31
0.0
  0
LINE
  5
3B9
330
1F
100
AcDbEntity
  8
1
  6
Continuous
 62
     4
100
AcDbLine
 10
239.075718958067
 20
349.663244459226
 30
0.0
 11
238.325718958067
 21
349.913244459226
 31
0.0
  0
LINE
  5
3BA
330
1F
100
AcDbEntity
  8
1
  6
Continuous
 62
     4
100
AcDbLine
 10
239.575718958067
 20
349.663244459226
 30
0.0
 11
239.075718958067
 21
349.663244459226
 31
0.0
  0
LINE
  5
3BB
330
1F
100
AcDbEntity
  8
1
  6
Continuous
 62
     4
100
AcDbLine
 10
240.325718958067
 20
349.913244459226
 30
0.0
 11
239.575718958067
 21
349.663244459226
 31
0.0
  0
LINE
  5
3BC
330
1F
100
AcDbEntity
  8
1
  6
Continuous
 62
     4
100
AcDbLine
 10
241.075718958067
 20
350.413244459226
 30
0.0
 11
240.325718958067
 21
349.913244459226
 31
0.0
  0
LINE
  5
3BD
330
1F
100
AcDbEntity
  8
1
  6
Continuous
 62
     4
100
AcDbLine
 10
241.575718958067
 20
350.913244459226
 30
0.0
 11
241.075718958067
 21
350.413244459226
 31
0.0
  0
LINE
  5
3BE
330
1F
100
AcDbEntity
  8
1
  6
Continuous
 62
     4
100
AcDbLine
 10
242.075718958067
 20
351.913244459226
 30
0.0
 11
241.575718958067
 21
350.913244459226
 31
0.0
  0
LINE
  5
3BF
330
1F
100
AcDbEntity
  8
1
  6
Continuous
 62
     4
100
AcDbLine
 10
242.325718958067
 20
353.413244459226
 30
0.0
 11
242.075718958067
 21
351.913244459226
 31
0.0
  0
LINE
  5
3C0
330
1F
100
AcDbEntity
  8
1
  6
Continuous
 62
     4
100
AcDbLine
 10
253.075718958067
 20
373.663244459226
 30
0.0
 11
253.075718958067
 21
369.663244459226
 31
0.0
  0
LINE
  5
3C1
330
1F
100
AcDbEntity
  8
1
  6
Continuous
 62
     4
100
AcDbLine
 10
248.575718958067
 20
371.663244459226
 30
0.0
 11
254.575718958067
 21
371.663244459226
 31
0.0
  0
LINE
  5
3C2
330
1F
100
AcDbEntity
  8
1
  6
Continuous
 62
     4
100
AcDbLine
 10
253.075718958067
 20
379.663244459226
 30
0.0
 11
248.575718958067
 21
371.663244459226
 31
0.0
  0
LINE
  5
3C3
330
1F
100
AcDbEntity
  8
1
  6
Continuous
 62
     4
100
AcDbLine
 10
245.825718958067
 20
370.163244459226
 30
0.0
 11
245.825718958067
 21
369.913244459226
 31
0.0
  0
LINE
  5
3C4
330
1F
100
AcDbEntity
  8
1
  6
Continuous
 62
     4
100
AcDbLine
 10
245.575718958067
 20
370.163244459226
 30
0.0
 11
245.825718958067
 21
370.163244459226
 31
0.0
  0
LINE
  5
3C5
330
1F
100
AcDbEntity
  8
1
  6
Continuous
 62
     4
100
AcDbLine
 10
245.575718958067
 20
369.913244459226
 30
0.0
 11
245.575718958067
 21
370.163244459226
 31
0.0
  0
LINE
  5
3C6
330
1F
100
AcDbEntity
  8
1
  6
Continuous
 62
     4
100
AcDbLine
 10
245.825718958067
 20
369.913244459226
 30
0.0
 11
245.575718958067
 21
369.913244459226
 31
0.0
  0
LINE
  5
3C7
330
1F
100
AcDbEntity
  8
1
  6
Continuous
 62
     4
100
AcDbLine
 10
246.075718958067
 20
370.413244459226
 30
0.0
 11
246.075718958067
 21
369.663244459226
 31
0.0
  0
LINE
  5
3C8
330
1F
100
AcDbEntity
  8
1
  6
Continuous
 62
     4
100
AcDbLine
 10
245.325718958067
 20
370.413244459226
 30
0.0
 11
246.075718958067
 21
370.413244459226
 31
0.0
  0
LINE
  5
3C9
330
1F
100
AcDbEntity
  8
1
  6
Continuous
 62
     4
100
AcDbLine
 10
245.325718958067
 20
369.663244459226
 30
0.0
 11
245.325718958067
 21
370.413244459226
 31
0.0
  0
LINE
  5
3CA
330
1F
100
AcDbEntity
  8
1
  6
Continuous
 62
     4
100
AcDbLine
 10
246.075718958067
 20
369.663244459226
 30
0.0
 11
245.325718958067
 21
369.663244459226
 31
0.0
  0
LINE
  5
3CB
330
1F
100
AcDbEntity
  8
1
  6
Continuous
 62
     4
100
AcDbLine
 10
242.325718958067
 20
375.913244459226
 30
0.0
 11
242.325718958067
 21
373.413244459226
 31
0.0
  0
LINE
  5
3CC
330
1F
100
AcDbEntity
  8
1
  6
Continuous
 62
     4
100
AcDbLine
 10
242.075718958067
 20
377.413244459226
 30
0.0
 11
242.325718958067
 21
375.913244459226
 31
0.0
  0
LINE
  5
3CD
330
1F
100
AcDbEntity
  8
1
  6
Continuous
 62
     4
100
AcDbLine
 10
241.575718958067
 20
378.413244459226
 30
0.0
 11
242.075718958067
 21
377.413244459226
 31
0.0
  0
LINE
  5
3CE
330
1F
100
AcDbEntity
  8
1
  6
Continuous
 62
     4
100
AcDbLine
 10
241.075718958067
 20
378.913244459226
 30
0.0
 11
241.575718958067
 21
378.413244459226
 31
0.0
  0
LINE
  5
3CF
330
1F
100
AcDbEntity
  8
1
  6
Continuous
 62
     4
100
AcDbLine
 10
240.325718958067
 20
379.413244459226
 30
0.0
 11
241.075718958067
 21
378.913244459226
 31
0.0
  0
LINE
  5
3D0
330
1F
100
AcDbEntity
  8
1
  6
Continuous
 62
     4
100
AcDbLine
 10
239.575718958067
 20
379.663244459226
 30
0.0
 11
240.325718958067
 21
379.413244459226
 31
0.0
  0
LINE
  5
3D1
330
1F
100
AcDbEntity
  8
1
  6
Continuous
 62
     4
100
AcDbLine
 10
239.075718958067
 20
379.663244459226
 30
0.0
 11
239.575718958067
 21
379.663244459226
 31
0.0
  0
LINE
  5
3D2
330
1F
100
AcDbEntity
  8
1
  6
Continuous
 62
     4
100
AcDbLine
 10
238.325718958067
 20
379.413244459226
 30
0.0
 11
239.075718958067
 21
379.663244459226
 31
0.0
  0
LINE
  5
3D3
330
1F
100
AcDbEntity
  8
1
  6
Continuous
 62
     4
100
AcDbLine
 10
237.575718958067
 20
378.913244459226
 30
0.0
 11
238.325718958067
 21
379.413244459226
 31
0.0
  0
LINE
  5
3D4
330
1F
100
AcDbEntity
  8
1
  6
Continuous
 62
     4
100
AcDbLine
 10
237.075718958067
 20
378.413244459226
 30
0.0
 11
237.575718958067
 21
378.913244459226
 31
0.0
  0
LINE
  5
3D5
330
1F
100
AcDbEntity
  8
1
  6
Continuous
 62
     4
100
AcDbLine
 10
236.575718958067
 20
377.413244459226
 30
0.0
 11
237.075718958067
 21
378.413244459226
 31
0.0
  0
LINE
  5
3D6
330
1F
100
AcDbEntity
  8
1
  6
Continuous
 62
     4
100
AcDbLine
 10
236.325718958067
 20
375.913244459226
 30
0.0
 11
236.575718958067
 21
377.413244459226
 31
0.0
  0
LINE
  5
3D7
330
1F
100
AcDbEntity
  8
1
  6
Continuous
 62
     4
100
AcDbLine
 10
236.325718958067
 20
373.413244459226
 30
0.0
 11
236.325718958067
 21
375.913244459226
 31
0.0
  0
LINE
  5
3D8
330
1F
100
AcDbEntity
  8
1
  6
Continuous
 62
     4
100
AcDbLine
 10
236.575718958067
 20
371.913244459226
 30
0.0
 11
236.325718958067
 21
373.413244459226
 31
0.0
  0
LINE
  5
3D9
330
1F
100
AcDbEntity
  8
1
  6
Continuous
 62
     4
100
AcDbLine
 10
237.075718958067
 20
370.913244459226
 30
0.0
 11
236.575718958067
 21
371.913244459226
 31
0.0
  0
LINE
  5
3DA
330
1F
100
AcDbEntity
  8
1
  6
Continuous
 62
     4
100
AcDbLine
 10
237.575718958067
 20
370.413244459226
 30
0.0
 11
237.075718958067
 21
370.913244459226
 31
0.0
  0
LINE
  5
3DB
330
1F
100
AcDbEntity
  8
1
  6
Continuous
 62
     4
100
AcDbLine
 10
238.325718958067
 20
369.913244459226
 30
0.0
 11
237.575718958067
 21
370.413244459226
 31
0.0
  0
LINE
  5
3DC
330
1F
100
AcDbEntity
  8
1
  6
Continuous
 62
     4
100
AcDbLine
 10
239.075718958067
 20
369.663244459226
 30
0.0
 11
238.325718958067
 21
369.913244459226
 31
0.0
  0
LINE
  5
3DD
330
1F
100
AcDbEntity
  8
1
  6
Continuous
 62
     4
100
AcDbLine
 10
239.575718958067
 20
369.663244459226
 30
0.0
 11
239.075718958067
 21
369.663244459226
 31
0.0
  0
LINE
  5
3DE
330
1F
100
AcDbEntity
  8
1
  6
Continuous
 62
     4
100
AcDbLine
 10
240.325718958067
 20
369.913244459226
 30
0.0
 11
239.575718958067
 21
369.663244459226
 31
0.0
  0
LINE
  5
3DF
330
1F
100
AcDbEntity
  8
1
  6
Continuous
 62
     4
100
AcDbLine
 10
241.075718958067
 20
370.413244459226
 30
0.0
 11
240.325718958067
 21
369.913244459226
 31
0.0
  0
LINE
  5
3E0
330
1F
100
AcDbEntity
  8
1
  6
Continuous
 62
     4
100
AcDbLine
 10
241.575718958067
 20
370.913244459226
 30
0.0
 11
241.075718958067
 21
370.413244459226
 31
0.0
  0
LINE
  5
3E1
330
1F
100
AcDbEntity
  8
1
  6
Continuous
 62
     4
100
AcDbLine
 10
242.075718958067
 20
371.913244459226
 30
0.0
 11
241.575718958067
 21
370.913244459226
 31
0.0
  0
LINE
  5
3E2
330
1F
100
AcDbEntity
  8
1
  6
Continuous
 62
     4
100
AcDbLine
 10
242.325718958067
 20
373.413244459226
 30
0.0
 11
242.075718958067
 21
371.913244459226
 31
0.0
  0
LINE
  5
3E3
330
1F
100
AcDbEntity
  8
1
  6
Continuous
 62
     4
100
AcDbLine
 10
277.450718958067
 20
390.663244459226
 30
0.0
 11
276.825718958067
 21
389.663244459226
 31
0.0
  0
LINE
  5
3E4
330
1F
100
AcDbEntity
  8
1
  6
Continuous
 62
     4
100
AcDbLine
 10
277.950718958067
 20
392.163244459226
 30
0.0
 11
277.450718958067
 21
390.663244459226
 31
0.0
  0
LINE
  5
3E5
330
1F
100
AcDbEntity
  8
1
  6
Continuous
 62
     4
100
AcDbLine
 10
277.950718958067
 20
397.163244459226
 30
0.0
 11
277.950718958067
 21
392.163244459226
 31
0.0
  0
LINE
  5
3E6
330
1F
100
AcDbEntity
  8
1
  6
Continuous
 62
     4
100
AcDbLine
 10
277.450718958067
 20
398.788244459226
 30
0.0
 11
277.950718958067
 21
397.163244459226
 31
0.0
  0
LINE
  5
3E7
330
1F
100
AcDbEntity
  8
1
  6
Continuous
 62
     4
100
AcDbLine
 10
276.825718958067
 20
399.663244459226
 30
0.0
 11
277.450718958067
 21
398.788244459226
 31
0.0
  0
LINE
  5
3E8
330
1F
100
AcDbEntity
  8
1
  6
Continuous
 62
     4
100
AcDbLine
 10
263.825718958067
 20
394.413244459226
 30
0.0
 11
263.825718958067
 21
395.913244459226
 31
0.0
  0
LINE
  5
3E9
330
1F
100
AcDbEntity
  8
1
  6
Continuous
 62
     4
100
AcDbLine
 10
270.950718958067
 20
394.413244459226
 30
0.0
 11
270.950718958067
 21
389.663244459226
 31
0.0
  0
LINE
  5
3EA
330
1F
100
AcDbEntity
  8
1
  6
Continuous
 62
     4
100
AcDbLine
 10
270.700718958067
 20
395.288244459226
 30
0.0
 11
270.950718958067
 21
394.413244459226
 31
0.0
  0
LINE
  5
3EB
330
1F
100
AcDbEntity
  8
1
  6
Continuous
 62
     4
100
AcDbLine
 10
270.450718958067
 20
395.663244459226
 30
0.0
 11
270.700718958067
 21
395.288244459226
 31
0.0
  0
LINE
  5
3EC
330
1F
100
AcDbEntity
  8
1
  6
Continuous
 62
     4
100
AcDbLine
 10
269.575718958067
 20
395.913244459226
 30
0.0
 11
270.450718958067
 21
395.663244459226
 31
0.0
  0
LINE
  5
3ED
330
1F
100
AcDbEntity
  8
1
  6
Continuous
 62
     4
100
AcDbLine
 10
268.825718958067
 20
395.913244459226
 30
0.0
 11
269.575718958067
 21
395.913244459226
 31
0.0
  0
LINE
  5
3EE
330
1F
100
AcDbEntity
  8
1
  6
Continuous
 62
     4
100
AcDbLine
 10
267.950718958067
 20
395.663244459226
 30
0.0
 11
268.825718958067
 21
395.913244459226
 31
0.0
  0
LINE
  5
3EF
330
1F
100
AcDbEntity
  8
1
  6
Continuous
 62
     4
100
AcDbLine
 10
267.700718958067
 20
395.288244459226
 30
0.0
 11
267.950718958067
 21
395.663244459226
 31
0.0
  0
LINE
  5
3F0
330
1F
100
AcDbEntity
  8
1
  6
Continuous
 62
     4
100
AcDbLine
 10
267.450718958067
 20
394.413244459226
 30
0.0
 11
267.700718958067
 21
395.288244459226
 31
0.0
  0
LINE
  5
3F1
330
1F
100
AcDbEntity
  8
1
  6
Continuous
 62
     4
100
AcDbLine
 10
267.450718958067
 20
389.663244459226
 30
0.0
 11
267.450718958067
 21
394.413244459226
 31
0.0
  0
LINE
  5
3F2
330
1F
100
AcDbEntity
  8
1
  6
Continuous
 62
     4
100
AcDbLine
 10
267.075718958067
 20
395.288244459226
 30
0.0
 11
267.450718958067
 21
394.413244459226
 31
0.0
  0
LINE
  5
3F3
330
1F
100
AcDbEntity
  8
1
  6
Continuous
 62
     4
100
AcDbLine
 10
266.825718958067
 20
395.663244459226
 30
0.0
 11
267.075718958067
 21
395.288244459226
 31
0.0
  0
LINE
  5
3F4
330
1F
100
AcDbEntity
  8
1
  6
Continuous
 62
     4
100
AcDbLine
 10
265.950718958067
 20
395.913244459226
 30
0.0
 11
266.825718958067
 21
395.663244459226
 31
0.0
  0
LINE
  5
3F5
330
1F
100
AcDbEntity
  8
1
  6
Continuous
 62
     4
100
AcDbLine
 10
265.200718958067
 20
395.913244459226
 30
0.0
 11
265.950718958067
 21
395.913244459226
 31
0.0
  0
LINE
  5
3F6
330
1F
100
AcDbEntity
  8
1
  6
Continuous
 62
     4
100
AcDbLine
 10
264.325718958067
 20
395.663244459226
 30
0.0
 11
265.200718958067
 21
395.913244459226
 31
0.0
  0
LINE
  5
3F7
330
1F
100
AcDbEntity
  8
1
  6
Continuous
 62
     4
100
AcDbLine
 10
264.075718958067
 20
395.288244459226
 30
0.0
 11
264.325718958067
 21
395.663244459226
 31
0.0
  0
LINE
  5
3F8
330
1F
100
AcDbEntity
  8
1
  6
Continuous
 62
     4
100
AcDbLine
 10
263.825718958067
 20
394.413244459226
 30
0.0
 11
264.075718958067
 21
395.288244459226
 31
0.0
  0
LINE
  5
3F9
330
1F
100
AcDbEntity
  8
1
  6
Continuous
 62
     4
100
AcDbLine
 10
263.825718958067
 20
389.663244459226
 30
0.0
 11
263.825718958067
 21
394.413244459226
 31
0.0
  0
LINE
  5
3FA
330
1F
100
AcDbEntity
  8
1
  6
Continuous
 62
     4
100
AcDbLine
 10
257.450718958067
 20
390.663244459226
 30
0.0
 11
257.950718958067
 21
389.663244459226
 31
0.0
  0
LINE
  5
3FB
330
1F
100
AcDbEntity
  8
1
  6
Continuous
 62
     4
100
AcDbLine
 10
256.825718958067
 20
392.163244459226
 30
0.0
 11
257.450718958067
 21
390.663244459226
 31
0.0
  0
LINE
  5
3FC
330
1F
100
AcDbEntity
  8
1
  6
Continuous
 62
     4
100
AcDbLine
 10
256.825718958067
 20
397.163244459226
 30
0.0
 11
256.825718958067
 21
392.163244459226
 31
0.0
  0
LINE
  5
3FD
330
1F
100
AcDbEntity
  8
1
  6
Continuous
 62
     4
100
AcDbLine
 10
257.450718958067
 20
398.788244459226
 30
0.0
 11
256.825718958067
 21
397.163244459226
 31
0.0
  0
LINE
  5
3FE
330
1F
100
AcDbEntity
  8
1
  6
Continuous
 62
     4
100
AcDbLine
 10
257.950718958067
 20
399.663244459226
 30
0.0
 11
257.450718958067
 21
398.788244459226
 31
0.0
  0
LINE
  5
3FF
330
1F
100
AcDbEntity
  8
1
  6
Continuous
 62
     4
100
AcDbLine
 10
247.075718958067
 20
390.913244459226
 30
0.0
 11
248.825718958067
 21
390.663244459226
 31
0.0
  0
LINE
  5
400
330
1F
100
AcDbEntity
  8
1
  6
Continuous
 62
     4
100
AcDbLine
 10
245.950718958067
 20
391.538244459226
 30
0.0
 11
247.075718958067
 21
390.913244459226
 31
0.0
  0
LINE
  5
401
330
1F
100
AcDbEntity
  8
1
  6
Continuous
 62
     4
100
AcDbLine
 10
245.450718958067
 20
392.538244459226
 30
0.0
 11
245.950718958067
 21
391.538244459226
 31
0.0
  0
LINE
  5
402
330
1F
100
AcDbEntity
  8
1
  6
Continuous
 62
     4
100
AcDbLine
 10
245.950718958067
 20
393.413244459226
 30
0.0
 11
245.450718958067
 21
392.538244459226
 31
0.0
  0
LINE
  5
403
330
1F
100
AcDbEntity
  8
1
  6
Continuous
 62
     4
100
AcDbLine
 10
247.700718958067
 20
394.038244459226
 30
0.0
 11
245.950718958067
 21
393.413244459226
 31
0.0
  0
LINE
  5
404
330
1F
100
AcDbEntity
  8
1
  6
Continuous
 62
     4
100
AcDbLine
 10
249.575718958067
 20
393.788244459226
 30
0.0
 11
247.700718958067
 21
394.038244459226
 31
0.0
  0
LINE
  5
405
330
1F
100
AcDbEntity
  8
1
  6
Continuous
 62
     4
100
AcDbLine
 10
248.450718958067
 20
395.913244459226
 30
0.0
 11
249.575718958067
 21
393.788244459226
 31
0.0
  0
LINE
  5
406
330
1F
100
AcDbEntity
  8
1
  6
Continuous
 62
     4
100
AcDbLine
 10
246.575718958067
 20
398.788244459226
 30
0.0
 11
248.450718958067
 21
395.913244459226
 31
0.0
  0
LINE
  5
407
330
1F
100
AcDbEntity
  8
1
  6
Continuous
 62
     4
100
AcDbLine
 10
247.450718958067
 20
396.913244459226
 30
0.0
 11
249.325718958067
 21
397.788244459226
 31
0.0
  0
LINE
  5
408
330
1F
100
AcDbEntity
  8
1
  6
Continuous
 62
     4
100
AcDbLine
 10
245.200718958067
 20
396.288244459226
 30
0.0
 11
247.450718958067
 21
396.913244459226
 31
0.0
  0
LINE
  5
409
330
1F
100
AcDbEntity
  8
1
  6
Continuous
 62
     4
100
AcDbLine
 10
235.450718958067
 20
397.788244459226
 30
0.0
 11
235.450718958067
 21
390.663244459226
 31
0.0
  0
LINE
  5
40A
330
1F
100
AcDbEntity
  8
1
  6
Continuous
 62
     4
100
AcDbLine
 10
239.325718958067
 20
390.913244459226
 30
0.0
 11
241.575718958067
 21
390.038244459226
 31
0.0
  0
LINE
  5
40B
330
1F
100
AcDbEntity
  8
1
  6
Continuous
 62
     4
100
AcDbLine
 10
238.200718958067
 20
392.163244459226
 30
0.0
 11
239.325718958067
 21
390.913244459226
 31
0.0
  0
LINE
  5
40C
330
1F
100
AcDbEntity
  8
1
  6
Continuous
 62
     4
100
AcDbLine
 10
237.075718958067
 20
394.038244459226
 30
0.0
 11
238.200718958067
 21
392.163244459226
 31
0.0
  0
LINE
  5
40D
330
1F
100
AcDbEntity
  8
1
  6
Continuous
 62
     4
100
AcDbLine
 10
235.450718958067
 20
399.413244459226
 30
0.0
 11
235.450718958067
 21
397.788244459226
 31
0.0
  0
LINE
  5
40E
330
1F
100
AcDbEntity
  8
1
  6
Continuous
 62
     4
100
AcDbLine
 10
239.950718958067
 20
399.413244459226
 30
0.0
 11
235.450718958067
 21
399.413244459226
 31
0.0
  0
LINE
  5
40F
330
1F
100
AcDbEntity
  8
1
  6
Continuous
 62
     4
100
AcDbLine
 10
239.575718958067
 20
397.788244459226
 30
0.0
 11
235.450718958067
 21
397.788244459226
 31
0.0
  0
LINE
  5
410
330
1F
100
AcDbEntity
  8
1
  6
Continuous
 62
     4
100
AcDbLine
 10
235.450718958067
 20
396.288244459226
 30
0.0
 11
239.575718958067
 21
396.288244459226
 31
0.0
  0
LINE
  5
411
330
1F
100
AcDbEntity
  8
1
  6
Continuous
 62
     4
100
AcDbLine
 10
241.575718958067
 20
394.663244459226
 30
0.0
 11
233.200718958067
 21
394.663244459226
 31
0.0
  0
LINE
  5
412
330
1F
100
AcDbEntity
  8
1
  6
Continuous
 62
     4
100
AcDbLine
 10
238.200718958067
 20
392.538244459226
 30
0.0
 11
240.200718958067
 21
393.788244459226
 31
0.0
  0
LINE
  5
413
330
1F
100
AcDbEntity
  8
1
  6
Continuous
 62
     4
100
AcDbLine
 10
233.825718958067
 20
390.038244459226
 30
0.0
 11
237.450718958067
 21
391.538244459226
 31
0.0
  0
LINE
  5
414
330
1F
100
AcDbEntity
  8
1
  6
Continuous
 62
     4
100
AcDbLine
 10
230.950718958067
 20
398.163244459226
 30
0.0
 11
231.825718958067
 21
397.163244459226
 31
0.0
  0
LINE
  5
415
330
1F
100
AcDbEntity
  8
1
  6
Continuous
 62
     4
100
AcDbLine
 10
230.200718958067
 20
397.538244459226
 30
0.0
 11
230.950718958067
 21
396.538244459226
 31
0.0
  0
LINE
  5
416
330
1F
100
AcDbEntity
  8
1
  6
Continuous
 62
     4
100
AcDbLine
 10
229.075718958067
 20
395.038244459226
 30
0.0
 11
230.200718958067
 21
392.538244459226
 31
0.0
  0
LINE
  5
417
330
1F
100
AcDbEntity
  8
1
  6
Continuous
 62
     4
100
AcDbLine
 10
228.825718958067
 20
397.163244459226
 30
0.0
 11
229.075718958067
 21
395.038244459226
 31
0.0
  0
LINE
  5
418
330
1F
100
AcDbEntity
  8
1
  6
Continuous
 62
     4
100
AcDbLine
 10
228.825718958067
 20
395.288244459226
 30
0.0
 11
228.825718958067
 21
397.163244459226
 31
0.0
  0
LINE
  5
419
330
1F
100
AcDbEntity
  8
1
  6
Continuous
 62
     4
100
AcDbLine
 10
228.450718958067
 20
393.413244459226
 30
0.0
 11
228.825718958067
 21
395.288244459226
 31
0.0
  0
LINE
  5
41A
330
1F
100
AcDbEntity
  8
1
  6
Continuous
 62
     4
100
AcDbLine
 10
227.700718958067
 20
391.538244459226
 30
0.0
 11
228.450718958067
 21
393.413244459226
 31
0.0
  0
LINE
  5
41B
330
1F
100
AcDbEntity
  8
1
  6
Continuous
 62
     4
100
AcDbLine
 10
226.575718958067
 20
390.663244459226
 30
0.0
 11
227.700718958067
 21
391.538244459226
 31
0.0
  0
LINE
  5
41C
330
1F
100
AcDbEntity
  8
1
  6
Continuous
 62
     4
100
AcDbLine
 10
225.450718958067
 20
390.288244459226
 30
0.0
 11
226.575718958067
 21
390.663244459226
 31
0.0
  0
LINE
  5
41D
330
1F
100
AcDbEntity
  8
1
  6
Continuous
 62
     4
100
AcDbLine
 10
224.325718958067
 20
390.663244459226
 30
0.0
 11
225.450718958067
 21
390.288244459226
 31
0.0
  0
LINE
  5
41E
330
1F
100
AcDbEntity
  8
1
  6
Continuous
 62
     4
100
AcDbLine
 10
223.825718958067
 20
391.538244459226
 30
0.0
 11
224.325718958067
 21
390.663244459226
 31
0.0
  0
LINE
  5
41F
330
1F
100
AcDbEntity
  8
1
  6
Continuous
 62
     4
100
AcDbLine
 10
223.825718958067
 20
392.788244459226
 30
0.0
 11
223.825718958067
 21
391.538244459226
 31
0.0
  0
LINE
  5
420
330
1F
100
AcDbEntity
  8
1
  6
Continuous
 62
     4
100
AcDbLine
 10
224.325718958067
 20
394.413244459226
 30
0.0
 11
223.825718958067
 21
392.788244459226
 31
0.0
  0
LINE
  5
421
330
1F
100
AcDbEntity
  8
1
  6
Continuous
 62
     4
100
AcDbLine
 10
225.200718958067
 20
395.663244459226
 30
0.0
 11
224.325718958067
 21
394.413244459226
 31
0.0
  0
LINE
  5
422
330
1F
100
AcDbEntity
  8
1
  6
Continuous
 62
     4
100
AcDbLine
 10
226.325718958067
 20
396.913244459226
 30
0.0
 11
225.200718958067
 21
395.663244459226
 31
0.0
  0
LINE
  5
423
330
1F
100
AcDbEntity
  8
1
  6
Continuous
 62
     4
100
AcDbLine
 10
225.200718958067
 20
396.538244459226
 30
0.0
 11
226.325718958067
 21
396.913244459226
 31
0.0
  0
LINE
  5
424
330
1F
100
AcDbEntity
  8
1
  6
Continuous
 62
     4
100
AcDbLine
 10
223.825718958067
 20
396.288244459226
 30
0.0
 11
225.200718958067
 21
396.538244459226
 31
0.0
  0
LINE
  5
425
330
1F
100
AcDbEntity
  8
1
  6
Continuous
 62
     4
100
AcDbLine
 10
219.075718958067
 20
390.038244459226
 30
0.0
 11
217.950718958067
 21
390.038244459226
 31
0.0
  0
LINE
  5
426
330
1F
100
AcDbEntity
  8
1
  6
Continuous
 62
     4
100
AcDbLine
 10
219.075718958067
 20
398.163244459226
 30
0.0
 11
219.075718958067
 21
390.038244459226
 31
0.0
  0
LINE
  5
427
330
1F
100
AcDbEntity
  8
1
  6
Continuous
 62
     4
100
AcDbLine
 10
216.825718958067
 20
397.163244459226
 30
0.0
 11
217.700718958067
 21
395.288244459226
 31
0.0
  0
LINE
  5
428
330
1F
100
AcDbEntity
  8
1
  6
Continuous
 62
     4
100
AcDbLine
 10
218.450718958067
 20
398.788244459226
 30
0.0
 11
217.075718958067
 21
398.413244459226
 31
0.0
  0
LINE
  5
429
330
1F
100
AcDbEntity
  8
1
  6
Continuous
 62
     4
100
AcDbLine
 10
220.450718958067
 20
399.413244459226
 30
0.0
 11
218.450718958067
 21
398.788244459226
 31
0.0
  0
LINE
  5
42A
330
1F
100
AcDbEntity
  8
1
  6
Continuous
 62
     4
100
AcDbLine
 10
220.200718958067
 20
395.288244459226
 30
0.0
 11
220.950718958067
 21
397.163244459226
 31
0.0
  0
LINE
  5
42B
330
1F
100
AcDbEntity
  8
1
  6
Continuous
 62
     4
100
AcDbLine
 10
216.325718958067
 20
394.038244459226
 30
0.0
 11
221.825718958067
 21
394.038244459226
 31
0.0
  0
LINE
  5
42C
330
1F
100
AcDbEntity
  8
1
  6
Continuous
 62
     4
100
AcDbLine
 10
213.450718958067
 20
398.163244459226
 30
0.0
 11
213.450718958067
 21
392.788244459226
 31
0.0
  0
LINE
  5
42D
330
1F
100
AcDbEntity
  8
1
  6
Continuous
 62
     4
100
AcDbLine
 10
215.450718958067
 20
398.163244459226
 30
0.0
 11
213.450718958067
 21
398.163244459226
 31
0.0
  0
LINE
  5
42E
330
1F
100
AcDbEntity
  8
1
  6
Continuous
 62
     4
100
AcDbLine
 10
215.450718958067
 20
392.788244459226
 30
0.0
 11
215.450718958067
 21
398.163244459226
 31
0.0
  0
LINE
  5
42F
330
1F
100
AcDbEntity
  8
1
  6
Continuous
 62
     4
100
AcDbLine
 10
213.450718958067
 20
392.788244459226
 30
0.0
 11
215.450718958067
 21
392.788244459226
 31
0.0
  0
LINE
  5
430
330
1F
100
AcDbEntity
  8
1
  6
Continuous
 62
     4
100
AcDbLine
 10
71.5750007629395
 20
-25.2000045776367
 30
0.0
 11
73.5750007629395
 21
-26.4500045776367
 31
0.0
  0
LINE
  5
431
330
1F
100
AcDbEntity
  8
1
  6
Continuous
 62
     4
100
AcDbLine
 10
74.3250007629395
 20
-24.5750045776367
 30
0.0
 11
72.7000007629395
 21
-23.3250045776367
 31
0.0
  0
LINE
  5
432
330
1F
100
AcDbEntity
  8
1
  6
Continuous
 62
     4
100
AcDbLine
 10
75.7000007629395
 20
-23.0750045776367
 30
0.0
 11
76.5750007629395
 21
-23.9500045776367
 31
0.0
  0
LINE
  5
433
330
1F
100
AcDbEntity
  8
1
  6
Continuous
 62
     4
100
AcDbLine
 10
77.2000007629395
 20
-23.3250045776367
 30
0.0
 11
76.3250007629395
 21
-22.4500045776367
 31
0.0
  0
LINE
  5
434
330
1F
100
AcDbEntity
  8
1
  6
Continuous
 62
     4
100
AcDbLine
 10
76.5750007629395
 20
-27.0750045776367
 30
0.0
 11
77.9500007629395
 21
-25.2000045776367
 31
0.0
  0
LINE
  5
435
330
1F
100
AcDbEntity
  8
1
  6
Continuous
 62
     4
100
AcDbLine
 10
74.3250007629395
 20
-28.9500045776367
 30
0.0
 11
76.5750007629395
 21
-27.0750045776367
 31
0.0
  0
LINE
  5
436
330
1F
100
AcDbEntity
  8
1
  6
Continuous
 62
     4
100
AcDbLine
 10
72.2000007629395
 20
-30.2000045776367
 30
0.0
 11
74.3250007629395
 21
-28.9500045776367
 31
0.0
  0
LINE
  5
437
330
1F
100
AcDbEntity
  8
1
  6
Continuous
 62
     4
100
AcDbLine
 10
66.8250007629395
 20
-27.4500045776367
 30
0.0
 11
67.7000007629395
 21
-28.7000045776367
 31
0.0
  0
LINE
  5
438
330
1F
100
AcDbEntity
  8
1
  6
Continuous
 62
     4
100
AcDbLine
 10
65.7000007629395
 20
-26.4500045776367
 30
0.0
 11
66.8250007629395
 21
-27.4500045776367
 31
0.0
  0
LINE
  5
439
330
1F
100
AcDbEntity
  8
1
  6
Continuous
 62
     4
100
AcDbLine
 10
64.9500007629395
 20
-22.4500045776367
 30
0.0
 11
65.4500007629395
 21
-23.0750045776367
 31
0.0
  0
LINE
  5
43A
330
1F
100
AcDbEntity
  8
1
  6
Continuous
 62
     4
100
AcDbLine
 10
63.8250007629395
 20
-21.8250045776367
 30
0.0
 11
64.9500007629395
 21
-22.4500045776367
 31
0.0
  0
LINE
  5
43B
330
1F
100
AcDbEntity
  8
1
  6
Continuous
 62
     4
100
AcDbLine
 10
66.3250007629395
 20
-24.3250045776367
 30
0.0
 11
62.4500007629395
 21
-24.3250045776367
 31
0.0
  0
LINE
  5
43C
330
1F
100
AcDbEntity
  8
1
  6
Continuous
 62
     4
100
AcDbLine
 10
64.3250007629395
 20
-26.4500045776367
 30
0.0
 11
66.3250007629395
 21
-24.3250045776367
 31
0.0
  0
LINE
  5
43D
330
1F
100
AcDbEntity
  8
1
  6
Continuous
 62
     4
100
AcDbLine
 10
61.5750007629395
 20
-28.3250045776367
 30
0.0
 11
64.3250007629395
 21
-26.4500045776367
 31
0.0
  0
LINE
  5
43E
330
1F
100
AcDbEntity
  8
1
  6
Continuous
 62
     4
100
AcDbLine
 10
64.7000007629395
 20
-30.2000045776367
 30
0.0
 11
64.7000007629395
 21
-26.2000045776367
 31
0.0
  0
LINE
  5
43F
330
1F
100
AcDbEntity
  8
1
  6
Continuous
 62
     4
100
AcDbLine
 10
57.2000007629395
 20
-21.2000045776367
 30
0.0
 11
57.2000007629395
 21
-31.2000045776367
 31
0.0
  0
LINE
  5
440
330
1F
100
AcDbEntity
  8
1
  6
Continuous
 62
     4
100
AcDbLine
 10
54.2000007629395
 20
-24.2000045776367
 30
0.0
 11
57.2000007629395
 21
-21.2000045776367
 31
0.0
  0
LINE
  5
441
330
1F
100
AcDbEntity
  8
1
  6
Continuous
 62
     4
100
AcDbLine
 10
51.2000007629395
 20
-25.7000045776367
 30
0.0
 11
48.7000007629395
 21
-25.7000045776367
 31
0.0
  0
LINE
  5
442
330
1F
100
AcDbEntity
  8
1
  6
Continuous
 62
     4
100
AcDbLine
 10
51.2000007629395
 20
-31.2000045776367
 30
0.0
 11
51.2000007629395
 21
-25.7000045776367
 31
0.0
  0
LINE
  5
443
330
1F
100
AcDbEntity
  8
1
  6
Continuous
 62
     4
100
AcDbLine
 10
46.9500007629395
 20
-31.2000045776367
 30
0.0
 11
51.2000007629395
 21
-31.2000045776367
 31
0.0
  0
LINE
  5
444
330
1F
100
AcDbEntity
  8
1
  6
Continuous
 62
     4
100
AcDbLine
 10
46.2000007629395
 20
-30.9500045776367
 30
0.0
 11
46.9500007629395
 21
-31.2000045776367
 31
0.0
  0
LINE
  5
445
330
1F
100
AcDbEntity
  8
1
  6
Continuous
 62
     4
100
AcDbLine
 10
45.2000007629395
 20
-30.4500045776367
 30
0.0
 11
46.2000007629395
 21
-30.9500045776367
 31
0.0
  0
LINE
  5
446
330
1F
100
AcDbEntity
  8
1
  6
Continuous
 62
     4
100
AcDbLine
 10
44.7000007629395
 20
-29.9500045776367
 30
0.0
 11
45.2000007629395
 21
-30.4500045776367
 31
0.0
  0
LINE
  5
447
330
1F
100
AcDbEntity
  8
1
  6
Continuous
 62
     4
100
AcDbLine
 10
44.4500007629395
 20
-29.2000045776367
 30
0.0
 11
44.7000007629395
 21
-29.9500045776367
 31
0.0
  0
LINE
  5
448
330
1F
100
AcDbEntity
  8
1
  6
Continuous
 62
     4
100
AcDbLine
 10
44.2000007629395
 20
-28.2000045776367
 30
0.0
 11
44.4500007629395
 21
-29.2000045776367
 31
0.0
  0
LINE
  5
449
330
1F
100
AcDbEntity
  8
1
  6
Continuous
 62
     4
100
AcDbLine
 10
44.2000007629395
 20
-24.2000045776367
 30
0.0
 11
44.2000007629395
 21
-28.2000045776367
 31
0.0
  0
LINE
  5
44A
330
1F
100
AcDbEntity
  8
1
  6
Continuous
 62
     4
100
AcDbLine
 10
44.4500007629395
 20
-23.2000045776367
 30
0.0
 11
44.2000007629395
 21
-24.2000045776367
 31
0.0
  0
LINE
  5
44B
330
1F
100
AcDbEntity
  8
1
  6
Continuous
 62
     4
100
AcDbLine
 10
44.7000007629395
 20
-22.4500045776367
 30
0.0
 11
44.4500007629395
 21
-23.2000045776367
 31
0.0
  0
LINE
  5
44C
330
1F
100
AcDbEntity
  8
1
  6
Continuous
 62
     4
100
AcDbLine
 10
45.2000007629395
 20
-21.9500045776367
 30
0.0
 11
44.7000007629395
 21
-22.4500045776367
 31
0.0
  0
LINE
  5
44D
330
1F
100
AcDbEntity
  8
1
  6
Continuous
 62
     4
100
AcDbLine
 10
45.9500007629395
 20
-21.4500045776367
 30
0.0
 11
45.2000007629395
 21
-21.9500045776367
 31
0.0
  0
LINE
  5
44E
330
1F
100
AcDbEntity
  8
1
  6
Continuous
 62
     4
100
AcDbLine
 10
46.9500007629395
 20
-21.2000045776367
 30
0.0
 11
45.9500007629395
 21
-21.4500045776367
 31
0.0
  0
LINE
  5
44F
330
1F
100
AcDbEntity
  8
1
  6
Continuous
 62
     4
100
AcDbLine
 10
51.2000007629395
 20
-21.2000045776367
 30
0.0
 11
46.9500007629395
 21
-21.2000045776367
 31
0.0
  0
LINE
  5
470
330
1F
100
AcDbEntity
  8
2
  6
Continuous
 62
     2
100
AcDbLine
 10
65.1937255859375
 20
0.0
 30
0.0
 11
65.1937255859375
 21
219.75
 31
0.0
  0
LINE
  5
471
330
1F
100
AcDbEntity
  8
2
  6
Continuous
 62
     2
100
AcDbLine
 10
65.1937255859375
 20
443.0
 30
0.0
 11
65.1937255859375
 21
219.75
 31
0.0
  0
LINE
  5
472
330
1F
100
AcDbEntity
  8
2
  6
Continuous
 62
     2
100
AcDbLine
 10
41.0
 20
0.0
 30
0.0
 11
68.0
 21
0.0
 31
0.0
  0
LINE
  5
473
330
1F
100
AcDbEntity
  8
2
  6
Continuous
 62
     2
100
AcDbLine
 10
17.5
 20
443.0
 30
0.0
 11
68.0
 21
443.0
 31
0.0
  0
LINE
  5
474
330
1F
100
AcDbEntity
  8
1
  6
Continuous
 62
     4
100
AcDbLine
 10
-28.0
 20
-16.4500007629395
 30
0.0
 11
-30.427122826699
 21
-18.3878463996292
 31
0.0
  0
LINE
  5
475
330
1F
100
AcDbEntity
  8
1
  6
Continuous
 62
     4
100
AcDbLine
 10
-28.0
 20
-16.4500007629395
 30
0.0
 11
-29.1330272076816
 21
-19.3417857262751
 31
0.0
  0
LINE
  5
476
330
1F
100
AcDbEntity
  8
100
  6
Continuous
 62
     3
100
AcDbLine
 10
35.0
 20
498.55
 30
0.0
 11
23.9511759856528
 21
498.55
 31
0.0
  0
LINE
  5
477
330
1F
100
AcDbEntity
  8
1
  6
Continuous
 62
     3
100
AcDbLine
 10
34.8045
 20
499.8545
 30
0.0
 11
23.7284540176149
 21
499.8545
 31
0.0
  0
LINE
  5
478
330
1F
100
AcDbEntity
  8
1
  6
Continuous
 62
     3
100
AcDbLine
 10
-34.8045
 20
499.8545
 30
0.0
 11
-23.7284616470094
 21
499.8545
 31
0.0
  0
LINE
  5
479
330
1F
100
AcDbEntity
  8
100
  6
Continuous
 62
     3
100
AcDbLine
 10
-35.0
 20
498.55
 30
0.0
 11
-23.9511836150472
 21
498.55
 31
0.0
  0
LINE
  5
47A
330
1F
100
AcDbEntity
  8
100
  6
Continuous
 62
     3
100
AcDbLine
 10
137.5
 20
-19.0
 30
0.0
 11
136.0
 21
-17.5
 31
0.0
  0
LINE
  5
47B
330
1F
100
AcDbEntity
  8
100
  6
Continuous
 62
     3
100
AcDbLine
 10
162.5
 20
-19.0
 30
0.0
 11
164.0
 21
-17.5
 31
0.0
  0
LINE
  5
47C
330
1F
100
AcDbEntity
  8
100
  6
Continuous
 62
     3
100
AcDbLine
 10
-12.5
 20
-19.0
 30
0.0
 11
-14.0
 21
-17.5
 31
0.0
  0
LINE
  5
47D
330
1F
100
AcDbEntity
  8
100
  6
Continuous
 62
     3
100
AcDbLine
 10
12.5
 20
-19.0
 30
0.0
 11
14.0
 21
-17.5
 31
0.0
  0
LINE
  5
47E
330
1F
100
AcDbEntity
  8
100
  6
Continuous
 62
     3
100
AcDbLine
 10
166.0
 20
22.9999997090997
 30
0.0
 11
134.0
 21
23.0000002909004
 31
0.0
  0
LINE
  5
47F
330
1F
100
AcDbEntity
  8
100
  6
Continuous
 62
     3
100
AcDbLine
 10
-21.0
 20
-16.45
 30
0.0
 11
-21.0
 21
16.45
 31
0.0
  0
LINE
  5
480
330
1F
100
AcDbEntity
  8
100
  6
Continuous
 62
     3
100
AcDbLine
 10
21.0
 20
16.45
 30
0.0
 11
21.0
 21
-16.45
 31
0.0
  0
LINE
  5
481
330
1F
100
AcDbEntity
  8
100
  6
Continuous
 62
     3
100
AcDbLine
 10
-19.05
 20
-14.5
 30
0.0
 11
-16.0
 21
-17.5
 31
0.0
  0
LINE
  5
482
330
1F
100
AcDbEntity
  8
100
  6
Continuous
 62
     3
100
AcDbLine
 10
-21.0
 20
-16.45
 30
0.0
 11
-19.05
 21
-14.5
 31
0.0
  0
LINE
  5
483
330
1F
100
AcDbEntity
  8
100
  6
Continuous
 62
     3
100
AcDbLine
 10
-19.05
 20
14.5
 30
0.0
 11
-16.0
 21
17.55
 31
0.0
  0
LINE
  5
484
330
1F
100
AcDbEntity
  8
100
  6
Continuous
 62
     3
100
AcDbLine
 10
-21.0
 20
16.45
 30
0.0
 11
-19.05
 21
14.5
 31
0.0
  0
LINE
  5
485
330
1F
100
AcDbEntity
  8
100
  6
Continuous
 62
     3
100
AcDbLine
 10
19.05
 20
-14.5
 30
0.0
 11
16.0
 21
-17.5
 31
0.0
  0
LINE
  5
486
330
1F
100
AcDbEntity
  8
100
  6
Continuous
 62
     3
100
AcDbLine
 10
21.0
 20
-16.45
 30
0.0
 11
19.05
 21
-14.5
 31
0.0
  0
LINE
  5
487
330
1F
100
AcDbEntity
  8
100
  6
Continuous
 62
     3
100
AcDbLine
 10
19.05
 20
14.5
 30
0.0
 11
16.0
 21
17.55
 31
0.0
  0
LINE
  5
488
330
1F
100
AcDbEntity
  8
100
  6
Continuous
 62
     3
100
AcDbLine
 10
21.0
 20
16.45
 30
0.0
 11
19.05
 21
14.5
 31
0.0
  0
LINE
  5
489
330
1F
100
AcDbEntity
  8
100
  6
Continuous
 62
     3
100
AcDbLine
 10
-11.0
 20
6.0
 30
0.0
 11
-16.0
 21
16.769566289208
 31
0.0
  0
LINE
  5
48A
330
1F
100
AcDbEntity
  8
100
  6
Continuous
 62
     3
100
AcDbLine
 10
-16.0
 20
-17.5
 30
0.0
 11
-11.0
 21
-6.0
 31
0.0
  0
LINE
  5
48B
330
1F
100
AcDbEntity
  8
100
  6
Continuous
 62
     3
100
AcDbLine
 10
11.0
 20
-6.0
 30
0.0
 11
16.0
 21
-17.5
 31
0.0
  0
LINE
  5
48C
330
1F
100
AcDbEntity
  8
100
  6
Continuous
 62
     3
100
AcDbLine
 10
16.0
 20
16.769566289208
 30
0.0
 11
11.0
 21
6.0
 31
0.0
  0
LINE
  5
48D
330
1F
100
AcDbEntity
  8
100
  6
Continuous
 62
     3
100
AcDbLine
 10
11.0
 20
-6.0
 30
0.0
 11
11.0
 21
6.0
 31
0.0
  0
LINE
  5
48E
330
1F
100
AcDbEntity
  8
100
  6
Continuous
 62
     3
100
AcDbLine
 10
-11.0
 20
-6.0
 30
0.0
 11
-11.0
 21
6.0
 31
0.0
  0
LINE
  5
48F
330
1F
100
AcDbEntity
  8
100
  6
Continuous
 62
     3
100
AcDbLine
 10
-11.0
 20
-6.0
 30
0.0
 11
11.0
 21
-6.0
 31
0.0
  0
LINE
  5
490
330
1F
100
AcDbEntity
  8
100
  6
Continuous
 62
     3
100
AcDbLine
 10
-11.0
 20
6.0
 30
0.0
 11
11.0
 21
6.0
 31
0.0
  0
LINE
  5
491
330
1F
100
AcDbEntity
  8
100
  6
Continuous
 62
     3
100
AcDbLine
 10
-16.0
 20
16.769566289208
 30
0.0
 11
16.0
 21
16.769566289208
 31
0.0
  0
LINE
  5
492
330
1F
100
AcDbEntity
  8
100
  6
Continuous
 62
     3
100
AcDbLine
 10
16.0
 20
23.0000002638498
 30
0.0
 11
-16.0
 21
23.0000002636176
 31
0.0
  0
LINE
  5
493
330
1F
100
AcDbEntity
  8
2
  6
Continuous
 62
     3
100
AcDbLine
 10
-8.16666666666674
 20
-1.5
 30
0.0
 11
-9.50000000000006
 21
-5.5
 31
0.0
  0
LINE
  5
494
330
1F
100
AcDbEntity
  8
2
  6
Continuous
 62
     3
100
AcDbLine
 10
0.33333333333337
 20
-1.5
 30
0.0
 11
-1.00000000000006
 21
-5.5
 31
0.0
  0
LINE
  5
495
330
1F
100
AcDbEntity
  8
2
  6
Continuous
 62
     3
100
AcDbLine
 10
9.5
 20
-1.5
 30
0.0
 11
5.0
 21
-5.5
 31
0.0
  0
LINE
  5
496
330
1F
100
AcDbEntity
  8
2
  6
Continuous
 62
     3
100
AcDbLine
 10
-9.50000000000006
 20
-5.5
 30
0.0
 11
-1.00000000000006
 21
-5.5
 31
0.0
  0
LINE
  5
497
330
1F
100
AcDbEntity
  8
2
  6
Continuous
 62
     3
100
AcDbLine
 10
-8.16666666666674
 20
-1.5
 30
0.0
 11
9.5
 21
-1.5
 31
0.0
  0
LINE
  5
498
330
1F
100
AcDbEntity
  8
100
  6
Continuous
 62
     3
100
AcDbLine
 10
134.0
 20
18.0
 30
0.0
 11
130.0
 21
6.0
 31
0.0
  0
LINE
  5
499
330
1F
100
AcDbEntity
  8
100
  6
Continuous
 62
     3
100
AcDbLine
 10
166.0
 20
18.0
 30
0.0
 11
170.0
 21
6.0
 31
0.0
  0
LINE
  5
49A
330
1F
100
AcDbEntity
  8
100
  6
Continuous
 62
     3
100
AcDbLine
 10
-35.0
 20
498.55
 30
0.0
 11
-35.0
 21
531.45
 31
0.0
  0
LINE
  5
49B
330
1F
100
AcDbEntity
  8
100
  6
Continuous
 62
     3
100
AcDbLine
 10
35.0
 20
498.55
 30
0.0
 11
35.0
 21
531.45
 31
0.0
  0
LINE
  5
49C
330
1F
100
AcDbEntity
  8
1
  6
Continuous
 62
     3
100
AcDbLine
 10
34.8045
 20
530.1455
 30
0.0
 11
23.7284961428538
 21
530.1455
 31
0.0
  0
LINE
  5
49D
330
1F
100
AcDbEntity
  8
100
  6
Continuous
 62
     3
100
AcDbLine
 10
35.0
 20
531.45
 30
0.0
 11
24.2128483849253
 21
531.45
 31
0.0
  0
LINE
  5
49E
330
1F
100
AcDbEntity
  8
1
  6
Continuous
 62
     3
100
AcDbLine
 10
-34.8045
 20
530.1455
 30
0.0
 11
-23.7285037722483
 21
530.1455
 31
0.0
  0
LINE
  5
49F
330
1F
100
AcDbEntity
  8
100
  6
Continuous
 62
     3
100
AcDbLine
 10
-35.0
 20
531.45
 30
0.0
 11
-24.2128560143198
 21
531.45
 31
0.0
  0
LINE
  5
4A0
330
1F
100
AcDbEntity
  8
100
  6
Continuous
 62
     3
100
AcDbLine
 10
134.0
 20
-3.8213217608571
 30
0.0
 11
134.0
 21
-17.5
 31
0.0
  0
LINE
  5
4A1
330
1F
100
AcDbEntity
  8
100
  6
Continuous
 62
     3
100
AcDbLine
 10
134.0
 20
23.0000002909004
 30
0.0
 11
134.0
 21
3.8213217608571
 31
0.0
  0
LINE
  5
4A2
330
1F
100
AcDbEntity
  8
100
  6
Continuous
 62
     3
100
AcDbLine
 10
130.0
 20
-6.0
 30
0.0
 11
134.0
 21
-17.5
 31
0.0
  0
LINE
  5
4A3
330
1F
100
AcDbEntity
  8
100
  6
Continuous
 62
     3
100
AcDbLine
 10
130.0
 20
6.0
 30
0.0
 11
130.0
 21
-6.0
 31
0.0
  0
LINE
  5
4A4
330
1F
100
AcDbEntity
  8
100
  6
Continuous
 62
     3
100
AcDbLine
 10
170.0
 20
-6.0
 30
0.0
 11
166.0
 21
-17.5
 31
0.0
  0
LINE
  5
4A5
330
1F
100
AcDbEntity
  8
100
  6
Continuous
 62
     3
100
AcDbLine
 10
134.0
 20
18.0
 30
0.0
 11
166.0
 21
18.0
 31
0.0
  0
LINE
  5
4A6
330
1F
100
AcDbEntity
  8
100
  6
Continuous
 62
     3
100
AcDbLine
 10
170.0
 20
6.0
 30
0.0
 11
170.0
 21
-6.0
 31
0.0
  0
LINE
  5
4A7
330
1F
100
AcDbEntity
  8
100
  6
Continuous
 62
     3
100
AcDbLine
 10
137.5
 20
-19.0
 30
0.0
 11
137.5
 21
-20.5
 31
0.0
  0
LINE
  5
4A8
330
1F
100
AcDbEntity
  8
100
  6
Continuous
 62
     3
100
AcDbLine
 10
162.5
 20
-19.0
 30
0.0
 11
162.5
 21
-20.5
 31
0.0
  0
LINE
  5
4A9
330
1F
100
AcDbEntity
  8
100
  6
Continuous
 62
     3
100
AcDbLine
 10
134.0
 20
-17.5
 30
0.0
 11
166.0
 21
-17.5
 31
0.0
  0
LINE
  5
4AA
330
1F
100
AcDbEntity
  8
100
  6
Continuous
 62
     3
100
AcDbLine
 10
163.0
 20
24.0
 30
0.0
 11
163.0
 21
22.9999997636435
 31
0.0
  0
LINE
  5
4AB
330
1F
100
AcDbEntity
  8
100
  6
Continuous
 62
     3
100
AcDbLine
 10
166.0
 20
-3.82132176085702
 30
0.0
 11
166.0
 21
-17.5
 31
0.0
  0
LINE
  5
4AC
330
1F
100
AcDbEntity
  8
100
  6
Continuous
 62
     3
100
AcDbLine
 10
166.0
 20
22.9999997090997
 30
0.0
 11
166.0
 21
3.82132176085699
 31
0.0
  0
LINE
  5
4AD
330
1F
100
AcDbEntity
  8
100
  6
Continuous
 62
     3
100
AcDbLine
 10
137.0
 20
24.0
 30
0.0
 11
137.0
 21
23.0000002363566
 31
0.0
  0
LINE
  5
4AE
330
1F
100
AcDbEntity
  8
100
  6
Continuous
 62
     3
100
AcDbLine
 10
-16.0
 20
-17.5
 30
0.0
 11
16.0
 21
-17.5
 31
0.0
  0
LINE
  5
4AF
330
1F
100
AcDbEntity
  8
100
  6
Continuous
 62
     3
100
AcDbLine
 10
12.5
 20
-19.0
 30
0.0
 11
12.5
 21
-20.5
 31
0.0
  0
LINE
  5
4B0
330
1F
100
AcDbEntity
  8
100
  6
Continuous
 62
     3
100
AcDbLine
 10
-12.5
 20
-19.0
 30
0.0
 11
-12.5
 21
-20.5
 31
0.0
  0
LINE
  5
4B1
330
1F
100
AcDbEntity
  8
1
  6
Continuous
 62
     3
100
AcDbLine
 10
35.0
 20
-15.1455
 30
0.0
 11
19.6955
 21
-15.1455
 31
0.0
  0
LINE
  5
4B2
330
1F
100
AcDbEntity
  8
100
  6
Continuous
 62
     3
100
AcDbLine
 10
35.0
 20
-16.45
 30
0.0
 11
21.0
 21
-16.45
 31
0.0
  0
LINE
  5
4B3
330
1F
100
AcDbEntity
  8
100
  6
Continuous
 62
     3
100
AcDbLine
 10
13.0
 20
24.0
 30
0.0
 11
13.0
 21
23.0000002638281
 31
0.0
  0
LINE
  5
4B4
330
1F
100
AcDbEntity
  8
100
  6
Continuous
 62
     3
100
AcDbLine
 10
16.0
 20
23.0000002638498
 30
0.0
 11
16.0
 21
-17.5
 31
0.0
  0
LINE
  5
4B5
330
1F
100
AcDbEntity
  8
1
  6
Continuous
 62
     3
100
AcDbLine
 10
35.0
 20
15.1455
 30
0.0
 11
19.6955
 21
15.1455
 31
0.0
  0
LINE
  5
4B6
330
1F
100
AcDbEntity
  8
100
  6
Continuous
 62
     3
100
AcDbLine
 10
35.0
 20
16.45
 30
0.0
 11
21.0
 21
16.45
 31
0.0
  0
LINE
  5
4B7
330
1F
100
AcDbEntity
  8
100
  6
Continuous
 62
     3
100
AcDbLine
 10
35.0
 20
16.45
 30
0.0
 11
35.0
 21
-16.45
 31
0.0
  0
LINE
  5
4B8
330
1F
100
AcDbEntity
  8
100
  6
Continuous
 62
     3
100
AcDbLine
 10
-16.0
 20
23.0000002636176
 30
0.0
 11
-16.0
 21
-17.5
 31
0.0
  0
LINE
  5
4B9
330
1F
100
AcDbEntity
  8
100
  6
Continuous
 62
     3
100
AcDbLine
 10
-13.0
 20
24.0
 30
0.0
 11
-13.0
 21
23.0000002636393
 31
0.0
  0
LINE
  5
4BA
330
1F
100
AcDbEntity
  8
1
  6
Continuous
 62
     3
100
AcDbLine
 10
-35.0
 20
-15.1455
 30
0.0
 11
-19.6955
 21
-15.1455
 31
0.0
  0
LINE
  5
4BB
330
1F
100
AcDbEntity
  8
1
  6
Continuous
 62
     3
100
AcDbLine
 10
-35.0
 20
15.1455
 30
0.0
 11
-19.6955
 21
15.1455
 31
0.0
  0
LINE
  5
4BC
330
1F
100
AcDbEntity
  8
100
  6
Continuous
 62
     3
100
AcDbLine
 10
-35.0
 20
-16.45
 30
0.0
 11
-21.0
 21
-16.45
 31
0.0
  0
LINE
  5
4BD
330
1F
100
AcDbEntity
  8
100
  6
Continuous
 62
     3
100
AcDbLine
 10
-35.0
 20
16.45
 30
0.0
 11
-21.0
 21
16.45
 31
0.0
  0
LINE
  5
4BE
330
1F
100
AcDbEntity
  8
100
  6
Continuous
 62
     3
100
AcDbLine
 10
-35.0
 20
16.45
 30
0.0
 11
-35.0
 21
-16.45
 31
0.0
  0
LINE
  5
4BF
330
1F
100
AcDbEntity
  8
100
  6
Continuous
 62
     3
100
AcDbLine
 10
156.0
 20
409.5
 30
0.0
 11
156.0
 21
423.0
 31
0.0
  0
LINE
  5
4C0
330
1F
100
AcDbEntity
  8
100
  6
Continuous
 62
     3
100
AcDbLine
 10
144.0
 20
409.5
 30
0.0
 11
144.0
 21
423.0
 31
0.0
  0
LINE
  5
4C1
330
1F
100
AcDbEntity
  8
100
  6
Continuous
 62
     3
100
AcDbLine
 10
137.128646181994
 20
443.0
 30
0.0
 11
123.255982692232
 21
438.7856795241
 31
0.0
  0
LINE
  5
4C2
330
1F
100
AcDbEntity
  8
100
  6
Continuous
 62
     3
100
AcDbLine
 10
137.128646181994
 20
443.0
 30
0.0
 11
162.871353818006
 21
443.0
 31
0.0
  0
LINE
  5
4C3
330
1F
100
AcDbEntity
  8
100
  6
Continuous
 62
     3
100
AcDbLine
 10
162.871353818006
 20
443.0
 30
0.0
 11
176.744017307768
 21
438.7856795241
 31
0.0
  0
LINE
  5
4C4
330
1F
100
AcDbEntity
  8
100
  6
Continuous
 62
     3
100
AcDbLine
 10
119.0
 20
433.044738518463
 30
0.0
 11
119.0
 21
423.0
 31
0.0
  0
LINE
  5
4C5
330
1F
100
AcDbEntity
  8
100
  6
Continuous
 62
     3
100
AcDbLine
 10
125.94904402522
 20
433.044738518463
 30
0.0
 11
125.94904402522
 21
425.0
 31
0.0
  0
LINE
  5
4C6
330
1F
100
AcDbEntity
  8
100
  6
Continuous
 62
     3
100
AcDbLine
 10
174.05095597478
 20
433.044738518463
 30
0.0
 11
174.05095597478
 21
425.0
 31
0.0
  0
LINE
  5
4C7
330
1F
100
AcDbEntity
  8
100
  6
Continuous
 62
     3
100
AcDbLine
 10
181.0
 20
433.044738518463
 30
0.0
 11
181.0
 21
423.0
 31
0.0
  0
LINE
  5
4C8
330
1F
100
AcDbEntity
  8
100
  6
Continuous
 62
     3
100
AcDbLine
 10
119.0
 20
423.0
 30
0.0
 11
181.0
 21
423.0
 31
0.0
  0
LINE
  5
4C9
330
1F
100
AcDbEntity
  8
100
  6
Continuous
 62
     3
100
AcDbLine
 10
137.0
 20
393.499999999999
 30
0.0
 11
163.0
 21
393.499999999999
 31
0.0
  0
LINE
  5
4CA
330
1F
100
AcDbEntity
  8
100
  6
Continuous
 62
     3
100
AcDbLine
 10
166.0
 20
391.767949192431
 30
0.0
 11
134.0
 21
391.767949192431
 31
0.0
  0
LINE
  5
4CB
330
1F
100
AcDbEntity
  8
100
  6
Continuous
 62
     3
100
AcDbLine
 10
166.0
 20
370.5
 30
0.0
 11
166.0
 21
391.767949192431
 31
0.0
  0
LINE
  5
4CC
330
1F
100
AcDbEntity
  8
100
  6
Continuous
 62
     3
100
AcDbLine
 10
164.139014578904
 20
370.5
 30
0.0
 11
164.139014578904
 21
391.767949192431
 31
0.0
  0
LINE
  5
4CD
330
1F
100
AcDbEntity
  8
100
  6
Continuous
 62
     3
100
AcDbLine
 10
151.860985421096
 20
370.5
 30
0.0
 11
151.860985421096
 21
391.767949192431
 31
0.0
  0
LINE
  5
4CE
330
1F
100
AcDbEntity
  8
100
  6
Continuous
 62
     3
100
AcDbLine
 10
148.139014578904
 20
370.5
 30
0.0
 11
148.139014578904
 21
391.767949192431
 31
0.0
  0
LINE
  5
4CF
330
1F
100
AcDbEntity
  8
100
  6
Continuous
 62
     3
100
AcDbLine
 10
135.860985421096
 20
370.5
 30
0.0
 11
135.860985421096
 21
391.767949192431
 31
0.0
  0
LINE
  5
4D0
330
1F
100
AcDbEntity
  8
100
  6
Continuous
 62
     3
100
AcDbLine
 10
134.0
 20
370.5
 30
0.0
 11
134.0
 21
391.767949192431
 31
0.0
  0
LINE
  5
4D1
330
1F
100
AcDbEntity
  8
100
  6
Continuous
 62
     3
100
AcDbLine
 10
166.0
 20
370.5
 30
0.0
 11
134.0
 21
370.5
 31
0.0
  0
LINE
  5
4D2
330
1F
100
AcDbEntity
  8
100
  6
Continuous
 62
     3
100
AcDbLine
 10
137.0
 20
393.499999999999
 30
0.0
 11
134.0
 21
391.767949192431
 31
0.0
  0
LINE
  5
4D3
330
1F
100
AcDbEntity
  8
100
  6
Continuous
 62
     3
100
AcDbLine
 10
163.0
 20
393.499999999999
 30
0.0
 11
166.0
 21
391.767949192431
 31
0.0
  0
LINE
  5
4D4
330
1F
100
AcDbEntity
  8
100
  6
Continuous
 62
     3
100
AcDbLine
 10
163.0
 20
409.5
 30
0.0
 11
163.0
 21
393.499999999999
 31
0.0
  0
LINE
  5
4D5
330
1F
100
AcDbEntity
  8
100
  6
Continuous
 62
     3
100
AcDbLine
 10
163.0
 20
409.5
 30
0.0
 11
137.0
 21
409.5
 31
0.0
  0
LINE
  5
4D6
330
1F
100
AcDbEntity
  8
100
  6
Continuous
 62
     3
100
AcDbLine
 10
137.0
 20
409.5
 30
0.0
 11
137.0
 21
393.499999999999
 31
0.0
  0
LINE
  5
4D7
330
1F
100
AcDbEntity
  8
100
  6
Continuous
 62
     3
100
AcDbLine
 10
167.0
 20
59.0
 30
0.0
 11
167.0
 21
52.0
 31
0.0
  0
LINE
  5
4D8
330
1F
100
AcDbEntity
  8
100
  6
Continuous
 62
     3
100
AcDbLine
 10
133.0
 20
59.0
 30
0.0
 11
167.0
 21
59.0
 31
0.0
  0
LINE
  5
4D9
330
1F
100
AcDbEntity
  8
100
  6
Continuous
 62
     3
100
AcDbLine
 10
133.0
 20
59.0
 30
0.0
 11
133.0
 21
52.0
 31
0.0
  0
LINE
  5
4DA
330
1F
100
AcDbEntity
  8
100
  6
Continuous
 62
     3
100
AcDbLine
 10
129.0
 20
52.0
 30
0.0
 11
129.0
 21
24.0
 31
0.0
  0
LINE
  5
4DB
330
1F
100
AcDbEntity
  8
100
  6
Continuous
 62
     3
100
AcDbLine
 10
129.0
 20
52.0
 30
0.0
 11
171.0
 21
52.0
 31
0.0
  0
LINE
  5
4DC
330
1F
100
AcDbEntity
  8
100
  6
Continuous
 62
     3
100
AcDbLine
 10
171.0
 20
52.0
 30
0.0
 11
171.0
 21
24.0
 31
0.0
  0
LINE
  5
4DD
330
1F
100
AcDbEntity
  8
100
  6
Continuous
 62
     3
100
AcDbLine
 10
129.0
 20
24.0
 30
0.0
 11
171.0
 21
24.0
 31
0.0
  0
LINE
  5
4DE
330
1F
100
AcDbEntity
  8
100
  6
Continuous
 62
     3
100
AcDbLine
 10
136.4
 20
162.0
 30
0.0
 11
136.4
 21
59.0
 31
0.0
  0
LINE
  5
4DF
330
1F
100
AcDbEntity
  8
100
  6
Continuous
 62
     3
100
AcDbLine
 10
136.4
 20
370.5
 30
0.0
 11
136.4
 21
166.0
 31
0.0
  0
LINE
  5
4E0
330
1F
100
AcDbEntity
  8
100
  6
Continuous
 62
     3
100
AcDbLine
 10
163.6
 20
162.0
 30
0.0
 11
163.6
 21
59.0
 31
0.0
  0
LINE
  5
4E1
330
1F
100
AcDbEntity
  8
100
  6
Continuous
 62
     3
100
AcDbLine
 10
163.6
 20
370.5
 30
0.0
 11
163.6
 21
166.0
 31
0.0
  0
LINE
  5
4E2
330
1F
100
AcDbEntity
  8
1
  6
DOT_CENTER
 62
     1
100
AcDbLine
 10
150.0
 20
448.0
 30
0.0
 11
150.0
 21
-36.5
 31
0.0
  0
LINE
  5
4E3
330
1F
100
AcDbEntity
  8
100
  6
Continuous
 62
     3
100
AcDbLine
 10
137.678174619504
 20
-31.5
 30
0.0
 11
137.678174619504
 21
-20.5
 31
0.0
  0
LINE
  5
4E4
330
1F
100
AcDbEntity
  8
100
  6
Continuous
 62
     3
100
AcDbLine
 10
162.321825380497
 20
-31.5
 30
0.0
 11
162.321825380497
 21
-20.5
 31
0.0
  0
LINE
  5
4E5
330
1F
100
AcDbEntity
  8
100
  6
Continuous
 62
     3
100
AcDbLine
 10
152.678174619503
 20
-31.5
 30
0.0
 11
152.678174619503
 21
-20.5
 31
0.0
  0
LINE
  5
4E6
330
1F
100
AcDbEntity
  8
100
  6
Continuous
 62
     3
100
AcDbLine
 10
147.321825380496
 20
-31.5
 30
0.0
 11
147.321825380496
 21
-20.5
 31
0.0
  0
LINE
  5
4E7
330
1F
100
AcDbEntity
  8
100
  6
Continuous
 62
     3
100
AcDbLine
 10
165.0
 20
-20.5
 30
0.0
 11
165.0
 21
-31.5
 31
0.0
  0
LINE
  5
4E8
330
1F
100
AcDbEntity
  8
100
  6
Continuous
 62
     3
100
AcDbLine
 10
135.0
 20
-20.5
 30
0.0
 11
135.0
 21
-31.5
 31
0.0
  0
LINE
  5
4E9
330
1F
100
AcDbEntity
  8
100
  6
Continuous
 62
     3
100
AcDbLine
 10
135.0
 20
-31.5
 30
0.0
 11
165.0
 21
-31.5
 31
0.0
  0
LINE
  5
4EA
330
1F
100
AcDbEntity
  8
100
  6
Continuous
 62
     3
100
AcDbLine
 10
135.0
 20
-20.5
 30
0.0
 11
165.0
 21
-20.5
 31
0.0
  0
LINE
  5
4EB
330
1F
100
AcDbEntity
  8
100
  6
Continuous
 62
     3
100
AcDbLine
 10
10.2064988753517
 20
-31.5
 30
0.0
 11
10.2064988753517
 21
-20.5
 31
0.0
  0
LINE
  5
4EC
330
1F
100
AcDbEntity
  8
100
  6
Continuous
 62
     3
100
AcDbLine
 10
5.56776436283002
 20
-31.5
 30
0.0
 11
5.56776436283002
 21
-20.5
 31
0.0
  0
LINE
  5
4ED
330
1F
100
AcDbEntity
  8
100
  6
Continuous
 62
     3
100
AcDbLine
 10
-5.56776436283002
 20
-31.5
 30
0.0
 11
-5.56776436283002
 21
-20.5
 31
0.0
  0
LINE
  5
4EE
330
1F
100
AcDbEntity
  8
100
  6
Continuous
 62
     3
100
AcDbLine
 10
-10.2064988753516
 20
-31.5
 30
0.0
 11
-10.2064988753516
 21
-20.5
 31
0.0
  0
LINE
  5
4EF
330
1F
100
AcDbEntity
  8
1
  6
DOT_CENTER
 62
     1
100
AcDbLine
 10
0.0
 20
479.000000000001
 30
0.0
 11
0.0
 21
550.999999999999
 31
0.0
  0
LINE
  5
4F0
330
1F
100
AcDbEntity
  8
1
  6
DOT_CENTER
 62
     1
100
AcDbLine
 10
37.5
 20
515.0
 30
0.0
 11
-37.5
 21
515.0
 31
0.0
  0
LINE
  5
4F1
330
1F
100
AcDbEntity
  8
1
  6
DOT_CENTER
 62
     1
100
AcDbLine
 10
125.0
 20
0.0
 30
0.0
 11
175.0
 21
0.0
 31
0.0
  0
LINE
  5
4F2
330
1F
100
AcDbEntity
  8
100
  6
Continuous
 62
     3
100
AcDbLine
 10
-13.0
 20
393.499999999999
 30
0.0
 11
13.0
 21
393.499999999999
 31
0.0
  0
LINE
  5
4F3
330
1F
100
AcDbEntity
  8
100
  6
Continuous
 62
     3
100
AcDbLine
 10
-17.5
 20
390.901923788647
 30
0.0
 11
17.5
 21
390.901923788647
 31
0.0
  0
LINE
  5
4F4
330
1F
100
AcDbEntity
  8
100
  6
Continuous
 62
     3
100
AcDbLine
 10
10.3120447408616
 20
370.5
 30
0.0
 11
10.3120447408616
 21
390.901923788647
 31
0.0
  0
LINE
  5
4F5
330
1F
100
AcDbEntity
  8
100
  6
Continuous
 62
     3
100
AcDbLine
 10
7.0887234393789
 20
370.5
 30
0.0
 11
7.0887234393789
 21
390.901923788647
 31
0.0
  0
LINE
  5
4F6
330
1F
100
AcDbEntity
  8
100
  6
Continuous
 62
     3
100
AcDbLine
 10
-7.0887234393789
 20
370.5
 30
0.0
 11
-7.0887234393789
 21
390.901923788647
 31
0.0
  0
LINE
  5
4F7
330
1F
100
AcDbEntity
  8
100
  6
Continuous
 62
     3
100
AcDbLine
 10
-10.3120447408616
 20
370.5
 30
0.0
 11
-10.3120447408616
 21
390.901923788647
 31
0.0
  0
LINE
  5
4F8
330
1F
100
AcDbEntity
  8
100
  6
Continuous
 62
     3
100
AcDbLine
 10
-13.0
 20
409.5
 30
0.0
 11
-13.0
 21
393.499999999999
 31
0.0
  0
LINE
  5
4F9
330
1F
100
AcDbEntity
  8
100
  6
Continuous
 62
     3
100
AcDbLine
 10
13.0
 20
409.5
 30
0.0
 11
-13.0
 21
409.5
 31
0.0
  0
LINE
  5
4FA
330
1F
100
AcDbEntity
  8
100
  6
Continuous
 62
     3
100
AcDbLine
 10
13.0
 20
409.5
 30
0.0
 11
13.0
 21
393.499999999999
 31
0.0
  0
LINE
  5
4FB
330
1F
100
AcDbEntity
  8
100
  6
Continuous
 62
     3
100
AcDbLine
 10
13.0
 20
393.499999999999
 30
0.0
 11
17.5
 21
390.901923788647
 31
0.0
  0
LINE
  5
4FC
330
1F
100
AcDbEntity
  8
100
  6
Continuous
 62
     3
100
AcDbLine
 10
17.5
 20
390.901923788647
 30
0.0
 11
17.5
 21
370.5
 31
0.0
  0
LINE
  5
4FD
330
1F
100
AcDbEntity
  8
100
  6
Continuous
 62
     3
100
AcDbLine
 10
17.5
 20
370.5
 30
0.0
 11
-17.5
 21
370.5
 31
0.0
  0
LINE
  5
4FE
330
1F
100
AcDbEntity
  8
100
  6
Continuous
 62
     3
100
AcDbLine
 10
-17.5
 20
390.901923788647
 30
0.0
 11
-17.5
 21
370.5
 31
0.0
  0
LINE
  5
4FF
330
1F
100
AcDbEntity
  8
100
  6
Continuous
 62
     3
100
AcDbLine
 10
-13.0
 20
393.499999999999
 30
0.0
 11
-17.5
 21
390.901923788647
 31
0.0
  0
LINE
  5
500
330
1F
100
AcDbEntity
  8
100
  6
Continuous
 62
     3
100
AcDbLine
 10
24.05095597478
 20
433.044738518463
 30
0.0
 11
24.05095597478
 21
425.0
 31
0.0
  0
LINE
  5
501
330
1F
100
AcDbEntity
  8
100
  6
Continuous
 62
     3
100
AcDbLine
 10
12.8713538180065
 20
443.0
 30
0.0
 11
26.744017307768
 21
438.7856795241
 31
0.0
  0
LINE
  5
502
330
1F
100
AcDbEntity
  8
100
  6
Continuous
 62
     3
100
AcDbLine
 10
31.0
 20
433.044738518463
 30
0.0
 11
31.0
 21
423.0
 31
0.0
  0
LINE
  5
503
330
1F
100
AcDbEntity
  8
100
  6
Continuous
 62
     3
100
AcDbLine
 10
-24.05095597478
 20
433.044738518463
 30
0.0
 11
-24.05095597478
 21
425.0
 31
0.0
  0
LINE
  5
504
330
1F
100
AcDbEntity
  8
100
  6
Continuous
 62
     3
100
AcDbLine
 10
-12.8713538180065
 20
443.0
 30
0.0
 11
12.8713538180065
 21
443.0
 31
0.0
  0
LINE
  5
505
330
1F
100
AcDbEntity
  8
100
  6
Continuous
 62
     3
100
AcDbLine
 10
-31.0
 20
423.0
 30
0.0
 11
31.0
 21
423.0
 31
0.0
  0
LINE
  5
506
330
1F
100
AcDbEntity
  8
100
  6
Continuous
 62
     3
100
AcDbLine
 10
-31.0
 20
433.044738518463
 30
0.0
 11
-31.0
 21
423.0
 31
0.0
  0
LINE
  5
507
330
1F
100
AcDbEntity
  8
100
  6
Continuous
 62
     3
100
AcDbLine
 10
-12.8713538180065
 20
443.0
 30
0.0
 11
-26.7440173077684
 21
438.7856795241
 31
0.0
  0
LINE
  5
508
330
1F
100
AcDbEntity
  8
3
  6
CENTER
 62
     6
100
AcDbLine
 10
-12.8713538180065
 20
434.5
 30
0.0
 11
12.8713538180065
 21
434.5
 31
0.0
  0
LINE
  5
509
330
1F
100
AcDbEntity
  8
3
  6
CENTER
 62
     6
100
AcDbLine
 10
12.8713538180065
 20
434.5
 30
0.0
 11
26.744017307768
 21
430.2856795241
 31
0.0
  0
LINE
  5
50A
330
1F
100
AcDbEntity
  8
3
  6
CENTER
 62
     6
100
AcDbLine
 10
31.0
 20
424.544738518463
 30
0.0
 11
31.0
 21
414.5
 31
0.0
  0
LINE
  5
50B
330
1F
100
AcDbEntity
  8
3
  6
CENTER
 62
     6
100
AcDbLine
 10
-31.0
 20
414.5
 30
0.0
 11
31.0
 21
414.5
 31
0.0
  0
LINE
  5
50C
330
1F
100
AcDbEntity
  8
3
  6
CENTER
 62
     6
100
AcDbLine
 10
-31.0
 20
424.544738518463
 30
0.0
 11
-31.0
 21
414.5
 31
0.0
  0
LINE
  5
50D
330
1F
100
AcDbEntity
  8
3
  6
CENTER
 62
     6
100
AcDbLine
 10
-12.8713538180065
 20
434.5
 30
0.0
 11
-26.7440173077684
 21
430.2856795241
 31
0.0
  0
LINE
  5
50E
330
1F
100
AcDbEntity
  8
100
  6
Continuous
 62
     3
100
AcDbLine
 10
-21.0
 20
24.0
 30
0.0
 11
21.0
 21
24.0
 31
0.0
  0
LINE
  5
50F
330
1F
100
AcDbEntity
  8
100
  6
Continuous
 62
     3
100
AcDbLine
 10
-21.0
 20
52.0
 30
0.0
 11
-21.0
 21
24.0
 31
0.0
  0
LINE
  5
510
330
1F
100
AcDbEntity
  8
100
  6
Continuous
 62
     3
100
AcDbLine
 10
21.0
 20
52.0
 30
0.0
 11
21.0
 21
24.0
 31
0.0
  0
LINE
  5
511
330
1F
100
AcDbEntity
  8
100
  6
Continuous
 62
     3
100
AcDbLine
 10
-6.0
 20
409.5
 30
0.0
 11
-6.0
 21
423.0
 31
0.0
  0
LINE
  5
512
330
1F
100
AcDbEntity
  8
100
  6
Continuous
 62
     3
100
AcDbLine
 10
6.0
 20
409.5
 30
0.0
 11
6.0
 21
423.0
 31
0.0
  0
LINE
  5
513
330
1F
100
AcDbEntity
  8
100
  6
Continuous
 62
     3
100
AcDbLine
 10
-13.6
 20
197.0
 30
0.0
 11
-13.6
 21
59.0
 31
0.0
  0
LINE
  5
514
330
1F
100
AcDbEntity
  8
100
  6
Continuous
 62
     3
100
AcDbLine
 10
-13.6
 20
370.5
 30
0.0
 11
-13.6
 21
201.0
 31
0.0
  0
LINE
  5
515
330
1F
100
AcDbEntity
  8
100
  6
Continuous
 62
     3
100
AcDbLine
 10
13.6
 20
197.0
 30
0.0
 11
13.6
 21
59.0
 31
0.0
  0
LINE
  5
516
330
1F
100
AcDbEntity
  8
100
  6
Continuous
 62
     3
100
AcDbLine
 10
13.6
 20
370.5
 30
0.0
 11
13.6
 21
201.0
 31
0.0
  0
LINE
  5
517
330
1F
100
AcDbEntity
  8
100
  6
Continuous
 62
     3
100
AcDbLine
 10
-16.0
 20
-31.5
 30
0.0
 11
16.0
 21
-31.5
 31
0.0
  0
LINE
  5
518
330
1F
100
AcDbEntity
  8
100
  6
Continuous
 62
     3
100
AcDbLine
 10
-16.0
 20
-20.5
 30
0.0
 11
-16.0
 21
-31.5
 31
0.0
  0
LINE
  5
519
330
1F
100
AcDbEntity
  8
100
  6
Continuous
 62
     3
100
AcDbLine
 10
16.0
 20
-20.5
 30
0.0
 11
16.0
 21
-31.5
 31
0.0
  0
LINE
  5
51A
330
1F
100
AcDbEntity
  8
100
  6
Continuous
 62
     3
100
AcDbLine
 10
-16.0
 20
-20.5
 30
0.0
 11
16.0
 21
-20.5
 31
0.0
  0
LINE
  5
51B
330
1F
100
AcDbEntity
  8
100
  6
Continuous
 62
     3
100
AcDbLine
 10
-17.0
 20
59.0
 30
0.0
 11
-17.0
 21
52.0
 31
0.0
  0
LINE
  5
51C
330
1F
100
AcDbEntity
  8
100
  6
Continuous
 62
     3
100
AcDbLine
 10
17.0
 20
59.0
 30
0.0
 11
17.0
 21
52.0
 31
0.0
  0
LINE
  5
51D
330
1F
100
AcDbEntity
  8
100
  6
Continuous
 62
     3
100
AcDbLine
 10
-21.0
 20
52.0
 30
0.0
 11
21.0
 21
52.0
 31
0.0
  0
LINE
  5
51E
330
1F
100
AcDbEntity
  8
100
  6
Continuous
 62
     3
100
AcDbLine
 10
-17.0
 20
59.0
 30
0.0
 11
17.0
 21
59.0
 31
0.0
  0
LINE
  5
51F
330
1F
100
AcDbEntity
  8
1
  6
DOT_CENTER
 62
     1
100
AcDbLine
 10
-40.0
 20
0.0
 30
0.0
 11
40.0
 21
0.0
 31
0.0
  0
LINE
  5
520
330
1F
100
AcDbEntity
  8
1
  6
DOT_CENTER
 62
     1
100
AcDbLine
 10
0.0
 20
448.0
 30
0.0
 11
0.0
 21
-36.5
 31
0.0
  0
LINE
  5
521
330
1F
100
AcDbEntity
  8
1
  6
Continuous
 62
     4
100
AcDbLine
 10
29.1330272076816
 20
-19.3417857262751
 30
0.0
 11
28.0
 21
-16.4500007629395
 31
0.0
  0
LINE
  5
522
330
1F
100
AcDbEntity
  8
1
  6
Continuous
 62
     4
100
AcDbLine
 10
30.427122826699
 20
-18.3878463996292
 30
0.0
 11
28.0
 21
-16.4500007629395
 31
0.0
  0
ARC
  5
523
330
1F
100
AcDbEntity
  8
100
  6
Continuous
 62
     3
100
AcDbCircle
 10
23.9999961853027
 20
515.0
 30
0.0
 40
6.999999999999999
100
AcDbArc
 50
299.7444772579387
 51
60.25552274205987
  0
ARC
  5
524
330
1F
100
AcDbEntity
  8
100
  6
Continuous
 62
     3
100
AcDbCircle
 10
31.4419884201731
 20
501.976300388287
 30
0.0
 40
8.000000000000181
100
AcDbArc
 50
119.7444772579377
 51
195.2555227420622
  0
ARC
  5
525
330
1F
100
AcDbEntity
  8
100
  6
Continuous
 62
     3
100
AcDbCircle
 10
16.9705589337799
 20
498.029437251523
 30
0.0
 40
7.000000000000166
100
AcDbArc
 50
254.7444772579383
 51
15.25552274205839
  0
ARC
  5
526
330
1F
100
AcDbEntity
  8
100
  6
Continuous
 62
     3
100
AcDbCircle
 10
13.0236957970155
 20
483.55800776513
 30
0.0
 40
7.999999999999642
100
AcDbArc
 50
74.74447725793738
 51
150.2555227420625
  0
ARC
  5
527
330
1F
100
AcDbEntity
  8
100
  6
Continuous
 62
     3
100
AcDbCircle
 10
-0.00000381469727
 20
491.0
 30
0.0
 40
6.999999999999869
100
AcDbArc
 50
209.7444772579372
 51
330.255522742063
  0
ARC
  5
528
330
1F
100
AcDbEntity
  8
100
  6
Continuous
 62
     3
100
AcDbCircle
 10
-13.0237034264102
 20
483.558007765129
 30
0.0
 40
8.00000000000053
100
AcDbArc
 50
29.74447725794314
 51
105.25552274206
  0
ARC
  5
529
330
1F
100
AcDbEntity
  8
100
  6
Continuous
 62
     3
100
AcDbCircle
 10
-16.9705665631743
 20
498.029437251523
 30
0.0
 40
6.999999999999972
100
AcDbArc
 50
164.7444772579412
 51
285.2555227420602
  0
ARC
  5
52A
330
1F
100
AcDbEntity
  8
100
  6
Continuous
 62
     3
100
AcDbCircle
 10
-31.4419960495676
 20
501.976300388287
 30
0.0
 40
8.000000000000016
100
AcDbArc
 50
344.7444772579383
 51
60.25552274206292
  0
ARC
  5
52B
330
1F
100
AcDbEntity
  8
100
  6
Continuous
 62
     3
100
AcDbCircle
 10
-24.0000038146973
 20
515.0
 30
0.0
 40
6.999999999999948
100
AcDbArc
 50
119.744477257938
 51
240.2555227420613
  0
ARC
  5
52C
330
1F
100
AcDbEntity
  8
100
  6
Continuous
 62
     3
100
AcDbCircle
 10
-31.4419960495677
 20
528.023699611713
 30
0.0
 40
8.000000000000231
100
AcDbArc
 50
299.7444772579383
 51
15.25552274206182
  0
ARC
  5
52D
330
1F
100
AcDbEntity
  8
100
  6
Continuous
 62
     3
100
AcDbCircle
 10
-16.9705665631744
 20
531.970562748477
 30
0.0
 40
7.00000000000014
100
AcDbArc
 50
74.74447725793901
 51
195.2555227420591
  0
ARC
  5
52E
330
1F
100
AcDbEntity
  8
100
  6
Continuous
 62
     3
100
AcDbCircle
 10
-13.0237034264102
 20
546.441992234871
 30
0.0
 40
8.000000000000547
100
AcDbArc
 50
254.7444772579399
 51
330.2555227420568
  0
ARC
  5
52F
330
1F
100
AcDbEntity
  8
100
  6
Continuous
 62
     3
100
AcDbCircle
 10
-0.00000381469727
 20
539.0
 30
0.0
 40
6.999999999999903
100
AcDbArc
 50
29.74447725793705
 51
150.2555227420629
  0
ARC
  5
530
330
1F
100
AcDbEntity
  8
100
  6
Continuous
 62
     3
100
AcDbCircle
 10
13.0236957970157
 20
546.441992234871
 30
0.0
 40
8.000000000000528
100
AcDbArc
 50
209.7444772579431
 51
285.2555227420615
  0
ARC
  5
531
330
1F
100
AcDbEntity
  8
100
  6
Continuous
 62
     3
100
AcDbCircle
 10
16.9705589337799
 20
531.970562748477
 30
0.0
 40
6.999999999999895
100
AcDbArc
 50
344.7444772579406
 51
105.2555227420594
  0
ARC
  5
532
330
1F
100
AcDbEntity
  8
100
  6
Continuous
 62
     3
100
AcDbCircle
 10
31.4419884201731
 20
528.023699611713
 30
0.0
 40
8.000000000000016
100
AcDbArc
 50
164.7444772579384
 51
240.2555227420635
  0
ARC
  5
533
330
1F
100
AcDbEntity
  8
100
  6
Continuous
 62
     3
100
AcDbCircle
 10
125.0
 20
433.044738518463
 30
0.0
 40
5.999999999999851
100
AcDbArc
 50
106.8980453281941
 51
180.0
  0
ARC
  5
534
330
1F
100
AcDbEntity
  8
100
  6
Continuous
 62
     3
100
AcDbCircle
 10
131.94904402522
 20
433.044738518463
 30
0.0
 40
5.999999999999852
100
AcDbArc
 50
121.2094430364671
 51
180.0
  0
ARC
  5
535
330
1F
100
AcDbEntity
  8
100
  6
Continuous
 62
     3
100
AcDbCircle
 10
168.05095597478
 20
433.044738518463
 30
0.0
 40
6.0
100
AcDbArc
 50
0.0
 51
58.79055696353285
  0
ARC
  5
536
330
1F
100
AcDbEntity
  8
100
  6
Continuous
 62
     3
100
AcDbCircle
 10
175.0
 20
433.044738518463
 30
0.0
 40
6.0
100
AcDbArc
 50
0.0
 51
73.10195467180606
  0
ARC
  5
537
330
1F
100
AcDbEntity
  8
100
  6
Continuous
 62
     3
100
AcDbCircle
 10
18.05095597478
 20
433.044738518463
 30
0.0
 40
6.0
100
AcDbArc
 50
0.0
 51
58.79055696353183
  0
ARC
  5
538
330
1F
100
AcDbEntity
  8
100
  6
Continuous
 62
     3
100
AcDbCircle
 10
25.0
 20
433.044738518463
 30
0.0
 40
6.0
100
AcDbArc
 50
0.0
 51
73.10195467180597
  0
ARC
  5
539
330
1F
100
AcDbEntity
  8
100
  6
Continuous
 62
     3
100
AcDbCircle
 10
-18.05095597478
 20
433.044738518463
 30
0.0
 40
5.999999999999917
100
AcDbArc
 50
121.2094430364682
 51
180.0
  0
ARC
  5
53A
330
1F
100
AcDbEntity
  8
100
  6
Continuous
 62
     3
100
AcDbCircle
 10
-25.0
 20
433.044738518463
 30
0.0
 40
5.999999999999965
100
AcDbArc
 50
106.8980453281977
 51
180.0
  0
ARC
  5
53B
330
1F
100
AcDbEntity
  8
3
  6
CENTER
 62
     6
100
AcDbCircle
 10
25.0
 20
424.544738518463
 30
0.0
 40
6.0
100
AcDbArc
 50
0.0
 51
73.10195467180597
  0
ARC
  5
53C
330
1F
100
AcDbEntity
  8
3
  6
CENTER
 62
     6
100
AcDbCircle
 10
-25.0
 20
424.544738518463
 30
0.0
 40
5.999999999999965
100
AcDbArc
 50
106.8980453281977
 51
180.0
  0
CIRCLE
  5
53D
330
1F
100
AcDbEntity
  8
100
  6
Continuous
 62
     3
100
AcDbCircle
 10
150.0
 20
0.0
 30
0.0
 40
16.44999999999999
  0
CIRCLE
  5
53E
330
1F
100
AcDbEntity
  8
1
  6
Continuous
 62
     3
100
AcDbCircle
 10
150.0
 20
0.0
 30
0.0
 40
15.1455
  0
CIRCLE
  5
53F
330
1F
100
AcDbEntity
  8
100
  6
Continuous
 62
     3
100
AcDbCircle
 10
150.0
 20
0.0
 30
0.0
 40
12.47499999999999
  0
CIRCLE
  5
540
330
1F
100
AcDbEntity
  8
100
  6
Continuous
 62
     3
100
AcDbCircle
 10
0.00000388179043
 20
515.0
 30
0.0
 40
9.99999999999997
  0
SPLINE
  5
541
330
1F
100
AcDbEntity
  8
1
  6
Continuous
 62
     1
100
AcDbSpline
210
0.0
220
0.0
230
1.0
 70
     8
 71
     3
 72
    11
 73
     7
 74
     5
 42
0.0000000001
 43
0.0000000001
 44
0.00000001
 40
0.0
 40
0.0
 40
0.0
 40
0.0
 40
7.258749771990792
 40
14.55761930935464
 40
21.7670089729486
 40
28.97160910731542
 40
28.97160910731542
 40
28.97160910731542
 40
28.97160910731542
 10
-13.6
 20
201.0
 30
0.0
 10
-11.31633163333599
 20
202.2707973553035
 30
0.0
 10
-6.7363728587559
 20
204.8194158776318
 30
0.0
 10
-0.0797244131278161
 20
200.6630922939337
 30
0.0
 10
6.869979912805944
 20
197.3503870690757
 30
0.0
 10
11.35715697572005
 20
199.7837318763697
 30
0.0
 10
13.6
 20
201.0
 30
0.0
 11
-13.6
 21
201.0
 31
0.0
 11
-6.780828731002923
 21
203.4876397360673
 31
0.0
 11
0.0000000000000422
 21
200.7869253409003
 31
0.0
 11
6.839903229424183
 21
198.5085436490741
 31
0.0
 11
13.6
 21
201.0
 31
0.0
  0
SPLINE
  5
542
330
1F
100
AcDbEntity
  8
1
  6
Continuous
 62
     1
100
AcDbSpline
210
0.0
220
0.0
230
1.0
 70
     8
 71
     3
 72
    11
 73
     7
 74
     5
 42
0.0000000001
 43
0.0000000001
 44
0.00000001
 40
0.0
 40
0.0
 40
0.0
 40
0.0
 40
7.258749771990733
 40
14.55761930935465
 40
21.76700897294855
 40
28.97160910731544
 40
28.97160910731544
 40
28.97160910731544
 40
28.97160910731544
 10
-13.6
 20
197.0
 30
0.0
 10
-11.31633163333596
 20
198.2707973553034
 30
0.0
 10
-6.736372858755782
 20
200.8194158776317
 30
0.0
 10
-0.0797244131279766
 20
196.663092293933
 30
0.0
 10
6.869979912806051
 20
193.3503870690755
 30
0.0
 10
11.35715697572007
 20
195.7837318763696
 30
0.0
 10
13.6
 20
197.0
 30
0.0
 11
-13.6
 21
197.0
 31
0.0
 11
-6.780828731002912
 21
199.4876397360671
 31
0.0
 11
0.0000000000000067
 21
196.7869253408998
 31
0.0
 11
6.839903229424194
 21
194.5085436490739
 31
0.0
 11
13.6
 21
197.0
 31
0.0
  0
SPLINE
  5
543
330
1F
100
AcDbEntity
  8
1
  6
Continuous
 62
     1
100
AcDbSpline
210
0.0
220
0.0
230
1.0
 70
     8
 71
     3
 72
    11
 73
     7
 74
     5
 42
0.0000000001
 43
0.0000000001
 44
0.00000001
 40
0.0
 40
0.0
 40
0.0
 40
0.0
 40
7.258749771990825
 40
14.55761930935457
 40
21.76700897294847
 40
28.97160910731543
 40
28.97160910731543
 40
28.97160910731543
 40
28.97160910731543
 10
136.4
 20
162.0
 30
0.0
 10
138.6836683666641
 20
163.2707973553034
 30
0.0
 10
143.2636271412443
 20
165.8194158776316
 30
0.0
 10
149.920275586872
 20
161.663092293933
 30
0.0
 10
156.869979912806
 20
158.3503870690755
 30
0.0
 10
161.3571569757201
 20
160.7837318763697
 30
0.0
 10
163.6
 20
162.0
 30
0.0
 11
136.4
 21
162.0
 31
0.0
 11
143.2191712689972
 21
164.4876397360671
 31
0.0
 11
149.9999999999999
 21
161.7869253408998
 31
0.0
 11
156.8399032294241
 21
159.5085436490739
 31
0.0
 11
163.6
 21
162.0
 31
0.0
  0
SPLINE
  5
544
330
1F
100
AcDbEntity
  8
1
  6
Continuous
 62
     1
100
AcDbSpline
210
0.0
220
0.0
230
1.0
 70
     8
 71
     3
 72
    11
 73
     7
 74
     5
 42
0.0000000001
 43
0.0000000001
 44
0.00000001
 40
0.0
 40
0.0
 40
0.0
 40
0.0
 40
7.258749771990913
 40
14.55761930935456
 40
21.76700897294854
 40
28.9716091073154
 40
28.9716091073154
 40
28.9716091073154
 40
28.9716091073154
 10
136.4
 20
166.0
 30
0.0
 10
138.6836683666641
 20
167.2707973553035
 30
0.0
 10
143.2636271412442
 20
169.8194158776319
 30
0.0
 10
149.9202755868721
 20
165.6630922939335
 30
0.0
 10
156.8699799128059
 20
162.3503870690757
 30
0.0
 10
161.35715697572
 20
164.7837318763698
 30
0.0
 10
163.6
 20
166.0
 30
0.0
 11
136.4
 21
166.0
 31
0.0
 11
143.2191712689972
 21
168.4876397360674
 31
0.0
 11
149.9999999999999
 21
165.7869253409003
 31
0.0
 11
156.8399032294241
 21
163.5085436490742
 31
0.0
 11
163.6
 21
166.0
 31
0.0
  0
LWPOLYLINE
  5
545
330
1F
100
AcDbEntity
  8
2
  6
Continuous
 62
     2
100
AcDbPolyline
 90
        3
 70
     0
 43
0.0
 10
66.4437255859375
 20
5.0
 10
65.1937255859375
 20
0.0
 10
63.9437255859375
 20
5.0
  0
LWPOLYLINE
  5
546
330
1F
100
AcDbEntity
  8
2
  6
Continuous
 62
     2
100
AcDbPolyline
 90
        3
 70
     0
 43
0.0
 10
63.9437255859375
 20
438.0
 10
65.1937255859375
 20
443.0
 10
66.4437255859375
 20
438.0
  0
LWPOLYLINE
  5
547
330
1F
100
AcDbEntity
  8
2
  6
Continuous
 62
     2
100
AcDbPolyline
 90
        3
 70
     0
 43
0.0
 10
55.6937255859375
 20
218.0
 10
62.6937255859375
 20
218.0
 10
62.6937255859375
 20
221.5
  0
LWPOLYLINE
  5
548
330
1F
100
AcDbEntity
  8
2
  6
Continuous
 62
     3
100
AcDbPolyline
 90
        8
 70
     0
 43
0.0
 10
-3.05419778823853
 20
4.23992395401001
 10
-2.19482278823853
 20
5.27117395401001
 10
-1.16357278823853
 20
5.27117395401001
 10
-0.30419778823852
 20
4.23992395401001
 10
-0.30419778823853
 20
2.86492395401001
 10
-3.05419778823853
 20
0.45867383480072
 10
-3.05419778823853
 20
-0.22882616519928
 10
-0.30419778823852
 20
-0.22882616519928
  0
LWPOLYLINE
  5
549
330
1F
100
AcDbEntity
  8
2
  6
Continuous
 62
     3
100
AcDbPolyline
 90
       20
 70
     1
 43
0.0
 10
2.44580221176147
 20
0.80242383480072
 10
2.44580221176147
 20
0.80242383480072
 10
2.55497158166886
 20
0.40199431370026
 10
2.80310958609942
 20
0.06839454141835
 10
3.15534676012912
 20
-0.15220710102372
 10
3.56298971176147
 20
-0.22882616519928
 10
3.97063266339383
 20
-0.15220710102373
 10
4.32286983742353
 20
0.06839454141835
 10
4.57100784185409
 20
0.40199431370026
 10
4.68017721176147
 20
0.80242383480072
 10
4.68017721176147
 20
4.23992395401001
 10
4.57100784185409
 20
4.64035347511047
 10
4.32286983742353
 20
4.97395324739238
 10
3.97063266339383
 20
5.19455488983446
 10
3.56298971176147
 20
5.27117395401001
 10
3.15534676012912
 20
5.19455488983446
 10
2.80310958609942
 20
4.97395324739238
 10
2.55497158166886
 20
4.64035347511047
 10
2.44580221176147
 20
4.23992395401001
 10
2.44580221176147
 20
0.80242383480072
  0
LEADER
  5
54A
330
1F
100
AcDbEntity
  8
1
  6
Continuous
 62
     4
100
AcDbLeader
  3
Standard
 71
     0
 76
     3
 10
-28.0
 20
-16.4500007629395
 30
0.0
 10
-40.9046897888184
 20
-33.9562530517578
 30
0.0
 10
-79.5250015258789
 20
-33.9562530517578
 30
0.0
  0
LEADER
  5
54B
330
1F
100
AcDbEntity
  8
1
  6
Continuous
 62
     4
100
AcDbLeader
  3
Standard
 71
     0
 76
     3
 10
28.0
 20
-16.4500007629395
 30
0.0
 10
40.9046897888184
 20
-33.9562530517578
 30
0.0
 10
79.5250015258789
 20
-33.9562530517578
 30
0.0
  0
ENDSEC
  0
SECTION
  2
OBJECTS
  0
DICTIONARY
  5
C
330
0
100
AcDbDictionary
281
     1
  3
ACAD_GROUP
350
D
  3
ACAD_LAYOUT
350
1A
  3
ACAD_MATERIAL
350
3B
  3
ACAD_MLEADERSTYLE
350
54E
  3
ACAD_MLINESTYLE
350
17
  3
ACAD_PLOTSETTINGS
350
19
  3
ACAD_PLOTSTYLENAME
350
E
  3
ACAD_VISUALSTYLE
350
2A
  3
AcDbVariableDictionary
350
54C
  0
DICTIONARY
  5
D
102
{ACAD_REACTORS
330
C
102
}
330
C
100
AcDbDictionary
281
     1
  0
DICTIONARY
  5
1A
102
{ACAD_REACTORS
330
C
102
}
330
C
100
AcDbDictionary
281
     1
  3
Layout1
350
1E
  3
Layout2
350
26
  3
Model
350
22
  0
DICTIONARY
  5
3B
102
{ACAD_REACTORS
330
C
102
}
330
C
100
AcDbDictionary
281
     1
  3
ByBlock
350
3D
  3
ByLayer
350
3C
  3
Global
350
3E
  0
DICTIONARY
  5
54E
102
{ACAD_REACTORS
330
C
102
}
330
C
100
AcDbDictionary
281
     1
  0
DICTIONARY
  5
17
102
{ACAD_REACTORS
330
C
102
}
330
C
100
AcDbDictionary
281
     1
  3
Standard
350
18
  0
DICTIONARY
  5
19
102
{ACAD_REACTORS
330
C
102
}
330
C
100
AcDbDictionary
281
     1
  0
ACDBDICTIONARYWDFLT
  5
E
102
{ACAD_REACTORS
330
C
102
}
330
C
100
AcDbDictionary
281
     1
  3
Normal
350
F
100
AcDbDictionaryWithDefault
340
F
  0
DICTIONARY
  5
2A
102
{ACAD_REACTORS
330
C
102
}
330
C
100
AcDbDictionary
281
     1
  3
2dWireframe
350
2F
  3
3D Hidden
350
31
  3
3dWireframe
350
30
  3
Basic
350
32
  3
Brighten
350
36
  3
ColorChange
350
3A
  3
Conceptual
350
34
  3
Dim
350
35
  3
Facepattern
350
39
  3
Flat
350
2B
  3
FlatWithEdges
350
2C
  3
Gouraud
350
2D
  3
GouraudWithEdges
350
2E
  3
Linepattern
350
38
  3
Realistic
350
33
  3
Thicken
350
37
  0
DICTIONARY
  5
54C
102
{ACAD_REACTORS
330
C
102
}
330
C
100
AcDbDictionary
281
     1
  3
DIMASSOC
350
54F
  3
HIDETEXT
350
550
  0
LAYOUT
  5
1E
102
{ACAD_REACTORS
330
1A
102
}
330
1A
100
AcDbPlotSettings
  1

  2
none_device
  4

  6

 40
0.0
 41
0.0
 42
0.0
 43
0.0
 44
0.0
 45
0.0
 46
0.0
 47
0.0
 48
0.0
 49
0.0
140
0.0
141
0.0
142
1.0
143
1.0
 70
   688
 72
     0
 73
     0
 74
     5
  7

 75
    16
147
1.0
148
0.0
149
0.0
100
AcDbLayout
  1
Layout1
 70
     1
 71
     1
 10
0.0
 20
0.0
 11
12.0
 21
9.0
 12
0.0
 22
0.0
 32
0.0
 14
1.00000000000000E+20
 24
1.00000000000000E+20
 34
1.00000000000000E+20
 15
-1.00000000000000E+20
 25
-1.00000000000000E+20
 35
-1.00000000000000E+20
146
0.0
 13
0.0
 23
0.0
 33
0.0
 16
1.0
 26
0.0
 36
0.0
 17
0.0
 27
1.0
 37
0.0
 76
     0
330
1B
  0
LAYOUT
  5
26
102
{ACAD_REACTORS
330
1A
102
}
330
1A
100
AcDbPlotSettings
  1

  2
none_device
  4

  6

 40
0.0
 41
0.0
 42
0.0
 43
0.0
 44
0.0
 45
0.0
 46
0.0
 47
0.0
 48
0.0
 49
0.0
140
0.0
141
0.0
142
1.0
143
1.0
 70
   688
 72
     0
 73
     0
 74
     5
  7

 75
    16
147
1.0
148
0.0
149
0.0
100
AcDbLayout
  1
Layout2
 70
     1
 71
     2
 10
0.0
 20
0.0
 11
0.0
 21
0.0
 12
0.0
 22
0.0
 32
0.0
 14
0.0
 24
0.0
 34
0.0
 15
0.0
 25
0.0
 35
0.0
146
0.0
 13
0.0
 23
0.0
 33
0.0
 16
1.0
 26
0.0
 36
0.0
 17
0.0
 27
1.0
 37
0.0
 76
     0
330
23
  0
LAYOUT
  5
22
102
{ACAD_REACTORS
330
1A
102
}
330
1A
100
AcDbPlotSettings
  1

  2
none_device
  4

  6

 40
0.0
 41
0.0
 42
0.0
 43
0.0
 44
0.0
 45
0.0
 46
0.0
 47
0.0
 48
0.0
 49
0.0
140
0.0
141
0.0
142
1.0
143
1.0
 70
  1712
 72
     0
 73
     0
 74
     0
  7

 75
     0
147
1.0
148
0.0
149
0.0
100
AcDbLayout
  1
Model
 70
     1
 71
     0
 10
0.0
 20
0.0
 11
12.0
 21
9.0
 12
0.0
 22
0.0
 32
0.0
 14
-79.5250015258789
 24
-58.5504662787529
 34
0.0
 15
341.950718958067
 25
550.999999999999
 35
0.0
146
0.0
 13
0.0
 23
0.0
 33
0.0
 16
1.0
 26
0.0
 36
0.0
 17
0.0
 27
1.0
 37
0.0
 76
     0
330
1F
331
29
  0
MATERIAL
  5
3D
102
{ACAD_REACTORS
330
3B
102
}
102
{ACAD_XDICTIONARY
360
573
102
}
330
3B
100
AcDbMaterial
  1
ByBlock
  0
MATERIAL
  5
3C
102
{ACAD_REACTORS
330
3B
102
}
102
{ACAD_XDICTIONARY
360
571
102
}
330
3B
100
AcDbMaterial
  1
ByLayer
  0
MATERIAL
  5
3E
102
{ACAD_REACTORS
330
3B
102
}
102
{ACAD_XDICTIONARY
360
575
102
}
330
3B
100
AcDbMaterial
  1
Global
  0
MLINESTYLE
  5
18
102
{ACAD_REACTORS
330
17
102
}
330
17
100
AcDbMlineStyle
  2
Standard
 70
     0
  3

 62
   256
 51
90.0
 52
90.0
 71
     2
 49
0.5
 62
   256
  6
BYLAYER
 49
-0.5
 62
   256
  6
BYLAYER
  0
ACDBPLACEHOLDER
  5
F
102
{ACAD_REACTORS
330
E
102
}
330
E
  0
VISUALSTYLE
  5
2F
102
{ACAD_REACTORS
330
2A
102
}
102
{ACAD_XDICTIONARY
360
559
102
}
330
2A
100
AcDbVisualStyle
  2
2dWireframe
 70
     4
 71
     0
 72
     2
 73
     0
 90
        0
 40
-0.6
 41
-30.0
 62
     5
 63
     7
 74
     1
 91
        4
 64
     7
 65
   257
 75
     1
175
     1
 42
1.0
 92
        0
 66
   257
 43
1.0
 76
     1
 77
     6
 78
     2
 67
     7
 79
     5
170
     0
171
     0
290
     0
174
     0
 93
        1
 44
0.0
173
     0
291
     0
 45
0.0
1001
ACAD
1000
AcDbSavedByObjectVersion
1070
     0
  0
VISUALSTYLE
  5
31
102
{ACAD_REACTORS
330
2A
102
}
102
{ACAD_XDICTIONARY
360
55D
102
}
330
2A
100
AcDbVisualStyle
  2
3D Hidden
 70
     6
 71
     1
 72
     2
 73
     2
 90
        0
 40
-0.6
 41
-30.0
 62
     5
 63
     7
 74
     2
 91
        2
 64
     7
 65
   257
 75
     2
175
     1
 42
40.0
 92
        0
 66
   257
 43
1.0
 76
     1
 77
     6
 78
     2
 67
     7
 79
     3
170
     0
171
     0
290
     0
174
     0
 93
        1
 44
0.0
173
     0
291
     0
 45
0.0
1001
ACAD
1000
AcDbSavedByObjectVersion
1070
     0
  0
VISUALSTYLE
  5
30
102
{ACAD_REACTORS
330
2A
102
}
102
{ACAD_XDICTIONARY
360
55B
102
}
330
2A
100
AcDbVisualStyle
  2
3dWireframe
 70
     5
 71
     0
 72
     2
 73
     0
 90
        0
 40
-0.6
 41
-30.0
 62
     5
 63
     7
 74
     1
 91
        4
 64
     7
 65
   257
 75
     1
175
     1
 42
1.0
 92
        0
 66
   257
 43
1.0
 76
     1
 77
     6
 78
     2
 67
     7
 79
     5
170
     0
171
     0
290
     0
174
     0
 93
        1
 44
0.0
173
     0
291
     0
 45
0.0
1001
ACAD
1000
AcDbSavedByObjectVersion
1070
     0
  0
VISUALSTYLE
  5
32
102
{ACAD_REACTORS
330
2A
102
}
102
{ACAD_XDICTIONARY
360
55F
102
}
330
2A
100
AcDbVisualStyle
  2
Basic
 70
     7
 71
     1
 72
     0
 73
     1
 90
        0
 40
-0.6
 41
-30.0
 62
     5
 63
     7
 74
     0
 91
        4
 64
     7
 65
   257
 75
     1
175
     1
 42
1.0
 92
        8
 66
     7
 43
1.0
 76
     1
 77
     6
 78
     2
 67
     7
 79
     5
170
     0
171
     0
290
     0
174
     0
 93
        1
 44
0.0
173
     0
291
     1
 45
0.0
1001
ACAD
1000
AcDbSavedByObjectVersion
1070
     0
  0
VISUALSTYLE
  5
36
102
{ACAD_REACTORS
330
2A
102
}
102
{ACAD_XDICTIONARY
360
567
102
}
330
2A
100
AcDbVisualStyle
  2
Brighten
 70
    12
 71
     2
 72
     2
 73
     0
 90
        0
 40
-0.6
 41
-30.0
 62
     5
 63
     7
 74
     1
 91
        4
 64
     7
 65
   257
 75
     1
175
     1
 42
1.0
 92
        8
 66
     7
 43
1.0
 76
     1
 77
     6
 78
     2
 67
     7
 79
     5
170
     0
171
     0
290
     0
174
     0
 93
        1
 44
50.0
173
     0
291
     1
 45
0.0
1001
ACAD
1000
AcDbSavedByObjectVersion
1070
     0
  0
VISUALSTYLE
  5
3A
102
{ACAD_REACTORS
330
2A
102
}
102
{ACAD_XDICTIONARY
360
56F
102
}
330
2A
100
AcDbVisualStyle
  2
ColorChange
 70
    16
 71
     2
 72
     2
 73
     3
 90
        0
 40
-0.6
 41
-30.0
 62
     5
 63
     8
 74
     1
 91
        4
 64
     7
 65
   257
 75
     1
175
     1
 42
1.0
 92
        8
 66
     8
 43
1.0
 76
     1
 77
     6
 78
     2
 67
     7
 79
     5
170
     0
171
     0
290
     0
174
     0
 93
        1
 44
0.0
173
     0
291
     1
 45
0.0
1001
ACAD
1000
AcDbSavedByObjectVersion
1070
     0
  0
VISUALSTYLE
  5
34
102
{ACAD_REACTORS
330
2A
102
}
102
{ACAD_XDICTIONARY
360
563
102
}
330
2A
100
AcDbVisualStyle
  2
Conceptual
 70
     9
 71
     3
 72
     2
 73
     0
 90
        0
 40
-0.6
 41
-30.0
 62
     5
 63
     7
 74
     2
 91
        2
 64
     7
 65
   257
 75
     1
175
     1
 42
40.0
 92
        8
 66
     7
 43
1.0
 76
     1
 77
     6
 78
     2
 67
     7
 79
     3
170
     0
171
     0
290
     0
174
     0
 93
        1
 44
0.0
173
     0
291
     0
 45
0.0
1001
ACAD
1000
AcDbSavedByObjectVersion
1070
     0
  0
VISUALSTYLE
  5
35
102
{ACAD_REACTORS
330
2A
102
}
102
{ACAD_XDICTIONARY
360
565
102
}
330
2A
100
AcDbVisualStyle
  2
Dim
 70
    11
 71
     2
 72
     2
 73
     0
 90
        0
 40
-0.6
 41
-30.0
 62
     5
 63
     7
 74
     1
 91
        4
 64
     7
 65
   257
 75
     1
175
     1
 42
1.0
 92
        8
 66
     7
 43
1.0
 76
     1
 77
     6
 78
     2
 67
     7
 79
     5
170
     0
171
     0
290
     0
174
     0
 93
        1
 44
-50.0
173
     0
291
     1
 45
0.0
1001
ACAD
1000
AcDbSavedByObjectVersion
1070
     0
  0
VISUALSTYLE
  5
39
102
{ACAD_REACTORS
330
2A
102
}
102
{ACAD_XDICTIONARY
360
56D
102
}
330
2A
100
AcDbVisualStyle
  2
Facepattern
 70
    15
 71
     2
 72
     2
 73
     0
 90
        0
 40
-0.6
 41
-30.0
 62
     5
 63
     7
 74
     1
 91
        4
 64
     7
 65
   257
 75
     1
175
     1
 42
1.0
 92
        8
 66
     7
 43
1.0
 76
     1
 77
     6
 78
     2
 67
     7
 79
     5
170
     0
171
     0
290
     0
174
     0
 93
        1
 44
0.0
173
     0
291
     1
 45
0.0
1001
ACAD
1000
AcDbSavedByObjectVersion
1070
     0
  0
VISUALSTYLE
  5
2B
102
{ACAD_REACTORS
330
2A
102
}
102
{ACAD_XDICTIONARY
360
551
102
}
330
2A
100
AcDbVisualStyle
  2
Flat
 70
     0
 71
     2
 72
     1
 73
     1
 90
        2
 40
-0.6
 41
30.0
 62
     5
 63
     7
 74
     0
 91
        4
 64
     7
 65
   257
 75
     1
175
     1
 42
1.0
 92
        8
 66
     7
 43
1.0
 76
     1
 77
     6
 78
     2
 67
     7
 79
     5
170
     0
171
     0
290
     0
174
     0
 93
       13
 44
0.0
173
     0
291
     1
 45
0.0
1001
ACAD
1000
AcDbSavedByObjectVersion
1070
     0
  0
VISUALSTYLE
  5
2C
102
{ACAD_REACTORS
330
2A
102
}
102
{ACAD_XDICTIONARY
360
553
102
}
330
2A
100
AcDbVisualStyle
  2
FlatWithEdges
 70
     1
 71
     2
 72
     1
 73
     1
 90
        2
 40
-0.6
 41
30.0
 62
     5
 63
     7
 74
     1
 91
        4
 64
     7
 65
   257
 75
     1
175
     1
 42
1.0
 92
        0
 66
   257
 43
1.0
 76
     1
 77
     6
 78
     2
 67
     7
 79
     5
170
     0
171
     0
290
     0
174
     0
 93
       13
 44
0.0
173
     0
291
     1
 45
0.0
1001
ACAD
1000
AcDbSavedByObjectVersion
1070
     0
  0
VISUALSTYLE
  5
2D
102
{ACAD_REACTORS
330
2A
102
}
102
{ACAD_XDICTIONARY
360
555
102
}
330
2A
100
AcDbVisualStyle
  2
Gouraud
 70
     2
 71
     2
 72
     2
 73
     1
 90
        2
 40
-0.6
 41
30.0
 62
     5
 63
     7
 74
     0
 91
        4
 64
     7
 65
   257
 75
     1
175
     1
 42
1.0
 92
        0
 66
     7
 43
1.0
 76
     1
 77
     6
 78
     2
 67
     7
 79
     5
170
     0
171
     0
290
     0
174
     0
 93
       13
 44
0.0
173
     0
291
     1
 45
0.0
1001
ACAD
1000
AcDbSavedByObjectVersion
1070
     0
  0
VISUALSTYLE
  5
2E
102
{ACAD_REACTORS
330
2A
102
}
102
{ACAD_XDICTIONARY
360
557
102
}
330
2A
100
AcDbVisualStyle
  2
GouraudWithEdges
 70
     3
 71
     2
 72
     2
 73
     1
 90
        2
 40
-0.6
 41
30.0
 62
     5
 63
     7
 74
     1
 91
        4
 64
     7
 65
   257
 75
     1
175
     1
 42
1.0
 92
        0
 66
   257
 43
1.0
 76
     1
 77
     6
 78
     2
 67
     7
 79
     5
170
     0
171
     0
290
     0
174
     0
 93
       13
 44
0.0
173
     0
291
     1
 45
0.0
1001
ACAD
1000
AcDbSavedByObjectVersion
1070
     0
  0
VISUALSTYLE
  5
38
102
{ACAD_REACTORS
330
2A
102
}
102
{ACAD_XDICTIONARY
360
56B
102
}
330
2A
100
AcDbVisualStyle
  2
Linepattern
 70
    14
 71
     2
 72
     2
 73
     0
 90
        0
 40
-0.6
 41
-30.0
 62
     5
 63
     7
 74
     1
 91
        4
 64
     7
 65
   257
 75
     7
175
     7
 42
1.0
 92
        8
 66
     7
 43
1.0
 76
     1
 77
     6
 78
     2
 67
     7
 79
     5
170
     0
171
     0
290
     0
174
     0
 93
        1
 44
0.0
173
     0
291
     1
 45
0.0
1001
ACAD
1000
AcDbSavedByObjectVersion
1070
     0
  0
VISUALSTYLE
  5
33
102
{ACAD_REACTORS
330
2A
102
}
102
{ACAD_XDICTIONARY
360
561
102
}
330
2A
100
AcDbVisualStyle
  2
Realistic
 70
     8
 71
     2
 72
     2
 73
     0
 90
        0
 40
-0.6
 41
-30.0
 62
     5
 63
     7
 74
     1
 91
        0
 64
     7
 65
   257
 75
     1
175
     1
 42
1.0
 92
        8
 66
     8
 43
1.0
 76
     1
 77
     6
 78
     2
 67
     7
 79
     5
170
     0
171
     0
290
     0
174
     0
 93
       13
 44
0.0
173
     0
291
     0
 45
0.0
1001
ACAD
1000
AcDbSavedByObjectVersion
1070
     0
  0
VISUALSTYLE
  5
37
102
{ACAD_REACTORS
330
2A
102
}
102
{ACAD_XDICTIONARY
360
569
102
}
330
2A
100
AcDbVisualStyle
  2
Thicken
 70
    13
 71
     2
 72
     2
 73
     0
 90
        0
 40
-0.6
 41
-30.0
 62
     5
 63
     7
 74
     1
 91
        4
 64
     7
 65
   257
 75
     1
175
     1
 42
1.0
 92
       12
 66
     7
 43
1.0
 76
     1
 77
     6
 78
     2
 67
     7
 79
     5
170
     0
171
     0
290
     0
174
     0
 93
        1
 44
0.0
173
     0
291
     1
 45
0.0
1001
ACAD
1000
AcDbSavedByObjectVersion
1070
     0
  0
DICTIONARYVAR
  5
54F
102
{ACAD_REACTORS
330
54C
102
}
330
54C
100
DictionaryVariables
280
     0
  1
2
  0
DICTIONARYVAR
  5
550
102
{ACAD_REACTORS
330
54C
102
}
330
54C
100
DictionaryVariables
280
     0
  1
1
  0
DICTIONARY
  5
573
330
3D
100
AcDbDictionary
280
     1
281
     1
  3
ACAD_XREC_ROUNDTRIP
360
574
  0
DICTIONARY
  5
571
330
3C
100
AcDbDictionary
280
     1
281
     1
  3
ACAD_XREC_ROUNDTRIP
360
572
  0
DICTIONARY
  5
575
330
3E
100
AcDbDictionary
280
     1
281
     1
  3
ACAD_XREC_ROUNDTRIP
360
576
  0
DICTIONARY
  5
559
330
2F
100
AcDbDictionary
280
     1
281
     1
  3
ACAD_XREC_ROUNDTRIP
360
55A
  0
DICTIONARY
  5
55D
330
31
100
AcDbDictionary
280
     1
281
     1
  3
ACAD_XREC_ROUNDTRIP
360
55E
  0
DICTIONARY
  5
55B
330
30
100
AcDbDictionary
280
     1
281
     1
  3
ACAD_XREC_ROUNDTRIP
360
55C
  0
DICTIONARY
  5
55F
330
32
100
AcDbDictionary
280
     1
281
     1
  3
ACAD_XREC_ROUNDTRIP
360
560
  0
DICTIONARY
  5
567
330
36
100
AcDbDictionary
280
     1
281
     1
  3
ACAD_XREC_ROUNDTRIP
360
568
  0
DICTIONARY
  5
56F
330
3A
100
AcDbDictionary
280
     1
281
     1
  3
ACAD_XREC_ROUNDTRIP
360
570
  0
DICTIONARY
  5
563
330
34
100
AcDbDictionary
280
     1
281
     1
  3
ACAD_XREC_ROUNDTRIP
360
564
  0
DICTIONARY
  5
565
330
35
100
AcDbDictionary
280
     1
281
     1
  3
ACAD_XREC_ROUNDTRIP
360
566
  0
DICTIONARY
  5
56D
330
39
100
AcDbDictionary
280
     1
281
     1
  3
ACAD_XREC_ROUNDTRIP
360
56E
  0
DICTIONARY
  5
551
330
2B
100
AcDbDictionary
280
     1
281
     1
  3
ACAD_XREC_ROUNDTRIP
360
552
  0
DICTIONARY
  5
553
330
2C
100
AcDbDictionary
280
     1
281
     1
  3
ACAD_XREC_ROUNDTRIP
360
554
  0
DICTIONARY
  5
555
330
2D
100
AcDbDictionary
280
     1
281
     1
  3
ACAD_XREC_ROUNDTRIP
360
556
  0
DICTIONARY
  5
557
330
2E
100
AcDbDictionary
280
     1
281
     1
  3
ACAD_XREC_ROUNDTRIP
360
558
  0
DICTIONARY
  5
56B
330
38
100
AcDbDictionary
280
     1
281
     1
  3
ACAD_XREC_ROUNDTRIP
360
56C
  0
DICTIONARY
  5
561
330
33
100
AcDbDictionary
280
     1
281
     1
  3
ACAD_XREC_ROUNDTRIP
360
562
  0
DICTIONARY
  5
569
330
37
100
AcDbDictionary
280
     1
281
     1
  3
ACAD_XREC_ROUNDTRIP
360
56A
  0
XRECORD
  5
574
102
{ACAD_REACTORS
330
573
102
}
330
573
100
AcDbXrecord
280
     1
102
MATERIAL
148
0.0
149
0.0
149
0.0
 93
        0
 94
      127
282
     0
 72
     1
 77
     1
171
     1
175
     1
179
     1
273
     0
  0
XRECORD
  5
572
102
{ACAD_REACTORS
330
571
102
}
330
571
100
AcDbXrecord
280
     1
102
MATERIAL
148
0.0
149
0.0
149
0.0
 93
        0
 94
      127
282
     0
 72
     1
 77
     1
171
     1
175
     1
179
     1
273
     0
  0
XRECORD
  5
576
102
{ACAD_REACTORS
330
575
102
}
330
575
100
AcDbXrecord
280
     1
102
MATERIAL
148
0.0
149
0.0
149
0.0
 93
        0
 94
      127
282
     0
 72
     1
 77
     1
171
     1
175
     1
179
     1
273
     0
  0
XRECORD
  5
55A
102
{ACAD_REACTORS
330
559
102
}
330
559
100
AcDbXrecord
280
     1
102
RTVSPropertyOp0
 70
     1
102
RTVSPropertyOp1
 70
     1
102
RTVSPropertyOp2
 70
     1
102
RTVSPropertyOp3
 70
     1
102
RTVSPropertyOp4
 70
     1
102
RTVSPropertyOp5
 70
     1
102
RTVSPropertyOp6
 70
     1
102
RTVSPropertyOp7
 70
     1
102
RTVSPropertyOp8
 70
     1
102
RTVSPropertyOp9
 70
     1
102
RTVSPropertyOp10
 70
     1
102
RTVSPropertyOp11
 70
     1
102
RTVSPropertyOp12
 70
     1
102
RTVSPropertyOp13
 70
     1
102
RTVSPropertyOp14
 70
     1
102
RTVSPropertyOp15
 70
     1
102
RTVSPropertyOp16
 70
     1
102
RTVSPropertyOp17
 70
     1
102
RTVSPropertyOp18
 70
     1
102
RTVSPropertyOp19
 70
     1
102
RTVSPropertyOp20
 70
     1
102
RTVSPropertyOp21
 70
     1
102
RTVSPropertyOp22
 70
     1
102
RTVSPropertyOp23
 70
     1
102
RTVSPropertyOp24
 70
     1
102
RTVSPropertyOp25
 70
     1
102
RTVSPropertyOp26
 70
     1
102
RTVSPropertyOp27
 70
     1
  0
XRECORD
  5
55E
102
{ACAD_REACTORS
330
55D
102
}
330
55D
100
AcDbXrecord
280
     1
102
RTVSPropertyOp0
 70
     1
102
RTVSPropertyOp1
 70
     1
102
RTVSPropertyOp2
 70
     1
102
RTVSPropertyOp3
 70
     1
102
RTVSPropertyOp4
 70
     1
102
RTVSPropertyOp5
 70
     1
102
RTVSPropertyOp6
 70
     1
102
RTVSPropertyOp7
 70
     1
102
RTVSPropertyOp8
 70
     1
102
RTVSPropertyOp9
 70
     1
102
RTVSPropertyOp10
 70
     1
102
RTVSPropertyOp11
 70
     1
102
RTVSPropertyOp12
 70
     1
102
RTVSPropertyOp13
 70
     1
102
RTVSPropertyOp14
 70
     1
102
RTVSPropertyOp15
 70
     1
102
RTVSPropertyOp16
 70
     1
102
RTVSPropertyOp17
 70
     1
102
RTVSPropertyOp18
 70
     1
102
RTVSPropertyOp19
 70
     1
102
RTVSPropertyOp20
 70
     1
102
RTVSPropertyOp21
 70
     1
102
RTVSPropertyOp22
 70
     1
102
RTVSPropertyOp23
 70
     1
102
RTVSPropertyOp24
 70
     1
102
RTVSPropertyOp25
 70
     1
102
RTVSPropertyOp26
 70
     1
102
RTVSPropertyOp27
 70
     1
  0
XRECORD
  5
55C
102
{ACAD_REACTORS
330
55B
102
}
330
55B
100
AcDbXrecord
280
     1
102
RTVSPropertyOp0
 70
     1
102
RTVSPropertyOp1
 70
     1
102
RTVSPropertyOp2
 70
     1
102
RTVSPropertyOp3
 70
     1
102
RTVSPropertyOp4
 70
     1
102
RTVSPropertyOp5
 70
     1
102
RTVSPropertyOp6
 70
     1
102
RTVSPropertyOp7
 70
     1
102
RTVSPropertyOp8
 70
     1
102
RTVSPropertyOp9
 70
     1
102
RTVSPropertyOp10
 70
     1
102
RTVSPropertyOp11
 70
     1
102
RTVSPropertyOp12
 70
     1
102
RTVSPropertyOp13
 70
     1
102
RTVSPropertyOp14
 70
     1
102
RTVSPropertyOp15
 70
     1
102
RTVSPropertyOp16
 70
     1
102
RTVSPropertyOp17
 70
     1
102
RTVSPropertyOp18
 70
     1
102
RTVSPropertyOp19
 70
     1
102
RTVSPropertyOp20
 70
     1
102
RTVSPropertyOp21
 70
     1
102
RTVSPropertyOp22
 70
     1
102
RTVSPropertyOp23
 70
     1
102
RTVSPropertyOp24
 70
     1
102
RTVSPropertyOp25
 70
     1
102
RTVSPropertyOp26
 70
     1
102
RTVSPropertyOp27
 70
     1
  0
XRECORD
  5
560
102
{ACAD_REACTORS
330
55F
102
}
330
55F
100
AcDbXrecord
280
     1
102
RTVSPropertyOp0
 70
     1
102
RTVSPropertyOp1
 70
     1
102
RTVSPropertyOp2
 70
     1
102
RTVSPropertyOp3
 70
     1
102
RTVSPropertyOp4
 70
     1
102
RTVSPropertyOp5
 70
     1
102
RTVSPropertyOp6
 70
     1
102
RTVSPropertyOp7
 70
     1
102
RTVSPropertyOp8
 70
     1
102
RTVSPropertyOp9
 70
     1
102
RTVSPropertyOp10
 70
     1
102
RTVSPropertyOp11
 70
     1
102
RTVSPropertyOp12
 70
     1
102
RTVSPropertyOp13
 70
     1
102
RTVSPropertyOp14
 70
     1
102
RTVSPropertyOp15
 70
     1
102
RTVSPropertyOp16
 70
     1
102
RTVSPropertyOp17
 70
     1
102
RTVSPropertyOp18
 70
     1
102
RTVSPropertyOp19
 70
     1
102
RTVSPropertyOp20
 70
     1
102
RTVSPropertyOp21
 70
     1
102
RTVSPropertyOp22
 70
     1
102
RTVSPropertyOp23
 70
     1
102
RTVSPropertyOp24
 70
     1
102
RTVSPropertyOp25
 70
     1
102
RTVSPropertyOp26
 70
     1
102
RTVSPropertyOp27
 70
     1
  0
XRECORD
  5
568
102
{ACAD_REACTORS
330
567
102
}
330
567
100
AcDbXrecord
280
     1
102
RTVSPropertyOp0
 70
     1
102
RTVSPropertyOp1
 70
     1
102
RTVSPropertyOp2
 70
     1
102
RTVSPropertyOp3
 70
     1
102
RTVSPropertyOp4
 70
     1
102
RTVSPropertyOp5
 70
     1
102
RTVSPropertyOp6
 70
     1
102
RTVSPropertyOp7
 70
     1
102
RTVSPropertyOp8
 70
     1
102
RTVSPropertyOp9
 70
     1
102
RTVSPropertyOp10
 70
     1
102
RTVSPropertyOp11
 70
     1
102
RTVSPropertyOp12
 70
     1
102
RTVSPropertyOp13
 70
     1
102
RTVSPropertyOp14
 70
     1
102
RTVSPropertyOp15
 70
     1
102
RTVSPropertyOp16
 70
     1
102
RTVSPropertyOp17
 70
     1
102
RTVSPropertyOp18
 70
     1
102
RTVSPropertyOp19
 70
     1
102
RTVSPropertyOp20
 70
     1
102
RTVSPropertyOp21
 70
     1
102
RTVSPropertyOp22
 70
     1
102
RTVSPropertyOp23
 70
     1
102
RTVSPropertyOp24
 70
     1
102
RTVSPropertyOp25
 70
     1
102
RTVSPropertyOp26
 70
     1
102
RTVSPropertyOp27
 70
     1
  0
XRECORD
  5
570
102
{ACAD_REACTORS
330
56F
102
}
330
56F
100
AcDbXrecord
280
     1
102
RTVSPropertyOp0
 70
     1
102
RTVSPropertyOp1
 70
     1
102
RTVSPropertyOp2
 70
     1
102
RTVSPropertyOp3
 70
     1
102
RTVSPropertyOp4
 70
     1
102
RTVSPropertyOp5
 70
     1
102
RTVSPropertyOp6
 70
     1
102
RTVSPropertyOp7
 70
     1
102
RTVSPropertyOp8
 70
     1
102
RTVSPropertyOp9
 70
     1
102
RTVSPropertyOp10
 70
     1
102
RTVSPropertyOp11
 70
     1
102
RTVSPropertyOp12
 70
     1
102
RTVSPropertyOp13
 70
     1
102
RTVSPropertyOp14
 70
     1
102
RTVSPropertyOp15
 70
     1
102
RTVSPropertyOp16
 70
     1
102
RTVSPropertyOp17
 70
     1
102
RTVSPropertyOp18
 70
     1
102
RTVSPropertyOp19
 70
     1
102
RTVSPropertyOp20
 70
     1
102
RTVSPropertyOp21
 70
     1
102
RTVSPropertyOp22
 70
     1
102
RTVSPropertyOp23
 70
     1
102
RTVSPropertyOp24
 70
     1
102
RTVSPropertyOp25
 70
     1
102
RTVSPropertyOp26
 70
     1
102
RTVSPropertyOp27
 70
     1
  0
XRECORD
  5
564
102
{ACAD_REACTORS
330
563
102
}
330
563
100
AcDbXrecord
280
     1
102
RTVSPropertyOp0
 70
     1
102
RTVSPropertyOp1
 70
     1
102
RTVSPropertyOp2
 70
     1
102
RTVSPropertyOp3
 70
     1
102
RTVSPropertyOp4
 70
     1
102
RTVSPropertyOp5
 70
     1
102
RTVSPropertyOp6
 70
     1
102
RTVSPropertyOp7
 70
     1
102
RTVSPropertyOp8
 70
     1
102
RTVSPropertyOp9
 70
     1
102
RTVSPropertyOp10
 70
     1
102
RTVSPropertyOp11
 70
     1
102
RTVSPropertyOp12
 70
     1
102
RTVSPropertyOp13
 70
     1
102
RTVSPropertyOp14
 70
     1
102
RTVSPropertyOp15
 70
     1
102
RTVSPropertyOp16
 70
     1
102
RTVSPropertyOp17
 70
     1
102
RTVSPropertyOp18
 70
     1
102
RTVSPropertyOp19
 70
     1
102
RTVSPropertyOp20
 70
     1
102
RTVSPropertyOp21
 70
     1
102
RTVSPropertyOp22
 70
     1
102
RTVSPropertyOp23
 70
     1
102
RTVSPropertyOp24
 70
     1
102
RTVSPropertyOp25
 70
     1
102
RTVSPropertyOp26
 70
     1
102
RTVSPropertyOp27
 70
     1
  0
XRECORD
  5
566
102
{ACAD_REACTORS
330
565
102
}
330
565
100
AcDbXrecord
280
     1
102
RTVSPropertyOp0
 70
     1
102
RTVSPropertyOp1
 70
     1
102
RTVSPropertyOp2
 70
     1
102
RTVSPropertyOp3
 70
     1
102
RTVSPropertyOp4
 70
     1
102
RTVSPropertyOp5
 70
     1
102
RTVSPropertyOp6
 70
     1
102
RTVSPropertyOp7
 70
     1
102
RTVSPropertyOp8
 70
     1
102
RTVSPropertyOp9
 70
     1
102
RTVSPropertyOp10
 70
     1
102
RTVSPropertyOp11
 70
     1
102
RTVSPropertyOp12
 70
     1
102
RTVSPropertyOp13
 70
     1
102
RTVSPropertyOp14
 70
     1
102
RTVSPropertyOp15
 70
     1
102
RTVSPropertyOp16
 70
     1
102
RTVSPropertyOp17
 70
     1
102
RTVSPropertyOp18
 70
     1
102
RTVSPropertyOp19
 70
     1
102
RTVSPropertyOp20
 70
     1
102
RTVSPropertyOp21
 70
     1
102
RTVSPropertyOp22
 70
     1
102
RTVSPropertyOp23
 70
     1
102
RTVSPropertyOp24
 70
     1
102
RTVSPropertyOp25
 70
     1
102
RTVSPropertyOp26
 70
     1
102
RTVSPropertyOp27
 70
     1
  0
XRECORD
  5
56E
102
{ACAD_REACTORS
330
56D
102
}
330
56D
100
AcDbXrecord
280
     1
102
RTVSPropertyOp0
 70
     1
102
RTVSPropertyOp1
 70
     1
102
RTVSPropertyOp2
 70
     1
102
RTVSPropertyOp3
 70
     1
102
RTVSPropertyOp4
 70
     1
102
RTVSPropertyOp5
 70
     1
102
RTVSPropertyOp6
 70
     1
102
RTVSPropertyOp7
 70
     1
102
RTVSPropertyOp8
 70
     1
102
RTVSPropertyOp9
 70
     1
102
RTVSPropertyOp10
 70
     1
102
RTVSPropertyOp11
 70
     1
102
RTVSPropertyOp12
 70
     1
102
RTVSPropertyOp13
 70
     1
102
RTVSPropertyOp14
 70
     1
102
RTVSPropertyOp15
 70
     1
102
RTVSPropertyOp16
 70
     1
102
RTVSPropertyOp17
 70
     1
102
RTVSPropertyOp18
 70
     1
102
RTVSPropertyOp19
 70
     1
102
RTVSPropertyOp20
 70
     1
102
RTVSPropertyOp21
 70
     1
102
RTVSPropertyOp22
 70
     1
102
RTVSPropertyOp23
 70
     1
102
RTVSPropertyOp24
 70
     1
102
RTVSPropertyOp25
 70
     1
102
RTVSPropertyOp26
 70
     1
102
RTVSPropertyOp27
 70
     1
  0
XRECORD
  5
552
102
{ACAD_REACTORS
330
551
102
}
330
551
100
AcDbXrecord
280
     1
102
RTVSPropertyOp0
 70
     1
102
RTVSPropertyOp1
 70
     1
102
RTVSPropertyOp2
 70
     1
102
RTVSPropertyOp3
 70
     1
102
RTVSPropertyOp4
 70
     1
102
RTVSPropertyOp5
 70
     1
102
RTVSPropertyOp6
 70
     1
102
RTVSPropertyOp7
 70
     1
102
RTVSPropertyOp8
 70
     1
102
RTVSPropertyOp9
 70
     1
102
RTVSPropertyOp10
 70
     1
102
RTVSPropertyOp11
 70
     1
102
RTVSPropertyOp12
 70
     1
102
RTVSPropertyOp13
 70
     1
102
RTVSPropertyOp14
 70
     1
102
RTVSPropertyOp15
 70
     1
102
RTVSPropertyOp16
 70
     1
102
RTVSPropertyOp17
 70
     1
102
RTVSPropertyOp18
 70
     1
102
RTVSPropertyOp19
 70
     1
102
RTVSPropertyOp20
 70
     1
102
RTVSPropertyOp21
 70
     1
102
RTVSPropertyOp22
 70
     1
102
RTVSPropertyOp23
 70
     1
102
RTVSPropertyOp24
 70
     1
102
RTVSPropertyOp25
 70
     1
102
RTVSPropertyOp26
 70
     1
102
RTVSPropertyOp27
 70
     1
  0
XRECORD
  5
554
102
{ACAD_REACTORS
330
553
102
}
330
553
100
AcDbXrecord
280
     1
102
RTVSPropertyOp0
 70
     1
102
RTVSPropertyOp1
 70
     1
102
RTVSPropertyOp2
 70
     1
102
RTVSPropertyOp3
 70
     1
102
RTVSPropertyOp4
 70
     1
102
RTVSPropertyOp5
 70
     1
102
RTVSPropertyOp6
 70
     1
102
RTVSPropertyOp7
 70
     1
102
RTVSPropertyOp8
 70
     1
102
RTVSPropertyOp9
 70
     1
102
RTVSPropertyOp10
 70
     1
102
RTVSPropertyOp11
 70
     1
102
RTVSPropertyOp12
 70
     1
102
RTVSPropertyOp13
 70
     1
102
RTVSPropertyOp14
 70
     1
102
RTVSPropertyOp15
 70
     1
102
RTVSPropertyOp16
 70
     1
102
RTVSPropertyOp17
 70
     1
102
RTVSPropertyOp18
 70
     1
102
RTVSPropertyOp19
 70
     1
102
RTVSPropertyOp20
 70
     1
102
RTVSPropertyOp21
 70
     1
102
RTVSPropertyOp22
 70
     1
102
RTVSPropertyOp23
 70
     1
102
RTVSPropertyOp24
 70
     1
102
RTVSPropertyOp25
 70
     1
102
RTVSPropertyOp26
 70
     1
102
RTVSPropertyOp27
 70
     1
  0
XRECORD
  5
556
102
{ACAD_REACTORS
330
555
102
}
330
555
100
AcDbXrecord
280
     1
102
RTVSPropertyOp0
 70
     1
102
RTVSPropertyOp1
 70
     1
102
RTVSPropertyOp2
 70
     1
102
RTVSPropertyOp3
 70
     1
102
RTVSPropertyOp4
 70
     1
102
RTVSPropertyOp5
 70
     1
102
RTVSPropertyOp6
 70
     1
102
RTVSPropertyOp7
 70
     1
102
RTVSPropertyOp8
 70
     1
102
RTVSPropertyOp9
 70
     1
102
RTVSPropertyOp10
 70
     1
102
RTVSPropertyOp11
 70
     1
102
RTVSPropertyOp12
 70
     1
102
RTVSPropertyOp13
 70
     1
102
RTVSPropertyOp14
 70
     1
102
RTVSPropertyOp15
 70
     1
102
RTVSPropertyOp16
 70
     1
102
RTVSPropertyOp17
 70
     1
102
RTVSPropertyOp18
 70
     1
102
RTVSPropertyOp19
 70
     1
102
RTVSPropertyOp20
 70
     1
102
RTVSPropertyOp21
 70
     1
102
RTVSPropertyOp22
 70
     1
102
RTVSPropertyOp23
 70
     1
102
RTVSPropertyOp24
 70
     1
102
RTVSPropertyOp25
 70
     1
102
RTVSPropertyOp26
 70
     1
102
RTVSPropertyOp27
 70
     1
  0
XRECORD
  5
558
102
{ACAD_REACTORS
330
557
102
}
330
557
100
AcDbXrecord
280
     1
102
RTVSPropertyOp0
 70
     1
102
RTVSPropertyOp1
 70
     1
102
RTVSPropertyOp2
 70
     1
102
RTVSPropertyOp3
 70
     1
102
RTVSPropertyOp4
 70
     1
102
RTVSPropertyOp5
 70
     1
102
RTVSPropertyOp6
 70
     1
102
RTVSPropertyOp7
 70
     1
102
RTVSPropertyOp8
 70
     1
102
RTVSPropertyOp9
 70
     1
102
RTVSPropertyOp10
 70
     1
102
RTVSPropertyOp11
 70
     1
102
RTVSPropertyOp12
 70
     1
102
RTVSPropertyOp13
 70
     1
102
RTVSPropertyOp14
 70
     1
102
RTVSPropertyOp15
 70
     1
102
RTVSPropertyOp16
 70
     1
102
RTVSPropertyOp17
 70
     1
102
RTVSPropertyOp18
 70
     1
102
RTVSPropertyOp19
 70
     1
102
RTVSPropertyOp20
 70
     1
102
RTVSPropertyOp21
 70
     1
102
RTVSPropertyOp22
 70
     1
102
RTVSPropertyOp23
 70
     1
102
RTVSPropertyOp24
 70
     1
102
RTVSPropertyOp25
 70
     1
102
RTVSPropertyOp26
 70
     1
102
RTVSPropertyOp27
 70
     1
  0
XRECORD
  5
56C
102
{ACAD_REACTORS
330
56B
102
}
330
56B
100
AcDbXrecord
280
     1
102
RTVSPropertyOp0
 70
     1
102
RTVSPropertyOp1
 70
     1
102
RTVSPropertyOp2
 70
     1
102
RTVSPropertyOp3
 70
     1
102
RTVSPropertyOp4
 70
     1
102
RTVSPropertyOp5
 70
     1
102
RTVSPropertyOp6
 70
     1
102
RTVSPropertyOp7
 70
     1
102
RTVSPropertyOp8
 70
     1
102
RTVSPropertyOp9
 70
     1
102
RTVSPropertyOp10
 70
     1
102
RTVSPropertyOp11
 70
     1
102
RTVSPropertyOp12
 70
     1
102
RTVSPropertyOp13
 70
     1
102
RTVSPropertyOp14
 70
     1
102
RTVSPropertyOp15
 70
     1
102
RTVSPropertyOp16
 70
     1
102
RTVSPropertyOp17
 70
     1
102
RTVSPropertyOp18
 70
     1
102
RTVSPropertyOp19
 70
     1
102
RTVSPropertyOp20
 70
     1
102
RTVSPropertyOp21
 70
     1
102
RTVSPropertyOp22
 70
     1
102
RTVSPropertyOp23
 70
     1
102
RTVSPropertyOp24
 70
     1
102
RTVSPropertyOp25
 70
     1
102
RTVSPropertyOp26
 70
     1
102
RTVSPropertyOp27
 70
     1
  0
XRECORD
  5
562
102
{ACAD_REACTORS
330
561
102
}
330
561
100
AcDbXrecord
280
     1
102
RTVSPropertyOp0
 70
     1
102
RTVSPropertyOp1
 70
     1
102
RTVSPropertyOp2
 70
     1
102
RTVSPropertyOp3
 70
     1
102
RTVSPropertyOp4
 70
     1
102
RTVSPropertyOp5
 70
     1
102
RTVSPropertyOp6
 70
     1
102
RTVSPropertyOp7
 70
     1
102
RTVSPropertyOp8
 70
     1
102
RTVSPropertyOp9
 70
     1
102
RTVSPropertyOp10
 70
     1
102
RTVSPropertyOp11
 70
     1
102
RTVSPropertyOp12
 70
     1
102
RTVSPropertyOp13
 70
     1
102
RTVSPropertyOp14
 70
     1
102
RTVSPropertyOp15
 70
     1
102
RTVSPropertyOp16
 70
     1
102
RTVSPropertyOp17
 70
     1
102
RTVSPropertyOp18
 70
     1
102
RTVSPropertyOp19
 70
     1
102
RTVSPropertyOp20
 70
     1
102
RTVSPropertyOp21
 70
     1
102
RTVSPropertyOp22
 70
     1
102
RTVSPropertyOp23
 70
     1
102
RTVSPropertyOp24
 70
     1
102
RTVSPropertyOp25
 70
     1
102
RTVSPropertyOp26
 70
     1
102
RTVSPropertyOp27
 70
     1
  0
XRECORD
  5
56A
102
{ACAD_REACTORS
330
569
102
}
330
569
100
AcDbXrecord
280
     1
102
RTVSPropertyOp0
 70
     1
102
RTVSPropertyOp1
 70
     1
102
RTVSPropertyOp2
 70
     1
102
RTVSPropertyOp3
 70
     1
102
RTVSPropertyOp4
 70
     1
102
RTVSPropertyOp5
 70
     1
102
RTVSPropertyOp6
 70
     1
102
RTVSPropertyOp7
 70
     1
102
RTVSPropertyOp8
 70
     1
102
RTVSPropertyOp9
 70
     1
102
RTVSPropertyOp10
 70
     1
102
RTVSPropertyOp11
 70
     1
102
RTVSPropertyOp12
 70
     1
102
RTVSPropertyOp13
 70
     1
102
RTVSPropertyOp14
 70
     1
102
RTVSPropertyOp15
 70
     1
102
RTVSPropertyOp16
 70
     1
102
RTVSPropertyOp17
 70
     1
102
RTVSPropertyOp18
 70
     1
102
RTVSPropertyOp19
 70
     1
102
RTVSPropertyOp20
 70
     1
102
RTVSPropertyOp21
 70
     1
102
RTVSPropertyOp22
 70
     1
102
RTVSPropertyOp23
 70
     1
102
RTVSPropertyOp24
 70
     1
102
RTVSPropertyOp25
 70
     1
102
RTVSPropertyOp26
 70
     1
102
RTVSPropertyOp27
 70
     1
  0
ENDSEC
  0
EOF
