  0
SECTION
  2
HEADER
  9
$ACADVER
  1
AC1015
  9
$ACADMAINTVER
 70
     6
  9
$DWGCODEPAGE
  3
ANSI_932
  9
$INSBASE
 10
0.0
 20
0.0
 30
0.0
  9
$EXTMIN
 10
-99.2657050459606
 20
-50.2986378164239
 30
0.0
  9
$EXTMAX
 10
341.950718958067
 20
547.499999999999
 30
0.0
  9
$LIMMIN
 10
0.0
 20
0.0
  9
$LIMMAX
 10
12.0
 20
9.0
  9
$ORTHOMODE
 70
     0
  9
$REGENMODE
 70
     1
  9
$FILLMODE
 70
     1
  9
$QTEXTMODE
 70
     0
  9
$MIRRTEXT
 70
     1
  9
$LTSCALE
 40
1.0
  9
$ATTMODE
 70
     1
  9
$TEXTSIZE
 40
0.2
  9
$TRACEWID
 40
0.05
  9
$TEXTSTYLE
  7
Standard
  9
$CLAYER
  8
0
  9
$CELTYPE
  6
ByLayer
  9
$CECOLOR
 62
   256
  9
$CELTSCALE
 40
1.0
  9
$DISPSILH
 70
     0
  9
$DIMSCALE
 40
1.0
  9
$DIMASZ
 40
0.18
  9
$DIMEXO
 40
0.0625
  9
$DIMDLI
 40
0.38
  9
$DIMRND
 40
0.0
  9
$DIMDLE
 40
0.0
  9
$DIMEXE
 40
0.18
  9
$DIMTP
 40
0.0
  9
$DIMTM
 40
0.0
  9
$DIMTXT
 40
0.18
  9
$DIMCEN
 40
0.09
  9
$DIMTSZ
 40
0.0
  9
$DIMTOL
 70
     0
  9
$DIMLIM
 70
     0
  9
$DIMTIH
 70
     1
  9
$DIMTOH
 70
     1
  9
$DIMSE1
 70
     0
  9
$DIMSE2
 70
     0
  9
$DIMTAD
 70
     0
  9
$DIMZIN
 70
     0
  9
$DIMBLK
  1

  9
$DIMASO
 70
     1
  9
$DIMSHO
 70
     1
  9
$DIMPOST
  1

  9
$DIMAPOST
  1

  9
$DIMALT
 70
     0
  9
$DIMALTD
 70
     2
  9
$DIMALTF
 40
25.4
  9
$DIMLFAC
 40
1.0
  9
$DIMTOFL
 70
     0
  9
$DIMTVP
 40
0.0
  9
$DIMTIX
 70
     0
  9
$DIMSOXD
 70
     0
  9
$DIMSAH
 70
     0
  9
$DIMBLK1
  1

  9
$DIMBLK2
  1

  9
$DIMSTYLE
  2
Standard
  9
$DIMCLRD
 70
     0
  9
$DIMCLRE
 70
     0
  9
$DIMCLRT
 70
     0
  9
$DIMTFAC
 40
1.0
  9
$DIMGAP
 40
0.09
  9
$DIMJUST
 70
     0
  9
$DIMSD1
 70
     0
  9
$DIMSD2
 70
     0
  9
$DIMTOLJ
 70
     1
  9
$DIMTZIN
 70
     0
  9
$DIMALTZ
 70
     0
  9
$DIMALTTZ
 70
     0
  9
$DIMUPT
 70
     0
  9
$DIMDEC
 70
     4
  9
$DIMTDEC
 70
     4
  9
$DIMALTU
 70
     2
  9
$DIMALTTD
 70
     2
  9
$DIMTXSTY
  7
Standard
  9
$DIMAUNIT
 70
     0
  9
$DIMADEC
 70
     0
  9
$DIMALTRND
 40
0.0
  9
$DIMAZIN
 70
     0
  9
$DIMDSEP
 70
    46
  9
$DIMATFIT
 70
     3
  9
$DIMFRAC
 70
     0
  9
$DIMLDRBLK
  1

  9
$DIMLUNIT
 70
     2
  9
$DIMLWD
 70
    -2
  9
$DIMLWE
 70
    -2
  9
$DIMTMOVE
 70
     0
  9
$LUNITS
 70
     2
  9
$LUPREC
 70
     4
  9
$SKETCHINC
 40
0.1
  9
$FILLETRAD
 40
0.5
  9
$AUNITS
 70
     0
  9
$AUPREC
 70
     0
  9
$MENU
  1
.
  9
$ELEVATION
 40
0.0
  9
$PELEVATION
 40
0.0
  9
$THICKNESS
 40
0.0
  9
$LIMCHECK
 70
     0
  9
$CHAMFERA
 40
0.5
  9
$CHAMFERB
 40
0.5
  9
$CHAMFERC
 40
1.0
  9
$CHAMFERD
 40
0.0
  9
$SKPOLY
 70
     0
  9
$TDCREATE
 40
2457624.598133588
  9
$TDUCREATE
 40
2457624.223133588
  9
$TDUPDATE
 40
2457624.598133599
  9
$TDUUPDATE
 40
2457624.223133599
  9
$TDINDWG
 40
0.0000000116
  9
$TDUSRTIMER
 40
0.0000000116
  9
$USRTIMER
 70
     1
  9
$ANGBASE
 50
0.0
  9
$ANGDIR
 70
     0
  9
$PDMODE
 70
     0
  9
$PDSIZE
 40
0.0
  9
$PLINEWID
 40
0.0
  9
$SPLFRAME
 70
     0
  9
$SPLINETYPE
 70
     6
  9
$SPLINESEGS
 70
     8
  9
$HANDSEED
  5
58C
  9
$SURFTAB1
 70
     6
  9
$SURFTAB2
 70
     6
  9
$SURFTYPE
 70
     6
  9
$SURFU
 70
     6
  9
$SURFV
 70
     6
  9
$UCSBASE
  2

  9
$UCSNAME
  2

  9
$UCSORG
 10
0.0
 20
0.0
 30
0.0
  9
$UCSXDIR
 10
1.0
 20
0.0
 30
0.0
  9
$UCSYDIR
 10
0.0
 20
1.0
 30
0.0
  9
$UCSORTHOREF
  2

  9
$UCSORTHOVIEW
 70
     0
  9
$UCSORGTOP
 10
0.0
 20
0.0
 30
0.0
  9
$UCSORGBOTTOM
 10
0.0
 20
0.0
 30
0.0
  9
$UCSORGLEFT
 10
0.0
 20
0.0
 30
0.0
  9
$UCSORGRIGHT
 10
0.0
 20
0.0
 30
0.0
  9
$UCSORGFRONT
 10
0.0
 20
0.0
 30
0.0
  9
$UCSORGBACK
 10
0.0
 20
0.0
 30
0.0
  9
$PUCSBASE
  2

  9
$PUCSNAME
  2

  9
$PUCSORG
 10
0.0
 20
0.0
 30
0.0
  9
$PUCSXDIR
 10
1.0
 20
0.0
 30
0.0
  9
$PUCSYDIR
 10
0.0
 20
1.0
 30
0.0
  9
$PUCSORTHOREF
  2

  9
$PUCSORTHOVIEW
 70
     0
  9
$PUCSORGTOP
 10
0.0
 20
0.0
 30
0.0
  9
$PUCSORGBOTTOM
 10
0.0
 20
0.0
 30
0.0
  9
$PUCSORGLEFT
 10
0.0
 20
0.0
 30
0.0
  9
$PUCSORGRIGHT
 10
0.0
 20
0.0
 30
0.0
  9
$PUCSORGFRONT
 10
0.0
 20
0.0
 30
0.0
  9
$PUCSORGBACK
 10
0.0
 20
0.0
 30
0.0
  9
$USERI1
 70
     0
  9
$USERI2
 70
     0
  9
$USERI3
 70
     0
  9
$USERI4
 70
     0
  9
$USERI5
 70
     0
  9
$USERR1
 40
18.0
  9
$USERR2
 40
0.0
  9
$USERR3
 40
0.0
  9
$USERR4
 40
0.0
  9
$USERR5
 40
0.0
  9
$WORLDVIEW
 70
     1
  9
$SHADEDGE
 70
     3
  9
$SHADEDIF
 70
    70
  9
$TILEMODE
 70
     1
  9
$MAXACTVP
 70
    64
  9
$PINSBASE
 10
0.0
 20
0.0
 30
0.0
  9
$PLIMCHECK
 70
     0
  9
$PEXTMIN
 10
1.00000000000000E+20
 20
1.00000000000000E+20
 30
1.00000000000000E+20
  9
$PEXTMAX
 10
-1.00000000000000E+20
 20
-1.00000000000000E+20
 30
-1.00000000000000E+20
  9
$PLIMMIN
 10
0.0
 20
0.0
  9
$PLIMMAX
 10
12.0
 20
9.0
  9
$UNITMODE
 70
     0
  9
$VISRETAIN
 70
     1
  9
$PLINEGEN
 70
     0
  9
$PSLTSCALE
 70
     1
  9
$TREEDEPTH
 70
  3020
  9
$CMLSTYLE
  2
Standard
  9
$CMLJUST
 70
     0
  9
$CMLSCALE
 40
1.0
  9
$PROXYGRAPHICS
 70
     1
  9
$MEASUREMENT
 70
     1
  9
$CELWEIGHT
370
    -1
  9
$ENDCAPS
280
     0
  9
$JOINSTYLE
280
     0
  9
$LWDISPLAY
290
     0
  9
$INSUNITS
 70
     1
  9
$HYPERLINKBASE
  1

  9
$STYLESHEET
  1

  9
$XEDIT
290
     1
  9
$CEPSNTYPE
380
     0
  9
$PSTYLEMODE
290
     1
  9
$FINGERPRINTGUID
  2
{9BE52EB5-60E3-4D8E-89DC-9813DEC4DFC1}
  9
$VERSIONGUID
  2
{FAEB1C32-E019-11D5-929B-00C0DF256EC4}
  9
$EXTNAMES
290
     1
  9
$PSVPSCALE
 40
0.0
  9
$OLESTARTUP
290
     0
  0
ENDSEC
  0
SECTION
  2
CLASSES
  0
CLASS
  1
ACDBDICTIONARYWDFLT
  2
AcDbDictionaryWithDefault
  3
ObjectDBX Classes
 90
        0
280
     0
281
     0
  0
CLASS
  1
VISUALSTYLE
  2
AcDbVisualStyle
  3
ObjectDBX Classes
 90
     4095
280
     0
281
     0
  0
CLASS
  1
MATERIAL
  2
AcDbMaterial
  3
ObjectDBX Classes
 90
     1153
280
     0
281
     0
  0
CLASS
  1

  2
exOdDbCircle
  3

 90
        0
280
     0
281
     1
  0
CLASS
  1

  2
exOdDbSpline
  3

 90
        0
280
     0
281
     1
  0
CLASS
  1

  2
exOdDbPolyline
  3

 90
        0
280
     0
281
     1
  0
CLASS
  1
DICTIONARYVAR
  2
AcDbDictionaryVar
  3
ObjectDBX Classes
 90
        0
280
     0
281
     0
  0
CLASS
  1
ACDBPLACEHOLDER
  2
AcDbPlaceHolder
  3
ObjectDBX Classes
 90
        0
280
     0
281
     0
  0
CLASS
  1
LAYOUT
  2
AcDbLayout
  3
ObjectDBX Classes
 90
        0
280
     0
281
     0
  0
ENDSEC
  0
SECTION
  2
TABLES
  0
TABLE
  2
VPORT
  5
8
330
0
100
AcDbSymbolTable
 70
     1
  0
VPORT
  5
29
330
8
100
AcDbSymbolTableRecord
100
AcDbViewportTableRecord
  2
*Active
 70
     0
 10
0.0
 20
0.0
 11
1.0
 21
1.0
 12
121.3425069560532
 22
248.6006810917875
 13
0.0
 23
0.0
 14
0.5
 24
0.5
 15
0.5
 25
0.5
 16
0.0
 26
0.0
 36
1.0
 17
0.0
 27
0.0
 37
0.0
 40
657.5785015980653
 41
1.60267857142857
 42
50.0
 43
0.0
 44
0.0
 50
0.0
 51
0.0
 71
     0
 72
   100
 73
     1
 74
     3
 75
     0
 76
     0
 77
     0
 78
     0
281
     0
 65
     1
110
0.0
120
0.0
130
0.0
111
1.0
121
0.0
131
0.0
112
0.0
122
1.0
132
0.0
 79
     0
146
0.0
  0
ENDTAB
  0
TABLE
  2
LTYPE
  5
5
330
0
100
AcDbSymbolTable
 70
     9
  0
LTYPE
  5
14
330
5
100
AcDbSymbolTableRecord
100
AcDbLinetypeTableRecord
  2
ByBlock
 70
     0
  3

 72
    65
 73
     0
 40
0.0
  0
LTYPE
  5
15
330
5
100
AcDbSymbolTableRecord
100
AcDbLinetypeTableRecord
  2
ByLayer
 70
     0
  3

 72
    65
 73
     0
 40
0.0
  0
LTYPE
  5
16
330
5
100
AcDbSymbolTableRecord
100
AcDbLinetypeTableRecord
  2
Continuous
 70
     0
  3
Solid line
 72
    65
 73
     0
 40
0.0
  0
LTYPE
  5
3F
330
5
100
AcDbSymbolTableRecord
100
AcDbLinetypeTableRecord
  2
DASHED
 70
     0
  3
Dashed
 72
    65
 73
     2
 40
15.0
 49
7.0
 74
     0
 49
-8.0
 74
     0
  0
LTYPE
  5
40
330
5
100
AcDbSymbolTableRecord
100
AcDbLinetypeTableRecord
  2
DOTTED
 70
     0
  3
Dotted
 72
    65
 73
     2
 40
1.0
 49
0.0
 74
     0
 49
-1.0
 74
     0
  0
LTYPE
  5
41
330
5
100
AcDbSymbolTableRecord
100
AcDbLinetypeTableRecord
  2
DOT_CENTER
 70
     0
  3
Dot_Center
 72
    65
 73
     4
 40
14.0
 49
12.0
 74
     0
 49
-1.0
 74
     0
 49
0.0
 74
     0
 49
-1.0
 74
     0
  0
LTYPE
  5
42
330
5
100
AcDbSymbolTableRecord
100
AcDbLinetypeTableRecord
  2
LONG_DASHED
 70
     0
  3
Long_Dashed
 72
    65
 73
     2
 40
15.0
 49
10.0
 74
     0
 49
-5.0
 74
     0
  0
LTYPE
  5
43
330
5
100
AcDbSymbolTableRecord
100
AcDbLinetypeTableRecord
  2
DASH_CENTER
 70
     0
  3
Dash_Center
 72
    65
 73
     4
 40
14.0
 49
11.0
 74
     0
 49
-1.0
 74
     0
 49
1.0
 74
     0
 49
-1.0
 74
     0
  0
LTYPE
  5
44
330
5
100
AcDbSymbolTableRecord
100
AcDbLinetypeTableRecord
  2
PHANTOM
 70
     0
  3
Phantom
 72
    65
 73
     6
 40
13.0
 49
10.0
 74
     0
 49
-1.0
 74
     0
 49
0.0
 74
     0
 49
-1.0
 74
     0
 49
0.0
 74
     0
 49
-1.0
 74
     0
  0
LTYPE
  5
45
330
5
100
AcDbSymbolTableRecord
100
AcDbLinetypeTableRecord
  2
CENTER_DASH_DASH
 70
     0
  3
Center_Dash_Dash
 72
    65
 73
     6
 40
14.0
 49
9.0
 74
     0
 49
-1.0
 74
     0
 49
1.0
 74
     0
 49
-1.0
 74
     0
 49
1.0
 74
     0
 49
-1.0
 74
     0
  0
LTYPE
  5
46
330
5
100
AcDbSymbolTableRecord
100
AcDbLinetypeTableRecord
  2
CENTER
 70
     0
  3
CENTER
 72
    65
 73
     4
 40
6.0
 49
3.0
 74
     0
 49
-1.0
 74
     0
 49
1.0
 74
     0
 49
-1.0
 74
     0
  0
ENDTAB
  0
TABLE
  2
LAYER
  5
2
330
0
100
AcDbSymbolTable
 70
     5
  0
LAYER
  5
10
330
2
100
AcDbSymbolTableRecord
100
AcDbLayerTableRecord
  2
0
 70
     0
 62
     7
  6
Continuous
370
    -3
390
F
  0
LAYER
  5
47
330
2
100
AcDbSymbolTableRecord
100
AcDbLayerTableRecord
  2
1
 70
     0
 62
     7
  6
Continuous
370
    -3
390
F
  0
LAYER
  5
48
330
2
100
AcDbSymbolTableRecord
100
AcDbLayerTableRecord
  2
100
 70
     0
 62
     7
  6
Continuous
370
    -3
390
F
  0
LAYER
  5
49
330
2
100
AcDbSymbolTableRecord
100
AcDbLayerTableRecord
  2
2
 70
     0
 62
     7
  6
Continuous
370
    -3
390
F
  0
LAYER
  5
4A
330
2
100
AcDbSymbolTableRecord
100
AcDbLayerTableRecord
  2
3
 70
     0
 62
     7
  6
Continuous
370
    -3
390
F
  0
ENDTAB
  0
TABLE
  2
STYLE
  5
3
330
0
100
AcDbSymbolTable
 70
     1
  0
STYLE
  5
11
330
3
100
AcDbSymbolTableRecord
100
AcDbTextStyleTableRecord
  2
Standard
 70
     0
 40
0.0
 41
1.0
 50
0.0
 71
     0
 42
0.2
  3
txt
  4

  0
ENDTAB
  0
TABLE
  2
VIEW
  5
6
330
0
100
AcDbSymbolTable
 70
     0
  0
ENDTAB
  0
TABLE
  2
UCS
  5
7
330
0
100
AcDbSymbolTable
 70
     0
  0
ENDTAB
  0
TABLE
  2
APPID
  5
9
330
0
100
AcDbSymbolTable
 70
     1
  0
APPID
  5
12
330
9
100
AcDbSymbolTableRecord
100
AcDbRegAppTableRecord
  2
ACAD
 70
     0
  0
ENDTAB
  0
TABLE
  2
DIMSTYLE
  5
A
330
0
100
AcDbSymbolTable
 70
     1
100
AcDbDimStyleTable
  0
DIMSTYLE
105
27
330
A
100
AcDbSymbolTableRecord
100
AcDbDimStyleTableRecord
  2
Standard
 70
     0
340
11
  0
ENDTAB
  0
TABLE
  2
BLOCK_RECORD
  5
1
330
0
100
AcDbSymbolTable
 70
     1
  0
BLOCK_RECORD
  5
1F
330
1
100
AcDbSymbolTableRecord
100
AcDbBlockTableRecord
  2
*Model_Space
340
22
  0
BLOCK_RECORD
  5
1B
330
1
100
AcDbSymbolTableRecord
100
AcDbBlockTableRecord
  2
*Paper_Space
340
1E
  0
BLOCK_RECORD
  5
23
330
1
100
AcDbSymbolTableRecord
100
AcDbBlockTableRecord
  2
*Paper_Space0
340
26
  0
ENDTAB
  0
ENDSEC
  0
SECTION
  2
BLOCKS
  0
BLOCK
  5
20
330
1F
100
AcDbEntity
  8
0
100
AcDbBlockBegin
  2
*Model_Space
 70
     0
 10
0.0
 20
0.0
 30
0.0
  3
*Model_Space
  1

  0
ENDBLK
  5
21
330
1F
100
AcDbEntity
  8
0
100
AcDbBlockEnd
  0
BLOCK
  5
1C
330
1B
100
AcDbEntity
 67
     1
  8
0
100
AcDbBlockBegin
  2
*Paper_Space
 70
     0
 10
0.0
 20
0.0
 30
0.0
  3
*Paper_Space
  1

  0
ENDBLK
  5
1D
330
1B
100
AcDbEntity
 67
     1
  8
0
100
AcDbBlockEnd
  0
BLOCK
  5
24
330
23
100
AcDbEntity
  8
0
100
AcDbBlockBegin
  2
*Paper_Space0
 70
     0
 10
0.0
 20
0.0
 30
0.0
  3
*Paper_Space0
  1

  0
ENDBLK
  5
25
330
23
100
AcDbEntity
  8
0
100
AcDbBlockEnd
  0
ENDSEC
  0
SECTION
  2
ENTITIES
  0
LINE
  5
4B
330
1F
100
AcDbEntity
  8
1
  6
Continuous
 62
     4
100
AcDbLine
 10
91.1427513225731
 20
-26.408260291968
 30
0.0
 11
93.1427513225731
 21
-27.658260291968
 31
0.0
  0
LINE
  5
4C
330
1F
100
AcDbEntity
  8
1
  6
Continuous
 62
     4
100
AcDbLine
 10
93.8927513225731
 20
-25.783260291968
 30
0.0
 11
92.2677513225731
 21
-24.533260291968
 31
0.0
  0
LINE
  5
4D
330
1F
100
AcDbEntity
  8
1
  6
Continuous
 62
     4
100
AcDbLine
 10
95.2677513225731
 20
-24.283260291968
 30
0.0
 11
96.1427513225731
 21
-25.158260291968
 31
0.0
  0
LINE
  5
4E
330
1F
100
AcDbEntity
  8
1
  6
Continuous
 62
     4
100
AcDbLine
 10
96.7677513225731
 20
-24.533260291968
 30
0.0
 11
95.8927513225731
 21
-23.658260291968
 31
0.0
  0
LINE
  5
4F
330
1F
100
AcDbEntity
  8
1
  6
Continuous
 62
     4
100
AcDbLine
 10
96.1427513225731
 20
-28.283260291968
 30
0.0
 11
97.5177513225731
 21
-26.408260291968
 31
0.0
  0
LINE
  5
50
330
1F
100
AcDbEntity
  8
1
  6
Continuous
 62
     4
100
AcDbLine
 10
93.8927513225731
 20
-30.158260291968
 30
0.0
 11
96.1427513225731
 21
-28.283260291968
 31
0.0
  0
LINE
  5
51
330
1F
100
AcDbEntity
  8
1
  6
Continuous
 62
     4
100
AcDbLine
 10
91.7677513225731
 20
-31.408260291968
 30
0.0
 11
93.8927513225731
 21
-30.158260291968
 31
0.0
  0
LINE
  5
52
330
1F
100
AcDbEntity
  8
1
  6
Continuous
 62
     4
100
AcDbLine
 10
86.3927513225731
 20
-28.658260291968
 30
0.0
 11
87.2677513225731
 21
-29.908260291968
 31
0.0
  0
LINE
  5
53
330
1F
100
AcDbEntity
  8
1
  6
Continuous
 62
     4
100
AcDbLine
 10
85.2677513225731
 20
-27.658260291968
 30
0.0
 11
86.3927513225731
 21
-28.658260291968
 31
0.0
  0
LINE
  5
54
330
1F
100
AcDbEntity
  8
1
  6
Continuous
 62
     4
100
AcDbLine
 10
84.5177513225731
 20
-23.658260291968
 30
0.0
 11
85.0177513225731
 21
-24.283260291968
 31
0.0
  0
LINE
  5
55
330
1F
100
AcDbEntity
  8
1
  6
Continuous
 62
     4
100
AcDbLine
 10
83.3927513225731
 20
-23.033260291968
 30
0.0
 11
84.5177513225731
 21
-23.658260291968
 31
0.0
  0
LINE
  5
56
330
1F
100
AcDbEntity
  8
1
  6
Continuous
 62
     4
100
AcDbLine
 10
85.8927513225731
 20
-25.533260291968
 30
0.0
 11
82.0177513225731
 21
-25.533260291968
 31
0.0
  0
LINE
  5
57
330
1F
100
AcDbEntity
  8
1
  6
Continuous
 62
     4
100
AcDbLine
 10
83.8927513225731
 20
-27.658260291968
 30
0.0
 11
85.8927513225731
 21
-25.533260291968
 31
0.0
  0
LINE
  5
58
330
1F
100
AcDbEntity
  8
1
  6
Continuous
 62
     4
100
AcDbLine
 10
81.1427513225731
 20
-29.533260291968
 30
0.0
 11
83.8927513225731
 21
-27.658260291968
 31
0.0
  0
LINE
  5
59
330
1F
100
AcDbEntity
  8
1
  6
Continuous
 62
     4
100
AcDbLine
 10
84.2677513225731
 20
-31.408260291968
 30
0.0
 11
84.2677513225731
 21
-27.408260291968
 31
0.0
  0
LINE
  5
5A
330
1F
100
AcDbEntity
  8
1
  6
Continuous
 62
     4
100
AcDbLine
 10
75.2677513225731
 20
-28.408260291968
 30
0.0
 11
75.2677513225731
 21
-32.408260291968
 31
0.0
  0
LINE
  5
5B
330
1F
100
AcDbEntity
  8
1
  6
Continuous
 62
     4
100
AcDbLine
 10
70.7677513225731
 20
-30.408260291968
 30
0.0
 11
76.7677513225731
 21
-30.408260291968
 31
0.0
  0
LINE
  5
5C
330
1F
100
AcDbEntity
  8
1
  6
Continuous
 62
     4
100
AcDbLine
 10
75.2677513225731
 20
-22.408260291968
 30
0.0
 11
70.7677513225731
 21
-30.408260291968
 31
0.0
  0
LINE
  5
5D
330
1F
100
AcDbEntity
  8
1
  6
Continuous
 62
     4
100
AcDbLine
 10
63.76775132257311
 20
-32.408260291968
 30
0.0
 11
67.7677513225731
 21
-22.408260291968
 31
0.0
  0
LINE
  5
5E
330
1F
100
AcDbEntity
  8
1
  6
Continuous
 62
     4
100
AcDbLine
 10
58.51775132257311
 20
-32.408260291968
 30
0.0
 11
54.76775132257311
 21
-32.408260291968
 31
0.0
  0
LINE
  5
5F
330
1F
100
AcDbEntity
  8
1
  6
Continuous
 62
     4
100
AcDbLine
 10
59.26775132257311
 20
-32.158260291968
 30
0.0
 11
58.51775132257311
 21
-32.408260291968
 31
0.0
  0
LINE
  5
60
330
1F
100
AcDbEntity
  8
1
  6
Continuous
 62
     4
100
AcDbLine
 10
60.01775132257311
 20
-31.658260291968
 30
0.0
 11
59.26775132257311
 21
-32.158260291968
 31
0.0
  0
LINE
  5
61
330
1F
100
AcDbEntity
  8
1
  6
Continuous
 62
     4
100
AcDbLine
 10
60.51775132257311
 20
-30.908260291968
 30
0.0
 11
60.01775132257311
 21
-31.658260291968
 31
0.0
  0
LINE
  5
62
330
1F
100
AcDbEntity
  8
1
  6
Continuous
 62
     4
100
AcDbLine
 10
60.76775132257311
 20
-29.908260291968
 30
0.0
 11
60.51775132257311
 21
-30.908260291968
 31
0.0
  0
LINE
  5
63
330
1F
100
AcDbEntity
  8
1
  6
Continuous
 62
     4
100
AcDbLine
 10
60.76775132257311
 20
-28.658260291968
 30
0.0
 11
60.76775132257311
 21
-29.908260291968
 31
0.0
  0
LINE
  5
64
330
1F
100
AcDbEntity
  8
1
  6
Continuous
 62
     4
100
AcDbLine
 10
60.51775132257311
 20
-27.658260291968
 30
0.0
 11
60.76775132257311
 21
-28.658260291968
 31
0.0
  0
LINE
  5
65
330
1F
100
AcDbEntity
  8
1
  6
Continuous
 62
     4
100
AcDbLine
 10
60.26775132257311
 20
-27.158260291968
 30
0.0
 11
60.51775132257311
 21
-27.658260291968
 31
0.0
  0
LINE
  5
66
330
1F
100
AcDbEntity
  8
1
  6
Continuous
 62
     4
100
AcDbLine
 10
59.76775132257311
 20
-26.658260291968
 30
0.0
 11
60.26775132257311
 21
-27.158260291968
 31
0.0
  0
LINE
  5
67
330
1F
100
AcDbEntity
  8
1
  6
Continuous
 62
     4
100
AcDbLine
 10
58.76775132257311
 20
-26.408260291968
 30
0.0
 11
59.76775132257311
 21
-26.658260291968
 31
0.0
  0
LINE
  5
68
330
1F
100
AcDbEntity
  8
1
  6
Continuous
 62
     4
100
AcDbLine
 10
59.51775132257311
 20
-26.158260291968
 30
0.0
 11
58.76775132257311
 21
-26.408260291968
 31
0.0
  0
LINE
  5
69
330
1F
100
AcDbEntity
  8
1
  6
Continuous
 62
     4
100
AcDbLine
 10
60.01775132257311
 20
-25.908260291968
 30
0.0
 11
59.51775132257311
 21
-26.158260291968
 31
0.0
  0
LINE
  5
6A
330
1F
100
AcDbEntity
  8
1
  6
Continuous
 62
     4
100
AcDbLine
 10
60.51775132257311
 20
-25.408260291968
 30
0.0
 11
60.01775132257311
 21
-25.908260291968
 31
0.0
  0
LINE
  5
6B
330
1F
100
AcDbEntity
  8
1
  6
Continuous
 62
     4
100
AcDbLine
 10
60.76775132257311
 20
-24.658260291968
 30
0.0
 11
60.51775132257311
 21
-25.408260291968
 31
0.0
  0
LINE
  5
6C
330
1F
100
AcDbEntity
  8
1
  6
Continuous
 62
     4
100
AcDbLine
 10
60.76775132257311
 20
-23.908260291968
 30
0.0
 11
60.76775132257311
 21
-24.658260291968
 31
0.0
  0
LINE
  5
6D
330
1F
100
AcDbEntity
  8
1
  6
Continuous
 62
     4
100
AcDbLine
 10
60.51775132257311
 20
-23.158260291968
 30
0.0
 11
60.76775132257311
 21
-23.908260291968
 31
0.0
  0
LINE
  5
6E
330
1F
100
AcDbEntity
  8
1
  6
Continuous
 62
     4
100
AcDbLine
 10
59.76775132257311
 20
-22.658260291968
 30
0.0
 11
60.51775132257311
 21
-23.158260291968
 31
0.0
  0
LINE
  5
6F
330
1F
100
AcDbEntity
  8
1
  6
Continuous
 62
     4
100
AcDbLine
 10
58.51775132257311
 20
-22.408260291968
 30
0.0
 11
59.76775132257311
 21
-22.658260291968
 31
0.0
  0
LINE
  5
70
330
1F
100
AcDbEntity
  8
1
  6
Continuous
 62
     4
100
AcDbLine
 10
54.76775132257311
 20
-22.408260291968
 30
0.0
 11
58.51775132257311
 21
-22.408260291968
 31
0.0
  0
LINE
  5
71
330
1F
100
AcDbEntity
  8
1
  6
Continuous
 62
     4
100
AcDbLine
 10
56.26775132257311
 20
-26.408260291968
 30
0.0
 11
58.76775132257311
 21
-26.408260291968
 31
0.0
  0
LINE
  5
72
330
1F
100
AcDbEntity
  8
1
  6
Continuous
 62
     4
100
AcDbLine
 10
51.76775132257311
 20
-26.908260291968
 30
0.0
 11
49.26775132257311
 21
-26.908260291968
 31
0.0
  0
LINE
  5
73
330
1F
100
AcDbEntity
  8
1
  6
Continuous
 62
     4
100
AcDbLine
 10
51.76775132257311
 20
-32.408260291968
 30
0.0
 11
51.76775132257311
 21
-26.908260291968
 31
0.0
  0
LINE
  5
74
330
1F
100
AcDbEntity
  8
1
  6
Continuous
 62
     4
100
AcDbLine
 10
47.51775132257311
 20
-32.408260291968
 30
0.0
 11
51.76775132257311
 21
-32.408260291968
 31
0.0
  0
LINE
  5
75
330
1F
100
AcDbEntity
  8
1
  6
Continuous
 62
     4
100
AcDbLine
 10
46.76775132257311
 20
-32.158260291968
 30
0.0
 11
47.51775132257311
 21
-32.408260291968
 31
0.0
  0
LINE
  5
76
330
1F
100
AcDbEntity
  8
1
  6
Continuous
 62
     4
100
AcDbLine
 10
45.76775132257311
 20
-31.658260291968
 30
0.0
 11
46.76775132257311
 21
-32.158260291968
 31
0.0
  0
LINE
  5
77
330
1F
100
AcDbEntity
  8
1
  6
Continuous
 62
     4
100
AcDbLine
 10
45.26775132257311
 20
-31.158260291968
 30
0.0
 11
45.76775132257311
 21
-31.658260291968
 31
0.0
  0
LINE
  5
78
330
1F
100
AcDbEntity
  8
1
  6
Continuous
 62
     4
100
AcDbLine
 10
45.01775132257311
 20
-30.408260291968
 30
0.0
 11
45.26775132257311
 21
-31.158260291968
 31
0.0
  0
LINE
  5
79
330
1F
100
AcDbEntity
  8
1
  6
Continuous
 62
     4
100
AcDbLine
 10
44.76775132257311
 20
-29.408260291968
 30
0.0
 11
45.01775132257311
 21
-30.408260291968
 31
0.0
  0
LINE
  5
7A
330
1F
100
AcDbEntity
  8
1
  6
Continuous
 62
     4
100
AcDbLine
 10
44.76775132257311
 20
-25.408260291968
 30
0.0
 11
44.76775132257311
 21
-29.408260291968
 31
0.0
  0
LINE
  5
7B
330
1F
100
AcDbEntity
  8
1
  6
Continuous
 62
     4
100
AcDbLine
 10
45.01775132257311
 20
-24.408260291968
 30
0.0
 11
44.76775132257311
 21
-25.408260291968
 31
0.0
  0
LINE
  5
7C
330
1F
100
AcDbEntity
  8
1
  6
Continuous
 62
     4
100
AcDbLine
 10
45.26775132257311
 20
-23.658260291968
 30
0.0
 11
45.01775132257311
 21
-24.408260291968
 31
0.0
  0
LINE
  5
7D
330
1F
100
AcDbEntity
  8
1
  6
Continuous
 62
     4
100
AcDbLine
 10
45.76775132257311
 20
-23.158260291968
 30
0.0
 11
45.26775132257311
 21
-23.658260291968
 31
0.0
  0
LINE
  5
7E
330
1F
100
AcDbEntity
  8
1
  6
Continuous
 62
     4
100
AcDbLine
 10
46.51775132257311
 20
-22.658260291968
 30
0.0
 11
45.76775132257311
 21
-23.158260291968
 31
0.0
  0
LINE
  5
7F
330
1F
100
AcDbEntity
  8
1
  6
Continuous
 62
     4
100
AcDbLine
 10
47.51775132257311
 20
-22.408260291968
 30
0.0
 11
46.51775132257311
 21
-22.658260291968
 31
0.0
  0
LINE
  5
80
330
1F
100
AcDbEntity
  8
1
  6
Continuous
 62
     4
100
AcDbLine
 10
51.76775132257311
 20
-22.408260291968
 30
0.0
 11
47.51775132257311
 21
-22.408260291968
 31
0.0
  0
LINE
  5
81
330
1F
100
AcDbEntity
  8
1
  6
Continuous
 62
     4
100
AcDbLine
 10
276.700718958067
 20
429.663244459226
 30
0.0
 11
272.950718958067
 21
429.663244459226
 31
0.0
  0
LINE
  5
82
330
1F
100
AcDbEntity
  8
1
  6
Continuous
 62
     4
100
AcDbLine
 10
277.450718958067
 20
429.913244459226
 30
0.0
 11
276.700718958067
 21
429.663244459226
 31
0.0
  0
LINE
  5
83
330
1F
100
AcDbEntity
  8
1
  6
Continuous
 62
     4
100
AcDbLine
 10
278.200718958067
 20
430.413244459226
 30
0.0
 11
277.450718958067
 21
429.913244459226
 31
0.0
  0
LINE
  5
84
330
1F
100
AcDbEntity
  8
1
  6
Continuous
 62
     4
100
AcDbLine
 10
278.700718958067
 20
431.163244459226
 30
0.0
 11
278.200718958067
 21
430.413244459226
 31
0.0
  0
LINE
  5
85
330
1F
100
AcDbEntity
  8
1
  6
Continuous
 62
     4
100
AcDbLine
 10
278.950718958067
 20
432.163244459226
 30
0.0
 11
278.700718958067
 21
431.163244459226
 31
0.0
  0
LINE
  5
86
330
1F
100
AcDbEntity
  8
1
  6
Continuous
 62
     4
100
AcDbLine
 10
278.950718958067
 20
433.413244459226
 30
0.0
 11
278.950718958067
 21
432.163244459226
 31
0.0
  0
LINE
  5
87
330
1F
100
AcDbEntity
  8
1
  6
Continuous
 62
     4
100
AcDbLine
 10
278.700718958067
 20
434.413244459226
 30
0.0
 11
278.950718958067
 21
433.413244459226
 31
0.0
  0
LINE
  5
88
330
1F
100
AcDbEntity
  8
1
  6
Continuous
 62
     4
100
AcDbLine
 10
278.450718958067
 20
434.913244459226
 30
0.0
 11
278.700718958067
 21
434.413244459226
 31
0.0
  0
LINE
  5
89
330
1F
100
AcDbEntity
  8
1
  6
Continuous
 62
     4
100
AcDbLine
 10
277.950718958067
 20
435.413244459226
 30
0.0
 11
278.450718958067
 21
434.913244459226
 31
0.0
  0
LINE
  5
8A
330
1F
100
AcDbEntity
  8
1
  6
Continuous
 62
     4
100
AcDbLine
 10
276.950718958067
 20
435.663244459226
 30
0.0
 11
277.950718958067
 21
435.413244459226
 31
0.0
  0
LINE
  5
8B
330
1F
100
AcDbEntity
  8
1
  6
Continuous
 62
     4
100
AcDbLine
 10
277.700718958067
 20
435.913244459226
 30
0.0
 11
276.950718958067
 21
435.663244459226
 31
0.0
  0
LINE
  5
8C
330
1F
100
AcDbEntity
  8
1
  6
Continuous
 62
     4
100
AcDbLine
 10
278.200718958067
 20
436.163244459226
 30
0.0
 11
277.700718958067
 21
435.913244459226
 31
0.0
  0
LINE
  5
8D
330
1F
100
AcDbEntity
  8
1
  6
Continuous
 62
     4
100
AcDbLine
 10
278.700718958067
 20
436.663244459226
 30
0.0
 11
278.200718958067
 21
436.163244459226
 31
0.0
  0
LINE
  5
8E
330
1F
100
AcDbEntity
  8
1
  6
Continuous
 62
     4
100
AcDbLine
 10
278.950718958067
 20
437.413244459226
 30
0.0
 11
278.700718958067
 21
436.663244459226
 31
0.0
  0
LINE
  5
8F
330
1F
100
AcDbEntity
  8
1
  6
Continuous
 62
     4
100
AcDbLine
 10
278.950718958067
 20
438.163244459226
 30
0.0
 11
278.950718958067
 21
437.413244459226
 31
0.0
  0
LINE
  5
90
330
1F
100
AcDbEntity
  8
1
  6
Continuous
 62
     4
100
AcDbLine
 10
278.700718958067
 20
438.913244459226
 30
0.0
 11
278.950718958067
 21
438.163244459226
 31
0.0
  0
LINE
  5
91
330
1F
100
AcDbEntity
  8
1
  6
Continuous
 62
     4
100
AcDbLine
 10
277.950718958067
 20
439.413244459226
 30
0.0
 11
278.700718958067
 21
438.913244459226
 31
0.0
  0
LINE
  5
92
330
1F
100
AcDbEntity
  8
1
  6
Continuous
 62
     4
100
AcDbLine
 10
276.700718958067
 20
439.663244459226
 30
0.0
 11
277.950718958067
 21
439.413244459226
 31
0.0
  0
LINE
  5
93
330
1F
100
AcDbEntity
  8
1
  6
Continuous
 62
     4
100
AcDbLine
 10
272.950718958067
 20
439.663244459226
 30
0.0
 11
276.700718958067
 21
439.663244459226
 31
0.0
  0
LINE
  5
94
330
1F
100
AcDbEntity
  8
1
  6
Continuous
 62
     4
100
AcDbLine
 10
274.450718958067
 20
435.663244459226
 30
0.0
 11
276.950718958067
 21
435.663244459226
 31
0.0
  0
LINE
  5
95
330
1F
100
AcDbEntity
  8
1
  6
Continuous
 62
     4
100
AcDbLine
 10
269.950718958067
 20
439.663244459226
 30
0.0
 11
269.950718958067
 21
429.663244459226
 31
0.0
  0
LINE
  5
96
330
1F
100
AcDbEntity
  8
1
  6
Continuous
 62
     4
100
AcDbLine
 10
266.950718958067
 20
436.663244459226
 30
0.0
 11
269.950718958067
 21
439.663244459226
 31
0.0
  0
LINE
  5
97
330
1F
100
AcDbEntity
  8
1
  6
Continuous
 62
     4
100
AcDbLine
 10
258.950718958067
 20
433.163244459226
 30
0.0
 11
263.950718958067
 21
433.163244459226
 31
0.0
  0
LINE
  5
98
330
1F
100
AcDbEntity
  8
1
  6
Continuous
 62
     4
100
AcDbLine
 10
253.700718958067
 20
429.663244459226
 30
0.0
 11
249.950718958067
 21
429.663244459226
 31
0.0
  0
LINE
  5
99
330
1F
100
AcDbEntity
  8
1
  6
Continuous
 62
     4
100
AcDbLine
 10
254.450718958067
 20
429.913244459226
 30
0.0
 11
253.700718958067
 21
429.663244459226
 31
0.0
  0
LINE
  5
9A
330
1F
100
AcDbEntity
  8
1
  6
Continuous
 62
     4
100
AcDbLine
 10
255.200718958067
 20
430.413244459226
 30
0.0
 11
254.450718958067
 21
429.913244459226
 31
0.0
  0
LINE
  5
9B
330
1F
100
AcDbEntity
  8
1
  6
Continuous
 62
     4
100
AcDbLine
 10
255.700718958067
 20
431.163244459226
 30
0.0
 11
255.200718958067
 21
430.413244459226
 31
0.0
  0
LINE
  5
9C
330
1F
100
AcDbEntity
  8
1
  6
Continuous
 62
     4
100
AcDbLine
 10
255.950718958067
 20
432.163244459226
 30
0.0
 11
255.700718958067
 21
431.163244459226
 31
0.0
  0
LINE
  5
9D
330
1F
100
AcDbEntity
  8
1
  6
Continuous
 62
     4
100
AcDbLine
 10
255.950718958067
 20
433.413244459226
 30
0.0
 11
255.950718958067
 21
432.163244459226
 31
0.0
  0
LINE
  5
9E
330
1F
100
AcDbEntity
  8
1
  6
Continuous
 62
     4
100
AcDbLine
 10
255.700718958067
 20
434.413244459226
 30
0.0
 11
255.950718958067
 21
433.413244459226
 31
0.0
  0
LINE
  5
9F
330
1F
100
AcDbEntity
  8
1
  6
Continuous
 62
     4
100
AcDbLine
 10
255.450718958067
 20
434.913244459226
 30
0.0
 11
255.700718958067
 21
434.413244459226
 31
0.0
  0
LINE
  5
A0
330
1F
100
AcDbEntity
  8
1
  6
Continuous
 62
     4
100
AcDbLine
 10
254.950718958067
 20
435.413244459226
 30
0.0
 11
255.450718958067
 21
434.913244459226
 31
0.0
  0
LINE
  5
A1
330
1F
100
AcDbEntity
  8
1
  6
Continuous
 62
     4
100
AcDbLine
 10
253.950718958067
 20
435.663244459226
 30
0.0
 11
254.950718958067
 21
435.413244459226
 31
0.0
  0
LINE
  5
A2
330
1F
100
AcDbEntity
  8
1
  6
Continuous
 62
     4
100
AcDbLine
 10
254.700718958067
 20
435.913244459226
 30
0.0
 11
253.950718958067
 21
435.663244459226
 31
0.0
  0
LINE
  5
A3
330
1F
100
AcDbEntity
  8
1
  6
Continuous
 62
     4
100
AcDbLine
 10
255.200718958067
 20
436.163244459226
 30
0.0
 11
254.700718958067
 21
435.913244459226
 31
0.0
  0
LINE
  5
A4
330
1F
100
AcDbEntity
  8
1
  6
Continuous
 62
     4
100
AcDbLine
 10
255.700718958067
 20
436.663244459226
 30
0.0
 11
255.200718958067
 21
436.163244459226
 31
0.0
  0
LINE
  5
A5
330
1F
100
AcDbEntity
  8
1
  6
Continuous
 62
     4
100
AcDbLine
 10
255.950718958067
 20
437.413244459226
 30
0.0
 11
255.700718958067
 21
436.663244459226
 31
0.0
  0
LINE
  5
A6
330
1F
100
AcDbEntity
  8
1
  6
Continuous
 62
     4
100
AcDbLine
 10
255.950718958067
 20
438.163244459226
 30
0.0
 11
255.950718958067
 21
437.413244459226
 31
0.0
  0
LINE
  5
A7
330
1F
100
AcDbEntity
  8
1
  6
Continuous
 62
     4
100
AcDbLine
 10
255.700718958067
 20
438.913244459226
 30
0.0
 11
255.950718958067
 21
438.163244459226
 31
0.0
  0
LINE
  5
A8
330
1F
100
AcDbEntity
  8
1
  6
Continuous
 62
     4
100
AcDbLine
 10
254.950718958067
 20
439.413244459226
 30
0.0
 11
255.700718958067
 21
438.913244459226
 31
0.0
  0
LINE
  5
A9
330
1F
100
AcDbEntity
  8
1
  6
Continuous
 62
     4
100
AcDbLine
 10
253.700718958067
 20
439.663244459226
 30
0.0
 11
254.950718958067
 21
439.413244459226
 31
0.0
  0
LINE
  5
AA
330
1F
100
AcDbEntity
  8
1
  6
Continuous
 62
     4
100
AcDbLine
 10
249.950718958067
 20
439.663244459226
 30
0.0
 11
253.700718958067
 21
439.663244459226
 31
0.0
  0
LINE
  5
AB
330
1F
100
AcDbEntity
  8
1
  6
Continuous
 62
     4
100
AcDbLine
 10
251.450718958067
 20
435.663244459226
 30
0.0
 11
253.950718958067
 21
435.663244459226
 31
0.0
  0
LINE
  5
AC
330
1F
100
AcDbEntity
  8
1
  6
Continuous
 62
     4
100
AcDbLine
 10
239.950718958067
 20
435.163244459226
 30
0.0
 11
239.950718958067
 21
434.663244459226
 31
0.0
  0
LINE
  5
AD
330
1F
100
AcDbEntity
  8
1
  6
Continuous
 62
     4
100
AcDbLine
 10
246.950718958067
 20
435.163244459226
 30
0.0
 11
246.950718958067
 21
429.663244459226
 31
0.0
  0
LINE
  5
AE
330
1F
100
AcDbEntity
  8
1
  6
Continuous
 62
     4
100
AcDbLine
 10
239.950718958067
 20
434.663244459226
 30
0.0
 11
239.950718958067
 21
429.663244459226
 31
0.0
  0
LINE
  5
AF
330
1F
100
AcDbEntity
  8
1
  6
Continuous
 62
     4
100
AcDbLine
 10
239.950718958067
 20
439.663244459226
 30
0.0
 11
239.950718958067
 21
435.163244459226
 31
0.0
  0
LINE
  5
B0
330
1F
100
AcDbEntity
  8
1
  6
Continuous
 62
     4
100
AcDbLine
 10
239.950718958067
 20
435.163244459226
 30
0.0
 11
246.950718958067
 21
435.163244459226
 31
0.0
  0
LINE
  5
B1
330
1F
100
AcDbEntity
  8
1
  6
Continuous
 62
     4
100
AcDbLine
 10
246.950718958067
 20
439.663244459226
 30
0.0
 11
246.950718958067
 21
435.163244459226
 31
0.0
  0
LINE
  5
B2
330
1F
100
AcDbEntity
  8
1
  6
Continuous
 62
     4
100
AcDbLine
 10
231.950718958067
 20
433.163244459226
 30
0.0
 11
236.950718958067
 21
433.163244459226
 31
0.0
  0
LINE
  5
B3
330
1F
100
AcDbEntity
  8
1
  6
Continuous
 62
     4
100
AcDbLine
 10
221.950718958067
 20
432.663244459226
 30
0.0
 11
221.950718958067
 21
439.663244459226
 31
0.0
  0
LINE
  5
B4
330
1F
100
AcDbEntity
  8
1
  6
Continuous
 62
     4
100
AcDbLine
 10
221.950718958067
 20
429.663244459226
 30
0.0
 11
221.950718958067
 21
432.663244459226
 31
0.0
  0
LINE
  5
B5
330
1F
100
AcDbEntity
  8
1
  6
Continuous
 62
     4
100
AcDbLine
 10
223.950718958067
 20
434.663244459226
 30
0.0
 11
228.950718958067
 21
429.663244459226
 31
0.0
  0
LINE
  5
B6
330
1F
100
AcDbEntity
  8
1
  6
Continuous
 62
     4
100
AcDbLine
 10
228.950718958067
 20
439.663244459226
 30
0.0
 11
223.950718958067
 21
434.663244459226
 31
0.0
  0
LINE
  5
B7
330
1F
100
AcDbEntity
  8
1
  6
Continuous
 62
     4
100
AcDbLine
 10
223.950718958067
 20
434.663244459226
 30
0.0
 11
221.950718958067
 21
432.663244459226
 31
0.0
  0
LINE
  5
B8
330
1F
100
AcDbEntity
  8
1
  6
Continuous
 62
     4
100
AcDbLine
 10
215.450718958067
 20
439.663244459226
 30
0.0
 11
215.450718958067
 21
429.663244459226
 31
0.0
  0
LINE
  5
B9
330
1F
100
AcDbEntity
  8
1
  6
Continuous
 62
     4
100
AcDbLine
 10
211.950718958067
 20
439.663244459226
 30
0.0
 11
215.450718958067
 21
439.663244459226
 31
0.0
  0
LINE
  5
BA
330
1F
100
AcDbEntity
  8
1
  6
Continuous
 62
     4
100
AcDbLine
 10
215.450718958067
 20
439.663244459226
 30
0.0
 11
218.950718958067
 21
439.663244459226
 31
0.0
  0
LINE
  5
BB
330
1F
100
AcDbEntity
  8
1
  6
Continuous
 62
     4
100
AcDbLine
 10
322.450718958067
 20
389.663244459226
 30
0.0
 11
322.450718958067
 21
399.663244459226
 31
0.0
  0
LINE
  5
BC
330
1F
100
AcDbEntity
  8
1
  6
Continuous
 62
     4
100
AcDbLine
 10
328.450718958067
 20
389.663244459226
 30
0.0
 11
322.450718958067
 21
389.663244459226
 31
0.0
  0
LINE
  5
BD
330
1F
100
AcDbEntity
  8
1
  6
Continuous
 62
     4
100
AcDbLine
 10
335.200718958067
 20
369.663244459226
 30
0.0
 11
331.450718958067
 21
369.663244459226
 31
0.0
  0
LINE
  5
BE
330
1F
100
AcDbEntity
  8
1
  6
Continuous
 62
     4
100
AcDbLine
 10
335.950718958067
 20
369.913244459226
 30
0.0
 11
335.200718958067
 21
369.663244459226
 31
0.0
  0
LINE
  5
BF
330
1F
100
AcDbEntity
  8
1
  6
Continuous
 62
     4
100
AcDbLine
 10
336.700718958067
 20
370.413244459226
 30
0.0
 11
335.950718958067
 21
369.913244459226
 31
0.0
  0
LINE
  5
C0
330
1F
100
AcDbEntity
  8
1
  6
Continuous
 62
     4
100
AcDbLine
 10
337.200718958067
 20
371.163244459226
 30
0.0
 11
336.700718958067
 21
370.413244459226
 31
0.0
  0
LINE
  5
C1
330
1F
100
AcDbEntity
  8
1
  6
Continuous
 62
     4
100
AcDbLine
 10
337.450718958067
 20
372.163244459226
 30
0.0
 11
337.200718958067
 21
371.163244459226
 31
0.0
  0
LINE
  5
C2
330
1F
100
AcDbEntity
  8
1
  6
Continuous
 62
     4
100
AcDbLine
 10
337.450718958067
 20
373.413244459226
 30
0.0
 11
337.450718958067
 21
372.163244459226
 31
0.0
  0
LINE
  5
C3
330
1F
100
AcDbEntity
  8
1
  6
Continuous
 62
     4
100
AcDbLine
 10
337.200718958067
 20
374.413244459226
 30
0.0
 11
337.450718958067
 21
373.413244459226
 31
0.0
  0
LINE
  5
C4
330
1F
100
AcDbEntity
  8
1
  6
Continuous
 62
     4
100
AcDbLine
 10
336.950718958067
 20
374.913244459226
 30
0.0
 11
337.200718958067
 21
374.413244459226
 31
0.0
  0
LINE
  5
C5
330
1F
100
AcDbEntity
  8
1
  6
Continuous
 62
     4
100
AcDbLine
 10
336.450718958067
 20
375.413244459226
 30
0.0
 11
336.950718958067
 21
374.913244459226
 31
0.0
  0
LINE
  5
C6
330
1F
100
AcDbEntity
  8
1
  6
Continuous
 62
     4
100
AcDbLine
 10
335.450718958067
 20
375.663244459226
 30
0.0
 11
336.450718958067
 21
375.413244459226
 31
0.0
  0
LINE
  5
C7
330
1F
100
AcDbEntity
  8
1
  6
Continuous
 62
     4
100
AcDbLine
 10
336.200718958067
 20
375.913244459226
 30
0.0
 11
335.450718958067
 21
375.663244459226
 31
0.0
  0
LINE
  5
C8
330
1F
100
AcDbEntity
  8
1
  6
Continuous
 62
     4
100
AcDbLine
 10
336.700718958067
 20
376.163244459226
 30
0.0
 11
336.200718958067
 21
375.913244459226
 31
0.0
  0
LINE
  5
C9
330
1F
100
AcDbEntity
  8
1
  6
Continuous
 62
     4
100
AcDbLine
 10
337.200718958067
 20
376.663244459226
 30
0.0
 11
336.700718958067
 21
376.163244459226
 31
0.0
  0
LINE
  5
CA
330
1F
100
AcDbEntity
  8
1
  6
Continuous
 62
     4
100
AcDbLine
 10
337.450718958067
 20
377.413244459226
 30
0.0
 11
337.200718958067
 21
376.663244459226
 31
0.0
  0
LINE
  5
CB
330
1F
100
AcDbEntity
  8
1
  6
Continuous
 62
     4
100
AcDbLine
 10
337.450718958067
 20
378.163244459226
 30
0.0
 11
337.450718958067
 21
377.413244459226
 31
0.0
  0
LINE
  5
CC
330
1F
100
AcDbEntity
  8
1
  6
Continuous
 62
     4
100
AcDbLine
 10
337.200718958067
 20
378.913244459226
 30
0.0
 11
337.450718958067
 21
378.163244459226
 31
0.0
  0
LINE
  5
CD
330
1F
100
AcDbEntity
  8
1
  6
Continuous
 62
     4
100
AcDbLine
 10
336.450718958067
 20
379.413244459226
 30
0.0
 11
337.200718958067
 21
378.913244459226
 31
0.0
  0
LINE
  5
CE
330
1F
100
AcDbEntity
  8
1
  6
Continuous
 62
     4
100
AcDbLine
 10
335.200718958067
 20
379.663244459226
 30
0.0
 11
336.450718958067
 21
379.413244459226
 31
0.0
  0
LINE
  5
CF
330
1F
100
AcDbEntity
  8
1
  6
Continuous
 62
     4
100
AcDbLine
 10
331.450718958067
 20
379.663244459226
 30
0.0
 11
335.200718958067
 21
379.663244459226
 31
0.0
  0
LINE
  5
D0
330
1F
100
AcDbEntity
  8
1
  6
Continuous
 62
     4
100
AcDbLine
 10
332.950718958067
 20
375.663244459226
 30
0.0
 11
335.450718958067
 21
375.663244459226
 31
0.0
  0
LINE
  5
D1
330
1F
100
AcDbEntity
  8
1
  6
Continuous
 62
     4
100
AcDbLine
 10
326.950718958067
 20
373.663244459226
 30
0.0
 11
326.950718958067
 21
369.663244459226
 31
0.0
  0
LINE
  5
D2
330
1F
100
AcDbEntity
  8
1
  6
Continuous
 62
     4
100
AcDbLine
 10
322.450718958067
 20
371.663244459226
 30
0.0
 11
328.450718958067
 21
371.663244459226
 31
0.0
  0
LINE
  5
D3
330
1F
100
AcDbEntity
  8
1
  6
Continuous
 62
     4
100
AcDbLine
 10
326.950718958067
 20
379.663244459226
 30
0.0
 11
322.450718958067
 21
371.663244459226
 31
0.0
  0
LINE
  5
D4
330
1F
100
AcDbEntity
  8
1
  6
Continuous
 62
     4
100
AcDbLine
 10
317.950718958067
 20
373.663244459226
 30
0.0
 11
317.950718958067
 21
369.663244459226
 31
0.0
  0
LINE
  5
D5
330
1F
100
AcDbEntity
  8
1
  6
Continuous
 62
     4
100
AcDbLine
 10
313.450718958067
 20
371.663244459226
 30
0.0
 11
319.450718958067
 21
371.663244459226
 31
0.0
  0
LINE
  5
D6
330
1F
100
AcDbEntity
  8
1
  6
Continuous
 62
     4
100
AcDbLine
 10
317.950718958067
 20
379.663244459226
 30
0.0
 11
313.450718958067
 21
371.663244459226
 31
0.0
  0
LINE
  5
D7
330
1F
100
AcDbEntity
  8
1
  6
Continuous
 62
     4
100
AcDbLine
 10
335.200718958067
 20
349.663244459226
 30
0.0
 11
331.450718958067
 21
349.663244459226
 31
0.0
  0
LINE
  5
D8
330
1F
100
AcDbEntity
  8
1
  6
Continuous
 62
     4
100
AcDbLine
 10
335.950718958067
 20
349.913244459226
 30
0.0
 11
335.200718958067
 21
349.663244459226
 31
0.0
  0
LINE
  5
D9
330
1F
100
AcDbEntity
  8
1
  6
Continuous
 62
     4
100
AcDbLine
 10
336.700718958067
 20
350.413244459226
 30
0.0
 11
335.950718958067
 21
349.913244459226
 31
0.0
  0
LINE
  5
DA
330
1F
100
AcDbEntity
  8
1
  6
Continuous
 62
     4
100
AcDbLine
 10
337.200718958067
 20
351.163244459226
 30
0.0
 11
336.700718958067
 21
350.413244459226
 31
0.0
  0
LINE
  5
DB
330
1F
100
AcDbEntity
  8
1
  6
Continuous
 62
     4
100
AcDbLine
 10
337.450718958067
 20
352.163244459226
 30
0.0
 11
337.200718958067
 21
351.163244459226
 31
0.0
  0
LINE
  5
DC
330
1F
100
AcDbEntity
  8
1
  6
Continuous
 62
     4
100
AcDbLine
 10
337.450718958067
 20
353.413244459226
 30
0.0
 11
337.450718958067
 21
352.163244459226
 31
0.0
  0
LINE
  5
DD
330
1F
100
AcDbEntity
  8
1
  6
Continuous
 62
     4
100
AcDbLine
 10
337.200718958067
 20
354.413244459226
 30
0.0
 11
337.450718958067
 21
353.413244459226
 31
0.0
  0
LINE
  5
DE
330
1F
100
AcDbEntity
  8
1
  6
Continuous
 62
     4
100
AcDbLine
 10
336.950718958067
 20
354.913244459226
 30
0.0
 11
337.200718958067
 21
354.413244459226
 31
0.0
  0
LINE
  5
DF
330
1F
100
AcDbEntity
  8
1
  6
Continuous
 62
     4
100
AcDbLine
 10
336.450718958067
 20
355.413244459226
 30
0.0
 11
336.950718958067
 21
354.913244459226
 31
0.0
  0
LINE
  5
E0
330
1F
100
AcDbEntity
  8
1
  6
Continuous
 62
     4
100
AcDbLine
 10
335.450718958067
 20
355.663244459226
 30
0.0
 11
336.450718958067
 21
355.413244459226
 31
0.0
  0
LINE
  5
E1
330
1F
100
AcDbEntity
  8
1
  6
Continuous
 62
     4
100
AcDbLine
 10
336.200718958067
 20
355.913244459226
 30
0.0
 11
335.450718958067
 21
355.663244459226
 31
0.0
  0
LINE
  5
E2
330
1F
100
AcDbEntity
  8
1
  6
Continuous
 62
     4
100
AcDbLine
 10
336.700718958067
 20
356.163244459226
 30
0.0
 11
336.200718958067
 21
355.913244459226
 31
0.0
  0
LINE
  5
E3
330
1F
100
AcDbEntity
  8
1
  6
Continuous
 62
     4
100
AcDbLine
 10
337.200718958067
 20
356.663244459226
 30
0.0
 11
336.700718958067
 21
356.163244459226
 31
0.0
  0
LINE
  5
E4
330
1F
100
AcDbEntity
  8
1
  6
Continuous
 62
     4
100
AcDbLine
 10
337.450718958067
 20
357.413244459226
 30
0.0
 11
337.200718958067
 21
356.663244459226
 31
0.0
  0
LINE
  5
E5
330
1F
100
AcDbEntity
  8
1
  6
Continuous
 62
     4
100
AcDbLine
 10
337.450718958067
 20
358.163244459226
 30
0.0
 11
337.450718958067
 21
357.413244459226
 31
0.0
  0
LINE
  5
E6
330
1F
100
AcDbEntity
  8
1
  6
Continuous
 62
     4
100
AcDbLine
 10
337.200718958067
 20
358.913244459226
 30
0.0
 11
337.450718958067
 21
358.163244459226
 31
0.0
  0
LINE
  5
E7
330
1F
100
AcDbEntity
  8
1
  6
Continuous
 62
     4
100
AcDbLine
 10
336.450718958067
 20
359.413244459226
 30
0.0
 11
337.200718958067
 21
358.913244459226
 31
0.0
  0
LINE
  5
E8
330
1F
100
AcDbEntity
  8
1
  6
Continuous
 62
     4
100
AcDbLine
 10
335.200718958067
 20
359.663244459226
 30
0.0
 11
336.450718958067
 21
359.413244459226
 31
0.0
  0
LINE
  5
E9
330
1F
100
AcDbEntity
  8
1
  6
Continuous
 62
     4
100
AcDbLine
 10
331.450718958067
 20
359.663244459226
 30
0.0
 11
335.200718958067
 21
359.663244459226
 31
0.0
  0
LINE
  5
EA
330
1F
100
AcDbEntity
  8
1
  6
Continuous
 62
     4
100
AcDbLine
 10
332.950718958067
 20
355.663244459226
 30
0.0
 11
335.450718958067
 21
355.663244459226
 31
0.0
  0
LINE
  5
EB
330
1F
100
AcDbEntity
  8
1
  6
Continuous
 62
     4
100
AcDbLine
 10
326.950718958067
 20
353.663244459226
 30
0.0
 11
326.950718958067
 21
349.663244459226
 31
0.0
  0
LINE
  5
EC
330
1F
100
AcDbEntity
  8
1
  6
Continuous
 62
     4
100
AcDbLine
 10
322.450718958067
 20
351.663244459226
 30
0.0
 11
328.450718958067
 21
351.663244459226
 31
0.0
  0
LINE
  5
ED
330
1F
100
AcDbEntity
  8
1
  6
Continuous
 62
     4
100
AcDbLine
 10
326.950718958067
 20
359.663244459226
 30
0.0
 11
322.450718958067
 21
351.663244459226
 31
0.0
  0
LINE
  5
EE
330
1F
100
AcDbEntity
  8
1
  6
Continuous
 62
     4
100
AcDbLine
 10
315.200718958067
 20
357.413244459226
 30
0.0
 11
317.950718958067
 21
359.663244459226
 31
0.0
  0
LINE
  5
EF
330
1F
100
AcDbEntity
  8
1
  6
Continuous
 62
     4
100
AcDbLine
 10
314.200718958067
 20
356.163244459226
 30
0.0
 11
315.200718958067
 21
357.413244459226
 31
0.0
  0
LINE
  5
F0
330
1F
100
AcDbEntity
  8
1
  6
Continuous
 62
     4
100
AcDbLine
 10
313.700718958067
 20
355.163244459226
 30
0.0
 11
314.200718958067
 21
356.163244459226
 31
0.0
  0
LINE
  5
F1
330
1F
100
AcDbEntity
  8
1
  6
Continuous
 62
     4
100
AcDbLine
 10
313.450718958067
 20
353.163244459226
 30
0.0
 11
313.700718958067
 21
355.163244459226
 31
0.0
  0
LINE
  5
F2
330
1F
100
AcDbEntity
  8
1
  6
Continuous
 62
     4
100
AcDbLine
 10
313.450718958067
 20
352.163244459226
 30
0.0
 11
313.450718958067
 21
353.163244459226
 31
0.0
  0
LINE
  5
F3
330
1F
100
AcDbEntity
  8
1
  6
Continuous
 62
     4
100
AcDbLine
 10
313.700718958067
 20
351.163244459226
 30
0.0
 11
313.450718958067
 21
352.163244459226
 31
0.0
  0
LINE
  5
F4
330
1F
100
AcDbEntity
  8
1
  6
Continuous
 62
     4
100
AcDbLine
 10
314.200718958067
 20
350.413244459226
 30
0.0
 11
313.700718958067
 21
351.163244459226
 31
0.0
  0
LINE
  5
F5
330
1F
100
AcDbEntity
  8
1
  6
Continuous
 62
     4
100
AcDbLine
 10
314.950718958067
 20
349.913244459226
 30
0.0
 11
314.200718958067
 21
350.413244459226
 31
0.0
  0
LINE
  5
F6
330
1F
100
AcDbEntity
  8
1
  6
Continuous
 62
     4
100
AcDbLine
 10
315.700718958067
 20
349.663244459226
 30
0.0
 11
314.950718958067
 21
349.913244459226
 31
0.0
  0
LINE
  5
F7
330
1F
100
AcDbEntity
  8
1
  6
Continuous
 62
     4
100
AcDbLine
 10
317.200718958067
 20
349.663244459226
 30
0.0
 11
315.700718958067
 21
349.663244459226
 31
0.0
  0
LINE
  5
F8
330
1F
100
AcDbEntity
  8
1
  6
Continuous
 62
     4
100
AcDbLine
 10
317.950718958067
 20
349.913244459226
 30
0.0
 11
317.200718958067
 21
349.663244459226
 31
0.0
  0
LINE
  5
F9
330
1F
100
AcDbEntity
  8
1
  6
Continuous
 62
     4
100
AcDbLine
 10
318.700718958067
 20
350.413244459226
 30
0.0
 11
317.950718958067
 21
349.913244459226
 31
0.0
  0
LINE
  5
FA
330
1F
100
AcDbEntity
  8
1
  6
Continuous
 62
     4
100
AcDbLine
 10
319.200718958067
 20
351.163244459226
 30
0.0
 11
318.700718958067
 21
350.413244459226
 31
0.0
  0
LINE
  5
FB
330
1F
100
AcDbEntity
  8
1
  6
Continuous
 62
     4
100
AcDbLine
 10
319.450718958067
 20
352.163244459226
 30
0.0
 11
319.200718958067
 21
351.163244459226
 31
0.0
  0
LINE
  5
FC
330
1F
100
AcDbEntity
  8
1
  6
Continuous
 62
     4
100
AcDbLine
 10
319.450718958067
 20
353.163244459226
 30
0.0
 11
319.450718958067
 21
352.163244459226
 31
0.0
  0
LINE
  5
FD
330
1F
100
AcDbEntity
  8
1
  6
Continuous
 62
     4
100
AcDbLine
 10
319.200718958067
 20
354.163244459226
 30
0.0
 11
319.450718958067
 21
353.163244459226
 31
0.0
  0
LINE
  5
FE
330
1F
100
AcDbEntity
  8
1
  6
Continuous
 62
     4
100
AcDbLine
 10
318.700718958067
 20
354.913244459226
 30
0.0
 11
319.200718958067
 21
354.163244459226
 31
0.0
  0
LINE
  5
FF
330
1F
100
AcDbEntity
  8
1
  6
Continuous
 62
     4
100
AcDbLine
 10
317.950718958067
 20
355.413244459226
 30
0.0
 11
318.700718958067
 21
354.913244459226
 31
0.0
  0
LINE
  5
100
330
1F
100
AcDbEntity
  8
1
  6
Continuous
 62
     4
100
AcDbLine
 10
317.200718958067
 20
355.663244459226
 30
0.0
 11
317.950718958067
 21
355.413244459226
 31
0.0
  0
LINE
  5
101
330
1F
100
AcDbEntity
  8
1
  6
Continuous
 62
     4
100
AcDbLine
 10
315.700718958067
 20
355.663244459226
 30
0.0
 11
317.200718958067
 21
355.663244459226
 31
0.0
  0
LINE
  5
102
330
1F
100
AcDbEntity
  8
1
  6
Continuous
 62
     4
100
AcDbLine
 10
314.950718958067
 20
355.413244459226
 30
0.0
 11
315.700718958067
 21
355.663244459226
 31
0.0
  0
LINE
  5
103
330
1F
100
AcDbEntity
  8
1
  6
Continuous
 62
     4
100
AcDbLine
 10
314.200718958067
 20
354.913244459226
 30
0.0
 11
314.950718958067
 21
355.413244459226
 31
0.0
  0
LINE
  5
104
330
1F
100
AcDbEntity
  8
1
  6
Continuous
 62
     4
100
AcDbLine
 10
313.700718958067
 20
354.163244459226
 30
0.0
 11
314.200718958067
 21
354.913244459226
 31
0.0
  0
LINE
  5
105
330
1F
100
AcDbEntity
  8
1
  6
Continuous
 62
     4
100
AcDbLine
 10
313.450718958067
 20
353.163244459226
 30
0.0
 11
313.700718958067
 21
354.163244459226
 31
0.0
  0
LINE
  5
106
330
1F
100
AcDbEntity
  8
1
  6
Continuous
 62
     4
100
AcDbLine
 10
335.200718958067
 20
329.663244459226
 30
0.0
 11
331.450718958067
 21
329.663244459226
 31
0.0
  0
LINE
  5
107
330
1F
100
AcDbEntity
  8
1
  6
Continuous
 62
     4
100
AcDbLine
 10
335.950718958067
 20
329.913244459226
 30
0.0
 11
335.200718958067
 21
329.663244459226
 31
0.0
  0
LINE
  5
108
330
1F
100
AcDbEntity
  8
1
  6
Continuous
 62
     4
100
AcDbLine
 10
336.700718958067
 20
330.413244459226
 30
0.0
 11
335.950718958067
 21
329.913244459226
 31
0.0
  0
LINE
  5
109
330
1F
100
AcDbEntity
  8
1
  6
Continuous
 62
     4
100
AcDbLine
 10
337.200718958067
 20
331.163244459226
 30
0.0
 11
336.700718958067
 21
330.413244459226
 31
0.0
  0
LINE
  5
10A
330
1F
100
AcDbEntity
  8
1
  6
Continuous
 62
     4
100
AcDbLine
 10
337.450718958067
 20
332.163244459226
 30
0.0
 11
337.200718958067
 21
331.163244459226
 31
0.0
  0
LINE
  5
10B
330
1F
100
AcDbEntity
  8
1
  6
Continuous
 62
     4
100
AcDbLine
 10
337.450718958067
 20
333.413244459226
 30
0.0
 11
337.450718958067
 21
332.163244459226
 31
0.0
  0
LINE
  5
10C
330
1F
100
AcDbEntity
  8
1
  6
Continuous
 62
     4
100
AcDbLine
 10
337.200718958067
 20
334.413244459226
 30
0.0
 11
337.450718958067
 21
333.413244459226
 31
0.0
  0
LINE
  5
10D
330
1F
100
AcDbEntity
  8
1
  6
Continuous
 62
     4
100
AcDbLine
 10
336.950718958067
 20
334.913244459226
 30
0.0
 11
337.200718958067
 21
334.413244459226
 31
0.0
  0
LINE
  5
10E
330
1F
100
AcDbEntity
  8
1
  6
Continuous
 62
     4
100
AcDbLine
 10
336.450718958067
 20
335.413244459226
 30
0.0
 11
336.950718958067
 21
334.913244459226
 31
0.0
  0
LINE
  5
10F
330
1F
100
AcDbEntity
  8
1
  6
Continuous
 62
     4
100
AcDbLine
 10
335.450718958067
 20
335.663244459226
 30
0.0
 11
336.450718958067
 21
335.413244459226
 31
0.0
  0
LINE
  5
110
330
1F
100
AcDbEntity
  8
1
  6
Continuous
 62
     4
100
AcDbLine
 10
336.200718958067
 20
335.913244459226
 30
0.0
 11
335.450718958067
 21
335.663244459226
 31
0.0
  0
LINE
  5
111
330
1F
100
AcDbEntity
  8
1
  6
Continuous
 62
     4
100
AcDbLine
 10
336.700718958067
 20
336.163244459226
 30
0.0
 11
336.200718958067
 21
335.913244459226
 31
0.0
  0
LINE
  5
112
330
1F
100
AcDbEntity
  8
1
  6
Continuous
 62
     4
100
AcDbLine
 10
337.200718958067
 20
336.663244459226
 30
0.0
 11
336.700718958067
 21
336.163244459226
 31
0.0
  0
LINE
  5
113
330
1F
100
AcDbEntity
  8
1
  6
Continuous
 62
     4
100
AcDbLine
 10
337.450718958067
 20
337.413244459226
 30
0.0
 11
337.200718958067
 21
336.663244459226
 31
0.0
  0
LINE
  5
114
330
1F
100
AcDbEntity
  8
1
  6
Continuous
 62
     4
100
AcDbLine
 10
337.450718958067
 20
338.163244459226
 30
0.0
 11
337.450718958067
 21
337.413244459226
 31
0.0
  0
LINE
  5
115
330
1F
100
AcDbEntity
  8
1
  6
Continuous
 62
     4
100
AcDbLine
 10
337.200718958067
 20
338.913244459226
 30
0.0
 11
337.450718958067
 21
338.163244459226
 31
0.0
  0
LINE
  5
116
330
1F
100
AcDbEntity
  8
1
  6
Continuous
 62
     4
100
AcDbLine
 10
336.450718958067
 20
339.413244459226
 30
0.0
 11
337.200718958067
 21
338.913244459226
 31
0.0
  0
LINE
  5
117
330
1F
100
AcDbEntity
  8
1
  6
Continuous
 62
     4
100
AcDbLine
 10
335.200718958067
 20
339.663244459226
 30
0.0
 11
336.450718958067
 21
339.413244459226
 31
0.0
  0
LINE
  5
118
330
1F
100
AcDbEntity
  8
1
  6
Continuous
 62
     4
100
AcDbLine
 10
331.450718958067
 20
339.663244459226
 30
0.0
 11
335.200718958067
 21
339.663244459226
 31
0.0
  0
LINE
  5
119
330
1F
100
AcDbEntity
  8
1
  6
Continuous
 62
     4
100
AcDbLine
 10
332.950718958067
 20
335.663244459226
 30
0.0
 11
335.450718958067
 21
335.663244459226
 31
0.0
  0
LINE
  5
11A
330
1F
100
AcDbEntity
  8
1
  6
Continuous
 62
     4
100
AcDbLine
 10
326.950718958067
 20
333.663244459226
 30
0.0
 11
326.950718958067
 21
329.663244459226
 31
0.0
  0
LINE
  5
11B
330
1F
100
AcDbEntity
  8
1
  6
Continuous
 62
     4
100
AcDbLine
 10
322.450718958067
 20
331.663244459226
 30
0.0
 11
328.450718958067
 21
331.663244459226
 31
0.0
  0
LINE
  5
11C
330
1F
100
AcDbEntity
  8
1
  6
Continuous
 62
     4
100
AcDbLine
 10
326.950718958067
 20
339.663244459226
 30
0.0
 11
322.450718958067
 21
331.663244459226
 31
0.0
  0
LINE
  5
11D
330
1F
100
AcDbEntity
  8
1
  6
Continuous
 62
     4
100
AcDbLine
 10
314.450718958067
 20
338.913244459226
 30
0.0
 11
315.200718958067
 21
339.413244459226
 31
0.0
  0
LINE
  5
11E
330
1F
100
AcDbEntity
  8
1
  6
Continuous
 62
     4
100
AcDbLine
 10
313.950718958067
 20
338.163244459226
 30
0.0
 11
314.450718958067
 21
338.913244459226
 31
0.0
  0
LINE
  5
11F
330
1F
100
AcDbEntity
  8
1
  6
Continuous
 62
     4
100
AcDbLine
 10
313.950718958067
 20
337.163244459226
 30
0.0
 11
313.950718958067
 21
338.163244459226
 31
0.0
  0
LINE
  5
120
330
1F
100
AcDbEntity
  8
1
  6
Continuous
 62
     4
100
AcDbLine
 10
314.450718958067
 20
336.413244459226
 30
0.0
 11
313.950718958067
 21
337.163244459226
 31
0.0
  0
LINE
  5
121
330
1F
100
AcDbEntity
  8
1
  6
Continuous
 62
     4
100
AcDbLine
 10
315.200718958067
 20
335.913244459226
 30
0.0
 11
314.450718958067
 21
336.413244459226
 31
0.0
  0
LINE
  5
122
330
1F
100
AcDbEntity
  8
1
  6
Continuous
 62
     4
100
AcDbLine
 10
315.950718958067
 20
335.663244459226
 30
0.0
 11
315.200718958067
 21
335.913244459226
 31
0.0
  0
LINE
  5
123
330
1F
100
AcDbEntity
  8
1
  6
Continuous
 62
     4
100
AcDbLine
 10
316.950718958067
 20
335.663244459226
 30
0.0
 11
315.950718958067
 21
335.663244459226
 31
0.0
  0
LINE
  5
124
330
1F
100
AcDbEntity
  8
1
  6
Continuous
 62
     4
100
AcDbLine
 10
317.700718958067
 20
335.913244459226
 30
0.0
 11
316.950718958067
 21
335.663244459226
 31
0.0
  0
LINE
  5
125
330
1F
100
AcDbEntity
  8
1
  6
Continuous
 62
     4
100
AcDbLine
 10
318.450718958067
 20
336.413244459226
 30
0.0
 11
317.700718958067
 21
335.913244459226
 31
0.0
  0
LINE
  5
126
330
1F
100
AcDbEntity
  8
1
  6
Continuous
 62
     4
100
AcDbLine
 10
318.950718958067
 20
337.163244459226
 30
0.0
 11
318.450718958067
 21
336.413244459226
 31
0.0
  0
LINE
  5
127
330
1F
100
AcDbEntity
  8
1
  6
Continuous
 62
     4
100
AcDbLine
 10
318.950718958067
 20
338.163244459226
 30
0.0
 11
318.950718958067
 21
337.163244459226
 31
0.0
  0
LINE
  5
128
330
1F
100
AcDbEntity
  8
1
  6
Continuous
 62
     4
100
AcDbLine
 10
318.450718958067
 20
338.913244459226
 30
0.0
 11
318.950718958067
 21
338.163244459226
 31
0.0
  0
LINE
  5
129
330
1F
100
AcDbEntity
  8
1
  6
Continuous
 62
     4
100
AcDbLine
 10
317.700718958067
 20
339.413244459226
 30
0.0
 11
318.450718958067
 21
338.913244459226
 31
0.0
  0
LINE
  5
12A
330
1F
100
AcDbEntity
  8
1
  6
Continuous
 62
     4
100
AcDbLine
 10
316.950718958067
 20
339.663244459226
 30
0.0
 11
317.700718958067
 21
339.413244459226
 31
0.0
  0
LINE
  5
12B
330
1F
100
AcDbEntity
  8
1
  6
Continuous
 62
     4
100
AcDbLine
 10
315.950718958067
 20
339.663244459226
 30
0.0
 11
316.950718958067
 21
339.663244459226
 31
0.0
  0
LINE
  5
12C
330
1F
100
AcDbEntity
  8
1
  6
Continuous
 62
     4
100
AcDbLine
 10
315.200718958067
 20
339.413244459226
 30
0.0
 11
315.950718958067
 21
339.663244459226
 31
0.0
  0
LINE
  5
12D
330
1F
100
AcDbEntity
  8
1
  6
Continuous
 62
     4
100
AcDbLine
 10
318.200718958067
 20
335.163244459226
 30
0.0
 11
316.950718958067
 21
335.663244459226
 31
0.0
  0
LINE
  5
12E
330
1F
100
AcDbEntity
  8
1
  6
Continuous
 62
     4
100
AcDbLine
 10
318.950718958067
 20
334.413244459226
 30
0.0
 11
318.200718958067
 21
335.163244459226
 31
0.0
  0
LINE
  5
12F
330
1F
100
AcDbEntity
  8
1
  6
Continuous
 62
     4
100
AcDbLine
 10
319.450718958067
 20
333.413244459226
 30
0.0
 11
318.950718958067
 21
334.413244459226
 31
0.0
  0
LINE
  5
130
330
1F
100
AcDbEntity
  8
1
  6
Continuous
 62
     4
100
AcDbLine
 10
319.450718958067
 20
331.913244459226
 30
0.0
 11
319.450718958067
 21
333.413244459226
 31
0.0
  0
LINE
  5
131
330
1F
100
AcDbEntity
  8
1
  6
Continuous
 62
     4
100
AcDbLine
 10
318.950718958067
 20
330.913244459226
 30
0.0
 11
319.450718958067
 21
331.913244459226
 31
0.0
  0
LINE
  5
132
330
1F
100
AcDbEntity
  8
1
  6
Continuous
 62
     4
100
AcDbLine
 10
318.200718958067
 20
330.163244459226
 30
0.0
 11
318.950718958067
 21
330.913244459226
 31
0.0
  0
LINE
  5
133
330
1F
100
AcDbEntity
  8
1
  6
Continuous
 62
     4
100
AcDbLine
 10
317.200718958067
 20
329.663244459226
 30
0.0
 11
318.200718958067
 21
330.163244459226
 31
0.0
  0
LINE
  5
134
330
1F
100
AcDbEntity
  8
1
  6
Continuous
 62
     4
100
AcDbLine
 10
315.700718958067
 20
329.663244459226
 30
0.0
 11
317.200718958067
 21
329.663244459226
 31
0.0
  0
LINE
  5
135
330
1F
100
AcDbEntity
  8
1
  6
Continuous
 62
     4
100
AcDbLine
 10
314.700718958067
 20
330.163244459226
 30
0.0
 11
315.700718958067
 21
329.663244459226
 31
0.0
  0
LINE
  5
136
330
1F
100
AcDbEntity
  8
1
  6
Continuous
 62
     4
100
AcDbLine
 10
313.950718958067
 20
330.913244459226
 30
0.0
 11
314.700718958067
 21
330.163244459226
 31
0.0
  0
LINE
  5
137
330
1F
100
AcDbEntity
  8
1
  6
Continuous
 62
     4
100
AcDbLine
 10
313.450718958067
 20
331.913244459226
 30
0.0
 11
313.950718958067
 21
330.913244459226
 31
0.0
  0
LINE
  5
138
330
1F
100
AcDbEntity
  8
1
  6
Continuous
 62
     4
100
AcDbLine
 10
313.450718958067
 20
333.413244459226
 30
0.0
 11
313.450718958067
 21
331.913244459226
 31
0.0
  0
LINE
  5
139
330
1F
100
AcDbEntity
  8
1
  6
Continuous
 62
     4
100
AcDbLine
 10
313.950718958067
 20
334.413244459226
 30
0.0
 11
313.450718958067
 21
333.413244459226
 31
0.0
  0
LINE
  5
13A
330
1F
100
AcDbEntity
  8
1
  6
Continuous
 62
     4
100
AcDbLine
 10
314.700718958067
 20
335.163244459226
 30
0.0
 11
313.950718958067
 21
334.413244459226
 31
0.0
  0
LINE
  5
13B
330
1F
100
AcDbEntity
  8
1
  6
Continuous
 62
     4
100
AcDbLine
 10
315.950718958067
 20
335.663244459226
 30
0.0
 11
314.700718958067
 21
335.163244459226
 31
0.0
  0
LINE
  5
13C
330
1F
100
AcDbEntity
  8
1
  6
Continuous
 62
     4
100
AcDbLine
 10
338.200718958067
 20
309.663244459226
 30
0.0
 11
334.450718958067
 21
309.663244459226
 31
0.0
  0
LINE
  5
13D
330
1F
100
AcDbEntity
  8
1
  6
Continuous
 62
     4
100
AcDbLine
 10
338.950718958067
 20
309.913244459226
 30
0.0
 11
338.200718958067
 21
309.663244459226
 31
0.0
  0
LINE
  5
13E
330
1F
100
AcDbEntity
  8
1
  6
Continuous
 62
     4
100
AcDbLine
 10
339.700718958067
 20
310.413244459226
 30
0.0
 11
338.950718958067
 21
309.913244459226
 31
0.0
  0
LINE
  5
13F
330
1F
100
AcDbEntity
  8
1
  6
Continuous
 62
     4
100
AcDbLine
 10
340.200718958067
 20
311.163244459226
 30
0.0
 11
339.700718958067
 21
310.413244459226
 31
0.0
  0
LINE
  5
140
330
1F
100
AcDbEntity
  8
1
  6
Continuous
 62
     4
100
AcDbLine
 10
340.450718958067
 20
312.163244459226
 30
0.0
 11
340.200718958067
 21
311.163244459226
 31
0.0
  0
LINE
  5
141
330
1F
100
AcDbEntity
  8
1
  6
Continuous
 62
     4
100
AcDbLine
 10
340.450718958067
 20
313.413244459226
 30
0.0
 11
340.450718958067
 21
312.163244459226
 31
0.0
  0
LINE
  5
142
330
1F
100
AcDbEntity
  8
1
  6
Continuous
 62
     4
100
AcDbLine
 10
340.200718958067
 20
314.413244459226
 30
0.0
 11
340.450718958067
 21
313.413244459226
 31
0.0
  0
LINE
  5
143
330
1F
100
AcDbEntity
  8
1
  6
Continuous
 62
     4
100
AcDbLine
 10
339.950718958067
 20
314.913244459226
 30
0.0
 11
340.200718958067
 21
314.413244459226
 31
0.0
  0
LINE
  5
144
330
1F
100
AcDbEntity
  8
1
  6
Continuous
 62
     4
100
AcDbLine
 10
339.450718958067
 20
315.413244459226
 30
0.0
 11
339.950718958067
 21
314.913244459226
 31
0.0
  0
LINE
  5
145
330
1F
100
AcDbEntity
  8
1
  6
Continuous
 62
     4
100
AcDbLine
 10
338.450718958067
 20
315.663244459226
 30
0.0
 11
339.450718958067
 21
315.413244459226
 31
0.0
  0
LINE
  5
146
330
1F
100
AcDbEntity
  8
1
  6
Continuous
 62
     4
100
AcDbLine
 10
339.200718958067
 20
315.913244459226
 30
0.0
 11
338.450718958067
 21
315.663244459226
 31
0.0
  0
LINE
  5
147
330
1F
100
AcDbEntity
  8
1
  6
Continuous
 62
     4
100
AcDbLine
 10
339.700718958067
 20
316.163244459226
 30
0.0
 11
339.200718958067
 21
315.913244459226
 31
0.0
  0
LINE
  5
148
330
1F
100
AcDbEntity
  8
1
  6
Continuous
 62
     4
100
AcDbLine
 10
340.200718958067
 20
316.663244459226
 30
0.0
 11
339.700718958067
 21
316.163244459226
 31
0.0
  0
LINE
  5
149
330
1F
100
AcDbEntity
  8
1
  6
Continuous
 62
     4
100
AcDbLine
 10
340.450718958067
 20
317.413244459226
 30
0.0
 11
340.200718958067
 21
316.663244459226
 31
0.0
  0
LINE
  5
14A
330
1F
100
AcDbEntity
  8
1
  6
Continuous
 62
     4
100
AcDbLine
 10
340.450718958067
 20
318.163244459226
 30
0.0
 11
340.450718958067
 21
317.413244459226
 31
0.0
  0
LINE
  5
14B
330
1F
100
AcDbEntity
  8
1
  6
Continuous
 62
     4
100
AcDbLine
 10
340.200718958067
 20
318.913244459226
 30
0.0
 11
340.450718958067
 21
318.163244459226
 31
0.0
  0
LINE
  5
14C
330
1F
100
AcDbEntity
  8
1
  6
Continuous
 62
     4
100
AcDbLine
 10
339.450718958067
 20
319.413244459226
 30
0.0
 11
340.200718958067
 21
318.913244459226
 31
0.0
  0
LINE
  5
14D
330
1F
100
AcDbEntity
  8
1
  6
Continuous
 62
     4
100
AcDbLine
 10
338.200718958067
 20
319.663244459226
 30
0.0
 11
339.450718958067
 21
319.413244459226
 31
0.0
  0
LINE
  5
14E
330
1F
100
AcDbEntity
  8
1
  6
Continuous
 62
     4
100
AcDbLine
 10
334.450718958067
 20
319.663244459226
 30
0.0
 11
338.200718958067
 21
319.663244459226
 31
0.0
  0
LINE
  5
14F
330
1F
100
AcDbEntity
  8
1
  6
Continuous
 62
     4
100
AcDbLine
 10
335.950718958067
 20
315.663244459226
 30
0.0
 11
338.450718958067
 21
315.663244459226
 31
0.0
  0
LINE
  5
150
330
1F
100
AcDbEntity
  8
1
  6
Continuous
 62
     4
100
AcDbLine
 10
329.950718958067
 20
313.663244459226
 30
0.0
 11
329.950718958067
 21
309.663244459226
 31
0.0
  0
LINE
  5
151
330
1F
100
AcDbEntity
  8
1
  6
Continuous
 62
     4
100
AcDbLine
 10
325.450718958067
 20
311.663244459226
 30
0.0
 11
331.450718958067
 21
311.663244459226
 31
0.0
  0
LINE
  5
152
330
1F
100
AcDbEntity
  8
1
  6
Continuous
 62
     4
100
AcDbLine
 10
329.950718958067
 20
319.663244459226
 30
0.0
 11
325.450718958067
 21
311.663244459226
 31
0.0
  0
LINE
  5
153
330
1F
100
AcDbEntity
  8
1
  6
Continuous
 62
     4
100
AcDbLine
 10
322.450718958067
 20
315.913244459226
 30
0.0
 11
322.450718958067
 21
313.413244459226
 31
0.0
  0
LINE
  5
154
330
1F
100
AcDbEntity
  8
1
  6
Continuous
 62
     4
100
AcDbLine
 10
322.200718958067
 20
317.413244459226
 30
0.0
 11
322.450718958067
 21
315.913244459226
 31
0.0
  0
LINE
  5
155
330
1F
100
AcDbEntity
  8
1
  6
Continuous
 62
     4
100
AcDbLine
 10
321.700718958067
 20
318.413244459226
 30
0.0
 11
322.200718958067
 21
317.413244459226
 31
0.0
  0
LINE
  5
156
330
1F
100
AcDbEntity
  8
1
  6
Continuous
 62
     4
100
AcDbLine
 10
321.200718958067
 20
318.913244459226
 30
0.0
 11
321.700718958067
 21
318.413244459226
 31
0.0
  0
LINE
  5
157
330
1F
100
AcDbEntity
  8
1
  6
Continuous
 62
     4
100
AcDbLine
 10
320.450718958067
 20
319.413244459226
 30
0.0
 11
321.200718958067
 21
318.913244459226
 31
0.0
  0
LINE
  5
158
330
1F
100
AcDbEntity
  8
1
  6
Continuous
 62
     4
100
AcDbLine
 10
319.700718958067
 20
319.663244459226
 30
0.0
 11
320.450718958067
 21
319.413244459226
 31
0.0
  0
LINE
  5
159
330
1F
100
AcDbEntity
  8
1
  6
Continuous
 62
     4
100
AcDbLine
 10
319.200718958067
 20
319.663244459226
 30
0.0
 11
319.700718958067
 21
319.663244459226
 31
0.0
  0
LINE
  5
15A
330
1F
100
AcDbEntity
  8
1
  6
Continuous
 62
     4
100
AcDbLine
 10
318.450718958067
 20
319.413244459226
 30
0.0
 11
319.200718958067
 21
319.663244459226
 31
0.0
  0
LINE
  5
15B
330
1F
100
AcDbEntity
  8
1
  6
Continuous
 62
     4
100
AcDbLine
 10
317.700718958067
 20
318.913244459226
 30
0.0
 11
318.450718958067
 21
319.413244459226
 31
0.0
  0
LINE
  5
15C
330
1F
100
AcDbEntity
  8
1
  6
Continuous
 62
     4
100
AcDbLine
 10
317.200718958067
 20
318.413244459226
 30
0.0
 11
317.700718958067
 21
318.913244459226
 31
0.0
  0
LINE
  5
15D
330
1F
100
AcDbEntity
  8
1
  6
Continuous
 62
     4
100
AcDbLine
 10
316.700718958067
 20
317.413244459226
 30
0.0
 11
317.200718958067
 21
318.413244459226
 31
0.0
  0
LINE
  5
15E
330
1F
100
AcDbEntity
  8
1
  6
Continuous
 62
     4
100
AcDbLine
 10
316.450718958067
 20
315.913244459226
 30
0.0
 11
316.700718958067
 21
317.413244459226
 31
0.0
  0
LINE
  5
15F
330
1F
100
AcDbEntity
  8
1
  6
Continuous
 62
     4
100
AcDbLine
 10
316.450718958067
 20
313.413244459226
 30
0.0
 11
316.450718958067
 21
315.913244459226
 31
0.0
  0
LINE
  5
160
330
1F
100
AcDbEntity
  8
1
  6
Continuous
 62
     4
100
AcDbLine
 10
316.700718958067
 20
311.913244459226
 30
0.0
 11
316.450718958067
 21
313.413244459226
 31
0.0
  0
LINE
  5
161
330
1F
100
AcDbEntity
  8
1
  6
Continuous
 62
     4
100
AcDbLine
 10
317.200718958067
 20
310.913244459226
 30
0.0
 11
316.700718958067
 21
311.913244459226
 31
0.0
  0
LINE
  5
162
330
1F
100
AcDbEntity
  8
1
  6
Continuous
 62
     4
100
AcDbLine
 10
317.700718958067
 20
310.413244459226
 30
0.0
 11
317.200718958067
 21
310.913244459226
 31
0.0
  0
LINE
  5
163
330
1F
100
AcDbEntity
  8
1
  6
Continuous
 62
     4
100
AcDbLine
 10
318.450718958067
 20
309.913244459226
 30
0.0
 11
317.700718958067
 21
310.413244459226
 31
0.0
  0
LINE
  5
164
330
1F
100
AcDbEntity
  8
1
  6
Continuous
 62
     4
100
AcDbLine
 10
319.200718958067
 20
309.663244459226
 30
0.0
 11
318.450718958067
 21
309.913244459226
 31
0.0
  0
LINE
  5
165
330
1F
100
AcDbEntity
  8
1
  6
Continuous
 62
     4
100
AcDbLine
 10
319.700718958067
 20
309.663244459226
 30
0.0
 11
319.200718958067
 21
309.663244459226
 31
0.0
  0
LINE
  5
166
330
1F
100
AcDbEntity
  8
1
  6
Continuous
 62
     4
100
AcDbLine
 10
320.450718958067
 20
309.913244459226
 30
0.0
 11
319.700718958067
 21
309.663244459226
 31
0.0
  0
LINE
  5
167
330
1F
100
AcDbEntity
  8
1
  6
Continuous
 62
     4
100
AcDbLine
 10
321.200718958067
 20
310.413244459226
 30
0.0
 11
320.450718958067
 21
309.913244459226
 31
0.0
  0
LINE
  5
168
330
1F
100
AcDbEntity
  8
1
  6
Continuous
 62
     4
100
AcDbLine
 10
321.700718958067
 20
310.913244459226
 30
0.0
 11
321.200718958067
 21
310.413244459226
 31
0.0
  0
LINE
  5
169
330
1F
100
AcDbEntity
  8
1
  6
Continuous
 62
     4
100
AcDbLine
 10
322.200718958067
 20
311.913244459226
 30
0.0
 11
321.700718958067
 21
310.913244459226
 31
0.0
  0
LINE
  5
16A
330
1F
100
AcDbEntity
  8
1
  6
Continuous
 62
     4
100
AcDbLine
 10
322.450718958067
 20
313.413244459226
 30
0.0
 11
322.200718958067
 21
311.913244459226
 31
0.0
  0
LINE
  5
16B
330
1F
100
AcDbEntity
  8
1
  6
Continuous
 62
     4
100
AcDbLine
 10
313.450718958067
 20
319.663244459226
 30
0.0
 11
313.450718958067
 21
309.663244459226
 31
0.0
  0
LINE
  5
16C
330
1F
100
AcDbEntity
  8
1
  6
Continuous
 62
     4
100
AcDbLine
 10
310.450718958067
 20
316.663244459226
 30
0.0
 11
313.450718958067
 21
319.663244459226
 31
0.0
  0
LINE
  5
16D
330
1F
100
AcDbEntity
  8
1
  6
Continuous
 62
     4
100
AcDbLine
 10
338.200718958067
 20
289.663244459226
 30
0.0
 11
334.450718958067
 21
289.663244459226
 31
0.0
  0
LINE
  5
16E
330
1F
100
AcDbEntity
  8
1
  6
Continuous
 62
     4
100
AcDbLine
 10
338.950718958067
 20
289.913244459226
 30
0.0
 11
338.200718958067
 21
289.663244459226
 31
0.0
  0
LINE
  5
16F
330
1F
100
AcDbEntity
  8
1
  6
Continuous
 62
     4
100
AcDbLine
 10
339.700718958067
 20
290.413244459226
 30
0.0
 11
338.950718958067
 21
289.913244459226
 31
0.0
  0
LINE
  5
170
330
1F
100
AcDbEntity
  8
1
  6
Continuous
 62
     4
100
AcDbLine
 10
340.200718958067
 20
291.163244459226
 30
0.0
 11
339.700718958067
 21
290.413244459226
 31
0.0
  0
LINE
  5
171
330
1F
100
AcDbEntity
  8
1
  6
Continuous
 62
     4
100
AcDbLine
 10
340.450718958067
 20
292.163244459226
 30
0.0
 11
340.200718958067
 21
291.163244459226
 31
0.0
  0
LINE
  5
172
330
1F
100
AcDbEntity
  8
1
  6
Continuous
 62
     4
100
AcDbLine
 10
340.450718958067
 20
293.413244459226
 30
0.0
 11
340.450718958067
 21
292.163244459226
 31
0.0
  0
LINE
  5
173
330
1F
100
AcDbEntity
  8
1
  6
Continuous
 62
     4
100
AcDbLine
 10
340.200718958067
 20
294.413244459226
 30
0.0
 11
340.450718958067
 21
293.413244459226
 31
0.0
  0
LINE
  5
174
330
1F
100
AcDbEntity
  8
1
  6
Continuous
 62
     4
100
AcDbLine
 10
339.950718958067
 20
294.913244459226
 30
0.0
 11
340.200718958067
 21
294.413244459226
 31
0.0
  0
LINE
  5
175
330
1F
100
AcDbEntity
  8
1
  6
Continuous
 62
     4
100
AcDbLine
 10
339.450718958067
 20
295.413244459226
 30
0.0
 11
339.950718958067
 21
294.913244459226
 31
0.0
  0
LINE
  5
176
330
1F
100
AcDbEntity
  8
1
  6
Continuous
 62
     4
100
AcDbLine
 10
338.450718958067
 20
295.663244459226
 30
0.0
 11
339.450718958067
 21
295.413244459226
 31
0.0
  0
LINE
  5
177
330
1F
100
AcDbEntity
  8
1
  6
Continuous
 62
     4
100
AcDbLine
 10
339.200718958067
 20
295.913244459226
 30
0.0
 11
338.450718958067
 21
295.663244459226
 31
0.0
  0
LINE
  5
178
330
1F
100
AcDbEntity
  8
1
  6
Continuous
 62
     4
100
AcDbLine
 10
339.700718958067
 20
296.163244459226
 30
0.0
 11
339.200718958067
 21
295.913244459226
 31
0.0
  0
LINE
  5
179
330
1F
100
AcDbEntity
  8
1
  6
Continuous
 62
     4
100
AcDbLine
 10
340.200718958067
 20
296.663244459226
 30
0.0
 11
339.700718958067
 21
296.163244459226
 31
0.0
  0
LINE
  5
17A
330
1F
100
AcDbEntity
  8
1
  6
Continuous
 62
     4
100
AcDbLine
 10
340.450718958067
 20
297.413244459226
 30
0.0
 11
340.200718958067
 21
296.663244459226
 31
0.0
  0
LINE
  5
17B
330
1F
100
AcDbEntity
  8
1
  6
Continuous
 62
     4
100
AcDbLine
 10
340.450718958067
 20
298.163244459226
 30
0.0
 11
340.450718958067
 21
297.413244459226
 31
0.0
  0
LINE
  5
17C
330
1F
100
AcDbEntity
  8
1
  6
Continuous
 62
     4
100
AcDbLine
 10
340.200718958067
 20
298.913244459226
 30
0.0
 11
340.450718958067
 21
298.163244459226
 31
0.0
  0
LINE
  5
17D
330
1F
100
AcDbEntity
  8
1
  6
Continuous
 62
     4
100
AcDbLine
 10
339.450718958067
 20
299.413244459226
 30
0.0
 11
340.200718958067
 21
298.913244459226
 31
0.0
  0
LINE
  5
17E
330
1F
100
AcDbEntity
  8
1
  6
Continuous
 62
     4
100
AcDbLine
 10
338.200718958067
 20
299.663244459226
 30
0.0
 11
339.450718958067
 21
299.413244459226
 31
0.0
  0
LINE
  5
17F
330
1F
100
AcDbEntity
  8
1
  6
Continuous
 62
     4
100
AcDbLine
 10
334.450718958067
 20
299.663244459226
 30
0.0
 11
338.200718958067
 21
299.663244459226
 31
0.0
  0
LINE
  5
180
330
1F
100
AcDbEntity
  8
1
  6
Continuous
 62
     4
100
AcDbLine
 10
335.950718958067
 20
295.663244459226
 30
0.0
 11
338.450718958067
 21
295.663244459226
 31
0.0
  0
LINE
  5
181
330
1F
100
AcDbEntity
  8
1
  6
Continuous
 62
     4
100
AcDbLine
 10
329.950718958067
 20
293.663244459226
 30
0.0
 11
329.950718958067
 21
289.663244459226
 31
0.0
  0
LINE
  5
182
330
1F
100
AcDbEntity
  8
1
  6
Continuous
 62
     4
100
AcDbLine
 10
325.450718958067
 20
291.663244459226
 30
0.0
 11
331.450718958067
 21
291.663244459226
 31
0.0
  0
LINE
  5
183
330
1F
100
AcDbEntity
  8
1
  6
Continuous
 62
     4
100
AcDbLine
 10
329.950718958067
 20
299.663244459226
 30
0.0
 11
325.450718958067
 21
291.663244459226
 31
0.0
  0
LINE
  5
184
330
1F
100
AcDbEntity
  8
1
  6
Continuous
 62
     4
100
AcDbLine
 10
316.450718958067
 20
289.663244459226
 30
0.0
 11
322.450718958067
 21
289.663244459226
 31
0.0
  0
LINE
  5
185
330
1F
100
AcDbEntity
  8
1
  6
Continuous
 62
     4
100
AcDbLine
 10
321.950718958067
 20
296.163244459226
 30
0.0
 11
316.450718958067
 21
289.663244459226
 31
0.0
  0
LINE
  5
186
330
1F
100
AcDbEntity
  8
1
  6
Continuous
 62
     4
100
AcDbLine
 10
322.450718958067
 20
297.163244459226
 30
0.0
 11
321.950718958067
 21
296.163244459226
 31
0.0
  0
LINE
  5
187
330
1F
100
AcDbEntity
  8
1
  6
Continuous
 62
     4
100
AcDbLine
 10
322.450718958067
 20
298.163244459226
 30
0.0
 11
322.450718958067
 21
297.163244459226
 31
0.0
  0
LINE
  5
188
330
1F
100
AcDbEntity
  8
1
  6
Continuous
 62
     4
100
AcDbLine
 10
321.950718958067
 20
298.913244459226
 30
0.0
 11
322.450718958067
 21
298.163244459226
 31
0.0
  0
LINE
  5
189
330
1F
100
AcDbEntity
  8
1
  6
Continuous
 62
     4
100
AcDbLine
 10
321.200718958067
 20
299.413244459226
 30
0.0
 11
321.950718958067
 21
298.913244459226
 31
0.0
  0
LINE
  5
18A
330
1F
100
AcDbEntity
  8
1
  6
Continuous
 62
     4
100
AcDbLine
 10
320.200718958067
 20
299.663244459226
 30
0.0
 11
321.200718958067
 21
299.413244459226
 31
0.0
  0
LINE
  5
18B
330
1F
100
AcDbEntity
  8
1
  6
Continuous
 62
     4
100
AcDbLine
 10
318.700718958067
 20
299.663244459226
 30
0.0
 11
320.200718958067
 21
299.663244459226
 31
0.0
  0
LINE
  5
18C
330
1F
100
AcDbEntity
  8
1
  6
Continuous
 62
     4
100
AcDbLine
 10
317.700718958067
 20
299.413244459226
 30
0.0
 11
318.700718958067
 21
299.663244459226
 31
0.0
  0
LINE
  5
18D
330
1F
100
AcDbEntity
  8
1
  6
Continuous
 62
     4
100
AcDbLine
 10
316.950718958067
 20
298.913244459226
 30
0.0
 11
317.700718958067
 21
299.413244459226
 31
0.0
  0
LINE
  5
18E
330
1F
100
AcDbEntity
  8
1
  6
Continuous
 62
     4
100
AcDbLine
 10
316.450718958067
 20
298.163244459226
 30
0.0
 11
316.950718958067
 21
298.913244459226
 31
0.0
  0
LINE
  5
18F
330
1F
100
AcDbEntity
  8
1
  6
Continuous
 62
     4
100
AcDbLine
 10
313.450718958067
 20
299.663244459226
 30
0.0
 11
313.450718958067
 21
289.663244459226
 31
0.0
  0
LINE
  5
190
330
1F
100
AcDbEntity
  8
1
  6
Continuous
 62
     4
100
AcDbLine
 10
310.450718958067
 20
296.663244459226
 30
0.0
 11
313.450718958067
 21
299.663244459226
 31
0.0
  0
LINE
  5
191
330
1F
100
AcDbEntity
  8
1
  6
Continuous
 62
     4
100
AcDbLine
 10
338.200718958067
 20
269.663244459226
 30
0.0
 11
334.450718958067
 21
269.663244459226
 31
0.0
  0
LINE
  5
192
330
1F
100
AcDbEntity
  8
1
  6
Continuous
 62
     4
100
AcDbLine
 10
338.950718958067
 20
269.913244459226
 30
0.0
 11
338.200718958067
 21
269.663244459226
 31
0.0
  0
LINE
  5
193
330
1F
100
AcDbEntity
  8
1
  6
Continuous
 62
     4
100
AcDbLine
 10
339.700718958067
 20
270.413244459226
 30
0.0
 11
338.950718958067
 21
269.913244459226
 31
0.0
  0
LINE
  5
194
330
1F
100
AcDbEntity
  8
1
  6
Continuous
 62
     4
100
AcDbLine
 10
340.200718958067
 20
271.163244459226
 30
0.0
 11
339.700718958067
 21
270.413244459226
 31
0.0
  0
LINE
  5
195
330
1F
100
AcDbEntity
  8
1
  6
Continuous
 62
     4
100
AcDbLine
 10
340.450718958067
 20
272.163244459226
 30
0.0
 11
340.200718958067
 21
271.163244459226
 31
0.0
  0
LINE
  5
196
330
1F
100
AcDbEntity
  8
1
  6
Continuous
 62
     4
100
AcDbLine
 10
340.450718958067
 20
273.413244459226
 30
0.0
 11
340.450718958067
 21
272.163244459226
 31
0.0
  0
LINE
  5
197
330
1F
100
AcDbEntity
  8
1
  6
Continuous
 62
     4
100
AcDbLine
 10
340.200718958067
 20
274.413244459226
 30
0.0
 11
340.450718958067
 21
273.413244459226
 31
0.0
  0
LINE
  5
198
330
1F
100
AcDbEntity
  8
1
  6
Continuous
 62
     4
100
AcDbLine
 10
339.950718958067
 20
274.913244459226
 30
0.0
 11
340.200718958067
 21
274.413244459226
 31
0.0
  0
LINE
  5
199
330
1F
100
AcDbEntity
  8
1
  6
Continuous
 62
     4
100
AcDbLine
 10
339.450718958067
 20
275.413244459226
 30
0.0
 11
339.950718958067
 21
274.913244459226
 31
0.0
  0
LINE
  5
19A
330
1F
100
AcDbEntity
  8
1
  6
Continuous
 62
     4
100
AcDbLine
 10
338.450718958067
 20
275.663244459226
 30
0.0
 11
339.450718958067
 21
275.413244459226
 31
0.0
  0
LINE
  5
19B
330
1F
100
AcDbEntity
  8
1
  6
Continuous
 62
     4
100
AcDbLine
 10
339.200718958067
 20
275.913244459226
 30
0.0
 11
338.450718958067
 21
275.663244459226
 31
0.0
  0
LINE
  5
19C
330
1F
100
AcDbEntity
  8
1
  6
Continuous
 62
     4
100
AcDbLine
 10
339.700718958067
 20
276.163244459226
 30
0.0
 11
339.200718958067
 21
275.913244459226
 31
0.0
  0
LINE
  5
19D
330
1F
100
AcDbEntity
  8
1
  6
Continuous
 62
     4
100
AcDbLine
 10
340.200718958067
 20
276.663244459226
 30
0.0
 11
339.700718958067
 21
276.163244459226
 31
0.0
  0
LINE
  5
19E
330
1F
100
AcDbEntity
  8
1
  6
Continuous
 62
     4
100
AcDbLine
 10
340.450718958067
 20
277.413244459226
 30
0.0
 11
340.200718958067
 21
276.663244459226
 31
0.0
  0
LINE
  5
19F
330
1F
100
AcDbEntity
  8
1
  6
Continuous
 62
     4
100
AcDbLine
 10
340.450718958067
 20
278.163244459226
 30
0.0
 11
340.450718958067
 21
277.413244459226
 31
0.0
  0
LINE
  5
1A0
330
1F
100
AcDbEntity
  8
1
  6
Continuous
 62
     4
100
AcDbLine
 10
340.200718958067
 20
278.913244459226
 30
0.0
 11
340.450718958067
 21
278.163244459226
 31
0.0
  0
LINE
  5
1A1
330
1F
100
AcDbEntity
  8
1
  6
Continuous
 62
     4
100
AcDbLine
 10
339.450718958067
 20
279.413244459226
 30
0.0
 11
340.200718958067
 21
278.913244459226
 31
0.0
  0
LINE
  5
1A2
330
1F
100
AcDbEntity
  8
1
  6
Continuous
 62
     4
100
AcDbLine
 10
338.200718958067
 20
279.663244459226
 30
0.0
 11
339.450718958067
 21
279.413244459226
 31
0.0
  0
LINE
  5
1A3
330
1F
100
AcDbEntity
  8
1
  6
Continuous
 62
     4
100
AcDbLine
 10
334.450718958067
 20
279.663244459226
 30
0.0
 11
338.200718958067
 21
279.663244459226
 31
0.0
  0
LINE
  5
1A4
330
1F
100
AcDbEntity
  8
1
  6
Continuous
 62
     4
100
AcDbLine
 10
335.950718958067
 20
275.663244459226
 30
0.0
 11
338.450718958067
 21
275.663244459226
 31
0.0
  0
LINE
  5
1A5
330
1F
100
AcDbEntity
  8
1
  6
Continuous
 62
     4
100
AcDbLine
 10
329.950718958067
 20
273.663244459226
 30
0.0
 11
329.950718958067
 21
269.663244459226
 31
0.0
  0
LINE
  5
1A6
330
1F
100
AcDbEntity
  8
1
  6
Continuous
 62
     4
100
AcDbLine
 10
325.450718958067
 20
271.663244459226
 30
0.0
 11
331.450718958067
 21
271.663244459226
 31
0.0
  0
LINE
  5
1A7
330
1F
100
AcDbEntity
  8
1
  6
Continuous
 62
     4
100
AcDbLine
 10
329.950718958067
 20
279.663244459226
 30
0.0
 11
325.450718958067
 21
271.663244459226
 31
0.0
  0
LINE
  5
1A8
330
1F
100
AcDbEntity
  8
1
  6
Continuous
 62
     4
100
AcDbLine
 10
320.200718958067
 20
269.663244459226
 30
0.0
 11
316.450718958067
 21
269.663244459226
 31
0.0
  0
LINE
  5
1A9
330
1F
100
AcDbEntity
  8
1
  6
Continuous
 62
     4
100
AcDbLine
 10
320.950718958067
 20
269.913244459226
 30
0.0
 11
320.200718958067
 21
269.663244459226
 31
0.0
  0
LINE
  5
1AA
330
1F
100
AcDbEntity
  8
1
  6
Continuous
 62
     4
100
AcDbLine
 10
321.700718958067
 20
270.413244459226
 30
0.0
 11
320.950718958067
 21
269.913244459226
 31
0.0
  0
LINE
  5
1AB
330
1F
100
AcDbEntity
  8
1
  6
Continuous
 62
     4
100
AcDbLine
 10
322.200718958067
 20
271.163244459226
 30
0.0
 11
321.700718958067
 21
270.413244459226
 31
0.0
  0
LINE
  5
1AC
330
1F
100
AcDbEntity
  8
1
  6
Continuous
 62
     4
100
AcDbLine
 10
322.450718958067
 20
272.163244459226
 30
0.0
 11
322.200718958067
 21
271.163244459226
 31
0.0
  0
LINE
  5
1AD
330
1F
100
AcDbEntity
  8
1
  6
Continuous
 62
     4
100
AcDbLine
 10
322.450718958067
 20
273.663244459226
 30
0.0
 11
322.450718958067
 21
272.163244459226
 31
0.0
  0
LINE
  5
1AE
330
1F
100
AcDbEntity
  8
1
  6
Continuous
 62
     4
100
AcDbLine
 10
322.200718958067
 20
274.663244459226
 30
0.0
 11
322.450718958067
 21
273.663244459226
 31
0.0
  0
LINE
  5
1AF
330
1F
100
AcDbEntity
  8
1
  6
Continuous
 62
     4
100
AcDbLine
 10
321.450718958067
 20
275.413244459226
 30
0.0
 11
322.200718958067
 21
274.663244459226
 31
0.0
  0
LINE
  5
1B0
330
1F
100
AcDbEntity
  8
1
  6
Continuous
 62
     4
100
AcDbLine
 10
320.200718958067
 20
275.663244459226
 30
0.0
 11
321.450718958067
 21
275.413244459226
 31
0.0
  0
LINE
  5
1B1
330
1F
100
AcDbEntity
  8
1
  6
Continuous
 62
     4
100
AcDbLine
 10
316.450718958067
 20
275.663244459226
 30
0.0
 11
320.200718958067
 21
275.663244459226
 31
0.0
  0
LINE
  5
1B2
330
1F
100
AcDbEntity
  8
1
  6
Continuous
 62
     4
100
AcDbLine
 10
316.450718958067
 20
279.663244459226
 30
0.0
 11
316.450718958067
 21
275.663244459226
 31
0.0
  0
LINE
  5
1B3
330
1F
100
AcDbEntity
  8
1
  6
Continuous
 62
     4
100
AcDbLine
 10
321.950718958067
 20
279.663244459226
 30
0.0
 11
316.450718958067
 21
279.663244459226
 31
0.0
  0
LINE
  5
1B4
330
1F
100
AcDbEntity
  8
1
  6
Continuous
 62
     4
100
AcDbLine
 10
313.450718958067
 20
279.663244459226
 30
0.0
 11
313.450718958067
 21
269.663244459226
 31
0.0
  0
LINE
  5
1B5
330
1F
100
AcDbEntity
  8
1
  6
Continuous
 62
     4
100
AcDbLine
 10
310.450718958067
 20
276.663244459226
 30
0.0
 11
313.450718958067
 21
279.663244459226
 31
0.0
  0
LINE
  5
1B6
330
1F
100
AcDbEntity
  8
1
  6
Continuous
 62
     4
100
AcDbLine
 10
338.200718958067
 20
249.663244459226
 30
0.0
 11
334.450718958067
 21
249.663244459226
 31
0.0
  0
LINE
  5
1B7
330
1F
100
AcDbEntity
  8
1
  6
Continuous
 62
     4
100
AcDbLine
 10
338.950718958067
 20
249.913244459226
 30
0.0
 11
338.200718958067
 21
249.663244459226
 31
0.0
  0
LINE
  5
1B8
330
1F
100
AcDbEntity
  8
1
  6
Continuous
 62
     4
100
AcDbLine
 10
339.700718958067
 20
250.413244459226
 30
0.0
 11
338.950718958067
 21
249.913244459226
 31
0.0
  0
LINE
  5
1B9
330
1F
100
AcDbEntity
  8
1
  6
Continuous
 62
     4
100
AcDbLine
 10
340.200718958067
 20
251.163244459226
 30
0.0
 11
339.700718958067
 21
250.413244459226
 31
0.0
  0
LINE
  5
1BA
330
1F
100
AcDbEntity
  8
1
  6
Continuous
 62
     4
100
AcDbLine
 10
340.450718958067
 20
252.163244459226
 30
0.0
 11
340.200718958067
 21
251.163244459226
 31
0.0
  0
LINE
  5
1BB
330
1F
100
AcDbEntity
  8
1
  6
Continuous
 62
     4
100
AcDbLine
 10
340.450718958067
 20
253.413244459226
 30
0.0
 11
340.450718958067
 21
252.163244459226
 31
0.0
  0
LINE
  5
1BC
330
1F
100
AcDbEntity
  8
1
  6
Continuous
 62
     4
100
AcDbLine
 10
340.200718958067
 20
254.413244459226
 30
0.0
 11
340.450718958067
 21
253.413244459226
 31
0.0
  0
LINE
  5
1BD
330
1F
100
AcDbEntity
  8
1
  6
Continuous
 62
     4
100
AcDbLine
 10
339.950718958067
 20
254.913244459226
 30
0.0
 11
340.200718958067
 21
254.413244459226
 31
0.0
  0
LINE
  5
1BE
330
1F
100
AcDbEntity
  8
1
  6
Continuous
 62
     4
100
AcDbLine
 10
339.450718958067
 20
255.413244459226
 30
0.0
 11
339.950718958067
 21
254.913244459226
 31
0.0
  0
LINE
  5
1BF
330
1F
100
AcDbEntity
  8
1
  6
Continuous
 62
     4
100
AcDbLine
 10
338.450718958067
 20
255.663244459226
 30
0.0
 11
339.450718958067
 21
255.413244459226
 31
0.0
  0
LINE
  5
1C0
330
1F
100
AcDbEntity
  8
1
  6
Continuous
 62
     4
100
AcDbLine
 10
339.200718958067
 20
255.913244459226
 30
0.0
 11
338.450718958067
 21
255.663244459226
 31
0.0
  0
LINE
  5
1C1
330
1F
100
AcDbEntity
  8
1
  6
Continuous
 62
     4
100
AcDbLine
 10
339.700718958067
 20
256.163244459226
 30
0.0
 11
339.200718958067
 21
255.913244459226
 31
0.0
  0
LINE
  5
1C2
330
1F
100
AcDbEntity
  8
1
  6
Continuous
 62
     4
100
AcDbLine
 10
340.200718958067
 20
256.663244459226
 30
0.0
 11
339.700718958067
 21
256.163244459226
 31
0.0
  0
LINE
  5
1C3
330
1F
100
AcDbEntity
  8
1
  6
Continuous
 62
     4
100
AcDbLine
 10
340.450718958067
 20
257.413244459226
 30
0.0
 11
340.200718958067
 21
256.663244459226
 31
0.0
  0
LINE
  5
1C4
330
1F
100
AcDbEntity
  8
1
  6
Continuous
 62
     4
100
AcDbLine
 10
340.450718958067
 20
258.163244459226
 30
0.0
 11
340.450718958067
 21
257.413244459226
 31
0.0
  0
LINE
  5
1C5
330
1F
100
AcDbEntity
  8
1
  6
Continuous
 62
     4
100
AcDbLine
 10
340.200718958067
 20
258.913244459226
 30
0.0
 11
340.450718958067
 21
258.163244459226
 31
0.0
  0
LINE
  5
1C6
330
1F
100
AcDbEntity
  8
1
  6
Continuous
 62
     4
100
AcDbLine
 10
339.450718958067
 20
259.413244459226
 30
0.0
 11
340.200718958067
 21
258.913244459226
 31
0.0
  0
LINE
  5
1C7
330
1F
100
AcDbEntity
  8
1
  6
Continuous
 62
     4
100
AcDbLine
 10
338.200718958067
 20
259.663244459226
 30
0.0
 11
339.450718958067
 21
259.413244459226
 31
0.0
  0
LINE
  5
1C8
330
1F
100
AcDbEntity
  8
1
  6
Continuous
 62
     4
100
AcDbLine
 10
334.450718958067
 20
259.663244459226
 30
0.0
 11
338.200718958067
 21
259.663244459226
 31
0.0
  0
LINE
  5
1C9
330
1F
100
AcDbEntity
  8
1
  6
Continuous
 62
     4
100
AcDbLine
 10
335.950718958067
 20
255.663244459226
 30
0.0
 11
338.450718958067
 21
255.663244459226
 31
0.0
  0
LINE
  5
1CA
330
1F
100
AcDbEntity
  8
1
  6
Continuous
 62
     4
100
AcDbLine
 10
329.950718958067
 20
253.663244459226
 30
0.0
 11
329.950718958067
 21
249.663244459226
 31
0.0
  0
LINE
  5
1CB
330
1F
100
AcDbEntity
  8
1
  6
Continuous
 62
     4
100
AcDbLine
 10
325.450718958067
 20
251.663244459226
 30
0.0
 11
331.450718958067
 21
251.663244459226
 31
0.0
  0
LINE
  5
1CC
330
1F
100
AcDbEntity
  8
1
  6
Continuous
 62
     4
100
AcDbLine
 10
329.950718958067
 20
259.663244459226
 30
0.0
 11
325.450718958067
 21
251.663244459226
 31
0.0
  0
LINE
  5
1CD
330
1F
100
AcDbEntity
  8
1
  6
Continuous
 62
     4
100
AcDbLine
 10
318.200718958067
 20
257.413244459226
 30
0.0
 11
320.950718958067
 21
259.663244459226
 31
0.0
  0
LINE
  5
1CE
330
1F
100
AcDbEntity
  8
1
  6
Continuous
 62
     4
100
AcDbLine
 10
317.200718958067
 20
256.163244459226
 30
0.0
 11
318.200718958067
 21
257.413244459226
 31
0.0
  0
LINE
  5
1CF
330
1F
100
AcDbEntity
  8
1
  6
Continuous
 62
     4
100
AcDbLine
 10
316.700718958067
 20
255.163244459226
 30
0.0
 11
317.200718958067
 21
256.163244459226
 31
0.0
  0
LINE
  5
1D0
330
1F
100
AcDbEntity
  8
1
  6
Continuous
 62
     4
100
AcDbLine
 10
316.450718958067
 20
253.163244459226
 30
0.0
 11
316.700718958067
 21
255.163244459226
 31
0.0
  0
LINE
  5
1D1
330
1F
100
AcDbEntity
  8
1
  6
Continuous
 62
     4
100
AcDbLine
 10
316.450718958067
 20
252.163244459226
 30
0.0
 11
316.450718958067
 21
253.163244459226
 31
0.0
  0
LINE
  5
1D2
330
1F
100
AcDbEntity
  8
1
  6
Continuous
 62
     4
100
AcDbLine
 10
316.700718958067
 20
251.163244459226
 30
0.0
 11
316.450718958067
 21
252.163244459226
 31
0.0
  0
LINE
  5
1D3
330
1F
100
AcDbEntity
  8
1
  6
Continuous
 62
     4
100
AcDbLine
 10
317.200718958067
 20
250.413244459226
 30
0.0
 11
316.700718958067
 21
251.163244459226
 31
0.0
  0
LINE
  5
1D4
330
1F
100
AcDbEntity
  8
1
  6
Continuous
 62
     4
100
AcDbLine
 10
317.950718958067
 20
249.913244459226
 30
0.0
 11
317.200718958067
 21
250.413244459226
 31
0.0
  0
LINE
  5
1D5
330
1F
100
AcDbEntity
  8
1
  6
Continuous
 62
     4
100
AcDbLine
 10
318.700718958067
 20
249.663244459226
 30
0.0
 11
317.950718958067
 21
249.913244459226
 31
0.0
  0
LINE
  5
1D6
330
1F
100
AcDbEntity
  8
1
  6
Continuous
 62
     4
100
AcDbLine
 10
320.200718958067
 20
249.663244459226
 30
0.0
 11
318.700718958067
 21
249.663244459226
 31
0.0
  0
LINE
  5
1D7
330
1F
100
AcDbEntity
  8
1
  6
Continuous
 62
     4
100
AcDbLine
 10
320.950718958067
 20
249.913244459226
 30
0.0
 11
320.200718958067
 21
249.663244459226
 31
0.0
  0
LINE
  5
1D8
330
1F
100
AcDbEntity
  8
1
  6
Continuous
 62
     4
100
AcDbLine
 10
321.700718958067
 20
250.413244459226
 30
0.0
 11
320.950718958067
 21
249.913244459226
 31
0.0
  0
LINE
  5
1D9
330
1F
100
AcDbEntity
  8
1
  6
Continuous
 62
     4
100
AcDbLine
 10
322.200718958067
 20
251.163244459226
 30
0.0
 11
321.700718958067
 21
250.413244459226
 31
0.0
  0
LINE
  5
1DA
330
1F
100
AcDbEntity
  8
1
  6
Continuous
 62
     4
100
AcDbLine
 10
322.450718958067
 20
252.163244459226
 30
0.0
 11
322.200718958067
 21
251.163244459226
 31
0.0
  0
LINE
  5
1DB
330
1F
100
AcDbEntity
  8
1
  6
Continuous
 62
     4
100
AcDbLine
 10
322.450718958067
 20
253.163244459226
 30
0.0
 11
322.450718958067
 21
252.163244459226
 31
0.0
  0
LINE
  5
1DC
330
1F
100
AcDbEntity
  8
1
  6
Continuous
 62
     4
100
AcDbLine
 10
322.200718958067
 20
254.163244459226
 30
0.0
 11
322.450718958067
 21
253.163244459226
 31
0.0
  0
LINE
  5
1DD
330
1F
100
AcDbEntity
  8
1
  6
Continuous
 62
     4
100
AcDbLine
 10
321.700718958067
 20
254.913244459226
 30
0.0
 11
322.200718958067
 21
254.163244459226
 31
0.0
  0
LINE
  5
1DE
330
1F
100
AcDbEntity
  8
1
  6
Continuous
 62
     4
100
AcDbLine
 10
320.950718958067
 20
255.413244459226
 30
0.0
 11
321.700718958067
 21
254.913244459226
 31
0.0
  0
LINE
  5
1DF
330
1F
100
AcDbEntity
  8
1
  6
Continuous
 62
     4
100
AcDbLine
 10
320.200718958067
 20
255.663244459226
 30
0.0
 11
320.950718958067
 21
255.413244459226
 31
0.0
  0
LINE
  5
1E0
330
1F
100
AcDbEntity
  8
1
  6
Continuous
 62
     4
100
AcDbLine
 10
318.700718958067
 20
255.663244459226
 30
0.0
 11
320.200718958067
 21
255.663244459226
 31
0.0
  0
LINE
  5
1E1
330
1F
100
AcDbEntity
  8
1
  6
Continuous
 62
     4
100
AcDbLine
 10
317.950718958067
 20
255.413244459226
 30
0.0
 11
318.700718958067
 21
255.663244459226
 31
0.0
  0
LINE
  5
1E2
330
1F
100
AcDbEntity
  8
1
  6
Continuous
 62
     4
100
AcDbLine
 10
317.200718958067
 20
254.913244459226
 30
0.0
 11
317.950718958067
 21
255.413244459226
 31
0.0
  0
LINE
  5
1E3
330
1F
100
AcDbEntity
  8
1
  6
Continuous
 62
     4
100
AcDbLine
 10
316.700718958067
 20
254.163244459226
 30
0.0
 11
317.200718958067
 21
254.913244459226
 31
0.0
  0
LINE
  5
1E4
330
1F
100
AcDbEntity
  8
1
  6
Continuous
 62
     4
100
AcDbLine
 10
316.450718958067
 20
253.163244459226
 30
0.0
 11
316.700718958067
 21
254.163244459226
 31
0.0
  0
LINE
  5
1E5
330
1F
100
AcDbEntity
  8
1
  6
Continuous
 62
     4
100
AcDbLine
 10
313.450718958067
 20
259.663244459226
 30
0.0
 11
313.450718958067
 21
249.663244459226
 31
0.0
  0
LINE
  5
1E6
330
1F
100
AcDbEntity
  8
1
  6
Continuous
 62
     4
100
AcDbLine
 10
310.450718958067
 20
256.663244459226
 30
0.0
 11
313.450718958067
 21
259.663244459226
 31
0.0
  0
LINE
  5
1E7
330
1F
100
AcDbEntity
  8
1
  6
Continuous
 62
     4
100
AcDbLine
 10
338.200718958067
 20
229.663244459226
 30
0.0
 11
334.450718958067
 21
229.663244459226
 31
0.0
  0
LINE
  5
1E8
330
1F
100
AcDbEntity
  8
1
  6
Continuous
 62
     4
100
AcDbLine
 10
338.950718958067
 20
229.913244459226
 30
0.0
 11
338.200718958067
 21
229.663244459226
 31
0.0
  0
LINE
  5
1E9
330
1F
100
AcDbEntity
  8
1
  6
Continuous
 62
     4
100
AcDbLine
 10
339.700718958067
 20
230.413244459226
 30
0.0
 11
338.950718958067
 21
229.913244459226
 31
0.0
  0
LINE
  5
1EA
330
1F
100
AcDbEntity
  8
1
  6
Continuous
 62
     4
100
AcDbLine
 10
340.200718958067
 20
231.163244459226
 30
0.0
 11
339.700718958067
 21
230.413244459226
 31
0.0
  0
LINE
  5
1EB
330
1F
100
AcDbEntity
  8
1
  6
Continuous
 62
     4
100
AcDbLine
 10
340.450718958067
 20
232.163244459226
 30
0.0
 11
340.200718958067
 21
231.163244459226
 31
0.0
  0
LINE
  5
1EC
330
1F
100
AcDbEntity
  8
1
  6
Continuous
 62
     4
100
AcDbLine
 10
340.450718958067
 20
233.413244459226
 30
0.0
 11
340.450718958067
 21
232.163244459226
 31
0.0
  0
LINE
  5
1ED
330
1F
100
AcDbEntity
  8
1
  6
Continuous
 62
     4
100
AcDbLine
 10
340.200718958067
 20
234.413244459226
 30
0.0
 11
340.450718958067
 21
233.413244459226
 31
0.0
  0
LINE
  5
1EE
330
1F
100
AcDbEntity
  8
1
  6
Continuous
 62
     4
100
AcDbLine
 10
339.950718958067
 20
234.913244459226
 30
0.0
 11
340.200718958067
 21
234.413244459226
 31
0.0
  0
LINE
  5
1EF
330
1F
100
AcDbEntity
  8
1
  6
Continuous
 62
     4
100
AcDbLine
 10
339.450718958067
 20
235.413244459226
 30
0.0
 11
339.950718958067
 21
234.913244459226
 31
0.0
  0
LINE
  5
1F0
330
1F
100
AcDbEntity
  8
1
  6
Continuous
 62
     4
100
AcDbLine
 10
338.450718958067
 20
235.663244459226
 30
0.0
 11
339.450718958067
 21
235.413244459226
 31
0.0
  0
LINE
  5
1F1
330
1F
100
AcDbEntity
  8
1
  6
Continuous
 62
     4
100
AcDbLine
 10
339.200718958067
 20
235.913244459226
 30
0.0
 11
338.450718958067
 21
235.663244459226
 31
0.0
  0
LINE
  5
1F2
330
1F
100
AcDbEntity
  8
1
  6
Continuous
 62
     4
100
AcDbLine
 10
339.700718958067
 20
236.163244459226
 30
0.0
 11
339.200718958067
 21
235.913244459226
 31
0.0
  0
LINE
  5
1F3
330
1F
100
AcDbEntity
  8
1
  6
Continuous
 62
     4
100
AcDbLine
 10
340.200718958067
 20
236.663244459226
 30
0.0
 11
339.700718958067
 21
236.163244459226
 31
0.0
  0
LINE
  5
1F4
330
1F
100
AcDbEntity
  8
1
  6
Continuous
 62
     4
100
AcDbLine
 10
340.450718958067
 20
237.413244459226
 30
0.0
 11
340.200718958067
 21
236.663244459226
 31
0.0
  0
LINE
  5
1F5
330
1F
100
AcDbEntity
  8
1
  6
Continuous
 62
     4
100
AcDbLine
 10
340.450718958067
 20
238.163244459226
 30
0.0
 11
340.450718958067
 21
237.413244459226
 31
0.0
  0
LINE
  5
1F6
330
1F
100
AcDbEntity
  8
1
  6
Continuous
 62
     4
100
AcDbLine
 10
340.200718958067
 20
238.913244459226
 30
0.0
 11
340.450718958067
 21
238.163244459226
 31
0.0
  0
LINE
  5
1F7
330
1F
100
AcDbEntity
  8
1
  6
Continuous
 62
     4
100
AcDbLine
 10
339.450718958067
 20
239.413244459226
 30
0.0
 11
340.200718958067
 21
238.913244459226
 31
0.0
  0
LINE
  5
1F8
330
1F
100
AcDbEntity
  8
1
  6
Continuous
 62
     4
100
AcDbLine
 10
338.200718958067
 20
239.663244459226
 30
0.0
 11
339.450718958067
 21
239.413244459226
 31
0.0
  0
LINE
  5
1F9
330
1F
100
AcDbEntity
  8
1
  6
Continuous
 62
     4
100
AcDbLine
 10
334.450718958067
 20
239.663244459226
 30
0.0
 11
338.200718958067
 21
239.663244459226
 31
0.0
  0
LINE
  5
1FA
330
1F
100
AcDbEntity
  8
1
  6
Continuous
 62
     4
100
AcDbLine
 10
335.950718958067
 20
235.663244459226
 30
0.0
 11
338.450718958067
 21
235.663244459226
 31
0.0
  0
LINE
  5
1FB
330
1F
100
AcDbEntity
  8
1
  6
Continuous
 62
     4
100
AcDbLine
 10
329.950718958067
 20
233.663244459226
 30
0.0
 11
329.950718958067
 21
229.663244459226
 31
0.0
  0
LINE
  5
1FC
330
1F
100
AcDbEntity
  8
1
  6
Continuous
 62
     4
100
AcDbLine
 10
325.450718958067
 20
231.663244459226
 30
0.0
 11
331.450718958067
 21
231.663244459226
 31
0.0
  0
LINE
  5
1FD
330
1F
100
AcDbEntity
  8
1
  6
Continuous
 62
     4
100
AcDbLine
 10
329.950718958067
 20
239.663244459226
 30
0.0
 11
325.450718958067
 21
231.663244459226
 31
0.0
  0
LINE
  5
1FE
330
1F
100
AcDbEntity
  8
1
  6
Continuous
 62
     4
100
AcDbLine
 10
317.450718958067
 20
238.913244459226
 30
0.0
 11
318.200718958067
 21
239.413244459226
 31
0.0
  0
LINE
  5
1FF
330
1F
100
AcDbEntity
  8
1
  6
Continuous
 62
     4
100
AcDbLine
 10
316.950718958067
 20
238.163244459226
 30
0.0
 11
317.450718958067
 21
238.913244459226
 31
0.0
  0
LINE
  5
200
330
1F
100
AcDbEntity
  8
1
  6
Continuous
 62
     4
100
AcDbLine
 10
316.950718958067
 20
237.163244459226
 30
0.0
 11
316.950718958067
 21
238.163244459226
 31
0.0
  0
LINE
  5
201
330
1F
100
AcDbEntity
  8
1
  6
Continuous
 62
     4
100
AcDbLine
 10
317.450718958067
 20
236.413244459226
 30
0.0
 11
316.950718958067
 21
237.163244459226
 31
0.0
  0
LINE
  5
202
330
1F
100
AcDbEntity
  8
1
  6
Continuous
 62
     4
100
AcDbLine
 10
318.200718958067
 20
235.913244459226
 30
0.0
 11
317.450718958067
 21
236.413244459226
 31
0.0
  0
LINE
  5
203
330
1F
100
AcDbEntity
  8
1
  6
Continuous
 62
     4
100
AcDbLine
 10
318.950718958067
 20
235.663244459226
 30
0.0
 11
318.200718958067
 21
235.913244459226
 31
0.0
  0
LINE
  5
204
330
1F
100
AcDbEntity
  8
1
  6
Continuous
 62
     4
100
AcDbLine
 10
319.950718958067
 20
235.663244459226
 30
0.0
 11
318.950718958067
 21
235.663244459226
 31
0.0
  0
LINE
  5
205
330
1F
100
AcDbEntity
  8
1
  6
Continuous
 62
     4
100
AcDbLine
 10
320.700718958067
 20
235.913244459226
 30
0.0
 11
319.950718958067
 21
235.663244459226
 31
0.0
  0
LINE
  5
206
330
1F
100
AcDbEntity
  8
1
  6
Continuous
 62
     4
100
AcDbLine
 10
321.450718958067
 20
236.413244459226
 30
0.0
 11
320.700718958067
 21
235.913244459226
 31
0.0
  0
LINE
  5
207
330
1F
100
AcDbEntity
  8
1
  6
Continuous
 62
     4
100
AcDbLine
 10
321.950718958067
 20
237.163244459226
 30
0.0
 11
321.450718958067
 21
236.413244459226
 31
0.0
  0
LINE
  5
208
330
1F
100
AcDbEntity
  8
1
  6
Continuous
 62
     4
100
AcDbLine
 10
321.950718958067
 20
238.163244459226
 30
0.0
 11
321.950718958067
 21
237.163244459226
 31
0.0
  0
LINE
  5
209
330
1F
100
AcDbEntity
  8
1
  6
Continuous
 62
     4
100
AcDbLine
 10
321.450718958067
 20
238.913244459226
 30
0.0
 11
321.950718958067
 21
238.163244459226
 31
0.0
  0
LINE
  5
20A
330
1F
100
AcDbEntity
  8
1
  6
Continuous
 62
     4
100
AcDbLine
 10
320.700718958067
 20
239.413244459226
 30
0.0
 11
321.450718958067
 21
238.913244459226
 31
0.0
  0
LINE
  5
20B
330
1F
100
AcDbEntity
  8
1
  6
Continuous
 62
     4
100
AcDbLine
 10
319.950718958067
 20
239.663244459226
 30
0.0
 11
320.700718958067
 21
239.413244459226
 31
0.0
  0
LINE
  5
20C
330
1F
100
AcDbEntity
  8
1
  6
Continuous
 62
     4
100
AcDbLine
 10
318.950718958067
 20
239.663244459226
 30
0.0
 11
319.950718958067
 21
239.663244459226
 31
0.0
  0
LINE
  5
20D
330
1F
100
AcDbEntity
  8
1
  6
Continuous
 62
     4
100
AcDbLine
 10
318.200718958067
 20
239.413244459226
 30
0.0
 11
318.950718958067
 21
239.663244459226
 31
0.0
  0
LINE
  5
20E
330
1F
100
AcDbEntity
  8
1
  6
Continuous
 62
     4
100
AcDbLine
 10
321.200718958067
 20
235.163244459226
 30
0.0
 11
319.950718958067
 21
235.663244459226
 31
0.0
  0
LINE
  5
20F
330
1F
100
AcDbEntity
  8
1
  6
Continuous
 62
     4
100
AcDbLine
 10
321.950718958067
 20
234.413244459226
 30
0.0
 11
321.200718958067
 21
235.163244459226
 31
0.0
  0
LINE
  5
210
330
1F
100
AcDbEntity
  8
1
  6
Continuous
 62
     4
100
AcDbLine
 10
322.450718958067
 20
233.413244459226
 30
0.0
 11
321.950718958067
 21
234.413244459226
 31
0.0
  0
LINE
  5
211
330
1F
100
AcDbEntity
  8
1
  6
Continuous
 62
     4
100
AcDbLine
 10
322.450718958067
 20
231.913244459226
 30
0.0
 11
322.450718958067
 21
233.413244459226
 31
0.0
  0
LINE
  5
212
330
1F
100
AcDbEntity
  8
1
  6
Continuous
 62
     4
100
AcDbLine
 10
321.950718958067
 20
230.913244459226
 30
0.0
 11
322.450718958067
 21
231.913244459226
 31
0.0
  0
LINE
  5
213
330
1F
100
AcDbEntity
  8
1
  6
Continuous
 62
     4
100
AcDbLine
 10
321.200718958067
 20
230.163244459226
 30
0.0
 11
321.950718958067
 21
230.913244459226
 31
0.0
  0
LINE
  5
214
330
1F
100
AcDbEntity
  8
1
  6
Continuous
 62
     4
100
AcDbLine
 10
320.200718958067
 20
229.663244459226
 30
0.0
 11
321.200718958067
 21
230.163244459226
 31
0.0
  0
LINE
  5
215
330
1F
100
AcDbEntity
  8
1
  6
Continuous
 62
     4
100
AcDbLine
 10
318.700718958067
 20
229.663244459226
 30
0.0
 11
320.200718958067
 21
229.663244459226
 31
0.0
  0
LINE
  5
216
330
1F
100
AcDbEntity
  8
1
  6
Continuous
 62
     4
100
AcDbLine
 10
317.700718958067
 20
230.163244459226
 30
0.0
 11
318.700718958067
 21
229.663244459226
 31
0.0
  0
LINE
  5
217
330
1F
100
AcDbEntity
  8
1
  6
Continuous
 62
     4
100
AcDbLine
 10
316.950718958067
 20
230.913244459226
 30
0.0
 11
317.700718958067
 21
230.163244459226
 31
0.0
  0
LINE
  5
218
330
1F
100
AcDbEntity
  8
1
  6
Continuous
 62
     4
100
AcDbLine
 10
316.450718958067
 20
231.913244459226
 30
0.0
 11
316.950718958067
 21
230.913244459226
 31
0.0
  0
LINE
  5
219
330
1F
100
AcDbEntity
  8
1
  6
Continuous
 62
     4
100
AcDbLine
 10
316.450718958067
 20
233.413244459226
 30
0.0
 11
316.450718958067
 21
231.913244459226
 31
0.0
  0
LINE
  5
21A
330
1F
100
AcDbEntity
  8
1
  6
Continuous
 62
     4
100
AcDbLine
 10
316.950718958067
 20
234.413244459226
 30
0.0
 11
316.450718958067
 21
233.413244459226
 31
0.0
  0
LINE
  5
21B
330
1F
100
AcDbEntity
  8
1
  6
Continuous
 62
     4
100
AcDbLine
 10
317.700718958067
 20
235.163244459226
 30
0.0
 11
316.950718958067
 21
234.413244459226
 31
0.0
  0
LINE
  5
21C
330
1F
100
AcDbEntity
  8
1
  6
Continuous
 62
     4
100
AcDbLine
 10
318.950718958067
 20
235.663244459226
 30
0.0
 11
317.700718958067
 21
235.163244459226
 31
0.0
  0
LINE
  5
21D
330
1F
100
AcDbEntity
  8
1
  6
Continuous
 62
     4
100
AcDbLine
 10
313.450718958067
 20
239.663244459226
 30
0.0
 11
313.450718958067
 21
229.663244459226
 31
0.0
  0
LINE
  5
21E
330
1F
100
AcDbEntity
  8
1
  6
Continuous
 62
     4
100
AcDbLine
 10
310.450718958067
 20
236.663244459226
 30
0.0
 11
313.450718958067
 21
239.663244459226
 31
0.0
  0
LINE
  5
21F
330
1F
100
AcDbEntity
  8
1
  6
Continuous
 62
     4
100
AcDbLine
 10
339.700718958067
 20
209.663244459226
 30
0.0
 11
335.950718958067
 21
209.663244459226
 31
0.0
  0
LINE
  5
220
330
1F
100
AcDbEntity
  8
1
  6
Continuous
 62
     4
100
AcDbLine
 10
340.450718958067
 20
209.913244459226
 30
0.0
 11
339.700718958067
 21
209.663244459226
 31
0.0
  0
LINE
  5
221
330
1F
100
AcDbEntity
  8
1
  6
Continuous
 62
     4
100
AcDbLine
 10
341.200718958067
 20
210.413244459226
 30
0.0
 11
340.450718958067
 21
209.913244459226
 31
0.0
  0
LINE
  5
222
330
1F
100
AcDbEntity
  8
1
  6
Continuous
 62
     4
100
AcDbLine
 10
341.700718958067
 20
211.163244459226
 30
0.0
 11
341.200718958067
 21
210.413244459226
 31
0.0
  0
LINE
  5
223
330
1F
100
AcDbEntity
  8
1
  6
Continuous
 62
     4
100
AcDbLine
 10
341.950718958067
 20
212.163244459226
 30
0.0
 11
341.700718958067
 21
211.163244459226
 31
0.0
  0
LINE
  5
224
330
1F
100
AcDbEntity
  8
1
  6
Continuous
 62
     4
100
AcDbLine
 10
341.950718958067
 20
213.413244459226
 30
0.0
 11
341.950718958067
 21
212.163244459226
 31
0.0
  0
LINE
  5
225
330
1F
100
AcDbEntity
  8
1
  6
Continuous
 62
     4
100
AcDbLine
 10
341.700718958067
 20
214.413244459226
 30
0.0
 11
341.950718958067
 21
213.413244459226
 31
0.0
  0
LINE
  5
226
330
1F
100
AcDbEntity
  8
1
  6
Continuous
 62
     4
100
AcDbLine
 10
341.450718958067
 20
214.913244459226
 30
0.0
 11
341.700718958067
 21
214.413244459226
 31
0.0
  0
LINE
  5
227
330
1F
100
AcDbEntity
  8
1
  6
Continuous
 62
     4
100
AcDbLine
 10
340.950718958067
 20
215.413244459226
 30
0.0
 11
341.450718958067
 21
214.913244459226
 31
0.0
  0
LINE
  5
228
330
1F
100
AcDbEntity
  8
1
  6
Continuous
 62
     4
100
AcDbLine
 10
339.950718958067
 20
215.663244459226
 30
0.0
 11
340.950718958067
 21
215.413244459226
 31
0.0
  0
LINE
  5
229
330
1F
100
AcDbEntity
  8
1
  6
Continuous
 62
     4
100
AcDbLine
 10
340.700718958067
 20
215.913244459226
 30
0.0
 11
339.950718958067
 21
215.663244459226
 31
0.0
  0
LINE
  5
22A
330
1F
100
AcDbEntity
  8
1
  6
Continuous
 62
     4
100
AcDbLine
 10
341.200718958067
 20
216.163244459226
 30
0.0
 11
340.700718958067
 21
215.913244459226
 31
0.0
  0
LINE
  5
22B
330
1F
100
AcDbEntity
  8
1
  6
Continuous
 62
     4
100
AcDbLine
 10
341.700718958067
 20
216.663244459226
 30
0.0
 11
341.200718958067
 21
216.163244459226
 31
0.0
  0
LINE
  5
22C
330
1F
100
AcDbEntity
  8
1
  6
Continuous
 62
     4
100
AcDbLine
 10
341.950718958067
 20
217.413244459226
 30
0.0
 11
341.700718958067
 21
216.663244459226
 31
0.0
  0
LINE
  5
22D
330
1F
100
AcDbEntity
  8
1
  6
Continuous
 62
     4
100
AcDbLine
 10
341.950718958067
 20
218.163244459226
 30
0.0
 11
341.950718958067
 21
217.413244459226
 31
0.0
  0
LINE
  5
22E
330
1F
100
AcDbEntity
  8
1
  6
Continuous
 62
     4
100
AcDbLine
 10
341.700718958067
 20
218.913244459226
 30
0.0
 11
341.950718958067
 21
218.163244459226
 31
0.0
  0
LINE
  5
22F
330
1F
100
AcDbEntity
  8
1
  6
Continuous
 62
     4
100
AcDbLine
 10
340.950718958067
 20
219.413244459226
 30
0.0
 11
341.700718958067
 21
218.913244459226
 31
0.0
  0
LINE
  5
230
330
1F
100
AcDbEntity
  8
1
  6
Continuous
 62
     4
100
AcDbLine
 10
339.700718958067
 20
219.663244459226
 30
0.0
 11
340.950718958067
 21
219.413244459226
 31
0.0
  0
LINE
  5
231
330
1F
100
AcDbEntity
  8
1
  6
Continuous
 62
     4
100
AcDbLine
 10
335.950718958067
 20
219.663244459226
 30
0.0
 11
339.700718958067
 21
219.663244459226
 31
0.0
  0
LINE
  5
232
330
1F
100
AcDbEntity
  8
1
  6
Continuous
 62
     4
100
AcDbLine
 10
337.450718958067
 20
215.663244459226
 30
0.0
 11
339.950718958067
 21
215.663244459226
 31
0.0
  0
LINE
  5
233
330
1F
100
AcDbEntity
  8
1
  6
Continuous
 62
     4
100
AcDbLine
 10
331.450718958067
 20
213.663244459226
 30
0.0
 11
331.450718958067
 21
209.663244459226
 31
0.0
  0
LINE
  5
234
330
1F
100
AcDbEntity
  8
1
  6
Continuous
 62
     4
100
AcDbLine
 10
326.950718958067
 20
211.663244459226
 30
0.0
 11
332.950718958067
 21
211.663244459226
 31
0.0
  0
LINE
  5
235
330
1F
100
AcDbEntity
  8
1
  6
Continuous
 62
     4
100
AcDbLine
 10
331.450718958067
 20
219.663244459226
 30
0.0
 11
326.950718958067
 21
211.663244459226
 31
0.0
  0
LINE
  5
236
330
1F
100
AcDbEntity
  8
1
  6
Continuous
 62
     4
100
AcDbLine
 10
323.950718958067
 20
215.913244459226
 30
0.0
 11
323.950718958067
 21
213.413244459226
 31
0.0
  0
LINE
  5
237
330
1F
100
AcDbEntity
  8
1
  6
Continuous
 62
     4
100
AcDbLine
 10
323.700718958067
 20
217.413244459226
 30
0.0
 11
323.950718958067
 21
215.913244459226
 31
0.0
  0
LINE
  5
238
330
1F
100
AcDbEntity
  8
1
  6
Continuous
 62
     4
100
AcDbLine
 10
323.200718958067
 20
218.413244459226
 30
0.0
 11
323.700718958067
 21
217.413244459226
 31
0.0
  0
LINE
  5
239
330
1F
100
AcDbEntity
  8
1
  6
Continuous
 62
     4
100
AcDbLine
 10
322.700718958067
 20
218.913244459226
 30
0.0
 11
323.200718958067
 21
218.413244459226
 31
0.0
  0
LINE
  5
23A
330
1F
100
AcDbEntity
  8
1
  6
Continuous
 62
     4
100
AcDbLine
 10
321.950718958067
 20
219.413244459226
 30
0.0
 11
322.700718958067
 21
218.913244459226
 31
0.0
  0
LINE
  5
23B
330
1F
100
AcDbEntity
  8
1
  6
Continuous
 62
     4
100
AcDbLine
 10
321.200718958067
 20
219.663244459226
 30
0.0
 11
321.950718958067
 21
219.413244459226
 31
0.0
  0
LINE
  5
23C
330
1F
100
AcDbEntity
  8
1
  6
Continuous
 62
     4
100
AcDbLine
 10
320.700718958067
 20
219.663244459226
 30
0.0
 11
321.200718958067
 21
219.663244459226
 31
0.0
  0
LINE
  5
23D
330
1F
100
AcDbEntity
  8
1
  6
Continuous
 62
     4
100
AcDbLine
 10
319.950718958067
 20
219.413244459226
 30
0.0
 11
320.700718958067
 21
219.663244459226
 31
0.0
  0
LINE
  5
23E
330
1F
100
AcDbEntity
  8
1
  6
Continuous
 62
     4
100
AcDbLine
 10
319.200718958067
 20
218.913244459226
 30
0.0
 11
319.950718958067
 21
219.413244459226
 31
0.0
  0
LINE
  5
23F
330
1F
100
AcDbEntity
  8
1
  6
Continuous
 62
     4
100
AcDbLine
 10
318.700718958067
 20
218.413244459226
 30
0.0
 11
319.200718958067
 21
218.913244459226
 31
0.0
  0
LINE
  5
240
330
1F
100
AcDbEntity
  8
1
  6
Continuous
 62
     4
100
AcDbLine
 10
318.200718958067
 20
217.413244459226
 30
0.0
 11
318.700718958067
 21
218.413244459226
 31
0.0
  0
LINE
  5
241
330
1F
100
AcDbEntity
  8
1
  6
Continuous
 62
     4
100
AcDbLine
 10
317.950718958067
 20
215.913244459226
 30
0.0
 11
318.200718958067
 21
217.413244459226
 31
0.0
  0
LINE
  5
242
330
1F
100
AcDbEntity
  8
1
  6
Continuous
 62
     4
100
AcDbLine
 10
317.950718958067
 20
213.413244459226
 30
0.0
 11
317.950718958067
 21
215.913244459226
 31
0.0
  0
LINE
  5
243
330
1F
100
AcDbEntity
  8
1
  6
Continuous
 62
     4
100
AcDbLine
 10
318.200718958067
 20
211.913244459226
 30
0.0
 11
317.950718958067
 21
213.413244459226
 31
0.0
  0
LINE
  5
244
330
1F
100
AcDbEntity
  8
1
  6
Continuous
 62
     4
100
AcDbLine
 10
318.700718958067
 20
210.913244459226
 30
0.0
 11
318.200718958067
 21
211.913244459226
 31
0.0
  0
LINE
  5
245
330
1F
100
AcDbEntity
  8
1
  6
Continuous
 62
     4
100
AcDbLine
 10
319.200718958067
 20
210.413244459226
 30
0.0
 11
318.700718958067
 21
210.913244459226
 31
0.0
  0
LINE
  5
246
330
1F
100
AcDbEntity
  8
1
  6
Continuous
 62
     4
100
AcDbLine
 10
319.950718958067
 20
209.913244459226
 30
0.0
 11
319.200718958067
 21
210.413244459226
 31
0.0
  0
LINE
  5
247
330
1F
100
AcDbEntity
  8
1
  6
Continuous
 62
     4
100
AcDbLine
 10
320.700718958067
 20
209.663244459226
 30
0.0
 11
319.950718958067
 21
209.913244459226
 31
0.0
  0
LINE
  5
248
330
1F
100
AcDbEntity
  8
1
  6
Continuous
 62
     4
100
AcDbLine
 10
321.200718958067
 20
209.663244459226
 30
0.0
 11
320.700718958067
 21
209.663244459226
 31
0.0
  0
LINE
  5
249
330
1F
100
AcDbEntity
  8
1
  6
Continuous
 62
     4
100
AcDbLine
 10
321.950718958067
 20
209.913244459226
 30
0.0
 11
321.200718958067
 21
209.663244459226
 31
0.0
  0
LINE
  5
24A
330
1F
100
AcDbEntity
  8
1
  6
Continuous
 62
     4
100
AcDbLine
 10
322.700718958067
 20
210.413244459226
 30
0.0
 11
321.950718958067
 21
209.913244459226
 31
0.0
  0
LINE
  5
24B
330
1F
100
AcDbEntity
  8
1
  6
Continuous
 62
     4
100
AcDbLine
 10
323.200718958067
 20
210.913244459226
 30
0.0
 11
322.700718958067
 21
210.413244459226
 31
0.0
  0
LINE
  5
24C
330
1F
100
AcDbEntity
  8
1
  6
Continuous
 62
     4
100
AcDbLine
 10
323.700718958067
 20
211.913244459226
 30
0.0
 11
323.200718958067
 21
210.913244459226
 31
0.0
  0
LINE
  5
24D
330
1F
100
AcDbEntity
  8
1
  6
Continuous
 62
     4
100
AcDbLine
 10
323.950718958067
 20
213.413244459226
 30
0.0
 11
323.700718958067
 21
211.913244459226
 31
0.0
  0
LINE
  5
24E
330
1F
100
AcDbEntity
  8
1
  6
Continuous
 62
     4
100
AcDbLine
 10
308.950718958067
 20
209.663244459226
 30
0.0
 11
314.950718958067
 21
209.663244459226
 31
0.0
  0
LINE
  5
24F
330
1F
100
AcDbEntity
  8
1
  6
Continuous
 62
     4
100
AcDbLine
 10
314.450718958067
 20
216.163244459226
 30
0.0
 11
308.950718958067
 21
209.663244459226
 31
0.0
  0
LINE
  5
250
330
1F
100
AcDbEntity
  8
1
  6
Continuous
 62
     4
100
AcDbLine
 10
314.950718958067
 20
217.163244459226
 30
0.0
 11
314.450718958067
 21
216.163244459226
 31
0.0
  0
LINE
  5
251
330
1F
100
AcDbEntity
  8
1
  6
Continuous
 62
     4
100
AcDbLine
 10
314.950718958067
 20
218.163244459226
 30
0.0
 11
314.950718958067
 21
217.163244459226
 31
0.0
  0
LINE
  5
252
330
1F
100
AcDbEntity
  8
1
  6
Continuous
 62
     4
100
AcDbLine
 10
314.450718958067
 20
218.913244459226
 30
0.0
 11
314.950718958067
 21
218.163244459226
 31
0.0
  0
LINE
  5
253
330
1F
100
AcDbEntity
  8
1
  6
Continuous
 62
     4
100
AcDbLine
 10
313.700718958067
 20
219.413244459226
 30
0.0
 11
314.450718958067
 21
218.913244459226
 31
0.0
  0
LINE
  5
254
330
1F
100
AcDbEntity
  8
1
  6
Continuous
 62
     4
100
AcDbLine
 10
312.700718958067
 20
219.663244459226
 30
0.0
 11
313.700718958067
 21
219.413244459226
 31
0.0
  0
LINE
  5
255
330
1F
100
AcDbEntity
  8
1
  6
Continuous
 62
     4
100
AcDbLine
 10
311.200718958067
 20
219.663244459226
 30
0.0
 11
312.700718958067
 21
219.663244459226
 31
0.0
  0
LINE
  5
256
330
1F
100
AcDbEntity
  8
1
  6
Continuous
 62
     4
100
AcDbLine
 10
310.200718958067
 20
219.413244459226
 30
0.0
 11
311.200718958067
 21
219.663244459226
 31
0.0
  0
LINE
  5
257
330
1F
100
AcDbEntity
  8
1
  6
Continuous
 62
     4
100
AcDbLine
 10
309.450718958067
 20
218.913244459226
 30
0.0
 11
310.200718958067
 21
219.413244459226
 31
0.0
  0
LINE
  5
258
330
1F
100
AcDbEntity
  8
1
  6
Continuous
 62
     4
100
AcDbLine
 10
308.950718958067
 20
218.163244459226
 30
0.0
 11
309.450718958067
 21
218.913244459226
 31
0.0
  0
LINE
  5
259
330
1F
100
AcDbEntity
  8
1
  6
Continuous
 62
     4
100
AcDbLine
 10
254.575718958067
 20
215.913244459226
 30
0.0
 11
254.575718958067
 21
213.413244459226
 31
0.0
  0
LINE
  5
25A
330
1F
100
AcDbEntity
  8
1
  6
Continuous
 62
     4
100
AcDbLine
 10
254.325718958067
 20
217.413244459226
 30
0.0
 11
254.575718958067
 21
215.913244459226
 31
0.0
  0
LINE
  5
25B
330
1F
100
AcDbEntity
  8
1
  6
Continuous
 62
     4
100
AcDbLine
 10
253.825718958067
 20
218.413244459226
 30
0.0
 11
254.325718958067
 21
217.413244459226
 31
0.0
  0
LINE
  5
25C
330
1F
100
AcDbEntity
  8
1
  6
Continuous
 62
     4
100
AcDbLine
 10
253.325718958067
 20
218.913244459226
 30
0.0
 11
253.825718958067
 21
218.413244459226
 31
0.0
  0
LINE
  5
25D
330
1F
100
AcDbEntity
  8
1
  6
Continuous
 62
     4
100
AcDbLine
 10
252.575718958067
 20
219.413244459226
 30
0.0
 11
253.325718958067
 21
218.913244459226
 31
0.0
  0
LINE
  5
25E
330
1F
100
AcDbEntity
  8
1
  6
Continuous
 62
     4
100
AcDbLine
 10
251.825718958067
 20
219.663244459226
 30
0.0
 11
252.575718958067
 21
219.413244459226
 31
0.0
  0
LINE
  5
25F
330
1F
100
AcDbEntity
  8
1
  6
Continuous
 62
     4
100
AcDbLine
 10
251.325718958067
 20
219.663244459226
 30
0.0
 11
251.825718958067
 21
219.663244459226
 31
0.0
  0
LINE
  5
260
330
1F
100
AcDbEntity
  8
1
  6
Continuous
 62
     4
100
AcDbLine
 10
250.575718958067
 20
219.413244459226
 30
0.0
 11
251.325718958067
 21
219.663244459226
 31
0.0
  0
LINE
  5
261
330
1F
100
AcDbEntity
  8
1
  6
Continuous
 62
     4
100
AcDbLine
 10
249.825718958067
 20
218.913244459226
 30
0.0
 11
250.575718958067
 21
219.413244459226
 31
0.0
  0
LINE
  5
262
330
1F
100
AcDbEntity
  8
1
  6
Continuous
 62
     4
100
AcDbLine
 10
249.325718958067
 20
218.413244459226
 30
0.0
 11
249.825718958067
 21
218.913244459226
 31
0.0
  0
LINE
  5
263
330
1F
100
AcDbEntity
  8
1
  6
Continuous
 62
     4
100
AcDbLine
 10
248.825718958067
 20
217.413244459226
 30
0.0
 11
249.325718958067
 21
218.413244459226
 31
0.0
  0
LINE
  5
264
330
1F
100
AcDbEntity
  8
1
  6
Continuous
 62
     4
100
AcDbLine
 10
248.575718958067
 20
215.913244459226
 30
0.0
 11
248.825718958067
 21
217.413244459226
 31
0.0
  0
LINE
  5
265
330
1F
100
AcDbEntity
  8
1
  6
Continuous
 62
     4
100
AcDbLine
 10
248.575718958067
 20
213.413244459226
 30
0.0
 11
248.575718958067
 21
215.913244459226
 31
0.0
  0
LINE
  5
266
330
1F
100
AcDbEntity
  8
1
  6
Continuous
 62
     4
100
AcDbLine
 10
248.825718958067
 20
211.913244459226
 30
0.0
 11
248.575718958067
 21
213.413244459226
 31
0.0
  0
LINE
  5
267
330
1F
100
AcDbEntity
  8
1
  6
Continuous
 62
     4
100
AcDbLine
 10
249.325718958067
 20
210.913244459226
 30
0.0
 11
248.825718958067
 21
211.913244459226
 31
0.0
  0
LINE
  5
268
330
1F
100
AcDbEntity
  8
1
  6
Continuous
 62
     4
100
AcDbLine
 10
249.825718958067
 20
210.413244459226
 30
0.0
 11
249.325718958067
 21
210.913244459226
 31
0.0
  0
LINE
  5
269
330
1F
100
AcDbEntity
  8
1
  6
Continuous
 62
     4
100
AcDbLine
 10
250.575718958067
 20
209.913244459226
 30
0.0
 11
249.825718958067
 21
210.413244459226
 31
0.0
  0
LINE
  5
26A
330
1F
100
AcDbEntity
  8
1
  6
Continuous
 62
     4
100
AcDbLine
 10
251.325718958067
 20
209.663244459226
 30
0.0
 11
250.575718958067
 21
209.913244459226
 31
0.0
  0
LINE
  5
26B
330
1F
100
AcDbEntity
  8
1
  6
Continuous
 62
     4
100
AcDbLine
 10
251.825718958067
 20
209.663244459226
 30
0.0
 11
251.325718958067
 21
209.663244459226
 31
0.0
  0
LINE
  5
26C
330
1F
100
AcDbEntity
  8
1
  6
Continuous
 62
     4
100
AcDbLine
 10
252.575718958067
 20
209.913244459226
 30
0.0
 11
251.825718958067
 21
209.663244459226
 31
0.0
  0
LINE
  5
26D
330
1F
100
AcDbEntity
  8
1
  6
Continuous
 62
     4
100
AcDbLine
 10
253.325718958067
 20
210.413244459226
 30
0.0
 11
252.575718958067
 21
209.913244459226
 31
0.0
  0
LINE
  5
26E
330
1F
100
AcDbEntity
  8
1
  6
Continuous
 62
     4
100
AcDbLine
 10
253.825718958067
 20
210.913244459226
 30
0.0
 11
253.325718958067
 21
210.413244459226
 31
0.0
  0
LINE
  5
26F
330
1F
100
AcDbEntity
  8
1
  6
Continuous
 62
     4
100
AcDbLine
 10
254.325718958067
 20
211.913244459226
 30
0.0
 11
253.825718958067
 21
210.913244459226
 31
0.0
  0
LINE
  5
270
330
1F
100
AcDbEntity
  8
1
  6
Continuous
 62
     4
100
AcDbLine
 10
254.575718958067
 20
213.413244459226
 30
0.0
 11
254.325718958067
 21
211.913244459226
 31
0.0
  0
LINE
  5
271
330
1F
100
AcDbEntity
  8
1
  6
Continuous
 62
     4
100
AcDbLine
 10
245.825718958067
 20
210.163244459226
 30
0.0
 11
245.825718958067
 21
209.913244459226
 31
0.0
  0
LINE
  5
272
330
1F
100
AcDbEntity
  8
1
  6
Continuous
 62
     4
100
AcDbLine
 10
245.575718958067
 20
210.163244459226
 30
0.0
 11
245.825718958067
 21
210.163244459226
 31
0.0
  0
LINE
  5
273
330
1F
100
AcDbEntity
  8
1
  6
Continuous
 62
     4
100
AcDbLine
 10
245.575718958067
 20
209.913244459226
 30
0.0
 11
245.575718958067
 21
210.163244459226
 31
0.0
  0
LINE
  5
274
330
1F
100
AcDbEntity
  8
1
  6
Continuous
 62
     4
100
AcDbLine
 10
245.825718958067
 20
209.913244459226
 30
0.0
 11
245.575718958067
 21
209.913244459226
 31
0.0
  0
LINE
  5
275
330
1F
100
AcDbEntity
  8
1
  6
Continuous
 62
     4
100
AcDbLine
 10
246.075718958067
 20
210.413244459226
 30
0.0
 11
246.075718958067
 21
209.663244459226
 31
0.0
  0
LINE
  5
276
330
1F
100
AcDbEntity
  8
1
  6
Continuous
 62
     4
100
AcDbLine
 10
245.325718958067
 20
210.413244459226
 30
0.0
 11
246.075718958067
 21
210.413244459226
 31
0.0
  0
LINE
  5
277
330
1F
100
AcDbEntity
  8
1
  6
Continuous
 62
     4
100
AcDbLine
 10
245.325718958067
 20
209.663244459226
 30
0.0
 11
245.325718958067
 21
210.413244459226
 31
0.0
  0
LINE
  5
278
330
1F
100
AcDbEntity
  8
1
  6
Continuous
 62
     4
100
AcDbLine
 10
246.075718958067
 20
209.663244459226
 30
0.0
 11
245.325718958067
 21
209.663244459226
 31
0.0
  0
LINE
  5
279
330
1F
100
AcDbEntity
  8
1
  6
Continuous
 62
     4
100
AcDbLine
 10
236.325718958067
 20
209.663244459226
 30
0.0
 11
242.325718958067
 21
209.663244459226
 31
0.0
  0
LINE
  5
27A
330
1F
100
AcDbEntity
  8
1
  6
Continuous
 62
     4
100
AcDbLine
 10
241.825718958067
 20
216.163244459226
 30
0.0
 11
236.325718958067
 21
209.663244459226
 31
0.0
  0
LINE
  5
27B
330
1F
100
AcDbEntity
  8
1
  6
Continuous
 62
     4
100
AcDbLine
 10
242.325718958067
 20
217.163244459226
 30
0.0
 11
241.825718958067
 21
216.163244459226
 31
0.0
  0
LINE
  5
27C
330
1F
100
AcDbEntity
  8
1
  6
Continuous
 62
     4
100
AcDbLine
 10
242.325718958067
 20
218.163244459226
 30
0.0
 11
242.325718958067
 21
217.163244459226
 31
0.0
  0
LINE
  5
27D
330
1F
100
AcDbEntity
  8
1
  6
Continuous
 62
     4
100
AcDbLine
 10
241.825718958067
 20
218.913244459226
 30
0.0
 11
242.325718958067
 21
218.163244459226
 31
0.0
  0
LINE
  5
27E
330
1F
100
AcDbEntity
  8
1
  6
Continuous
 62
     4
100
AcDbLine
 10
241.075718958067
 20
219.413244459226
 30
0.0
 11
241.825718958067
 21
218.913244459226
 31
0.0
  0
LINE
  5
27F
330
1F
100
AcDbEntity
  8
1
  6
Continuous
 62
     4
100
AcDbLine
 10
240.075718958067
 20
219.663244459226
 30
0.0
 11
241.075718958067
 21
219.413244459226
 31
0.0
  0
LINE
  5
280
330
1F
100
AcDbEntity
  8
1
  6
Continuous
 62
     4
100
AcDbLine
 10
238.575718958067
 20
219.663244459226
 30
0.0
 11
240.075718958067
 21
219.663244459226
 31
0.0
  0
LINE
  5
281
330
1F
100
AcDbEntity
  8
1
  6
Continuous
 62
     4
100
AcDbLine
 10
237.575718958067
 20
219.413244459226
 30
0.0
 11
238.575718958067
 21
219.663244459226
 31
0.0
  0
LINE
  5
282
330
1F
100
AcDbEntity
  8
1
  6
Continuous
 62
     4
100
AcDbLine
 10
236.825718958067
 20
218.913244459226
 30
0.0
 11
237.575718958067
 21
219.413244459226
 31
0.0
  0
LINE
  5
283
330
1F
100
AcDbEntity
  8
1
  6
Continuous
 62
     4
100
AcDbLine
 10
236.325718958067
 20
218.163244459226
 30
0.0
 11
236.825718958067
 21
218.913244459226
 31
0.0
  0
LINE
  5
284
330
1F
100
AcDbEntity
  8
1
  6
Continuous
 62
     4
100
AcDbLine
 10
248.075718958067
 20
238.913244459226
 30
0.0
 11
248.825718958067
 21
239.413244459226
 31
0.0
  0
LINE
  5
285
330
1F
100
AcDbEntity
  8
1
  6
Continuous
 62
     4
100
AcDbLine
 10
247.575718958067
 20
238.163244459226
 30
0.0
 11
248.075718958067
 21
238.913244459226
 31
0.0
  0
LINE
  5
286
330
1F
100
AcDbEntity
  8
1
  6
Continuous
 62
     4
100
AcDbLine
 10
247.575718958067
 20
237.163244459226
 30
0.0
 11
247.575718958067
 21
238.163244459226
 31
0.0
  0
LINE
  5
287
330
1F
100
AcDbEntity
  8
1
  6
Continuous
 62
     4
100
AcDbLine
 10
248.075718958067
 20
236.413244459226
 30
0.0
 11
247.575718958067
 21
237.163244459226
 31
0.0
  0
LINE
  5
288
330
1F
100
AcDbEntity
  8
1
  6
Continuous
 62
     4
100
AcDbLine
 10
248.825718958067
 20
235.913244459226
 30
0.0
 11
248.075718958067
 21
236.413244459226
 31
0.0
  0
LINE
  5
289
330
1F
100
AcDbEntity
  8
1
  6
Continuous
 62
     4
100
AcDbLine
 10
249.575718958067
 20
235.663244459226
 30
0.0
 11
248.825718958067
 21
235.913244459226
 31
0.0
  0
LINE
  5
28A
330
1F
100
AcDbEntity
  8
1
  6
Continuous
 62
     4
100
AcDbLine
 10
250.575718958067
 20
235.663244459226
 30
0.0
 11
249.575718958067
 21
235.663244459226
 31
0.0
  0
LINE
  5
28B
330
1F
100
AcDbEntity
  8
1
  6
Continuous
 62
     4
100
AcDbLine
 10
251.325718958067
 20
235.913244459226
 30
0.0
 11
250.575718958067
 21
235.663244459226
 31
0.0
  0
LINE
  5
28C
330
1F
100
AcDbEntity
  8
1
  6
Continuous
 62
     4
100
AcDbLine
 10
252.075718958067
 20
236.413244459226
 30
0.0
 11
251.325718958067
 21
235.913244459226
 31
0.0
  0
LINE
  5
28D
330
1F
100
AcDbEntity
  8
1
  6
Continuous
 62
     4
100
AcDbLine
 10
252.575718958067
 20
237.163244459226
 30
0.0
 11
252.075718958067
 21
236.413244459226
 31
0.0
  0
LINE
  5
28E
330
1F
100
AcDbEntity
  8
1
  6
Continuous
 62
     4
100
AcDbLine
 10
252.575718958067
 20
238.163244459226
 30
0.0
 11
252.575718958067
 21
237.163244459226
 31
0.0
  0
LINE
  5
28F
330
1F
100
AcDbEntity
  8
1
  6
Continuous
 62
     4
100
AcDbLine
 10
252.075718958067
 20
238.913244459226
 30
0.0
 11
252.575718958067
 21
238.163244459226
 31
0.0
  0
LINE
  5
290
330
1F
100
AcDbEntity
  8
1
  6
Continuous
 62
     4
100
AcDbLine
 10
251.325718958067
 20
239.413244459226
 30
0.0
 11
252.075718958067
 21
238.913244459226
 31
0.0
  0
LINE
  5
291
330
1F
100
AcDbEntity
  8
1
  6
Continuous
 62
     4
100
AcDbLine
 10
250.575718958067
 20
239.663244459226
 30
0.0
 11
251.325718958067
 21
239.413244459226
 31
0.0
  0
LINE
  5
292
330
1F
100
AcDbEntity
  8
1
  6
Continuous
 62
     4
100
AcDbLine
 10
249.575718958067
 20
239.663244459226
 30
0.0
 11
250.575718958067
 21
239.663244459226
 31
0.0
  0
LINE
  5
293
330
1F
100
AcDbEntity
  8
1
  6
Continuous
 62
     4
100
AcDbLine
 10
248.825718958067
 20
239.413244459226
 30
0.0
 11
249.575718958067
 21
239.663244459226
 31
0.0
  0
LINE
  5
294
330
1F
100
AcDbEntity
  8
1
  6
Continuous
 62
     4
100
AcDbLine
 10
251.825718958067
 20
235.163244459226
 30
0.0
 11
250.575718958067
 21
235.663244459226
 31
0.0
  0
LINE
  5
295
330
1F
100
AcDbEntity
  8
1
  6
Continuous
 62
     4
100
AcDbLine
 10
252.575718958067
 20
234.413244459226
 30
0.0
 11
251.825718958067
 21
235.163244459226
 31
0.0
  0
LINE
  5
296
330
1F
100
AcDbEntity
  8
1
  6
Continuous
 62
     4
100
AcDbLine
 10
253.075718958067
 20
233.413244459226
 30
0.0
 11
252.575718958067
 21
234.413244459226
 31
0.0
  0
LINE
  5
297
330
1F
100
AcDbEntity
  8
1
  6
Continuous
 62
     4
100
AcDbLine
 10
253.075718958067
 20
231.913244459226
 30
0.0
 11
253.075718958067
 21
233.413244459226
 31
0.0
  0
LINE
  5
298
330
1F
100
AcDbEntity
  8
1
  6
Continuous
 62
     4
100
AcDbLine
 10
252.575718958067
 20
230.913244459226
 30
0.0
 11
253.075718958067
 21
231.913244459226
 31
0.0
  0
LINE
  5
299
330
1F
100
AcDbEntity
  8
1
  6
Continuous
 62
     4
100
AcDbLine
 10
251.825718958067
 20
230.163244459226
 30
0.0
 11
252.575718958067
 21
230.913244459226
 31
0.0
  0
LINE
  5
29A
330
1F
100
AcDbEntity
  8
1
  6
Continuous
 62
     4
100
AcDbLine
 10
250.825718958067
 20
229.663244459226
 30
0.0
 11
251.825718958067
 21
230.163244459226
 31
0.0
  0
LINE
  5
29B
330
1F
100
AcDbEntity
  8
1
  6
Continuous
 62
     4
100
AcDbLine
 10
249.325718958067
 20
229.663244459226
 30
0.0
 11
250.825718958067
 21
229.663244459226
 31
0.0
  0
LINE
  5
29C
330
1F
100
AcDbEntity
  8
1
  6
Continuous
 62
     4
100
AcDbLine
 10
248.325718958067
 20
230.163244459226
 30
0.0
 11
249.325718958067
 21
229.663244459226
 31
0.0
  0
LINE
  5
29D
330
1F
100
AcDbEntity
  8
1
  6
Continuous
 62
     4
100
AcDbLine
 10
247.575718958067
 20
230.913244459226
 30
0.0
 11
248.325718958067
 21
230.163244459226
 31
0.0
  0
LINE
  5
29E
330
1F
100
AcDbEntity
  8
1
  6
Continuous
 62
     4
100
AcDbLine
 10
247.075718958067
 20
231.913244459226
 30
0.0
 11
247.575718958067
 21
230.913244459226
 31
0.0
  0
LINE
  5
29F
330
1F
100
AcDbEntity
  8
1
  6
Continuous
 62
     4
100
AcDbLine
 10
247.075718958067
 20
233.413244459226
 30
0.0
 11
247.075718958067
 21
231.913244459226
 31
0.0
  0
LINE
  5
2A0
330
1F
100
AcDbEntity
  8
1
  6
Continuous
 62
     4
100
AcDbLine
 10
247.575718958067
 20
234.413244459226
 30
0.0
 11
247.075718958067
 21
233.413244459226
 31
0.0
  0
LINE
  5
2A1
330
1F
100
AcDbEntity
  8
1
  6
Continuous
 62
     4
100
AcDbLine
 10
248.325718958067
 20
235.163244459226
 30
0.0
 11
247.575718958067
 21
234.413244459226
 31
0.0
  0
LINE
  5
2A2
330
1F
100
AcDbEntity
  8
1
  6
Continuous
 62
     4
100
AcDbLine
 10
249.575718958067
 20
235.663244459226
 30
0.0
 11
248.325718958067
 21
235.163244459226
 31
0.0
  0
LINE
  5
2A3
330
1F
100
AcDbEntity
  8
1
  6
Continuous
 62
     4
100
AcDbLine
 10
244.325718958067
 20
230.163244459226
 30
0.0
 11
244.325718958067
 21
229.913244459226
 31
0.0
  0
LINE
  5
2A4
330
1F
100
AcDbEntity
  8
1
  6
Continuous
 62
     4
100
AcDbLine
 10
244.075718958067
 20
230.163244459226
 30
0.0
 11
244.325718958067
 21
230.163244459226
 31
0.0
  0
LINE
  5
2A5
330
1F
100
AcDbEntity
  8
1
  6
Continuous
 62
     4
100
AcDbLine
 10
244.075718958067
 20
229.913244459226
 30
0.0
 11
244.075718958067
 21
230.163244459226
 31
0.0
  0
LINE
  5
2A6
330
1F
100
AcDbEntity
  8
1
  6
Continuous
 62
     4
100
AcDbLine
 10
244.325718958067
 20
229.913244459226
 30
0.0
 11
244.075718958067
 21
229.913244459226
 31
0.0
  0
LINE
  5
2A7
330
1F
100
AcDbEntity
  8
1
  6
Continuous
 62
     4
100
AcDbLine
 10
244.575718958067
 20
230.413244459226
 30
0.0
 11
244.575718958067
 21
229.663244459226
 31
0.0
  0
LINE
  5
2A8
330
1F
100
AcDbEntity
  8
1
  6
Continuous
 62
     4
100
AcDbLine
 10
243.825718958067
 20
230.413244459226
 30
0.0
 11
244.575718958067
 21
230.413244459226
 31
0.0
  0
LINE
  5
2A9
330
1F
100
AcDbEntity
  8
1
  6
Continuous
 62
     4
100
AcDbLine
 10
243.825718958067
 20
229.663244459226
 30
0.0
 11
243.825718958067
 21
230.413244459226
 31
0.0
  0
LINE
  5
2AA
330
1F
100
AcDbEntity
  8
1
  6
Continuous
 62
     4
100
AcDbLine
 10
244.575718958067
 20
229.663244459226
 30
0.0
 11
243.825718958067
 21
229.663244459226
 31
0.0
  0
LINE
  5
2AB
330
1F
100
AcDbEntity
  8
1
  6
Continuous
 62
     4
100
AcDbLine
 10
240.825718958067
 20
239.663244459226
 30
0.0
 11
240.825718958067
 21
229.663244459226
 31
0.0
  0
LINE
  5
2AC
330
1F
100
AcDbEntity
  8
1
  6
Continuous
 62
     4
100
AcDbLine
 10
237.825718958067
 20
236.663244459226
 30
0.0
 11
240.825718958067
 21
239.663244459226
 31
0.0
  0
LINE
  5
2AD
330
1F
100
AcDbEntity
  8
1
  6
Continuous
 62
     4
100
AcDbLine
 10
248.825718958067
 20
257.413244459226
 30
0.0
 11
251.575718958067
 21
259.663244459226
 31
0.0
  0
LINE
  5
2AE
330
1F
100
AcDbEntity
  8
1
  6
Continuous
 62
     4
100
AcDbLine
 10
247.825718958067
 20
256.163244459226
 30
0.0
 11
248.825718958067
 21
257.413244459226
 31
0.0
  0
LINE
  5
2AF
330
1F
100
AcDbEntity
  8
1
  6
Continuous
 62
     4
100
AcDbLine
 10
247.325718958067
 20
255.163244459226
 30
0.0
 11
247.825718958067
 21
256.163244459226
 31
0.0
  0
LINE
  5
2B0
330
1F
100
AcDbEntity
  8
1
  6
Continuous
 62
     4
100
AcDbLine
 10
247.075718958067
 20
253.163244459226
 30
0.0
 11
247.325718958067
 21
255.163244459226
 31
0.0
  0
LINE
  5
2B1
330
1F
100
AcDbEntity
  8
1
  6
Continuous
 62
     4
100
AcDbLine
 10
247.075718958067
 20
252.163244459226
 30
0.0
 11
247.075718958067
 21
253.163244459226
 31
0.0
  0
LINE
  5
2B2
330
1F
100
AcDbEntity
  8
1
  6
Continuous
 62
     4
100
AcDbLine
 10
247.325718958067
 20
251.163244459226
 30
0.0
 11
247.075718958067
 21
252.163244459226
 31
0.0
  0
LINE
  5
2B3
330
1F
100
AcDbEntity
  8
1
  6
Continuous
 62
     4
100
AcDbLine
 10
247.825718958067
 20
250.413244459226
 30
0.0
 11
247.325718958067
 21
251.163244459226
 31
0.0
  0
LINE
  5
2B4
330
1F
100
AcDbEntity
  8
1
  6
Continuous
 62
     4
100
AcDbLine
 10
248.575718958067
 20
249.913244459226
 30
0.0
 11
247.825718958067
 21
250.413244459226
 31
0.0
  0
LINE
  5
2B5
330
1F
100
AcDbEntity
  8
1
  6
Continuous
 62
     4
100
AcDbLine
 10
249.325718958067
 20
249.663244459226
 30
0.0
 11
248.575718958067
 21
249.913244459226
 31
0.0
  0
LINE
  5
2B6
330
1F
100
AcDbEntity
  8
1
  6
Continuous
 62
     4
100
AcDbLine
 10
250.825718958067
 20
249.663244459226
 30
0.0
 11
249.325718958067
 21
249.663244459226
 31
0.0
  0
LINE
  5
2B7
330
1F
100
AcDbEntity
  8
1
  6
Continuous
 62
     4
100
AcDbLine
 10
251.575718958067
 20
249.913244459226
 30
0.0
 11
250.825718958067
 21
249.663244459226
 31
0.0
  0
LINE
  5
2B8
330
1F
100
AcDbEntity
  8
1
  6
Continuous
 62
     4
100
AcDbLine
 10
252.325718958067
 20
250.413244459226
 30
0.0
 11
251.575718958067
 21
249.913244459226
 31
0.0
  0
LINE
  5
2B9
330
1F
100
AcDbEntity
  8
1
  6
Continuous
 62
     4
100
AcDbLine
 10
252.825718958067
 20
251.163244459226
 30
0.0
 11
252.325718958067
 21
250.413244459226
 31
0.0
  0
LINE
  5
2BA
330
1F
100
AcDbEntity
  8
1
  6
Continuous
 62
     4
100
AcDbLine
 10
253.075718958067
 20
252.163244459226
 30
0.0
 11
252.825718958067
 21
251.163244459226
 31
0.0
  0
LINE
  5
2BB
330
1F
100
AcDbEntity
  8
1
  6
Continuous
 62
     4
100
AcDbLine
 10
253.075718958067
 20
253.163244459226
 30
0.0
 11
253.075718958067
 21
252.163244459226
 31
0.0
  0
LINE
  5
2BC
330
1F
100
AcDbEntity
  8
1
  6
Continuous
 62
     4
100
AcDbLine
 10
252.825718958067
 20
254.163244459226
 30
0.0
 11
253.075718958067
 21
253.163244459226
 31
0.0
  0
LINE
  5
2BD
330
1F
100
AcDbEntity
  8
1
  6
Continuous
 62
     4
100
AcDbLine
 10
252.325718958067
 20
254.913244459226
 30
0.0
 11
252.825718958067
 21
254.163244459226
 31
0.0
  0
LINE
  5
2BE
330
1F
100
AcDbEntity
  8
1
  6
Continuous
 62
     4
100
AcDbLine
 10
251.575718958067
 20
255.413244459226
 30
0.0
 11
252.325718958067
 21
254.913244459226
 31
0.0
  0
LINE
  5
2BF
330
1F
100
AcDbEntity
  8
1
  6
Continuous
 62
     4
100
AcDbLine
 10
250.825718958067
 20
255.663244459226
 30
0.0
 11
251.575718958067
 21
255.413244459226
 31
0.0
  0
LINE
  5
2C0
330
1F
100
AcDbEntity
  8
1
  6
Continuous
 62
     4
100
AcDbLine
 10
249.325718958067
 20
255.663244459226
 30
0.0
 11
250.825718958067
 21
255.663244459226
 31
0.0
  0
LINE
  5
2C1
330
1F
100
AcDbEntity
  8
1
  6
Continuous
 62
     4
100
AcDbLine
 10
248.575718958067
 20
255.413244459226
 30
0.0
 11
249.325718958067
 21
255.663244459226
 31
0.0
  0
LINE
  5
2C2
330
1F
100
AcDbEntity
  8
1
  6
Continuous
 62
     4
100
AcDbLine
 10
247.825718958067
 20
254.913244459226
 30
0.0
 11
248.575718958067
 21
255.413244459226
 31
0.0
  0
LINE
  5
2C3
330
1F
100
AcDbEntity
  8
1
  6
Continuous
 62
     4
100
AcDbLine
 10
247.325718958067
 20
254.163244459226
 30
0.0
 11
247.825718958067
 21
254.913244459226
 31
0.0
  0
LINE
  5
2C4
330
1F
100
AcDbEntity
  8
1
  6
Continuous
 62
     4
100
AcDbLine
 10
247.075718958067
 20
253.163244459226
 30
0.0
 11
247.325718958067
 21
254.163244459226
 31
0.0
  0
LINE
  5
2C5
330
1F
100
AcDbEntity
  8
1
  6
Continuous
 62
     4
100
AcDbLine
 10
244.325718958067
 20
250.163244459226
 30
0.0
 11
244.325718958067
 21
249.913244459226
 31
0.0
  0
LINE
  5
2C6
330
1F
100
AcDbEntity
  8
1
  6
Continuous
 62
     4
100
AcDbLine
 10
244.075718958067
 20
250.163244459226
 30
0.0
 11
244.325718958067
 21
250.163244459226
 31
0.0
  0
LINE
  5
2C7
330
1F
100
AcDbEntity
  8
1
  6
Continuous
 62
     4
100
AcDbLine
 10
244.075718958067
 20
249.913244459226
 30
0.0
 11
244.075718958067
 21
250.163244459226
 31
0.0
  0
LINE
  5
2C8
330
1F
100
AcDbEntity
  8
1
  6
Continuous
 62
     4
100
AcDbLine
 10
244.325718958067
 20
249.913244459226
 30
0.0
 11
244.075718958067
 21
249.913244459226
 31
0.0
  0
LINE
  5
2C9
330
1F
100
AcDbEntity
  8
1
  6
Continuous
 62
     4
100
AcDbLine
 10
244.575718958067
 20
250.413244459226
 30
0.0
 11
244.575718958067
 21
249.663244459226
 31
0.0
  0
LINE
  5
2CA
330
1F
100
AcDbEntity
  8
1
  6
Continuous
 62
     4
100
AcDbLine
 10
243.825718958067
 20
250.413244459226
 30
0.0
 11
244.575718958067
 21
250.413244459226
 31
0.0
  0
LINE
  5
2CB
330
1F
100
AcDbEntity
  8
1
  6
Continuous
 62
     4
100
AcDbLine
 10
243.825718958067
 20
249.663244459226
 30
0.0
 11
243.825718958067
 21
250.413244459226
 31
0.0
  0
LINE
  5
2CC
330
1F
100
AcDbEntity
  8
1
  6
Continuous
 62
     4
100
AcDbLine
 10
244.575718958067
 20
249.663244459226
 30
0.0
 11
243.825718958067
 21
249.663244459226
 31
0.0
  0
LINE
  5
2CD
330
1F
100
AcDbEntity
  8
1
  6
Continuous
 62
     4
100
AcDbLine
 10
240.825718958067
 20
259.663244459226
 30
0.0
 11
240.825718958067
 21
249.663244459226
 31
0.0
  0
LINE
  5
2CE
330
1F
100
AcDbEntity
  8
1
  6
Continuous
 62
     4
100
AcDbLine
 10
237.825718958067
 20
256.663244459226
 30
0.0
 11
240.825718958067
 21
259.663244459226
 31
0.0
  0
LINE
  5
2CF
330
1F
100
AcDbEntity
  8
1
  6
Continuous
 62
     4
100
AcDbLine
 10
250.825718958067
 20
269.663244459226
 30
0.0
 11
247.075718958067
 21
269.663244459226
 31
0.0
  0
LINE
  5
2D0
330
1F
100
AcDbEntity
  8
1
  6
Continuous
 62
     4
100
AcDbLine
 10
251.575718958067
 20
269.913244459226
 30
0.0
 11
250.825718958067
 21
269.663244459226
 31
0.0
  0
LINE
  5
2D1
330
1F
100
AcDbEntity
  8
1
  6
Continuous
 62
     4
100
AcDbLine
 10
252.325718958067
 20
270.413244459226
 30
0.0
 11
251.575718958067
 21
269.913244459226
 31
0.0
  0
LINE
  5
2D2
330
1F
100
AcDbEntity
  8
1
  6
Continuous
 62
     4
100
AcDbLine
 10
252.825718958067
 20
271.163244459226
 30
0.0
 11
252.325718958067
 21
270.413244459226
 31
0.0
  0
LINE
  5
2D3
330
1F
100
AcDbEntity
  8
1
  6
Continuous
 62
     4
100
AcDbLine
 10
253.075718958067
 20
272.163244459226
 30
0.0
 11
252.825718958067
 21
271.163244459226
 31
0.0
  0
LINE
  5
2D4
330
1F
100
AcDbEntity
  8
1
  6
Continuous
 62
     4
100
AcDbLine
 10
253.075718958067
 20
273.663244459226
 30
0.0
 11
253.075718958067
 21
272.163244459226
 31
0.0
  0
LINE
  5
2D5
330
1F
100
AcDbEntity
  8
1
  6
Continuous
 62
     4
100
AcDbLine
 10
252.825718958067
 20
274.663244459226
 30
0.0
 11
253.075718958067
 21
273.663244459226
 31
0.0
  0
LINE
  5
2D6
330
1F
100
AcDbEntity
  8
1
  6
Continuous
 62
     4
100
AcDbLine
 10
252.075718958067
 20
275.413244459226
 30
0.0
 11
252.825718958067
 21
274.663244459226
 31
0.0
  0
LINE
  5
2D7
330
1F
100
AcDbEntity
  8
1
  6
Continuous
 62
     4
100
AcDbLine
 10
250.825718958067
 20
275.663244459226
 30
0.0
 11
252.075718958067
 21
275.413244459226
 31
0.0
  0
LINE
  5
2D8
330
1F
100
AcDbEntity
  8
1
  6
Continuous
 62
     4
100
AcDbLine
 10
247.075718958067
 20
275.663244459226
 30
0.0
 11
250.825718958067
 21
275.663244459226
 31
0.0
  0
LINE
  5
2D9
330
1F
100
AcDbEntity
  8
1
  6
Continuous
 62
     4
100
AcDbLine
 10
247.075718958067
 20
279.663244459226
 30
0.0
 11
247.075718958067
 21
275.663244459226
 31
0.0
  0
LINE
  5
2DA
330
1F
100
AcDbEntity
  8
1
  6
Continuous
 62
     4
100
AcDbLine
 10
252.575718958067
 20
279.663244459226
 30
0.0
 11
247.075718958067
 21
279.663244459226
 31
0.0
  0
LINE
  5
2DB
330
1F
100
AcDbEntity
  8
1
  6
Continuous
 62
     4
100
AcDbLine
 10
244.325718958067
 20
270.163244459226
 30
0.0
 11
244.325718958067
 21
269.913244459226
 31
0.0
  0
LINE
  5
2DC
330
1F
100
AcDbEntity
  8
1
  6
Continuous
 62
     4
100
AcDbLine
 10
244.075718958067
 20
270.163244459226
 30
0.0
 11
244.325718958067
 21
270.163244459226
 31
0.0
  0
LINE
  5
2DD
330
1F
100
AcDbEntity
  8
1
  6
Continuous
 62
     4
100
AcDbLine
 10
244.075718958067
 20
269.913244459226
 30
0.0
 11
244.075718958067
 21
270.163244459226
 31
0.0
  0
LINE
  5
2DE
330
1F
100
AcDbEntity
  8
1
  6
Continuous
 62
     4
100
AcDbLine
 10
244.325718958067
 20
269.913244459226
 30
0.0
 11
244.075718958067
 21
269.913244459226
 31
0.0
  0
LINE
  5
2DF
330
1F
100
AcDbEntity
  8
1
  6
Continuous
 62
     4
100
AcDbLine
 10
244.575718958067
 20
270.413244459226
 30
0.0
 11
244.575718958067
 21
269.663244459226
 31
0.0
  0
LINE
  5
2E0
330
1F
100
AcDbEntity
  8
1
  6
Continuous
 62
     4
100
AcDbLine
 10
243.825718958067
 20
270.413244459226
 30
0.0
 11
244.575718958067
 21
270.413244459226
 31
0.0
  0
LINE
  5
2E1
330
1F
100
AcDbEntity
  8
1
  6
Continuous
 62
     4
100
AcDbLine
 10
243.825718958067
 20
269.663244459226
 30
0.0
 11
243.825718958067
 21
270.413244459226
 31
0.0
  0
LINE
  5
2E2
330
1F
100
AcDbEntity
  8
1
  6
Continuous
 62
     4
100
AcDbLine
 10
244.575718958067
 20
269.663244459226
 30
0.0
 11
243.825718958067
 21
269.663244459226
 31
0.0
  0
LINE
  5
2E3
330
1F
100
AcDbEntity
  8
1
  6
Continuous
 62
     4
100
AcDbLine
 10
240.825718958067
 20
279.663244459226
 30
0.0
 11
240.825718958067
 21
269.663244459226
 31
0.0
  0
LINE
  5
2E4
330
1F
100
AcDbEntity
  8
1
  6
Continuous
 62
     4
100
AcDbLine
 10
237.825718958067
 20
276.663244459226
 30
0.0
 11
240.825718958067
 21
279.663244459226
 31
0.0
  0
LINE
  5
2E5
330
1F
100
AcDbEntity
  8
1
  6
Continuous
 62
     4
100
AcDbLine
 10
247.075718958067
 20
289.663244459226
 30
0.0
 11
253.075718958067
 21
289.663244459226
 31
0.0
  0
LINE
  5
2E6
330
1F
100
AcDbEntity
  8
1
  6
Continuous
 62
     4
100
AcDbLine
 10
252.575718958067
 20
296.163244459226
 30
0.0
 11
247.075718958067
 21
289.663244459226
 31
0.0
  0
LINE
  5
2E7
330
1F
100
AcDbEntity
  8
1
  6
Continuous
 62
     4
100
AcDbLine
 10
253.075718958067
 20
297.163244459226
 30
0.0
 11
252.575718958067
 21
296.163244459226
 31
0.0
  0
LINE
  5
2E8
330
1F
100
AcDbEntity
  8
1
  6
Continuous
 62
     4
100
AcDbLine
 10
253.075718958067
 20
298.163244459226
 30
0.0
 11
253.075718958067
 21
297.163244459226
 31
0.0
  0
LINE
  5
2E9
330
1F
100
AcDbEntity
  8
1
  6
Continuous
 62
     4
100
AcDbLine
 10
252.575718958067
 20
298.913244459226
 30
0.0
 11
253.075718958067
 21
298.163244459226
 31
0.0
  0
LINE
  5
2EA
330
1F
100
AcDbEntity
  8
1
  6
Continuous
 62
     4
100
AcDbLine
 10
251.825718958067
 20
299.413244459226
 30
0.0
 11
252.575718958067
 21
298.913244459226
 31
0.0
  0
LINE
  5
2EB
330
1F
100
AcDbEntity
  8
1
  6
Continuous
 62
     4
100
AcDbLine
 10
250.825718958067
 20
299.663244459226
 30
0.0
 11
251.825718958067
 21
299.413244459226
 31
0.0
  0
LINE
  5
2EC
330
1F
100
AcDbEntity
  8
1
  6
Continuous
 62
     4
100
AcDbLine
 10
249.325718958067
 20
299.663244459226
 30
0.0
 11
250.825718958067
 21
299.663244459226
 31
0.0
  0
LINE
  5
2ED
330
1F
100
AcDbEntity
  8
1
  6
Continuous
 62
     4
100
AcDbLine
 10
248.325718958067
 20
299.413244459226
 30
0.0
 11
249.325718958067
 21
299.663244459226
 31
0.0
  0
LINE
  5
2EE
330
1F
100
AcDbEntity
  8
1
  6
Continuous
 62
     4
100
AcDbLine
 10
247.575718958067
 20
298.913244459226
 30
0.0
 11
248.325718958067
 21
299.413244459226
 31
0.0
  0
LINE
  5
2EF
330
1F
100
AcDbEntity
  8
1
  6
Continuous
 62
     4
100
AcDbLine
 10
247.075718958067
 20
298.163244459226
 30
0.0
 11
247.575718958067
 21
298.913244459226
 31
0.0
  0
LINE
  5
2F0
330
1F
100
AcDbEntity
  8
1
  6
Continuous
 62
     4
100
AcDbLine
 10
244.325718958067
 20
290.163244459226
 30
0.0
 11
244.325718958067
 21
289.913244459226
 31
0.0
  0
LINE
  5
2F1
330
1F
100
AcDbEntity
  8
1
  6
Continuous
 62
     4
100
AcDbLine
 10
244.075718958067
 20
290.163244459226
 30
0.0
 11
244.325718958067
 21
290.163244459226
 31
0.0
  0
LINE
  5
2F2
330
1F
100
AcDbEntity
  8
1
  6
Continuous
 62
     4
100
AcDbLine
 10
244.075718958067
 20
289.913244459226
 30
0.0
 11
244.075718958067
 21
290.163244459226
 31
0.0
  0
LINE
  5
2F3
330
1F
100
AcDbEntity
  8
1
  6
Continuous
 62
     4
100
AcDbLine
 10
244.325718958067
 20
289.913244459226
 30
0.0
 11
244.075718958067
 21
289.913244459226
 31
0.0
  0
LINE
  5
2F4
330
1F
100
AcDbEntity
  8
1
  6
Continuous
 62
     4
100
AcDbLine
 10
244.575718958067
 20
290.413244459226
 30
0.0
 11
244.575718958067
 21
289.663244459226
 31
0.0
  0
LINE
  5
2F5
330
1F
100
AcDbEntity
  8
1
  6
Continuous
 62
     4
100
AcDbLine
 10
243.825718958067
 20
290.413244459226
 30
0.0
 11
244.575718958067
 21
290.413244459226
 31
0.0
  0
LINE
  5
2F6
330
1F
100
AcDbEntity
  8
1
  6
Continuous
 62
     4
100
AcDbLine
 10
243.825718958067
 20
289.663244459226
 30
0.0
 11
243.825718958067
 21
290.413244459226
 31
0.0
  0
LINE
  5
2F7
330
1F
100
AcDbEntity
  8
1
  6
Continuous
 62
     4
100
AcDbLine
 10
244.575718958067
 20
289.663244459226
 30
0.0
 11
243.825718958067
 21
289.663244459226
 31
0.0
  0
LINE
  5
2F8
330
1F
100
AcDbEntity
  8
1
  6
Continuous
 62
     4
100
AcDbLine
 10
240.825718958067
 20
299.663244459226
 30
0.0
 11
240.825718958067
 21
289.663244459226
 31
0.0
  0
LINE
  5
2F9
330
1F
100
AcDbEntity
  8
1
  6
Continuous
 62
     4
100
AcDbLine
 10
237.825718958067
 20
296.663244459226
 30
0.0
 11
240.825718958067
 21
299.663244459226
 31
0.0
  0
LINE
  5
2FA
330
1F
100
AcDbEntity
  8
1
  6
Continuous
 62
     4
100
AcDbLine
 10
253.075718958067
 20
315.913244459226
 30
0.0
 11
253.075718958067
 21
313.413244459226
 31
0.0
  0
LINE
  5
2FB
330
1F
100
AcDbEntity
  8
1
  6
Continuous
 62
     4
100
AcDbLine
 10
252.825718958067
 20
317.413244459226
 30
0.0
 11
253.075718958067
 21
315.913244459226
 31
0.0
  0
LINE
  5
2FC
330
1F
100
AcDbEntity
  8
1
  6
Continuous
 62
     4
100
AcDbLine
 10
252.325718958067
 20
318.413244459226
 30
0.0
 11
252.825718958067
 21
317.413244459226
 31
0.0
  0
LINE
  5
2FD
330
1F
100
AcDbEntity
  8
1
  6
Continuous
 62
     4
100
AcDbLine
 10
251.825718958067
 20
318.913244459226
 30
0.0
 11
252.325718958067
 21
318.413244459226
 31
0.0
  0
LINE
  5
2FE
330
1F
100
AcDbEntity
  8
1
  6
Continuous
 62
     4
100
AcDbLine
 10
251.075718958067
 20
319.413244459226
 30
0.0
 11
251.825718958067
 21
318.913244459226
 31
0.0
  0
LINE
  5
2FF
330
1F
100
AcDbEntity
  8
1
  6
Continuous
 62
     4
100
AcDbLine
 10
250.325718958067
 20
319.663244459226
 30
0.0
 11
251.075718958067
 21
319.413244459226
 31
0.0
  0
LINE
  5
300
330
1F
100
AcDbEntity
  8
1
  6
Continuous
 62
     4
100
AcDbLine
 10
249.825718958067
 20
319.663244459226
 30
0.0
 11
250.325718958067
 21
319.663244459226
 31
0.0
  0
LINE
  5
301
330
1F
100
AcDbEntity
  8
1
  6
Continuous
 62
     4
100
AcDbLine
 10
249.075718958067
 20
319.413244459226
 30
0.0
 11
249.825718958067
 21
319.663244459226
 31
0.0
  0
LINE
  5
302
330
1F
100
AcDbEntity
  8
1
  6
Continuous
 62
     4
100
AcDbLine
 10
248.325718958067
 20
318.913244459226
 30
0.0
 11
249.075718958067
 21
319.413244459226
 31
0.0
  0
LINE
  5
303
330
1F
100
AcDbEntity
  8
1
  6
Continuous
 62
     4
100
AcDbLine
 10
247.825718958067
 20
318.413244459226
 30
0.0
 11
248.325718958067
 21
318.913244459226
 31
0.0
  0
LINE
  5
304
330
1F
100
AcDbEntity
  8
1
  6
Continuous
 62
     4
100
AcDbLine
 10
247.325718958067
 20
317.413244459226
 30
0.0
 11
247.825718958067
 21
318.413244459226
 31
0.0
  0
LINE
  5
305
330
1F
100
AcDbEntity
  8
1
  6
Continuous
 62
     4
100
AcDbLine
 10
247.075718958067
 20
315.913244459226
 30
0.0
 11
247.325718958067
 21
317.413244459226
 31
0.0
  0
LINE
  5
306
330
1F
100
AcDbEntity
  8
1
  6
Continuous
 62
     4
100
AcDbLine
 10
247.075718958067
 20
313.413244459226
 30
0.0
 11
247.075718958067
 21
315.913244459226
 31
0.0
  0
LINE
  5
307
330
1F
100
AcDbEntity
  8
1
  6
Continuous
 62
     4
100
AcDbLine
 10
247.325718958067
 20
311.913244459226
 30
0.0
 11
247.075718958067
 21
313.413244459226
 31
0.0
  0
LINE
  5
308
330
1F
100
AcDbEntity
  8
1
  6
Continuous
 62
     4
100
AcDbLine
 10
247.825718958067
 20
310.913244459226
 30
0.0
 11
247.325718958067
 21
311.913244459226
 31
0.0
  0
LINE
  5
309
330
1F
100
AcDbEntity
  8
1
  6
Continuous
 62
     4
100
AcDbLine
 10
248.325718958067
 20
310.413244459226
 30
0.0
 11
247.825718958067
 21
310.913244459226
 31
0.0
  0
LINE
  5
30A
330
1F
100
AcDbEntity
  8
1
  6
Continuous
 62
     4
100
AcDbLine
 10
249.075718958067
 20
309.913244459226
 30
0.0
 11
248.325718958067
 21
310.413244459226
 31
0.0
  0
LINE
  5
30B
330
1F
100
AcDbEntity
  8
1
  6
Continuous
 62
     4
100
AcDbLine
 10
249.825718958067
 20
309.663244459226
 30
0.0
 11
249.075718958067
 21
309.913244459226
 31
0.0
  0
LINE
  5
30C
330
1F
100
AcDbEntity
  8
1
  6
Continuous
 62
     4
100
AcDbLine
 10
250.325718958067
 20
309.663244459226
 30
0.0
 11
249.825718958067
 21
309.663244459226
 31
0.0
  0
LINE
  5
30D
330
1F
100
AcDbEntity
  8
1
  6
Continuous
 62
     4
100
AcDbLine
 10
251.075718958067
 20
309.913244459226
 30
0.0
 11
250.325718958067
 21
309.663244459226
 31
0.0
  0
LINE
  5
30E
330
1F
100
AcDbEntity
  8
1
  6
Continuous
 62
     4
100
AcDbLine
 10
251.825718958067
 20
310.413244459226
 30
0.0
 11
251.075718958067
 21
309.913244459226
 31
0.0
  0
LINE
  5
30F
330
1F
100
AcDbEntity
  8
1
  6
Continuous
 62
     4
100
AcDbLine
 10
252.325718958067
 20
310.913244459226
 30
0.0
 11
251.825718958067
 21
310.413244459226
 31
0.0
  0
LINE
  5
310
330
1F
100
AcDbEntity
  8
1
  6
Continuous
 62
     4
100
AcDbLine
 10
252.825718958067
 20
311.913244459226
 30
0.0
 11
252.325718958067
 21
310.913244459226
 31
0.0
  0
LINE
  5
311
330
1F
100
AcDbEntity
  8
1
  6
Continuous
 62
     4
100
AcDbLine
 10
253.075718958067
 20
313.413244459226
 30
0.0
 11
252.825718958067
 21
311.913244459226
 31
0.0
  0
LINE
  5
312
330
1F
100
AcDbEntity
  8
1
  6
Continuous
 62
     4
100
AcDbLine
 10
244.325718958067
 20
310.163244459226
 30
0.0
 11
244.325718958067
 21
309.913244459226
 31
0.0
  0
LINE
  5
313
330
1F
100
AcDbEntity
  8
1
  6
Continuous
 62
     4
100
AcDbLine
 10
244.075718958067
 20
310.163244459226
 30
0.0
 11
244.325718958067
 21
310.163244459226
 31
0.0
  0
LINE
  5
314
330
1F
100
AcDbEntity
  8
1
  6
Continuous
 62
     4
100
AcDbLine
 10
244.075718958067
 20
309.913244459226
 30
0.0
 11
244.075718958067
 21
310.163244459226
 31
0.0
  0
LINE
  5
315
330
1F
100
AcDbEntity
  8
1
  6
Continuous
 62
     4
100
AcDbLine
 10
244.325718958067
 20
309.913244459226
 30
0.0
 11
244.075718958067
 21
309.913244459226
 31
0.0
  0
LINE
  5
316
330
1F
100
AcDbEntity
  8
1
  6
Continuous
 62
     4
100
AcDbLine
 10
244.575718958067
 20
310.413244459226
 30
0.0
 11
244.575718958067
 21
309.663244459226
 31
0.0
  0
LINE
  5
317
330
1F
100
AcDbEntity
  8
1
  6
Continuous
 62
     4
100
AcDbLine
 10
243.825718958067
 20
310.413244459226
 30
0.0
 11
244.575718958067
 21
310.413244459226
 31
0.0
  0
LINE
  5
318
330
1F
100
AcDbEntity
  8
1
  6
Continuous
 62
     4
100
AcDbLine
 10
243.825718958067
 20
309.663244459226
 30
0.0
 11
243.825718958067
 21
310.413244459226
 31
0.0
  0
LINE
  5
319
330
1F
100
AcDbEntity
  8
1
  6
Continuous
 62
     4
100
AcDbLine
 10
244.575718958067
 20
309.663244459226
 30
0.0
 11
243.825718958067
 21
309.663244459226
 31
0.0
  0
LINE
  5
31A
330
1F
100
AcDbEntity
  8
1
  6
Continuous
 62
     4
100
AcDbLine
 10
240.825718958067
 20
319.663244459226
 30
0.0
 11
240.825718958067
 21
309.663244459226
 31
0.0
  0
LINE
  5
31B
330
1F
100
AcDbEntity
  8
1
  6
Continuous
 62
     4
100
AcDbLine
 10
237.825718958067
 20
316.663244459226
 30
0.0
 11
240.825718958067
 21
319.663244459226
 31
0.0
  0
LINE
  5
31C
330
1F
100
AcDbEntity
  8
1
  6
Continuous
 62
     4
100
AcDbLine
 10
249.575718958067
 20
338.913244459226
 30
0.0
 11
250.325718958067
 21
339.413244459226
 31
0.0
  0
LINE
  5
31D
330
1F
100
AcDbEntity
  8
1
  6
Continuous
 62
     4
100
AcDbLine
 10
249.075718958067
 20
338.163244459226
 30
0.0
 11
249.575718958067
 21
338.913244459226
 31
0.0
  0
LINE
  5
31E
330
1F
100
AcDbEntity
  8
1
  6
Continuous
 62
     4
100
AcDbLine
 10
249.075718958067
 20
337.163244459226
 30
0.0
 11
249.075718958067
 21
338.163244459226
 31
0.0
  0
LINE
  5
31F
330
1F
100
AcDbEntity
  8
1
  6
Continuous
 62
     4
100
AcDbLine
 10
249.575718958067
 20
336.413244459226
 30
0.0
 11
249.075718958067
 21
337.163244459226
 31
0.0
  0
LINE
  5
320
330
1F
100
AcDbEntity
  8
1
  6
Continuous
 62
     4
100
AcDbLine
 10
250.325718958067
 20
335.913244459226
 30
0.0
 11
249.575718958067
 21
336.413244459226
 31
0.0
  0
LINE
  5
321
330
1F
100
AcDbEntity
  8
1
  6
Continuous
 62
     4
100
AcDbLine
 10
251.075718958067
 20
335.663244459226
 30
0.0
 11
250.325718958067
 21
335.913244459226
 31
0.0
  0
LINE
  5
322
330
1F
100
AcDbEntity
  8
1
  6
Continuous
 62
     4
100
AcDbLine
 10
252.075718958067
 20
335.663244459226
 30
0.0
 11
251.075718958067
 21
335.663244459226
 31
0.0
  0
LINE
  5
323
330
1F
100
AcDbEntity
  8
1
  6
Continuous
 62
     4
100
AcDbLine
 10
252.825718958067
 20
335.913244459226
 30
0.0
 11
252.075718958067
 21
335.663244459226
 31
0.0
  0
LINE
  5
324
330
1F
100
AcDbEntity
  8
1
  6
Continuous
 62
     4
100
AcDbLine
 10
253.575718958067
 20
336.413244459226
 30
0.0
 11
252.825718958067
 21
335.913244459226
 31
0.0
  0
LINE
  5
325
330
1F
100
AcDbEntity
  8
1
  6
Continuous
 62
     4
100
AcDbLine
 10
254.075718958067
 20
337.163244459226
 30
0.0
 11
253.575718958067
 21
336.413244459226
 31
0.0
  0
LINE
  5
326
330
1F
100
AcDbEntity
  8
1
  6
Continuous
 62
     4
100
AcDbLine
 10
254.075718958067
 20
338.163244459226
 30
0.0
 11
254.075718958067
 21
337.163244459226
 31
0.0
  0
LINE
  5
327
330
1F
100
AcDbEntity
  8
1
  6
Continuous
 62
     4
100
AcDbLine
 10
253.575718958067
 20
338.913244459226
 30
0.0
 11
254.075718958067
 21
338.163244459226
 31
0.0
  0
LINE
  5
328
330
1F
100
AcDbEntity
  8
1
  6
Continuous
 62
     4
100
AcDbLine
 10
252.825718958067
 20
339.413244459226
 30
0.0
 11
253.575718958067
 21
338.913244459226
 31
0.0
  0
LINE
  5
329
330
1F
100
AcDbEntity
  8
1
  6
Continuous
 62
     4
100
AcDbLine
 10
252.075718958067
 20
339.663244459226
 30
0.0
 11
252.825718958067
 21
339.413244459226
 31
0.0
  0
LINE
  5
32A
330
1F
100
AcDbEntity
  8
1
  6
Continuous
 62
     4
100
AcDbLine
 10
251.075718958067
 20
339.663244459226
 30
0.0
 11
252.075718958067
 21
339.663244459226
 31
0.0
  0
LINE
  5
32B
330
1F
100
AcDbEntity
  8
1
  6
Continuous
 62
     4
100
AcDbLine
 10
250.325718958067
 20
339.413244459226
 30
0.0
 11
251.075718958067
 21
339.663244459226
 31
0.0
  0
LINE
  5
32C
330
1F
100
AcDbEntity
  8
1
  6
Continuous
 62
     4
100
AcDbLine
 10
253.325718958067
 20
335.163244459226
 30
0.0
 11
252.075718958067
 21
335.663244459226
 31
0.0
  0
LINE
  5
32D
330
1F
100
AcDbEntity
  8
1
  6
Continuous
 62
     4
100
AcDbLine
 10
254.075718958067
 20
334.413244459226
 30
0.0
 11
253.325718958067
 21
335.163244459226
 31
0.0
  0
LINE
  5
32E
330
1F
100
AcDbEntity
  8
1
  6
Continuous
 62
     4
100
AcDbLine
 10
254.575718958067
 20
333.413244459226
 30
0.0
 11
254.075718958067
 21
334.413244459226
 31
0.0
  0
LINE
  5
32F
330
1F
100
AcDbEntity
  8
1
  6
Continuous
 62
     4
100
AcDbLine
 10
254.575718958067
 20
331.913244459226
 30
0.0
 11
254.575718958067
 21
333.413244459226
 31
0.0
  0
LINE
  5
330
330
1F
100
AcDbEntity
  8
1
  6
Continuous
 62
     4
100
AcDbLine
 10
254.075718958067
 20
330.913244459226
 30
0.0
 11
254.575718958067
 21
331.913244459226
 31
0.0
  0
LINE
  5
331
330
1F
100
AcDbEntity
  8
1
  6
Continuous
 62
     4
100
AcDbLine
 10
253.325718958067
 20
330.163244459226
 30
0.0
 11
254.075718958067
 21
330.913244459226
 31
0.0
  0
LINE
  5
332
330
1F
100
AcDbEntity
  8
1
  6
Continuous
 62
     4
100
AcDbLine
 10
252.325718958067
 20
329.663244459226
 30
0.0
 11
253.325718958067
 21
330.163244459226
 31
0.0
  0
LINE
  5
333
330
1F
100
AcDbEntity
  8
1
  6
Continuous
 62
     4
100
AcDbLine
 10
250.825718958067
 20
329.663244459226
 30
0.0
 11
252.325718958067
 21
329.663244459226
 31
0.0
  0
LINE
  5
334
330
1F
100
AcDbEntity
  8
1
  6
Continuous
 62
     4
100
AcDbLine
 10
249.825718958067
 20
330.163244459226
 30
0.0
 11
250.825718958067
 21
329.663244459226
 31
0.0
  0
LINE
  5
335
330
1F
100
AcDbEntity
  8
1
  6
Continuous
 62
     4
100
AcDbLine
 10
249.075718958067
 20
330.913244459226
 30
0.0
 11
249.825718958067
 21
330.163244459226
 31
0.0
  0
LINE
  5
336
330
1F
100
AcDbEntity
  8
1
  6
Continuous
 62
     4
100
AcDbLine
 10
248.575718958067
 20
331.913244459226
 30
0.0
 11
249.075718958067
 21
330.913244459226
 31
0.0
  0
LINE
  5
337
330
1F
100
AcDbEntity
  8
1
  6
Continuous
 62
     4
100
AcDbLine
 10
248.575718958067
 20
333.413244459226
 30
0.0
 11
248.575718958067
 21
331.913244459226
 31
0.0
  0
LINE
  5
338
330
1F
100
AcDbEntity
  8
1
  6
Continuous
 62
     4
100
AcDbLine
 10
249.075718958067
 20
334.413244459226
 30
0.0
 11
248.575718958067
 21
333.413244459226
 31
0.0
  0
LINE
  5
339
330
1F
100
AcDbEntity
  8
1
  6
Continuous
 62
     4
100
AcDbLine
 10
249.825718958067
 20
335.163244459226
 30
0.0
 11
249.075718958067
 21
334.413244459226
 31
0.0
  0
LINE
  5
33A
330
1F
100
AcDbEntity
  8
1
  6
Continuous
 62
     4
100
AcDbLine
 10
251.075718958067
 20
335.663244459226
 30
0.0
 11
249.825718958067
 21
335.163244459226
 31
0.0
  0
LINE
  5
33B
330
1F
100
AcDbEntity
  8
1
  6
Continuous
 62
     4
100
AcDbLine
 10
245.825718958067
 20
330.163244459226
 30
0.0
 11
245.825718958067
 21
329.913244459226
 31
0.0
  0
LINE
  5
33C
330
1F
100
AcDbEntity
  8
1
  6
Continuous
 62
     4
100
AcDbLine
 10
245.575718958067
 20
330.163244459226
 30
0.0
 11
245.825718958067
 21
330.163244459226
 31
0.0
  0
LINE
  5
33D
330
1F
100
AcDbEntity
  8
1
  6
Continuous
 62
     4
100
AcDbLine
 10
245.575718958067
 20
329.913244459226
 30
0.0
 11
245.575718958067
 21
330.163244459226
 31
0.0
  0
LINE
  5
33E
330
1F
100
AcDbEntity
  8
1
  6
Continuous
 62
     4
100
AcDbLine
 10
245.825718958067
 20
329.913244459226
 30
0.0
 11
245.575718958067
 21
329.913244459226
 31
0.0
  0
LINE
  5
33F
330
1F
100
AcDbEntity
  8
1
  6
Continuous
 62
     4
100
AcDbLine
 10
246.075718958067
 20
330.413244459226
 30
0.0
 11
246.075718958067
 21
329.663244459226
 31
0.0
  0
LINE
  5
340
330
1F
100
AcDbEntity
  8
1
  6
Continuous
 62
     4
100
AcDbLine
 10
245.325718958067
 20
330.413244459226
 30
0.0
 11
246.075718958067
 21
330.413244459226
 31
0.0
  0
LINE
  5
341
330
1F
100
AcDbEntity
  8
1
  6
Continuous
 62
     4
100
AcDbLine
 10
245.325718958067
 20
329.663244459226
 30
0.0
 11
245.325718958067
 21
330.413244459226
 31
0.0
  0
LINE
  5
342
330
1F
100
AcDbEntity
  8
1
  6
Continuous
 62
     4
100
AcDbLine
 10
246.075718958067
 20
329.663244459226
 30
0.0
 11
245.325718958067
 21
329.663244459226
 31
0.0
  0
LINE
  5
343
330
1F
100
AcDbEntity
  8
1
  6
Continuous
 62
     4
100
AcDbLine
 10
242.325718958067
 20
335.913244459226
 30
0.0
 11
242.325718958067
 21
333.413244459226
 31
0.0
  0
LINE
  5
344
330
1F
100
AcDbEntity
  8
1
  6
Continuous
 62
     4
100
AcDbLine
 10
242.075718958067
 20
337.413244459226
 30
0.0
 11
242.325718958067
 21
335.913244459226
 31
0.0
  0
LINE
  5
345
330
1F
100
AcDbEntity
  8
1
  6
Continuous
 62
     4
100
AcDbLine
 10
241.575718958067
 20
338.413244459226
 30
0.0
 11
242.075718958067
 21
337.413244459226
 31
0.0
  0
LINE
  5
346
330
1F
100
AcDbEntity
  8
1
  6
Continuous
 62
     4
100
AcDbLine
 10
241.075718958067
 20
338.913244459226
 30
0.0
 11
241.575718958067
 21
338.413244459226
 31
0.0
  0
LINE
  5
347
330
1F
100
AcDbEntity
  8
1
  6
Continuous
 62
     4
100
AcDbLine
 10
240.325718958067
 20
339.413244459226
 30
0.0
 11
241.075718958067
 21
338.913244459226
 31
0.0
  0
LINE
  5
348
330
1F
100
AcDbEntity
  8
1
  6
Continuous
 62
     4
100
AcDbLine
 10
239.575718958067
 20
339.663244459226
 30
0.0
 11
240.325718958067
 21
339.413244459226
 31
0.0
  0
LINE
  5
349
330
1F
100
AcDbEntity
  8
1
  6
Continuous
 62
     4
100
AcDbLine
 10
239.075718958067
 20
339.663244459226
 30
0.0
 11
239.575718958067
 21
339.663244459226
 31
0.0
  0
LINE
  5
34A
330
1F
100
AcDbEntity
  8
1
  6
Continuous
 62
     4
100
AcDbLine
 10
238.325718958067
 20
339.413244459226
 30
0.0
 11
239.075718958067
 21
339.663244459226
 31
0.0
  0
LINE
  5
34B
330
1F
100
AcDbEntity
  8
1
  6
Continuous
 62
     4
100
AcDbLine
 10
237.575718958067
 20
338.913244459226
 30
0.0
 11
238.325718958067
 21
339.413244459226
 31
0.0
  0
LINE
  5
34C
330
1F
100
AcDbEntity
  8
1
  6
Continuous
 62
     4
100
AcDbLine
 10
237.075718958067
 20
338.413244459226
 30
0.0
 11
237.575718958067
 21
338.913244459226
 31
0.0
  0
LINE
  5
34D
330
1F
100
AcDbEntity
  8
1
  6
Continuous
 62
     4
100
AcDbLine
 10
236.575718958067
 20
337.413244459226
 30
0.0
 11
237.075718958067
 21
338.413244459226
 31
0.0
  0
LINE
  5
34E
330
1F
100
AcDbEntity
  8
1
  6
Continuous
 62
     4
100
AcDbLine
 10
236.325718958067
 20
335.913244459226
 30
0.0
 11
236.575718958067
 21
337.413244459226
 31
0.0
  0
LINE
  5
34F
330
1F
100
AcDbEntity
  8
1
  6
Continuous
 62
     4
100
AcDbLine
 10
236.325718958067
 20
333.413244459226
 30
0.0
 11
236.325718958067
 21
335.913244459226
 31
0.0
  0
LINE
  5
350
330
1F
100
AcDbEntity
  8
1
  6
Continuous
 62
     4
100
AcDbLine
 10
236.575718958067
 20
331.913244459226
 30
0.0
 11
236.325718958067
 21
333.413244459226
 31
0.0
  0
LINE
  5
351
330
1F
100
AcDbEntity
  8
1
  6
Continuous
 62
     4
100
AcDbLine
 10
237.075718958067
 20
330.913244459226
 30
0.0
 11
236.575718958067
 21
331.913244459226
 31
0.0
  0
LINE
  5
352
330
1F
100
AcDbEntity
  8
1
  6
Continuous
 62
     4
100
AcDbLine
 10
237.575718958067
 20
330.413244459226
 30
0.0
 11
237.075718958067
 21
330.913244459226
 31
0.0
  0
LINE
  5
353
330
1F
100
AcDbEntity
  8
1
  6
Continuous
 62
     4
100
AcDbLine
 10
238.325718958067
 20
329.913244459226
 30
0.0
 11
237.575718958067
 21
330.413244459226
 31
0.0
  0
LINE
  5
354
330
1F
100
AcDbEntity
  8
1
  6
Continuous
 62
     4
100
AcDbLine
 10
239.075718958067
 20
329.663244459226
 30
0.0
 11
238.325718958067
 21
329.913244459226
 31
0.0
  0
LINE
  5
355
330
1F
100
AcDbEntity
  8
1
  6
Continuous
 62
     4
100
AcDbLine
 10
239.575718958067
 20
329.663244459226
 30
0.0
 11
239.075718958067
 21
329.663244459226
 31
0.0
  0
LINE
  5
356
330
1F
100
AcDbEntity
  8
1
  6
Continuous
 62
     4
100
AcDbLine
 10
240.325718958067
 20
329.913244459226
 30
0.0
 11
239.575718958067
 21
329.663244459226
 31
0.0
  0
LINE
  5
357
330
1F
100
AcDbEntity
  8
1
  6
Continuous
 62
     4
100
AcDbLine
 10
241.075718958067
 20
330.413244459226
 30
0.0
 11
240.325718958067
 21
329.913244459226
 31
0.0
  0
LINE
  5
358
330
1F
100
AcDbEntity
  8
1
  6
Continuous
 62
     4
100
AcDbLine
 10
241.575718958067
 20
330.913244459226
 30
0.0
 11
241.075718958067
 21
330.413244459226
 31
0.0
  0
LINE
  5
359
330
1F
100
AcDbEntity
  8
1
  6
Continuous
 62
     4
100
AcDbLine
 10
242.075718958067
 20
331.913244459226
 30
0.0
 11
241.575718958067
 21
330.913244459226
 31
0.0
  0
LINE
  5
35A
330
1F
100
AcDbEntity
  8
1
  6
Continuous
 62
     4
100
AcDbLine
 10
242.325718958067
 20
333.413244459226
 30
0.0
 11
242.075718958067
 21
331.913244459226
 31
0.0
  0
LINE
  5
35B
330
1F
100
AcDbEntity
  8
1
  6
Continuous
 62
     4
100
AcDbLine
 10
250.325718958067
 20
357.413244459226
 30
0.0
 11
253.075718958067
 21
359.663244459226
 31
0.0
  0
LINE
  5
35C
330
1F
100
AcDbEntity
  8
1
  6
Continuous
 62
     4
100
AcDbLine
 10
249.325718958067
 20
356.163244459226
 30
0.0
 11
250.325718958067
 21
357.413244459226
 31
0.0
  0
LINE
  5
35D
330
1F
100
AcDbEntity
  8
1
  6
Continuous
 62
     4
100
AcDbLine
 10
248.825718958067
 20
355.163244459226
 30
0.0
 11
249.325718958067
 21
356.163244459226
 31
0.0
  0
LINE
  5
35E
330
1F
100
AcDbEntity
  8
1
  6
Continuous
 62
     4
100
AcDbLine
 10
248.575718958067
 20
353.163244459226
 30
0.0
 11
248.825718958067
 21
355.163244459226
 31
0.0
  0
LINE
  5
35F
330
1F
100
AcDbEntity
  8
1
  6
Continuous
 62
     4
100
AcDbLine
 10
248.575718958067
 20
352.163244459226
 30
0.0
 11
248.575718958067
 21
353.163244459226
 31
0.0
  0
LINE
  5
360
330
1F
100
AcDbEntity
  8
1
  6
Continuous
 62
     4
100
AcDbLine
 10
248.825718958067
 20
351.163244459226
 30
0.0
 11
248.575718958067
 21
352.163244459226
 31
0.0
  0
LINE
  5
361
330
1F
100
AcDbEntity
  8
1
  6
Continuous
 62
     4
100
AcDbLine
 10
249.325718958067
 20
350.413244459226
 30
0.0
 11
248.825718958067
 21
351.163244459226
 31
0.0
  0
LINE
  5
362
330
1F
100
AcDbEntity
  8
1
  6
Continuous
 62
     4
100
AcDbLine
 10
250.075718958067
 20
349.913244459226
 30
0.0
 11
249.325718958067
 21
350.413244459226
 31
0.0
  0
LINE
  5
363
330
1F
100
AcDbEntity
  8
1
  6
Continuous
 62
     4
100
AcDbLine
 10
250.825718958067
 20
349.663244459226
 30
0.0
 11
250.075718958067
 21
349.913244459226
 31
0.0
  0
LINE
  5
364
330
1F
100
AcDbEntity
  8
1
  6
Continuous
 62
     4
100
AcDbLine
 10
252.325718958067
 20
349.663244459226
 30
0.0
 11
250.825718958067
 21
349.663244459226
 31
0.0
  0
LINE
  5
365
330
1F
100
AcDbEntity
  8
1
  6
Continuous
 62
     4
100
AcDbLine
 10
253.075718958067
 20
349.913244459226
 30
0.0
 11
252.325718958067
 21
349.663244459226
 31
0.0
  0
LINE
  5
366
330
1F
100
AcDbEntity
  8
1
  6
Continuous
 62
     4
100
AcDbLine
 10
253.825718958067
 20
350.413244459226
 30
0.0
 11
253.075718958067
 21
349.913244459226
 31
0.0
  0
LINE
  5
367
330
1F
100
AcDbEntity
  8
1
  6
Continuous
 62
     4
100
AcDbLine
 10
254.325718958067
 20
351.163244459226
 30
0.0
 11
253.825718958067
 21
350.413244459226
 31
0.0
  0
LINE
  5
368
330
1F
100
AcDbEntity
  8
1
  6
Continuous
 62
     4
100
AcDbLine
 10
254.575718958067
 20
352.163244459226
 30
0.0
 11
254.325718958067
 21
351.163244459226
 31
0.0
  0
LINE
  5
369
330
1F
100
AcDbEntity
  8
1
  6
Continuous
 62
     4
100
AcDbLine
 10
254.575718958067
 20
353.163244459226
 30
0.0
 11
254.575718958067
 21
352.163244459226
 31
0.0
  0
LINE
  5
36A
330
1F
100
AcDbEntity
  8
1
  6
Continuous
 62
     4
100
AcDbLine
 10
254.325718958067
 20
354.163244459226
 30
0.0
 11
254.575718958067
 21
353.163244459226
 31
0.0
  0
LINE
  5
36B
330
1F
100
AcDbEntity
  8
1
  6
Continuous
 62
     4
100
AcDbLine
 10
253.825718958067
 20
354.913244459226
 30
0.0
 11
254.325718958067
 21
354.163244459226
 31
0.0
  0
LINE
  5
36C
330
1F
100
AcDbEntity
  8
1
  6
Continuous
 62
     4
100
AcDbLine
 10
253.075718958067
 20
355.413244459226
 30
0.0
 11
253.825718958067
 21
354.913244459226
 31
0.0
  0
LINE
  5
36D
330
1F
100
AcDbEntity
  8
1
  6
Continuous
 62
     4
100
AcDbLine
 10
252.325718958067
 20
355.663244459226
 30
0.0
 11
253.075718958067
 21
355.413244459226
 31
0.0
  0
LINE
  5
36E
330
1F
100
AcDbEntity
  8
1
  6
Continuous
 62
     4
100
AcDbLine
 10
250.825718958067
 20
355.663244459226
 30
0.0
 11
252.325718958067
 21
355.663244459226
 31
0.0
  0
LINE
  5
36F
330
1F
100
AcDbEntity
  8
1
  6
Continuous
 62
     4
100
AcDbLine
 10
250.075718958067
 20
355.413244459226
 30
0.0
 11
250.825718958067
 21
355.663244459226
 31
0.0
  0
LINE
  5
370
330
1F
100
AcDbEntity
  8
1
  6
Continuous
 62
     4
100
AcDbLine
 10
249.325718958067
 20
354.913244459226
 30
0.0
 11
250.075718958067
 21
355.413244459226
 31
0.0
  0
LINE
  5
371
330
1F
100
AcDbEntity
  8
1
  6
Continuous
 62
     4
100
AcDbLine
 10
248.825718958067
 20
354.163244459226
 30
0.0
 11
249.325718958067
 21
354.913244459226
 31
0.0
  0
LINE
  5
372
330
1F
100
AcDbEntity
  8
1
  6
Continuous
 62
     4
100
AcDbLine
 10
248.575718958067
 20
353.163244459226
 30
0.0
 11
248.825718958067
 21
354.163244459226
 31
0.0
  0
LINE
  5
373
330
1F
100
AcDbEntity
  8
1
  6
Continuous
 62
     4
100
AcDbLine
 10
245.825718958067
 20
350.163244459226
 30
0.0
 11
245.825718958067
 21
349.913244459226
 31
0.0
  0
LINE
  5
374
330
1F
100
AcDbEntity
  8
1
  6
Continuous
 62
     4
100
AcDbLine
 10
245.575718958067
 20
350.163244459226
 30
0.0
 11
245.825718958067
 21
350.163244459226
 31
0.0
  0
LINE
  5
375
330
1F
100
AcDbEntity
  8
1
  6
Continuous
 62
     4
100
AcDbLine
 10
245.575718958067
 20
349.913244459226
 30
0.0
 11
245.575718958067
 21
350.163244459226
 31
0.0
  0
LINE
  5
376
330
1F
100
AcDbEntity
  8
1
  6
Continuous
 62
     4
100
AcDbLine
 10
245.825718958067
 20
349.913244459226
 30
0.0
 11
245.575718958067
 21
349.913244459226
 31
0.0
  0
LINE
  5
377
330
1F
100
AcDbEntity
  8
1
  6
Continuous
 62
     4
100
AcDbLine
 10
246.075718958067
 20
350.413244459226
 30
0.0
 11
246.075718958067
 21
349.663244459226
 31
0.0
  0
LINE
  5
378
330
1F
100
AcDbEntity
  8
1
  6
Continuous
 62
     4
100
AcDbLine
 10
245.325718958067
 20
350.413244459226
 30
0.0
 11
246.075718958067
 21
350.413244459226
 31
0.0
  0
LINE
  5
379
330
1F
100
AcDbEntity
  8
1
  6
Continuous
 62
     4
100
AcDbLine
 10
245.325718958067
 20
349.663244459226
 30
0.0
 11
245.325718958067
 21
350.413244459226
 31
0.0
  0
LINE
  5
37A
330
1F
100
AcDbEntity
  8
1
  6
Continuous
 62
     4
100
AcDbLine
 10
246.075718958067
 20
349.663244459226
 30
0.0
 11
245.325718958067
 21
349.663244459226
 31
0.0
  0
LINE
  5
37B
330
1F
100
AcDbEntity
  8
1
  6
Continuous
 62
     4
100
AcDbLine
 10
242.325718958067
 20
355.913244459226
 30
0.0
 11
242.325718958067
 21
353.413244459226
 31
0.0
  0
LINE
  5
37C
330
1F
100
AcDbEntity
  8
1
  6
Continuous
 62
     4
100
AcDbLine
 10
242.075718958067
 20
357.413244459226
 30
0.0
 11
242.325718958067
 21
355.913244459226
 31
0.0
  0
LINE
  5
37D
330
1F
100
AcDbEntity
  8
1
  6
Continuous
 62
     4
100
AcDbLine
 10
241.575718958067
 20
358.413244459226
 30
0.0
 11
242.075718958067
 21
357.413244459226
 31
0.0
  0
LINE
  5
37E
330
1F
100
AcDbEntity
  8
1
  6
Continuous
 62
     4
100
AcDbLine
 10
241.075718958067
 20
358.913244459226
 30
0.0
 11
241.575718958067
 21
358.413244459226
 31
0.0
  0
LINE
  5
37F
330
1F
100
AcDbEntity
  8
1
  6
Continuous
 62
     4
100
AcDbLine
 10
240.325718958067
 20
359.413244459226
 30
0.0
 11
241.075718958067
 21
358.913244459226
 31
0.0
  0
LINE
  5
380
330
1F
100
AcDbEntity
  8
1
  6
Continuous
 62
     4
100
AcDbLine
 10
239.575718958067
 20
359.663244459226
 30
0.0
 11
240.325718958067
 21
359.413244459226
 31
0.0
  0
LINE
  5
381
330
1F
100
AcDbEntity
  8
1
  6
Continuous
 62
     4
100
AcDbLine
 10
239.075718958067
 20
359.663244459226
 30
0.0
 11
239.575718958067
 21
359.663244459226
 31
0.0
  0
LINE
  5
382
330
1F
100
AcDbEntity
  8
1
  6
Continuous
 62
     4
100
AcDbLine
 10
238.325718958067
 20
359.413244459226
 30
0.0
 11
239.075718958067
 21
359.663244459226
 31
0.0
  0
LINE
  5
383
330
1F
100
AcDbEntity
  8
1
  6
Continuous
 62
     4
100
AcDbLine
 10
237.575718958067
 20
358.913244459226
 30
0.0
 11
238.325718958067
 21
359.413244459226
 31
0.0
  0
LINE
  5
384
330
1F
100
AcDbEntity
  8
1
  6
Continuous
 62
     4
100
AcDbLine
 10
237.075718958067
 20
358.413244459226
 30
0.0
 11
237.575718958067
 21
358.913244459226
 31
0.0
  0
LINE
  5
385
330
1F
100
AcDbEntity
  8
1
  6
Continuous
 62
     4
100
AcDbLine
 10
236.575718958067
 20
357.413244459226
 30
0.0
 11
237.075718958067
 21
358.413244459226
 31
0.0
  0
LINE
  5
386
330
1F
100
AcDbEntity
  8
1
  6
Continuous
 62
     4
100
AcDbLine
 10
236.325718958067
 20
355.913244459226
 30
0.0
 11
236.575718958067
 21
357.413244459226
 31
0.0
  0
LINE
  5
387
330
1F
100
AcDbEntity
  8
1
  6
Continuous
 62
     4
100
AcDbLine
 10
236.325718958067
 20
353.413244459226
 30
0.0
 11
236.325718958067
 21
355.913244459226
 31
0.0
  0
LINE
  5
388
330
1F
100
AcDbEntity
  8
1
  6
Continuous
 62
     4
100
AcDbLine
 10
236.575718958067
 20
351.913244459226
 30
0.0
 11
236.325718958067
 21
353.413244459226
 31
0.0
  0
LINE
  5
389
330
1F
100
AcDbEntity
  8
1
  6
Continuous
 62
     4
100
AcDbLine
 10
237.075718958067
 20
350.913244459226
 30
0.0
 11
236.575718958067
 21
351.913244459226
 31
0.0
  0
LINE
  5
38A
330
1F
100
AcDbEntity
  8
1
  6
Continuous
 62
     4
100
AcDbLine
 10
237.575718958067
 20
350.413244459226
 30
0.0
 11
237.075718958067
 21
350.913244459226
 31
0.0
  0
LINE
  5
38B
330
1F
100
AcDbEntity
  8
1
  6
Continuous
 62
     4
100
AcDbLine
 10
238.325718958067
 20
349.913244459226
 30
0.0
 11
237.575718958067
 21
350.413244459226
 31
0.0
  0
LINE
  5
38C
330
1F
100
AcDbEntity
  8
1
  6
Continuous
 62
     4
100
AcDbLine
 10
239.075718958067
 20
349.663244459226
 30
0.0
 11
238.325718958067
 21
349.913244459226
 31
0.0
  0
LINE
  5
38D
330
1F
100
AcDbEntity
  8
1
  6
Continuous
 62
     4
100
AcDbLine
 10
239.575718958067
 20
349.663244459226
 30
0.0
 11
239.075718958067
 21
349.663244459226
 31
0.0
  0
LINE
  5
38E
330
1F
100
AcDbEntity
  8
1
  6
Continuous
 62
     4
100
AcDbLine
 10
240.325718958067
 20
349.913244459226
 30
0.0
 11
239.575718958067
 21
349.663244459226
 31
0.0
  0
LINE
  5
38F
330
1F
100
AcDbEntity
  8
1
  6
Continuous
 62
     4
100
AcDbLine
 10
241.075718958067
 20
350.413244459226
 30
0.0
 11
240.325718958067
 21
349.913244459226
 31
0.0
  0
LINE
  5
390
330
1F
100
AcDbEntity
  8
1
  6
Continuous
 62
     4
100
AcDbLine
 10
241.575718958067
 20
350.913244459226
 30
0.0
 11
241.075718958067
 21
350.413244459226
 31
0.0
  0
LINE
  5
391
330
1F
100
AcDbEntity
  8
1
  6
Continuous
 62
     4
100
AcDbLine
 10
242.075718958067
 20
351.913244459226
 30
0.0
 11
241.575718958067
 21
350.913244459226
 31
0.0
  0
LINE
  5
392
330
1F
100
AcDbEntity
  8
1
  6
Continuous
 62
     4
100
AcDbLine
 10
242.325718958067
 20
353.413244459226
 30
0.0
 11
242.075718958067
 21
351.913244459226
 31
0.0
  0
LINE
  5
393
330
1F
100
AcDbEntity
  8
1
  6
Continuous
 62
     4
100
AcDbLine
 10
253.075718958067
 20
373.663244459226
 30
0.0
 11
253.075718958067
 21
369.663244459226
 31
0.0
  0
LINE
  5
394
330
1F
100
AcDbEntity
  8
1
  6
Continuous
 62
     4
100
AcDbLine
 10
248.575718958067
 20
371.663244459226
 30
0.0
 11
254.575718958067
 21
371.663244459226
 31
0.0
  0
LINE
  5
395
330
1F
100
AcDbEntity
  8
1
  6
Continuous
 62
     4
100
AcDbLine
 10
253.075718958067
 20
379.663244459226
 30
0.0
 11
248.575718958067
 21
371.663244459226
 31
0.0
  0
LINE
  5
396
330
1F
100
AcDbEntity
  8
1
  6
Continuous
 62
     4
100
AcDbLine
 10
245.825718958067
 20
370.163244459226
 30
0.0
 11
245.825718958067
 21
369.913244459226
 31
0.0
  0
LINE
  5
397
330
1F
100
AcDbEntity
  8
1
  6
Continuous
 62
     4
100
AcDbLine
 10
245.575718958067
 20
370.163244459226
 30
0.0
 11
245.825718958067
 21
370.163244459226
 31
0.0
  0
LINE
  5
398
330
1F
100
AcDbEntity
  8
1
  6
Continuous
 62
     4
100
AcDbLine
 10
245.575718958067
 20
369.913244459226
 30
0.0
 11
245.575718958067
 21
370.163244459226
 31
0.0
  0
LINE
  5
399
330
1F
100
AcDbEntity
  8
1
  6
Continuous
 62
     4
100
AcDbLine
 10
245.825718958067
 20
369.913244459226
 30
0.0
 11
245.575718958067
 21
369.913244459226
 31
0.0
  0
LINE
  5
39A
330
1F
100
AcDbEntity
  8
1
  6
Continuous
 62
     4
100
AcDbLine
 10
246.075718958067
 20
370.413244459226
 30
0.0
 11
246.075718958067
 21
369.663244459226
 31
0.0
  0
LINE
  5
39B
330
1F
100
AcDbEntity
  8
1
  6
Continuous
 62
     4
100
AcDbLine
 10
245.325718958067
 20
370.413244459226
 30
0.0
 11
246.075718958067
 21
370.413244459226
 31
0.0
  0
LINE
  5
39C
330
1F
100
AcDbEntity
  8
1
  6
Continuous
 62
     4
100
AcDbLine
 10
245.325718958067
 20
369.663244459226
 30
0.0
 11
245.325718958067
 21
370.413244459226
 31
0.0
  0
LINE
  5
39D
330
1F
100
AcDbEntity
  8
1
  6
Continuous
 62
     4
100
AcDbLine
 10
246.075718958067
 20
369.663244459226
 30
0.0
 11
245.325718958067
 21
369.663244459226
 31
0.0
  0
LINE
  5
39E
330
1F
100
AcDbEntity
  8
1
  6
Continuous
 62
     4
100
AcDbLine
 10
242.325718958067
 20
375.913244459226
 30
0.0
 11
242.325718958067
 21
373.413244459226
 31
0.0
  0
LINE
  5
39F
330
1F
100
AcDbEntity
  8
1
  6
Continuous
 62
     4
100
AcDbLine
 10
242.075718958067
 20
377.413244459226
 30
0.0
 11
242.325718958067
 21
375.913244459226
 31
0.0
  0
LINE
  5
3A0
330
1F
100
AcDbEntity
  8
1
  6
Continuous
 62
     4
100
AcDbLine
 10
241.575718958067
 20
378.413244459226
 30
0.0
 11
242.075718958067
 21
377.413244459226
 31
0.0
  0
LINE
  5
3A1
330
1F
100
AcDbEntity
  8
1
  6
Continuous
 62
     4
100
AcDbLine
 10
241.075718958067
 20
378.913244459226
 30
0.0
 11
241.575718958067
 21
378.413244459226
 31
0.0
  0
LINE
  5
3A2
330
1F
100
AcDbEntity
  8
1
  6
Continuous
 62
     4
100
AcDbLine
 10
240.325718958067
 20
379.413244459226
 30
0.0
 11
241.075718958067
 21
378.913244459226
 31
0.0
  0
LINE
  5
3A3
330
1F
100
AcDbEntity
  8
1
  6
Continuous
 62
     4
100
AcDbLine
 10
239.575718958067
 20
379.663244459226
 30
0.0
 11
240.325718958067
 21
379.413244459226
 31
0.0
  0
LINE
  5
3A4
330
1F
100
AcDbEntity
  8
1
  6
Continuous
 62
     4
100
AcDbLine
 10
239.075718958067
 20
379.663244459226
 30
0.0
 11
239.575718958067
 21
379.663244459226
 31
0.0
  0
LINE
  5
3A5
330
1F
100
AcDbEntity
  8
1
  6
Continuous
 62
     4
100
AcDbLine
 10
238.325718958067
 20
379.413244459226
 30
0.0
 11
239.075718958067
 21
379.663244459226
 31
0.0
  0
LINE
  5
3A6
330
1F
100
AcDbEntity
  8
1
  6
Continuous
 62
     4
100
AcDbLine
 10
237.575718958067
 20
378.913244459226
 30
0.0
 11
238.325718958067
 21
379.413244459226
 31
0.0
  0
LINE
  5
3A7
330
1F
100
AcDbEntity
  8
1
  6
Continuous
 62
     4
100
AcDbLine
 10
237.075718958067
 20
378.413244459226
 30
0.0
 11
237.575718958067
 21
378.913244459226
 31
0.0
  0
LINE
  5
3A8
330
1F
100
AcDbEntity
  8
1
  6
Continuous
 62
     4
100
AcDbLine
 10
236.575718958067
 20
377.413244459226
 30
0.0
 11
237.075718958067
 21
378.413244459226
 31
0.0
  0
LINE
  5
3A9
330
1F
100
AcDbEntity
  8
1
  6
Continuous
 62
     4
100
AcDbLine
 10
236.325718958067
 20
375.913244459226
 30
0.0
 11
236.575718958067
 21
377.413244459226
 31
0.0
  0
LINE
  5
3AA
330
1F
100
AcDbEntity
  8
1
  6
Continuous
 62
     4
100
AcDbLine
 10
236.325718958067
 20
373.413244459226
 30
0.0
 11
236.325718958067
 21
375.913244459226
 31
0.0
  0
LINE
  5
3AB
330
1F
100
AcDbEntity
  8
1
  6
Continuous
 62
     4
100
AcDbLine
 10
236.575718958067
 20
371.913244459226
 30
0.0
 11
236.325718958067
 21
373.413244459226
 31
0.0
  0
LINE
  5
3AC
330
1F
100
AcDbEntity
  8
1
  6
Continuous
 62
     4
100
AcDbLine
 10
237.075718958067
 20
370.913244459226
 30
0.0
 11
236.575718958067
 21
371.913244459226
 31
0.0
  0
LINE
  5
3AD
330
1F
100
AcDbEntity
  8
1
  6
Continuous
 62
     4
100
AcDbLine
 10
237.575718958067
 20
370.413244459226
 30
0.0
 11
237.075718958067
 21
370.913244459226
 31
0.0
  0
LINE
  5
3AE
330
1F
100
AcDbEntity
  8
1
  6
Continuous
 62
     4
100
AcDbLine
 10
238.325718958067
 20
369.913244459226
 30
0.0
 11
237.575718958067
 21
370.413244459226
 31
0.0
  0
LINE
  5
3AF
330
1F
100
AcDbEntity
  8
1
  6
Continuous
 62
     4
100
AcDbLine
 10
239.075718958067
 20
369.663244459226
 30
0.0
 11
238.325718958067
 21
369.913244459226
 31
0.0
  0
LINE
  5
3B0
330
1F
100
AcDbEntity
  8
1
  6
Continuous
 62
     4
100
AcDbLine
 10
239.575718958067
 20
369.663244459226
 30
0.0
 11
239.075718958067
 21
369.663244459226
 31
0.0
  0
LINE
  5
3B1
330
1F
100
AcDbEntity
  8
1
  6
Continuous
 62
     4
100
AcDbLine
 10
240.325718958067
 20
369.913244459226
 30
0.0
 11
239.575718958067
 21
369.663244459226
 31
0.0
  0
LINE
  5
3B2
330
1F
100
AcDbEntity
  8
1
  6
Continuous
 62
     4
100
AcDbLine
 10
241.075718958067
 20
370.413244459226
 30
0.0
 11
240.325718958067
 21
369.913244459226
 31
0.0
  0
LINE
  5
3B3
330
1F
100
AcDbEntity
  8
1
  6
Continuous
 62
     4
100
AcDbLine
 10
241.575718958067
 20
370.913244459226
 30
0.0
 11
241.075718958067
 21
370.413244459226
 31
0.0
  0
LINE
  5
3B4
330
1F
100
AcDbEntity
  8
1
  6
Continuous
 62
     4
100
AcDbLine
 10
242.075718958067
 20
371.913244459226
 30
0.0
 11
241.575718958067
 21
370.913244459226
 31
0.0
  0
LINE
  5
3B5
330
1F
100
AcDbEntity
  8
1
  6
Continuous
 62
     4
100
AcDbLine
 10
242.325718958067
 20
373.413244459226
 30
0.0
 11
242.075718958067
 21
371.913244459226
 31
0.0
  0
LINE
  5
3B6
330
1F
100
AcDbEntity
  8
1
  6
Continuous
 62
     4
100
AcDbLine
 10
277.450718958067
 20
390.663244459226
 30
0.0
 11
276.825718958067
 21
389.663244459226
 31
0.0
  0
LINE
  5
3B7
330
1F
100
AcDbEntity
  8
1
  6
Continuous
 62
     4
100
AcDbLine
 10
277.950718958067
 20
392.163244459226
 30
0.0
 11
277.450718958067
 21
390.663244459226
 31
0.0
  0
LINE
  5
3B8
330
1F
100
AcDbEntity
  8
1
  6
Continuous
 62
     4
100
AcDbLine
 10
277.950718958067
 20
397.163244459226
 30
0.0
 11
277.950718958067
 21
392.163244459226
 31
0.0
  0
LINE
  5
3B9
330
1F
100
AcDbEntity
  8
1
  6
Continuous
 62
     4
100
AcDbLine
 10
277.450718958067
 20
398.788244459226
 30
0.0
 11
277.950718958067
 21
397.163244459226
 31
0.0
  0
LINE
  5
3BA
330
1F
100
AcDbEntity
  8
1
  6
Continuous
 62
     4
100
AcDbLine
 10
276.825718958067
 20
399.663244459226
 30
0.0
 11
277.450718958067
 21
398.788244459226
 31
0.0
  0
LINE
  5
3BB
330
1F
100
AcDbEntity
  8
1
  6
Continuous
 62
     4
100
AcDbLine
 10
263.825718958067
 20
394.413244459226
 30
0.0
 11
263.825718958067
 21
395.913244459226
 31
0.0
  0
LINE
  5
3BC
330
1F
100
AcDbEntity
  8
1
  6
Continuous
 62
     4
100
AcDbLine
 10
270.950718958067
 20
394.413244459226
 30
0.0
 11
270.950718958067
 21
389.663244459226
 31
0.0
  0
LINE
  5
3BD
330
1F
100
AcDbEntity
  8
1
  6
Continuous
 62
     4
100
AcDbLine
 10
270.700718958067
 20
395.288244459226
 30
0.0
 11
270.950718958067
 21
394.413244459226
 31
0.0
  0
LINE
  5
3BE
330
1F
100
AcDbEntity
  8
1
  6
Continuous
 62
     4
100
AcDbLine
 10
270.450718958067
 20
395.663244459226
 30
0.0
 11
270.700718958067
 21
395.288244459226
 31
0.0
  0
LINE
  5
3BF
330
1F
100
AcDbEntity
  8
1
  6
Continuous
 62
     4
100
AcDbLine
 10
269.575718958067
 20
395.913244459226
 30
0.0
 11
270.450718958067
 21
395.663244459226
 31
0.0
  0
LINE
  5
3C0
330
1F
100
AcDbEntity
  8
1
  6
Continuous
 62
     4
100
AcDbLine
 10
268.825718958067
 20
395.913244459226
 30
0.0
 11
269.575718958067
 21
395.913244459226
 31
0.0
  0
LINE
  5
3C1
330
1F
100
AcDbEntity
  8
1
  6
Continuous
 62
     4
100
AcDbLine
 10
267.950718958067
 20
395.663244459226
 30
0.0
 11
268.825718958067
 21
395.913244459226
 31
0.0
  0
LINE
  5
3C2
330
1F
100
AcDbEntity
  8
1
  6
Continuous
 62
     4
100
AcDbLine
 10
267.700718958067
 20
395.288244459226
 30
0.0
 11
267.950718958067
 21
395.663244459226
 31
0.0
  0
LINE
  5
3C3
330
1F
100
AcDbEntity
  8
1
  6
Continuous
 62
     4
100
AcDbLine
 10
267.450718958067
 20
394.413244459226
 30
0.0
 11
267.700718958067
 21
395.288244459226
 31
0.0
  0
LINE
  5
3C4
330
1F
100
AcDbEntity
  8
1
  6
Continuous
 62
     4
100
AcDbLine
 10
267.450718958067
 20
389.663244459226
 30
0.0
 11
267.450718958067
 21
394.413244459226
 31
0.0
  0
LINE
  5
3C5
330
1F
100
AcDbEntity
  8
1
  6
Continuous
 62
     4
100
AcDbLine
 10
267.075718958067
 20
395.288244459226
 30
0.0
 11
267.450718958067
 21
394.413244459226
 31
0.0
  0
LINE
  5
3C6
330
1F
100
AcDbEntity
  8
1
  6
Continuous
 62
     4
100
AcDbLine
 10
266.825718958067
 20
395.663244459226
 30
0.0
 11
267.075718958067
 21
395.288244459226
 31
0.0
  0
LINE
  5
3C7
330
1F
100
AcDbEntity
  8
1
  6
Continuous
 62
     4
100
AcDbLine
 10
265.950718958067
 20
395.913244459226
 30
0.0
 11
266.825718958067
 21
395.663244459226
 31
0.0
  0
LINE
  5
3C8
330
1F
100
AcDbEntity
  8
1
  6
Continuous
 62
     4
100
AcDbLine
 10
265.200718958067
 20
395.913244459226
 30
0.0
 11
265.950718958067
 21
395.913244459226
 31
0.0
  0
LINE
  5
3C9
330
1F
100
AcDbEntity
  8
1
  6
Continuous
 62
     4
100
AcDbLine
 10
264.325718958067
 20
395.663244459226
 30
0.0
 11
265.200718958067
 21
395.913244459226
 31
0.0
  0
LINE
  5
3CA
330
1F
100
AcDbEntity
  8
1
  6
Continuous
 62
     4
100
AcDbLine
 10
264.075718958067
 20
395.288244459226
 30
0.0
 11
264.325718958067
 21
395.663244459226
 31
0.0
  0
LINE
  5
3CB
330
1F
100
AcDbEntity
  8
1
  6
Continuous
 62
     4
100
AcDbLine
 10
263.825718958067
 20
394.413244459226
 30
0.0
 11
264.075718958067
 21
395.288244459226
 31
0.0
  0
LINE
  5
3CC
330
1F
100
AcDbEntity
  8
1
  6
Continuous
 62
     4
100
AcDbLine
 10
263.825718958067
 20
389.663244459226
 30
0.0
 11
263.825718958067
 21
394.413244459226
 31
0.0
  0
LINE
  5
3CD
330
1F
100
AcDbEntity
  8
1
  6
Continuous
 62
     4
100
AcDbLine
 10
257.450718958067
 20
390.663244459226
 30
0.0
 11
257.950718958067
 21
389.663244459226
 31
0.0
  0
LINE
  5
3CE
330
1F
100
AcDbEntity
  8
1
  6
Continuous
 62
     4
100
AcDbLine
 10
256.825718958067
 20
392.163244459226
 30
0.0
 11
257.450718958067
 21
390.663244459226
 31
0.0
  0
LINE
  5
3CF
330
1F
100
AcDbEntity
  8
1
  6
Continuous
 62
     4
100
AcDbLine
 10
256.825718958067
 20
397.163244459226
 30
0.0
 11
256.825718958067
 21
392.163244459226
 31
0.0
  0
LINE
  5
3D0
330
1F
100
AcDbEntity
  8
1
  6
Continuous
 62
     4
100
AcDbLine
 10
257.450718958067
 20
398.788244459226
 30
0.0
 11
256.825718958067
 21
397.163244459226
 31
0.0
  0
LINE
  5
3D1
330
1F
100
AcDbEntity
  8
1
  6
Continuous
 62
     4
100
AcDbLine
 10
257.950718958067
 20
399.663244459226
 30
0.0
 11
257.450718958067
 21
398.788244459226
 31
0.0
  0
LINE
  5
3D2
330
1F
100
AcDbEntity
  8
1
  6
Continuous
 62
     4
100
AcDbLine
 10
247.075718958067
 20
390.913244459226
 30
0.0
 11
248.825718958067
 21
390.663244459226
 31
0.0
  0
LINE
  5
3D3
330
1F
100
AcDbEntity
  8
1
  6
Continuous
 62
     4
100
AcDbLine
 10
245.950718958067
 20
391.538244459226
 30
0.0
 11
247.075718958067
 21
390.913244459226
 31
0.0
  0
LINE
  5
3D4
330
1F
100
AcDbEntity
  8
1
  6
Continuous
 62
     4
100
AcDbLine
 10
245.450718958067
 20
392.538244459226
 30
0.0
 11
245.950718958067
 21
391.538244459226
 31
0.0
  0
LINE
  5
3D5
330
1F
100
AcDbEntity
  8
1
  6
Continuous
 62
     4
100
AcDbLine
 10
245.950718958067
 20
393.413244459226
 30
0.0
 11
245.450718958067
 21
392.538244459226
 31
0.0
  0
LINE
  5
3D6
330
1F
100
AcDbEntity
  8
1
  6
Continuous
 62
     4
100
AcDbLine
 10
247.700718958067
 20
394.038244459226
 30
0.0
 11
245.950718958067
 21
393.413244459226
 31
0.0
  0
LINE
  5
3D7
330
1F
100
AcDbEntity
  8
1
  6
Continuous
 62
     4
100
AcDbLine
 10
249.575718958067
 20
393.788244459226
 30
0.0
 11
247.700718958067
 21
394.038244459226
 31
0.0
  0
LINE
  5
3D8
330
1F
100
AcDbEntity
  8
1
  6
Continuous
 62
     4
100
AcDbLine
 10
248.450718958067
 20
395.913244459226
 30
0.0
 11
249.575718958067
 21
393.788244459226
 31
0.0
  0
LINE
  5
3D9
330
1F
100
AcDbEntity
  8
1
  6
Continuous
 62
     4
100
AcDbLine
 10
246.575718958067
 20
398.788244459226
 30
0.0
 11
248.450718958067
 21
395.913244459226
 31
0.0
  0
LINE
  5
3DA
330
1F
100
AcDbEntity
  8
1
  6
Continuous
 62
     4
100
AcDbLine
 10
247.450718958067
 20
396.913244459226
 30
0.0
 11
249.325718958067
 21
397.788244459226
 31
0.0
  0
LINE
  5
3DB
330
1F
100
AcDbEntity
  8
1
  6
Continuous
 62
     4
100
AcDbLine
 10
245.200718958067
 20
396.288244459226
 30
0.0
 11
247.450718958067
 21
396.913244459226
 31
0.0
  0
LINE
  5
3DC
330
1F
100
AcDbEntity
  8
1
  6
Continuous
 62
     4
100
AcDbLine
 10
235.450718958067
 20
397.788244459226
 30
0.0
 11
235.450718958067
 21
390.663244459226
 31
0.0
  0
LINE
  5
3DD
330
1F
100
AcDbEntity
  8
1
  6
Continuous
 62
     4
100
AcDbLine
 10
239.325718958067
 20
390.913244459226
 30
0.0
 11
241.575718958067
 21
390.038244459226
 31
0.0
  0
LINE
  5
3DE
330
1F
100
AcDbEntity
  8
1
  6
Continuous
 62
     4
100
AcDbLine
 10
238.200718958067
 20
392.163244459226
 30
0.0
 11
239.325718958067
 21
390.913244459226
 31
0.0
  0
LINE
  5
3DF
330
1F
100
AcDbEntity
  8
1
  6
Continuous
 62
     4
100
AcDbLine
 10
237.075718958067
 20
394.038244459226
 30
0.0
 11
238.200718958067
 21
392.163244459226
 31
0.0
  0
LINE
  5
3E0
330
1F
100
AcDbEntity
  8
1
  6
Continuous
 62
     4
100
AcDbLine
 10
235.450718958067
 20
399.413244459226
 30
0.0
 11
235.450718958067
 21
397.788244459226
 31
0.0
  0
LINE
  5
3E1
330
1F
100
AcDbEntity
  8
1
  6
Continuous
 62
     4
100
AcDbLine
 10
239.950718958067
 20
399.413244459226
 30
0.0
 11
235.450718958067
 21
399.413244459226
 31
0.0
  0
LINE
  5
3E2
330
1F
100
AcDbEntity
  8
1
  6
Continuous
 62
     4
100
AcDbLine
 10
239.575718958067
 20
397.788244459226
 30
0.0
 11
235.450718958067
 21
397.788244459226
 31
0.0
  0
LINE
  5
3E3
330
1F
100
AcDbEntity
  8
1
  6
Continuous
 62
     4
100
AcDbLine
 10
235.450718958067
 20
396.288244459226
 30
0.0
 11
239.575718958067
 21
396.288244459226
 31
0.0
  0
LINE
  5
3E4
330
1F
100
AcDbEntity
  8
1
  6
Continuous
 62
     4
100
AcDbLine
 10
241.575718958067
 20
394.663244459226
 30
0.0
 11
233.200718958067
 21
394.663244459226
 31
0.0
  0
LINE
  5
3E5
330
1F
100
AcDbEntity
  8
1
  6
Continuous
 62
     4
100
AcDbLine
 10
238.200718958067
 20
392.538244459226
 30
0.0
 11
240.200718958067
 21
393.788244459226
 31
0.0
  0
LINE
  5
3E6
330
1F
100
AcDbEntity
  8
1
  6
Continuous
 62
     4
100
AcDbLine
 10
233.825718958067
 20
390.038244459226
 30
0.0
 11
237.450718958067
 21
391.538244459226
 31
0.0
  0
LINE
  5
3E7
330
1F
100
AcDbEntity
  8
1
  6
Continuous
 62
     4
100
AcDbLine
 10
230.950718958067
 20
398.163244459226
 30
0.0
 11
231.825718958067
 21
397.163244459226
 31
0.0
  0
LINE
  5
3E8
330
1F
100
AcDbEntity
  8
1
  6
Continuous
 62
     4
100
AcDbLine
 10
230.200718958067
 20
397.538244459226
 30
0.0
 11
230.950718958067
 21
396.538244459226
 31
0.0
  0
LINE
  5
3E9
330
1F
100
AcDbEntity
  8
1
  6
Continuous
 62
     4
100
AcDbLine
 10
229.075718958067
 20
395.038244459226
 30
0.0
 11
230.200718958067
 21
392.538244459226
 31
0.0
  0
LINE
  5
3EA
330
1F
100
AcDbEntity
  8
1
  6
Continuous
 62
     4
100
AcDbLine
 10
228.825718958067
 20
397.163244459226
 30
0.0
 11
229.075718958067
 21
395.038244459226
 31
0.0
  0
LINE
  5
3EB
330
1F
100
AcDbEntity
  8
1
  6
Continuous
 62
     4
100
AcDbLine
 10
228.825718958067
 20
395.288244459226
 30
0.0
 11
228.825718958067
 21
397.163244459226
 31
0.0
  0
LINE
  5
3EC
330
1F
100
AcDbEntity
  8
1
  6
Continuous
 62
     4
100
AcDbLine
 10
228.450718958067
 20
393.413244459226
 30
0.0
 11
228.825718958067
 21
395.288244459226
 31
0.0
  0
LINE
  5
3ED
330
1F
100
AcDbEntity
  8
1
  6
Continuous
 62
     4
100
AcDbLine
 10
227.700718958067
 20
391.538244459226
 30
0.0
 11
228.450718958067
 21
393.413244459226
 31
0.0
  0
LINE
  5
3EE
330
1F
100
AcDbEntity
  8
1
  6
Continuous
 62
     4
100
AcDbLine
 10
226.575718958067
 20
390.663244459226
 30
0.0
 11
227.700718958067
 21
391.538244459226
 31
0.0
  0
LINE
  5
3EF
330
1F
100
AcDbEntity
  8
1
  6
Continuous
 62
     4
100
AcDbLine
 10
225.450718958067
 20
390.288244459226
 30
0.0
 11
226.575718958067
 21
390.663244459226
 31
0.0
  0
LINE
  5
3F0
330
1F
100
AcDbEntity
  8
1
  6
Continuous
 62
     4
100
AcDbLine
 10
224.325718958067
 20
390.663244459226
 30
0.0
 11
225.450718958067
 21
390.288244459226
 31
0.0
  0
LINE
  5
3F1
330
1F
100
AcDbEntity
  8
1
  6
Continuous
 62
     4
100
AcDbLine
 10
223.825718958067
 20
391.538244459226
 30
0.0
 11
224.325718958067
 21
390.663244459226
 31
0.0
  0
LINE
  5
3F2
330
1F
100
AcDbEntity
  8
1
  6
Continuous
 62
     4
100
AcDbLine
 10
223.825718958067
 20
392.788244459226
 30
0.0
 11
223.825718958067
 21
391.538244459226
 31
0.0
  0
LINE
  5
3F3
330
1F
100
AcDbEntity
  8
1
  6
Continuous
 62
     4
100
AcDbLine
 10
224.325718958067
 20
394.413244459226
 30
0.0
 11
223.825718958067
 21
392.788244459226
 31
0.0
  0
LINE
  5
3F4
330
1F
100
AcDbEntity
  8
1
  6
Continuous
 62
     4
100
AcDbLine
 10
225.200718958067
 20
395.663244459226
 30
0.0
 11
224.325718958067
 21
394.413244459226
 31
0.0
  0
LINE
  5
3F5
330
1F
100
AcDbEntity
  8
1
  6
Continuous
 62
     4
100
AcDbLine
 10
226.325718958067
 20
396.913244459226
 30
0.0
 11
225.200718958067
 21
395.663244459226
 31
0.0
  0
LINE
  5
3F6
330
1F
100
AcDbEntity
  8
1
  6
Continuous
 62
     4
100
AcDbLine
 10
225.200718958067
 20
396.538244459226
 30
0.0
 11
226.325718958067
 21
396.913244459226
 31
0.0
  0
LINE
  5
3F7
330
1F
100
AcDbEntity
  8
1
  6
Continuous
 62
     4
100
AcDbLine
 10
223.825718958067
 20
396.288244459226
 30
0.0
 11
225.200718958067
 21
396.538244459226
 31
0.0
  0
LINE
  5
3F8
330
1F
100
AcDbEntity
  8
1
  6
Continuous
 62
     4
100
AcDbLine
 10
219.075718958067
 20
390.038244459226
 30
0.0
 11
217.950718958067
 21
390.038244459226
 31
0.0
  0
LINE
  5
3F9
330
1F
100
AcDbEntity
  8
1
  6
Continuous
 62
     4
100
AcDbLine
 10
219.075718958067
 20
398.163244459226
 30
0.0
 11
219.075718958067
 21
390.038244459226
 31
0.0
  0
LINE
  5
3FA
330
1F
100
AcDbEntity
  8
1
  6
Continuous
 62
     4
100
AcDbLine
 10
216.825718958067
 20
397.163244459226
 30
0.0
 11
217.700718958067
 21
395.288244459226
 31
0.0
  0
LINE
  5
3FB
330
1F
100
AcDbEntity
  8
1
  6
Continuous
 62
     4
100
AcDbLine
 10
218.450718958067
 20
398.788244459226
 30
0.0
 11
217.075718958067
 21
398.413244459226
 31
0.0
  0
LINE
  5
3FC
330
1F
100
AcDbEntity
  8
1
  6
Continuous
 62
     4
100
AcDbLine
 10
220.450718958067
 20
399.413244459226
 30
0.0
 11
218.450718958067
 21
398.788244459226
 31
0.0
  0
LINE
  5
3FD
330
1F
100
AcDbEntity
  8
1
  6
Continuous
 62
     4
100
AcDbLine
 10
220.200718958067
 20
395.288244459226
 30
0.0
 11
220.950718958067
 21
397.163244459226
 31
0.0
  0
LINE
  5
3FE
330
1F
100
AcDbEntity
  8
1
  6
Continuous
 62
     4
100
AcDbLine
 10
216.325718958067
 20
394.038244459226
 30
0.0
 11
221.825718958067
 21
394.038244459226
 31
0.0
  0
LINE
  5
3FF
330
1F
100
AcDbEntity
  8
1
  6
Continuous
 62
     4
100
AcDbLine
 10
213.450718958067
 20
398.163244459226
 30
0.0
 11
213.450718958067
 21
392.788244459226
 31
0.0
  0
LINE
  5
400
330
1F
100
AcDbEntity
  8
1
  6
Continuous
 62
     4
100
AcDbLine
 10
215.450718958067
 20
398.163244459226
 30
0.0
 11
213.450718958067
 21
398.163244459226
 31
0.0
  0
LINE
  5
401
330
1F
100
AcDbEntity
  8
1
  6
Continuous
 62
     4
100
AcDbLine
 10
215.450718958067
 20
392.788244459226
 30
0.0
 11
215.450718958067
 21
398.163244459226
 31
0.0
  0
LINE
  5
402
330
1F
100
AcDbEntity
  8
1
  6
Continuous
 62
     4
100
AcDbLine
 10
213.450718958067
 20
392.788244459226
 30
0.0
 11
215.450718958067
 21
392.788244459226
 31
0.0
  0
LINE
  5
403
330
1F
100
AcDbEntity
  8
1
  6
Continuous
 62
     4
100
AcDbLine
 10
-51.14275132257311
 20
-26.408260291968
 30
0.0
 11
-49.14275132257311
 21
-27.658260291968
 31
0.0
  0
LINE
  5
404
330
1F
100
AcDbEntity
  8
1
  6
Continuous
 62
     4
100
AcDbLine
 10
-48.39275132257311
 20
-25.783260291968
 30
0.0
 11
-50.01775132257311
 21
-24.533260291968
 31
0.0
  0
LINE
  5
405
330
1F
100
AcDbEntity
  8
1
  6
Continuous
 62
     4
100
AcDbLine
 10
-47.01775132257311
 20
-24.283260291968
 30
0.0
 11
-46.14275132257311
 21
-25.158260291968
 31
0.0
  0
LINE
  5
406
330
1F
100
AcDbEntity
  8
1
  6
Continuous
 62
     4
100
AcDbLine
 10
-45.51775132257311
 20
-24.533260291968
 30
0.0
 11
-46.39275132257311
 21
-23.658260291968
 31
0.0
  0
LINE
  5
407
330
1F
100
AcDbEntity
  8
1
  6
Continuous
 62
     4
100
AcDbLine
 10
-46.14275132257311
 20
-28.283260291968
 30
0.0
 11
-44.76775132257311
 21
-26.408260291968
 31
0.0
  0
LINE
  5
408
330
1F
100
AcDbEntity
  8
1
  6
Continuous
 62
     4
100
AcDbLine
 10
-48.39275132257311
 20
-30.158260291968
 30
0.0
 11
-46.14275132257311
 21
-28.283260291968
 31
0.0
  0
LINE
  5
409
330
1F
100
AcDbEntity
  8
1
  6
Continuous
 62
     4
100
AcDbLine
 10
-50.51775132257311
 20
-31.408260291968
 30
0.0
 11
-48.39275132257311
 21
-30.158260291968
 31
0.0
  0
LINE
  5
40A
330
1F
100
AcDbEntity
  8
1
  6
Continuous
 62
     4
100
AcDbLine
 10
-55.89275132257311
 20
-28.658260291968
 30
0.0
 11
-55.01775132257311
 21
-29.908260291968
 31
0.0
  0
LINE
  5
40B
330
1F
100
AcDbEntity
  8
1
  6
Continuous
 62
     4
100
AcDbLine
 10
-57.01775132257311
 20
-27.658260291968
 30
0.0
 11
-55.89275132257311
 21
-28.658260291968
 31
0.0
  0
LINE
  5
40C
330
1F
100
AcDbEntity
  8
1
  6
Continuous
 62
     4
100
AcDbLine
 10
-57.76775132257311
 20
-23.658260291968
 30
0.0
 11
-57.26775132257311
 21
-24.283260291968
 31
0.0
  0
LINE
  5
40D
330
1F
100
AcDbEntity
  8
1
  6
Continuous
 62
     4
100
AcDbLine
 10
-58.89275132257311
 20
-23.033260291968
 30
0.0
 11
-57.76775132257311
 21
-23.658260291968
 31
0.0
  0
LINE
  5
40E
330
1F
100
AcDbEntity
  8
1
  6
Continuous
 62
     4
100
AcDbLine
 10
-56.39275132257311
 20
-25.533260291968
 30
0.0
 11
-60.26775132257311
 21
-25.533260291968
 31
0.0
  0
LINE
  5
40F
330
1F
100
AcDbEntity
  8
1
  6
Continuous
 62
     4
100
AcDbLine
 10
-58.39275132257311
 20
-27.658260291968
 30
0.0
 11
-56.39275132257311
 21
-25.533260291968
 31
0.0
  0
LINE
  5
410
330
1F
100
AcDbEntity
  8
1
  6
Continuous
 62
     4
100
AcDbLine
 10
-61.14275132257311
 20
-29.533260291968
 30
0.0
 11
-58.39275132257311
 21
-27.658260291968
 31
0.0
  0
LINE
  5
411
330
1F
100
AcDbEntity
  8
1
  6
Continuous
 62
     4
100
AcDbLine
 10
-58.01775132257311
 20
-31.408260291968
 30
0.0
 11
-58.01775132257311
 21
-27.408260291968
 31
0.0
  0
LINE
  5
412
330
1F
100
AcDbEntity
  8
1
  6
Continuous
 62
     4
100
AcDbLine
 10
-67.0177513225731
 20
-28.408260291968
 30
0.0
 11
-67.0177513225731
 21
-32.408260291968
 31
0.0
  0
LINE
  5
413
330
1F
100
AcDbEntity
  8
1
  6
Continuous
 62
     4
100
AcDbLine
 10
-71.5177513225731
 20
-30.408260291968
 30
0.0
 11
-65.5177513225731
 21
-30.408260291968
 31
0.0
  0
LINE
  5
414
330
1F
100
AcDbEntity
  8
1
  6
Continuous
 62
     4
100
AcDbLine
 10
-67.0177513225731
 20
-22.408260291968
 30
0.0
 11
-71.5177513225731
 21
-30.408260291968
 31
0.0
  0
LINE
  5
415
330
1F
100
AcDbEntity
  8
1
  6
Continuous
 62
     4
100
AcDbLine
 10
-78.5177513225731
 20
-32.408260291968
 30
0.0
 11
-74.5177513225731
 21
-22.408260291968
 31
0.0
  0
LINE
  5
416
330
1F
100
AcDbEntity
  8
1
  6
Continuous
 62
     4
100
AcDbLine
 10
-83.7677513225731
 20
-32.408260291968
 30
0.0
 11
-87.5177513225731
 21
-32.408260291968
 31
0.0
  0
LINE
  5
417
330
1F
100
AcDbEntity
  8
1
  6
Continuous
 62
     4
100
AcDbLine
 10
-83.0177513225731
 20
-32.158260291968
 30
0.0
 11
-83.7677513225731
 21
-32.408260291968
 31
0.0
  0
LINE
  5
418
330
1F
100
AcDbEntity
  8
1
  6
Continuous
 62
     4
100
AcDbLine
 10
-82.2677513225731
 20
-31.658260291968
 30
0.0
 11
-83.0177513225731
 21
-32.158260291968
 31
0.0
  0
LINE
  5
419
330
1F
100
AcDbEntity
  8
1
  6
Continuous
 62
     4
100
AcDbLine
 10
-81.7677513225731
 20
-30.908260291968
 30
0.0
 11
-82.2677513225731
 21
-31.658260291968
 31
0.0
  0
LINE
  5
41A
330
1F
100
AcDbEntity
  8
1
  6
Continuous
 62
     4
100
AcDbLine
 10
-81.5177513225731
 20
-29.908260291968
 30
0.0
 11
-81.7677513225731
 21
-30.908260291968
 31
0.0
  0
LINE
  5
41B
330
1F
100
AcDbEntity
  8
1
  6
Continuous
 62
     4
100
AcDbLine
 10
-81.5177513225731
 20
-28.658260291968
 30
0.0
 11
-81.5177513225731
 21
-29.908260291968
 31
0.0
  0
LINE
  5
41C
330
1F
100
AcDbEntity
  8
1
  6
Continuous
 62
     4
100
AcDbLine
 10
-81.7677513225731
 20
-27.658260291968
 30
0.0
 11
-81.5177513225731
 21
-28.658260291968
 31
0.0
  0
LINE
  5
41D
330
1F
100
AcDbEntity
  8
1
  6
Continuous
 62
     4
100
AcDbLine
 10
-82.0177513225731
 20
-27.158260291968
 30
0.0
 11
-81.7677513225731
 21
-27.658260291968
 31
0.0
  0
LINE
  5
41E
330
1F
100
AcDbEntity
  8
1
  6
Continuous
 62
     4
100
AcDbLine
 10
-82.5177513225731
 20
-26.658260291968
 30
0.0
 11
-82.0177513225731
 21
-27.158260291968
 31
0.0
  0
LINE
  5
41F
330
1F
100
AcDbEntity
  8
1
  6
Continuous
 62
     4
100
AcDbLine
 10
-83.5177513225731
 20
-26.408260291968
 30
0.0
 11
-82.5177513225731
 21
-26.658260291968
 31
0.0
  0
LINE
  5
420
330
1F
100
AcDbEntity
  8
1
  6
Continuous
 62
     4
100
AcDbLine
 10
-82.7677513225731
 20
-26.158260291968
 30
0.0
 11
-83.5177513225731
 21
-26.408260291968
 31
0.0
  0
LINE
  5
421
330
1F
100
AcDbEntity
  8
1
  6
Continuous
 62
     4
100
AcDbLine
 10
-82.2677513225731
 20
-25.908260291968
 30
0.0
 11
-82.7677513225731
 21
-26.158260291968
 31
0.0
  0
LINE
  5
422
330
1F
100
AcDbEntity
  8
1
  6
Continuous
 62
     4
100
AcDbLine
 10
-81.7677513225731
 20
-25.408260291968
 30
0.0
 11
-82.2677513225731
 21
-25.908260291968
 31
0.0
  0
LINE
  5
423
330
1F
100
AcDbEntity
  8
1
  6
Continuous
 62
     4
100
AcDbLine
 10
-81.5177513225731
 20
-24.658260291968
 30
0.0
 11
-81.7677513225731
 21
-25.408260291968
 31
0.0
  0
LINE
  5
424
330
1F
100
AcDbEntity
  8
1
  6
Continuous
 62
     4
100
AcDbLine
 10
-81.5177513225731
 20
-23.908260291968
 30
0.0
 11
-81.5177513225731
 21
-24.658260291968
 31
0.0
  0
LINE
  5
425
330
1F
100
AcDbEntity
  8
1
  6
Continuous
 62
     4
100
AcDbLine
 10
-81.7677513225731
 20
-23.158260291968
 30
0.0
 11
-81.5177513225731
 21
-23.908260291968
 31
0.0
  0
LINE
  5
426
330
1F
100
AcDbEntity
  8
1
  6
Continuous
 62
     4
100
AcDbLine
 10
-82.5177513225731
 20
-22.658260291968
 30
0.0
 11
-81.7677513225731
 21
-23.158260291968
 31
0.0
  0
LINE
  5
427
330
1F
100
AcDbEntity
  8
1
  6
Continuous
 62
     4
100
AcDbLine
 10
-83.7677513225731
 20
-22.408260291968
 30
0.0
 11
-82.5177513225731
 21
-22.658260291968
 31
0.0
  0
LINE
  5
428
330
1F
100
AcDbEntity
  8
1
  6
Continuous
 62
     4
100
AcDbLine
 10
-87.5177513225731
 20
-22.408260291968
 30
0.0
 11
-83.7677513225731
 21
-22.408260291968
 31
0.0
  0
LINE
  5
429
330
1F
100
AcDbEntity
  8
1
  6
Continuous
 62
     4
100
AcDbLine
 10
-86.0177513225731
 20
-26.408260291968
 30
0.0
 11
-83.5177513225731
 21
-26.408260291968
 31
0.0
  0
LINE
  5
42A
330
1F
100
AcDbEntity
  8
1
  6
Continuous
 62
     4
100
AcDbLine
 10
-90.5177513225731
 20
-26.908260291968
 30
0.0
 11
-93.0177513225731
 21
-26.908260291968
 31
0.0
  0
LINE
  5
42B
330
1F
100
AcDbEntity
  8
1
  6
Continuous
 62
     4
100
AcDbLine
 10
-90.5177513225731
 20
-32.408260291968
 30
0.0
 11
-90.5177513225731
 21
-26.908260291968
 31
0.0
  0
LINE
  5
42C
330
1F
100
AcDbEntity
  8
1
  6
Continuous
 62
     4
100
AcDbLine
 10
-94.7677513225731
 20
-32.408260291968
 30
0.0
 11
-90.5177513225731
 21
-32.408260291968
 31
0.0
  0
LINE
  5
42D
330
1F
100
AcDbEntity
  8
1
  6
Continuous
 62
     4
100
AcDbLine
 10
-95.5177513225731
 20
-32.158260291968
 30
0.0
 11
-94.7677513225731
 21
-32.408260291968
 31
0.0
  0
LINE
  5
42E
330
1F
100
AcDbEntity
  8
1
  6
Continuous
 62
     4
100
AcDbLine
 10
-96.5177513225731
 20
-31.658260291968
 30
0.0
 11
-95.5177513225731
 21
-32.158260291968
 31
0.0
  0
LINE
  5
42F
330
1F
100
AcDbEntity
  8
1
  6
Continuous
 62
     4
100
AcDbLine
 10
-97.0177513225731
 20
-31.158260291968
 30
0.0
 11
-96.5177513225731
 21
-31.658260291968
 31
0.0
  0
LINE
  5
430
330
1F
100
AcDbEntity
  8
1
  6
Continuous
 62
     4
100
AcDbLine
 10
-97.2677513225731
 20
-30.408260291968
 30
0.0
 11
-97.0177513225731
 21
-31.158260291968
 31
0.0
  0
LINE
  5
431
330
1F
100
AcDbEntity
  8
1
  6
Continuous
 62
     4
100
AcDbLine
 10
-97.5177513225731
 20
-29.408260291968
 30
0.0
 11
-97.2677513225731
 21
-30.408260291968
 31
0.0
  0
LINE
  5
432
330
1F
100
AcDbEntity
  8
1
  6
Continuous
 62
     4
100
AcDbLine
 10
-97.5177513225731
 20
-25.408260291968
 30
0.0
 11
-97.5177513225731
 21
-29.408260291968
 31
0.0
  0
LINE
  5
433
330
1F
100
AcDbEntity
  8
1
  6
Continuous
 62
     4
100
AcDbLine
 10
-97.2677513225731
 20
-24.408260291968
 30
0.0
 11
-97.5177513225731
 21
-25.408260291968
 31
0.0
  0
LINE
  5
434
330
1F
100
AcDbEntity
  8
1
  6
Continuous
 62
     4
100
AcDbLine
 10
-97.0177513225731
 20
-23.658260291968
 30
0.0
 11
-97.2677513225731
 21
-24.408260291968
 31
0.0
  0
LINE
  5
435
330
1F
100
AcDbEntity
  8
1
  6
Continuous
 62
     4
100
AcDbLine
 10
-96.5177513225731
 20
-23.158260291968
 30
0.0
 11
-97.0177513225731
 21
-23.658260291968
 31
0.0
  0
LINE
  5
436
330
1F
100
AcDbEntity
  8
1
  6
Continuous
 62
     4
100
AcDbLine
 10
-95.7677513225731
 20
-22.658260291968
 30
0.0
 11
-96.5177513225731
 21
-23.158260291968
 31
0.0
  0
LINE
  5
437
330
1F
100
AcDbEntity
  8
1
  6
Continuous
 62
     4
100
AcDbLine
 10
-94.7677513225731
 20
-22.408260291968
 30
0.0
 11
-95.7677513225731
 21
-22.658260291968
 31
0.0
  0
LINE
  5
438
330
1F
100
AcDbEntity
  8
1
  6
Continuous
 62
     4
100
AcDbLine
 10
-90.5177513225731
 20
-22.408260291968
 30
0.0
 11
-94.7677513225731
 21
-22.408260291968
 31
0.0
  0
LINE
  5
439
330
1F
100
AcDbEntity
  8
1
  6
Continuous
 62
     4
100
AcDbLine
 10
21.9173351243634
 20
-45.2986378164239
 30
0.0
 11
21.1252351243634
 21
-46.5486378164239
 31
0.0
  0
LINE
  5
43A
330
1F
100
AcDbEntity
  8
1
  6
Continuous
 62
     4
100
AcDbLine
 10
21.1252351243634
 20
-44.0486378164239
 30
0.0
 11
21.9173351243634
 21
-45.2986378164239
 31
0.0
  0
LINE
  5
43B
330
1F
100
AcDbEntity
  8
1
  6
Continuous
 62
     4
100
AcDbLine
 10
15.97658512436341
 20
-45.2986378164239
 30
0.0
 11
21.9173351243634
 21
-45.2986378164239
 31
0.0
  0
LINE
  5
43C
330
1F
100
AcDbEntity
  8
1
  6
Continuous
 62
     4
100
AcDbLine
 10
9.44176012436341
 20
-42.4236378164239
 30
0.0
 11
13.99633512436341
 21
-42.4236378164239
 31
0.0
  0
LINE
  5
43D
330
1F
100
AcDbEntity
  8
1
  6
Continuous
 62
     4
100
AcDbLine
 10
9.44176012436341
 20
-42.4236378164239
 30
0.0
 11
10.53089762436341
 21
-40.5486378164239
 31
0.0
  0
LINE
  5
43E
330
1F
100
AcDbEntity
  8
1
  6
Continuous
 62
     4
100
AcDbLine
 10
12.01608512436341
 20
-47.1736378164239
 30
0.0
 11
10.33287262436341
 21
-47.1736378164239
 31
0.0
  0
LINE
  5
43F
330
1F
100
AcDbEntity
  8
1
  6
Continuous
 62
     4
100
AcDbLine
 10
12.01608512436341
 20
-44.6736378164239
 30
0.0
 11
12.01608512436341
 21
-47.1736378164239
 31
0.0
  0
LINE
  5
440
330
1F
100
AcDbEntity
  8
1
  6
Continuous
 62
     4
100
AcDbLine
 10
10.33287262436341
 20
-44.6736378164239
 30
0.0
 11
12.01608512436341
 21
-44.6736378164239
 31
0.0
  0
LINE
  5
441
330
1F
100
AcDbEntity
  8
1
  6
Continuous
 62
     4
100
AcDbLine
 10
10.33287262436341
 20
-47.1736378164239
 30
0.0
 11
10.33287262436341
 21
-44.6736378164239
 31
0.0
  0
LINE
  5
442
330
1F
100
AcDbEntity
  8
1
  6
Continuous
 62
     4
100
AcDbLine
 10
13.99633512436341
 20
-49.9236378164239
 30
0.0
 11
12.90719762436341
 21
-49.9236378164239
 31
0.0
  0
LINE
  5
443
330
1F
100
AcDbEntity
  8
1
  6
Continuous
 62
     4
100
AcDbLine
 10
13.99633512436341
 20
-42.4236378164239
 30
0.0
 11
13.99633512436341
 21
-49.9236378164239
 31
0.0
  0
LINE
  5
444
330
1F
100
AcDbEntity
  8
1
  6
Continuous
 62
     4
100
AcDbLine
 10
8.35262262436341
 20
-42.4236378164239
 30
0.0
 11
9.44176012436341
 21
-42.4236378164239
 31
0.0
  0
LINE
  5
445
330
1F
100
AcDbEntity
  8
1
  6
Continuous
 62
     4
100
AcDbLine
 10
8.35262262436341
 20
-49.9236378164239
 30
0.0
 11
8.35262262436341
 21
-42.4236378164239
 31
0.0
  0
LINE
  5
446
330
1F
100
AcDbEntity
  8
1
  6
Continuous
 62
     4
100
AcDbLine
 10
4.0950851243634
 20
-50.2986378164239
 30
0.0
 11
3.3029851243634
 21
-49.6736378164239
 31
0.0
  0
LINE
  5
447
330
1F
100
AcDbEntity
  8
1
  6
Continuous
 62
     4
100
AcDbLine
 10
4.5901476243634
 20
-49.2986378164239
 30
0.0
 11
4.0950851243634
 21
-50.2986378164239
 31
0.0
  0
LINE
  5
448
330
1F
100
AcDbEntity
  8
1
  6
Continuous
 62
     4
100
AcDbLine
 10
4.9861976243634
 20
-47.7986378164239
 30
0.0
 11
4.5901476243634
 21
-49.2986378164239
 31
0.0
  0
LINE
  5
449
330
1F
100
AcDbEntity
  8
1
  6
Continuous
 62
     4
100
AcDbLine
 10
5.4812601243634
 20
-45.5486378164239
 30
0.0
 11
4.9861976243634
 21
-47.7986378164239
 31
0.0
  0
LINE
  5
44A
330
1F
100
AcDbEntity
  8
1
  6
Continuous
 62
     4
100
AcDbLine
 10
5.4812601243634
 20
-44.6736378164239
 30
0.0
 11
5.4812601243634
 21
-45.5486378164239
 31
0.0
  0
LINE
  5
44B
330
1F
100
AcDbEntity
  8
1
  6
Continuous
 62
     4
100
AcDbLine
 10
2.6098976243634
 20
-44.6736378164239
 30
0.0
 11
5.4812601243634
 21
-44.6736378164239
 31
0.0
  0
LINE
  5
44C
330
1F
100
AcDbEntity
  8
1
  6
Continuous
 62
     4
100
AcDbLine
 10
-0.0634398756366
 20
-42.1736378164239
 30
0.0
 11
6.5703976243634
 21
-42.1736378164239
 31
0.0
  0
LINE
  5
44D
330
1F
100
AcDbEntity
  8
1
  6
Continuous
 62
     4
100
AcDbLine
 10
2.8079226243634
 20
-43.0486378164239
 30
0.0
 11
3.0059476243634
 21
-40.5486378164239
 31
0.0
  0
LINE
  5
44E
330
1F
100
AcDbEntity
  8
1
  6
Continuous
 62
     4
100
AcDbLine
 10
2.4118726243634
 20
-45.5486378164239
 30
0.0
 11
2.8079226243634
 21
-43.0486378164239
 31
0.0
  0
LINE
  5
44F
330
1F
100
AcDbEntity
  8
1
  6
Continuous
 62
     4
100
AcDbLine
 10
1.9168101243634
 20
-47.1736378164239
 30
0.0
 11
2.4118726243634
 21
-45.5486378164239
 31
0.0
  0
LINE
  5
450
330
1F
100
AcDbEntity
  8
1
  6
Continuous
 62
     4
100
AcDbLine
 10
1.3227351243634
 20
-48.6736378164239
 30
0.0
 11
1.9168101243634
 21
-47.1736378164239
 31
0.0
  0
LINE
  5
451
330
1F
100
AcDbEntity
  8
1
  6
Continuous
 62
     4
100
AcDbLine
 10
0.4316226243634
 20
-49.9236378164239
 30
0.0
 11
1.3227351243634
 21
-48.6736378164239
 31
0.0
  0
LINE
  5
452
330
1F
100
AcDbEntity
  8
1
  6
Continuous
 62
     4
100
AcDbLine
 10
-2.2417148756366
 20
-47.1736378164239
 30
0.0
 11
-1.1525773756366
 21
-48.6736378164239
 31
0.0
  0
LINE
  5
453
330
1F
100
AcDbEntity
  8
1
  6
Continuous
 62
     4
100
AcDbLine
 10
-3.1328273756366
 20
-45.2986378164239
 30
0.0
 11
-2.2417148756366
 21
-47.1736378164239
 31
0.0
  0
LINE
  5
454
330
1F
100
AcDbEntity
  8
1
  6
Continuous
 62
     4
100
AcDbLine
 10
-3.8259148756366
 20
-43.0486378164239
 30
0.0
 11
-3.1328273756366
 21
-45.2986378164239
 31
0.0
  0
LINE
  5
455
330
1F
100
AcDbEntity
  8
1
  6
Continuous
 62
     4
100
AcDbLine
 10
-1.8456648756366
 20
-42.7986378164239
 30
0.0
 11
-3.3308523756366
 21
-44.2986378164239
 31
0.0
  0
LINE
  5
456
330
1F
100
AcDbEntity
  8
1
  6
Continuous
 62
     4
100
AcDbLine
 10
-4.4199898756366
 20
-50.2986378164239
 30
0.0
 11
-5.1130773756366
 21
-49.9236378164239
 31
0.0
  0
LINE
  5
457
330
1F
100
AcDbEntity
  8
1
  6
Continuous
 62
     4
100
AcDbLine
 10
-4.4199898756366
 20
-40.5486378164239
 30
0.0
 11
-4.4199898756366
 21
-50.2986378164239
 31
0.0
  0
LINE
  5
458
330
1F
100
AcDbEntity
  8
1
  6
Continuous
 62
     4
100
AcDbLine
 10
-5.5091273756366
 20
-43.6736378164239
 30
0.0
 11
-7.7864148756366
 21
-43.6736378164239
 31
0.0
  0
LINE
  5
459
330
1F
100
AcDbEntity
  8
1
  6
Continuous
 62
     4
100
AcDbLine
 10
-6.0041898756366
 20
-45.5486378164239
 30
0.0
 11
-5.5091273756366
 21
-43.6736378164239
 31
0.0
  0
LINE
  5
45A
330
1F
100
AcDbEntity
  8
1
  6
Continuous
 62
     4
100
AcDbLine
 10
-6.8953023756366
 20
-47.4236378164239
 30
0.0
 11
-6.0041898756366
 21
-45.5486378164239
 31
0.0
  0
LINE
  5
45B
330
1F
100
AcDbEntity
  8
1
  6
Continuous
 62
     4
100
AcDbLine
 10
-7.7864148756366
 20
-48.6736378164239
 30
0.0
 11
-6.8953023756366
 21
-47.4236378164239
 31
0.0
  0
LINE
  5
45C
330
1F
100
AcDbEntity
  8
1
  6
Continuous
 62
     4
100
AcDbLine
 10
-12.1429648756366
 20
-41.7986378164239
 30
0.0
 11
-9.4696273756366
 21
-41.7986378164239
 31
0.0
  0
LINE
  5
45D
330
1F
100
AcDbEntity
  8
1
  6
Continuous
 62
     4
100
AcDbLine
 10
-9.0735773756366
 20
-49.2986378164239
 30
0.0
 11
-9.0735773756366
 21
-48.6736378164239
 31
0.0
  0
LINE
  5
45E
330
1F
100
AcDbEntity
  8
1
  6
Continuous
 62
     4
100
AcDbLine
 10
-9.4696273756366
 20
-49.9236378164239
 30
0.0
 11
-9.0735773756366
 21
-49.2986378164239
 31
0.0
  0
LINE
  5
45F
330
1F
100
AcDbEntity
  8
1
  6
Continuous
 62
     4
100
AcDbLine
 10
-10.3607398756366
 20
-49.9236378164239
 30
0.0
 11
-9.4696273756366
 21
-49.9236378164239
 31
0.0
  0
LINE
  5
460
330
1F
100
AcDbEntity
  8
1
  6
Continuous
 62
     4
100
AcDbLine
 10
-10.8558023756366
 20
-49.0486378164239
 30
0.0
 11
-10.3607398756366
 21
-49.9236378164239
 31
0.0
  0
LINE
  5
461
330
1F
100
AcDbEntity
  8
1
  6
Continuous
 62
     4
100
AcDbLine
 10
-10.8558023756366
 20
-45.9236378164239
 30
0.0
 11
-10.8558023756366
 21
-49.0486378164239
 31
0.0
  0
LINE
  5
462
330
1F
100
AcDbEntity
  8
1
  6
Continuous
 62
     4
100
AcDbLine
 10
-12.1429648756366
 20
-49.9236378164239
 30
0.0
 11
-12.1429648756366
 21
-45.9236378164239
 31
0.0
  0
LINE
  5
463
330
1F
100
AcDbEntity
  8
1
  6
Continuous
 62
     4
100
AcDbLine
 10
-14.1232148756366
 20
-49.6736378164239
 30
0.0
 11
-14.8163023756366
 21
-50.2986378164239
 31
0.0
  0
LINE
  5
464
330
1F
100
AcDbEntity
  8
1
  6
Continuous
 62
     4
100
AcDbLine
 10
-13.7271648756366
 20
-49.0486378164239
 30
0.0
 11
-14.1232148756366
 21
-49.6736378164239
 31
0.0
  0
LINE
  5
465
330
1F
100
AcDbEntity
  8
1
  6
Continuous
 62
     4
100
AcDbLine
 10
-13.4301273756366
 20
-48.0486378164239
 30
0.0
 11
-13.7271648756366
 21
-49.0486378164239
 31
0.0
  0
LINE
  5
466
330
1F
100
AcDbEntity
  8
1
  6
Continuous
 62
     4
100
AcDbLine
 10
-13.2321023756366
 20
-45.9236378164239
 30
0.0
 11
-13.4301273756366
 21
-48.0486378164239
 31
0.0
  0
LINE
  5
467
330
1F
100
AcDbEntity
  8
1
  6
Continuous
 62
     4
100
AcDbLine
 10
-11.0538273756366
 20
-42.7986378164239
 30
0.0
 11
-10.1627148756366
 21
-44.9236378164239
 31
0.0
  0
LINE
  5
468
330
1F
100
AcDbEntity
  8
1
  6
Continuous
 62
     4
100
AcDbLine
 10
-13.9251898756366
 20
-44.2986378164239
 30
0.0
 11
-10.5587648756366
 21
-44.0486378164239
 31
0.0
  0
LINE
  5
469
330
1F
100
AcDbEntity
  8
1
  6
Continuous
 62
     4
100
AcDbLine
 10
-12.1429648756366
 20
-41.7986378164239
 30
0.0
 11
-13.0340773756366
 21
-44.2986378164239
 31
0.0
  0
LINE
  5
46A
330
1F
100
AcDbEntity
  8
1
  6
Continuous
 62
     4
100
AcDbLine
 10
-11.9449398756366
 20
-40.2986378164239
 30
0.0
 11
-11.9449398756366
 21
-41.7986378164239
 31
0.0
  0
LINE
  5
46B
330
1F
100
AcDbEntity
  8
1
  6
Continuous
 62
     4
100
AcDbLine
 10
-14.3212398756366
 20
-41.7986378164239
 30
0.0
 11
-12.1429648756366
 21
-41.7986378164239
 31
0.0
  0
LINE
  5
46C
330
1F
100
AcDbEntity
  8
1
  6
Continuous
 62
     4
100
AcDbLine
 10
-15.9054398756366
 20
-49.9236378164239
 30
0.0
 11
-15.0143273756366
 21
-45.9236378164239
 31
0.0
  0
LINE
  5
46D
330
1F
100
AcDbEntity
  8
1
  6
Continuous
 62
     4
100
AcDbLine
 10
-16.1034648756366
 20
-43.4236378164239
 30
0.0
 11
-15.4103773756366
 21
-44.2986378164239
 31
0.0
  0
LINE
  5
46E
330
1F
100
AcDbEntity
  8
1
  6
Continuous
 62
     4
100
AcDbLine
 10
-15.4103773756366
 20
-40.5486378164239
 30
0.0
 11
-15.0143273756366
 21
-41.5486378164239
 31
0.0
  0
LINE
  5
482
330
1F
100
AcDbEntity
  8
1
  6
Continuous
 62
     4
100
AcDbLine
 10
28.5554063158658
 20
-15.123583871982
 30
0.0
 11
26.1992816925049
 21
-13.1000108718872
 31
0.0
  0
LINE
  5
483
330
1F
100
AcDbEntity
  8
1
  6
Continuous
 62
     4
100
AcDbLine
 10
27.2279589707701
 20
-16.0305388080621
 30
0.0
 11
26.1992816925049
 21
-13.1000108718872
 31
0.0
  0
LINE
  5
484
330
1F
100
AcDbEntity
  8
1
  6
Continuous
 62
     3
100
AcDbLine
 10
163.6
 20
159.0
 30
0.0
 11
163.6
 21
59.0
 31
0.0
  0
LINE
  5
485
330
1F
100
AcDbEntity
  8
1
  6
DOT_CENTER
 62
     1
100
AcDbLine
 10
0.0
 20
448.0
 30
0.0
 11
0.0
 21
-36.5
 31
0.0
  0
LINE
  5
486
330
1F
100
AcDbEntity
  8
1
  6
DOT_CENTER
 62
     1
100
AcDbLine
 10
-37.5
 20
0.0
 30
0.0
 11
37.5
 21
0.0
 31
0.0
  0
LINE
  5
487
330
1F
100
AcDbEntity
  8
100
  6
Continuous
 62
     3
100
AcDbLine
 10
-17.0
 20
59.0
 30
0.0
 11
17.0
 21
59.0
 31
0.0
  0
LINE
  5
488
330
1F
100
AcDbEntity
  8
100
  6
Continuous
 62
     3
100
AcDbLine
 10
-21.0
 20
52.0
 30
0.0
 11
21.0
 21
52.0
 31
0.0
  0
LINE
  5
489
330
1F
100
AcDbEntity
  8
100
  6
Continuous
 62
     3
100
AcDbLine
 10
17.0
 20
59.0
 30
0.0
 11
17.0
 21
52.0
 31
0.0
  0
LINE
  5
48A
330
1F
100
AcDbEntity
  8
100
  6
Continuous
 62
     3
100
AcDbLine
 10
-17.0
 20
59.0
 30
0.0
 11
-17.0
 21
52.0
 31
0.0
  0
LINE
  5
48B
330
1F
100
AcDbEntity
  8
100
  6
Continuous
 62
     3
100
AcDbLine
 10
-16.0
 20
-20.5
 30
0.0
 11
16.0
 21
-20.5
 31
0.0
  0
LINE
  5
48C
330
1F
100
AcDbEntity
  8
100
  6
Continuous
 62
     3
100
AcDbLine
 10
16.0
 20
-20.5
 30
0.0
 11
16.0
 21
-31.5
 31
0.0
  0
LINE
  5
48D
330
1F
100
AcDbEntity
  8
100
  6
Continuous
 62
     3
100
AcDbLine
 10
-16.0
 20
-20.5
 30
0.0
 11
-16.0
 21
-31.5
 31
0.0
  0
LINE
  5
48E
330
1F
100
AcDbEntity
  8
100
  6
Continuous
 62
     3
100
AcDbLine
 10
-16.0
 20
-31.5
 30
0.0
 11
16.0
 21
-31.5
 31
0.0
  0
LINE
  5
48F
330
1F
100
AcDbEntity
  8
100
  6
Continuous
 62
     3
100
AcDbLine
 10
13.6
 20
367.0
 30
0.0
 11
13.6
 21
166.0
 31
0.0
  0
LINE
  5
490
330
1F
100
AcDbEntity
  8
100
  6
Continuous
 62
     3
100
AcDbLine
 10
13.6
 20
159.0
 30
0.0
 11
13.6
 21
59.0
 31
0.0
  0
LINE
  5
491
330
1F
100
AcDbEntity
  8
100
  6
Continuous
 62
     3
100
AcDbLine
 10
-13.6
 20
367.0
 30
0.0
 11
-13.6
 21
166.0
 31
0.0
  0
LINE
  5
492
330
1F
100
AcDbEntity
  8
100
  6
Continuous
 62
     3
100
AcDbLine
 10
-13.6
 20
159.0
 30
0.0
 11
-13.6
 21
59.0
 31
0.0
  0
LINE
  5
493
330
1F
100
AcDbEntity
  8
100
  6
Continuous
 62
     3
100
AcDbLine
 10
6.0
 20
406.0
 30
0.0
 11
6.0
 21
423.0
 31
0.0
  0
LINE
  5
494
330
1F
100
AcDbEntity
  8
100
  6
Continuous
 62
     3
100
AcDbLine
 10
-6.0
 20
406.0
 30
0.0
 11
-6.0
 21
423.0
 31
0.0
  0
LINE
  5
495
330
1F
100
AcDbEntity
  8
100
  6
Continuous
 62
     3
100
AcDbLine
 10
21.0
 20
52.0
 30
0.0
 11
21.0
 21
24.0
 31
0.0
  0
LINE
  5
496
330
1F
100
AcDbEntity
  8
100
  6
Continuous
 62
     3
100
AcDbLine
 10
-21.0
 20
52.0
 30
0.0
 11
-21.0
 21
24.0
 31
0.0
  0
LINE
  5
497
330
1F
100
AcDbEntity
  8
100
  6
Continuous
 62
     3
100
AcDbLine
 10
-21.0
 20
24.0
 30
0.0
 11
21.0
 21
24.0
 31
0.0
  0
LINE
  5
498
330
1F
100
AcDbEntity
  8
3
  6
CENTER
 62
     6
100
AcDbLine
 10
-12.8713538180065
 20
435.0
 30
0.0
 11
-26.7440173077684
 21
430.7856795241
 31
0.0
  0
LINE
  5
499
330
1F
100
AcDbEntity
  8
3
  6
CENTER
 62
     6
100
AcDbLine
 10
-31.0
 20
424.544738518463
 30
0.0
 11
-31.0155233166014
 21
415.0
 31
0.0
  0
LINE
  5
49A
330
1F
100
AcDbEntity
  8
3
  6
CENTER
 62
     6
100
AcDbLine
 10
-31.0155233166014
 20
415.0
 30
0.0
 11
30.9844766833986
 21
415.0
 31
0.0
  0
LINE
  5
49B
330
1F
100
AcDbEntity
  8
3
  6
CENTER
 62
     6
100
AcDbLine
 10
31.0
 20
424.544738518463
 30
0.0
 11
30.9844766833986
 21
415.0
 31
0.0
  0
LINE
  5
49C
330
1F
100
AcDbEntity
  8
3
  6
CENTER
 62
     6
100
AcDbLine
 10
12.8713538180065
 20
435.0
 30
0.0
 11
26.744017307768
 21
430.7856795241
 31
0.0
  0
LINE
  5
49D
330
1F
100
AcDbEntity
  8
3
  6
CENTER
 62
     6
100
AcDbLine
 10
-12.8713538180065
 20
435.0
 30
0.0
 11
12.8713538180065
 21
435.0
 31
0.0
  0
LINE
  5
49E
330
1F
100
AcDbEntity
  8
100
  6
Continuous
 62
     3
100
AcDbLine
 10
-12.8713538180065
 20
443.0
 30
0.0
 11
-26.7440173077684
 21
438.7856795241
 31
0.0
  0
LINE
  5
49F
330
1F
100
AcDbEntity
  8
100
  6
Continuous
 62
     3
100
AcDbLine
 10
-31.0
 20
433.044738518463
 30
0.0
 11
-31.0
 21
423.0
 31
0.0
  0
LINE
  5
4A0
330
1F
100
AcDbEntity
  8
100
  6
Continuous
 62
     3
100
AcDbLine
 10
-31.0
 20
423.0
 30
0.0
 11
31.0
 21
423.0
 31
0.0
  0
LINE
  5
4A1
330
1F
100
AcDbEntity
  8
100
  6
Continuous
 62
     3
100
AcDbLine
 10
-12.8713538180065
 20
443.0
 30
0.0
 11
12.8713538180065
 21
443.0
 31
0.0
  0
LINE
  5
4A2
330
1F
100
AcDbEntity
  8
100
  6
Continuous
 62
     3
100
AcDbLine
 10
-24.05095597478
 20
433.044738518463
 30
0.0
 11
-24.05095597478
 21
425.0
 31
0.0
  0
LINE
  5
4A3
330
1F
100
AcDbEntity
  8
100
  6
Continuous
 62
     3
100
AcDbLine
 10
31.0
 20
433.044738518463
 30
0.0
 11
31.0
 21
423.0
 31
0.0
  0
LINE
  5
4A4
330
1F
100
AcDbEntity
  8
100
  6
Continuous
 62
     3
100
AcDbLine
 10
12.8713538180065
 20
443.0
 30
0.0
 11
26.744017307768
 21
438.7856795241
 31
0.0
  0
LINE
  5
4A5
330
1F
100
AcDbEntity
  8
100
  6
Continuous
 62
     3
100
AcDbLine
 10
24.05095597478
 20
433.044738518463
 30
0.0
 11
24.05095597478
 21
425.0
 31
0.0
  0
LINE
  5
4A6
330
1F
100
AcDbEntity
  8
100
  6
Continuous
 62
     3
100
AcDbLine
 10
-13.0
 20
389.999999999999
 30
0.0
 11
-17.5
 21
387.401923788647
 31
0.0
  0
LINE
  5
4A7
330
1F
100
AcDbEntity
  8
100
  6
Continuous
 62
     3
100
AcDbLine
 10
-17.5
 20
387.401923788647
 30
0.0
 11
-17.5
 21
367.0
 31
0.0
  0
LINE
  5
4A8
330
1F
100
AcDbEntity
  8
100
  6
Continuous
 62
     3
100
AcDbLine
 10
17.5
 20
367.0
 30
0.0
 11
-17.5
 21
367.0
 31
0.0
  0
LINE
  5
4A9
330
1F
100
AcDbEntity
  8
100
  6
Continuous
 62
     3
100
AcDbLine
 10
17.5
 20
387.401923788647
 30
0.0
 11
17.5
 21
367.0
 31
0.0
  0
LINE
  5
4AA
330
1F
100
AcDbEntity
  8
100
  6
Continuous
 62
     3
100
AcDbLine
 10
13.0
 20
389.999999999999
 30
0.0
 11
17.5
 21
387.401923788647
 31
0.0
  0
LINE
  5
4AB
330
1F
100
AcDbEntity
  8
100
  6
Continuous
 62
     3
100
AcDbLine
 10
13.0
 20
406.0
 30
0.0
 11
13.0
 21
389.999999999999
 31
0.0
  0
LINE
  5
4AC
330
1F
100
AcDbEntity
  8
100
  6
Continuous
 62
     3
100
AcDbLine
 10
13.0
 20
406.0
 30
0.0
 11
-13.0
 21
406.0
 31
0.0
  0
LINE
  5
4AD
330
1F
100
AcDbEntity
  8
100
  6
Continuous
 62
     3
100
AcDbLine
 10
-13.0
 20
406.0
 30
0.0
 11
-13.0
 21
389.999999999999
 31
0.0
  0
LINE
  5
4AE
330
1F
100
AcDbEntity
  8
100
  6
Continuous
 62
     3
100
AcDbLine
 10
-10.3120447408616
 20
367.0
 30
0.0
 11
-10.3120447408616
 21
387.401923788647
 31
0.0
  0
LINE
  5
4AF
330
1F
100
AcDbEntity
  8
100
  6
Continuous
 62
     3
100
AcDbLine
 10
-7.0887234393789
 20
367.0
 30
0.0
 11
-7.0887234393789
 21
387.401923788647
 31
0.0
  0
LINE
  5
4B0
330
1F
100
AcDbEntity
  8
100
  6
Continuous
 62
     3
100
AcDbLine
 10
7.0887234393789
 20
367.0
 30
0.0
 11
7.0887234393789
 21
387.401923788647
 31
0.0
  0
LINE
  5
4B1
330
1F
100
AcDbEntity
  8
100
  6
Continuous
 62
     3
100
AcDbLine
 10
10.3120447408616
 20
367.0
 30
0.0
 11
10.3120447408616
 21
387.401923788647
 31
0.0
  0
LINE
  5
4B2
330
1F
100
AcDbEntity
  8
100
  6
Continuous
 62
     3
100
AcDbLine
 10
-17.5
 20
387.401923788647
 30
0.0
 11
17.5
 21
387.401923788647
 31
0.0
  0
LINE
  5
4B3
330
1F
100
AcDbEntity
  8
100
  6
Continuous
 62
     3
100
AcDbLine
 10
-13.0
 20
389.999999999999
 30
0.0
 11
13.0
 21
389.999999999999
 31
0.0
  0
LINE
  5
4B4
330
1F
100
AcDbEntity
  8
100
  6
Continuous
 62
     3
100
AcDbLine
 10
18.0
 20
-11.5
 30
0.0
 11
19.9
 21
-11.5
 31
0.0
  0
LINE
  5
4B5
330
1F
100
AcDbEntity
  8
100
  6
Continuous
 62
     3
100
AcDbLine
 10
-15.0
 20
21.9999995465329
 30
0.0
 11
-15.0
 21
-17.0
 31
0.0
  0
LINE
  5
4B6
330
1F
100
AcDbEntity
  8
100
  6
Continuous
 62
     3
100
AcDbLine
 10
-12.5
 20
24.0
 30
0.0
 11
-12.5
 21
21.9999996221108
 31
0.0
  0
LINE
  5
4B7
330
1F
100
AcDbEntity
  8
100
  6
Continuous
 62
     3
100
AcDbLine
 10
12.5
 20
24.0
 30
0.0
 11
12.5
 21
22.0000003778893
 31
0.0
  0
LINE
  5
4B8
330
1F
100
AcDbEntity
  8
100
  6
Continuous
 62
     3
100
AcDbLine
 10
32.5
 20
13.1
 30
0.0
 11
32.5
 21
-13.1
 31
0.0
  0
LINE
  5
4B9
330
1F
100
AcDbEntity
  8
100
  6
Continuous
 62
     3
100
AcDbLine
 10
32.5
 20
13.1
 30
0.0
 11
21.5
 21
13.1
 31
0.0
  0
LINE
  5
4BA
330
1F
100
AcDbEntity
  8
1
  6
Continuous
 62
     3
100
AcDbLine
 10
32.5
 20
12.0585
 30
0.0
 11
20.4585
 21
12.0585
 31
0.0
  0
LINE
  5
4BB
330
1F
100
AcDbEntity
  8
100
  6
Continuous
 62
     3
100
AcDbLine
 10
15.0
 20
22.0000004534672
 30
0.0
 11
15.0
 21
-17.0
 31
0.0
  0
LINE
  5
4BC
330
1F
100
AcDbEntity
  8
100
  6
Continuous
 62
     3
100
AcDbLine
 10
19.9
 20
11.5
 30
0.0
 11
18.0
 21
11.5
 31
0.0
  0
LINE
  5
4BD
330
1F
100
AcDbEntity
  8
100
  6
Continuous
 62
     3
100
AcDbLine
 10
32.5
 20
-13.1
 30
0.0
 11
21.5
 21
-13.1
 31
0.0
  0
LINE
  5
4BE
330
1F
100
AcDbEntity
  8
1
  6
Continuous
 62
     3
100
AcDbLine
 10
32.5
 20
-12.0585
 30
0.0
 11
20.4585
 21
-12.0585
 31
0.0
  0
LINE
  5
4BF
330
1F
100
AcDbEntity
  8
100
  6
Continuous
 62
     3
100
AcDbLine
 10
-11.5
 20
-18.75
 30
0.0
 11
-11.5
 21
-20.5
 31
0.0
  0
LINE
  5
4C0
330
1F
100
AcDbEntity
  8
100
  6
Continuous
 62
     3
100
AcDbLine
 10
11.5
 20
-18.75
 30
0.0
 11
11.5
 21
-20.5
 31
0.0
  0
LINE
  5
4C1
330
1F
100
AcDbEntity
  8
100
  6
Continuous
 62
     3
100
AcDbLine
 10
165.0
 20
22.000000446169
 30
0.0
 11
165.0
 21
-17.0
 31
0.0
  0
LINE
  5
4C2
330
1F
100
AcDbEntity
  8
1
  6
DOT_CENTER
 62
     1
100
AcDbLine
 10
126.0
 20
0.0
 30
0.0
 11
174.0
 21
0.0
 31
0.0
  0
LINE
  5
4C3
330
1F
100
AcDbEntity
  8
100
  6
Continuous
 62
     3
100
AcDbLine
 10
169.0
 20
6.0
 30
0.0
 11
169.0
 21
-6.0
 31
0.0
  0
LINE
  5
4C4
330
1F
100
AcDbEntity
  8
100
  6
Continuous
 62
     3
100
AcDbLine
 10
135.0
 20
-17.0
 30
0.0
 11
165.0
 21
-17.0
 31
0.0
  0
LINE
  5
4C5
330
1F
100
AcDbEntity
  8
100
  6
Continuous
 62
     3
100
AcDbLine
 10
169.0
 20
-6.0
 30
0.0
 11
165.0
 21
-17.0
 31
0.0
  0
LINE
  5
4C6
330
1F
100
AcDbEntity
  8
100
  6
Continuous
 62
     3
100
AcDbLine
 10
135.0
 20
17.0
 30
0.0
 11
131.0
 21
6.0
 31
0.0
  0
LINE
  5
4C7
330
1F
100
AcDbEntity
  8
100
  6
Continuous
 62
     3
100
AcDbLine
 10
131.0
 20
6.0
 30
0.0
 11
131.0
 21
-6.0
 31
0.0
  0
LINE
  5
4C8
330
1F
100
AcDbEntity
  8
100
  6
Continuous
 62
     3
100
AcDbLine
 10
131.0
 20
-6.0
 30
0.0
 11
135.0
 21
-17.0
 31
0.0
  0
LINE
  5
4C9
330
1F
100
AcDbEntity
  8
100
  6
Continuous
 62
     3
100
AcDbLine
 10
135.0
 20
21.9999995538311
 30
0.0
 11
135.0
 21
-17.0
 31
0.0
  0
LINE
  5
4CA
330
1F
100
AcDbEntity
  8
100
  6
Continuous
 62
     3
100
AcDbLine
 10
135.0
 20
17.0
 30
0.0
 11
165.0
 21
17.0
 31
0.0
  0
LINE
  5
4CB
330
1F
100
AcDbEntity
  8
1
  6
DOT_CENTER
 62
     1
100
AcDbLine
 10
37.5
 20
511.5
 30
0.0
 11
-37.5
 21
511.5
 31
0.0
  0
LINE
  5
4CC
330
1F
100
AcDbEntity
  8
1
  6
DOT_CENTER
 62
     1
100
AcDbLine
 10
0.0
 20
475.500000000001
 30
0.0
 11
0.0
 21
547.499999999999
 31
0.0
  0
LINE
  5
4CD
330
1F
100
AcDbEntity
  8
100
  6
Continuous
 62
     3
100
AcDbLine
 10
32.5
 20
524.6
 30
0.0
 11
32.5
 21
498.4
 31
0.0
  0
LINE
  5
4CE
330
1F
100
AcDbEntity
  8
100
  6
Continuous
 62
     3
100
AcDbLine
 10
32.5
 20
498.4
 30
0.0
 11
23.4423522877764
 21
498.4
 31
0.0
  0
LINE
  5
4CF
330
1F
100
AcDbEntity
  8
1
  6
Continuous
 62
     3
100
AcDbLine
 10
32.3415
 20
499.4415
 30
0.0
 11
23.5004275087685
 21
499.4415
 31
0.0
  0
LINE
  5
4D0
330
1F
100
AcDbEntity
  8
100
  6
Continuous
 62
     3
100
AcDbLine
 10
-32.5
 20
524.6
 30
0.0
 11
-32.5
 21
498.4
 31
0.0
  0
LINE
  5
4D1
330
1F
100
AcDbEntity
  8
100
  6
Continuous
 62
     3
100
AcDbLine
 10
-32.5
 20
498.4
 30
0.0
 11
-23.4423599171709
 21
498.4
 31
0.0
  0
LINE
  5
4D2
330
1F
100
AcDbEntity
  8
1
  6
Continuous
 62
     3
100
AcDbLine
 10
-32.3415
 20
499.4415
 30
0.0
 11
-23.500435138163
 21
499.4415
 31
0.0
  0
LINE
  5
4D3
330
1F
100
AcDbEntity
  8
100
  6
Continuous
 62
     3
100
AcDbLine
 10
169.0
 20
6.0
 30
0.0
 11
165.0
 21
17.0
 31
0.0
  0
LINE
  5
4D4
330
1F
100
AcDbEntity
  8
2
  6
Continuous
 62
     3
100
AcDbLine
 10
-9.0
 20
-5.0
 30
0.0
 11
-1.5
 21
-5.0
 31
0.0
  0
LINE
  5
4D5
330
1F
100
AcDbEntity
  8
2
  6
Continuous
 62
     3
100
AcDbLine
 10
9.0
 20
-1.5
 30
0.0
 11
-6.89999999999998
 21
-1.5
 31
0.0
  0
LINE
  5
4D6
330
1F
100
AcDbEntity
  8
2
  6
Continuous
 62
     3
100
AcDbLine
 10
-6.89999999999998
 20
-1.5
 30
0.0
 11
-9.0
 21
-5.0
 31
0.0
  0
LINE
  5
4D7
330
1F
100
AcDbEntity
  8
2
  6
Continuous
 62
     3
100
AcDbLine
 10
-1.5
 20
-5.0
 30
0.0
 11
0.60000000000002
 21
-1.5
 31
0.0
  0
LINE
  5
4D8
330
1F
100
AcDbEntity
  8
2
  6
Continuous
 62
     3
100
AcDbLine
 10
9.0
 20
-1.5
 30
0.0
 11
4.5
 21
-5.0
 31
0.0
  0
LINE
  5
4D9
330
1F
100
AcDbEntity
  8
100
  6
Continuous
 62
     3
100
AcDbLine
 10
-15.0
 20
21.9999995465329
 30
0.0
 11
15.0
 21
22.0000004534672
 31
0.0
  0
LINE
  5
4DA
330
1F
100
AcDbEntity
  8
100
  6
Continuous
 62
     3
100
AcDbLine
 10
15.0
 20
-17.0
 30
0.0
 11
-15.0
 21
-17.0
 31
0.0
  0
LINE
  5
4DB
330
1F
100
AcDbEntity
  8
100
  6
Continuous
 62
     3
100
AcDbLine
 10
-10.0
 20
-6.0
 30
0.0
 11
-10.0
 21
6.0
 31
0.0
  0
LINE
  5
4DC
330
1F
100
AcDbEntity
  8
100
  6
Continuous
 62
     3
100
AcDbLine
 10
10.0
 20
-6.0
 30
0.0
 11
10.0
 21
6.0
 31
0.0
  0
LINE
  5
4DD
330
1F
100
AcDbEntity
  8
100
  6
Continuous
 62
     3
100
AcDbLine
 10
-10.0
 20
6.0
 30
0.0
 11
10.0
 21
6.0
 31
0.0
  0
LINE
  5
4DE
330
1F
100
AcDbEntity
  8
100
  6
Continuous
 62
     3
100
AcDbLine
 10
-10.0
 20
-6.0
 30
0.0
 11
10.0
 21
-6.0
 31
0.0
  0
LINE
  5
4DF
330
1F
100
AcDbEntity
  8
100
  6
Continuous
 62
     3
100
AcDbLine
 10
-15.0
 20
17.0
 30
0.0
 11
-10.0
 21
6.0
 31
0.0
  0
LINE
  5
4E0
330
1F
100
AcDbEntity
  8
100
  6
Continuous
 62
     3
100
AcDbLine
 10
10.0
 20
6.0
 30
0.0
 11
15.0
 21
17.0
 31
0.0
  0
LINE
  5
4E1
330
1F
100
AcDbEntity
  8
100
  6
Continuous
 62
     3
100
AcDbLine
 10
10.0
 20
-6.0
 30
0.0
 11
15.0
 21
-17.0
 31
0.0
  0
LINE
  5
4E2
330
1F
100
AcDbEntity
  8
100
  6
Continuous
 62
     3
100
AcDbLine
 10
-10.0
 20
-6.0
 30
0.0
 11
-15.0
 21
-17.0
 31
0.0
  0
LINE
  5
4E3
330
1F
100
AcDbEntity
  8
100
  6
Continuous
 62
     3
100
AcDbLine
 10
-15.0
 20
17.0
 30
0.0
 11
15.0
 21
17.0
 31
0.0
  0
LINE
  5
4E4
330
1F
100
AcDbEntity
  8
100
  6
Continuous
 62
     3
100
AcDbLine
 10
21.5
 20
13.1
 30
0.0
 11
19.9
 21
11.5
 31
0.0
  0
LINE
  5
4E5
330
1F
100
AcDbEntity
  8
100
  6
Continuous
 62
     3
100
AcDbLine
 10
18.0
 20
11.5
 30
0.0
 11
15.0
 21
14.5
 31
0.0
  0
LINE
  5
4E6
330
1F
100
AcDbEntity
  8
100
  6
Continuous
 62
     3
100
AcDbLine
 10
15.0
 20
-14.5
 30
0.0
 11
18.0
 21
-11.5
 31
0.0
  0
LINE
  5
4E7
330
1F
100
AcDbEntity
  8
100
  6
Continuous
 62
     3
100
AcDbLine
 10
19.9
 20
-11.5
 30
0.0
 11
21.5
 21
-13.1
 31
0.0
  0
LINE
  5
4E8
330
1F
100
AcDbEntity
  8
100
  6
Continuous
 62
     3
100
AcDbLine
 10
21.5
 20
13.1
 30
0.0
 11
21.5
 21
-13.1
 31
0.0
  0
LINE
  5
4E9
330
1F
100
AcDbEntity
  8
100
  6
Continuous
 62
     3
100
AcDbLine
 10
-19.9
 20
11.5
 30
0.0
 11
-18.0
 21
11.5
 31
0.0
  0
LINE
  5
4EA
330
1F
100
AcDbEntity
  8
100
  6
Continuous
 62
     3
100
AcDbLine
 10
-32.5
 20
13.1
 30
0.0
 11
-21.5
 21
13.1
 31
0.0
  0
LINE
  5
4EB
330
1F
100
AcDbEntity
  8
100
  6
Continuous
 62
     3
100
AcDbLine
 10
-32.5
 20
13.1
 30
0.0
 11
-32.5
 21
-13.1
 31
0.0
  0
LINE
  5
4EC
330
1F
100
AcDbEntity
  8
100
  6
Continuous
 62
     3
100
AcDbLine
 10
-21.5
 20
13.1
 30
0.0
 11
-19.9
 21
11.5
 31
0.0
  0
LINE
  5
4ED
330
1F
100
AcDbEntity
  8
100
  6
Continuous
 62
     3
100
AcDbLine
 10
-18.0
 20
11.5
 30
0.0
 11
-15.0
 21
14.5
 31
0.0
  0
LINE
  5
4EE
330
1F
100
AcDbEntity
  8
1
  6
Continuous
 62
     3
100
AcDbLine
 10
-32.5
 20
12.0585
 30
0.0
 11
-20.4585
 21
12.0585
 31
0.0
  0
LINE
  5
4EF
330
1F
100
AcDbEntity
  8
100
  6
Continuous
 62
     3
100
AcDbLine
 10
-21.5
 20
13.1
 30
0.0
 11
-21.5
 21
-13.1
 31
0.0
  0
LINE
  5
4F0
330
1F
100
AcDbEntity
  8
100
  6
Continuous
 62
     3
100
AcDbLine
 10
-18.0
 20
-11.5
 30
0.0
 11
-19.9
 21
-11.5
 31
0.0
  0
LINE
  5
4F1
330
1F
100
AcDbEntity
  8
100
  6
Continuous
 62
     3
100
AcDbLine
 10
-32.5
 20
-13.1
 30
0.0
 11
-21.5
 21
-13.1
 31
0.0
  0
LINE
  5
4F2
330
1F
100
AcDbEntity
  8
100
  6
Continuous
 62
     3
100
AcDbLine
 10
-15.0
 20
-14.5
 30
0.0
 11
-18.0
 21
-11.5
 31
0.0
  0
LINE
  5
4F3
330
1F
100
AcDbEntity
  8
100
  6
Continuous
 62
     3
100
AcDbLine
 10
-19.9
 20
-11.5
 30
0.0
 11
-21.5
 21
-13.1
 31
0.0
  0
LINE
  5
4F4
330
1F
100
AcDbEntity
  8
1
  6
Continuous
 62
     3
100
AcDbLine
 10
-32.5
 20
-12.0585
 30
0.0
 11
-20.4585
 21
-12.0585
 31
0.0
  0
LINE
  5
4F5
330
1F
100
AcDbEntity
  8
100
  6
Continuous
 62
     3
100
AcDbLine
 10
-10.2064988753516
 20
-31.5
 30
0.0
 11
-10.2064988753516
 21
-20.5
 31
0.0
  0
LINE
  5
4F6
330
1F
100
AcDbEntity
  8
100
  6
Continuous
 62
     3
100
AcDbLine
 10
-5.56776436283002
 20
-31.5
 30
0.0
 11
-5.56776436283002
 21
-20.5
 31
0.0
  0
LINE
  5
4F7
330
1F
100
AcDbEntity
  8
100
  6
Continuous
 62
     3
100
AcDbLine
 10
5.56776436283002
 20
-31.5
 30
0.0
 11
5.56776436283002
 21
-20.5
 31
0.0
  0
LINE
  5
4F8
330
1F
100
AcDbEntity
  8
100
  6
Continuous
 62
     3
100
AcDbLine
 10
10.2064988753517
 20
-31.5
 30
0.0
 11
10.2064988753517
 21
-20.5
 31
0.0
  0
LINE
  5
4F9
330
1F
100
AcDbEntity
  8
100
  6
Continuous
 62
     3
100
AcDbLine
 10
11.5
 20
-18.75
 30
0.0
 11
13.25
 21
-17.0
 31
0.0
  0
LINE
  5
4FA
330
1F
100
AcDbEntity
  8
100
  6
Continuous
 62
     3
100
AcDbLine
 10
-11.5
 20
-18.75
 30
0.0
 11
-13.25
 21
-17.0
 31
0.0
  0
LINE
  5
4FB
330
1F
100
AcDbEntity
  8
100
  6
Continuous
 62
     3
100
AcDbLine
 10
165.0
 20
22.000000446169
 30
0.0
 11
135.0
 21
21.9999995538311
 31
0.0
  0
LINE
  5
4FC
330
1F
100
AcDbEntity
  8
100
  6
Continuous
 62
     3
100
AcDbLine
 10
135.0
 20
-20.5
 30
0.0
 11
165.0
 21
-20.5
 31
0.0
  0
LINE
  5
4FD
330
1F
100
AcDbEntity
  8
100
  6
Continuous
 62
     3
100
AcDbLine
 10
135.0
 20
-31.5
 30
0.0
 11
165.0
 21
-31.5
 31
0.0
  0
LINE
  5
4FE
330
1F
100
AcDbEntity
  8
100
  6
Continuous
 62
     3
100
AcDbLine
 10
135.0
 20
-20.5
 30
0.0
 11
135.0
 21
-31.5
 31
0.0
  0
LINE
  5
4FF
330
1F
100
AcDbEntity
  8
100
  6
Continuous
 62
     3
100
AcDbLine
 10
165.0
 20
-20.5
 30
0.0
 11
165.0
 21
-31.5
 31
0.0
  0
LINE
  5
500
330
1F
100
AcDbEntity
  8
100
  6
Continuous
 62
     3
100
AcDbLine
 10
147.321825380496
 20
-31.5
 30
0.0
 11
147.321825380496
 21
-20.5
 31
0.0
  0
LINE
  5
501
330
1F
100
AcDbEntity
  8
100
  6
Continuous
 62
     3
100
AcDbLine
 10
152.678174619503
 20
-31.5
 30
0.0
 11
152.678174619503
 21
-20.5
 31
0.0
  0
LINE
  5
502
330
1F
100
AcDbEntity
  8
100
  6
Continuous
 62
     3
100
AcDbLine
 10
162.321825380497
 20
-31.5
 30
0.0
 11
162.321825380497
 21
-20.5
 31
0.0
  0
LINE
  5
503
330
1F
100
AcDbEntity
  8
100
  6
Continuous
 62
     3
100
AcDbLine
 10
137.678174619504
 20
-31.5
 30
0.0
 11
137.678174619504
 21
-20.5
 31
0.0
  0
LINE
  5
504
330
1F
100
AcDbEntity
  8
100
  6
Continuous
 62
     3
100
AcDbLine
 10
161.5
 20
-18.75
 30
0.0
 11
161.5
 21
-20.5
 31
0.0
  0
LINE
  5
505
330
1F
100
AcDbEntity
  8
100
  6
Continuous
 62
     3
100
AcDbLine
 10
161.5
 20
-18.75
 30
0.0
 11
163.25
 21
-17.0
 31
0.0
  0
LINE
  5
506
330
1F
100
AcDbEntity
  8
100
  6
Continuous
 62
     3
100
AcDbLine
 10
138.5
 20
-18.75
 30
0.0
 11
138.5
 21
-20.5
 31
0.0
  0
LINE
  5
507
330
1F
100
AcDbEntity
  8
100
  6
Continuous
 62
     3
100
AcDbLine
 10
138.5
 20
-18.75
 30
0.0
 11
136.75
 21
-17.0
 31
0.0
  0
LINE
  5
508
330
1F
100
AcDbEntity
  8
1
  6
DOT_CENTER
 62
     1
100
AcDbLine
 10
150.0
 20
448.0
 30
0.0
 11
150.0
 21
-36.5
 31
0.0
  0
LINE
  5
509
330
1F
100
AcDbEntity
  8
100
  6
Continuous
 62
     3
100
AcDbLine
 10
163.6
 20
367.0
 30
0.0
 11
163.6
 21
166.0
 31
0.0
  0
LINE
  5
50A
330
1F
100
AcDbEntity
  8
100
  6
Continuous
 62
     3
100
AcDbLine
 10
136.4
 20
367.0
 30
0.0
 11
136.4
 21
166.0
 31
0.0
  0
LINE
  5
50B
330
1F
100
AcDbEntity
  8
100
  6
Continuous
 62
     3
100
AcDbLine
 10
136.4
 20
159.0
 30
0.0
 11
136.4
 21
59.0
 31
0.0
  0
LINE
  5
50C
330
1F
100
AcDbEntity
  8
100
  6
Continuous
 62
     3
100
AcDbLine
 10
129.0
 20
24.0
 30
0.0
 11
171.0
 21
24.0
 31
0.0
  0
LINE
  5
50D
330
1F
100
AcDbEntity
  8
100
  6
Continuous
 62
     3
100
AcDbLine
 10
171.0
 20
52.0
 30
0.0
 11
171.0
 21
24.0
 31
0.0
  0
LINE
  5
50E
330
1F
100
AcDbEntity
  8
100
  6
Continuous
 62
     3
100
AcDbLine
 10
129.0
 20
52.0
 30
0.0
 11
171.0
 21
52.0
 31
0.0
  0
LINE
  5
50F
330
1F
100
AcDbEntity
  8
100
  6
Continuous
 62
     3
100
AcDbLine
 10
129.0
 20
52.0
 30
0.0
 11
129.0
 21
24.0
 31
0.0
  0
LINE
  5
510
330
1F
100
AcDbEntity
  8
100
  6
Continuous
 62
     3
100
AcDbLine
 10
133.0
 20
59.0
 30
0.0
 11
133.0
 21
52.0
 31
0.0
  0
LINE
  5
511
330
1F
100
AcDbEntity
  8
100
  6
Continuous
 62
     3
100
AcDbLine
 10
133.0
 20
59.0
 30
0.0
 11
167.0
 21
59.0
 31
0.0
  0
LINE
  5
512
330
1F
100
AcDbEntity
  8
100
  6
Continuous
 62
     3
100
AcDbLine
 10
167.0
 20
59.0
 30
0.0
 11
167.0
 21
52.0
 31
0.0
  0
LINE
  5
513
330
1F
100
AcDbEntity
  8
100
  6
Continuous
 62
     3
100
AcDbLine
 10
162.5
 20
24.0
 30
0.0
 11
162.5
 21
22.0000003778893
 31
0.0
  0
LINE
  5
514
330
1F
100
AcDbEntity
  8
100
  6
Continuous
 62
     3
100
AcDbLine
 10
137.5
 20
24.0
 30
0.0
 11
137.5
 21
21.9999996221108
 31
0.0
  0
LINE
  5
515
330
1F
100
AcDbEntity
  8
100
  6
Continuous
 62
     3
100
AcDbLine
 10
137.0
 20
406.0
 30
0.0
 11
137.0
 21
389.999999999999
 31
0.0
  0
LINE
  5
516
330
1F
100
AcDbEntity
  8
100
  6
Continuous
 62
     3
100
AcDbLine
 10
163.0
 20
406.0
 30
0.0
 11
137.0
 21
406.0
 31
0.0
  0
LINE
  5
517
330
1F
100
AcDbEntity
  8
100
  6
Continuous
 62
     3
100
AcDbLine
 10
163.0
 20
406.0
 30
0.0
 11
163.0
 21
389.999999999999
 31
0.0
  0
LINE
  5
518
330
1F
100
AcDbEntity
  8
100
  6
Continuous
 62
     3
100
AcDbLine
 10
163.0
 20
389.999999999999
 30
0.0
 11
166.0
 21
388.267949192431
 31
0.0
  0
LINE
  5
519
330
1F
100
AcDbEntity
  8
100
  6
Continuous
 62
     3
100
AcDbLine
 10
137.0
 20
389.999999999999
 30
0.0
 11
134.0
 21
388.267949192431
 31
0.0
  0
LINE
  5
51A
330
1F
100
AcDbEntity
  8
100
  6
Continuous
 62
     3
100
AcDbLine
 10
166.0
 20
367.0
 30
0.0
 11
134.0
 21
367.0
 31
0.0
  0
LINE
  5
51B
330
1F
100
AcDbEntity
  8
100
  6
Continuous
 62
     3
100
AcDbLine
 10
134.0
 20
367.0
 30
0.0
 11
134.0
 21
388.267949192431
 31
0.0
  0
LINE
  5
51C
330
1F
100
AcDbEntity
  8
100
  6
Continuous
 62
     3
100
AcDbLine
 10
135.860985421096
 20
367.0
 30
0.0
 11
135.860985421096
 21
388.267949192431
 31
0.0
  0
LINE
  5
51D
330
1F
100
AcDbEntity
  8
100
  6
Continuous
 62
     3
100
AcDbLine
 10
148.139014578904
 20
367.0
 30
0.0
 11
148.139014578904
 21
388.267949192431
 31
0.0
  0
LINE
  5
51E
330
1F
100
AcDbEntity
  8
100
  6
Continuous
 62
     3
100
AcDbLine
 10
151.860985421096
 20
367.0
 30
0.0
 11
151.860985421096
 21
388.267949192431
 31
0.0
  0
LINE
  5
51F
330
1F
100
AcDbEntity
  8
100
  6
Continuous
 62
     3
100
AcDbLine
 10
164.139014578904
 20
367.0
 30
0.0
 11
164.139014578904
 21
388.267949192431
 31
0.0
  0
LINE
  5
520
330
1F
100
AcDbEntity
  8
100
  6
Continuous
 62
     3
100
AcDbLine
 10
166.0
 20
367.0
 30
0.0
 11
166.0
 21
388.267949192431
 31
0.0
  0
LINE
  5
521
330
1F
100
AcDbEntity
  8
100
  6
Continuous
 62
     3
100
AcDbLine
 10
166.0
 20
388.267949192431
 30
0.0
 11
134.0
 21
388.267949192431
 31
0.0
  0
LINE
  5
522
330
1F
100
AcDbEntity
  8
100
  6
Continuous
 62
     3
100
AcDbLine
 10
137.0
 20
389.999999999999
 30
0.0
 11
163.0
 21
389.999999999999
 31
0.0
  0
LINE
  5
523
330
1F
100
AcDbEntity
  8
100
  6
Continuous
 62
     3
100
AcDbLine
 10
119.0
 20
423.0
 30
0.0
 11
181.0
 21
423.0
 31
0.0
  0
LINE
  5
524
330
1F
100
AcDbEntity
  8
100
  6
Continuous
 62
     3
100
AcDbLine
 10
181.0
 20
433.044738518463
 30
0.0
 11
181.0
 21
423.0
 31
0.0
  0
LINE
  5
525
330
1F
100
AcDbEntity
  8
100
  6
Continuous
 62
     3
100
AcDbLine
 10
174.05095597478
 20
433.044738518463
 30
0.0
 11
174.05095597478
 21
425.0
 31
0.0
  0
LINE
  5
526
330
1F
100
AcDbEntity
  8
100
  6
Continuous
 62
     3
100
AcDbLine
 10
125.94904402522
 20
433.044738518463
 30
0.0
 11
125.94904402522
 21
425.0
 31
0.0
  0
LINE
  5
527
330
1F
100
AcDbEntity
  8
100
  6
Continuous
 62
     3
100
AcDbLine
 10
119.0
 20
433.044738518463
 30
0.0
 11
119.0
 21
423.0
 31
0.0
  0
LINE
  5
528
330
1F
100
AcDbEntity
  8
100
  6
Continuous
 62
     3
100
AcDbLine
 10
162.871353818006
 20
443.0
 30
0.0
 11
176.744017307768
 21
438.7856795241
 31
0.0
  0
LINE
  5
529
330
1F
100
AcDbEntity
  8
100
  6
Continuous
 62
     3
100
AcDbLine
 10
137.128646181994
 20
443.0
 30
0.0
 11
162.871353818006
 21
443.0
 31
0.0
  0
LINE
  5
52A
330
1F
100
AcDbEntity
  8
100
  6
Continuous
 62
     3
100
AcDbLine
 10
137.128646181994
 20
443.0
 30
0.0
 11
123.255982692232
 21
438.7856795241
 31
0.0
  0
LINE
  5
52B
330
1F
100
AcDbEntity
  8
100
  6
Continuous
 62
     3
100
AcDbLine
 10
144.0
 20
406.0
 30
0.0
 11
144.0
 21
423.0
 31
0.0
  0
LINE
  5
52C
330
1F
100
AcDbEntity
  8
100
  6
Continuous
 62
     3
100
AcDbLine
 10
156.0
 20
406.0
 30
0.0
 11
156.0
 21
423.0
 31
0.0
  0
LINE
  5
52D
330
1F
100
AcDbEntity
  8
100
  6
Continuous
 62
     3
100
AcDbLine
 10
32.5
 20
524.6
 30
0.0
 11
23.4423522877764
 21
524.6
 31
0.0
  0
LINE
  5
52E
330
1F
100
AcDbEntity
  8
1
  6
Continuous
 62
     3
100
AcDbLine
 10
32.3415
 20
523.5585
 30
0.0
 11
23.5004275087685
 21
523.5585
 31
0.0
  0
LINE
  5
52F
330
1F
100
AcDbEntity
  8
1
  6
Continuous
 62
     3
100
AcDbLine
 10
-32.3415
 20
523.5585
 30
0.0
 11
-23.500435138163
 21
523.5585
 31
0.0
  0
LINE
  5
530
330
1F
100
AcDbEntity
  8
100
  6
Continuous
 62
     3
100
AcDbLine
 10
-32.5
 20
524.6
 30
0.0
 11
-23.4423599171709
 21
524.6
 31
0.0
  0
LINE
  5
531
330
1F
100
AcDbEntity
  8
1
  6
Continuous
 62
     4
100
AcDbLine
 10
-26.1992816925049
 20
-13.1000108718872
 30
0.0
 11
-27.2279589707701
 21
-16.0305388080621
 31
0.0
  0
LINE
  5
532
330
1F
100
AcDbEntity
  8
1
  6
Continuous
 62
     4
100
AcDbLine
 10
-26.1992816925049
 20
-13.1000108718872
 30
0.0
 11
-28.5554063158658
 21
-15.123583871982
 31
0.0
  0
LINE
  5
533
330
1F
100
AcDbEntity
  8
2
  6
Continuous
 62
     2
100
AcDbLine
 10
14.0
 20
443.0
 30
0.0
 11
66.1937255859375
 21
443.0
 31
0.0
  0
LINE
  5
534
330
1F
100
AcDbEntity
  8
2
  6
Continuous
 62
     2
100
AcDbLine
 10
38.5
 20
0.0
 30
0.0
 11
66.1937255859375
 21
0.0
 31
0.0
  0
LINE
  5
535
330
1F
100
AcDbEntity
  8
2
  6
Continuous
 62
     2
100
AcDbLine
 10
65.1937255859375
 20
443.0
 30
0.0
 11
65.1937255859375
 21
149.75
 31
0.0
  0
LINE
  5
536
330
1F
100
AcDbEntity
  8
2
  6
Continuous
 62
     2
100
AcDbLine
 10
65.1937255859375
 20
0.0
 30
0.0
 11
65.1937255859375
 21
149.75
 31
0.0
  0
ARC
  5
537
330
1F
100
AcDbEntity
  8
3
  6
CENTER
 62
     6
100
AcDbCircle
 10
-25.0
 20
425.044738518463
 30
0.0
 40
5.999999999999965
100
AcDbArc
 50
106.8980453281977
 51
180.0
  0
ARC
  5
538
330
1F
100
AcDbEntity
  8
3
  6
CENTER
 62
     6
100
AcDbCircle
 10
25.0
 20
425.044738518463
 30
0.0
 40
6.0
100
AcDbArc
 50
0.0
 51
73.10195467180597
  0
ARC
  5
539
330
1F
100
AcDbEntity
  8
100
  6
Continuous
 62
     3
100
AcDbCircle
 10
-25.0
 20
433.044738518463
 30
0.0
 40
5.999999999999965
100
AcDbArc
 50
106.8980453281977
 51
180.0
  0
ARC
  5
53A
330
1F
100
AcDbEntity
  8
100
  6
Continuous
 62
     3
100
AcDbCircle
 10
-18.05095597478
 20
433.044738518463
 30
0.0
 40
5.999999999999917
100
AcDbArc
 50
121.2094430364682
 51
180.0
  0
ARC
  5
53B
330
1F
100
AcDbEntity
  8
100
  6
Continuous
 62
     3
100
AcDbCircle
 10
25.0
 20
433.044738518463
 30
0.0
 40
6.0
100
AcDbArc
 50
0.0
 51
73.10195467180597
  0
ARC
  5
53C
330
1F
100
AcDbEntity
  8
100
  6
Continuous
 62
     3
100
AcDbCircle
 10
18.05095597478
 20
433.044738518463
 30
0.0
 40
6.0
100
AcDbArc
 50
0.0
 51
58.79055696353183
  0
ARC
  5
53D
330
1F
100
AcDbEntity
  8
100
  6
Continuous
 62
     3
100
AcDbCircle
 10
175.0
 20
433.044738518463
 30
0.0
 40
6.0
100
AcDbArc
 50
0.0
 51
73.10195467180606
  0
ARC
  5
53E
330
1F
100
AcDbEntity
  8
100
  6
Continuous
 62
     3
100
AcDbCircle
 10
168.05095597478
 20
433.044738518463
 30
0.0
 40
6.0
100
AcDbArc
 50
0.0
 51
58.79055696353285
  0
ARC
  5
53F
330
1F
100
AcDbEntity
  8
100
  6
Continuous
 62
     3
100
AcDbCircle
 10
131.94904402522
 20
433.044738518463
 30
0.0
 40
5.999999999999852
100
AcDbArc
 50
121.2094430364671
 51
180.0
  0
ARC
  5
540
330
1F
100
AcDbEntity
  8
100
  6
Continuous
 62
     3
100
AcDbCircle
 10
125.0
 20
433.044738518463
 30
0.0
 40
5.999999999999851
100
AcDbArc
 50
106.8980453281941
 51
180.0
  0
ARC
  5
541
330
1F
100
AcDbEntity
  8
100
  6
Continuous
 62
     3
100
AcDbCircle
 10
31.4419884201731
 20
524.523699611713
 30
0.0
 40
8.000000000000016
100
AcDbArc
 50
164.7444772579384
 51
240.2555227420635
  0
ARC
  5
542
330
1F
100
AcDbEntity
  8
100
  6
Continuous
 62
     3
100
AcDbCircle
 10
16.9705589337799
 20
528.470562748477
 30
0.0
 40
6.999999999999895
100
AcDbArc
 50
344.7444772579406
 51
105.2555227420594
  0
ARC
  5
543
330
1F
100
AcDbEntity
  8
100
  6
Continuous
 62
     3
100
AcDbCircle
 10
13.0236957970157
 20
542.941992234871
 30
0.0
 40
8.000000000000528
100
AcDbArc
 50
209.7444772579431
 51
285.2555227420615
  0
ARC
  5
544
330
1F
100
AcDbEntity
  8
100
  6
Continuous
 62
     3
100
AcDbCircle
 10
-0.00000381469727
 20
535.5
 30
0.0
 40
6.999999999999903
100
AcDbArc
 50
29.74447725793705
 51
150.2555227420627
  0
ARC
  5
545
330
1F
100
AcDbEntity
  8
100
  6
Continuous
 62
     3
100
AcDbCircle
 10
-13.0237034264102
 20
542.941992234871
 30
0.0
 40
8.000000000000547
100
AcDbArc
 50
254.7444772579399
 51
330.2555227420569
  0
ARC
  5
546
330
1F
100
AcDbEntity
  8
100
  6
Continuous
 62
     3
100
AcDbCircle
 10
-16.9705665631744
 20
528.470562748477
 30
0.0
 40
7.00000000000014
100
AcDbArc
 50
74.74447725793901
 51
195.2555227420597
  0
ARC
  5
547
330
1F
100
AcDbEntity
  8
100
  6
Continuous
 62
     3
100
AcDbCircle
 10
-31.4419960495677
 20
524.523699611713
 30
0.0
 40
8.000000000000231
100
AcDbArc
 50
299.7444772579383
 51
15.25552274206125
  0
ARC
  5
548
330
1F
100
AcDbEntity
  8
100
  6
Continuous
 62
     3
100
AcDbCircle
 10
-24.0000038146973
 20
511.5
 30
0.0
 40
6.999999999999948
100
AcDbArc
 50
119.744477257938
 51
240.2555227420606
  0
ARC
  5
549
330
1F
100
AcDbEntity
  8
100
  6
Continuous
 62
     3
100
AcDbCircle
 10
-31.4419960495676
 20
498.476300388287
 30
0.0
 40
8.000000000000016
100
AcDbArc
 50
344.7444772579383
 51
60.25552274206355
  0
ARC
  5
54A
330
1F
100
AcDbEntity
  8
100
  6
Continuous
 62
     3
100
AcDbCircle
 10
-16.9705665631743
 20
494.529437251523
 30
0.0
 40
6.999999999999972
100
AcDbArc
 50
164.7444772579412
 51
285.2555227420602
  0
ARC
  5
54B
330
1F
100
AcDbEntity
  8
100
  6
Continuous
 62
     3
100
AcDbCircle
 10
-13.0237034264102
 20
480.058007765129
 30
0.0
 40
8.00000000000053
100
AcDbArc
 50
29.74447725794314
 51
105.25552274206
  0
ARC
  5
54C
330
1F
100
AcDbEntity
  8
100
  6
Continuous
 62
     3
100
AcDbCircle
 10
-0.00000381469727
 20
487.5
 30
0.0
 40
6.999999999999869
100
AcDbArc
 50
209.7444772579372
 51
330.2555227420637
  0
ARC
  5
54D
330
1F
100
AcDbEntity
  8
100
  6
Continuous
 62
     3
100
AcDbCircle
 10
13.0236957970155
 20
480.05800776513
 30
0.0
 40
7.999999999999642
100
AcDbArc
 50
74.74447725793738
 51
150.2555227420619
  0
ARC
  5
54E
330
1F
100
AcDbEntity
  8
100
  6
Continuous
 62
     3
100
AcDbCircle
 10
16.9705589337799
 20
494.529437251523
 30
0.0
 40
7.000000000000166
100
AcDbArc
 50
254.7444772579383
 51
15.25552274205925
  0
ARC
  5
54F
330
1F
100
AcDbEntity
  8
100
  6
Continuous
 62
     3
100
AcDbCircle
 10
31.4419884201731
 20
498.476300388287
 30
0.0
 40
8.000000000000181
100
AcDbArc
 50
119.7444772579377
 51
195.2555227420615
  0
ARC
  5
550
330
1F
100
AcDbEntity
  8
100
  6
Continuous
 62
     3
100
AcDbCircle
 10
23.9999961853027
 20
511.5
 30
0.0
 40
6.999999999999999
100
AcDbArc
 50
299.7444772579387
 51
60.25552274205987
  0
CIRCLE
  5
551
330
1F
100
AcDbEntity
  8
100
  6
Continuous
 62
     3
100
AcDbCircle
 10
150.0
 20
0.0
 30
0.0
 40
9.699999999999989
  0
CIRCLE
  5
552
330
1F
100
AcDbEntity
  8
1
  6
Continuous
 62
     3
100
AcDbCircle
 10
150.0
 20
0.0
 30
0.0
 40
12.05850000000001
  0
CIRCLE
  5
553
330
1F
100
AcDbEntity
  8
100
  6
Continuous
 62
     3
100
AcDbCircle
 10
150.0
 20
0.0
 30
0.0
 40
13.09999999999999
  0
CIRCLE
  5
554
330
1F
100
AcDbEntity
  8
100
  6
Continuous
 62
     3
100
AcDbCircle
 10
0.00000388179043
 20
511.5
 30
0.0
 40
9.99999999999997
  0
SPLINE
  5
555
330
1F
100
AcDbEntity
  8
1
  6
Continuous
 62
     1
100
AcDbSpline
210
0.0
220
0.0
230
1.0
 70
     8
 71
     3
 72
    11
 73
     7
 74
     5
 42
0.0000000001
 43
0.0000000001
 44
0.00000001
 40
0.0
 40
0.0
 40
0.0
 40
0.0
 40
7.666647048380229
 40
15.32006995353711
 40
22.80762775191277
 40
30.28463469730647
 40
30.28463469730647
 40
30.28463469730647
 40
30.28463469730647
 10
136.4
 20
166.0
 30
0.0
 10
138.4966302256403
 20
167.916891335532
 30
0.0
 10
142.6862742148333
 20
171.7473675748005
 30
0.0
 10
150.1537471667819
 20
167.4616405941566
 30
0.0
 10
156.3427447736789
 20
161.9865061680586
 30
0.0
 10
161.1820522518082
 20
164.6627977009644
 30
0.0
 10
163.6
 20
166.0
 30
0.0
 11
136.4
 21
166.0
 31
0.0
 11
142.8968271210649
 21
170.0704685631303
 31
0.0
 11
149.9999999999999
 21
167.2209392656598
 31
0.0
 11
156.5320265606886
 21
163.5608640212866
 31
0.0
 11
163.6
 21
166.0
 31
0.0
  0
SPLINE
  5
556
330
1F
100
AcDbEntity
  8
1
  6
Continuous
 62
     1
100
AcDbSpline
210
0.0
220
0.0
230
1.0
 70
     8
 71
     3
 72
    11
 73
     7
 74
     5
 42
0.0000000001
 43
0.0000000001
 44
0.00000001
 40
0.0
 40
0.0
 40
0.0
 40
0.0
 40
7.666647048380229
 40
15.3200699535371
 40
22.80762775191277
 40
30.28463469730647
 40
30.28463469730647
 40
30.28463469730647
 40
30.28463469730647
 10
136.4
 20
159.0
 30
0.0
 10
138.4966302256404
 20
160.916891335532
 30
0.0
 10
142.6862742148332
 20
164.7473675748005
 30
0.0
 10
150.153747166782
 20
160.4616405941567
 30
0.0
 10
156.3427447736789
 20
154.9865061680585
 30
0.0
 10
161.1820522518082
 20
157.6627977009644
 30
0.0
 10
163.6
 20
159.0
 30
0.0
 11
136.4
 21
159.0
 31
0.0
 11
142.8968271210649
 21
163.0704685631303
 31
0.0
 11
149.9999999999999
 21
160.2209392656598
 31
0.0
 11
156.5320265606886
 21
156.5608640212866
 31
0.0
 11
163.6
 21
159.0
 31
0.0
  0
SPLINE
  5
557
330
1F
100
AcDbEntity
  8
1
  6
Continuous
 62
     1
100
AcDbSpline
210
0.0
220
0.0
230
1.0
 70
     8
 71
     3
 72
    11
 73
     7
 74
     5
 42
0.0000000001
 43
0.0000000001
 44
0.00000001
 40
0.0
 40
0.0
 40
0.0
 40
0.0
 40
7.666647048380136
 40
15.3200699535372
 40
22.80762775191269
 40
30.28463469730647
 40
30.28463469730647
 40
30.28463469730647
 40
30.28463469730647
 10
-13.6
 20
159.0
 30
0.0
 10
-11.50336977435971
 20
160.9168913355319
 30
0.0
 10
-7.313725785166774
 20
164.7473675748005
 30
0.0
 10
0.1537471667819801
 20
160.4616405941568
 30
0.0
 10
6.34274477367884
 20
154.9865061680584
 30
0.0
 10
11.18205225180811
 20
157.6627977009644
 30
0.0
 10
13.6
 20
159.0
 30
0.0
 11
-13.6
 21
159.0
 31
0.0
 11
-7.103172878935152
 21
163.0704685631303
 31
0.0
 11
0.0000000000000031
 21
160.2209392656598
 31
0.0
 11
6.532026560688508
 21
156.5608640212866
 31
0.0
 11
13.6
 21
159.0
 31
0.0
  0
SPLINE
  5
558
330
1F
100
AcDbEntity
  8
1
  6
Continuous
 62
     1
100
AcDbSpline
210
0.0
220
0.0
230
1.0
 70
     8
 71
     3
 72
    11
 73
     7
 74
     5
 42
0.0000000001
 43
0.0000000001
 44
0.00000001
 40
0.0
 40
0.0
 40
0.0
 40
0.0
 40
7.666647048380121
 40
15.32006995353717
 40
22.80762775191266
 40
30.28463469730645
 40
30.28463469730645
 40
30.28463469730645
 40
30.28463469730645
 10
-13.6
 20
166.0
 30
0.0
 10
-11.50336977435971
 20
167.9168913355319
 30
0.0
 10
-7.313725785166771
 20
171.7473675748005
 30
0.0
 10
0.1537471667819845
 20
167.4616405941568
 30
0.0
 10
6.342744773678842
 20
161.9865061680584
 30
0.0
 10
11.18205225180811
 20
164.6627977009643
 30
0.0
 10
13.6
 20
166.0
 30
0.0
 11
-13.6
 21
166.0
 31
0.0
 11
-7.103172878935152
 21
170.0704685631303
 31
0.0
 11
0.0000000000000031
 21
167.2209392656598
 31
0.0
 11
6.532026560688508
 21
163.5608640212866
 31
0.0
 11
13.6
 21
166.0
 31
0.0
  0
LWPOLYLINE
  5
559
330
1F
100
AcDbEntity
  8
2
  6
Continuous
 62
     3
100
AcDbPolyline
 90
        6
 70
     0
 43
0.0
 10
2.07401204109192
 20
1.99999499320984
 10
3.19901204109192
 20
0.87499499320984
 10
3.19901204109192
 20
-0.06250500679016
 10
2.26151204109192
 20
-1.00000500679016
 10
1.13651204109192
 20
-1.00000500679016
 10
0.19901204109192
 20
-0.06250500679016
  0
LWPOLYLINE
  5
55A
330
1F
100
AcDbEntity
  8
2
  6
Continuous
 62
     3
100
AcDbPolyline
 90
        7
 70
     0
 43
0.0
 10
0.19901204109192
 20
3.87499499320984
 10
1.13651204109192
 20
4.99999523162842
 10
2.26151204109192
 20
4.99999523162842
 10
3.19901204109192
 20
3.87499499320984
 10
3.19901204109192
 20
2.93749499320984
 10
2.07401204109192
 20
1.99999499320984
 10
0.94901204109192
 20
1.99999499320984
  0
LWPOLYLINE
  5
55B
330
1F
100
AcDbEntity
  8
2
  6
Continuous
 62
     3
100
AcDbPolyline
 90
        3
 70
     0
 43
0.0
 10
-2.42598795890808
 20
-1.00000500679016
 10
-2.42598795890808
 20
4.99999523162842
 10
-3.45723795890808
 20
3.21874499320984
  0
LWPOLYLINE
  5
55C
330
1F
100
AcDbEntity
  8
2
  6
Continuous
 62
     2
100
AcDbPolyline
 90
        3
 70
     0
 43
0.0
 10
55.6937255859375
 20
225.0
 10
62.6937255859375
 20
225.0
 10
62.6937255859375
 20
228.5
  0
LWPOLYLINE
  5
55D
330
1F
100
AcDbEntity
  8
2
  6
Continuous
 62
     2
100
AcDbPolyline
 90
        3
 70
     0
 43
0.0
 10
63.9437255859375
 20
438.0
 10
65.1937255859375
 20
443.0
 10
66.4437255859375
 20
438.0
  0
LWPOLYLINE
  5
55E
330
1F
100
AcDbEntity
  8
2
  6
Continuous
 62
     2
100
AcDbPolyline
 90
        3
 70
     0
 43
0.0
 10
66.4437255859375
 20
5.0
 10
65.1937255859375
 20
0.0
 10
63.9437255859375
 20
5.0
  0
LEADER
  5
55F
330
1F
100
AcDbEntity
  8
1
  6
Continuous
 62
     4
100
AcDbLeader
  3
Standard
 71
     0
 76
     3
 10
26.1992816925049
 20
-13.1000108718872
 30
0.0
 10
40.7959270054826
 20
-34.464113207294
 30
0.0
 10
99.2657050459606
 20
-34.464113207294
 30
0.0
  0
LEADER
  5
560
330
1F
100
AcDbEntity
  8
1
  6
Continuous
 62
     4
100
AcDbLeader
  3
Standard
 71
     0
 76
     3
 10
-26.1992816925049
 20
-13.1000108718872
 30
0.0
 10
-40.7959270054826
 20
-34.464113207294
 30
0.0
 10
-99.2657050459606
 20
-34.464113207294
 30
0.0
  0
ENDSEC
  0
SECTION
  2
OBJECTS
  0
DICTIONARY
  5
C
330
0
100
AcDbDictionary
281
     1
  3
ACAD_GROUP
350
D
  3
ACAD_LAYOUT
350
1A
  3
ACAD_MATERIAL
350
3B
  3
ACAD_MLEADERSTYLE
350
563
  3
ACAD_MLINESTYLE
350
17
  3
ACAD_PLOTSETTINGS
350
19
  3
ACAD_PLOTSTYLENAME
350
E
  3
ACAD_VISUALSTYLE
350
2A
  3
AcDbVariableDictionary
350
561
  0
DICTIONARY
  5
D
102
{ACAD_REACTORS
330
C
102
}
330
C
100
AcDbDictionary
281
     1
  0
DICTIONARY
  5
1A
102
{ACAD_REACTORS
330
C
102
}
330
C
100
AcDbDictionary
281
     1
  3
Layout1
350
1E
  3
Layout2
350
26
  3
Model
350
22
  0
DICTIONARY
  5
3B
102
{ACAD_REACTORS
330
C
102
}
330
C
100
AcDbDictionary
281
     1
  3
ByBlock
350
3D
  3
ByLayer
350
3C
  3
Global
350
3E
  0
DICTIONARY
  5
563
102
{ACAD_REACTORS
330
C
102
}
330
C
100
AcDbDictionary
281
     1
  0
DICTIONARY
  5
17
102
{ACAD_REACTORS
330
C
102
}
330
C
100
AcDbDictionary
281
     1
  3
Standard
350
18
  0
DICTIONARY
  5
19
102
{ACAD_REACTORS
330
C
102
}
330
C
100
AcDbDictionary
281
     1
  0
ACDBDICTIONARYWDFLT
  5
E
102
{ACAD_REACTORS
330
C
102
}
330
C
100
AcDbDictionary
281
     1
  3
Normal
350
F
100
AcDbDictionaryWithDefault
340
F
  0
DICTIONARY
  5
2A
102
{ACAD_REACTORS
330
C
102
}
330
C
100
AcDbDictionary
281
     1
  3
2dWireframe
350
2F
  3
3D Hidden
350
31
  3
3dWireframe
350
30
  3
Basic
350
32
  3
Brighten
350
36
  3
ColorChange
350
3A
  3
Conceptual
350
34
  3
Dim
350
35
  3
Facepattern
350
39
  3
Flat
350
2B
  3
FlatWithEdges
350
2C
  3
Gouraud
350
2D
  3
GouraudWithEdges
350
2E
  3
Linepattern
350
38
  3
Realistic
350
33
  3
Thicken
350
37
  0
DICTIONARY
  5
561
102
{ACAD_REACTORS
330
C
102
}
330
C
100
AcDbDictionary
281
     1
  3
DIMASSOC
350
564
  3
HIDETEXT
350
565
  0
LAYOUT
  5
1E
102
{ACAD_REACTORS
330
1A
102
}
330
1A
100
AcDbPlotSettings
  1

  2
none_device
  4

  6

 40
0.0
 41
0.0
 42
0.0
 43
0.0
 44
0.0
 45
0.0
 46
0.0
 47
0.0
 48
0.0
 49
0.0
140
0.0
141
0.0
142
1.0
143
1.0
 70
   688
 72
     0
 73
     0
 74
     5
  7

 75
    16
147
1.0
148
0.0
149
0.0
100
AcDbLayout
  1
Layout1
 70
     1
 71
     1
 10
0.0
 20
0.0
 11
12.0
 21
9.0
 12
0.0
 22
0.0
 32
0.0
 14
1.00000000000000E+20
 24
1.00000000000000E+20
 34
1.00000000000000E+20
 15
-1.00000000000000E+20
 25
-1.00000000000000E+20
 35
-1.00000000000000E+20
146
0.0
 13
0.0
 23
0.0
 33
0.0
 16
1.0
 26
0.0
 36
0.0
 17
0.0
 27
1.0
 37
0.0
 76
     0
330
1B
  0
LAYOUT
  5
26
102
{ACAD_REACTORS
330
1A
102
}
330
1A
100
AcDbPlotSettings
  1

  2
none_device
  4

  6

 40
0.0
 41
0.0
 42
0.0
 43
0.0
 44
0.0
 45
0.0
 46
0.0
 47
0.0
 48
0.0
 49
0.0
140
0.0
141
0.0
142
1.0
143
1.0
 70
   688
 72
     0
 73
     0
 74
     5
  7

 75
    16
147
1.0
148
0.0
149
0.0
100
AcDbLayout
  1
Layout2
 70
     1
 71
     2
 10
0.0
 20
0.0
 11
0.0
 21
0.0
 12
0.0
 22
0.0
 32
0.0
 14
0.0
 24
0.0
 34
0.0
 15
0.0
 25
0.0
 35
0.0
146
0.0
 13
0.0
 23
0.0
 33
0.0
 16
1.0
 26
0.0
 36
0.0
 17
0.0
 27
1.0
 37
0.0
 76
     0
330
23
  0
LAYOUT
  5
22
102
{ACAD_REACTORS
330
1A
102
}
330
1A
100
AcDbPlotSettings
  1

  2
none_device
  4

  6

 40
0.0
 41
0.0
 42
0.0
 43
0.0
 44
0.0
 45
0.0
 46
0.0
 47
0.0
 48
0.0
 49
0.0
140
0.0
141
0.0
142
1.0
143
1.0
 70
  1712
 72
     0
 73
     0
 74
     0
  7

 75
     0
147
1.0
148
0.0
149
0.0
100
AcDbLayout
  1
Model
 70
     1
 71
     0
 10
0.0
 20
0.0
 11
12.0
 21
9.0
 12
0.0
 22
0.0
 32
0.0
 14
-99.2657050459606
 24
-50.2986378164239
 34
0.0
 15
341.950718958067
 25
547.499999999999
 35
0.0
146
0.0
 13
0.0
 23
0.0
 33
0.0
 16
1.0
 26
0.0
 36
0.0
 17
0.0
 27
1.0
 37
0.0
 76
     0
330
1F
331
29
  0
MATERIAL
  5
3D
102
{ACAD_REACTORS
330
3B
102
}
102
{ACAD_XDICTIONARY
360
588
102
}
330
3B
100
AcDbMaterial
  1
ByBlock
  0
MATERIAL
  5
3C
102
{ACAD_REACTORS
330
3B
102
}
102
{ACAD_XDICTIONARY
360
586
102
}
330
3B
100
AcDbMaterial
  1
ByLayer
  0
MATERIAL
  5
3E
102
{ACAD_REACTORS
330
3B
102
}
102
{ACAD_XDICTIONARY
360
58A
102
}
330
3B
100
AcDbMaterial
  1
Global
  0
MLINESTYLE
  5
18
102
{ACAD_REACTORS
330
17
102
}
330
17
100
AcDbMlineStyle
  2
Standard
 70
     0
  3

 62
   256
 51
90.0
 52
90.0
 71
     2
 49
0.5
 62
   256
  6
BYLAYER
 49
-0.5
 62
   256
  6
BYLAYER
  0
ACDBPLACEHOLDER
  5
F
102
{ACAD_REACTORS
330
E
102
}
330
E
  0
VISUALSTYLE
  5
2F
102
{ACAD_REACTORS
330
2A
102
}
102
{ACAD_XDICTIONARY
360
56E
102
}
330
2A
100
AcDbVisualStyle
  2
2dWireframe
 70
     4
 71
     0
 72
     2
 73
     0
 90
        0
 40
-0.6
 41
-30.0
 62
     5
 63
     7
 74
     1
 91
        4
 64
     7
 65
   257
 75
     1
175
     1
 42
1.0
 92
        0
 66
   257
 43
1.0
 76
     1
 77
     6
 78
     2
 67
     7
 79
     5
170
     0
171
     0
290
     0
174
     0
 93
        1
 44
0.0
173
     0
291
     0
 45
0.0
1001
ACAD
1000
AcDbSavedByObjectVersion
1070
     0
  0
VISUALSTYLE
  5
31
102
{ACAD_REACTORS
330
2A
102
}
102
{ACAD_XDICTIONARY
360
572
102
}
330
2A
100
AcDbVisualStyle
  2
3D Hidden
 70
     6
 71
     1
 72
     2
 73
     2
 90
        0
 40
-0.6
 41
-30.0
 62
     5
 63
     7
 74
     2
 91
        2
 64
     7
 65
   257
 75
     2
175
     1
 42
40.0
 92
        0
 66
   257
 43
1.0
 76
     1
 77
     6
 78
     2
 67
     7
 79
     3
170
     0
171
     0
290
     0
174
     0
 93
        1
 44
0.0
173
     0
291
     0
 45
0.0
1001
ACAD
1000
AcDbSavedByObjectVersion
1070
     0
  0
VISUALSTYLE
  5
30
102
{ACAD_REACTORS
330
2A
102
}
102
{ACAD_XDICTIONARY
360
570
102
}
330
2A
100
AcDbVisualStyle
  2
3dWireframe
 70
     5
 71
     0
 72
     2
 73
     0
 90
        0
 40
-0.6
 41
-30.0
 62
     5
 63
     7
 74
     1
 91
        4
 64
     7
 65
   257
 75
     1
175
     1
 42
1.0
 92
        0
 66
   257
 43
1.0
 76
     1
 77
     6
 78
     2
 67
     7
 79
     5
170
     0
171
     0
290
     0
174
     0
 93
        1
 44
0.0
173
     0
291
     0
 45
0.0
1001
ACAD
1000
AcDbSavedByObjectVersion
1070
     0
  0
VISUALSTYLE
  5
32
102
{ACAD_REACTORS
330
2A
102
}
102
{ACAD_XDICTIONARY
360
574
102
}
330
2A
100
AcDbVisualStyle
  2
Basic
 70
     7
 71
     1
 72
     0
 73
     1
 90
        0
 40
-0.6
 41
-30.0
 62
     5
 63
     7
 74
     0
 91
        4
 64
     7
 65
   257
 75
     1
175
     1
 42
1.0
 92
        8
 66
     7
 43
1.0
 76
     1
 77
     6
 78
     2
 67
     7
 79
     5
170
     0
171
     0
290
     0
174
     0
 93
        1
 44
0.0
173
     0
291
     1
 45
0.0
1001
ACAD
1000
AcDbSavedByObjectVersion
1070
     0
  0
VISUALSTYLE
  5
36
102
{ACAD_REACTORS
330
2A
102
}
102
{ACAD_XDICTIONARY
360
57C
102
}
330
2A
100
AcDbVisualStyle
  2
Brighten
 70
    12
 71
     2
 72
     2
 73
     0
 90
        0
 40
-0.6
 41
-30.0
 62
     5
 63
     7
 74
     1
 91
        4
 64
     7
 65
   257
 75
     1
175
     1
 42
1.0
 92
        8
 66
     7
 43
1.0
 76
     1
 77
     6
 78
     2
 67
     7
 79
     5
170
     0
171
     0
290
     0
174
     0
 93
        1
 44
50.0
173
     0
291
     1
 45
0.0
1001
ACAD
1000
AcDbSavedByObjectVersion
1070
     0
  0
VISUALSTYLE
  5
3A
102
{ACAD_REACTORS
330
2A
102
}
102
{ACAD_XDICTIONARY
360
584
102
}
330
2A
100
AcDbVisualStyle
  2
ColorChange
 70
    16
 71
     2
 72
     2
 73
     3
 90
        0
 40
-0.6
 41
-30.0
 62
     5
 63
     8
 74
     1
 91
        4
 64
     7
 65
   257
 75
     1
175
     1
 42
1.0
 92
        8
 66
     8
 43
1.0
 76
     1
 77
     6
 78
     2
 67
     7
 79
     5
170
     0
171
     0
290
     0
174
     0
 93
        1
 44
0.0
173
     0
291
     1
 45
0.0
1001
ACAD
1000
AcDbSavedByObjectVersion
1070
     0
  0
VISUALSTYLE
  5
34
102
{ACAD_REACTORS
330
2A
102
}
102
{ACAD_XDICTIONARY
360
578
102
}
330
2A
100
AcDbVisualStyle
  2
Conceptual
 70
     9
 71
     3
 72
     2
 73
     0
 90
        0
 40
-0.6
 41
-30.0
 62
     5
 63
     7
 74
     2
 91
        2
 64
     7
 65
   257
 75
     1
175
     1
 42
40.0
 92
        8
 66
     7
 43
1.0
 76
     1
 77
     6
 78
     2
 67
     7
 79
     3
170
     0
171
     0
290
     0
174
     0
 93
        1
 44
0.0
173
     0
291
     0
 45
0.0
1001
ACAD
1000
AcDbSavedByObjectVersion
1070
     0
  0
VISUALSTYLE
  5
35
102
{ACAD_REACTORS
330
2A
102
}
102
{ACAD_XDICTIONARY
360
57A
102
}
330
2A
100
AcDbVisualStyle
  2
Dim
 70
    11
 71
     2
 72
     2
 73
     0
 90
        0
 40
-0.6
 41
-30.0
 62
     5
 63
     7
 74
     1
 91
        4
 64
     7
 65
   257
 75
     1
175
     1
 42
1.0
 92
        8
 66
     7
 43
1.0
 76
     1
 77
     6
 78
     2
 67
     7
 79
     5
170
     0
171
     0
290
     0
174
     0
 93
        1
 44
-50.0
173
     0
291
     1
 45
0.0
1001
ACAD
1000
AcDbSavedByObjectVersion
1070
     0
  0
VISUALSTYLE
  5
39
102
{ACAD_REACTORS
330
2A
102
}
102
{ACAD_XDICTIONARY
360
582
102
}
330
2A
100
AcDbVisualStyle
  2
Facepattern
 70
    15
 71
     2
 72
     2
 73
     0
 90
        0
 40
-0.6
 41
-30.0
 62
     5
 63
     7
 74
     1
 91
        4
 64
     7
 65
   257
 75
     1
175
     1
 42
1.0
 92
        8
 66
     7
 43
1.0
 76
     1
 77
     6
 78
     2
 67
     7
 79
     5
170
     0
171
     0
290
     0
174
     0
 93
        1
 44
0.0
173
     0
291
     1
 45
0.0
1001
ACAD
1000
AcDbSavedByObjectVersion
1070
     0
  0
VISUALSTYLE
  5
2B
102
{ACAD_REACTORS
330
2A
102
}
102
{ACAD_XDICTIONARY
360
566
102
}
330
2A
100
AcDbVisualStyle
  2
Flat
 70
     0
 71
     2
 72
     1
 73
     1
 90
        2
 40
-0.6
 41
30.0
 62
     5
 63
     7
 74
     0
 91
        4
 64
     7
 65
   257
 75
     1
175
     1
 42
1.0
 92
        8
 66
     7
 43
1.0
 76
     1
 77
     6
 78
     2
 67
     7
 79
     5
170
     0
171
     0
290
     0
174
     0
 93
       13
 44
0.0
173
     0
291
     1
 45
0.0
1001
ACAD
1000
AcDbSavedByObjectVersion
1070
     0
  0
VISUALSTYLE
  5
2C
102
{ACAD_REACTORS
330
2A
102
}
102
{ACAD_XDICTIONARY
360
568
102
}
330
2A
100
AcDbVisualStyle
  2
FlatWithEdges
 70
     1
 71
     2
 72
     1
 73
     1
 90
        2
 40
-0.6
 41
30.0
 62
     5
 63
     7
 74
     1
 91
        4
 64
     7
 65
   257
 75
     1
175
     1
 42
1.0
 92
        0
 66
   257
 43
1.0
 76
     1
 77
     6
 78
     2
 67
     7
 79
     5
170
     0
171
     0
290
     0
174
     0
 93
       13
 44
0.0
173
     0
291
     1
 45
0.0
1001
ACAD
1000
AcDbSavedByObjectVersion
1070
     0
  0
VISUALSTYLE
  5
2D
102
{ACAD_REACTORS
330
2A
102
}
102
{ACAD_XDICTIONARY
360
56A
102
}
330
2A
100
AcDbVisualStyle
  2
Gouraud
 70
     2
 71
     2
 72
     2
 73
     1
 90
        2
 40
-0.6
 41
30.0
 62
     5
 63
     7
 74
     0
 91
        4
 64
     7
 65
   257
 75
     1
175
     1
 42
1.0
 92
        0
 66
     7
 43
1.0
 76
     1
 77
     6
 78
     2
 67
     7
 79
     5
170
     0
171
     0
290
     0
174
     0
 93
       13
 44
0.0
173
     0
291
     1
 45
0.0
1001
ACAD
1000
AcDbSavedByObjectVersion
1070
     0
  0
VISUALSTYLE
  5
2E
102
{ACAD_REACTORS
330
2A
102
}
102
{ACAD_XDICTIONARY
360
56C
102
}
330
2A
100
AcDbVisualStyle
  2
GouraudWithEdges
 70
     3
 71
     2
 72
     2
 73
     1
 90
        2
 40
-0.6
 41
30.0
 62
     5
 63
     7
 74
     1
 91
        4
 64
     7
 65
   257
 75
     1
175
     1
 42
1.0
 92
        0
 66
   257
 43
1.0
 76
     1
 77
     6
 78
     2
 67
     7
 79
     5
170
     0
171
     0
290
     0
174
     0
 93
       13
 44
0.0
173
     0
291
     1
 45
0.0
1001
ACAD
1000
AcDbSavedByObjectVersion
1070
     0
  0
VISUALSTYLE
  5
38
102
{ACAD_REACTORS
330
2A
102
}
102
{ACAD_XDICTIONARY
360
580
102
}
330
2A
100
AcDbVisualStyle
  2
Linepattern
 70
    14
 71
     2
 72
     2
 73
     0
 90
        0
 40
-0.6
 41
-30.0
 62
     5
 63
     7
 74
     1
 91
        4
 64
     7
 65
   257
 75
     7
175
     7
 42
1.0
 92
        8
 66
     7
 43
1.0
 76
     1
 77
     6
 78
     2
 67
     7
 79
     5
170
     0
171
     0
290
     0
174
     0
 93
        1
 44
0.0
173
     0
291
     1
 45
0.0
1001
ACAD
1000
AcDbSavedByObjectVersion
1070
     0
  0
VISUALSTYLE
  5
33
102
{ACAD_REACTORS
330
2A
102
}
102
{ACAD_XDICTIONARY
360
576
102
}
330
2A
100
AcDbVisualStyle
  2
Realistic
 70
     8
 71
     2
 72
     2
 73
     0
 90
        0
 40
-0.6
 41
-30.0
 62
     5
 63
     7
 74
     1
 91
        0
 64
     7
 65
   257
 75
     1
175
     1
 42
1.0
 92
        8
 66
     8
 43
1.0
 76
     1
 77
     6
 78
     2
 67
     7
 79
     5
170
     0
171
     0
290
     0
174
     0
 93
       13
 44
0.0
173
     0
291
     0
 45
0.0
1001
ACAD
1000
AcDbSavedByObjectVersion
1070
     0
  0
VISUALSTYLE
  5
37
102
{ACAD_REACTORS
330
2A
102
}
102
{ACAD_XDICTIONARY
360
57E
102
}
330
2A
100
AcDbVisualStyle
  2
Thicken
 70
    13
 71
     2
 72
     2
 73
     0
 90
        0
 40
-0.6
 41
-30.0
 62
     5
 63
     7
 74
     1
 91
        4
 64
     7
 65
   257
 75
     1
175
     1
 42
1.0
 92
       12
 66
     7
 43
1.0
 76
     1
 77
     6
 78
     2
 67
     7
 79
     5
170
     0
171
     0
290
     0
174
     0
 93
        1
 44
0.0
173
     0
291
     1
 45
0.0
1001
ACAD
1000
AcDbSavedByObjectVersion
1070
     0
  0
DICTIONARYVAR
  5
564
102
{ACAD_REACTORS
330
561
102
}
330
561
100
DictionaryVariables
280
     0
  1
2
  0
DICTIONARYVAR
  5
565
102
{ACAD_REACTORS
330
561
102
}
330
561
100
DictionaryVariables
280
     0
  1
1
  0
DICTIONARY
  5
588
330
3D
100
AcDbDictionary
280
     1
281
     1
  3
ACAD_XREC_ROUNDTRIP
360
589
  0
DICTIONARY
  5
586
330
3C
100
AcDbDictionary
280
     1
281
     1
  3
ACAD_XREC_ROUNDTRIP
360
587
  0
DICTIONARY
  5
58A
330
3E
100
AcDbDictionary
280
     1
281
     1
  3
ACAD_XREC_ROUNDTRIP
360
58B
  0
DICTIONARY
  5
56E
330
2F
100
AcDbDictionary
280
     1
281
     1
  3
ACAD_XREC_ROUNDTRIP
360
56F
  0
DICTIONARY
  5
572
330
31
100
AcDbDictionary
280
     1
281
     1
  3
ACAD_XREC_ROUNDTRIP
360
573
  0
DICTIONARY
  5
570
330
30
100
AcDbDictionary
280
     1
281
     1
  3
ACAD_XREC_ROUNDTRIP
360
571
  0
DICTIONARY
  5
574
330
32
100
AcDbDictionary
280
     1
281
     1
  3
ACAD_XREC_ROUNDTRIP
360
575
  0
DICTIONARY
  5
57C
330
36
100
AcDbDictionary
280
     1
281
     1
  3
ACAD_XREC_ROUNDTRIP
360
57D
  0
DICTIONARY
  5
584
330
3A
100
AcDbDictionary
280
     1
281
     1
  3
ACAD_XREC_ROUNDTRIP
360
585
  0
DICTIONARY
  5
578
330
34
100
AcDbDictionary
280
     1
281
     1
  3
ACAD_XREC_ROUNDTRIP
360
579
  0
DICTIONARY
  5
57A
330
35
100
AcDbDictionary
280
     1
281
     1
  3
ACAD_XREC_ROUNDTRIP
360
57B
  0
DICTIONARY
  5
582
330
39
100
AcDbDictionary
280
     1
281
     1
  3
ACAD_XREC_ROUNDTRIP
360
583
  0
DICTIONARY
  5
566
330
2B
100
AcDbDictionary
280
     1
281
     1
  3
ACAD_XREC_ROUNDTRIP
360
567
  0
DICTIONARY
  5
568
330
2C
100
AcDbDictionary
280
     1
281
     1
  3
ACAD_XREC_ROUNDTRIP
360
569
  0
DICTIONARY
  5
56A
330
2D
100
AcDbDictionary
280
     1
281
     1
  3
ACAD_XREC_ROUNDTRIP
360
56B
  0
DICTIONARY
  5
56C
330
2E
100
AcDbDictionary
280
     1
281
     1
  3
ACAD_XREC_ROUNDTRIP
360
56D
  0
DICTIONARY
  5
580
330
38
100
AcDbDictionary
280
     1
281
     1
  3
ACAD_XREC_ROUNDTRIP
360
581
  0
DICTIONARY
  5
576
330
33
100
AcDbDictionary
280
     1
281
     1
  3
ACAD_XREC_ROUNDTRIP
360
577
  0
DICTIONARY
  5
57E
330
37
100
AcDbDictionary
280
     1
281
     1
  3
ACAD_XREC_ROUNDTRIP
360
57F
  0
XRECORD
  5
589
102
{ACAD_REACTORS
330
588
102
}
330
588
100
AcDbXrecord
280
     1
102
MATERIAL
148
0.0
149
0.0
149
0.0
 93
        0
 94
      127
282
     0
 72
     1
 77
     1
171
     1
175
     1
179
     1
273
     0
  0
XRECORD
  5
587
102
{ACAD_REACTORS
330
586
102
}
330
586
100
AcDbXrecord
280
     1
102
MATERIAL
148
0.0
149
0.0
149
0.0
 93
        0
 94
      127
282
     0
 72
     1
 77
     1
171
     1
175
     1
179
     1
273
     0
  0
XRECORD
  5
58B
102
{ACAD_REACTORS
330
58A
102
}
330
58A
100
AcDbXrecord
280
     1
102
MATERIAL
148
0.0
149
0.0
149
0.0
 93
        0
 94
      127
282
     0
 72
     1
 77
     1
171
     1
175
     1
179
     1
273
     0
  0
XRECORD
  5
56F
102
{ACAD_REACTORS
330
56E
102
}
330
56E
100
AcDbXrecord
280
     1
102
RTVSPropertyOp0
 70
     1
102
RTVSPropertyOp1
 70
     1
102
RTVSPropertyOp2
 70
     1
102
RTVSPropertyOp3
 70
     1
102
RTVSPropertyOp4
 70
     1
102
RTVSPropertyOp5
 70
     1
102
RTVSPropertyOp6
 70
     1
102
RTVSPropertyOp7
 70
     1
102
RTVSPropertyOp8
 70
     1
102
RTVSPropertyOp9
 70
     1
102
RTVSPropertyOp10
 70
     1
102
RTVSPropertyOp11
 70
     1
102
RTVSPropertyOp12
 70
     1
102
RTVSPropertyOp13
 70
     1
102
RTVSPropertyOp14
 70
     1
102
RTVSPropertyOp15
 70
     1
102
RTVSPropertyOp16
 70
     1
102
RTVSPropertyOp17
 70
     1
102
RTVSPropertyOp18
 70
     1
102
RTVSPropertyOp19
 70
     1
102
RTVSPropertyOp20
 70
     1
102
RTVSPropertyOp21
 70
     1
102
RTVSPropertyOp22
 70
     1
102
RTVSPropertyOp23
 70
     1
102
RTVSPropertyOp24
 70
     1
102
RTVSPropertyOp25
 70
     1
102
RTVSPropertyOp26
 70
     1
102
RTVSPropertyOp27
 70
     1
  0
XRECORD
  5
573
102
{ACAD_REACTORS
330
572
102
}
330
572
100
AcDbXrecord
280
     1
102
RTVSPropertyOp0
 70
     1
102
RTVSPropertyOp1
 70
     1
102
RTVSPropertyOp2
 70
     1
102
RTVSPropertyOp3
 70
     1
102
RTVSPropertyOp4
 70
     1
102
RTVSPropertyOp5
 70
     1
102
RTVSPropertyOp6
 70
     1
102
RTVSPropertyOp7
 70
     1
102
RTVSPropertyOp8
 70
     1
102
RTVSPropertyOp9
 70
     1
102
RTVSPropertyOp10
 70
     1
102
RTVSPropertyOp11
 70
     1
102
RTVSPropertyOp12
 70
     1
102
RTVSPropertyOp13
 70
     1
102
RTVSPropertyOp14
 70
     1
102
RTVSPropertyOp15
 70
     1
102
RTVSPropertyOp16
 70
     1
102
RTVSPropertyOp17
 70
     1
102
RTVSPropertyOp18
 70
     1
102
RTVSPropertyOp19
 70
     1
102
RTVSPropertyOp20
 70
     1
102
RTVSPropertyOp21
 70
     1
102
RTVSPropertyOp22
 70
     1
102
RTVSPropertyOp23
 70
     1
102
RTVSPropertyOp24
 70
     1
102
RTVSPropertyOp25
 70
     1
102
RTVSPropertyOp26
 70
     1
102
RTVSPropertyOp27
 70
     1
  0
XRECORD
  5
571
102
{ACAD_REACTORS
330
570
102
}
330
570
100
AcDbXrecord
280
     1
102
RTVSPropertyOp0
 70
     1
102
RTVSPropertyOp1
 70
     1
102
RTVSPropertyOp2
 70
     1
102
RTVSPropertyOp3
 70
     1
102
RTVSPropertyOp4
 70
     1
102
RTVSPropertyOp5
 70
     1
102
RTVSPropertyOp6
 70
     1
102
RTVSPropertyOp7
 70
     1
102
RTVSPropertyOp8
 70
     1
102
RTVSPropertyOp9
 70
     1
102
RTVSPropertyOp10
 70
     1
102
RTVSPropertyOp11
 70
     1
102
RTVSPropertyOp12
 70
     1
102
RTVSPropertyOp13
 70
     1
102
RTVSPropertyOp14
 70
     1
102
RTVSPropertyOp15
 70
     1
102
RTVSPropertyOp16
 70
     1
102
RTVSPropertyOp17
 70
     1
102
RTVSPropertyOp18
 70
     1
102
RTVSPropertyOp19
 70
     1
102
RTVSPropertyOp20
 70
     1
102
RTVSPropertyOp21
 70
     1
102
RTVSPropertyOp22
 70
     1
102
RTVSPropertyOp23
 70
     1
102
RTVSPropertyOp24
 70
     1
102
RTVSPropertyOp25
 70
     1
102
RTVSPropertyOp26
 70
     1
102
RTVSPropertyOp27
 70
     1
  0
XRECORD
  5
575
102
{ACAD_REACTORS
330
574
102
}
330
574
100
AcDbXrecord
280
     1
102
RTVSPropertyOp0
 70
     1
102
RTVSPropertyOp1
 70
     1
102
RTVSPropertyOp2
 70
     1
102
RTVSPropertyOp3
 70
     1
102
RTVSPropertyOp4
 70
     1
102
RTVSPropertyOp5
 70
     1
102
RTVSPropertyOp6
 70
     1
102
RTVSPropertyOp7
 70
     1
102
RTVSPropertyOp8
 70
     1
102
RTVSPropertyOp9
 70
     1
102
RTVSPropertyOp10
 70
     1
102
RTVSPropertyOp11
 70
     1
102
RTVSPropertyOp12
 70
     1
102
RTVSPropertyOp13
 70
     1
102
RTVSPropertyOp14
 70
     1
102
RTVSPropertyOp15
 70
     1
102
RTVSPropertyOp16
 70
     1
102
RTVSPropertyOp17
 70
     1
102
RTVSPropertyOp18
 70
     1
102
RTVSPropertyOp19
 70
     1
102
RTVSPropertyOp20
 70
     1
102
RTVSPropertyOp21
 70
     1
102
RTVSPropertyOp22
 70
     1
102
RTVSPropertyOp23
 70
     1
102
RTVSPropertyOp24
 70
     1
102
RTVSPropertyOp25
 70
     1
102
RTVSPropertyOp26
 70
     1
102
RTVSPropertyOp27
 70
     1
  0
XRECORD
  5
57D
102
{ACAD_REACTORS
330
57C
102
}
330
57C
100
AcDbXrecord
280
     1
102
RTVSPropertyOp0
 70
     1
102
RTVSPropertyOp1
 70
     1
102
RTVSPropertyOp2
 70
     1
102
RTVSPropertyOp3
 70
     1
102
RTVSPropertyOp4
 70
     1
102
RTVSPropertyOp5
 70
     1
102
RTVSPropertyOp6
 70
     1
102
RTVSPropertyOp7
 70
     1
102
RTVSPropertyOp8
 70
     1
102
RTVSPropertyOp9
 70
     1
102
RTVSPropertyOp10
 70
     1
102
RTVSPropertyOp11
 70
     1
102
RTVSPropertyOp12
 70
     1
102
RTVSPropertyOp13
 70
     1
102
RTVSPropertyOp14
 70
     1
102
RTVSPropertyOp15
 70
     1
102
RTVSPropertyOp16
 70
     1
102
RTVSPropertyOp17
 70
     1
102
RTVSPropertyOp18
 70
     1
102
RTVSPropertyOp19
 70
     1
102
RTVSPropertyOp20
 70
     1
102
RTVSPropertyOp21
 70
     1
102
RTVSPropertyOp22
 70
     1
102
RTVSPropertyOp23
 70
     1
102
RTVSPropertyOp24
 70
     1
102
RTVSPropertyOp25
 70
     1
102
RTVSPropertyOp26
 70
     1
102
RTVSPropertyOp27
 70
     1
  0
XRECORD
  5
585
102
{ACAD_REACTORS
330
584
102
}
330
584
100
AcDbXrecord
280
     1
102
RTVSPropertyOp0
 70
     1
102
RTVSPropertyOp1
 70
     1
102
RTVSPropertyOp2
 70
     1
102
RTVSPropertyOp3
 70
     1
102
RTVSPropertyOp4
 70
     1
102
RTVSPropertyOp5
 70
     1
102
RTVSPropertyOp6
 70
     1
102
RTVSPropertyOp7
 70
     1
102
RTVSPropertyOp8
 70
     1
102
RTVSPropertyOp9
 70
     1
102
RTVSPropertyOp10
 70
     1
102
RTVSPropertyOp11
 70
     1
102
RTVSPropertyOp12
 70
     1
102
RTVSPropertyOp13
 70
     1
102
RTVSPropertyOp14
 70
     1
102
RTVSPropertyOp15
 70
     1
102
RTVSPropertyOp16
 70
     1
102
RTVSPropertyOp17
 70
     1
102
RTVSPropertyOp18
 70
     1
102
RTVSPropertyOp19
 70
     1
102
RTVSPropertyOp20
 70
     1
102
RTVSPropertyOp21
 70
     1
102
RTVSPropertyOp22
 70
     1
102
RTVSPropertyOp23
 70
     1
102
RTVSPropertyOp24
 70
     1
102
RTVSPropertyOp25
 70
     1
102
RTVSPropertyOp26
 70
     1
102
RTVSPropertyOp27
 70
     1
  0
XRECORD
  5
579
102
{ACAD_REACTORS
330
578
102
}
330
578
100
AcDbXrecord
280
     1
102
RTVSPropertyOp0
 70
     1
102
RTVSPropertyOp1
 70
     1
102
RTVSPropertyOp2
 70
     1
102
RTVSPropertyOp3
 70
     1
102
RTVSPropertyOp4
 70
     1
102
RTVSPropertyOp5
 70
     1
102
RTVSPropertyOp6
 70
     1
102
RTVSPropertyOp7
 70
     1
102
RTVSPropertyOp8
 70
     1
102
RTVSPropertyOp9
 70
     1
102
RTVSPropertyOp10
 70
     1
102
RTVSPropertyOp11
 70
     1
102
RTVSPropertyOp12
 70
     1
102
RTVSPropertyOp13
 70
     1
102
RTVSPropertyOp14
 70
     1
102
RTVSPropertyOp15
 70
     1
102
RTVSPropertyOp16
 70
     1
102
RTVSPropertyOp17
 70
     1
102
RTVSPropertyOp18
 70
     1
102
RTVSPropertyOp19
 70
     1
102
RTVSPropertyOp20
 70
     1
102
RTVSPropertyOp21
 70
     1
102
RTVSPropertyOp22
 70
     1
102
RTVSPropertyOp23
 70
     1
102
RTVSPropertyOp24
 70
     1
102
RTVSPropertyOp25
 70
     1
102
RTVSPropertyOp26
 70
     1
102
RTVSPropertyOp27
 70
     1
  0
XRECORD
  5
57B
102
{ACAD_REACTORS
330
57A
102
}
330
57A
100
AcDbXrecord
280
     1
102
RTVSPropertyOp0
 70
     1
102
RTVSPropertyOp1
 70
     1
102
RTVSPropertyOp2
 70
     1
102
RTVSPropertyOp3
 70
     1
102
RTVSPropertyOp4
 70
     1
102
RTVSPropertyOp5
 70
     1
102
RTVSPropertyOp6
 70
     1
102
RTVSPropertyOp7
 70
     1
102
RTVSPropertyOp8
 70
     1
102
RTVSPropertyOp9
 70
     1
102
RTVSPropertyOp10
 70
     1
102
RTVSPropertyOp11
 70
     1
102
RTVSPropertyOp12
 70
     1
102
RTVSPropertyOp13
 70
     1
102
RTVSPropertyOp14
 70
     1
102
RTVSPropertyOp15
 70
     1
102
RTVSPropertyOp16
 70
     1
102
RTVSPropertyOp17
 70
     1
102
RTVSPropertyOp18
 70
     1
102
RTVSPropertyOp19
 70
     1
102
RTVSPropertyOp20
 70
     1
102
RTVSPropertyOp21
 70
     1
102
RTVSPropertyOp22
 70
     1
102
RTVSPropertyOp23
 70
     1
102
RTVSPropertyOp24
 70
     1
102
RTVSPropertyOp25
 70
     1
102
RTVSPropertyOp26
 70
     1
102
RTVSPropertyOp27
 70
     1
  0
XRECORD
  5
583
102
{ACAD_REACTORS
330
582
102
}
330
582
100
AcDbXrecord
280
     1
102
RTVSPropertyOp0
 70
     1
102
RTVSPropertyOp1
 70
     1
102
RTVSPropertyOp2
 70
     1
102
RTVSPropertyOp3
 70
     1
102
RTVSPropertyOp4
 70
     1
102
RTVSPropertyOp5
 70
     1
102
RTVSPropertyOp6
 70
     1
102
RTVSPropertyOp7
 70
     1
102
RTVSPropertyOp8
 70
     1
102
RTVSPropertyOp9
 70
     1
102
RTVSPropertyOp10
 70
     1
102
RTVSPropertyOp11
 70
     1
102
RTVSPropertyOp12
 70
     1
102
RTVSPropertyOp13
 70
     1
102
RTVSPropertyOp14
 70
     1
102
RTVSPropertyOp15
 70
     1
102
RTVSPropertyOp16
 70
     1
102
RTVSPropertyOp17
 70
     1
102
RTVSPropertyOp18
 70
     1
102
RTVSPropertyOp19
 70
     1
102
RTVSPropertyOp20
 70
     1
102
RTVSPropertyOp21
 70
     1
102
RTVSPropertyOp22
 70
     1
102
RTVSPropertyOp23
 70
     1
102
RTVSPropertyOp24
 70
     1
102
RTVSPropertyOp25
 70
     1
102
RTVSPropertyOp26
 70
     1
102
RTVSPropertyOp27
 70
     1
  0
XRECORD
  5
567
102
{ACAD_REACTORS
330
566
102
}
330
566
100
AcDbXrecord
280
     1
102
RTVSPropertyOp0
 70
     1
102
RTVSPropertyOp1
 70
     1
102
RTVSPropertyOp2
 70
     1
102
RTVSPropertyOp3
 70
     1
102
RTVSPropertyOp4
 70
     1
102
RTVSPropertyOp5
 70
     1
102
RTVSPropertyOp6
 70
     1
102
RTVSPropertyOp7
 70
     1
102
RTVSPropertyOp8
 70
     1
102
RTVSPropertyOp9
 70
     1
102
RTVSPropertyOp10
 70
     1
102
RTVSPropertyOp11
 70
     1
102
RTVSPropertyOp12
 70
     1
102
RTVSPropertyOp13
 70
     1
102
RTVSPropertyOp14
 70
     1
102
RTVSPropertyOp15
 70
     1
102
RTVSPropertyOp16
 70
     1
102
RTVSPropertyOp17
 70
     1
102
RTVSPropertyOp18
 70
     1
102
RTVSPropertyOp19
 70
     1
102
RTVSPropertyOp20
 70
     1
102
RTVSPropertyOp21
 70
     1
102
RTVSPropertyOp22
 70
     1
102
RTVSPropertyOp23
 70
     1
102
RTVSPropertyOp24
 70
     1
102
RTVSPropertyOp25
 70
     1
102
RTVSPropertyOp26
 70
     1
102
RTVSPropertyOp27
 70
     1
  0
XRECORD
  5
569
102
{ACAD_REACTORS
330
568
102
}
330
568
100
AcDbXrecord
280
     1
102
RTVSPropertyOp0
 70
     1
102
RTVSPropertyOp1
 70
     1
102
RTVSPropertyOp2
 70
     1
102
RTVSPropertyOp3
 70
     1
102
RTVSPropertyOp4
 70
     1
102
RTVSPropertyOp5
 70
     1
102
RTVSPropertyOp6
 70
     1
102
RTVSPropertyOp7
 70
     1
102
RTVSPropertyOp8
 70
     1
102
RTVSPropertyOp9
 70
     1
102
RTVSPropertyOp10
 70
     1
102
RTVSPropertyOp11
 70
     1
102
RTVSPropertyOp12
 70
     1
102
RTVSPropertyOp13
 70
     1
102
RTVSPropertyOp14
 70
     1
102
RTVSPropertyOp15
 70
     1
102
RTVSPropertyOp16
 70
     1
102
RTVSPropertyOp17
 70
     1
102
RTVSPropertyOp18
 70
     1
102
RTVSPropertyOp19
 70
     1
102
RTVSPropertyOp20
 70
     1
102
RTVSPropertyOp21
 70
     1
102
RTVSPropertyOp22
 70
     1
102
RTVSPropertyOp23
 70
     1
102
RTVSPropertyOp24
 70
     1
102
RTVSPropertyOp25
 70
     1
102
RTVSPropertyOp26
 70
     1
102
RTVSPropertyOp27
 70
     1
  0
XRECORD
  5
56B
102
{ACAD_REACTORS
330
56A
102
}
330
56A
100
AcDbXrecord
280
     1
102
RTVSPropertyOp0
 70
     1
102
RTVSPropertyOp1
 70
     1
102
RTVSPropertyOp2
 70
     1
102
RTVSPropertyOp3
 70
     1
102
RTVSPropertyOp4
 70
     1
102
RTVSPropertyOp5
 70
     1
102
RTVSPropertyOp6
 70
     1
102
RTVSPropertyOp7
 70
     1
102
RTVSPropertyOp8
 70
     1
102
RTVSPropertyOp9
 70
     1
102
RTVSPropertyOp10
 70
     1
102
RTVSPropertyOp11
 70
     1
102
RTVSPropertyOp12
 70
     1
102
RTVSPropertyOp13
 70
     1
102
RTVSPropertyOp14
 70
     1
102
RTVSPropertyOp15
 70
     1
102
RTVSPropertyOp16
 70
     1
102
RTVSPropertyOp17
 70
     1
102
RTVSPropertyOp18
 70
     1
102
RTVSPropertyOp19
 70
     1
102
RTVSPropertyOp20
 70
     1
102
RTVSPropertyOp21
 70
     1
102
RTVSPropertyOp22
 70
     1
102
RTVSPropertyOp23
 70
     1
102
RTVSPropertyOp24
 70
     1
102
RTVSPropertyOp25
 70
     1
102
RTVSPropertyOp26
 70
     1
102
RTVSPropertyOp27
 70
     1
  0
XRECORD
  5
56D
102
{ACAD_REACTORS
330
56C
102
}
330
56C
100
AcDbXrecord
280
     1
102
RTVSPropertyOp0
 70
     1
102
RTVSPropertyOp1
 70
     1
102
RTVSPropertyOp2
 70
     1
102
RTVSPropertyOp3
 70
     1
102
RTVSPropertyOp4
 70
     1
102
RTVSPropertyOp5
 70
     1
102
RTVSPropertyOp6
 70
     1
102
RTVSPropertyOp7
 70
     1
102
RTVSPropertyOp8
 70
     1
102
RTVSPropertyOp9
 70
     1
102
RTVSPropertyOp10
 70
     1
102
RTVSPropertyOp11
 70
     1
102
RTVSPropertyOp12
 70
     1
102
RTVSPropertyOp13
 70
     1
102
RTVSPropertyOp14
 70
     1
102
RTVSPropertyOp15
 70
     1
102
RTVSPropertyOp16
 70
     1
102
RTVSPropertyOp17
 70
     1
102
RTVSPropertyOp18
 70
     1
102
RTVSPropertyOp19
 70
     1
102
RTVSPropertyOp20
 70
     1
102
RTVSPropertyOp21
 70
     1
102
RTVSPropertyOp22
 70
     1
102
RTVSPropertyOp23
 70
     1
102
RTVSPropertyOp24
 70
     1
102
RTVSPropertyOp25
 70
     1
102
RTVSPropertyOp26
 70
     1
102
RTVSPropertyOp27
 70
     1
  0
XRECORD
  5
581
102
{ACAD_REACTORS
330
580
102
}
330
580
100
AcDbXrecord
280
     1
102
RTVSPropertyOp0
 70
     1
102
RTVSPropertyOp1
 70
     1
102
RTVSPropertyOp2
 70
     1
102
RTVSPropertyOp3
 70
     1
102
RTVSPropertyOp4
 70
     1
102
RTVSPropertyOp5
 70
     1
102
RTVSPropertyOp6
 70
     1
102
RTVSPropertyOp7
 70
     1
102
RTVSPropertyOp8
 70
     1
102
RTVSPropertyOp9
 70
     1
102
RTVSPropertyOp10
 70
     1
102
RTVSPropertyOp11
 70
     1
102
RTVSPropertyOp12
 70
     1
102
RTVSPropertyOp13
 70
     1
102
RTVSPropertyOp14
 70
     1
102
RTVSPropertyOp15
 70
     1
102
RTVSPropertyOp16
 70
     1
102
RTVSPropertyOp17
 70
     1
102
RTVSPropertyOp18
 70
     1
102
RTVSPropertyOp19
 70
     1
102
RTVSPropertyOp20
 70
     1
102
RTVSPropertyOp21
 70
     1
102
RTVSPropertyOp22
 70
     1
102
RTVSPropertyOp23
 70
     1
102
RTVSPropertyOp24
 70
     1
102
RTVSPropertyOp25
 70
     1
102
RTVSPropertyOp26
 70
     1
102
RTVSPropertyOp27
 70
     1
  0
XRECORD
  5
577
102
{ACAD_REACTORS
330
576
102
}
330
576
100
AcDbXrecord
280
     1
102
RTVSPropertyOp0
 70
     1
102
RTVSPropertyOp1
 70
     1
102
RTVSPropertyOp2
 70
     1
102
RTVSPropertyOp3
 70
     1
102
RTVSPropertyOp4
 70
     1
102
RTVSPropertyOp5
 70
     1
102
RTVSPropertyOp6
 70
     1
102
RTVSPropertyOp7
 70
     1
102
RTVSPropertyOp8
 70
     1
102
RTVSPropertyOp9
 70
     1
102
RTVSPropertyOp10
 70
     1
102
RTVSPropertyOp11
 70
     1
102
RTVSPropertyOp12
 70
     1
102
RTVSPropertyOp13
 70
     1
102
RTVSPropertyOp14
 70
     1
102
RTVSPropertyOp15
 70
     1
102
RTVSPropertyOp16
 70
     1
102
RTVSPropertyOp17
 70
     1
102
RTVSPropertyOp18
 70
     1
102
RTVSPropertyOp19
 70
     1
102
RTVSPropertyOp20
 70
     1
102
RTVSPropertyOp21
 70
     1
102
RTVSPropertyOp22
 70
     1
102
RTVSPropertyOp23
 70
     1
102
RTVSPropertyOp24
 70
     1
102
RTVSPropertyOp25
 70
     1
102
RTVSPropertyOp26
 70
     1
102
RTVSPropertyOp27
 70
     1
  0
XRECORD
  5
57F
102
{ACAD_REACTORS
330
57E
102
}
330
57E
100
AcDbXrecord
280
     1
102
RTVSPropertyOp0
 70
     1
102
RTVSPropertyOp1
 70
     1
102
RTVSPropertyOp2
 70
     1
102
RTVSPropertyOp3
 70
     1
102
RTVSPropertyOp4
 70
     1
102
RTVSPropertyOp5
 70
     1
102
RTVSPropertyOp6
 70
     1
102
RTVSPropertyOp7
 70
     1
102
RTVSPropertyOp8
 70
     1
102
RTVSPropertyOp9
 70
     1
102
RTVSPropertyOp10
 70
     1
102
RTVSPropertyOp11
 70
     1
102
RTVSPropertyOp12
 70
     1
102
RTVSPropertyOp13
 70
     1
102
RTVSPropertyOp14
 70
     1
102
RTVSPropertyOp15
 70
     1
102
RTVSPropertyOp16
 70
     1
102
RTVSPropertyOp17
 70
     1
102
RTVSPropertyOp18
 70
     1
102
RTVSPropertyOp19
 70
     1
102
RTVSPropertyOp20
 70
     1
102
RTVSPropertyOp21
 70
     1
102
RTVSPropertyOp22
 70
     1
102
RTVSPropertyOp23
 70
     1
102
RTVSPropertyOp24
 70
     1
102
RTVSPropertyOp25
 70
     1
102
RTVSPropertyOp26
 70
     1
102
RTVSPropertyOp27
 70
     1
  0
ENDSEC
  0
EOF
