  0
SECTION
  2
HEADER
  9
$ACADVER
  1
AC1015
  9
$ACADMAINTVER
 70
     6
  9
$DWGCODEPAGE
  3
ANSI_932
  9
$INSBASE
 10
0.0
 20
0.0
 30
0.0
  9
$EXTMIN
 10
490.083340669443
 20
-706.322846737615
 30
0.0
  9
$EXTMAX
 10
752.897510512267
 20
-9.6179729618143
 30
0.0
  9
$LIMMIN
 10
0.0
 20
0.0
  9
$LIMMAX
 10
12.0
 20
9.0
  9
$ORTHOMODE
 70
     0
  9
$REGENMODE
 70
     1
  9
$FILLMODE
 70
     1
  9
$QTEXTMODE
 70
     0
  9
$MIRRTEXT
 70
     1
  9
$LTSCALE
 40
1.0
  9
$ATTMODE
 70
     1
  9
$TEXTSIZE
 40
0.2
  9
$TRACEWID
 40
0.05
  9
$TEXTSTYLE
  7
Standard
  9
$CLAYER
  8
0
  9
$CELTYPE
  6
ByLayer
  9
$CECOLOR
 62
   256
  9
$CELTSCALE
 40
1.0
  9
$DISPSILH
 70
     0
  9
$DIMSCALE
 40
1.0
  9
$DIMASZ
 40
0.18
  9
$DIMEXO
 40
0.0625
  9
$DIMDLI
 40
0.38
  9
$DIMRND
 40
0.0
  9
$DIMDLE
 40
0.0
  9
$DIMEXE
 40
0.18
  9
$DIMTP
 40
0.0
  9
$DIMTM
 40
0.0
  9
$DIMTXT
 40
0.18
  9
$DIMCEN
 40
0.09
  9
$DIMTSZ
 40
0.0
  9
$DIMTOL
 70
     0
  9
$DIMLIM
 70
     0
  9
$DIMTIH
 70
     1
  9
$DIMTOH
 70
     1
  9
$DIMSE1
 70
     0
  9
$DIMSE2
 70
     0
  9
$DIMTAD
 70
     0
  9
$DIMZIN
 70
     0
  9
$DIMBLK
  1

  9
$DIMASO
 70
     1
  9
$DIMSHO
 70
     1
  9
$DIMPOST
  1

  9
$DIMAPOST
  1

  9
$DIMALT
 70
     0
  9
$DIMALTD
 70
     2
  9
$DIMALTF
 40
25.4
  9
$DIMLFAC
 40
1.0
  9
$DIMTOFL
 70
     0
  9
$DIMTVP
 40
0.0
  9
$DIMTIX
 70
     0
  9
$DIMSOXD
 70
     0
  9
$DIMSAH
 70
     0
  9
$DIMBLK1
  1

  9
$DIMBLK2
  1

  9
$DIMSTYLE
  2
Standard
  9
$DIMCLRD
 70
     0
  9
$DIMCLRE
 70
     0
  9
$DIMCLRT
 70
     0
  9
$DIMTFAC
 40
1.0
  9
$DIMGAP
 40
0.09
  9
$DIMJUST
 70
     0
  9
$DIMSD1
 70
     0
  9
$DIMSD2
 70
     0
  9
$DIMTOLJ
 70
     1
  9
$DIMTZIN
 70
     0
  9
$DIMALTZ
 70
     0
  9
$DIMALTTZ
 70
     0
  9
$DIMUPT
 70
     0
  9
$DIMDEC
 70
     4
  9
$DIMTDEC
 70
     4
  9
$DIMALTU
 70
     2
  9
$DIMALTTD
 70
     2
  9
$DIMTXSTY
  7
Standard
  9
$DIMAUNIT
 70
     0
  9
$DIMADEC
 70
     0
  9
$DIMALTRND
 40
0.0
  9
$DIMAZIN
 70
     0
  9
$DIMDSEP
 70
    46
  9
$DIMATFIT
 70
     3
  9
$DIMFRAC
 70
     0
  9
$DIMLDRBLK
  1

  9
$DIMLUNIT
 70
     2
  9
$DIMLWD
 70
    -2
  9
$DIMLWE
 70
    -2
  9
$DIMTMOVE
 70
     0
  9
$LUNITS
 70
     2
  9
$LUPREC
 70
     4
  9
$SKETCHINC
 40
0.1
  9
$FILLETRAD
 40
0.5
  9
$AUNITS
 70
     0
  9
$AUPREC
 70
     0
  9
$MENU
  1
.
  9
$ELEVATION
 40
0.0
  9
$PELEVATION
 40
0.0
  9
$THICKNESS
 40
0.0
  9
$LIMCHECK
 70
     0
  9
$CHAMFERA
 40
0.5
  9
$CHAMFERB
 40
0.5
  9
$CHAMFERC
 40
1.0
  9
$CHAMFERD
 40
0.0
  9
$SKPOLY
 70
     0
  9
$TDCREATE
 40
2457624.584106099
  9
$TDUCREATE
 40
2457624.209106099
  9
$TDUPDATE
 40
2457624.584106111
  9
$TDUUPDATE
 40
2457624.209106111
  9
$TDINDWG
 40
0.0000000116
  9
$TDUSRTIMER
 40
0.0000000116
  9
$USRTIMER
 70
     1
  9
$ANGBASE
 50
0.0
  9
$ANGDIR
 70
     0
  9
$PDMODE
 70
     0
  9
$PDSIZE
 40
0.0
  9
$PLINEWID
 40
0.0
  9
$SPLFRAME
 70
     0
  9
$SPLINETYPE
 70
     6
  9
$SPLINESEGS
 70
     8
  9
$HANDSEED
  5
335
  9
$SURFTAB1
 70
     6
  9
$SURFTAB2
 70
     6
  9
$SURFTYPE
 70
     6
  9
$SURFU
 70
     6
  9
$SURFV
 70
     6
  9
$UCSBASE
  2

  9
$UCSNAME
  2

  9
$UCSORG
 10
0.0
 20
0.0
 30
0.0
  9
$UCSXDIR
 10
1.0
 20
0.0
 30
0.0
  9
$UCSYDIR
 10
0.0
 20
1.0
 30
0.0
  9
$UCSORTHOREF
  2

  9
$UCSORTHOVIEW
 70
     0
  9
$UCSORGTOP
 10
0.0
 20
0.0
 30
0.0
  9
$UCSORGBOTTOM
 10
0.0
 20
0.0
 30
0.0
  9
$UCSORGLEFT
 10
0.0
 20
0.0
 30
0.0
  9
$UCSORGRIGHT
 10
0.0
 20
0.0
 30
0.0
  9
$UCSORGFRONT
 10
0.0
 20
0.0
 30
0.0
  9
$UCSORGBACK
 10
0.0
 20
0.0
 30
0.0
  9
$PUCSBASE
  2

  9
$PUCSNAME
  2

  9
$PUCSORG
 10
0.0
 20
0.0
 30
0.0
  9
$PUCSXDIR
 10
1.0
 20
0.0
 30
0.0
  9
$PUCSYDIR
 10
0.0
 20
1.0
 30
0.0
  9
$PUCSORTHOREF
  2

  9
$PUCSORTHOVIEW
 70
     0
  9
$PUCSORGTOP
 10
0.0
 20
0.0
 30
0.0
  9
$PUCSORGBOTTOM
 10
0.0
 20
0.0
 30
0.0
  9
$PUCSORGLEFT
 10
0.0
 20
0.0
 30
0.0
  9
$PUCSORGRIGHT
 10
0.0
 20
0.0
 30
0.0
  9
$PUCSORGFRONT
 10
0.0
 20
0.0
 30
0.0
  9
$PUCSORGBACK
 10
0.0
 20
0.0
 30
0.0
  9
$USERI1
 70
     0
  9
$USERI2
 70
     0
  9
$USERI3
 70
     0
  9
$USERI4
 70
     0
  9
$USERI5
 70
     0
  9
$USERR1
 40
18.0
  9
$USERR2
 40
0.0
  9
$USERR3
 40
0.0
  9
$USERR4
 40
0.0
  9
$USERR5
 40
0.0
  9
$WORLDVIEW
 70
     1
  9
$SHADEDGE
 70
     3
  9
$SHADEDIF
 70
    70
  9
$TILEMODE
 70
     1
  9
$MAXACTVP
 70
    64
  9
$PINSBASE
 10
0.0
 20
0.0
 30
0.0
  9
$PLIMCHECK
 70
     0
  9
$PEXTMIN
 10
1.00000000000000E+20
 20
1.00000000000000E+20
 30
1.00000000000000E+20
  9
$PEXTMAX
 10
-1.00000000000000E+20
 20
-1.00000000000000E+20
 30
-1.00000000000000E+20
  9
$PLIMMIN
 10
0.0
 20
0.0
  9
$PLIMMAX
 10
12.0
 20
9.0
  9
$UNITMODE
 70
     0
  9
$VISRETAIN
 70
     1
  9
$PLINEGEN
 70
     0
  9
$PSLTSCALE
 70
     1
  9
$TREEDEPTH
 70
  3020
  9
$CMLSTYLE
  2
Standard
  9
$CMLJUST
 70
     0
  9
$CMLSCALE
 40
1.0
  9
$PROXYGRAPHICS
 70
     1
  9
$MEASUREMENT
 70
     1
  9
$CELWEIGHT
370
    -1
  9
$ENDCAPS
280
     0
  9
$JOINSTYLE
280
     0
  9
$LWDISPLAY
290
     0
  9
$INSUNITS
 70
     1
  9
$HYPERLINKBASE
  1

  9
$STYLESHEET
  1

  9
$XEDIT
290
     1
  9
$CEPSNTYPE
380
     0
  9
$PSTYLEMODE
290
     1
  9
$FINGERPRINTGUID
  2
{C8279940-8856-47ED-8F70-0A1F68743E5C}
  9
$VERSIONGUID
  2
{FAEB1C32-E019-11D5-929B-00C0DF256EC4}
  9
$EXTNAMES
290
     1
  9
$PSVPSCALE
 40
0.0
  9
$OLESTARTUP
290
     0
  0
ENDSEC
  0
SECTION
  2
CLASSES
  0
CLASS
  1
ACDBDICTIONARYWDFLT
  2
AcDbDictionaryWithDefault
  3
ObjectDBX Classes
 90
        0
280
     0
281
     0
  0
CLASS
  1
VISUALSTYLE
  2
AcDbVisualStyle
  3
ObjectDBX Classes
 90
     4095
280
     0
281
     0
  0
CLASS
  1
MATERIAL
  2
AcDbMaterial
  3
ObjectDBX Classes
 90
     1153
280
     0
281
     0
  0
CLASS
  1

  2
exOdDbCircle
  3

 90
        0
280
     0
281
     1
  0
CLASS
  1

  2
exOdDbSpline
  3

 90
        0
280
     0
281
     1
  0
CLASS
  1
DICTIONARYVAR
  2
AcDbDictionaryVar
  3
ObjectDBX Classes
 90
        0
280
     0
281
     0
  0
CLASS
  1
ACDBPLACEHOLDER
  2
AcDbPlaceHolder
  3
ObjectDBX Classes
 90
        0
280
     0
281
     0
  0
CLASS
  1
LAYOUT
  2
AcDbLayout
  3
ObjectDBX Classes
 90
        0
280
     0
281
     0
  0
ENDSEC
  0
SECTION
  2
TABLES
  0
TABLE
  2
VPORT
  5
8
330
0
100
AcDbSymbolTable
 70
     1
  0
VPORT
  5
29
330
8
100
AcDbSymbolTableRecord
100
AcDbViewportTableRecord
  2
*Active
 70
     0
 10
0.0
 20
0.0
 11
1.0
 21
1.0
 12
621.490425590855
 22
-357.9704098497147
 13
0.0
 23
0.0
 14
0.5
 24
0.5
 15
0.5
 25
0.5
 16
0.0
 26
0.0
 36
1.0
 17
0.0
 27
0.0
 37
0.0
 40
766.3753611533808
 41
1.60267857142857
 42
50.0
 43
0.0
 44
0.0
 50
0.0
 51
0.0
 71
     0
 72
   100
 73
     1
 74
     3
 75
     0
 76
     0
 77
     0
 78
     0
281
     0
 65
     1
110
0.0
120
0.0
130
0.0
111
1.0
121
0.0
131
0.0
112
0.0
122
1.0
132
0.0
 79
     0
146
0.0
  0
ENDTAB
  0
TABLE
  2
LTYPE
  5
5
330
0
100
AcDbSymbolTable
 70
     8
  0
LTYPE
  5
14
330
5
100
AcDbSymbolTableRecord
100
AcDbLinetypeTableRecord
  2
ByBlock
 70
     0
  3

 72
    65
 73
     0
 40
0.0
  0
LTYPE
  5
15
330
5
100
AcDbSymbolTableRecord
100
AcDbLinetypeTableRecord
  2
ByLayer
 70
     0
  3

 72
    65
 73
     0
 40
0.0
  0
LTYPE
  5
16
330
5
100
AcDbSymbolTableRecord
100
AcDbLinetypeTableRecord
  2
Continuous
 70
     0
  3
Solid line
 72
    65
 73
     0
 40
0.0
  0
LTYPE
  5
3F
330
5
100
AcDbSymbolTableRecord
100
AcDbLinetypeTableRecord
  2
DASHED
 70
     0
  3
Dashed
 72
    65
 73
     2
 40
15.0
 49
7.0
 74
     0
 49
-8.0
 74
     0
  0
LTYPE
  5
40
330
5
100
AcDbSymbolTableRecord
100
AcDbLinetypeTableRecord
  2
DOTTED
 70
     0
  3
Dotted
 72
    65
 73
     2
 40
1.0
 49
0.0
 74
     0
 49
-1.0
 74
     0
  0
LTYPE
  5
41
330
5
100
AcDbSymbolTableRecord
100
AcDbLinetypeTableRecord
  2
DOT_CENTER
 70
     0
  3
Dot_Center
 72
    65
 73
     4
 40
14.0
 49
12.0
 74
     0
 49
-1.0
 74
     0
 49
0.0
 74
     0
 49
-1.0
 74
     0
  0
LTYPE
  5
42
330
5
100
AcDbSymbolTableRecord
100
AcDbLinetypeTableRecord
  2
LONG_DASHED
 70
     0
  3
Long_Dashed
 72
    65
 73
     2
 40
15.0
 49
10.0
 74
     0
 49
-5.0
 74
     0
  0
LTYPE
  5
43
330
5
100
AcDbSymbolTableRecord
100
AcDbLinetypeTableRecord
  2
DASH_CENTER
 70
     0
  3
Dash_Center
 72
    65
 73
     4
 40
14.0
 49
11.0
 74
     0
 49
-1.0
 74
     0
 49
1.0
 74
     0
 49
-1.0
 74
     0
  0
LTYPE
  5
44
330
5
100
AcDbSymbolTableRecord
100
AcDbLinetypeTableRecord
  2
PHANTOM
 70
     0
  3
Phantom
 72
    65
 73
     6
 40
13.0
 49
10.0
 74
     0
 49
-1.0
 74
     0
 49
0.0
 74
     0
 49
-1.0
 74
     0
 49
0.0
 74
     0
 49
-1.0
 74
     0
  0
LTYPE
  5
45
330
5
100
AcDbSymbolTableRecord
100
AcDbLinetypeTableRecord
  2
CENTER_DASH_DASH
 70
     0
  3
Center_Dash_Dash
 72
    65
 73
     6
 40
14.0
 49
9.0
 74
     0
 49
-1.0
 74
     0
 49
1.0
 74
     0
 49
-1.0
 74
     0
 49
1.0
 74
     0
 49
-1.0
 74
     0
  0
ENDTAB
  0
TABLE
  2
LAYER
  5
2
330
0
100
AcDbSymbolTable
 70
     2
  0
LAYER
  5
10
330
2
100
AcDbSymbolTableRecord
100
AcDbLayerTableRecord
  2
0
 70
     0
 62
     7
  6
Continuous
370
    -3
390
F
  0
LAYER
  5
46
330
2
100
AcDbSymbolTableRecord
100
AcDbLayerTableRecord
  2
1
 70
     0
 62
     7
  6
Continuous
370
    -3
390
F
  0
ENDTAB
  0
TABLE
  2
STYLE
  5
3
330
0
100
AcDbSymbolTable
 70
     1
  0
STYLE
  5
11
330
3
100
AcDbSymbolTableRecord
100
AcDbTextStyleTableRecord
  2
Standard
 70
     0
 40
0.0
 41
1.0
 50
0.0
 71
     0
 42
0.2
  3
txt
  4

  0
ENDTAB
  0
TABLE
  2
VIEW
  5
6
330
0
100
AcDbSymbolTable
 70
     0
  0
ENDTAB
  0
TABLE
  2
UCS
  5
7
330
0
100
AcDbSymbolTable
 70
     0
  0
ENDTAB
  0
TABLE
  2
APPID
  5
9
330
0
100
AcDbSymbolTable
 70
     1
  0
APPID
  5
12
330
9
100
AcDbSymbolTableRecord
100
AcDbRegAppTableRecord
  2
ACAD
 70
     0
  0
ENDTAB
  0
TABLE
  2
DIMSTYLE
  5
A
330
0
100
AcDbSymbolTable
 70
     1
100
AcDbDimStyleTable
  0
DIMSTYLE
105
27
330
A
100
AcDbSymbolTableRecord
100
AcDbDimStyleTableRecord
  2
Standard
 70
     0
340
11
  0
ENDTAB
  0
TABLE
  2
BLOCK_RECORD
  5
1
330
0
100
AcDbSymbolTable
 70
     1
  0
BLOCK_RECORD
  5
1F
330
1
100
AcDbSymbolTableRecord
100
AcDbBlockTableRecord
  2
*Model_Space
340
22
  0
BLOCK_RECORD
  5
1B
330
1
100
AcDbSymbolTableRecord
100
AcDbBlockTableRecord
  2
*Paper_Space
340
1E
  0
BLOCK_RECORD
  5
23
330
1
100
AcDbSymbolTableRecord
100
AcDbBlockTableRecord
  2
*Paper_Space0
340
26
  0
ENDTAB
  0
ENDSEC
  0
SECTION
  2
BLOCKS
  0
BLOCK
  5
20
330
1F
100
AcDbEntity
  8
0
100
AcDbBlockBegin
  2
*Model_Space
 70
     0
 10
0.0
 20
0.0
 30
0.0
  3
*Model_Space
  1

  0
ENDBLK
  5
21
330
1F
100
AcDbEntity
  8
0
100
AcDbBlockEnd
  0
BLOCK
  5
1C
330
1B
100
AcDbEntity
 67
     1
  8
0
100
AcDbBlockBegin
  2
*Paper_Space
 70
     0
 10
0.0
 20
0.0
 30
0.0
  3
*Paper_Space
  1

  0
ENDBLK
  5
1D
330
1B
100
AcDbEntity
 67
     1
  8
0
100
AcDbBlockEnd
  0
BLOCK
  5
24
330
23
100
AcDbEntity
  8
0
100
AcDbBlockBegin
  2
*Paper_Space0
 70
     0
 10
0.0
 20
0.0
 30
0.0
  3
*Paper_Space0
  1

  0
ENDBLK
  5
25
330
23
100
AcDbEntity
  8
0
100
AcDbBlockEnd
  0
ENDSEC
  0
SECTION
  2
ENTITIES
  0
LINE
  5
47
330
1F
100
AcDbEntity
  8
1
  6
Continuous
 62
     4
100
AcDbLine
 10
752.897510512267
 20
-88.555290720975
 30
0.0
 11
752.897510512267
 21
-89.805290720975
 31
0.0
  0
LINE
  5
48
330
1F
100
AcDbEntity
  8
1
  6
Continuous
 62
     4
100
AcDbLine
 10
752.772510512267
 20
-87.805290720975
 30
0.0
 11
752.897510512267
 21
-88.555290720975
 31
0.0
  0
LINE
  5
49
330
1F
100
AcDbEntity
  8
1
  6
Continuous
 62
     4
100
AcDbLine
 10
752.522510512267
 20
-87.305290720975
 30
0.0
 11
752.772510512267
 21
-87.805290720975
 31
0.0
  0
LINE
  5
4A
330
1F
100
AcDbEntity
  8
1
  6
Continuous
 62
     4
100
AcDbLine
 10
752.272510512267
 20
-87.055290720975
 30
0.0
 11
752.522510512267
 21
-87.305290720975
 31
0.0
  0
LINE
  5
4B
330
1F
100
AcDbEntity
  8
1
  6
Continuous
 62
     4
100
AcDbLine
 10
751.897510512267
 20
-86.805290720975
 30
0.0
 11
752.272510512267
 21
-87.055290720975
 31
0.0
  0
LINE
  5
4C
330
1F
100
AcDbEntity
  8
1
  6
Continuous
 62
     4
100
AcDbLine
 10
751.522510512267
 20
-86.680290720975
 30
0.0
 11
751.897510512267
 21
-86.805290720975
 31
0.0
  0
LINE
  5
4D
330
1F
100
AcDbEntity
  8
1
  6
Continuous
 62
     4
100
AcDbLine
 10
751.272510512267
 20
-86.680290720975
 30
0.0
 11
751.522510512267
 21
-86.680290720975
 31
0.0
  0
LINE
  5
4E
330
1F
100
AcDbEntity
  8
1
  6
Continuous
 62
     4
100
AcDbLine
 10
750.897510512267
 20
-86.805290720975
 30
0.0
 11
751.272510512267
 21
-86.680290720975
 31
0.0
  0
LINE
  5
4F
330
1F
100
AcDbEntity
  8
1
  6
Continuous
 62
     4
100
AcDbLine
 10
750.522510512267
 20
-87.055290720975
 30
0.0
 11
750.897510512267
 21
-86.805290720975
 31
0.0
  0
LINE
  5
50
330
1F
100
AcDbEntity
  8
1
  6
Continuous
 62
     4
100
AcDbLine
 10
750.272510512267
 20
-87.305290720975
 30
0.0
 11
750.522510512267
 21
-87.055290720975
 31
0.0
  0
LINE
  5
51
330
1F
100
AcDbEntity
  8
1
  6
Continuous
 62
     4
100
AcDbLine
 10
750.022510512267
 20
-87.805290720975
 30
0.0
 11
750.272510512267
 21
-87.305290720975
 31
0.0
  0
LINE
  5
52
330
1F
100
AcDbEntity
  8
1
  6
Continuous
 62
     4
100
AcDbLine
 10
749.897510512267
 20
-88.555290720975
 30
0.0
 11
750.022510512267
 21
-87.805290720975
 31
0.0
  0
LINE
  5
53
330
1F
100
AcDbEntity
  8
1
  6
Continuous
 62
     4
100
AcDbLine
 10
749.897510512267
 20
-89.805290720975
 30
0.0
 11
749.897510512267
 21
-88.555290720975
 31
0.0
  0
LINE
  5
54
330
1F
100
AcDbEntity
  8
1
  6
Continuous
 62
     4
100
AcDbLine
 10
750.022510512267
 20
-90.555290720975
 30
0.0
 11
749.897510512267
 21
-89.805290720975
 31
0.0
  0
LINE
  5
55
330
1F
100
AcDbEntity
  8
1
  6
Continuous
 62
     4
100
AcDbLine
 10
750.272510512267
 20
-91.055290720975
 30
0.0
 11
750.022510512267
 21
-90.555290720975
 31
0.0
  0
LINE
  5
56
330
1F
100
AcDbEntity
  8
1
  6
Continuous
 62
     4
100
AcDbLine
 10
750.522510512267
 20
-91.305290720975
 30
0.0
 11
750.272510512267
 21
-91.055290720975
 31
0.0
  0
LINE
  5
57
330
1F
100
AcDbEntity
  8
1
  6
Continuous
 62
     4
100
AcDbLine
 10
750.897510512267
 20
-91.555290720975
 30
0.0
 11
750.522510512267
 21
-91.305290720975
 31
0.0
  0
LINE
  5
58
330
1F
100
AcDbEntity
  8
1
  6
Continuous
 62
     4
100
AcDbLine
 10
751.272510512267
 20
-91.680290720975
 30
0.0
 11
750.897510512267
 21
-91.555290720975
 31
0.0
  0
LINE
  5
59
330
1F
100
AcDbEntity
  8
1
  6
Continuous
 62
     4
100
AcDbLine
 10
751.522510512267
 20
-91.680290720975
 30
0.0
 11
751.272510512267
 21
-91.680290720975
 31
0.0
  0
LINE
  5
5A
330
1F
100
AcDbEntity
  8
1
  6
Continuous
 62
     4
100
AcDbLine
 10
751.897510512267
 20
-91.555290720975
 30
0.0
 11
751.522510512267
 21
-91.680290720975
 31
0.0
  0
LINE
  5
5B
330
1F
100
AcDbEntity
  8
1
  6
Continuous
 62
     4
100
AcDbLine
 10
752.272510512267
 20
-91.305290720975
 30
0.0
 11
751.897510512267
 21
-91.555290720975
 31
0.0
  0
LINE
  5
5C
330
1F
100
AcDbEntity
  8
1
  6
Continuous
 62
     4
100
AcDbLine
 10
752.522510512267
 20
-91.055290720975
 30
0.0
 11
752.272510512267
 21
-91.305290720975
 31
0.0
  0
LINE
  5
5D
330
1F
100
AcDbEntity
  8
1
  6
Continuous
 62
     4
100
AcDbLine
 10
752.772510512267
 20
-90.555290720975
 30
0.0
 11
752.522510512267
 21
-91.055290720975
 31
0.0
  0
LINE
  5
5E
330
1F
100
AcDbEntity
  8
1
  6
Continuous
 62
     4
100
AcDbLine
 10
752.897510512267
 20
-89.805290720975
 30
0.0
 11
752.772510512267
 21
-90.555290720975
 31
0.0
  0
LINE
  5
5F
330
1F
100
AcDbEntity
  8
1
  6
Continuous
 62
     4
100
AcDbLine
 10
747.272510512267
 20
-91.680290720975
 30
0.0
 11
745.397510512267
 21
-91.680290720975
 31
0.0
  0
LINE
  5
60
330
1F
100
AcDbEntity
  8
1
  6
Continuous
 62
     4
100
AcDbLine
 10
747.647510512267
 20
-91.555290720975
 30
0.0
 11
747.272510512267
 21
-91.680290720975
 31
0.0
  0
LINE
  5
61
330
1F
100
AcDbEntity
  8
1
  6
Continuous
 62
     4
100
AcDbLine
 10
748.022510512267
 20
-91.305290720975
 30
0.0
 11
747.647510512267
 21
-91.555290720975
 31
0.0
  0
LINE
  5
62
330
1F
100
AcDbEntity
  8
1
  6
Continuous
 62
     4
100
AcDbLine
 10
748.272510512267
 20
-90.930290720975
 30
0.0
 11
748.022510512267
 21
-91.305290720975
 31
0.0
  0
LINE
  5
63
330
1F
100
AcDbEntity
  8
1
  6
Continuous
 62
     4
100
AcDbLine
 10
748.397510512267
 20
-90.430290720975
 30
0.0
 11
748.272510512267
 21
-90.930290720975
 31
0.0
  0
LINE
  5
64
330
1F
100
AcDbEntity
  8
1
  6
Continuous
 62
     4
100
AcDbLine
 10
748.397510512267
 20
-89.680290720975
 30
0.0
 11
748.397510512267
 21
-90.430290720975
 31
0.0
  0
LINE
  5
65
330
1F
100
AcDbEntity
  8
1
  6
Continuous
 62
     4
100
AcDbLine
 10
748.272510512267
 20
-89.180290720975
 30
0.0
 11
748.397510512267
 21
-89.680290720975
 31
0.0
  0
LINE
  5
66
330
1F
100
AcDbEntity
  8
1
  6
Continuous
 62
     4
100
AcDbLine
 10
747.897510512267
 20
-88.805290720975
 30
0.0
 11
748.272510512267
 21
-89.180290720975
 31
0.0
  0
LINE
  5
67
330
1F
100
AcDbEntity
  8
1
  6
Continuous
 62
     4
100
AcDbLine
 10
747.272510512267
 20
-88.680290720975
 30
0.0
 11
747.897510512267
 21
-88.805290720975
 31
0.0
  0
LINE
  5
68
330
1F
100
AcDbEntity
  8
1
  6
Continuous
 62
     4
100
AcDbLine
 10
745.397510512267
 20
-88.680290720975
 30
0.0
 11
747.272510512267
 21
-88.680290720975
 31
0.0
  0
LINE
  5
69
330
1F
100
AcDbEntity
  8
1
  6
Continuous
 62
     4
100
AcDbLine
 10
745.397510512267
 20
-86.680290720975
 30
0.0
 11
745.397510512267
 21
-88.680290720975
 31
0.0
  0
LINE
  5
6A
330
1F
100
AcDbEntity
  8
1
  6
Continuous
 62
     4
100
AcDbLine
 10
748.147510512267
 20
-86.680290720975
 30
0.0
 11
745.397510512267
 21
-86.680290720975
 31
0.0
  0
LINE
  5
6B
330
1F
100
AcDbEntity
  8
1
  6
Continuous
 62
     4
100
AcDbLine
 10
743.897510512267
 20
-88.555290720975
 30
0.0
 11
743.897510512267
 21
-89.805290720975
 31
0.0
  0
LINE
  5
6C
330
1F
100
AcDbEntity
  8
1
  6
Continuous
 62
     4
100
AcDbLine
 10
743.772510512267
 20
-87.805290720975
 30
0.0
 11
743.897510512267
 21
-88.555290720975
 31
0.0
  0
LINE
  5
6D
330
1F
100
AcDbEntity
  8
1
  6
Continuous
 62
     4
100
AcDbLine
 10
743.522510512267
 20
-87.305290720975
 30
0.0
 11
743.772510512267
 21
-87.805290720975
 31
0.0
  0
LINE
  5
6E
330
1F
100
AcDbEntity
  8
1
  6
Continuous
 62
     4
100
AcDbLine
 10
743.272510512267
 20
-87.055290720975
 30
0.0
 11
743.522510512267
 21
-87.305290720975
 31
0.0
  0
LINE
  5
6F
330
1F
100
AcDbEntity
  8
1
  6
Continuous
 62
     4
100
AcDbLine
 10
742.897510512267
 20
-86.805290720975
 30
0.0
 11
743.272510512267
 21
-87.055290720975
 31
0.0
  0
LINE
  5
70
330
1F
100
AcDbEntity
  8
1
  6
Continuous
 62
     4
100
AcDbLine
 10
742.522510512267
 20
-86.680290720975
 30
0.0
 11
742.897510512267
 21
-86.805290720975
 31
0.0
  0
LINE
  5
71
330
1F
100
AcDbEntity
  8
1
  6
Continuous
 62
     4
100
AcDbLine
 10
742.272510512267
 20
-86.680290720975
 30
0.0
 11
742.522510512267
 21
-86.680290720975
 31
0.0
  0
LINE
  5
72
330
1F
100
AcDbEntity
  8
1
  6
Continuous
 62
     4
100
AcDbLine
 10
741.897510512267
 20
-86.805290720975
 30
0.0
 11
742.272510512267
 21
-86.680290720975
 31
0.0
  0
LINE
  5
73
330
1F
100
AcDbEntity
  8
1
  6
Continuous
 62
     4
100
AcDbLine
 10
741.522510512267
 20
-87.055290720975
 30
0.0
 11
741.897510512267
 21
-86.805290720975
 31
0.0
  0
LINE
  5
74
330
1F
100
AcDbEntity
  8
1
  6
Continuous
 62
     4
100
AcDbLine
 10
741.272510512267
 20
-87.305290720975
 30
0.0
 11
741.522510512267
 21
-87.055290720975
 31
0.0
  0
LINE
  5
75
330
1F
100
AcDbEntity
  8
1
  6
Continuous
 62
     4
100
AcDbLine
 10
741.022510512267
 20
-87.805290720975
 30
0.0
 11
741.272510512267
 21
-87.305290720975
 31
0.0
  0
LINE
  5
76
330
1F
100
AcDbEntity
  8
1
  6
Continuous
 62
     4
100
AcDbLine
 10
740.897510512267
 20
-88.555290720975
 30
0.0
 11
741.022510512267
 21
-87.805290720975
 31
0.0
  0
LINE
  5
77
330
1F
100
AcDbEntity
  8
1
  6
Continuous
 62
     4
100
AcDbLine
 10
740.897510512267
 20
-89.805290720975
 30
0.0
 11
740.897510512267
 21
-88.555290720975
 31
0.0
  0
LINE
  5
78
330
1F
100
AcDbEntity
  8
1
  6
Continuous
 62
     4
100
AcDbLine
 10
741.022510512267
 20
-90.555290720975
 30
0.0
 11
740.897510512267
 21
-89.805290720975
 31
0.0
  0
LINE
  5
79
330
1F
100
AcDbEntity
  8
1
  6
Continuous
 62
     4
100
AcDbLine
 10
741.272510512267
 20
-91.055290720975
 30
0.0
 11
741.022510512267
 21
-90.555290720975
 31
0.0
  0
LINE
  5
7A
330
1F
100
AcDbEntity
  8
1
  6
Continuous
 62
     4
100
AcDbLine
 10
741.522510512267
 20
-91.305290720975
 30
0.0
 11
741.272510512267
 21
-91.055290720975
 31
0.0
  0
LINE
  5
7B
330
1F
100
AcDbEntity
  8
1
  6
Continuous
 62
     4
100
AcDbLine
 10
741.897510512267
 20
-91.555290720975
 30
0.0
 11
741.522510512267
 21
-91.305290720975
 31
0.0
  0
LINE
  5
7C
330
1F
100
AcDbEntity
  8
1
  6
Continuous
 62
     4
100
AcDbLine
 10
742.272510512267
 20
-91.680290720975
 30
0.0
 11
741.897510512267
 21
-91.555290720975
 31
0.0
  0
LINE
  5
7D
330
1F
100
AcDbEntity
  8
1
  6
Continuous
 62
     4
100
AcDbLine
 10
742.522510512267
 20
-91.680290720975
 30
0.0
 11
742.272510512267
 21
-91.680290720975
 31
0.0
  0
LINE
  5
7E
330
1F
100
AcDbEntity
  8
1
  6
Continuous
 62
     4
100
AcDbLine
 10
742.897510512267
 20
-91.555290720975
 30
0.0
 11
742.522510512267
 21
-91.680290720975
 31
0.0
  0
LINE
  5
7F
330
1F
100
AcDbEntity
  8
1
  6
Continuous
 62
     4
100
AcDbLine
 10
743.272510512267
 20
-91.305290720975
 30
0.0
 11
742.897510512267
 21
-91.555290720975
 31
0.0
  0
LINE
  5
80
330
1F
100
AcDbEntity
  8
1
  6
Continuous
 62
     4
100
AcDbLine
 10
743.522510512267
 20
-91.055290720975
 30
0.0
 11
743.272510512267
 21
-91.305290720975
 31
0.0
  0
LINE
  5
81
330
1F
100
AcDbEntity
  8
1
  6
Continuous
 62
     4
100
AcDbLine
 10
743.772510512267
 20
-90.555290720975
 30
0.0
 11
743.522510512267
 21
-91.055290720975
 31
0.0
  0
LINE
  5
82
330
1F
100
AcDbEntity
  8
1
  6
Continuous
 62
     4
100
AcDbLine
 10
743.897510512267
 20
-89.805290720975
 30
0.0
 11
743.772510512267
 21
-90.555290720975
 31
0.0
  0
LINE
  5
83
330
1F
100
AcDbEntity
  8
1
  6
Continuous
 62
     4
100
AcDbLine
 10
738.272510512267
 20
-91.680290720975
 30
0.0
 11
736.397510512267
 21
-91.680290720975
 31
0.0
  0
LINE
  5
84
330
1F
100
AcDbEntity
  8
1
  6
Continuous
 62
     4
100
AcDbLine
 10
738.647510512267
 20
-91.555290720975
 30
0.0
 11
738.272510512267
 21
-91.680290720975
 31
0.0
  0
LINE
  5
85
330
1F
100
AcDbEntity
  8
1
  6
Continuous
 62
     4
100
AcDbLine
 10
739.022510512267
 20
-91.305290720975
 30
0.0
 11
738.647510512267
 21
-91.555290720975
 31
0.0
  0
LINE
  5
86
330
1F
100
AcDbEntity
  8
1
  6
Continuous
 62
     4
100
AcDbLine
 10
739.272510512267
 20
-90.930290720975
 30
0.0
 11
739.022510512267
 21
-91.305290720975
 31
0.0
  0
LINE
  5
87
330
1F
100
AcDbEntity
  8
1
  6
Continuous
 62
     4
100
AcDbLine
 10
739.397510512267
 20
-90.430290720975
 30
0.0
 11
739.272510512267
 21
-90.930290720975
 31
0.0
  0
LINE
  5
88
330
1F
100
AcDbEntity
  8
1
  6
Continuous
 62
     4
100
AcDbLine
 10
739.397510512267
 20
-89.805290720975
 30
0.0
 11
739.397510512267
 21
-90.430290720975
 31
0.0
  0
LINE
  5
89
330
1F
100
AcDbEntity
  8
1
  6
Continuous
 62
     4
100
AcDbLine
 10
739.272510512267
 20
-89.305290720975
 30
0.0
 11
739.397510512267
 21
-89.805290720975
 31
0.0
  0
LINE
  5
8A
330
1F
100
AcDbEntity
  8
1
  6
Continuous
 62
     4
100
AcDbLine
 10
739.147510512267
 20
-89.055290720975
 30
0.0
 11
739.272510512267
 21
-89.305290720975
 31
0.0
  0
LINE
  5
8B
330
1F
100
AcDbEntity
  8
1
  6
Continuous
 62
     4
100
AcDbLine
 10
738.897510512267
 20
-88.805290720975
 30
0.0
 11
739.147510512267
 21
-89.055290720975
 31
0.0
  0
LINE
  5
8C
330
1F
100
AcDbEntity
  8
1
  6
Continuous
 62
     4
100
AcDbLine
 10
738.397510512267
 20
-88.680290720975
 30
0.0
 11
738.897510512267
 21
-88.805290720975
 31
0.0
  0
LINE
  5
8D
330
1F
100
AcDbEntity
  8
1
  6
Continuous
 62
     4
100
AcDbLine
 10
738.772510512267
 20
-88.555290720975
 30
0.0
 11
738.397510512267
 21
-88.680290720975
 31
0.0
  0
LINE
  5
8E
330
1F
100
AcDbEntity
  8
1
  6
Continuous
 62
     4
100
AcDbLine
 10
739.022510512267
 20
-88.430290720975
 30
0.0
 11
738.772510512267
 21
-88.555290720975
 31
0.0
  0
LINE
  5
8F
330
1F
100
AcDbEntity
  8
1
  6
Continuous
 62
     4
100
AcDbLine
 10
739.272510512267
 20
-88.180290720975
 30
0.0
 11
739.022510512267
 21
-88.430290720975
 31
0.0
  0
LINE
  5
90
330
1F
100
AcDbEntity
  8
1
  6
Continuous
 62
     4
100
AcDbLine
 10
739.397510512267
 20
-87.805290720975
 30
0.0
 11
739.272510512267
 21
-88.180290720975
 31
0.0
  0
LINE
  5
91
330
1F
100
AcDbEntity
  8
1
  6
Continuous
 62
     4
100
AcDbLine
 10
739.397510512267
 20
-87.430290720975
 30
0.0
 11
739.397510512267
 21
-87.805290720975
 31
0.0
  0
LINE
  5
92
330
1F
100
AcDbEntity
  8
1
  6
Continuous
 62
     4
100
AcDbLine
 10
739.272510512267
 20
-87.055290720975
 30
0.0
 11
739.397510512267
 21
-87.430290720975
 31
0.0
  0
LINE
  5
93
330
1F
100
AcDbEntity
  8
1
  6
Continuous
 62
     4
100
AcDbLine
 10
738.897510512267
 20
-86.805290720975
 30
0.0
 11
739.272510512267
 21
-87.055290720975
 31
0.0
  0
LINE
  5
94
330
1F
100
AcDbEntity
  8
1
  6
Continuous
 62
     4
100
AcDbLine
 10
738.272510512267
 20
-86.680290720975
 30
0.0
 11
738.897510512267
 21
-86.805290720975
 31
0.0
  0
LINE
  5
95
330
1F
100
AcDbEntity
  8
1
  6
Continuous
 62
     4
100
AcDbLine
 10
736.397510512267
 20
-86.680290720975
 30
0.0
 11
738.272510512267
 21
-86.680290720975
 31
0.0
  0
LINE
  5
96
330
1F
100
AcDbEntity
  8
1
  6
Continuous
 62
     4
100
AcDbLine
 10
737.147510512267
 20
-88.680290720975
 30
0.0
 11
738.397510512267
 21
-88.680290720975
 31
0.0
  0
LINE
  5
97
330
1F
100
AcDbEntity
  8
1
  6
Continuous
 62
     4
100
AcDbLine
 10
734.897510512267
 20
-86.680290720975
 30
0.0
 11
734.897510512267
 21
-91.680290720975
 31
0.0
  0
LINE
  5
98
330
1F
100
AcDbEntity
  8
1
  6
Continuous
 62
     4
100
AcDbLine
 10
733.397510512267
 20
-88.180290720975
 30
0.0
 11
734.897510512267
 21
-86.680290720975
 31
0.0
  0
LINE
  5
99
330
1F
100
AcDbEntity
  8
1
  6
Continuous
 62
     4
100
AcDbLine
 10
730.772510512267
 20
-91.680290720975
 30
0.0
 11
728.897510512267
 21
-91.680290720975
 31
0.0
  0
LINE
  5
9A
330
1F
100
AcDbEntity
  8
1
  6
Continuous
 62
     4
100
AcDbLine
 10
731.147510512267
 20
-91.555290720975
 30
0.0
 11
730.772510512267
 21
-91.680290720975
 31
0.0
  0
LINE
  5
9B
330
1F
100
AcDbEntity
  8
1
  6
Continuous
 62
     4
100
AcDbLine
 10
731.522510512267
 20
-91.305290720975
 30
0.0
 11
731.147510512267
 21
-91.555290720975
 31
0.0
  0
LINE
  5
9C
330
1F
100
AcDbEntity
  8
1
  6
Continuous
 62
     4
100
AcDbLine
 10
731.772510512267
 20
-90.930290720975
 30
0.0
 11
731.522510512267
 21
-91.305290720975
 31
0.0
  0
LINE
  5
9D
330
1F
100
AcDbEntity
  8
1
  6
Continuous
 62
     4
100
AcDbLine
 10
731.897510512267
 20
-90.430290720975
 30
0.0
 11
731.772510512267
 21
-90.930290720975
 31
0.0
  0
LINE
  5
9E
330
1F
100
AcDbEntity
  8
1
  6
Continuous
 62
     4
100
AcDbLine
 10
731.897510512267
 20
-89.805290720975
 30
0.0
 11
731.897510512267
 21
-90.430290720975
 31
0.0
  0
LINE
  5
9F
330
1F
100
AcDbEntity
  8
1
  6
Continuous
 62
     4
100
AcDbLine
 10
731.772510512267
 20
-89.305290720975
 30
0.0
 11
731.897510512267
 21
-89.805290720975
 31
0.0
  0
LINE
  5
A0
330
1F
100
AcDbEntity
  8
1
  6
Continuous
 62
     4
100
AcDbLine
 10
731.647510512267
 20
-89.055290720975
 30
0.0
 11
731.772510512267
 21
-89.305290720975
 31
0.0
  0
LINE
  5
A1
330
1F
100
AcDbEntity
  8
1
  6
Continuous
 62
     4
100
AcDbLine
 10
731.397510512267
 20
-88.805290720975
 30
0.0
 11
731.647510512267
 21
-89.055290720975
 31
0.0
  0
LINE
  5
A2
330
1F
100
AcDbEntity
  8
1
  6
Continuous
 62
     4
100
AcDbLine
 10
730.897510512267
 20
-88.680290720975
 30
0.0
 11
731.397510512267
 21
-88.805290720975
 31
0.0
  0
LINE
  5
A3
330
1F
100
AcDbEntity
  8
1
  6
Continuous
 62
     4
100
AcDbLine
 10
731.272510512267
 20
-88.555290720975
 30
0.0
 11
730.897510512267
 21
-88.680290720975
 31
0.0
  0
LINE
  5
A4
330
1F
100
AcDbEntity
  8
1
  6
Continuous
 62
     4
100
AcDbLine
 10
731.522510512267
 20
-88.430290720975
 30
0.0
 11
731.272510512267
 21
-88.555290720975
 31
0.0
  0
LINE
  5
A5
330
1F
100
AcDbEntity
  8
1
  6
Continuous
 62
     4
100
AcDbLine
 10
731.772510512267
 20
-88.180290720975
 30
0.0
 11
731.522510512267
 21
-88.430290720975
 31
0.0
  0
LINE
  5
A6
330
1F
100
AcDbEntity
  8
1
  6
Continuous
 62
     4
100
AcDbLine
 10
731.897510512267
 20
-87.805290720975
 30
0.0
 11
731.772510512267
 21
-88.180290720975
 31
0.0
  0
LINE
  5
A7
330
1F
100
AcDbEntity
  8
1
  6
Continuous
 62
     4
100
AcDbLine
 10
731.897510512267
 20
-87.430290720975
 30
0.0
 11
731.897510512267
 21
-87.805290720975
 31
0.0
  0
LINE
  5
A8
330
1F
100
AcDbEntity
  8
1
  6
Continuous
 62
     4
100
AcDbLine
 10
731.772510512267
 20
-87.055290720975
 30
0.0
 11
731.897510512267
 21
-87.430290720975
 31
0.0
  0
LINE
  5
A9
330
1F
100
AcDbEntity
  8
1
  6
Continuous
 62
     4
100
AcDbLine
 10
731.397510512267
 20
-86.805290720975
 30
0.0
 11
731.772510512267
 21
-87.055290720975
 31
0.0
  0
LINE
  5
AA
330
1F
100
AcDbEntity
  8
1
  6
Continuous
 62
     4
100
AcDbLine
 10
730.772510512267
 20
-86.680290720975
 30
0.0
 11
731.397510512267
 21
-86.805290720975
 31
0.0
  0
LINE
  5
AB
330
1F
100
AcDbEntity
  8
1
  6
Continuous
 62
     4
100
AcDbLine
 10
728.897510512267
 20
-86.680290720975
 30
0.0
 11
730.772510512267
 21
-86.680290720975
 31
0.0
  0
LINE
  5
AC
330
1F
100
AcDbEntity
  8
1
  6
Continuous
 62
     4
100
AcDbLine
 10
729.647510512267
 20
-88.680290720975
 30
0.0
 11
730.897510512267
 21
-88.680290720975
 31
0.0
  0
LINE
  5
AD
330
1F
100
AcDbEntity
  8
1
  6
Continuous
 62
     4
100
AcDbLine
 10
727.397510512267
 20
-86.680290720975
 30
0.0
 11
727.397510512267
 21
-91.680290720975
 31
0.0
  0
LINE
  5
AE
330
1F
100
AcDbEntity
  8
1
  6
Continuous
 62
     4
100
AcDbLine
 10
725.897510512267
 20
-88.180290720975
 30
0.0
 11
727.397510512267
 21
-86.680290720975
 31
0.0
  0
LINE
  5
AF
330
1F
100
AcDbEntity
  8
1
  6
Continuous
 62
     4
100
AcDbLine
 10
721.897510512267
 20
-89.930290720975
 30
0.0
 11
724.397510512267
 21
-89.930290720975
 31
0.0
  0
LINE
  5
B0
330
1F
100
AcDbEntity
  8
1
  6
Continuous
 62
     4
100
AcDbLine
 10
716.897510512267
 20
-88.930290720975
 30
0.0
 11
716.897510512267
 21
-89.180290720975
 31
0.0
  0
LINE
  5
B1
330
1F
100
AcDbEntity
  8
1
  6
Continuous
 62
     4
100
AcDbLine
 10
720.397510512267
 20
-88.930290720975
 30
0.0
 11
720.397510512267
 21
-91.680290720975
 31
0.0
  0
LINE
  5
B2
330
1F
100
AcDbEntity
  8
1
  6
Continuous
 62
     4
100
AcDbLine
 10
716.897510512267
 20
-89.180290720975
 30
0.0
 11
716.897510512267
 21
-91.680290720975
 31
0.0
  0
LINE
  5
B3
330
1F
100
AcDbEntity
  8
1
  6
Continuous
 62
     4
100
AcDbLine
 10
716.897510512267
 20
-86.680290720975
 30
0.0
 11
716.897510512267
 21
-88.930290720975
 31
0.0
  0
LINE
  5
B4
330
1F
100
AcDbEntity
  8
1
  6
Continuous
 62
     4
100
AcDbLine
 10
716.897510512267
 20
-88.930290720975
 30
0.0
 11
720.397510512267
 21
-88.930290720975
 31
0.0
  0
LINE
  5
B5
330
1F
100
AcDbEntity
  8
1
  6
Continuous
 62
     4
100
AcDbLine
 10
720.397510512267
 20
-86.680290720975
 30
0.0
 11
720.397510512267
 21
-88.930290720975
 31
0.0
  0
LINE
  5
B6
330
1F
100
AcDbEntity
  8
1
  6
Continuous
 62
     4
100
AcDbLine
 10
712.147510512267
 20
-91.305290720975
 30
0.0
 11
711.897510512267
 21
-91.055290720975
 31
0.0
  0
LINE
  5
B7
330
1F
100
AcDbEntity
  8
1
  6
Continuous
 62
     4
100
AcDbLine
 10
712.647510512267
 20
-91.555290720975
 30
0.0
 11
712.147510512267
 21
-91.305290720975
 31
0.0
  0
LINE
  5
B8
330
1F
100
AcDbEntity
  8
1
  6
Continuous
 62
     4
100
AcDbLine
 10
713.272510512267
 20
-91.680290720975
 30
0.0
 11
712.647510512267
 21
-91.555290720975
 31
0.0
  0
LINE
  5
B9
330
1F
100
AcDbEntity
  8
1
  6
Continuous
 62
     4
100
AcDbLine
 10
714.022510512267
 20
-91.680290720975
 30
0.0
 11
713.272510512267
 21
-91.680290720975
 31
0.0
  0
LINE
  5
BA
330
1F
100
AcDbEntity
  8
1
  6
Continuous
 62
     4
100
AcDbLine
 10
714.647510512267
 20
-91.555290720975
 30
0.0
 11
714.022510512267
 21
-91.680290720975
 31
0.0
  0
LINE
  5
BB
330
1F
100
AcDbEntity
  8
1
  6
Continuous
 62
     4
100
AcDbLine
 10
715.022510512267
 20
-91.305290720975
 30
0.0
 11
714.647510512267
 21
-91.555290720975
 31
0.0
  0
LINE
  5
BC
330
1F
100
AcDbEntity
  8
1
  6
Continuous
 62
     4
100
AcDbLine
 10
715.272510512267
 20
-90.930290720975
 30
0.0
 11
715.022510512267
 21
-91.305290720975
 31
0.0
  0
LINE
  5
BD
330
1F
100
AcDbEntity
  8
1
  6
Continuous
 62
     4
100
AcDbLine
 10
715.397510512267
 20
-90.555290720975
 30
0.0
 11
715.272510512267
 21
-90.930290720975
 31
0.0
  0
LINE
  5
BE
330
1F
100
AcDbEntity
  8
1
  6
Continuous
 62
     4
100
AcDbLine
 10
715.397510512267
 20
-90.305290720975
 30
0.0
 11
715.397510512267
 21
-90.555290720975
 31
0.0
  0
LINE
  5
BF
330
1F
100
AcDbEntity
  8
1
  6
Continuous
 62
     4
100
AcDbLine
 10
715.272510512267
 20
-89.930290720975
 30
0.0
 11
715.397510512267
 21
-90.305290720975
 31
0.0
  0
LINE
  5
C0
330
1F
100
AcDbEntity
  8
1
  6
Continuous
 62
     4
100
AcDbLine
 10
715.022510512267
 20
-89.555290720975
 30
0.0
 11
715.272510512267
 21
-89.930290720975
 31
0.0
  0
LINE
  5
C1
330
1F
100
AcDbEntity
  8
1
  6
Continuous
 62
     4
100
AcDbLine
 10
714.647510512267
 20
-89.305290720975
 30
0.0
 11
715.022510512267
 21
-89.555290720975
 31
0.0
  0
LINE
  5
C2
330
1F
100
AcDbEntity
  8
1
  6
Continuous
 62
     4
100
AcDbLine
 10
712.522510512267
 20
-88.430290720975
 30
0.0
 11
714.647510512267
 21
-89.305290720975
 31
0.0
  0
LINE
  5
C3
330
1F
100
AcDbEntity
  8
1
  6
Continuous
 62
     4
100
AcDbLine
 10
712.147510512267
 20
-88.180290720975
 30
0.0
 11
712.522510512267
 21
-88.430290720975
 31
0.0
  0
LINE
  5
C4
330
1F
100
AcDbEntity
  8
1
  6
Continuous
 62
     4
100
AcDbLine
 10
712.022510512267
 20
-87.805290720975
 30
0.0
 11
712.147510512267
 21
-88.180290720975
 31
0.0
  0
LINE
  5
C5
330
1F
100
AcDbEntity
  8
1
  6
Continuous
 62
     4
100
AcDbLine
 10
712.022510512267
 20
-87.555290720975
 30
0.0
 11
712.022510512267
 21
-87.805290720975
 31
0.0
  0
LINE
  5
C6
330
1F
100
AcDbEntity
  8
1
  6
Continuous
 62
     4
100
AcDbLine
 10
712.147510512267
 20
-87.180290720975
 30
0.0
 11
712.022510512267
 21
-87.555290720975
 31
0.0
  0
LINE
  5
C7
330
1F
100
AcDbEntity
  8
1
  6
Continuous
 62
     4
100
AcDbLine
 10
712.522510512267
 20
-86.930290720975
 30
0.0
 11
712.147510512267
 21
-87.180290720975
 31
0.0
  0
LINE
  5
C8
330
1F
100
AcDbEntity
  8
1
  6
Continuous
 62
     4
100
AcDbLine
 10
712.897510512267
 20
-86.805290720975
 30
0.0
 11
712.522510512267
 21
-86.930290720975
 31
0.0
  0
LINE
  5
C9
330
1F
100
AcDbEntity
  8
1
  6
Continuous
 62
     4
100
AcDbLine
 10
713.397510512267
 20
-86.680290720975
 30
0.0
 11
712.897510512267
 21
-86.805290720975
 31
0.0
  0
LINE
  5
CA
330
1F
100
AcDbEntity
  8
1
  6
Continuous
 62
     4
100
AcDbLine
 10
713.897510512267
 20
-86.680290720975
 30
0.0
 11
713.397510512267
 21
-86.680290720975
 31
0.0
  0
LINE
  5
CB
330
1F
100
AcDbEntity
  8
1
  6
Continuous
 62
     4
100
AcDbLine
 10
714.522510512267
 20
-86.805290720975
 30
0.0
 11
713.897510512267
 21
-86.680290720975
 31
0.0
  0
LINE
  5
CC
330
1F
100
AcDbEntity
  8
1
  6
Continuous
 62
     4
100
AcDbLine
 10
714.897510512267
 20
-86.930290720975
 30
0.0
 11
714.522510512267
 21
-86.805290720975
 31
0.0
  0
LINE
  5
CD
330
1F
100
AcDbEntity
  8
1
  6
Continuous
 62
     4
100
AcDbLine
 10
715.272510512267
 20
-87.180290720975
 30
0.0
 11
714.897510512267
 21
-86.930290720975
 31
0.0
  0
LINE
  5
CE
330
1F
100
AcDbEntity
  8
1
  6
Continuous
 62
     4
100
AcDbLine
 10
708.397510512267
 20
-86.680290720975
 30
0.0
 11
710.397510512267
 21
-91.680290720975
 31
0.0
  0
LINE
  5
CF
330
1F
100
AcDbEntity
  8
1
  6
Continuous
 62
     4
100
AcDbLine
 10
706.397510512267
 20
-91.680290720975
 30
0.0
 11
708.397510512267
 21
-86.680290720975
 31
0.0
  0
LINE
  5
D0
330
1F
100
AcDbEntity
  8
1
  6
Continuous
 62
     4
100
AcDbLine
 10
707.022510512267
 20
-90.180290720975
 30
0.0
 11
709.772510512267
 21
-90.180290720975
 31
0.0
  0
LINE
  5
D1
330
1F
100
AcDbEntity
  8
1
  6
Continuous
 62
     4
100
AcDbLine
 10
704.897510512267
 20
-88.555290720975
 30
0.0
 11
704.897510512267
 21
-89.805290720975
 31
0.0
  0
LINE
  5
D2
330
1F
100
AcDbEntity
  8
1
  6
Continuous
 62
     4
100
AcDbLine
 10
704.772510512267
 20
-87.805290720975
 30
0.0
 11
704.897510512267
 21
-88.555290720975
 31
0.0
  0
LINE
  5
D3
330
1F
100
AcDbEntity
  8
1
  6
Continuous
 62
     4
100
AcDbLine
 10
704.522510512267
 20
-87.305290720975
 30
0.0
 11
704.772510512267
 21
-87.805290720975
 31
0.0
  0
LINE
  5
D4
330
1F
100
AcDbEntity
  8
1
  6
Continuous
 62
     4
100
AcDbLine
 10
704.272510512267
 20
-87.055290720975
 30
0.0
 11
704.522510512267
 21
-87.305290720975
 31
0.0
  0
LINE
  5
D5
330
1F
100
AcDbEntity
  8
1
  6
Continuous
 62
     4
100
AcDbLine
 10
703.897510512267
 20
-86.805290720975
 30
0.0
 11
704.272510512267
 21
-87.055290720975
 31
0.0
  0
LINE
  5
D6
330
1F
100
AcDbEntity
  8
1
  6
Continuous
 62
     4
100
AcDbLine
 10
703.522510512267
 20
-86.680290720975
 30
0.0
 11
703.897510512267
 21
-86.805290720975
 31
0.0
  0
LINE
  5
D7
330
1F
100
AcDbEntity
  8
1
  6
Continuous
 62
     4
100
AcDbLine
 10
703.272510512267
 20
-86.680290720975
 30
0.0
 11
703.522510512267
 21
-86.680290720975
 31
0.0
  0
LINE
  5
D8
330
1F
100
AcDbEntity
  8
1
  6
Continuous
 62
     4
100
AcDbLine
 10
702.897510512267
 20
-86.805290720975
 30
0.0
 11
703.272510512267
 21
-86.680290720975
 31
0.0
  0
LINE
  5
D9
330
1F
100
AcDbEntity
  8
1
  6
Continuous
 62
     4
100
AcDbLine
 10
702.522510512267
 20
-87.055290720975
 30
0.0
 11
702.897510512267
 21
-86.805290720975
 31
0.0
  0
LINE
  5
DA
330
1F
100
AcDbEntity
  8
1
  6
Continuous
 62
     4
100
AcDbLine
 10
702.272510512267
 20
-87.305290720975
 30
0.0
 11
702.522510512267
 21
-87.055290720975
 31
0.0
  0
LINE
  5
DB
330
1F
100
AcDbEntity
  8
1
  6
Continuous
 62
     4
100
AcDbLine
 10
702.022510512267
 20
-87.805290720975
 30
0.0
 11
702.272510512267
 21
-87.305290720975
 31
0.0
  0
LINE
  5
DC
330
1F
100
AcDbEntity
  8
1
  6
Continuous
 62
     4
100
AcDbLine
 10
701.897510512267
 20
-88.555290720975
 30
0.0
 11
702.022510512267
 21
-87.805290720975
 31
0.0
  0
LINE
  5
DD
330
1F
100
AcDbEntity
  8
1
  6
Continuous
 62
     4
100
AcDbLine
 10
701.897510512267
 20
-89.805290720975
 30
0.0
 11
701.897510512267
 21
-88.555290720975
 31
0.0
  0
LINE
  5
DE
330
1F
100
AcDbEntity
  8
1
  6
Continuous
 62
     4
100
AcDbLine
 10
702.022510512267
 20
-90.555290720975
 30
0.0
 11
701.897510512267
 21
-89.805290720975
 31
0.0
  0
LINE
  5
DF
330
1F
100
AcDbEntity
  8
1
  6
Continuous
 62
     4
100
AcDbLine
 10
702.272510512267
 20
-91.055290720975
 30
0.0
 11
702.022510512267
 21
-90.555290720975
 31
0.0
  0
LINE
  5
E0
330
1F
100
AcDbEntity
  8
1
  6
Continuous
 62
     4
100
AcDbLine
 10
702.522510512267
 20
-91.305290720975
 30
0.0
 11
702.272510512267
 21
-91.055290720975
 31
0.0
  0
LINE
  5
E1
330
1F
100
AcDbEntity
  8
1
  6
Continuous
 62
     4
100
AcDbLine
 10
702.897510512267
 20
-91.555290720975
 30
0.0
 11
702.522510512267
 21
-91.305290720975
 31
0.0
  0
LINE
  5
E2
330
1F
100
AcDbEntity
  8
1
  6
Continuous
 62
     4
100
AcDbLine
 10
703.272510512267
 20
-91.680290720975
 30
0.0
 11
702.897510512267
 21
-91.555290720975
 31
0.0
  0
LINE
  5
E3
330
1F
100
AcDbEntity
  8
1
  6
Continuous
 62
     4
100
AcDbLine
 10
703.522510512267
 20
-91.680290720975
 30
0.0
 11
703.272510512267
 21
-91.680290720975
 31
0.0
  0
LINE
  5
E4
330
1F
100
AcDbEntity
  8
1
  6
Continuous
 62
     4
100
AcDbLine
 10
703.897510512267
 20
-91.555290720975
 30
0.0
 11
703.522510512267
 21
-91.680290720975
 31
0.0
  0
LINE
  5
E5
330
1F
100
AcDbEntity
  8
1
  6
Continuous
 62
     4
100
AcDbLine
 10
704.272510512267
 20
-91.305290720975
 30
0.0
 11
703.897510512267
 21
-91.555290720975
 31
0.0
  0
LINE
  5
E6
330
1F
100
AcDbEntity
  8
1
  6
Continuous
 62
     4
100
AcDbLine
 10
704.522510512267
 20
-91.055290720975
 30
0.0
 11
704.272510512267
 21
-91.305290720975
 31
0.0
  0
LINE
  5
E7
330
1F
100
AcDbEntity
  8
1
  6
Continuous
 62
     4
100
AcDbLine
 10
704.772510512267
 20
-90.555290720975
 30
0.0
 11
704.522510512267
 21
-91.055290720975
 31
0.0
  0
LINE
  5
E8
330
1F
100
AcDbEntity
  8
1
  6
Continuous
 62
     4
100
AcDbLine
 10
704.897510512267
 20
-89.805290720975
 30
0.0
 11
704.772510512267
 21
-90.555290720975
 31
0.0
  0
LINE
  5
E9
330
1F
100
AcDbEntity
  8
1
  6
Continuous
 62
     4
100
AcDbLine
 10
700.397510512267
 20
-86.680290720975
 30
0.0
 11
700.397510512267
 21
-91.680290720975
 31
0.0
  0
LINE
  5
EA
330
1F
100
AcDbEntity
  8
1
  6
Continuous
 62
     4
100
AcDbLine
 10
698.897510512267
 20
-88.180290720975
 30
0.0
 11
700.397510512267
 21
-86.680290720975
 31
0.0
  0
LINE
  5
EB
330
1F
100
AcDbEntity
  8
1
  6
Continuous
 62
     4
100
AcDbLine
 10
694.897510512267
 20
-89.930290720975
 30
0.0
 11
697.397510512267
 21
-89.930290720975
 31
0.0
  0
LINE
  5
EC
330
1F
100
AcDbEntity
  8
1
  6
Continuous
 62
     4
100
AcDbLine
 10
690.147510512267
 20
-91.305290720975
 30
0.0
 11
689.897510512267
 21
-91.055290720975
 31
0.0
  0
LINE
  5
ED
330
1F
100
AcDbEntity
  8
1
  6
Continuous
 62
     4
100
AcDbLine
 10
690.647510512267
 20
-91.555290720975
 30
0.0
 11
690.147510512267
 21
-91.305290720975
 31
0.0
  0
LINE
  5
EE
330
1F
100
AcDbEntity
  8
1
  6
Continuous
 62
     4
100
AcDbLine
 10
691.272510512267
 20
-91.680290720975
 30
0.0
 11
690.647510512267
 21
-91.555290720975
 31
0.0
  0
LINE
  5
EF
330
1F
100
AcDbEntity
  8
1
  6
Continuous
 62
     4
100
AcDbLine
 10
692.022510512267
 20
-91.680290720975
 30
0.0
 11
691.272510512267
 21
-91.680290720975
 31
0.0
  0
LINE
  5
F0
330
1F
100
AcDbEntity
  8
1
  6
Continuous
 62
     4
100
AcDbLine
 10
692.647510512267
 20
-91.555290720975
 30
0.0
 11
692.022510512267
 21
-91.680290720975
 31
0.0
  0
LINE
  5
F1
330
1F
100
AcDbEntity
  8
1
  6
Continuous
 62
     4
100
AcDbLine
 10
693.022510512267
 20
-91.305290720975
 30
0.0
 11
692.647510512267
 21
-91.555290720975
 31
0.0
  0
LINE
  5
F2
330
1F
100
AcDbEntity
  8
1
  6
Continuous
 62
     4
100
AcDbLine
 10
693.272510512267
 20
-90.930290720975
 30
0.0
 11
693.022510512267
 21
-91.305290720975
 31
0.0
  0
LINE
  5
F3
330
1F
100
AcDbEntity
  8
1
  6
Continuous
 62
     4
100
AcDbLine
 10
693.397510512267
 20
-90.555290720975
 30
0.0
 11
693.272510512267
 21
-90.930290720975
 31
0.0
  0
LINE
  5
F4
330
1F
100
AcDbEntity
  8
1
  6
Continuous
 62
     4
100
AcDbLine
 10
693.397510512267
 20
-90.305290720975
 30
0.0
 11
693.397510512267
 21
-90.555290720975
 31
0.0
  0
LINE
  5
F5
330
1F
100
AcDbEntity
  8
1
  6
Continuous
 62
     4
100
AcDbLine
 10
693.272510512267
 20
-89.930290720975
 30
0.0
 11
693.397510512267
 21
-90.305290720975
 31
0.0
  0
LINE
  5
F6
330
1F
100
AcDbEntity
  8
1
  6
Continuous
 62
     4
100
AcDbLine
 10
693.022510512267
 20
-89.555290720975
 30
0.0
 11
693.272510512267
 21
-89.930290720975
 31
0.0
  0
LINE
  5
F7
330
1F
100
AcDbEntity
  8
1
  6
Continuous
 62
     4
100
AcDbLine
 10
692.647510512267
 20
-89.305290720975
 30
0.0
 11
693.022510512267
 21
-89.555290720975
 31
0.0
  0
LINE
  5
F8
330
1F
100
AcDbEntity
  8
1
  6
Continuous
 62
     4
100
AcDbLine
 10
690.522510512267
 20
-88.430290720975
 30
0.0
 11
692.647510512267
 21
-89.305290720975
 31
0.0
  0
LINE
  5
F9
330
1F
100
AcDbEntity
  8
1
  6
Continuous
 62
     4
100
AcDbLine
 10
690.147510512267
 20
-88.180290720975
 30
0.0
 11
690.522510512267
 21
-88.430290720975
 31
0.0
  0
LINE
  5
FA
330
1F
100
AcDbEntity
  8
1
  6
Continuous
 62
     4
100
AcDbLine
 10
690.022510512267
 20
-87.805290720975
 30
0.0
 11
690.147510512267
 21
-88.180290720975
 31
0.0
  0
LINE
  5
FB
330
1F
100
AcDbEntity
  8
1
  6
Continuous
 62
     4
100
AcDbLine
 10
690.022510512267
 20
-87.555290720975
 30
0.0
 11
690.022510512267
 21
-87.805290720975
 31
0.0
  0
LINE
  5
FC
330
1F
100
AcDbEntity
  8
1
  6
Continuous
 62
     4
100
AcDbLine
 10
690.147510512267
 20
-87.180290720975
 30
0.0
 11
690.022510512267
 21
-87.555290720975
 31
0.0
  0
LINE
  5
FD
330
1F
100
AcDbEntity
  8
1
  6
Continuous
 62
     4
100
AcDbLine
 10
690.522510512267
 20
-86.930290720975
 30
0.0
 11
690.147510512267
 21
-87.180290720975
 31
0.0
  0
LINE
  5
FE
330
1F
100
AcDbEntity
  8
1
  6
Continuous
 62
     4
100
AcDbLine
 10
690.897510512267
 20
-86.805290720975
 30
0.0
 11
690.522510512267
 21
-86.930290720975
 31
0.0
  0
LINE
  5
FF
330
1F
100
AcDbEntity
  8
1
  6
Continuous
 62
     4
100
AcDbLine
 10
691.397510512267
 20
-86.680290720975
 30
0.0
 11
690.897510512267
 21
-86.805290720975
 31
0.0
  0
LINE
  5
100
330
1F
100
AcDbEntity
  8
1
  6
Continuous
 62
     4
100
AcDbLine
 10
691.897510512267
 20
-86.680290720975
 30
0.0
 11
691.397510512267
 21
-86.680290720975
 31
0.0
  0
LINE
  5
101
330
1F
100
AcDbEntity
  8
1
  6
Continuous
 62
     4
100
AcDbLine
 10
692.522510512267
 20
-86.805290720975
 30
0.0
 11
691.897510512267
 21
-86.680290720975
 31
0.0
  0
LINE
  5
102
330
1F
100
AcDbEntity
  8
1
  6
Continuous
 62
     4
100
AcDbLine
 10
692.897510512267
 20
-86.930290720975
 30
0.0
 11
692.522510512267
 21
-86.805290720975
 31
0.0
  0
LINE
  5
103
330
1F
100
AcDbEntity
  8
1
  6
Continuous
 62
     4
100
AcDbLine
 10
693.272510512267
 20
-87.180290720975
 30
0.0
 11
692.897510512267
 21
-86.930290720975
 31
0.0
  0
LINE
  5
104
330
1F
100
AcDbEntity
  8
1
  6
Continuous
 62
     4
100
AcDbLine
 10
696.074657139838
 20
-695.80690019004
 30
0.0
 11
699.074657139838
 21
-695.80690019004
 31
0.0
  0
LINE
  5
105
330
1F
100
AcDbEntity
  8
1
  6
Continuous
 62
     4
100
AcDbLine
 10
698.824657139838
 20
-692.55690019004
 30
0.0
 11
696.074657139838
 21
-695.80690019004
 31
0.0
  0
LINE
  5
106
330
1F
100
AcDbEntity
  8
1
  6
Continuous
 62
     4
100
AcDbLine
 10
699.074657139838
 20
-692.05690019004
 30
0.0
 11
698.824657139838
 21
-692.55690019004
 31
0.0
  0
LINE
  5
107
330
1F
100
AcDbEntity
  8
1
  6
Continuous
 62
     4
100
AcDbLine
 10
699.074657139838
 20
-691.55690019004
 30
0.0
 11
699.074657139838
 21
-692.05690019004
 31
0.0
  0
LINE
  5
108
330
1F
100
AcDbEntity
  8
1
  6
Continuous
 62
     4
100
AcDbLine
 10
698.824657139838
 20
-691.18190019004
 30
0.0
 11
699.074657139838
 21
-691.55690019004
 31
0.0
  0
LINE
  5
109
330
1F
100
AcDbEntity
  8
1
  6
Continuous
 62
     4
100
AcDbLine
 10
698.449657139838
 20
-690.93190019004
 30
0.0
 11
698.824657139838
 21
-691.18190019004
 31
0.0
  0
LINE
  5
10A
330
1F
100
AcDbEntity
  8
1
  6
Continuous
 62
     4
100
AcDbLine
 10
697.949657139838
 20
-690.80690019004
 30
0.0
 11
698.449657139838
 21
-690.93190019004
 31
0.0
  0
LINE
  5
10B
330
1F
100
AcDbEntity
  8
1
  6
Continuous
 62
     4
100
AcDbLine
 10
697.199657139838
 20
-690.80690019004
 30
0.0
 11
697.949657139838
 21
-690.80690019004
 31
0.0
  0
LINE
  5
10C
330
1F
100
AcDbEntity
  8
1
  6
Continuous
 62
     4
100
AcDbLine
 10
696.699657139838
 20
-690.93190019004
 30
0.0
 11
697.199657139838
 21
-690.80690019004
 31
0.0
  0
LINE
  5
10D
330
1F
100
AcDbEntity
  8
1
  6
Continuous
 62
     4
100
AcDbLine
 10
696.324657139838
 20
-691.18190019004
 30
0.0
 11
696.699657139838
 21
-690.93190019004
 31
0.0
  0
LINE
  5
10E
330
1F
100
AcDbEntity
  8
1
  6
Continuous
 62
     4
100
AcDbLine
 10
696.074657139838
 20
-691.55690019004
 30
0.0
 11
696.324657139838
 21
-691.18190019004
 31
0.0
  0
LINE
  5
10F
330
1F
100
AcDbEntity
  8
1
  6
Continuous
 62
     4
100
AcDbLine
 10
692.574657139838
 20
-695.80690019004
 30
0.0
 11
694.574657139838
 21
-690.80690019004
 31
0.0
  0
LINE
  5
110
330
1F
100
AcDbEntity
  8
1
  6
Continuous
 62
     4
100
AcDbLine
 10
691.074657139838
 20
-690.80690019004
 30
0.0
 11
691.074657139838
 21
-695.80690019004
 31
0.0
  0
LINE
  5
111
330
1F
100
AcDbEntity
  8
1
  6
Continuous
 62
     4
100
AcDbLine
 10
689.574657139838
 20
-692.30690019004
 30
0.0
 11
691.074657139838
 21
-690.80690019004
 31
0.0
  0
LINE
  5
112
330
1F
100
AcDbEntity
  8
1
  6
Continuous
 62
     4
100
AcDbLine
 10
684.574657139838
 20
-695.80690019004
 30
0.0
 11
684.574657139838
 21
-693.30690019004
 31
0.0
  0
LINE
  5
113
330
1F
100
AcDbEntity
  8
1
  6
Continuous
 62
     4
100
AcDbLine
 10
686.574657139838
 20
-693.30690019004
 30
0.0
 11
688.074657139838
 21
-695.80690019004
 31
0.0
  0
LINE
  5
114
330
1F
100
AcDbEntity
  8
1
  6
Continuous
 62
     4
100
AcDbLine
 10
686.949657139838
 20
-693.30690019004
 30
0.0
 11
686.574657139838
 21
-693.30690019004
 31
0.0
  0
LINE
  5
115
330
1F
100
AcDbEntity
  8
1
  6
Continuous
 62
     4
100
AcDbLine
 10
687.449657139838
 20
-693.18190019004
 30
0.0
 11
686.949657139838
 21
-693.30690019004
 31
0.0
  0
LINE
  5
116
330
1F
100
AcDbEntity
  8
1
  6
Continuous
 62
     4
100
AcDbLine
 10
687.824657139838
 20
-692.93190019004
 30
0.0
 11
687.449657139838
 21
-693.18190019004
 31
0.0
  0
LINE
  5
117
330
1F
100
AcDbEntity
  8
1
  6
Continuous
 62
     4
100
AcDbLine
 10
687.949657139838
 20
-692.68190019004
 30
0.0
 11
687.824657139838
 21
-692.93190019004
 31
0.0
  0
LINE
  5
118
330
1F
100
AcDbEntity
  8
1
  6
Continuous
 62
     4
100
AcDbLine
 10
688.074657139838
 20
-692.30690019004
 30
0.0
 11
687.949657139838
 21
-692.68190019004
 31
0.0
  0
LINE
  5
119
330
1F
100
AcDbEntity
  8
1
  6
Continuous
 62
     4
100
AcDbLine
 10
688.074657139838
 20
-691.80690019004
 30
0.0
 11
688.074657139838
 21
-692.30690019004
 31
0.0
  0
LINE
  5
11A
330
1F
100
AcDbEntity
  8
1
  6
Continuous
 62
     4
100
AcDbLine
 10
687.949657139838
 20
-691.43190019004
 30
0.0
 11
688.074657139838
 21
-691.80690019004
 31
0.0
  0
LINE
  5
11B
330
1F
100
AcDbEntity
  8
1
  6
Continuous
 62
     4
100
AcDbLine
 10
687.824657139838
 20
-691.18190019004
 30
0.0
 11
687.949657139838
 21
-691.43190019004
 31
0.0
  0
LINE
  5
11C
330
1F
100
AcDbEntity
  8
1
  6
Continuous
 62
     4
100
AcDbLine
 10
687.449657139838
 20
-690.93190019004
 30
0.0
 11
687.824657139838
 21
-691.18190019004
 31
0.0
  0
LINE
  5
11D
330
1F
100
AcDbEntity
  8
1
  6
Continuous
 62
     4
100
AcDbLine
 10
686.949657139838
 20
-690.80690019004
 30
0.0
 11
687.449657139838
 21
-690.93190019004
 31
0.0
  0
LINE
  5
11E
330
1F
100
AcDbEntity
  8
1
  6
Continuous
 62
     4
100
AcDbLine
 10
684.574657139838
 20
-690.80690019004
 30
0.0
 11
686.949657139838
 21
-690.80690019004
 31
0.0
  0
LINE
  5
11F
330
1F
100
AcDbEntity
  8
1
  6
Continuous
 62
     4
100
AcDbLine
 10
684.574657139838
 20
-693.30690019004
 30
0.0
 11
684.574657139838
 21
-690.80690019004
 31
0.0
  0
LINE
  5
120
330
1F
100
AcDbEntity
  8
1
  6
Continuous
 62
     4
100
AcDbLine
 10
686.574657139838
 20
-693.30690019004
 30
0.0
 11
684.574657139838
 21
-693.30690019004
 31
0.0
  0
LINE
  5
121
330
1F
100
AcDbEntity
  8
1
  6
DOT_CENTER
 62
     1
100
AcDbLine
 10
513.083340669443
 20
-9.6179729618143
 30
0.0
 11
513.083340669443
 21
-93.6179729618143
 31
0.0
  0
LINE
  5
122
330
1F
100
AcDbEntity
  8
0
  6
Continuous
 62
     3
100
AcDbLine
 10
503.583340670262
 20
-52.7359562680964
 30
0.0
 11
503.583340670262
 21
-64.2215374832616
 31
0.0
  0
LINE
  5
123
330
1F
100
AcDbEntity
  8
0
  6
Continuous
 62
     3
100
AcDbLine
 10
522.583340670262
 20
-52.7359564573852
 30
0.0
 11
522.583340670262
 21
-64.2215374832616
 31
0.0
  0
LINE
  5
124
330
1F
100
AcDbEntity
  8
0
  6
Continuous
 62
     3
100
AcDbLine
 10
507.083340670267
 20
-83.5234612718427
 30
0.0
 11
507.083340670267
 21
-83.3734612718917
 31
0.0
  0
LINE
  5
125
330
1F
100
AcDbEntity
  8
0
  6
Continuous
 62
     3
100
AcDbLine
 10
507.083340670267
 20
-83.5234612718427
 30
0.0
 11
505.083340670269
 21
-83.5234612718916
 31
0.0
  0
LINE
  5
126
330
1F
100
AcDbEntity
  8
0
  6
Continuous
 62
     3
100
AcDbLine
 10
505.083340670269
 20
-86.1234612719116
 30
0.0
 11
506.083340670271
 21
-87.1234612719088
 31
0.0
  0
LINE
  5
127
330
1F
100
AcDbEntity
  8
0
  6
Continuous
 62
     3
100
AcDbLine
 10
505.083340670269
 20
-86.1234612719116
 30
0.0
 11
505.083340670269
 21
-83.5234612718916
 31
0.0
  0
LINE
  5
128
330
1F
100
AcDbEntity
  8
0
  6
Continuous
 62
     3
100
AcDbLine
 10
505.083340670267
 20
-80.8234612718446
 30
0.0
 11
505.08334067027
 21
-77.4234612718005
 31
0.0
  0
LINE
  5
129
330
1F
100
AcDbEntity
  8
0
  6
Continuous
 62
     3
100
AcDbLine
 10
513.083340670262
 20
-86.1234612719112
 30
0.0
 11
505.083340670269
 21
-86.1234612719116
 31
0.0
  0
LINE
  5
12A
330
1F
100
AcDbEntity
  8
0
  6
Continuous
 62
     3
100
AcDbLine
 10
506.083340670257
 20
-80.9734612718658
 30
0.0
 11
507.083340670267
 21
-80.9734612718916
 31
0.0
  0
LINE
  5
12B
330
1F
100
AcDbEntity
  8
0
  6
Continuous
 62
     3
100
AcDbLine
 10
507.083340670267
 20
-80.8234612718277
 30
0.0
 11
505.083340670267
 21
-80.8234612718446
 31
0.0
  0
LINE
  5
12C
330
1F
100
AcDbEntity
  8
0
  6
Continuous
 62
     3
100
AcDbLine
 10
507.083340670267
 20
-80.9734612718916
 30
0.0
 11
507.083340670267
 21
-80.8234612718277
 31
0.0
  0
LINE
  5
12D
330
1F
100
AcDbEntity
  8
0
  6
Continuous
 62
     3
100
AcDbLine
 10
513.083340670262
 20
-80.823461271844
 30
0.0
 11
507.083340670267
 21
-80.8234612718277
 31
0.0
  0
LINE
  5
12E
330
1F
100
AcDbEntity
  8
0
  6
Continuous
 62
     3
100
AcDbLine
 10
513.083340670262
 20
-83.5234612718887
 30
0.0
 11
507.083340670267
 21
-83.5234612718427
 31
0.0
  0
LINE
  5
12F
330
1F
100
AcDbEntity
  8
0
  6
Continuous
 62
     3
100
AcDbLine
 10
513.083340670262
 20
-87.1234612719011
 30
0.0
 11
506.083340670271
 21
-87.1234612719088
 31
0.0
  0
LINE
  5
130
330
1F
100
AcDbEntity
  8
0
  6
Continuous
 62
     3
100
AcDbLine
 10
519.083340670257
 20
-80.9734612718916
 30
0.0
 11
520.083340670267
 21
-80.9734612718658
 31
0.0
  0
LINE
  5
131
330
1F
100
AcDbEntity
  8
0
  6
Continuous
 62
     3
100
AcDbLine
 10
521.083340670256
 20
-80.8234612718446
 30
0.0
 11
519.083340670257
 21
-80.8234612718277
 31
0.0
  0
LINE
  5
132
330
1F
100
AcDbEntity
  8
0
  6
Continuous
 62
     3
100
AcDbLine
 10
519.083340670257
 20
-80.9734612718916
 30
0.0
 11
519.083340670257
 21
-80.8234612718277
 31
0.0
  0
LINE
  5
133
330
1F
100
AcDbEntity
  8
0
  6
Continuous
 62
     3
100
AcDbLine
 10
521.483340670275
 20
-77.1234612718084
 30
0.0
 11
521.083340670254
 21
-77.4234612718005
 31
0.0
  0
LINE
  5
134
330
1F
100
AcDbEntity
  8
0
  6
Continuous
 62
     3
100
AcDbLine
 10
521.483340670275
 20
-77.1234612718084
 30
0.0
 11
521.483340670278
 21
-75.7234612717875
 31
0.0
  0
LINE
  5
135
330
1F
100
AcDbEntity
  8
0
  6
Continuous
 62
     3
100
AcDbLine
 10
521.483340670278
 20
-75.7234612717875
 30
0.0
 11
520.08334067025
 21
-74.7234612719056
 31
0.0
  0
LINE
  5
136
330
1F
100
AcDbEntity
  8
0
  6
Continuous
 62
     3
100
AcDbLine
 10
520.08334067025
 20
-74.7234612719056
 30
0.0
 11
513.083340670262
 21
-74.7234612719051
 31
0.0
  0
LINE
  5
137
330
1F
100
AcDbEntity
  8
0
  6
Continuous
 62
     3
100
AcDbLine
 10
521.483340670278
 20
-75.7234612717875
 30
0.0
 11
513.083340670262
 21
-75.7234612717861
 31
0.0
  0
LINE
  5
138
330
1F
100
AcDbEntity
  8
0
  6
Continuous
 62
     3
100
AcDbLine
 10
521.483340670275
 20
-77.1234612718084
 30
0.0
 11
513.083340670262
 21
-77.1234612718071
 31
0.0
  0
LINE
  5
139
330
1F
100
AcDbEntity
  8
0
  6
Continuous
 62
     3
100
AcDbLine
 10
521.083340670254
 20
-77.4234612718005
 30
0.0
 11
513.083340670262
 21
-77.4234612717992
 31
0.0
  0
LINE
  5
13A
330
1F
100
AcDbEntity
  8
0
  6
Continuous
 62
     3
100
AcDbLine
 10
519.083340670257
 20
-80.8234612718277
 30
0.0
 11
513.083340670262
 21
-80.823461271844
 31
0.0
  0
LINE
  5
13B
330
1F
100
AcDbEntity
  8
0
  6
Continuous
 62
     3
100
AcDbLine
 10
507.083340670267
 20
-80.9734612718916
 30
0.0
 11
519.083340670257
 21
-80.9734612718916
 31
0.0
  0
LINE
  5
13C
330
1F
100
AcDbEntity
  8
0
  6
Continuous
 62
     3
100
AcDbLine
 10
521.083340670255
 20
-86.1234612719116
 30
0.0
 11
521.083340670255
 21
-83.5234612718916
 31
0.0
  0
LINE
  5
13D
330
1F
100
AcDbEntity
  8
0
  6
Continuous
 62
     3
100
AcDbLine
 10
521.083340670255
 20
-86.1234612719116
 30
0.0
 11
520.083340670252
 21
-87.1234612719088
 31
0.0
  0
LINE
  5
13E
330
1F
100
AcDbEntity
  8
0
  6
Continuous
 62
     3
100
AcDbLine
 10
519.083340670257
 20
-83.5234612718427
 30
0.0
 11
519.083340670257
 21
-83.3734612718917
 31
0.0
  0
LINE
  5
13F
330
1F
100
AcDbEntity
  8
0
  6
Continuous
 62
     3
100
AcDbLine
 10
521.083340670255
 20
-83.5234612718916
 30
0.0
 11
519.083340670257
 21
-83.5234612718427
 31
0.0
  0
LINE
  5
140
330
1F
100
AcDbEntity
  8
0
  6
Continuous
 62
     3
100
AcDbLine
 10
519.083340670257
 20
-83.5234612718427
 30
0.0
 11
513.083340670262
 21
-83.5234612718887
 31
0.0
  0
LINE
  5
141
330
1F
100
AcDbEntity
  8
0
  6
Continuous
 62
     3
100
AcDbLine
 10
521.083340670255
 20
-86.1234612719116
 30
0.0
 11
513.083340670262
 21
-86.1234612719112
 31
0.0
  0
LINE
  5
142
330
1F
100
AcDbEntity
  8
0
  6
Continuous
 62
     3
100
AcDbLine
 10
520.083340670252
 20
-87.1234612719088
 30
0.0
 11
513.083340670262
 21
-87.1234612719011
 31
0.0
  0
LINE
  5
143
330
1F
100
AcDbEntity
  8
0
  6
Continuous
 62
     3
100
AcDbLine
 10
520.083340670267
 20
-83.3734612718659
 30
0.0
 11
506.083340670257
 21
-83.3734612718659
 31
0.0
  0
LINE
  5
144
330
1F
100
AcDbEntity
  8
0
  6
Continuous
 62
     3
100
AcDbLine
 10
523.083340670254
 20
-68.1234612719214
 30
0.0
 11
517.083340670262
 21
-68.1234612719471
 31
0.0
  0
LINE
  5
145
330
1F
100
AcDbEntity
  8
0
  6
Continuous
 62
     3
100
AcDbLine
 10
520.08334067025
 20
-71.1234612719223
 30
0.0
 11
517.083340670262
 21
-71.123461271948
 31
0.0
  0
LINE
  5
146
330
1F
100
AcDbEntity
  8
0
  6
Continuous
 62
     3
100
AcDbLine
 10
520.08334067025
 20
-74.7234612719056
 30
0.0
 11
520.08334067025
 21
-71.1234612719223
 31
0.0
  0
LINE
  5
147
330
1F
100
AcDbEntity
  8
0
  6
Continuous
 62
     3
100
AcDbLine
 10
521.083340670256
 20
-80.8234612718446
 30
0.0
 11
521.083340670254
 21
-77.4234612718005
 31
0.0
  0
LINE
  5
148
330
1F
100
AcDbEntity
  8
0
  6
Continuous
 62
     3
100
AcDbLine
 10
509.083340670262
 20
-68.1234612719471
 30
0.0
 11
503.08334067027
 21
-68.1234612719214
 31
0.0
  0
LINE
  5
149
330
1F
100
AcDbEntity
  8
0
  6
Continuous
 62
     3
100
AcDbLine
 10
503.08334067027
 20
-68.1234612719214
 30
0.0
 11
503.08334067027
 21
-65.6234612718948
 31
0.0
  0
LINE
  5
14A
330
1F
100
AcDbEntity
  8
0
  6
Continuous
 62
     3
100
AcDbLine
 10
523.083340670254
 20
-65.6234612718948
 30
0.0
 11
522.851289862692
 21
-65.2215374832604
 31
0.0
  0
LINE
  5
14B
330
1F
100
AcDbEntity
  8
0
  6
Continuous
 62
     3
100
AcDbLine
 10
523.083340670254
 20
-65.6234612718948
 30
0.0
 11
517.083340670262
 21
-65.6234612719168
 31
0.0
  0
LINE
  5
14C
330
1F
100
AcDbEntity
  8
0
  6
Continuous
 62
     3
100
AcDbLine
 10
503.08334067027
 20
-65.6234612718948
 30
0.0
 11
503.315391477831
 21
-65.2215374832604
 31
0.0
  0
LINE
  5
14D
330
1F
100
AcDbEntity
  8
0
  6
Continuous
 62
     3
100
AcDbLine
 10
509.083340670262
 20
-65.6234612719168
 30
0.0
 11
503.08334067027
 21
-65.6234612718948
 31
0.0
  0
LINE
  5
14E
330
1F
100
AcDbEntity
  8
0
  6
Continuous
 62
     3
100
AcDbLine
 10
504.683340670249
 20
-77.1234612718084
 30
0.0
 11
505.08334067027
 21
-77.4234612718005
 31
0.0
  0
LINE
  5
14F
330
1F
100
AcDbEntity
  8
0
  6
Continuous
 62
     3
100
AcDbLine
 10
504.683340670249
 20
-77.1234612718084
 30
0.0
 11
504.683340670246
 21
-75.7234612717875
 31
0.0
  0
LINE
  5
150
330
1F
100
AcDbEntity
  8
0
  6
Continuous
 62
     3
100
AcDbLine
 10
504.683340670246
 20
-75.7234612717875
 30
0.0
 11
506.083340670274
 21
-74.7234612719056
 31
0.0
  0
LINE
  5
151
330
1F
100
AcDbEntity
  8
0
  6
Continuous
 62
     3
100
AcDbLine
 10
513.083340670262
 20
-74.7234612719051
 30
0.0
 11
506.083340670274
 21
-74.7234612719056
 31
0.0
  0
LINE
  5
152
330
1F
100
AcDbEntity
  8
0
  6
Continuous
 62
     3
100
AcDbLine
 10
509.083340670262
 20
-71.123461271948
 30
0.0
 11
506.083340670274
 21
-71.1234612719223
 31
0.0
  0
LINE
  5
153
330
1F
100
AcDbEntity
  8
0
  6
Continuous
 62
     3
100
AcDbLine
 10
506.083340670274
 20
-74.7234612719056
 30
0.0
 11
506.083340670274
 21
-71.1234612719223
 31
0.0
  0
LINE
  5
154
330
1F
100
AcDbEntity
  8
0
  6
Continuous
 62
     3
100
AcDbLine
 10
513.083340670262
 20
-75.7234612717861
 30
0.0
 11
504.683340670246
 21
-75.7234612717875
 31
0.0
  0
LINE
  5
155
330
1F
100
AcDbEntity
  8
0
  6
Continuous
 62
     3
100
AcDbLine
 10
513.083340670262
 20
-77.1234612718071
 30
0.0
 11
504.683340670249
 21
-77.1234612718084
 31
0.0
  0
LINE
  5
156
330
1F
100
AcDbEntity
  8
0
  6
Continuous
 62
     3
100
AcDbLine
 10
513.083340670262
 20
-77.4234612717992
 30
0.0
 11
505.08334067027
 21
-77.4234612718005
 31
0.0
  0
LINE
  5
157
330
1F
100
AcDbEntity
  8
0
  6
Continuous
 62
     3
100
AcDbLine
 10
523.083340670254
 20
-68.1234612719214
 30
0.0
 11
523.083340670254
 21
-65.6234612718948
 31
0.0
  0
LINE
  5
158
330
1F
100
AcDbEntity
  8
0
  6
Continuous
 62
     3
100
AcDbLine
 10
509.583340670262
 20
-73.8818121768906
 30
0.0
 11
513.083340670262
 21
-73.8818121768906
 31
0.0
  0
LINE
  5
159
330
1F
100
AcDbEntity
  8
0
  6
Continuous
 62
     3
100
AcDbLine
 10
513.083340670262
 20
-73.8818121768906
 30
0.0
 11
516.583340670262
 21
-73.8818121768906
 31
0.0
  0
LINE
  5
15A
330
1F
100
AcDbEntity
  8
0
  6
Continuous
 62
     3
100
AcDbLine
 10
509.083340670262
 20
-73.3818121768906
 30
0.0
 11
509.083340670262
 21
-53.6461729137437
 31
0.0
  0
LINE
  5
15B
330
1F
100
AcDbEntity
  8
0
  6
Continuous
 62
     3
100
AcDbLine
 10
517.083340670262
 20
-73.3818121768906
 30
0.0
 11
517.083340670262
 21
-53.6461729137436
 31
0.0
  0
LINE
  5
15C
330
1F
100
AcDbEntity
  8
0
  6
Continuous
 62
     3
100
AcDbLine
 10
499.463224081213
 20
-48.1117470390428
 30
0.0
 11
499.115329668346
 21
-46.8133874145525
 31
0.0
  0
LINE
  5
15D
330
1F
100
AcDbEntity
  8
0
  6
Continuous
 62
     3
100
AcDbLine
 10
503.02488660321
 20
-50.9927255140751
 30
0.0
 11
502.095054903119
 21
-50.7435778609388
 31
0.0
  0
LINE
  5
15E
330
1F
100
AcDbEntity
  8
0
  6
Continuous
 62
     3
100
AcDbLine
 10
529.409533583188
 20
-43.4246853569296
 30
0.0
 11
528.459068371563
 21
-44.3751505685539
 31
0.0
  0
LINE
  5
15F
330
1F
100
AcDbEntity
  8
0
  6
Continuous
 62
     3
100
AcDbLine
 10
505.831651373596
 20
-21.7477335705828
 30
0.0
 11
506.782116585218
 21
-20.7972683589601
 31
0.0
  0
LINE
  5
160
330
1F
100
AcDbEntity
  8
0
  6
Continuous
 62
     3
100
AcDbLine
 10
496.757147757336
 20
-30.8222371868418
 30
0.0
 11
497.707612968959
 21
-29.8717719752195
 31
0.0
  0
LINE
  5
161
330
1F
100
AcDbEntity
  8
0
  6
Continuous
 62
     3
100
AcDbLine
 10
496.141725230928
 20
-35.7157445724994
 30
0.0
 11
495.793830818061
 21
-34.4173849480093
 31
0.0
  0
LINE
  5
162
330
1F
100
AcDbEntity
  8
0
  6
Continuous
 62
     3
100
AcDbLine
 10
530.024956109595
 20
-38.5311779712705
 30
0.0
 11
530.372850522463
 21
-39.8295375957622
 31
0.0
  0
LINE
  5
163
330
1F
100
AcDbEntity
  8
0
  6
Continuous
 62
     3
100
AcDbLine
 10
510.377264346393
 20
-19.8339514196867
 30
0.0
 11
511.675623970876
 21
-20.1818458325521
 31
0.0
  0
LINE
  5
164
330
1F
100
AcDbEntity
  8
0
  6
Continuous
 62
     3
100
AcDbLine
 10
526.703457259311
 20
-26.1351755047286
 30
0.0
 11
527.051351672179
 21
-27.43353512922
 31
0.0
  0
LINE
  5
165
330
1F
100
AcDbEntity
  8
0
  6
Continuous
 62
     3
100
AcDbLine
 10
522.773266812928
 20
-23.1554502699692
 30
0.0
 11
524.071626437419
 21
-23.5033446828366
 31
0.0
  0
LINE
  5
166
330
1F
100
AcDbEntity
  8
1
  6
DOT_CENTER
 62
     1
100
AcDbLine
 10
490.083340669443
 20
-37.1234612714835
 30
0.0
 11
537.083340669443
 21
-37.1234612714835
 31
0.0
  0
LINE
  5
167
330
1F
100
AcDbEntity
  8
1
  6
DOT_CENTER
 62
     1
100
AcDbLine
 10
513.083340669443
 20
-706.322846737615
 30
0.0
 11
513.083340669443
 21
-136.322846737615
 31
0.0
  0
LINE
  5
168
330
1F
100
AcDbEntity
  8
0
  6
Continuous
 62
     3
100
AcDbLine
 10
530.083340669443
 20
-184.72988380096
 30
0.0
 11
530.083340669443
 21
-209.920482724201
 31
0.0
  0
LINE
  5
169
330
1F
100
AcDbEntity
  8
0
  6
Continuous
 62
     3
100
AcDbLine
 10
496.083340669442
 20
-184.72988380096
 30
0.0
 11
496.083340669442
 21
-209.920482724201
 31
0.0
  0
LINE
  5
16A
330
1F
100
AcDbEntity
  8
0
  6
Continuous
 62
     3
100
AcDbLine
 10
497.083340669442
 20
-211.075183262581
 30
0.0
 11
505.933340669443
 21
-211.075183262733
 31
0.0
  0
LINE
  5
16B
330
1F
100
AcDbEntity
  8
0
  6
Continuous
 62
     3
100
AcDbLine
 10
520.233340669442
 20
-211.075183262733
 30
0.0
 11
529.083340669443
 21
-211.075183262581
 31
0.0
  0
LINE
  5
16C
330
1F
100
AcDbEntity
  8
0
  6
Continuous
 62
     3
100
AcDbLine
 10
497.083340669442
 20
-211.075183262581
 30
0.0
 11
496.583340669442
 21
-210.786508127986
 31
0.0
  0
LINE
  5
16D
330
1F
100
AcDbEntity
  8
0
  6
Continuous
 62
     3
100
AcDbLine
 10
505.933340669443
 20
-211.075183262733
 30
0.0
 11
513.083340669443
 21
-211.075183262581
 31
0.0
  0
LINE
  5
16E
330
1F
100
AcDbEntity
  8
0
  6
Continuous
 62
     3
100
AcDbLine
 10
513.083340669443
 20
-211.075183262581
 30
0.0
 11
520.233340669442
 21
-211.075183262733
 31
0.0
  0
LINE
  5
16F
330
1F
100
AcDbEntity
  8
0
  6
Continuous
 62
     3
100
AcDbLine
 10
529.083340669443
 20
-183.575183262581
 30
0.0
 11
529.583340669442
 21
-183.863858397175
 31
0.0
  0
LINE
  5
170
330
1F
100
AcDbEntity
  8
0
  6
Continuous
 62
     3
100
AcDbLine
 10
529.083340669443
 20
-183.575183262581
 30
0.0
 11
497.083340669443
 21
-183.575183262581
 31
0.0
  0
LINE
  5
171
330
1F
100
AcDbEntity
  8
0
  6
Continuous
 62
     3
100
AcDbLine
 10
497.083340669443
 20
-183.575183262581
 30
0.0
 11
496.583340669443
 21
-183.863858397175
 31
0.0
  0
LINE
  5
172
330
1F
100
AcDbEntity
  8
0
  6
Continuous
 62
     3
100
AcDbLine
 10
529.083340669443
 20
-211.075183262581
 30
0.0
 11
529.583340669443
 21
-210.786508127986
 31
0.0
  0
LINE
  5
173
330
1F
100
AcDbEntity
  8
0
  6
Continuous
 62
     3
100
AcDbLine
 10
496.583340669442
 20
-211.275183262592
 30
0.0
 11
496.083340669442
 21
-211.775183262592
 31
0.0
  0
LINE
  5
174
330
1F
100
AcDbEntity
  8
0
  6
Continuous
 62
     3
100
AcDbLine
 10
530.083340669442
 20
-211.775183262592
 30
0.0
 11
496.083340669442
 21
-211.775183262592
 31
0.0
  0
LINE
  5
175
330
1F
100
AcDbEntity
  8
0
  6
Continuous
 62
     3
100
AcDbLine
 10
496.083340669443
 20
-214.075183262733
 30
0.0
 11
496.083340669442
 21
-211.775183262592
 31
0.0
  0
LINE
  5
176
330
1F
100
AcDbEntity
  8
0
  6
Continuous
 62
     3
100
AcDbLine
 10
526.53334066965
 20
-211.075183262581
 30
0.0
 11
526.53334066965
 21
-211.275183262589
 31
0.0
  0
LINE
  5
177
330
1F
100
AcDbEntity
  8
0
  6
Continuous
 62
     3
100
AcDbLine
 10
499.633340669234
 20
-211.075183262581
 30
0.0
 11
499.633340669234
 21
-211.275183262589
 31
0.0
  0
LINE
  5
178
330
1F
100
AcDbEntity
  8
0
  6
Continuous
 62
     3
100
AcDbLine
 10
529.583340669442
 20
-211.275183262592
 30
0.0
 11
526.53334066965
 21
-211.275183262589
 31
0.0
  0
LINE
  5
179
330
1F
100
AcDbEntity
  8
0
  6
Continuous
 62
     3
100
AcDbLine
 10
499.633340669234
 20
-211.275183262589
 30
0.0
 11
496.583340669442
 21
-211.275183262592
 31
0.0
  0
LINE
  5
17A
330
1F
100
AcDbEntity
  8
0
  6
Continuous
 62
     3
100
AcDbLine
 10
526.53334066965
 20
-211.275183262589
 30
0.0
 11
499.633340669234
 21
-211.275183262589
 31
0.0
  0
LINE
  5
17B
330
1F
100
AcDbEntity
  8
0
  6
Continuous
 62
     3
100
AcDbLine
 10
530.083340669442
 20
-214.075183262733
 30
0.0
 11
530.083340669442
 21
-211.775183262592
 31
0.0
  0
LINE
  5
17C
330
1F
100
AcDbEntity
  8
0
  6
Continuous
 62
     3
100
AcDbLine
 10
528.833340669442
 20
-214.075183262568
 30
0.0
 11
530.083340669442
 21
-214.075183262733
 31
0.0
  0
LINE
  5
17D
330
1F
100
AcDbEntity
  8
0
  6
Continuous
 62
     3
100
AcDbLine
 10
497.333340669442
 20
-214.075183262568
 30
0.0
 11
528.833340669442
 21
-214.075183262568
 31
0.0
  0
LINE
  5
17E
330
1F
100
AcDbEntity
  8
0
  6
Continuous
 62
     3
100
AcDbLine
 10
529.583340669442
 20
-211.275183262592
 30
0.0
 11
530.083340669442
 21
-211.775183262592
 31
0.0
  0
LINE
  5
17F
330
1F
100
AcDbEntity
  8
0
  6
Continuous
 62
     3
100
AcDbLine
 10
514.429631871222
 20
-202.575183262584
 30
0.0
 11
511.737049467663
 21
-202.575183262584
 31
0.0
  0
LINE
  5
180
330
1F
100
AcDbEntity
  8
0
  6
Continuous
 62
     3
100
AcDbLine
 10
525.083340669362
 20
-182.075183262722
 30
0.0
 11
525.083340669354
 21
-183.575183262581
 31
0.0
  0
LINE
  5
181
330
1F
100
AcDbEntity
  8
0
  6
Continuous
 62
     3
100
AcDbLine
 10
501.083340669522
 20
-182.075183262722
 30
0.0
 11
501.08334066953
 21
-183.575183262581
 31
0.0
  0
LINE
  5
182
330
1F
100
AcDbEntity
  8
0
  6
Continuous
 62
     3
100
AcDbLine
 10
496.083340669443
 20
-214.075183262733
 30
0.0
 11
497.333340669442
 21
-214.075183262568
 31
0.0
  0
LINE
  5
183
330
1F
100
AcDbEntity
  8
0
  6
Continuous
 62
     3
100
AcDbLine
 10
530.083340669443
 20
-181.075183262722
 30
0.0
 11
530.083340669443
 21
-152.075183262719
 31
0.0
  0
LINE
  5
184
330
1F
100
AcDbEntity
  8
0
  6
Continuous
 62
     3
100
AcDbLine
 10
496.083340669443
 20
-181.075183262722
 30
0.0
 11
496.083340669443
 21
-152.075183262719
 31
0.0
  0
LINE
  5
185
330
1F
100
AcDbEntity
  8
0
  6
Continuous
 62
     3
100
AcDbLine
 10
497.083340669443
 20
-151.075183262719
 30
0.0
 11
507.320589084726
 21
-151.07518326273
 31
0.0
  0
LINE
  5
186
330
1F
100
AcDbEntity
  8
0
  6
Continuous
 62
     3
100
AcDbLine
 10
518.846092254161
 20
-151.07518326273
 30
0.0
 11
529.083340669443
 21
-151.075183262719
 31
0.0
  0
LINE
  5
187
330
1F
100
AcDbEntity
  8
0
  6
Continuous
 62
     3
100
AcDbLine
 10
507.320589084726
 20
-151.07518326273
 30
0.0
 11
510.820589084726
 21
-151.07518326273
 31
0.0
  0
LINE
  5
188
330
1F
100
AcDbEntity
  8
0
  6
Continuous
 62
     3
100
AcDbLine
 10
515.346092254161
 20
-151.07518326273
 30
0.0
 11
518.846092254161
 21
-151.07518326273
 31
0.0
  0
LINE
  5
189
330
1F
100
AcDbEntity
  8
0
  6
Continuous
 62
     3
100
AcDbLine
 10
510.820589084726
 20
-151.07518326273
 30
0.0
 11
513.083340669443
 21
-151.075183262719
 31
0.0
  0
LINE
  5
18A
330
1F
100
AcDbEntity
  8
0
  6
Continuous
 62
     3
100
AcDbLine
 10
513.083340669443
 20
-151.075183262719
 30
0.0
 11
515.346092254161
 21
-151.07518326273
 31
0.0
  0
LINE
  5
18B
330
1F
100
AcDbEntity
  8
0
  6
Continuous
 62
     3
100
AcDbLine
 10
513.083340669443
 20
-182.075183262722
 30
0.0
 11
529.083340669443
 21
-182.075183262722
 31
0.0
  0
LINE
  5
18C
330
1F
100
AcDbEntity
  8
0
  6
Continuous
 62
     3
100
AcDbLine
 10
497.083340669443
 20
-182.075183262722
 30
0.0
 11
513.083340669443
 21
-182.075183262722
 31
0.0
  0
LINE
  5
18D
330
1F
100
AcDbEntity
  8
0
  6
Continuous
 62
     3
100
AcDbLine
 10
518.846092254161
 20
-151.07518326273
 30
0.0
 11
518.846092254161
 21
-148.98351758361
 31
0.0
  0
LINE
  5
18E
330
1F
100
AcDbEntity
  8
0
  6
Continuous
 62
     3
100
AcDbLine
 10
507.320589084726
 20
-151.07518326273
 30
0.0
 11
507.320589084726
 21
-148.98351758361
 31
0.0
  0
LINE
  5
18F
330
1F
100
AcDbEntity
  8
0
  6
Continuous
 62
     3
100
AcDbLine
 10
507.743666007802
 20
-148.489470176741
 30
0.0
 11
518.423015331085
 21
-148.489470176741
 31
0.0
  0
LINE
  5
190
330
1F
100
AcDbEntity
  8
0
  6
Continuous
 62
     3
100
AcDbLine
 10
507.320589084726
 20
-151.07518326273
 30
0.0
 11
510.820589084726
 21
-151.07518326273
 31
0.0
  0
LINE
  5
191
330
1F
100
AcDbEntity
  8
0
  6
Continuous
 62
     3
100
AcDbLine
 10
515.346092254161
 20
-151.07518326273
 30
0.0
 11
518.846092254161
 21
-151.07518326273
 31
0.0
  0
LINE
  5
192
330
1F
100
AcDbEntity
  8
0
  6
Continuous
 62
     3
100
AcDbLine
 10
510.820589084726
 20
-151.07518326273
 30
0.0
 11
513.083340669443
 21
-151.075183262719
 31
0.0
  0
LINE
  5
193
330
1F
100
AcDbEntity
  8
0
  6
Continuous
 62
     3
100
AcDbLine
 10
513.083340669443
 20
-151.075183262719
 30
0.0
 11
515.346092254161
 21
-151.07518326273
 31
0.0
  0
LINE
  5
194
330
1F
100
AcDbEntity
  8
0
  6
Continuous
 62
     3
100
AcDbLine
 10
505.933340669443
 20
-211.075183262733
 30
0.0
 11
513.083340669443
 21
-211.075183262581
 31
0.0
  0
LINE
  5
195
330
1F
100
AcDbEntity
  8
0
  6
Continuous
 62
     3
100
AcDbLine
 10
513.083340669443
 20
-211.075183262581
 30
0.0
 11
520.233340669442
 21
-211.075183262733
 31
0.0
  0
LINE
  5
196
330
1F
100
AcDbEntity
  8
0
  6
Continuous
 62
     3
100
AcDbLine
 10
528.833340669442
 20
-214.075183262568
 30
0.0
 11
530.083340669442
 21
-214.075183262733
 31
0.0
  0
LINE
  5
197
330
1F
100
AcDbEntity
  8
0
  6
Continuous
 62
     3
100
AcDbLine
 10
497.333340669442
 20
-214.075183262568
 30
0.0
 11
528.833340669442
 21
-214.075183262568
 31
0.0
  0
LINE
  5
198
330
1F
100
AcDbEntity
  8
0
  6
Continuous
 62
     3
100
AcDbLine
 10
496.083340669443
 20
-214.075183262733
 30
0.0
 11
497.333340669442
 21
-214.075183262568
 31
0.0
  0
LINE
  5
199
330
1F
100
AcDbEntity
  8
0
  6
Continuous
 62
     3
100
AcDbLine
 10
496.083340669443
 20
-214.075183262733
 30
0.0
 11
496.083340669443
 21
-654.075183262601
 31
0.0
  0
LINE
  5
19A
330
1F
100
AcDbEntity
  8
0
  6
Continuous
 62
     3
100
AcDbLine
 10
497.333340669443
 20
-654.075183262563
 30
0.0
 11
496.083340669443
 21
-654.075183262601
 31
0.0
  0
LINE
  5
19B
330
1F
100
AcDbEntity
  8
0
  6
Continuous
 62
     3
100
AcDbLine
 10
530.083340669442
 20
-654.075183262601
 30
0.0
 11
528.833340669442
 21
-654.075183262563
 31
0.0
  0
LINE
  5
19C
330
1F
100
AcDbEntity
  8
0
  6
Continuous
 62
     3
100
AcDbLine
 10
528.833340669442
 20
-654.075183262563
 30
0.0
 11
525.104155949614
 21
-654.075183262601
 31
0.0
  0
LINE
  5
19D
330
1F
100
AcDbEntity
  8
0
  6
Continuous
 62
     3
100
AcDbLine
 10
525.104155949614
 20
-654.075183262601
 30
0.0
 11
497.333340669443
 21
-654.075183262563
 31
0.0
  0
LINE
  5
19E
330
1F
100
AcDbEntity
  8
0
  6
Continuous
 62
     3
100
AcDbLine
 10
530.083340669442
 20
-214.075183262733
 30
0.0
 11
530.083340669442
 21
-654.075183262601
 31
0.0
  0
LINE
  5
19F
330
1F
100
AcDbEntity
  8
0
  6
Continuous
 62
     3
100
AcDbLine
 10
495.793830817241
 20
-656.920482724183
 30
0.0
 11
495.793830817241
 21
-655.085546233645
 31
0.0
  0
LINE
  5
1A0
330
1F
100
AcDbEntity
  8
0
  6
Continuous
 62
     3
100
AcDbLine
 10
496.757147756517
 20
-656.920482724183
 30
0.0
 11
495.793830817241
 21
-656.920482724183
 31
0.0
  0
LINE
  5
1A1
330
1F
100
AcDbEntity
  8
0
  6
Continuous
 62
     3
100
AcDbLine
 10
496.757147756517
 20
-656.920482724183
 30
0.0
 11
496.757147756517
 21
-655.085546233645
 31
0.0
  0
LINE
  5
1A2
330
1F
100
AcDbEntity
  8
0
  6
Continuous
 62
     3
100
AcDbLine
 10
506.782116584399
 20
-656.920482724183
 30
0.0
 11
506.782116584388
 21
-655.085546233642
 31
0.0
  0
LINE
  5
1A3
330
1F
100
AcDbEntity
  8
0
  6
Continuous
 62
     3
100
AcDbLine
 10
524.071626436592
 20
-656.920482724184
 30
0.0
 11
524.071626436585
 21
-655.085546233642
 31
0.0
  0
LINE
  5
1A4
330
1F
100
AcDbEntity
  8
0
  6
Continuous
 62
     3
100
AcDbLine
 10
510.377264345566
 20
-656.920482724183
 30
0.0
 11
510.377264345566
 21
-655.085546233645
 31
0.0
  0
LINE
  5
1A5
330
1F
100
AcDbEntity
  8
0
  6
Continuous
 62
     3
100
AcDbLine
 10
510.377264345566
 20
-656.920482724183
 30
0.0
 11
506.782116584399
 21
-656.920482724183
 31
0.0
  0
LINE
  5
1A6
330
1F
100
AcDbEntity
  8
0
  6
Continuous
 62
     3
100
AcDbLine
 10
496.757147756517
 20
-655.085546233645
 30
0.0
 11
495.793830817241
 21
-655.085546233645
 31
0.0
  0
LINE
  5
1A7
330
1F
100
AcDbEntity
  8
0
  6
Continuous
 62
     3
100
AcDbLine
 10
526.703457258492
 20
-655.085546233645
 30
0.0
 11
524.071626436585
 21
-655.085546233642
 31
0.0
  0
LINE
  5
1A8
330
1F
100
AcDbEntity
  8
0
  6
Continuous
 62
     3
100
AcDbLine
 10
510.377264345566
 20
-655.085546233645
 30
0.0
 11
506.782116584388
 21
-655.085546233642
 31
0.0
  0
LINE
  5
1A9
330
1F
100
AcDbEntity
  8
0
  6
Continuous
 62
     3
100
AcDbLine
 10
526.703457258426
 20
-656.920482724126
 30
0.0
 11
526.703457258492
 21
-655.085546233645
 31
0.0
  0
LINE
  5
1AA
330
1F
100
AcDbEntity
  8
0
  6
Continuous
 62
     3
100
AcDbLine
 10
530.372850521641
 20
-656.920482724187
 30
0.0
 11
530.372850521643
 21
-655.085546233645
 31
0.0
  0
LINE
  5
1AB
330
1F
100
AcDbEntity
  8
0
  6
Continuous
 62
     3
100
AcDbLine
 10
528.833340669442
 20
-654.075183262563
 30
0.0
 11
529.647759556004
 21
-654.545388225953
 31
0.0
  0
LINE
  5
1AC
330
1F
100
AcDbEntity
  8
0
  6
Continuous
 62
     3
100
AcDbLine
 10
528.833340669442
 20
-654.075183262563
 30
0.0
 11
525.104155949614
 21
-654.075183262601
 31
0.0
  0
LINE
  5
1AD
330
1F
100
AcDbEntity
  8
0
  6
Continuous
 62
     3
100
AcDbLine
 10
525.104155949614
 20
-654.075183262601
 30
0.0
 11
497.333340669443
 21
-654.075183262563
 31
0.0
  0
LINE
  5
1AE
330
1F
100
AcDbEntity
  8
0
  6
Continuous
 62
     3
100
AcDbLine
 10
497.333340669443
 20
-654.075183262563
 30
0.0
 11
496.518921782881
 21
-654.545388225953
 31
0.0
  0
LINE
  5
1AF
330
1F
100
AcDbEntity
  8
0
  6
Continuous
 62
     3
100
AcDbLine
 10
497.583340669443
 20
-658.075183262562
 30
0.0
 11
496.518921782881
 21
-657.460640731875
 31
0.0
  0
LINE
  5
1B0
330
1F
100
AcDbEntity
  8
0
  6
Continuous
 62
     3
100
AcDbLine
 10
528.583340669442
 20
-658.075183262562
 30
0.0
 11
497.583340669443
 21
-658.075183262562
 31
0.0
  0
LINE
  5
1B1
330
1F
100
AcDbEntity
  8
0
  6
Continuous
 62
     3
100
AcDbLine
 10
526.703457258426
 20
-656.920482724126
 30
0.0
 11
524.071626436592
 21
-656.920482724184
 31
0.0
  0
LINE
  5
1B2
330
1F
100
AcDbEntity
  8
0
  6
Continuous
 62
     3
100
AcDbLine
 10
528.583340669442
 20
-658.075183262562
 30
0.0
 11
529.647759556004
 21
-657.460640731875
 31
0.0
  0
LINE
  5
1B3
330
1F
100
AcDbEntity
  8
0
  6
Continuous
 62
     3
100
AcDbLine
 10
504.283340669443
 20
-689.075187946238
 30
0.0
 11
502.814964360113
 21
-687.606811636907
 31
0.0
  0
LINE
  5
1B4
330
1F
100
AcDbEntity
  8
0
  6
Continuous
 62
     3
100
AcDbLine
 10
504.283340669443
 20
-689.075187946238
 30
0.0
 11
521.883340669443
 21
-689.075187946238
 31
0.0
  0
LINE
  5
1B5
330
1F
100
AcDbEntity
  8
0
  6
Continuous
 62
     3
100
AcDbLine
 10
502.814964360113
 20
-687.606811636907
 30
0.0
 11
502.360828425683
 21
-673.075187946238
 31
0.0
  0
LINE
  5
1B6
330
1F
100
AcDbEntity
  8
0
  6
Continuous
 62
     3
100
AcDbLine
 10
502.814964360113
 20
-687.606811636907
 30
0.0
 11
523.351716978772
 21
-687.606811636907
 31
0.0
  0
LINE
  5
1B7
330
1F
100
AcDbEntity
  8
0
  6
Continuous
 62
     3
100
AcDbLine
 10
503.430028737961
 20
-659.075187946238
 30
0.0
 11
511.736652600925
 21
-659.075187946238
 31
0.0
  0
LINE
  5
1B8
330
1F
100
AcDbEntity
  8
0
  6
Continuous
 62
     3
100
AcDbLine
 10
522.736652600901
 20
-659.075187946249
 30
0.0
 11
524.083340669443
 21
-659.075187946238
 31
0.0
  0
LINE
  5
1B9
330
1F
100
AcDbEntity
  8
0
  6
Continuous
 62
     3
100
AcDbLine
 10
502.083340669443
 20
-659.075187946238
 30
0.0
 11
503.430028737961
 21
-659.075187946238
 31
0.0
  0
LINE
  5
1BA
330
1F
100
AcDbEntity
  8
0
  6
Continuous
 62
     3
100
AcDbLine
 10
511.736652600925
 20
-659.075187946238
 30
0.0
 11
514.430028737961
 21
-659.075187946238
 31
0.0
  0
LINE
  5
1BB
330
1F
100
AcDbEntity
  8
0
  6
Continuous
 62
     3
100
AcDbLine
 10
514.430028737961
 20
-659.075187946238
 30
0.0
 11
522.736652600901
 21
-659.075187946249
 31
0.0
  0
LINE
  5
1BC
330
1F
100
AcDbEntity
  8
0
  6
Continuous
 62
     3
100
AcDbLine
 10
501.083340669432
 20
-659.075187946238
 30
0.0
 11
502.083340669443
 21
-659.075187946238
 31
0.0
  0
LINE
  5
1BD
330
1F
100
AcDbEntity
  8
0
  6
Continuous
 62
     3
100
AcDbLine
 10
501.083340669432
 20
-659.075187946238
 30
0.0
 11
500.083340669443
 21
-658.075187946249
 31
0.0
  0
LINE
  5
1BE
330
1F
100
AcDbEntity
  8
0
  6
Continuous
 62
     3
100
AcDbLine
 10
525.083340669453
 20
-659.075187946238
 30
0.0
 11
526.083340669442
 21
-658.075187946249
 31
0.0
  0
LINE
  5
1BF
330
1F
100
AcDbEntity
  8
0
  6
Continuous
 62
     3
100
AcDbLine
 10
523.833340669442
 20
-673.075187946238
 30
0.0
 11
524.083340669443
 21
-672.93085037894
 31
0.0
  0
LINE
  5
1C0
330
1F
100
AcDbEntity
  8
0
  6
Continuous
 62
     3
100
AcDbLine
 10
524.083340669443
 20
-672.353500109751
 30
0.0
 11
524.083340669443
 21
-659.075187946238
 31
0.0
  0
LINE
  5
1C1
330
1F
100
AcDbEntity
  8
0
  6
Continuous
 62
     3
100
AcDbLine
 10
524.083340669443
 20
-659.075187946238
 30
0.0
 11
525.083340669453
 21
-659.075187946238
 31
0.0
  0
LINE
  5
1C2
330
1F
100
AcDbEntity
  8
0
  6
Continuous
 62
     3
100
AcDbLine
 10
522.736652600901
 20
-672.353500109509
 30
0.0
 11
522.736652600901
 21
-659.075187946249
 31
0.0
  0
LINE
  5
1C3
330
1F
100
AcDbEntity
  8
0
  6
Continuous
 62
     3
100
AcDbLine
 10
514.43002873806
 20
-672.353500109771
 30
0.0
 11
514.430028737961
 21
-659.075187946238
 31
0.0
  0
LINE
  5
1C4
330
1F
100
AcDbEntity
  8
0
  6
Continuous
 62
     3
100
AcDbLine
 10
502.083340669443
 20
-672.93085037894
 30
0.0
 11
502.083340669443
 21
-672.353500109751
 31
0.0
  0
LINE
  5
1C5
330
1F
100
AcDbEntity
  8
0
  6
Continuous
 62
     3
100
AcDbLine
 10
502.083340669443
 20
-672.353500109751
 30
0.0
 11
502.083340669443
 21
-659.075187946238
 31
0.0
  0
LINE
  5
1C6
330
1F
100
AcDbEntity
  8
0
  6
Continuous
 62
     3
100
AcDbLine
 10
502.333340669443
 20
-673.075187946238
 30
0.0
 11
502.083340669443
 21
-672.93085037894
 31
0.0
  0
LINE
  5
1C7
330
1F
100
AcDbEntity
  8
0
  6
Continuous
 62
     3
100
AcDbLine
 10
502.083340669443
 20
-672.353500109751
 30
0.0
 11
503.430028737984
 21
-672.353500109751
 31
0.0
  0
LINE
  5
1C8
330
1F
100
AcDbEntity
  8
0
  6
Continuous
 62
     3
100
AcDbLine
 10
522.736652600901
 20
-672.353500109509
 30
0.0
 11
524.083340669443
 21
-672.353500109751
 31
0.0
  0
LINE
  5
1C9
330
1F
100
AcDbEntity
  8
0
  6
Continuous
 62
     3
100
AcDbLine
 10
511.736652600901
 20
-672.353500109751
 30
0.0
 11
514.43002873806
 21
-672.353500109771
 31
0.0
  0
LINE
  5
1CA
330
1F
100
AcDbEntity
  8
0
  6
Continuous
 62
     3
100
AcDbLine
 10
524.083340669443
 20
-672.353500109751
 30
0.0
 11
524.083340669443
 21
-672.93085037894
 31
0.0
  0
LINE
  5
1CB
330
1F
100
AcDbEntity
  8
0
  6
Continuous
 62
     3
100
AcDbLine
 10
503.430028737984
 20
-672.353500109751
 30
0.0
 11
503.430028737961
 21
-659.075187946238
 31
0.0
  0
LINE
  5
1CC
330
1F
100
AcDbEntity
  8
0
  6
Continuous
 62
     3
100
AcDbLine
 10
511.736652600901
 20
-672.353500109751
 30
0.0
 11
511.736652600925
 21
-659.075187946238
 31
0.0
  0
LINE
  5
1CD
330
1F
100
AcDbEntity
  8
0
  6
Continuous
 62
     3
100
AcDbLine
 10
502.333340669443
 20
-673.075187946238
 30
0.0
 11
502.360828425683
 21
-673.075187946238
 31
0.0
  0
LINE
  5
1CE
330
1F
100
AcDbEntity
  8
0
  6
Continuous
 62
     3
100
AcDbLine
 10
523.805852913202
 20
-673.075187946238
 30
0.0
 11
523.833340669442
 21
-673.075187946238
 31
0.0
  0
LINE
  5
1CF
330
1F
100
AcDbEntity
  8
0
  6
Continuous
 62
     3
100
AcDbLine
 10
502.360828425683
 20
-673.075187946238
 30
0.0
 11
523.805852913202
 21
-673.075187946238
 31
0.0
  0
LINE
  5
1D0
330
1F
100
AcDbEntity
  8
0
  6
Continuous
 62
     3
100
AcDbLine
 10
500.083340669443
 20
-658.075187946249
 30
0.0
 11
500.083340669443
 21
-658.075183262562
 31
0.0
  0
LINE
  5
1D1
330
1F
100
AcDbEntity
  8
0
  6
Continuous
 62
     3
100
AcDbLine
 10
526.083340669442
 20
-658.075187946249
 30
0.0
 11
526.083340669442
 21
-658.075183262562
 31
0.0
  0
LINE
  5
1D2
330
1F
100
AcDbEntity
  8
0
  6
Continuous
 62
     3
100
AcDbLine
 10
500.083340669443
 20
-658.075187946249
 30
0.0
 11
526.083340669442
 21
-658.075187946249
 31
0.0
  0
LINE
  5
1D3
330
1F
100
AcDbEntity
  8
0
  6
Continuous
 62
     3
100
AcDbLine
 10
523.351716978772
 20
-687.606811636907
 30
0.0
 11
523.805852913202
 21
-673.075187946238
 31
0.0
  0
LINE
  5
1D4
330
1F
100
AcDbEntity
  8
0
  6
Continuous
 62
     3
100
AcDbLine
 10
521.883340669443
 20
-689.075187946238
 30
0.0
 11
523.351716978772
 21
-687.606811636907
 31
0.0
  0
LINE
  5
1D5
330
1F
100
AcDbEntity
  8
1
  6
DOT_CENTER
 62
     1
100
AcDbLine
 10
492.083340669443
 20
-199.075183262583
 30
0.0
 11
537.083340669443
 21
-199.075183262583
 31
0.0
  0
LINE
  5
1D6
330
1F
100
AcDbEntity
  8
0
  6
Continuous
 62
     4
100
AcDbLine
 10
513.083340669443
 20
-146.075183262719
 30
0.0
 11
515.346092254161
 21
-146.07518326273
 31
0.0
  0
LINE
  5
1D7
330
1F
100
AcDbEntity
  8
0
  6
Continuous
 62
     4
100
AcDbLine
 10
510.820589084726
 20
-146.07518326273
 30
0.0
 11
513.083340669443
 21
-146.075183262719
 31
0.0
  0
LINE
  5
1D8
330
1F
100
AcDbEntity
  8
0
  6
Continuous
 62
     4
100
AcDbLine
 10
515.346092254161
 20
-146.07518326273
 30
0.0
 11
518.846092254161
 21
-146.07518326273
 31
0.0
  0
LINE
  5
1D9
330
1F
100
AcDbEntity
  8
0
  6
Continuous
 62
     4
100
AcDbLine
 10
507.320589084726
 20
-146.07518326273
 30
0.0
 11
510.820589084726
 21
-146.07518326273
 31
0.0
  0
LINE
  5
1DA
330
1F
100
AcDbEntity
  8
0
  6
Continuous
 62
     4
100
AcDbLine
 10
507.743666007802
 20
-143.489470176741
 30
0.0
 11
518.423015331085
 21
-143.489470176741
 31
0.0
  0
LINE
  5
1DB
330
1F
100
AcDbEntity
  8
0
  6
Continuous
 62
     4
100
AcDbLine
 10
507.320589084726
 20
-146.07518326273
 30
0.0
 11
507.320589084726
 21
-143.98351758361
 31
0.0
  0
LINE
  5
1DC
330
1F
100
AcDbEntity
  8
0
  6
Continuous
 62
     4
100
AcDbLine
 10
518.846092254161
 20
-146.07518326273
 30
0.0
 11
518.846092254161
 21
-143.98351758361
 31
0.0
  0
LINE
  5
1DD
330
1F
100
AcDbEntity
  8
0
  6
Continuous
 62
     4
100
AcDbLine
 10
513.083340669443
 20
-146.075183262719
 30
0.0
 11
515.346092254161
 21
-146.07518326273
 31
0.0
  0
LINE
  5
1DE
330
1F
100
AcDbEntity
  8
0
  6
Continuous
 62
     4
100
AcDbLine
 10
510.820589084726
 20
-146.07518326273
 30
0.0
 11
513.083340669443
 21
-146.075183262719
 31
0.0
  0
LINE
  5
1DF
330
1F
100
AcDbEntity
  8
0
  6
Continuous
 62
     4
100
AcDbLine
 10
515.346092254161
 20
-146.07518326273
 30
0.0
 11
518.846092254161
 21
-146.07518326273
 31
0.0
  0
LINE
  5
1E0
330
1F
100
AcDbEntity
  8
0
  6
Continuous
 62
     4
100
AcDbLine
 10
507.320589084726
 20
-146.07518326273
 30
0.0
 11
510.820589084726
 21
-146.07518326273
 31
0.0
  0
LINE
  5
1E1
330
1F
100
AcDbEntity
  8
0
  6
Continuous
 62
     4
100
AcDbLine
 10
518.846092254161
 20
-146.07518326273
 30
0.0
 11
529.083340669443
 21
-146.075183262719
 31
0.0
  0
LINE
  5
1E2
330
1F
100
AcDbEntity
  8
0
  6
Continuous
 62
     4
100
AcDbLine
 10
497.083340669443
 20
-146.075183262719
 30
0.0
 11
507.320589084726
 21
-146.07518326273
 31
0.0
  0
LINE
  5
1E3
330
1F
100
AcDbEntity
  8
1
  6
Continuous
 62
     4
100
AcDbLine
 10
658.558062629113
 20
-681.004080794371
 30
0.0
 11
659.612862551835
 21
-683.367579669726
 31
0.0
  0
LINE
  5
1E4
330
1F
100
AcDbEntity
  8
1
  6
Continuous
 62
     4
100
AcDbLine
 10
658.558062629113
 20
-681.004080794371
 30
0.0
 11
660.653295595778
 21
-682.523530900884
 31
0.0
  0
LINE
  5
1E5
330
1F
100
AcDbEntity
  8
0
  6
Continuous
 62
     4
100
AcDbLine
 10
630.916659330557
 20
-147.075183262719
 30
0.0
 11
630.916659330557
 21
-149.47518326272
 31
0.0
  0
LINE
  5
1E6
330
1F
100
AcDbEntity
  8
0
  6
Continuous
 62
     4
100
AcDbLine
 10
642.153907745839
 20
-146.07518326273
 30
0.0
 11
645.653907745839
 21
-146.07518326273
 31
0.0
  0
LINE
  5
1E7
330
1F
100
AcDbEntity
  8
0
  6
Continuous
 62
     4
100
AcDbLine
 10
651.991540054404
 20
-146.07518326273
 30
0.0
 11
653.679410915274
 21
-146.07518326273
 31
0.0
  0
LINE
  5
1E8
330
1F
100
AcDbEntity
  8
0
  6
Continuous
 62
     4
100
AcDbLine
 10
650.179410915274
 20
-146.07518326273
 30
0.0
 11
651.991540054404
 21
-146.07518326273
 31
0.0
  0
LINE
  5
1E9
330
1F
100
AcDbEntity
  8
0
  6
Continuous
 62
     4
100
AcDbLine
 10
645.653907745839
 20
-146.07518326273
 30
0.0
 11
650.179410915274
 21
-146.07518326273
 31
0.0
  0
LINE
  5
1EA
330
1F
100
AcDbEntity
  8
0
  6
Continuous
 62
     4
100
AcDbLine
 10
631.916659330557
 20
-146.075183262719
 30
0.0
 11
642.153907745839
 21
-146.07518326273
 31
0.0
  0
LINE
  5
1EB
330
1F
100
AcDbEntity
  8
0
  6
Continuous
 62
     4
100
AcDbLine
 10
653.679410915274
 20
-146.07518326273
 30
0.0
 11
663.916659330557
 21
-146.075183262719
 31
0.0
  0
LINE
  5
1EC
330
1F
100
AcDbEntity
  8
0
  6
Continuous
 62
     4
100
AcDbLine
 10
642.153907745839
 20
-143.98351758361
 30
0.0
 11
642.153907745839
 21
-146.07518326273
 31
0.0
  0
LINE
  5
1ED
330
1F
100
AcDbEntity
  8
0
  6
Continuous
 62
     4
100
AcDbLine
 10
642.153907745839
 20
-146.07518326273
 30
0.0
 11
645.653907745839
 21
-146.07518326273
 31
0.0
  0
LINE
  5
1EE
330
1F
100
AcDbEntity
  8
0
  6
Continuous
 62
     4
100
AcDbLine
 10
651.991540054404
 20
-146.07518326273
 30
0.0
 11
653.679410915274
 21
-146.07518326273
 31
0.0
  0
LINE
  5
1EF
330
1F
100
AcDbEntity
  8
0
  6
Continuous
 62
     4
100
AcDbLine
 10
653.679410915274
 20
-143.98351758361
 30
0.0
 11
653.679410915274
 21
-146.07518326273
 31
0.0
  0
LINE
  5
1F0
330
1F
100
AcDbEntity
  8
0
  6
Continuous
 62
     4
100
AcDbLine
 10
645.653907745839
 20
-146.07518326273
 30
0.0
 11
650.179410915274
 21
-146.07518326273
 31
0.0
  0
LINE
  5
1F1
330
1F
100
AcDbEntity
  8
0
  6
Continuous
 62
     3
100
AcDbLine
 10
598.916659330532
 20
-191.075183262591
 30
0.0
 11
597.916659330542
 21
-192.075183262585
 31
0.0
  0
LINE
  5
1F2
330
1F
100
AcDbEntity
  8
0
  6
Continuous
 62
     3
100
AcDbLine
 10
630.916659330558
 20
-186.575183291802
 30
0.0
 11
630.916659330558
 21
-184.72988380096
 31
0.0
  0
LINE
  5
1F3
330
1F
100
AcDbEntity
  8
0
  6
Continuous
 62
     3
100
AcDbLine
 10
631.416659330559
 20
-183.863858397175
 30
0.0
 11
631.916659330559
 21
-183.575183262581
 31
0.0
  0
LINE
  5
1F4
330
1F
100
AcDbEntity
  8
0
  6
Continuous
 62
     3
100
AcDbLine
 10
663.916659330559
 20
-183.575183262581
 30
0.0
 11
631.916659330559
 21
-183.575183262581
 31
0.0
  0
LINE
  5
1F5
330
1F
100
AcDbEntity
  8
0
  6
Continuous
 62
     3
100
AcDbLine
 10
664.416659330558
 20
-183.863858397175
 30
0.0
 11
663.916659330559
 21
-183.575183262581
 31
0.0
  0
LINE
  5
1F6
330
1F
100
AcDbEntity
  8
0
  6
Continuous
 62
     3
100
AcDbLine
 10
640.766659330558
 20
-211.075183262733
 30
0.0
 11
652.972472816041
 21
-211.075183262733
 31
0.0
  0
LINE
  5
1F7
330
1F
100
AcDbEntity
  8
0
  6
Continuous
 62
     3
100
AcDbLine
 10
652.972472816041
 20
-211.075183262733
 30
0.0
 11
655.066659330557
 21
-211.075183262733
 31
0.0
  0
LINE
  5
1F8
330
1F
100
AcDbEntity
  8
0
  6
Continuous
 62
     3
100
AcDbLine
 10
664.41665933056
 20
-210.786508127986
 30
0.0
 11
663.916659330559
 21
-211.075183262581
 31
0.0
  0
LINE
  5
1F9
330
1F
100
AcDbEntity
  8
0
  6
Continuous
 62
     3
100
AcDbLine
 10
655.066659330557
 20
-211.075183262733
 30
0.0
 11
663.916659330559
 21
-211.075183262581
 31
0.0
  0
LINE
  5
1FA
330
1F
100
AcDbEntity
  8
0
  6
Continuous
 62
     3
100
AcDbLine
 10
631.416659330558
 20
-210.786508127986
 30
0.0
 11
631.916659330559
 21
-211.075183262581
 31
0.0
  0
LINE
  5
1FB
330
1F
100
AcDbEntity
  8
0
  6
Continuous
 62
     3
100
AcDbLine
 10
631.916659330559
 20
-211.075183262581
 30
0.0
 11
640.766659330558
 21
-211.075183262733
 31
0.0
  0
LINE
  5
1FC
330
1F
100
AcDbEntity
  8
0
  6
Continuous
 62
     3
100
AcDbLine
 10
619.416659330548
 20
-189.07518326259
 30
0.0
 11
619.818583119182
 21
-189.307234070152
 31
0.0
  0
LINE
  5
1FD
330
1F
100
AcDbEntity
  8
0
  6
Continuous
 62
     3
100
AcDbLine
 10
627.916659377438
 20
-189.575183262581
 30
0.0
 11
620.818583119181
 21
-189.575183262582
 31
0.0
  0
LINE
  5
1FE
330
1F
100
AcDbEntity
  8
0
  6
Continuous
 62
     3
100
AcDbLine
 10
613.916659330521
 20
-206.07518326257
 30
0.0
 11
613.916659330521
 21
-192.075183262595
 31
0.0
  0
LINE
  5
1FF
330
1F
100
AcDbEntity
  8
0
  6
Continuous
 62
     3
100
AcDbLine
 10
616.916659330522
 20
-209.075183262574
 30
0.0
 11
616.916659330521
 21
-189.07518326259
 31
0.0
  0
LINE
  5
200
330
1F
100
AcDbEntity
  8
0
  6
Continuous
 62
     3
100
AcDbLine
 10
619.416659330549
 20
-209.075183262573
 30
0.0
 11
619.416659330548
 21
-189.07518326259
 31
0.0
  0
LINE
  5
201
330
1F
100
AcDbEntity
  8
0
  6
Continuous
 62
     3
100
AcDbLine
 10
616.916659330521
 20
-189.07518326259
 30
0.0
 11
619.416659330548
 21
-189.07518326259
 31
0.0
  0
LINE
  5
202
330
1F
100
AcDbEntity
  8
0
  6
Continuous
 62
     3
100
AcDbLine
 10
616.916659330522
 20
-209.075183262574
 30
0.0
 11
619.416659330549
 21
-209.075183262573
 31
0.0
  0
LINE
  5
203
330
1F
100
AcDbEntity
  8
0
  6
Continuous
 62
     3
100
AcDbLine
 10
619.416659330549
 20
-209.075183262573
 30
0.0
 11
619.818583119183
 21
-208.843132455012
 31
0.0
  0
LINE
  5
204
330
1F
100
AcDbEntity
  8
0
  6
Continuous
 62
     3
100
AcDbLine
 10
628.27496105504
 20
-208.57518327675
 30
0.0
 11
620.818583119182
 21
-208.575183262582
 31
0.0
  0
LINE
  5
205
330
1F
100
AcDbEntity
  8
0
  6
Continuous
 62
     3
100
AcDbLine
 10
664.916659330559
 20
-209.920482724201
 30
0.0
 11
664.916659330559
 21
-184.72988380096
 31
0.0
  0
LINE
  5
206
330
1F
100
AcDbEntity
  8
0
  6
Continuous
 62
     3
100
AcDbLine
 10
607.916659330635
 20
-207.475183262596
 30
0.0
 11
607.616659330643
 21
-207.075183262575
 31
0.0
  0
LINE
  5
207
330
1F
100
AcDbEntity
  8
0
  6
Continuous
 62
     3
100
AcDbLine
 10
610.316659330538
 20
-206.075183262571
 30
0.0
 11
613.916659330521
 21
-206.07518326257
 31
0.0
  0
LINE
  5
208
330
1F
100
AcDbEntity
  8
0
  6
Continuous
 62
     3
100
AcDbLine
 10
609.316659330656
 20
-207.475183262599
 30
0.0
 11
610.316659330538
 21
-206.075183262571
 31
0.0
  0
LINE
  5
209
330
1F
100
AcDbEntity
  8
0
  6
Continuous
 62
     3
100
AcDbLine
 10
604.066659330577
 20
-205.075183262578
 30
0.0
 11
604.216659330616
 21
-205.075183262578
 31
0.0
  0
LINE
  5
20A
330
1F
100
AcDbEntity
  8
0
  6
Continuous
 62
     3
100
AcDbLine
 10
604.216659330599
 20
-207.075183262577
 30
0.0
 11
604.216659330616
 21
-205.075183262578
 31
0.0
  0
LINE
  5
20B
330
1F
100
AcDbEntity
  8
0
  6
Continuous
 62
     3
100
AcDbLine
 10
604.216659330599
 20
-207.075183262577
 30
0.0
 11
607.616659330643
 21
-207.075183262575
 31
0.0
  0
LINE
  5
20C
330
1F
100
AcDbEntity
  8
0
  6
Continuous
 62
     3
100
AcDbLine
 10
604.216659330616
 20
-205.075183262578
 30
0.0
 11
604.216659330599
 21
-193.075183262588
 31
0.0
  0
LINE
  5
20D
330
1F
100
AcDbEntity
  8
0
  6
Continuous
 62
     3
100
AcDbLine
 10
601.666659330577
 20
-206.075183262588
 30
0.0
 11
601.666659330576
 21
-192.075183262578
 31
0.0
  0
LINE
  5
20E
330
1F
100
AcDbEntity
  8
0
  6
Continuous
 62
     3
100
AcDbLine
 10
604.066659330577
 20
-193.075183262588
 30
0.0
 11
604.066659330577
 21
-206.075183262588
 31
0.0
  0
LINE
  5
20F
330
1F
100
AcDbEntity
  8
0
  6
Continuous
 62
     3
100
AcDbLine
 10
604.066659330577
 20
-192.075183262578
 30
0.0
 11
604.066659330577
 21
-193.075183262588
 31
0.0
  0
LINE
  5
210
330
1F
100
AcDbEntity
  8
0
  6
Continuous
 62
     3
100
AcDbLine
 10
601.516659330554
 20
-193.075183262588
 30
0.0
 11
601.666659330576
 21
-193.075183262588
 31
0.0
  0
LINE
  5
211
330
1F
100
AcDbEntity
  8
0
  6
Continuous
 62
     3
100
AcDbLine
 10
601.516659330601
 20
-205.075183262578
 30
0.0
 11
601.666659330577
 21
-205.075183262578
 31
0.0
  0
LINE
  5
212
330
1F
100
AcDbEntity
  8
0
  6
Continuous
 62
     3
100
AcDbLine
 10
598.916659330532
 20
-207.075183262576
 30
0.0
 11
601.516659330552
 21
-207.075183262576
 31
0.0
  0
LINE
  5
213
330
1F
100
AcDbEntity
  8
0
  6
Continuous
 62
     3
100
AcDbLine
 10
607.916659330635
 20
-207.475183262596
 30
0.0
 11
609.316659330656
 21
-207.475183262599
 31
0.0
  0
LINE
  5
214
330
1F
100
AcDbEntity
  8
0
  6
Continuous
 62
     3
100
AcDbLine
 10
601.516659330601
 20
-205.075183262578
 30
0.0
 11
601.516659330554
 21
-193.075183262588
 31
0.0
  0
LINE
  5
215
330
1F
100
AcDbEntity
  8
0
  6
Continuous
 62
     3
100
AcDbLine
 10
601.516659330552
 20
-207.075183262576
 30
0.0
 11
601.516659330601
 21
-205.075183262578
 31
0.0
  0
LINE
  5
216
330
1F
100
AcDbEntity
  8
0
  6
Continuous
 62
     3
100
AcDbLine
 10
601.516659330554
 20
-193.075183262588
 30
0.0
 11
601.516659330554
 21
-191.075183262591
 31
0.0
  0
LINE
  5
217
330
1F
100
AcDbEntity
  8
0
  6
Continuous
 62
     3
100
AcDbLine
 10
609.316659330656
 20
-207.475183262599
 30
0.0
 11
609.316659330657
 21
-190.67518326257
 31
0.0
  0
LINE
  5
218
330
1F
100
AcDbEntity
  8
0
  6
Continuous
 62
     3
100
AcDbLine
 10
607.916659330636
 20
-190.67518326257
 30
0.0
 11
607.616659330644
 21
-191.075183262588
 31
0.0
  0
LINE
  5
219
330
1F
100
AcDbEntity
  8
0
  6
Continuous
 62
     3
100
AcDbLine
 10
604.216659330599
 20
-191.075183262588
 30
0.0
 11
607.616659330644
 21
-191.075183262588
 31
0.0
  0
LINE
  5
21A
330
1F
100
AcDbEntity
  8
0
  6
Continuous
 62
     3
100
AcDbLine
 10
610.316659330538
 20
-192.075183262594
 30
0.0
 11
613.916659330521
 21
-192.075183262595
 31
0.0
  0
LINE
  5
21B
330
1F
100
AcDbEntity
  8
0
  6
Continuous
 62
     3
100
AcDbLine
 10
598.916659330532
 20
-191.075183262591
 30
0.0
 11
601.516659330554
 21
-191.075183262591
 31
0.0
  0
LINE
  5
21C
330
1F
100
AcDbEntity
  8
0
  6
Continuous
 62
     3
100
AcDbLine
 10
607.916659330636
 20
-190.67518326257
 30
0.0
 11
609.316659330657
 21
-190.67518326257
 31
0.0
  0
LINE
  5
21D
330
1F
100
AcDbEntity
  8
0
  6
Continuous
 62
     3
100
AcDbLine
 10
609.316659330657
 20
-190.67518326257
 30
0.0
 11
610.316659330538
 21
-192.075183262594
 31
0.0
  0
LINE
  5
21E
330
1F
100
AcDbEntity
  8
0
  6
Continuous
 62
     3
100
AcDbLine
 10
604.066659330577
 20
-193.075183262588
 30
0.0
 11
604.216659330599
 21
-193.075183262588
 31
0.0
  0
LINE
  5
21F
330
1F
100
AcDbEntity
  8
0
  6
Continuous
 62
     3
100
AcDbLine
 10
604.216659330599
 20
-193.075183262588
 30
0.0
 11
604.216659330599
 21
-191.075183262588
 31
0.0
  0
LINE
  5
220
330
1F
100
AcDbEntity
  8
0
  6
Continuous
 62
     3
100
AcDbLine
 10
610.316659330538
 20
-206.075183262571
 30
0.0
 11
610.316659330538
 21
-192.075183262594
 31
0.0
  0
LINE
  5
221
330
1F
100
AcDbEntity
  8
0
  6
Continuous
 62
     3
100
AcDbLine
 10
598.916659330532
 20
-207.075183262576
 30
0.0
 11
598.916659330532
 21
-191.075183262591
 31
0.0
  0
LINE
  5
222
330
1F
100
AcDbEntity
  8
0
  6
Continuous
 62
     3
100
AcDbLine
 10
607.616659330643
 20
-207.075183262575
 30
0.0
 11
607.616659330644
 21
-191.075183262588
 31
0.0
  0
LINE
  5
223
330
1F
100
AcDbEntity
  8
0
  6
Continuous
 62
     3
100
AcDbLine
 10
607.916659330635
 20
-207.475183262596
 30
0.0
 11
607.916659330636
 21
-190.67518326257
 31
0.0
  0
LINE
  5
224
330
1F
100
AcDbEntity
  8
0
  6
Continuous
 62
     3
100
AcDbLine
 10
598.916659330532
 20
-207.075183262576
 30
0.0
 11
597.916659330535
 21
-206.075183262574
 31
0.0
  0
LINE
  5
225
330
1F
100
AcDbEntity
  8
0
  6
Continuous
 62
     3
100
AcDbLine
 10
597.916659330535
 20
-206.075183262574
 30
0.0
 11
597.916659330542
 21
-192.075183262585
 31
0.0
  0
LINE
  5
226
330
1F
100
AcDbEntity
  8
0
  6
Continuous
 62
     3
100
AcDbLine
 10
631.352240443996
 20
-654.545388225952
 30
0.0
 11
632.166659330558
 21
-654.075183262563
 31
0.0
  0
LINE
  5
227
330
1F
100
AcDbEntity
  8
0
  6
Continuous
 62
     3
100
AcDbLine
 10
631.352240443996
 20
-657.460640731875
 30
0.0
 11
632.416659330558
 21
-658.075183262562
 31
0.0
  0
LINE
  5
228
330
1F
100
AcDbEntity
  8
0
  6
Continuous
 62
     3
100
AcDbLine
 10
645.210583006681
 20
-656.920482724183
 30
0.0
 11
641.615435245513
 21
-656.920482724183
 31
0.0
  0
LINE
  5
229
330
1F
100
AcDbEntity
  8
0
  6
Continuous
 62
     3
100
AcDbLine
 10
641.615435245513
 20
-655.085546233645
 30
0.0
 11
641.615435245513
 21
-656.920482724183
 31
0.0
  0
LINE
  5
22A
330
1F
100
AcDbEntity
  8
0
  6
Continuous
 62
     3
100
AcDbLine
 10
631.590466417632
 20
-656.920482724183
 30
0.0
 11
630.627149478357
 21
-656.920482724183
 31
0.0
  0
LINE
  5
22B
330
1F
100
AcDbEntity
  8
0
  6
Continuous
 62
     3
100
AcDbLine
 10
631.59046641777
 20
-655.085546233599
 30
0.0
 11
631.590466417632
 21
-656.920482724183
 31
0.0
  0
LINE
  5
22C
330
1F
100
AcDbEntity
  8
0
  6
Continuous
 62
     3
100
AcDbLine
 10
631.59046641777
 20
-655.085546233599
 30
0.0
 11
630.627149478356
 21
-655.085546233645
 31
0.0
  0
LINE
  5
22D
330
1F
100
AcDbEntity
  8
0
  6
Continuous
 62
     3
100
AcDbLine
 10
630.627149478356
 20
-655.085546233645
 30
0.0
 11
630.627149478357
 21
-656.920482724183
 31
0.0
  0
LINE
  5
22E
330
1F
100
AcDbEntity
  8
0
  6
Continuous
 62
     3
100
AcDbLine
 10
651.928354529646
 20
-658.075183262563
 30
0.0
 11
632.416659330558
 21
-658.075183262562
 31
0.0
  0
LINE
  5
22F
330
1F
100
AcDbEntity
  8
0
  6
Continuous
 62
     3
100
AcDbLine
 10
661.536775919606
 20
-656.920482724183
 30
0.0
 11
658.904945097714
 21
-656.920482724183
 31
0.0
  0
LINE
  5
230
330
1F
100
AcDbEntity
  8
0
  6
Continuous
 62
     3
100
AcDbLine
 10
661.536775919657
 20
-655.085546233599
 30
0.0
 11
661.536775919606
 21
-656.920482724183
 31
0.0
  0
LINE
  5
231
330
1F
100
AcDbEntity
  8
0
  6
Continuous
 62
     3
100
AcDbLine
 10
658.904945097959
 20
-655.085546233702
 30
0.0
 11
658.904945097714
 21
-656.920482724183
 31
0.0
  0
LINE
  5
232
330
1F
100
AcDbEntity
  8
0
  6
Continuous
 62
     3
100
AcDbLine
 10
661.536775919657
 20
-655.085546233599
 30
0.0
 11
658.904945097959
 21
-655.085546233702
 31
0.0
  0
LINE
  5
233
330
1F
100
AcDbEntity
  8
0
  6
Continuous
 62
     3
100
AcDbLine
 10
645.210583006681
 20
-655.085546233645
 30
0.0
 11
645.210583006681
 21
-656.920482724183
 31
0.0
  0
LINE
  5
234
330
1F
100
AcDbEntity
  8
0
  6
Continuous
 62
     3
100
AcDbLine
 10
663.416659330558
 20
-658.075183262562
 30
0.0
 11
651.928354529646
 21
-658.075183262563
 31
0.0
  0
LINE
  5
235
330
1F
100
AcDbEntity
  8
0
  6
Continuous
 62
     3
100
AcDbLine
 10
645.210583006681
 20
-655.085546233645
 30
0.0
 11
641.615435245513
 21
-655.085546233645
 31
0.0
  0
LINE
  5
236
330
1F
100
AcDbEntity
  8
0
  6
Continuous
 62
     3
100
AcDbLine
 10
651.993059290922
 20
-654.075183262563
 30
0.0
 11
632.166659330558
 21
-654.075183262563
 31
0.0
  0
LINE
  5
237
330
1F
100
AcDbEntity
  8
0
  6
Continuous
 62
     3
100
AcDbLine
 10
663.666659330558
 20
-654.075183262563
 30
0.0
 11
651.993059290922
 21
-654.075183262563
 31
0.0
  0
LINE
  5
238
330
1F
100
AcDbEntity
  8
0
  6
Continuous
 62
     3
100
AcDbLine
 10
664.481078217119
 20
-657.460640731875
 30
0.0
 11
663.416659330558
 21
-658.075183262562
 31
0.0
  0
LINE
  5
239
330
1F
100
AcDbEntity
  8
0
  6
Continuous
 62
     3
100
AcDbLine
 10
665.206169182756
 20
-655.085546233643
 30
0.0
 11
665.206169182759
 21
-656.920482724183
 31
0.0
  0
LINE
  5
23A
330
1F
100
AcDbEntity
  8
0
  6
Continuous
 62
     3
100
AcDbLine
 10
664.481078217119
 20
-654.545388225953
 30
0.0
 11
663.666659330558
 21
-654.075183262563
 31
0.0
  0
LINE
  5
23B
330
1F
100
AcDbEntity
  8
0
  6
Continuous
 62
     3
100
AcDbLine
 10
637.194147086798
 20
-673.075187946238
 30
0.0
 11
637.648283021228
 21
-687.606811636907
 31
0.0
  0
LINE
  5
23C
330
1F
100
AcDbEntity
  8
0
  6
Continuous
 62
     3
100
AcDbLine
 10
634.916659330558
 20
-658.075187946249
 30
0.0
 11
635.916659330558
 21
-659.075187946249
 31
0.0
  0
LINE
  5
23D
330
1F
100
AcDbEntity
  8
0
  6
Continuous
 62
     3
100
AcDbLine
 10
635.992464127259
 20
-659.075187946238
 30
0.0
 11
635.992464127272
 21
-672.353500109751
 31
0.0
  0
LINE
  5
23E
330
1F
100
AcDbEntity
  8
0
  6
Continuous
 62
     3
100
AcDbLine
 10
640.788295650584
 20
-672.353500109751
 30
0.0
 11
643.120827807245
 21
-672.353500109751
 31
0.0
  0
LINE
  5
23F
330
1F
100
AcDbEntity
  8
0
  6
Continuous
 62
     3
100
AcDbLine
 10
640.788295650598
 20
-659.075187946238
 30
0.0
 11
643.120827807217
 21
-659.075187946238
 31
0.0
  0
LINE
  5
240
330
1F
100
AcDbEntity
  8
0
  6
Continuous
 62
     3
100
AcDbLine
 10
635.916659330558
 20
-672.353500109751
 30
0.0
 11
635.992464127272
 21
-672.353500109751
 31
0.0
  0
LINE
  5
241
330
1F
100
AcDbEntity
  8
0
  6
Continuous
 62
     3
100
AcDbLine
 10
643.120827807217
 20
-659.075187946238
 30
0.0
 11
643.120827807245
 21
-672.353500109751
 31
0.0
  0
LINE
  5
242
330
1F
100
AcDbEntity
  8
0
  6
Continuous
 62
     3
100
AcDbLine
 10
634.916659330558
 20
-658.075183262562
 30
0.0
 11
634.916659330558
 21
-658.075187946249
 31
0.0
  0
LINE
  5
243
330
1F
100
AcDbEntity
  8
0
  6
Continuous
 62
     3
100
AcDbLine
 10
635.992464127259
 20
-659.075187946238
 30
0.0
 11
640.788295650598
 21
-659.075187946238
 31
0.0
  0
LINE
  5
244
330
1F
100
AcDbEntity
  8
0
  6
Continuous
 62
     3
100
AcDbLine
 10
635.916659330558
 20
-659.075187946249
 30
0.0
 11
635.992464127259
 21
-659.075187946238
 31
0.0
  0
LINE
  5
245
330
1F
100
AcDbEntity
  8
0
  6
Continuous
 62
     3
100
AcDbLine
 10
635.916659330558
 20
-659.075187946249
 30
0.0
 11
635.916659330558
 21
-672.353500109751
 31
0.0
  0
LINE
  5
246
330
1F
100
AcDbEntity
  8
0
  6
Continuous
 62
     3
100
AcDbLine
 10
640.788295650598
 20
-659.075187946238
 30
0.0
 11
640.788295650584
 21
-672.353500109751
 31
0.0
  0
LINE
  5
247
330
1F
100
AcDbEntity
  8
0
  6
Continuous
 62
     3
100
AcDbLine
 10
639.116659330557
 20
-689.075187946238
 30
0.0
 11
656.716659330557
 21
-689.075187946238
 31
0.0
  0
LINE
  5
248
330
1F
100
AcDbEntity
  8
0
  6
Continuous
 62
     3
100
AcDbLine
 10
635.916659330558
 20
-672.353500109751
 30
0.0
 11
637.166659330558
 21
-673.075187946238
 31
0.0
  0
LINE
  5
249
330
1F
100
AcDbEntity
  8
0
  6
Continuous
 62
     3
100
AcDbLine
 10
643.120827807217
 20
-659.075187946238
 30
0.0
 11
652.712490853896
 21
-659.075187946238
 31
0.0
  0
LINE
  5
24A
330
1F
100
AcDbEntity
  8
0
  6
Continuous
 62
     3
100
AcDbLine
 10
637.648283021228
 20
-687.606811636907
 30
0.0
 11
639.116659330557
 21
-689.075187946238
 31
0.0
  0
LINE
  5
24B
330
1F
100
AcDbEntity
  8
0
  6
Continuous
 62
     3
100
AcDbLine
 10
659.916659330558
 20
-659.075187946249
 30
0.0
 11
659.916659330557
 21
-672.353500109751
 31
0.0
  0
LINE
  5
24C
330
1F
100
AcDbEntity
  8
0
  6
Continuous
 62
     3
100
AcDbLine
 10
637.648283021228
 20
-687.606811636907
 30
0.0
 11
658.185035639888
 21
-687.606811636907
 31
0.0
  0
LINE
  5
24D
330
1F
100
AcDbEntity
  8
0
  6
Continuous
 62
     3
100
AcDbLine
 10
637.194147086798
 20
-673.075187946238
 30
0.0
 11
658.639171574318
 21
-673.075187946238
 31
0.0
  0
LINE
  5
24E
330
1F
100
AcDbEntity
  8
0
  6
Continuous
 62
     3
100
AcDbLine
 10
658.639171574318
 20
-673.075187946238
 30
0.0
 11
658.666659330558
 21
-673.075187946238
 31
0.0
  0
LINE
  5
24F
330
1F
100
AcDbEntity
  8
0
  6
Continuous
 62
     3
100
AcDbLine
 10
637.166659330558
 20
-673.075187946238
 30
0.0
 11
637.194147086798
 21
-673.075187946238
 31
0.0
  0
LINE
  5
250
330
1F
100
AcDbEntity
  8
0
  6
Continuous
 62
     3
100
AcDbLine
 10
659.916659330557
 20
-672.353500109751
 30
0.0
 11
658.666659330558
 21
-673.075187946238
 31
0.0
  0
LINE
  5
251
330
1F
100
AcDbEntity
  8
0
  6
Continuous
 62
     3
100
AcDbLine
 10
659.840854534143
 20
-672.353500109625
 30
0.0
 11
659.916659330557
 21
-672.353500109751
 31
0.0
  0
LINE
  5
252
330
1F
100
AcDbEntity
  8
0
  6
Continuous
 62
     3
100
AcDbLine
 10
655.045023010536
 20
-659.075187946238
 30
0.0
 11
659.840854533856
 21
-659.075187946238
 31
0.0
  0
LINE
  5
253
330
1F
100
AcDbEntity
  8
0
  6
Continuous
 62
     3
100
AcDbLine
 10
659.840854533856
 20
-659.075187946238
 30
0.0
 11
659.916659330558
 21
-659.075187946249
 31
0.0
  0
LINE
  5
254
330
1F
100
AcDbEntity
  8
0
  6
Continuous
 62
     3
100
AcDbLine
 10
660.916659330558
 20
-658.075187946249
 30
0.0
 11
659.916659330558
 21
-659.075187946249
 31
0.0
  0
LINE
  5
255
330
1F
100
AcDbEntity
  8
0
  6
Continuous
 62
     3
100
AcDbLine
 10
660.916659330557
 20
-658.075183262562
 30
0.0
 11
660.916659330558
 21
-658.075187946249
 31
0.0
  0
LINE
  5
256
330
1F
100
AcDbEntity
  8
0
  6
Continuous
 62
     3
100
AcDbLine
 10
658.639171574318
 20
-673.075187946238
 30
0.0
 11
658.185035639888
 21
-687.606811636907
 31
0.0
  0
LINE
  5
257
330
1F
100
AcDbEntity
  8
0
  6
Continuous
 62
     3
100
AcDbLine
 10
634.916659330558
 20
-658.075187946249
 30
0.0
 11
660.916659330558
 21
-658.075187946249
 31
0.0
  0
LINE
  5
258
330
1F
100
AcDbEntity
  8
0
  6
Continuous
 62
     3
100
AcDbLine
 10
658.185035639888
 20
-687.606811636907
 30
0.0
 11
656.716659330557
 21
-689.075187946238
 31
0.0
  0
LINE
  5
259
330
1F
100
AcDbEntity
  8
0
  6
Continuous
 62
     3
100
AcDbLine
 10
652.712490853896
 20
-659.075187946238
 30
0.0
 11
652.712490853869
 21
-672.353500109751
 31
0.0
  0
LINE
  5
25A
330
1F
100
AcDbEntity
  8
0
  6
Continuous
 62
     3
100
AcDbLine
 10
655.045023010536
 20
-659.075187946238
 30
0.0
 11
655.045023010529
 21
-672.353500109751
 31
0.0
  0
LINE
  5
25B
330
1F
100
AcDbEntity
  8
0
  6
Continuous
 62
     3
100
AcDbLine
 10
652.712490853869
 20
-672.353500109751
 30
0.0
 11
655.045023010529
 21
-672.353500109751
 31
0.0
  0
LINE
  5
25C
330
1F
100
AcDbEntity
  8
0
  6
Continuous
 62
     3
100
AcDbLine
 10
652.712490853896
 20
-659.075187946238
 30
0.0
 11
655.045023010536
 21
-659.075187946238
 31
0.0
  0
LINE
  5
25D
330
1F
100
AcDbEntity
  8
0
  6
Continuous
 62
     3
100
AcDbLine
 10
659.840854533856
 20
-659.075187946238
 30
0.0
 11
659.840854534143
 21
-672.353500109625
 31
0.0
  0
LINE
  5
25E
330
1F
100
AcDbEntity
  8
0
  6
Continuous
 62
     3
100
AcDbLine
 10
664.916659330557
 20
-654.075183262601
 30
0.0
 11
664.916659330557
 21
-214.075183262733
 31
0.0
  0
LINE
  5
25F
330
1F
100
AcDbEntity
  8
0
  6
Continuous
 62
     3
100
AcDbLine
 10
630.916659330558
 20
-654.075183262601
 30
0.0
 11
630.916659330558
 21
-214.075183262733
 31
0.0
  0
LINE
  5
260
330
1F
100
AcDbEntity
  8
0
  6
Continuous
 62
     3
100
AcDbLine
 10
651.993059290922
 20
-654.075183262563
 30
0.0
 11
632.166659330558
 21
-654.075183262563
 31
0.0
  0
LINE
  5
261
330
1F
100
AcDbEntity
  8
0
  6
Continuous
 62
     3
100
AcDbLine
 10
663.666659330558
 20
-654.075183262563
 30
0.0
 11
651.993059290922
 21
-654.075183262563
 31
0.0
  0
LINE
  5
262
330
1F
100
AcDbEntity
  8
0
  6
Continuous
 62
     3
100
AcDbLine
 10
664.916659330557
 20
-654.075183262601
 30
0.0
 11
663.666659330558
 21
-654.075183262563
 31
0.0
  0
LINE
  5
263
330
1F
100
AcDbEntity
  8
0
  6
Continuous
 62
     3
100
AcDbLine
 10
632.166659330558
 20
-654.075183262563
 30
0.0
 11
630.916659330558
 21
-654.075183262601
 31
0.0
  0
LINE
  5
264
330
1F
100
AcDbEntity
  8
0
  6
Continuous
 62
     3
100
AcDbLine
 10
632.166659330558
 20
-214.075183262568
 30
0.0
 11
659.937474610729
 21
-214.075183262733
 31
0.0
  0
LINE
  5
265
330
1F
100
AcDbEntity
  8
0
  6
Continuous
 62
     3
100
AcDbLine
 10
659.937474610729
 20
-214.075183262733
 30
0.0
 11
663.666659330558
 21
-214.075183262568
 31
0.0
  0
LINE
  5
266
330
1F
100
AcDbEntity
  8
0
  6
Continuous
 62
     3
100
AcDbLine
 10
663.666659330558
 20
-214.075183262568
 30
0.0
 11
664.916659330557
 21
-214.075183262733
 31
0.0
  0
LINE
  5
267
330
1F
100
AcDbEntity
  8
0
  6
Continuous
 62
     3
100
AcDbLine
 10
630.916659330558
 20
-214.075183262733
 30
0.0
 11
632.166659330558
 21
-214.075183262568
 31
0.0
  0
LINE
  5
268
330
1F
100
AcDbEntity
  8
0
  6
Continuous
 62
     3
100
AcDbLine
 10
640.766659330558
 20
-211.075183262733
 30
0.0
 11
652.972472816041
 21
-211.075183262733
 31
0.0
  0
LINE
  5
269
330
1F
100
AcDbEntity
  8
0
  6
Continuous
 62
     3
100
AcDbLine
 10
652.972472816041
 20
-211.075183262733
 30
0.0
 11
655.066659330557
 21
-211.075183262733
 31
0.0
  0
LINE
  5
26A
330
1F
100
AcDbEntity
  8
0
  6
Continuous
 62
     3
100
AcDbLine
 10
645.653907745839
 20
-151.07518326273
 30
0.0
 11
650.179410915274
 21
-151.07518326273
 31
0.0
  0
LINE
  5
26B
330
1F
100
AcDbEntity
  8
0
  6
Continuous
 62
     3
100
AcDbLine
 10
650.179410915274
 20
-151.07518326273
 30
0.0
 11
651.991540054404
 21
-151.07518326273
 31
0.0
  0
LINE
  5
26C
330
1F
100
AcDbEntity
  8
0
  6
Continuous
 62
     3
100
AcDbLine
 10
653.679410915274
 20
-148.98351758361
 30
0.0
 11
653.679410915274
 21
-151.07518326273
 31
0.0
  0
LINE
  5
26D
330
1F
100
AcDbEntity
  8
0
  6
Continuous
 62
     3
100
AcDbLine
 10
651.991540054404
 20
-151.07518326273
 30
0.0
 11
653.679410915274
 21
-151.07518326273
 31
0.0
  0
LINE
  5
26E
330
1F
100
AcDbEntity
  8
0
  6
Continuous
 62
     3
100
AcDbLine
 10
642.153907745839
 20
-151.07518326273
 30
0.0
 11
645.653907745839
 21
-151.07518326273
 31
0.0
  0
LINE
  5
26F
330
1F
100
AcDbEntity
  8
0
  6
Continuous
 62
     3
100
AcDbLine
 10
642.153907745839
 20
-148.98351758361
 30
0.0
 11
642.153907745839
 21
-151.07518326273
 31
0.0
  0
LINE
  5
270
330
1F
100
AcDbEntity
  8
0
  6
Continuous
 62
     3
100
AcDbLine
 10
631.916659330557
 20
-182.075183262722
 30
0.0
 11
663.916659330557
 21
-182.075183262722
 31
0.0
  0
LINE
  5
271
330
1F
100
AcDbEntity
  8
0
  6
Continuous
 62
     3
100
AcDbLine
 10
653.679410915274
 20
-151.07518326273
 30
0.0
 11
663.916659330557
 21
-151.075183262719
 31
0.0
  0
LINE
  5
272
330
1F
100
AcDbEntity
  8
0
  6
Continuous
 62
     3
100
AcDbLine
 10
631.916659330557
 20
-151.075183262719
 30
0.0
 11
642.153907745839
 21
-151.07518326273
 31
0.0
  0
LINE
  5
273
330
1F
100
AcDbEntity
  8
0
  6
Continuous
 62
     3
100
AcDbLine
 10
645.653907745839
 20
-151.07518326273
 30
0.0
 11
650.179410915274
 21
-151.07518326273
 31
0.0
  0
LINE
  5
274
330
1F
100
AcDbEntity
  8
0
  6
Continuous
 62
     3
100
AcDbLine
 10
650.179410915274
 20
-151.07518326273
 30
0.0
 11
651.991540054404
 21
-151.07518326273
 31
0.0
  0
LINE
  5
275
330
1F
100
AcDbEntity
  8
0
  6
Continuous
 62
     3
100
AcDbLine
 10
651.991540054404
 20
-151.07518326273
 30
0.0
 11
653.679410915274
 21
-151.07518326273
 31
0.0
  0
LINE
  5
276
330
1F
100
AcDbEntity
  8
0
  6
Continuous
 62
     3
100
AcDbLine
 10
642.153907745839
 20
-151.07518326273
 30
0.0
 11
645.653907745839
 21
-151.07518326273
 31
0.0
  0
LINE
  5
277
330
1F
100
AcDbEntity
  8
0
  6
Continuous
 62
     3
100
AcDbLine
 10
630.916659330557
 20
-162.675183262719
 30
0.0
 11
630.916659330557
 21
-181.075183262722
 31
0.0
  0
LINE
  5
278
330
1F
100
AcDbEntity
  8
0
  6
Continuous
 62
     3
100
AcDbLine
 10
664.916659330557
 20
-152.075183262719
 30
0.0
 11
664.916659330557
 21
-181.075183262722
 31
0.0
  0
LINE
  5
279
330
1F
100
AcDbEntity
  8
0
  6
Continuous
 62
     3
100
AcDbLine
 10
630.916659330557
 20
-152.075183262719
 30
0.0
 11
630.916659330557
 21
-154.47518326272
 31
0.0
  0
LINE
  5
27A
330
1F
100
AcDbEntity
  8
0
  6
Continuous
 62
     3
100
AcDbLine
 10
611.658308425552
 20
-162.575183262719
 30
0.0
 11
630.940499576361
 21
-162.575183262719
 31
0.0
  0
LINE
  5
27B
330
1F
100
AcDbEntity
  8
0
  6
Continuous
 62
     3
100
AcDbLine
 10
611.658308425552
 20
-154.575183262719
 30
0.0
 11
630.940499576361
 21
-154.575183262719
 31
0.0
  0
LINE
  5
27C
330
1F
100
AcDbEntity
  8
0
  6
Continuous
 62
     3
100
AcDbLine
 10
611.158308425552
 20
-155.075183262719
 30
0.0
 11
611.158308425552
 21
-162.075183262719
 31
0.0
  0
LINE
  5
27D
330
1F
100
AcDbEntity
  8
0
  6
Continuous
 62
     3
100
AcDbLine
 10
664.916659330559
 20
-211.775183262592
 30
0.0
 11
664.416659330558
 21
-211.275183262592
 31
0.0
  0
LINE
  5
27E
330
1F
100
AcDbEntity
  8
0
  6
Continuous
 62
     3
100
AcDbLine
 10
664.416659330558
 20
-211.275183262592
 30
0.0
 11
661.366659330766
 21
-211.275183262589
 31
0.0
  0
LINE
  5
27F
330
1F
100
AcDbEntity
  8
0
  6
Continuous
 62
     3
100
AcDbLine
 10
664.916659330559
 20
-211.775183262592
 30
0.0
 11
664.916659330557
 21
-214.075183262733
 31
0.0
  0
LINE
  5
280
330
1F
100
AcDbEntity
  8
0
  6
Continuous
 62
     3
100
AcDbLine
 10
659.91665933047
 20
-183.575183262581
 30
0.0
 11
659.916659330479
 21
-182.075183262722
 31
0.0
  0
LINE
  5
281
330
1F
100
AcDbEntity
  8
0
  6
Continuous
 62
     3
100
AcDbLine
 10
630.916659330558
 20
-211.775183262592
 30
0.0
 11
631.416659330558
 21
-211.275183262592
 31
0.0
  0
LINE
  5
282
330
1F
100
AcDbEntity
  8
0
  6
Continuous
 62
     3
100
AcDbLine
 10
632.166659330558
 20
-214.075183262568
 30
0.0
 11
659.937474610729
 21
-214.075183262733
 31
0.0
  0
LINE
  5
283
330
1F
100
AcDbEntity
  8
0
  6
Continuous
 62
     3
100
AcDbLine
 10
659.937474610729
 20
-214.075183262733
 30
0.0
 11
663.666659330558
 21
-214.075183262568
 31
0.0
  0
LINE
  5
284
330
1F
100
AcDbEntity
  8
0
  6
Continuous
 62
     3
100
AcDbLine
 10
663.666659330558
 20
-214.075183262568
 30
0.0
 11
664.916659330557
 21
-214.075183262733
 31
0.0
  0
LINE
  5
285
330
1F
100
AcDbEntity
  8
0
  6
Continuous
 62
     3
100
AcDbLine
 10
630.916659330558
 20
-214.075183262733
 30
0.0
 11
632.166659330558
 21
-214.075183262568
 31
0.0
  0
LINE
  5
286
330
1F
100
AcDbEntity
  8
0
  6
Continuous
 62
     3
100
AcDbLine
 10
630.916659330558
 20
-211.775183262592
 30
0.0
 11
630.916659330558
 21
-214.075183262733
 31
0.0
  0
LINE
  5
287
330
1F
100
AcDbEntity
  8
0
  6
Continuous
 62
     3
100
AcDbLine
 10
661.366659330766
 20
-211.275183262589
 30
0.0
 11
634.46665933035
 21
-211.275183262589
 31
0.0
  0
LINE
  5
288
330
1F
100
AcDbEntity
  8
0
  6
Continuous
 62
     3
100
AcDbLine
 10
634.46665933035
 20
-211.275183262589
 30
0.0
 11
631.416659330558
 21
-211.275183262592
 31
0.0
  0
LINE
  5
289
330
1F
100
AcDbEntity
  8
0
  6
Continuous
 62
     3
100
AcDbLine
 10
661.366659330766
 20
-211.275183262589
 30
0.0
 11
661.366659330766
 21
-211.075183262581
 31
0.0
  0
LINE
  5
28A
330
1F
100
AcDbEntity
  8
0
  6
Continuous
 62
     3
100
AcDbLine
 10
634.46665933035
 20
-211.275183262589
 30
0.0
 11
634.46665933035
 21
-211.075183262581
 31
0.0
  0
LINE
  5
28B
330
1F
100
AcDbEntity
  8
0
  6
Continuous
 62
     3
100
AcDbLine
 10
635.916659330646
 20
-183.575183262581
 30
0.0
 11
635.916659330638
 21
-182.075183262722
 31
0.0
  0
LINE
  5
28C
330
1F
100
AcDbEntity
  8
0
  6
Continuous
 62
     3
100
AcDbLine
 10
664.916659330559
 20
-211.775183262592
 30
0.0
 11
630.916659330558
 21
-211.775183262592
 31
0.0
  0
LINE
  5
28D
330
1F
100
AcDbEntity
  8
1
  6
DOT_CENTER
 62
     1
100
AcDbLine
 10
661.417181014056
 20
-199.075183262583
 30
0.0
 11
586.417181014056
 21
-199.075183262583
 31
0.0
  0
LINE
  5
28E
330
1F
100
AcDbEntity
  8
1
  6
DOT_CENTER
 62
     1
100
AcDbLine
 10
647.916659330557
 20
-704.029646237288
 30
0.0
 11
647.916659330557
 21
-140.029646237288
 31
0.0
  0
ARC
  5
28F
330
1F
100
AcDbEntity
  8
0
  6
Continuous
 62
     3
100
AcDbCircle
 10
500.583340681203
 20
-52.7359562631221
 30
0.0
 40
2.999999989058949
100
AcDbArc
 50
359.9999999049978
 51
51.13637895710563
  0
ARC
  5
290
330
1F
100
AcDbEntity
  8
0
  6
Continuous
 62
     3
100
AcDbCircle
 10
525.583337792503
 20
-52.7359550761692
 30
0.0
 40
2.999997122241566
100
AcDbArc
 50
128.8636314656827
 51
180.0000263793078
  0
ARC
  5
291
330
1F
100
AcDbEntity
  8
0
  6
Continuous
 62
     3
100
AcDbCircle
 10
520.083340670267
 20
-82.1734612718658
 30
0.0
 40
1.200000000000102
100
AcDbArc
 50
270.0
 51
90.0
  0
ARC
  5
292
330
1F
100
AcDbEntity
  8
0
  6
Continuous
 62
     3
100
AcDbCircle
 10
506.083340670257
 20
-82.1734612718658
 30
0.0
 40
1.200000000000003
100
AcDbArc
 50
90.0
 51
270.0
  0
ARC
  5
293
330
1F
100
AcDbEntity
  8
0
  6
Continuous
 62
     3
100
AcDbCircle
 10
503.083340670274
 20
-71.1234612719214
 30
0.0
 40
3.0
100
AcDbArc
 50
359.9999999999829
 51
90.00000000007708
  0
ARC
  5
294
330
1F
100
AcDbEntity
  8
0
  6
Continuous
 62
     3
100
AcDbCircle
 10
513.083340669443
 20
-37.1234612714835
 30
0.0
 40
17.00000000019822
100
AcDbArc
 50
231.3178125727947
 51
256.3910393722184
  0
ARC
  5
295
330
1F
100
AcDbEntity
  8
0
  6
Continuous
 62
     3
100
AcDbCircle
 10
513.083340791317
 20
-37.1234612718856
 30
0.0
 40
17.00000007605518
100
AcDbArc
 50
308.6821802572714
 51
231.3178122513008
  0
ARC
  5
296
330
1F
100
AcDbEntity
  8
0
  6
Continuous
 62
     3
100
AcDbCircle
 10
513.083340983975
 20
-37.1234611178895
 30
0.0
 40
17.00000007585744
100
AcDbArc
 50
283.6089594810269
 51
308.6821794260071
  0
ARC
  5
297
330
1F
100
AcDbEntity
  8
0
  6
Continuous
 62
     3
100
AcDbCircle
 10
513.083340670262
 20
-37.1234612718856
 30
0.0
 40
16.9999999999999
100
AcDbArc
 50
270.0
 51
283.6089606307831
  0
ARC
  5
298
330
1F
100
AcDbEntity
  8
0
  6
Continuous
 62
     3
100
AcDbCircle
 10
513.083340670262
 20
-37.1234612718856
 30
0.0
 40
16.99999999999981
100
AcDbArc
 50
256.3910393692167
 51
270.0
  0
ARC
  5
299
330
1F
100
AcDbEntity
  8
0
  6
Continuous
 62
     3
100
AcDbCircle
 10
524.583340670261
 20
-64.2215374832613
 30
0.0
 40
1.999999999998977
100
AcDbArc
 50
180.0000000000086
 51
209.9999999999767
  0
ARC
  5
29A
330
1F
100
AcDbEntity
  8
0
  6
Continuous
 62
     3
100
AcDbCircle
 10
501.583340670262
 20
-64.2215374832613
 30
0.0
 40
1.999999999999667
100
AcDbArc
 50
330.0000000000241
 51
359.9999999999915
  0
ARC
  5
29B
330
1F
100
AcDbEntity
  8
0
  6
Continuous
 62
     3
100
AcDbCircle
 10
523.08334067025
 20
-71.1234612719214
 30
0.0
 40
3.0
100
AcDbArc
 50
89.99999999992401
 51
180.0000000000171
  0
ARC
  5
29C
330
1F
100
AcDbEntity
  8
0
  6
Continuous
 62
     3
100
AcDbCircle
 10
516.583340670262
 20
-73.3818121768906
 30
0.0
 40
0.5
100
AcDbArc
 50
270.0
 51
0.0
  0
ARC
  5
29D
330
1F
100
AcDbEntity
  8
0
  6
Continuous
 62
     3
100
AcDbCircle
 10
509.583340670262
 20
-73.3818121768906
 30
0.0
 40
0.5
100
AcDbArc
 50
180.0
 51
270.0
  0
ARC
  5
29E
330
1F
100
AcDbEntity
  8
0
  6
Continuous
 62
     3
100
AcDbCircle
 10
513.083340669443
 20
-37.1234612714835
 30
0.0
 40
17.00000000019822
100
AcDbArc
 50
231.3178125727947
 51
256.3910393722184
  0
ARC
  5
29F
330
1F
100
AcDbEntity
  8
0
  6
Continuous
 62
     3
100
AcDbCircle
 10
513.083340791317
 20
-37.1234612718856
 30
0.0
 40
17.00000007605518
100
AcDbArc
 50
308.6821802572714
 51
231.3178122513008
  0
ARC
  5
2A0
330
1F
100
AcDbEntity
  8
0
  6
Continuous
 62
     3
100
AcDbCircle
 10
513.083340983975
 20
-37.1234611178895
 30
0.0
 40
17.00000007585744
100
AcDbArc
 50
283.6089594810269
 51
308.6821794260071
  0
ARC
  5
2A1
330
1F
100
AcDbEntity
  8
0
  6
Continuous
 62
     3
100
AcDbCircle
 10
513.083340670262
 20
-37.1234612718856
 30
0.0
 40
16.9999999999999
100
AcDbArc
 50
270.0
 51
283.6089606307831
  0
ARC
  5
2A2
330
1F
100
AcDbEntity
  8
0
  6
Continuous
 62
     3
100
AcDbCircle
 10
513.083340670262
 20
-37.1234612718856
 30
0.0
 40
16.99999999999981
100
AcDbArc
 50
256.3910393692167
 51
270.0
  0
ARC
  5
2A3
330
1F
100
AcDbEntity
  8
0
  6
Continuous
 62
     3
100
AcDbCircle
 10
513.083340669443
 20
-37.1234612714835
 30
0.0
 40
17.00000000019822
100
AcDbArc
 50
231.3178125727947
 51
256.3910393722184
  0
ARC
  5
2A4
330
1F
100
AcDbEntity
  8
0
  6
Continuous
 62
     3
100
AcDbCircle
 10
513.083340791317
 20
-37.1234612718856
 30
0.0
 40
17.00000007605518
100
AcDbArc
 50
308.6821802572714
 51
231.3178122513008
  0
ARC
  5
2A5
330
1F
100
AcDbEntity
  8
0
  6
Continuous
 62
     3
100
AcDbCircle
 10
513.083340983975
 20
-37.1234611178895
 30
0.0
 40
17.00000007585744
100
AcDbArc
 50
283.6089594810269
 51
308.6821794260071
  0
ARC
  5
2A6
330
1F
100
AcDbEntity
  8
0
  6
Continuous
 62
     3
100
AcDbCircle
 10
513.083340670262
 20
-37.1234612718856
 30
0.0
 40
16.9999999999999
100
AcDbArc
 50
270.0
 51
283.6089606307831
  0
ARC
  5
2A7
330
1F
100
AcDbEntity
  8
0
  6
Continuous
 62
     3
100
AcDbCircle
 10
513.083340670262
 20
-37.1234612718856
 30
0.0
 40
16.99999999999981
100
AcDbArc
 50
256.3910393692167
 51
270.0
  0
ARC
  5
2A8
330
1F
100
AcDbEntity
  8
0
  6
Continuous
 62
     3
100
AcDbCircle
 10
513.083340669443
 20
-37.1234612714835
 30
0.0
 40
17.00000000019822
100
AcDbArc
 50
231.3178125727947
 51
256.3910393722184
  0
ARC
  5
2A9
330
1F
100
AcDbEntity
  8
0
  6
Continuous
 62
     3
100
AcDbCircle
 10
513.083340791317
 20
-37.1234612718856
 30
0.0
 40
17.00000007605518
100
AcDbArc
 50
308.6821802572714
 51
231.3178122513008
  0
ARC
  5
2AA
330
1F
100
AcDbEntity
  8
0
  6
Continuous
 62
     3
100
AcDbCircle
 10
513.083340983975
 20
-37.1234611178895
 30
0.0
 40
17.00000007585744
100
AcDbArc
 50
283.6089594810269
 51
308.6821794260071
  0
ARC
  5
2AB
330
1F
100
AcDbEntity
  8
0
  6
Continuous
 62
     3
100
AcDbCircle
 10
513.083340670262
 20
-37.1234612718856
 30
0.0
 40
16.9999999999999
100
AcDbArc
 50
270.0
 51
283.6089606307831
  0
ARC
  5
2AC
330
1F
100
AcDbEntity
  8
0
  6
Continuous
 62
     3
100
AcDbCircle
 10
513.083340670262
 20
-37.1234612718856
 30
0.0
 40
16.99999999999981
100
AcDbArc
 50
256.3910393692167
 51
270.0
  0
ARC
  5
2AD
330
1F
100
AcDbEntity
  8
0
  6
Continuous
 62
     3
100
AcDbCircle
 10
513.083340670262
 20
-37.1234612718856
 30
0.0
 40
17.49999999999993
100
AcDbArc
 50
218.8955081861621
 51
231.1044918138825
  0
ARC
  5
2AE
330
1F
100
AcDbEntity
  8
0
  6
Continuous
 62
     3
100
AcDbCircle
 10
513.083340670262
 20
-37.1234612718856
 30
0.0
 40
17.50000000000038
100
AcDbArc
 50
338.8955081861616
 51
351.104491813838
  0
ARC
  5
2AF
330
1F
100
AcDbEntity
  8
0
  6
Continuous
 62
     3
100
AcDbCircle
 10
513.083340670262
 20
-37.1234612718856
 30
0.0
 40
17.49999999999678
100
AcDbArc
 50
98.89550818613856
 51
111.1044918138391
  0
ARC
  5
2B0
330
1F
100
AcDbEntity
  8
0
  6
Continuous
 62
     3
100
AcDbCircle
 10
513.083340670262
 20
-37.1234612718856
 30
0.0
 40
17.50000000000036
100
AcDbArc
 50
158.8955081861623
 51
171.104491813839
  0
ARC
  5
2B1
330
1F
100
AcDbEntity
  8
0
  6
Continuous
 62
     3
100
AcDbCircle
 10
513.083340670262
 20
-37.1234612718856
 30
0.0
 40
17.49999999999977
100
AcDbArc
 50
38.89550818616171
 51
51.10449181383842
  0
ARC
  5
2B2
330
1F
100
AcDbEntity
  8
0
  6
Continuous
 62
     3
100
AcDbCircle
 10
529.083340669443
 20
-184.72988380096
 30
0.0
 40
1.0
100
AcDbArc
 50
0.0
 51
60.00000000006733
  0
ARC
  5
2B3
330
1F
100
AcDbEntity
  8
0
  6
Continuous
 62
     3
100
AcDbCircle
 10
497.083340669442
 20
-184.72988380096
 30
0.0
 40
1.000000000000017
100
AcDbArc
 50
119.9999999999355
 51
180.0
  0
ARC
  5
2B4
330
1F
100
AcDbEntity
  8
0
  6
Continuous
 62
     3
100
AcDbCircle
 10
497.083340669442
 20
-209.920482724201
 30
0.0
 40
1.0
100
AcDbArc
 50
180.0
 51
240.0000000000157
  0
ARC
  5
2B5
330
1F
100
AcDbEntity
  8
0
  6
Continuous
 62
     3
100
AcDbCircle
 10
529.083340669443
 20
-209.920482724201
 30
0.0
 40
1.000000000000476
100
AcDbArc
 50
299.9999999999842
 51
0.0
  0
ARC
  5
2B6
330
1F
100
AcDbEntity
  8
0
  6
Continuous
 62
     3
100
AcDbCircle
 10
529.083340669443
 20
-181.075183262722
 30
0.0
 40
1.0
100
AcDbArc
 50
270.0
 51
0.0
  0
ARC
  5
2B7
330
1F
100
AcDbEntity
  8
0
  6
Continuous
 62
     3
100
AcDbCircle
 10
529.083340669443
 20
-152.075183262719
 30
0.0
 40
1.0
100
AcDbArc
 50
0.0
 51
90.0
  0
ARC
  5
2B8
330
1F
100
AcDbEntity
  8
0
  6
Continuous
 62
     3
100
AcDbCircle
 10
497.083340669443
 20
-152.075183262719
 30
0.0
 40
1.0
100
AcDbArc
 50
90.0
 51
180.0
  0
ARC
  5
2B9
330
1F
100
AcDbEntity
  8
0
  6
Continuous
 62
     3
100
AcDbCircle
 10
497.083340669443
 20
-181.075183262722
 30
0.0
 40
1.0
100
AcDbArc
 50
180.0
 51
270.0
  0
ARC
  5
2BA
330
1F
100
AcDbEntity
  8
0
  6
Continuous
 62
     3
100
AcDbCircle
 10
512.846092254161
 20
-184.307907174939
 30
0.0
 40
36.24999999999733
100
AcDbArc
 50
81.15011690156882
 51
89.62500882932565
  0
ARC
  5
2BB
330
1F
100
AcDbEntity
  8
0
  6
Continuous
 62
     3
100
AcDbCircle
 10
513.320589084726
 20
-184.307907174939
 30
0.0
 40
36.24999999999773
100
AcDbArc
 50
90.37499117067578
 51
98.84988309843108
  0
ARC
  5
2BC
330
1F
100
AcDbEntity
  8
0
  6
Continuous
 62
     3
100
AcDbCircle
 10
518.346092254162
 20
-148.983517583611
 30
0.0
 40
0.4999999999989768
100
AcDbArc
 50
0.00000000011399
 51
81.15011690155093
  0
ARC
  5
2BD
330
1F
100
AcDbEntity
  8
0
  6
Continuous
 62
     3
100
AcDbCircle
 10
507.820589084725
 20
-148.983517583611
 30
0.0
 40
0.4999999999982517
100
AcDbArc
 50
98.84988309844907
 51
179.999999999886
  0
ARC
  5
2BE
330
1F
100
AcDbEntity
  8
0
  6
Continuous
 62
     4
100
AcDbCircle
 10
507.820589084725
 20
-143.983517583611
 30
0.0
 40
0.4999999999982517
100
AcDbArc
 50
98.84988309844907
 51
179.999999999886
  0
ARC
  5
2BF
330
1F
100
AcDbEntity
  8
0
  6
Continuous
 62
     4
100
AcDbCircle
 10
518.346092254162
 20
-143.983517583611
 30
0.0
 40
0.4999999999989768
100
AcDbArc
 50
0.00000000011399
 51
81.15011690155093
  0
ARC
  5
2C0
330
1F
100
AcDbEntity
  8
0
  6
Continuous
 62
     4
100
AcDbCircle
 10
513.320589084726
 20
-179.307907174939
 30
0.0
 40
36.24999999999773
100
AcDbArc
 50
90.37499117067578
 51
98.84988309843108
  0
ARC
  5
2C1
330
1F
100
AcDbEntity
  8
0
  6
Continuous
 62
     4
100
AcDbCircle
 10
512.846092254161
 20
-179.307907174939
 30
0.0
 40
36.24999999999733
100
AcDbArc
 50
81.15011690156882
 51
89.62500882932565
  0
ARC
  5
2C2
330
1F
100
AcDbEntity
  8
0
  6
Continuous
 62
     4
100
AcDbCircle
 10
497.083340669443
 20
-147.075183262719
 30
0.0
 40
1.0
100
AcDbArc
 50
90.0
 51
180.0
  0
ARC
  5
2C3
330
1F
100
AcDbEntity
  8
0
  6
Continuous
 62
     4
100
AcDbCircle
 10
529.083340669443
 20
-147.075183262719
 30
0.0
 40
1.0
100
AcDbArc
 50
0.0
 51
90.0
  0
ARC
  5
2C4
330
1F
100
AcDbEntity
  8
0
  6
Continuous
 62
     4
100
AcDbCircle
 10
663.916659330557
 20
-147.075183262719
 30
0.0
 40
1.0
100
AcDbArc
 50
0.0
 51
90.0
  0
ARC
  5
2C5
330
1F
100
AcDbEntity
  8
0
  6
Continuous
 62
     4
100
AcDbCircle
 10
631.916659330557
 20
-147.075183262719
 30
0.0
 40
1.0
100
AcDbArc
 50
90.0
 51
180.0
  0
ARC
  5
2C6
330
1F
100
AcDbEntity
  8
0
  6
Continuous
 62
     4
100
AcDbCircle
 10
647.679410915274
 20
-179.307907174939
 30
0.0
 40
36.24999999999733
100
AcDbArc
 50
81.15011690156882
 51
89.62500882932422
  0
ARC
  5
2C7
330
1F
100
AcDbEntity
  8
0
  6
Continuous
 62
     4
100
AcDbCircle
 10
653.179410915275
 20
-143.983517583611
 30
0.0
 40
0.4999999999990905
100
AcDbArc
 50
0.00000000011399
 51
81.15011690153807
  0
ARC
  5
2C8
330
1F
100
AcDbEntity
  8
0
  6
Continuous
 62
     4
100
AcDbCircle
 10
642.653907745838
 20
-143.983517583611
 30
0.0
 40
0.4999999999982517
100
AcDbArc
 50
98.84988309844907
 51
179.999999999886
  0
ARC
  5
2C9
330
1F
100
AcDbEntity
  8
0
  6
Continuous
 62
     4
100
AcDbCircle
 10
648.153907745839
 20
-179.307907174939
 30
0.0
 40
36.24999999999772
100
AcDbArc
 50
90.37499117067435
 51
98.84988309843118
  0
ARC
  5
2CA
330
1F
100
AcDbEntity
  8
0
  6
Continuous
 62
     3
100
AcDbCircle
 10
602.866659330577
 20
-206.075183262588
 30
0.0
 40
1.200000000000045
100
AcDbArc
 50
180.0
 51
0.0
  0
ARC
  5
2CB
330
1F
100
AcDbEntity
  8
0
  6
Continuous
 62
     3
100
AcDbCircle
 10
602.866659330576
 20
-192.075183262578
 30
0.0
 40
1.200000000000955
100
AcDbArc
 50
0.0
 51
180.0
  0
ARC
  5
2CC
330
1F
100
AcDbEntity
  8
0
  6
Continuous
 62
     3
100
AcDbCircle
 10
613.916659330522
 20
-209.07518326257
 30
0.0
 40
3.0
100
AcDbArc
 50
359.9999999999235
 51
90.00000000001738
  0
ARC
  5
2CD
330
1F
100
AcDbEntity
  8
0
  6
Continuous
 62
     3
100
AcDbCircle
 10
631.916659330558
 20
-184.72988380096
 30
0.0
 40
0.9999999999999889
100
AcDbArc
 50
119.9999999999327
 51
180.0
  0
ARC
  5
2CE
330
1F
100
AcDbEntity
  8
0
  6
Continuous
 62
     3
100
AcDbCircle
 10
631.916659334002
 20
-209.920482727997
 30
0.0
 40
0.9999999984340948
100
AcDbArc
 50
204.4359107398884
 51
239.9999997203769
  0
ARC
  5
2CF
330
1F
100
AcDbEntity
  8
0
  6
Continuous
 62
     3
100
AcDbCircle
 10
613.916659330521
 20
-189.075183262595
 30
0.0
 40
3.0
100
AcDbArc
 50
270.0
 51
0.00000000009554
  0
ARC
  5
2D0
330
1F
100
AcDbEntity
  8
0
  6
Continuous
 62
     3
100
AcDbCircle
 10
627.91665915129
 20
-186.575183083313
 30
0.0
 40
3.000000179268008
100
AcDbArc
 50
270.0000043191088
 51
359.9999960181534
  0
ARC
  5
2D1
330
1F
100
AcDbEntity
  8
0
  6
Continuous
 62
     3
100
AcDbCircle
 10
620.81858311918
 20
-187.575183262582
 30
0.0
 40
1.999999999999953
100
AcDbArc
 50
240.0000000000669
 51
270.0000000000293
  0
ARC
  5
2D2
330
1F
100
AcDbEntity
  8
0
  6
Continuous
 62
     3
100
AcDbCircle
 10
628.274961127012
 20
-211.575183223316
 30
0.0
 40
2.999999946566279
100
AcDbArc
 50
24.43591075574655
 51
90.00000137456526
  0
ARC
  5
2D3
330
1F
100
AcDbEntity
  8
0
  6
Continuous
 62
     3
100
AcDbCircle
 10
620.818583119182
 20
-210.575183262581
 30
0.0
 40
1.999999999999005
100
AcDbArc
 50
90.0
 51
119.9999999999731
  0
ARC
  5
2D4
330
1F
100
AcDbEntity
  8
0
  6
Continuous
 62
     3
100
AcDbCircle
 10
663.916659330559
 20
-184.72988380096
 30
0.0
 40
1.0
100
AcDbArc
 50
0.0
 51
60.00000000006733
  0
ARC
  5
2D5
330
1F
100
AcDbEntity
  8
0
  6
Continuous
 62
     3
100
AcDbCircle
 10
663.916659330559
 20
-209.920482724201
 30
0.0
 40
1.000000000000987
100
AcDbArc
 50
300.000000000035
 51
0.0
  0
ARC
  5
2D6
330
1F
100
AcDbEntity
  8
0
  6
Continuous
 62
     3
100
AcDbCircle
 10
648.153907745839
 20
-184.307907174939
 30
0.0
 40
36.24999999999772
100
AcDbArc
 50
90.37499117067435
 51
98.84988309843118
  0
ARC
  5
2D7
330
1F
100
AcDbEntity
  8
0
  6
Continuous
 62
     3
100
AcDbCircle
 10
642.653907745838
 20
-148.983517583611
 30
0.0
 40
0.4999999999982517
100
AcDbArc
 50
98.84988309844907
 51
179.999999999886
  0
ARC
  5
2D8
330
1F
100
AcDbEntity
  8
0
  6
Continuous
 62
     3
100
AcDbCircle
 10
653.179410915275
 20
-148.983517583611
 30
0.0
 40
0.4999999999990905
100
AcDbArc
 50
0.00000000011399
 51
81.15011690153807
  0
ARC
  5
2D9
330
1F
100
AcDbEntity
  8
0
  6
Continuous
 62
     3
100
AcDbCircle
 10
647.679410915274
 20
-184.307907174939
 30
0.0
 40
36.24999999999733
100
AcDbArc
 50
81.15011690156882
 51
89.62500882932422
  0
ARC
  5
2DA
330
1F
100
AcDbEntity
  8
0
  6
Continuous
 62
     3
100
AcDbCircle
 10
631.916659330557
 20
-152.075183262719
 30
0.0
 40
1.0
100
AcDbArc
 50
90.0
 51
180.0
  0
ARC
  5
2DB
330
1F
100
AcDbEntity
  8
0
  6
Continuous
 62
     3
100
AcDbCircle
 10
663.916659330557
 20
-152.075183262719
 30
0.0
 40
1.0
100
AcDbArc
 50
0.0
 51
90.0
  0
ARC
  5
2DC
330
1F
100
AcDbEntity
  8
0
  6
Continuous
 62
     3
100
AcDbCircle
 10
663.916659330557
 20
-181.075183262722
 30
0.0
 40
1.0
100
AcDbArc
 50
270.0
 51
0.0
  0
ARC
  5
2DD
330
1F
100
AcDbEntity
  8
0
  6
Continuous
 62
     3
100
AcDbCircle
 10
631.916659330557
 20
-181.075183262722
 30
0.0
 40
1.0
100
AcDbArc
 50
180.0
 51
270.0
  0
ARC
  5
2DE
330
1F
100
AcDbEntity
  8
0
  6
Continuous
 62
     3
100
AcDbCircle
 10
611.658308425552
 20
-162.075183262719
 30
0.0
 40
0.5
100
AcDbArc
 50
180.0
 51
270.0
  0
ARC
  5
2DF
330
1F
100
AcDbEntity
  8
0
  6
Continuous
 62
     3
100
AcDbCircle
 10
611.658308425552
 20
-155.075183262719
 30
0.0
 40
0.5
100
AcDbArc
 50
90.0
 51
180.0
  0
CIRCLE
  5
2E0
330
1F
100
AcDbEntity
  8
0
  6
Continuous
 62
     3
100
AcDbCircle
 10
513.083340670262
 20
-37.1234612718856
 30
0.0
 40
5.762751584715943
  0
CIRCLE
  5
2E1
330
1F
100
AcDbEntity
  8
0
  6
Continuous
 62
     3
100
AcDbCircle
 10
513.083340669443
 20
-199.075183262583
 30
0.0
 40
3.749999999998977
  0
CIRCLE
  5
2E2
330
1F
100
AcDbEntity
  8
0
  6
Continuous
 62
     3
100
AcDbCircle
 10
513.083340669443
 20
-199.075183262583
 30
0.0
 40
4.042893218811969
  0
CIRCLE
  5
2E3
330
1F
100
AcDbEntity
  8
0
  6
Continuous
 62
     3
100
AcDbCircle
 10
513.083340669443
 20
-199.075183262583
 30
0.0
 40
4.750000000001023
  0
CIRCLE
  5
2E4
330
1F
100
AcDbEntity
  8
0
  6
Continuous
 62
     3
100
AcDbCircle
 10
513.083340669443
 20
-199.075183262583
 30
0.0
 40
6.999999999989996
  0
CIRCLE
  5
2E5
330
1F
100
AcDbEntity
  8
0
  6
Continuous
 62
     3
100
AcDbCircle
 10
513.083340669443
 20
-199.075183262583
 30
0.0
 40
7.999999999996021
  0
CIRCLE
  5
2E6
330
1F
100
AcDbEntity
  8
0
  6
Continuous
 62
     3
100
AcDbCircle
 10
513.083340669443
 20
-199.075183262583
 30
0.0
 40
8.200000000004025
  0
CIRCLE
  5
2E7
330
1F
100
AcDbEntity
  8
0
  6
Continuous
 62
     3
100
AcDbCircle
 10
513.083340669443
 20
-199.075183262583
 30
0.0
 40
8.400000000011005
  0
CIRCLE
  5
2E8
330
1F
100
AcDbEntity
  8
0
  6
Continuous
 62
     3
100
AcDbCircle
 10
513.083340669443
 20
-158.575183262719
 30
0.0
 40
4.099999999999
  0
SPLINE
  5
2E9
330
1F
100
AcDbEntity
  8
0
  6
Continuous
 62
     3
100
AcDbSpline
210
0.0
220
0.0
230
1.0
 70
     8
 71
     3
 72
    59
 73
    55
 74
    53
 42
0.0000000001
 43
0.0000000001
 44
0.00000001
 40
0.0
 40
0.0
 40
0.0
 40
0.0
 40
0.0046915392878248
 40
0.0093830785759499
 40
0.0202773064738646
 40
0.0311715346524758
 40
0.0489632113070195
 40
0.0667548899899496
 40
0.0898177984196358
 40
0.1128807062870184
 40
0.1330049156166715
 40
0.153129124919551
 40
0.1779375841791362
 40
0.2027460463486284
 40
0.2317409630625061
 40
0.2607358775689523
 40
0.2934196989230394
 40
0.3261035411897062
 40
0.4080675263177685
 40
0.4900316429885724
 40
0.5773099002536177
 40
0.6645881764985071
 40
0.7569044949881352
 40
0.8492207314031119
 40
0.9463025057806995
 40
1.043384785662401
 40
1.262134080998059
 40
1.480885701060292
 40
1.698319199870228
 40
1.915752022869256
 40
2.131921370178365
 40
2.348090860776685
 40
2.563055159242441
 40
2.77801930276552
 40
2.99184201178855
 40
3.205664950162798
 40
3.418416193087642
 40
3.631166436685783
 40
3.804414045790776
 40
3.977661044889173
 40
4.14981483653423
 40
4.321968754321077
 40
4.493081001224198
 40
4.664193180249772
 40
4.834316641681769
 40
5.004440088178597
 40
5.173628789904432
 40
5.342817462555116
 40
5.510958508480803
 40
5.679099521122866
 40
5.846501902595146
 40
6.013904297386912
 40
6.346716551955433
 40
6.679528732454599
 40
6.679528732454599
 40
6.679528732454599
 40
6.679528732454599
 10
503.583340670262
 20
-52.7359562680964
 30
0.0
 10
503.584417302455
 20
-52.73709049860545
 30
0.0
 10
503.5865705668415
 20
-52.73935895962364
 30
0.0
 10
503.591226267283
 20
-52.74425895121866
 30
0.0
 10
503.5973085926736
 20
-52.75065546152572
 30
0.0
 10
503.6064061181399
 20
-52.76021057877404
 30
0.0
 10
503.6170989647887
 20
-52.77142135717733
 30
0.0
 10
503.6306065292604
 20
-52.78555286939633
 30
0.0
 10
503.6453464802169
 20
-52.80093703638503
 30
0.0
 10
503.6606460576269
 20
-52.81686177281583
 30
0.0
 10
503.6752866835222
 20
-52.83206116848454
 30
0.0
 10
503.6903498351361
 20
-52.84766142672206
 30
0.0
 10
503.7065201558686
 20
-52.86436310868891
 30
0.0
 10
503.7247752904424
 20
-52.88316197395493
 30
0.0
 10
503.7440345296978
 20
-52.90293091680716
 30
0.0
 10
503.765163201707
 20
-52.92454349556652
 30
0.0
 10
503.7871929681613
 20
-52.94699470984787
 30
0.0
 10
503.8216576591147
 20
-52.98198089830201
 30
0.0
 10
503.867811871414
 20
-53.02851010977923
 30
0.0
 10
503.9270765399012
 20
-53.08766567225102
 30
0.0
 10
503.9879050185231
 20
-53.14776054484894
 30
0.0
 10
504.0515206449756
 20
-53.20994240478592
 30
0.0
 10
504.1166852506489
 20
-53.27294017916537
 30
0.0
 10
504.1845693698453
 20
-53.33782427486276
 30
0.0
 10
504.2539873768094
 20
-53.40340059553635
 30
0.0
 10
504.3546103232977
 20
-53.49731203355199
 30
0.0
 10
504.4860804004747
 20
-53.6176077526721
 30
0.0
 10
504.6491685660983
 20
-53.76274609076722
 30
0.0
 10
504.813929919363
 20
-53.90531286506566
 30
0.0
 10
504.980016383898
 20
-54.04500026011954
 30
0.0
 10
505.1477349601354
 20
-54.18205895109867
 30
0.0
 10
505.3167447104856
 20
-54.31620289499784
 30
0.0
 10
505.4873449637928
 20
-54.44766108824334
 30
0.0
 10
505.6592029518304
 20
-54.57616889224428
 30
0.0
 10
505.8326086203319
 20
-54.70193364967301
 30
0.0
 10
506.0072401451724
 20
-54.82471284981151
 30
0.0
 10
506.1833751901721
 20
-54.94469129475346
 30
0.0
 10
506.3499900579361
 20
-55.05458198315114
 30
0.0
 10
506.5069984388309
 20
-55.15508367028957
 30
0.0
 10
506.6537515160263
 20
-55.24648144097914
 30
0.0
 10
506.8013176273298
 20
-55.33585880765541
 30
0.0
 10
506.9493753946781
 20
-55.4230251654976
 30
0.0
 10
507.0982141090446
 20
-55.50815402590047
 30
0.0
 10
507.2475226262351
 20
-55.59107104959499
 30
0.0
 10
507.3975793821081
 20
-55.67193364770483
 30
0.0
 10
507.5480846820543
 20
-55.75058347311075
 30
0.0
 10
507.6993050672945
 20
-55.82716223154586
 30
0.0
 10
507.8509029576356
 20
-55.90150210562115
 30
0.0
 10
508.003130620497
 20
-55.97373303340248
 30
0.0
 10
508.1557401566082
 20
-56.04373637459019
 30
0.0
 10
508.3090166399286
 20
-56.11166524765207
 30
0.0
 10
508.5136619092274
 20
-56.19909888044008
 30
0.0
 10
508.7709502009128
 20
-56.30367453333104
 30
0.0
 10
508.979210521537
 20
-56.38023595011354
 30
0.0
 10
509.083340670262
 20
-56.418516654245
 30
0.0
 11
503.583340670262
 21
-52.7359562680964
 31
0.0
 11
503.5865708430268
 21
-52.73935869734598
 31
0.0
 11
503.5898022526967
 21
-52.74275995188475
 31
0.0
 11
503.5973094407227
 21
-52.75065465450326
 31
0.0
 11
503.6048216185765
 21
-52.75854460960449
 31
0.0
 11
503.6171012601362
 21
-52.77141916440637
 31
0.0
 11
503.6293946641256
 21
-52.78428058146319
 31
0.0
 11
503.6453502615907
 21
-52.80093340869365
 31
0.0
 11
503.6613285444457
 21
-52.81756446988361
 31
0.0
 11
503.6752896021153
 21
-52.83205835376235
 31
0.0
 11
503.6892681712957
 21
-52.84653534943602
 31
0.0
 11
503.70652457863
 21
-52.86435881870403
 31
0.0
 11
503.7238075291864
 21
-52.88215655494433
 31
0.0
 11
503.7440405403829
 21
-52.90292505159595
 31
0.0
 11
503.7643096121014
 21
-52.92365835328437
 31
0.0
 11
503.7872005982025
 21
-52.94698719666819
 31
0.0
 11
503.8101374140236
 21
-52.97027101133202
 31
0.0
 11
503.8678598919517
 21
-53.02846216529822
 31
0.0
 11
503.9258708068559
 21
-53.08636596632716
 31
0.0
 11
503.987959358489
 21
-53.14770523553806
 31
0.0
 11
504.0503739977345
 21
-53.20871269665668
 31
0.0
 11
504.1167459041768
 21
-53.27287711588335
 31
0.0
 11
504.1834815686878
 21
-53.33666299667288
 31
0.0
 11
504.2540540874516
 21
-53.40332925884223
 31
0.0
 11
504.3250281017446
 21
-53.46956866072789
 31
0.0
 11
504.4864171865129
 21
-53.61723320463568
 31
0.0
 11
504.6498326561357
 21
-53.76265553981082
 31
0.0
 11
504.8142600700853
 21
-53.90492623934726
 31
0.0
 11
504.9806666927752
 21
-54.04487576039775
 31
0.0
 11
505.1480569125923
 21
-54.1816591695731
 31
0.0
 11
505.3173789896567
 21
-54.31604400087542
 31
0.0
 11
505.487658459017
 21
-54.44724823834215
 31
0.0
 11
505.6598183247698
 21
-54.57597493963053
 31
0.0
 11
505.8329128996336
 21
-54.70150748141427
 31
0.0
 11
506.0078334761069
 21
-54.82448325504974
 31
0.0
 11
506.1836701026639
 21
-54.94425208291044
 31
0.0
 11
506.3612732216595
 21
-55.06138362551996
 31
0.0
 11
506.5071893751895
 21
-55.1547817529081
 31
0.0
 11
506.6542493100531
 21
-55.24636722257723
 31
0.0
 11
506.80150134856
 21
-55.33555110639795
 31
0.0
 11
506.9498559253468
 21
-55.42288890437656
 31
0.0
 11
507.0983906902614
 21
-55.50784080048255
 31
0.0
 11
507.2479846614012
 21
-55.59091318825076
 31
0.0
 11
507.3977485267202
 21
-55.67161496502371
 31
0.0
 11
507.5485271120783
 21
-55.7504045915324
 31
0.0
 11
507.6994665827905
 21
-55.82683817690421
 31
0.0
 11
507.8513748712386
 21
-55.90132763155417
 31
0.0
 11
508.0032841608796
 21
-55.97340383460178
 31
0.0
 11
508.1561131736955
 21
-56.04350870585914
 31
0.0
 11
508.3091650770464
 21
-56.11132221633659
 31
0.0
 11
508.463089127534
 21
-56.17713215831719
 31
0.0
 11
508.7716191882483
 21
-56.30192478000057
 31
0.0
 11
509.083340670262
 21
-56.418516654245
 31
0.0
  0
SPLINE
  5
2EA
330
1F
100
AcDbEntity
  8
0
  6
Continuous
 62
     3
100
AcDbSpline
210
0.0
220
0.0
230
1.0
 70
     8
 71
     3
 72
    57
 73
    53
 74
    51
 42
0.0000000001
 43
0.0000000001
 44
0.00000001
 40
0.0
 40
0.0
 40
0.0
 40
0.0
 40
0.2779921490622242
 40
0.5559840212990846
 40
0.6898912146362566
 40
0.82379835088271
 40
0.9541855280994749
 40
1.084572571742808
 40
1.211331446151513
 40
1.338090534398397
 40
1.489403144791285
 40
1.640716084216602
 40
1.788703147217728
 40
1.936690039690379
 40
2.081255302688419
 40
2.225820516942834
 40
2.366855674105438
 40
2.507890794744636
 40
2.645275802348472
 40
2.782660629327672
 40
2.916263897721741
 40
3.049867541889055
 40
3.226977428654415
 40
3.404088020596237
 40
3.577136718339465
 40
3.750185108411919
 40
3.919020845743967
 40
4.087856543655764
 40
4.252309844007538
 40
4.416763038017035
 40
4.576646836145146
 40
4.736530559962786
 40
4.891641607410238
 40
5.046752542128656
 40
5.196872259156184
 40
5.346992002797979
 40
5.491888011530379
 40
5.636783576321839
 40
5.733159051388195
 40
5.829534329086142
 40
5.921564388336198
 40
6.013594464624846
 40
6.10104938102362
 40
6.188504271256968
 40
6.271150567257548
 40
6.353796821927745
 40
6.430218008070306
 40
6.506639241147403
 40
6.588429553375093
 40
6.670219685408075
 40
6.674885171979886
 40
6.679550658551993
 40
6.679550658551993
 40
6.679550658551993
 40
6.679550658551993
 10
517.083340670262
 20
-56.4185168022326
 30
0.0
 10
517.1703577652286
 20
-56.38665255311606
 30
0.0
 10
517.3443918685098
 20
-56.32292408661348
 30
0.0
 10
517.5580415160333
 20
-56.23776874904802
 30
0.0
 10
517.7260444048308
 20
-56.16794199692772
 30
0.0
 10
517.8480597228485
 20
-56.11567976650418
 30
0.0
 10
517.968459116401
 20
-56.06264504181503
 30
0.0
 10
518.0861440928159
 20
-56.00937491290062
 30
0.0
 10
518.2021977786048
 20
-55.95544945516287
 30
0.0
 10
518.3240175988267
 20
-55.89739567729237
 30
0.0
 10
518.4525655883292
 20
-55.83445099849108
 30
0.0
 10
518.5867007425995
 20
-55.76684888060836
 30
0.0
 10
518.7190795182266
 20
-55.69824653053136
 30
0.0
 10
518.8487035207564
 20
-55.62923661280992
 30
0.0
 10
518.9765666412698
 20
-55.55936522659168
 30
0.0
 10
519.1016532371102
 20
-55.48926242428099
 30
0.0
 10
519.2249759929778
 20
-55.41843574076498
 30
0.0
 10
519.3454990115946
 20
-55.34755494527467
 30
0.0
 10
519.4642565118596
 20
-55.27608674271903
 30
0.0
 10
519.5801897105327
 20
-55.20474291371996
 30
0.0
 10
519.694356979264
 20
-55.13294689469436
 30
0.0
 10
519.8189771850787
 20
-55.05291130921863
 30
0.0
 10
519.9548266840766
 20
-54.96353723400065
 30
0.0
 10
520.1004475487268
 20
-54.86511751663316
 30
0.0
 10
520.2437447125544
 20
-54.76570105026974
 30
0.0
 10
520.3835957468075
 20
-54.66617796613176
 30
0.0
 10
520.5211367189531
 20
-54.56585153284817
 30
0.0
 10
520.6552223636687
 20
-54.46566856053387
 30
0.0
 10
520.7870136365015
 20
-54.36487348164881
 30
0.0
 10
520.9153384331278
 20
-54.26447411988673
 30
0.0
 10
521.0413861335184
 20
-54.16365185883443
 30
0.0
 10
521.1639547258046
 20
-54.06347954277343
 30
0.0
 10
521.2842649185858
 20
-53.9630715230391
 30
0.0
 10
521.4010819845337
 20
-53.86356966387616
 30
0.0
 10
521.515660581784
 20
-53.76401731913967
 30
0.0
 10
521.626730960427
 20
-53.66562918733532
 30
0.0
 10
521.7355838516702
 20
-53.56737403477378
 30
0.0
 10
521.8303478519341
 20
-53.48025508202819
 30
0.0
 10
521.9126278097114
 20
-53.40346073143992
 30
0.0
 10
521.9816358171475
 20
-53.33827538500844
 30
0.0
 10
522.0492154673001
 20
-53.27368972319726
 30
0.0
 10
522.114289903587
 20
-53.2107884948929
 30
0.0
 10
522.1779263717935
 20
-53.1485959877336
 30
0.0
 10
522.2390044180206
 20
-53.08826262371731
 30
0.0
 10
522.2986350143372
 20
-53.02874649667719
 30
0.0
 10
522.3553768090828
 20
-52.97154379367767
 30
0.0
 10
522.4103892743265
 20
-52.91554978708019
 30
0.0
 10
522.4649448135649
 20
-52.85950799302694
 30
0.0
 10
522.5204765578666
 20
-52.80192010927635
 30
0.0
 10
522.5592077557749
 20
-52.76136014023751
 30
0.0
 10
522.5801286112778
 20
-52.73934015991786
 30
0.0
 10
522.5822699839339
 20
-52.73708435822944
 30
0.0
 10
522.583340670262
 20
-52.7359564573852
 30
0.0
 11
517.083340670262
 21
-56.4185168022326
 31
0.0
 11
517.3439285451458
 21
-56.32169947731705
 31
0.0
 11
517.602309963021
 21
-56.21913962198091
 31
0.0
 11
517.7259513006975
 21
-56.16772020886683
 31
0.0
 11
517.8490459343903
 21
-56.11500557812974
 31
0.0
 11
517.9683693563659
 21
-56.06244383395583
 31
0.0
 11
518.087154694613
 21
-56.00867744512815
 31
0.0
 11
518.2021101009421
 21
-55.95526333840474
 31
0.0
 11
518.3165401728342
 21
-55.90073238297599
 31
0.0
 11
518.4524365440999
 21
-55.83419155084479
 31
0.0
 11
518.5875596919149
 21
-55.76609352912532
 31
0.0
 11
518.7189522985469
 21
-55.69800422204901
 31
0.0
 11
518.849581165469
 21
-55.62846128947947
 31
0.0
 11
518.9764417988672
 21
-55.55913961206544
 31
0.0
 11
519.1025532676692
 21
-55.48846430796976
 31
0.0
 11
519.2248542472586
 21
-55.41822624174233
 31
0.0
 11
519.3464246726883
 21
-55.34673122852773
 31
0.0
 11
519.4641385302764
 21
-55.27589276407492
 31
0.0
 11
519.5811440546981
 21
-55.20389069508455
 31
0.0
 11
519.6942431152089
 21
-55.13276801349028
 31
0.0
 11
519.8066600878714
 21
-55.06057135157164
 31
0.0
 11
519.9546227121491
 21
-54.96323187444708
 31
0.0
 11
520.101363556219
 21
-54.86405886168836
 31
0.0
 11
520.2435465551162
 21
-54.76541887681795
 31
0.0
 11
520.3845399170942
 21
-54.6650863437851
 31
0.0
 11
520.5209449703165
 21
-54.56559178284886
 31
0.0
 11
520.6561994726299
 21
-54.46453876461921
 31
0.0
 11
520.7868292551486
 21
-54.36463507141577
 31
0.0
 11
520.9163525249594
 21
-54.26330109094794
 31
0.0
 11
521.0412098569086
 21
-54.16343380119602
 31
0.0
 11
521.1650093762156
 21
-54.06225828952866
 31
0.0
 11
521.2840974327057
 21
-53.96287281854999
 31
0.0
 11
521.4021803285315
 21
-53.86229532711862
 31
0.0
 11
521.5155024300873
 21
-53.76383705809362
 31
0.0
 11
521.6278756840402
 21
-53.66429717047507
 31
0.0
 11
521.7354357025631
 21
-53.56721114799022
 31
0.0
 11
521.8421057448751
 21
-53.4691487863554
 31
0.0
 11
521.9125619803682
 21
-53.4033905087441
 31
0.0
 11
521.9826227592904
 21
-53.33721134730962
 31
0.0
 11
522.0491552021248
 21
-53.27362702647454
 31
0.0
 11
522.1153260833801
 21
-53.20966649633608
 31
0.0
 11
522.1778718114107
 21
-53.14854044372807
 31
0.0
 11
522.2400901171698
 21
-53.08708118686471
 31
0.0
 11
522.2985861939941
 21
-53.02869780533556
 31
0.0
 11
522.3567892606837
 21
-52.9700223723254
 31
0.0
 11
522.410347415185
 21
-52.91550887144852
 31
0.0
 11
522.4636545651518
 21
-52.86074982993537
 31
0.0
 11
522.5204285559392
 21
-52.80187395079651
 31
0.0
 11
522.5769149545918
 21
-52.74272234502589
 31
0.0
 11
522.5801283706699
 21
-52.73933993138164
 31
0.0
 11
522.583340670262
 21
-52.7359564573852
 31
0.0
  0
SPLINE
  5
2EB
330
1F
100
AcDbEntity
  8
0
  6
Continuous
 62
     3
100
AcDbSpline
210
0.0
220
0.0
230
1.0
 70
     8
 71
     3
 72
    19
 73
    15
 74
    13
 42
0.0000000001
 43
0.0000000001
 44
0.00000001
 40
0.0
 40
0.0
 40
0.0
 40
0.0
 40
0.0011871597713681
 40
0.0023743195429442
 40
0.0029679795585095
 40
0.0035616395741437
 40
0.0041553529552306
 40
0.0047490663362384
 40
0.0053428330436662
 40
0.0059365997509987
 40
0.0065304197451801
 40
0.0071242397395098
 40
0.0083120394254642
 40
0.0094998391111554
 40
0.0094998391111554
 40
0.0094998391111554
 40
0.0094998391111554
 10
502.458340675407
 20
-50.394082023109
 30
0.0
 10
502.4586495560192
 20
-50.39432938322982
 30
0.0
 10
502.459267317244
 20
-50.39482410347152
 30
0.0
 10
502.4600392278028
 20
-50.39544290968982
 30
0.0
 10
502.4606566483147
 20
-50.39593814045044
 30
0.0
 10
502.4611196834321
 20
-50.39630969370469
 30
0.0
 10
502.46158265939
 20
-50.39668134908746
 30
0.0
 10
502.4620455893705
 20
-50.39705311853741
 30
0.0
 10
502.4625084596937
 20
-50.39742499064268
 30
0.0
 10
502.4629712839606
 20
-50.39779697679656
 30
0.0
 10
502.4634340489422
 20
-50.39816906504976
 30
0.0
 10
502.4640510281164
 20
-50.39866535617766
 30
0.0
 10
502.464822116587
 20
-50.39928595224161
 30
0.0
 10
502.4654387534356
 20
-50.39978275350828
 30
0.0
 10
502.46574707186
 20
-50.4000311541416
 30
0.0
 11
502.458340675407
 21
-50.394082023109
 31
0.0
 11
502.4592672548814
 21
-50.39482418131338
 31
0.0
 11
502.4601935405969
 21
-50.39556670612539
 31
0.0
 11
502.460656635749
 21
-50.39593815611419
 31
0.0
 11
502.4611196573871
 21
-50.39630969773611
 31
0.0
 11
502.4615826471052
 21
-50.39668136438768
 31
0.0
 11
502.4620455632595
 21
-50.39705312265974
 31
0.0
 11
502.4625084474007
 21
-50.39742500594073
 31
0.0
 11
502.4629712579288
 21
-50.39779698082946
 31
0.0
 11
502.4634340363501
 21
-50.39816908070619
 31
0.0
 11
502.4638967411091
 21
-50.39854127217797
 31
0.0
 11
502.4648220539581
 21
-50.39928603000794
 31
0.0
 11
502.46574707186
 21
-50.4000311541416
 31
0.0
  0
SPLINE
  5
2EC
330
1F
100
AcDbEntity
  8
0
  6
Continuous
 62
     3
100
AcDbSpline
210
0.0
220
0.0
230
1.0
 70
     8
 71
     3
 72
    19
 73
    15
 74
    13
 42
0.0000000001
 43
0.0000000001
 44
0.00000001
 40
0.0
 40
0.0
 40
0.0
 40
0.0
 40
0.0011877995570297
 40
0.0023755991137705
 40
0.0029694190432521
 40
0.0035632389728647
 40
0.0041570056155046
 40
0.0047507722580185
 40
0.0053444855741437
 40
0.0059381988904637
 40
0.0065318588408303
 40
0.0071255187913014
 40
0.008312678432415
 40
0.0094998380731801
 40
0.0094998380731801
 40
0.0094998380731801
 40
0.0094998380731801
 10
523.700932775752
 20
-50.400032541844
 30
0.0
 10
523.7012410941719
 20
-50.39978414127361
 30
0.0
 10
523.7018577310116
 20
-50.39928734013288
 30
0.0
 10
523.7026288194709
 20
-50.39866674422626
 30
0.0
 10
523.7032457986355
 20
-50.39817045322415
 30
0.0
 10
523.7037085636105
 20
-50.39779836506576
 30
0.0
 10
523.7041713878705
 20
-50.39742637900661
 30
0.0
 10
523.7046342581864
 20
-50.39705450699606
 30
0.0
 10
523.7050971881602
 20
-50.39668273764092
 30
0.0
 10
523.7055601641107
 20
-50.39631108235319
 30
0.0
 10
523.7060231992209
 20
-50.39593952919365
 30
0.0
 10
523.7066406197231
 20
-50.39544429855978
 30
0.0
 10
523.7074125302696
 20
-50.39482549249999
 30
0.0
 10
523.7080302914846
 20
-50.39433077238544
 30
0.0
 10
523.708339172092
 20
-50.3940834123282
 30
0.0
 11
523.700932775752
 21
-50.400032541844
 31
0.0
 11
523.7018577936407
 21
-50.39928741789907
 31
0.0
 11
523.7027831064759
 21
-50.39854266025794
 31
0.0
 11
523.7032458112277
 21
-50.39817046888072
 31
0.0
 11
523.7037085896422
 21
-50.39779836909862
 31
0.0
 11
523.7041714001634
 21
-50.3974263943046
 31
0.0
 11
523.7046342842975
 21
-50.39705451111841
 31
0.0
 11
523.7050972004448
 21
-50.3966827529412
 31
0.0
 11
523.7055601901559
 21
-50.39631108638444
 31
0.0
 11
523.7060232117865
 21
-50.39593954485746
 31
0.0
 11
523.7064863069313
 21
-50.39556809496362
 31
0.0
 11
523.7074125926322
 21
-50.39482557034191
 31
0.0
 11
523.708339172092
 21
-50.3940834123282
 31
0.0
  0
SPLINE
  5
2ED
330
1F
100
AcDbEntity
  8
0
  6
Continuous
 62
     3
100
AcDbSpline
210
0.0
220
0.0
230
1.0
 70
     8
 71
     3
 72
    11
 73
     7
 74
     5
 42
0.0000000001
 43
0.0000000001
 44
0.00000001
 40
0.0
 40
0.0
 40
0.0
 40
0.0
 40
0.2341423088341791
 40
0.468282851785276
 40
0.6870107334670628
 40
0.9057345190498056
 40
0.9057345190498056
 40
0.9057345190498056
 40
0.9057345190498056
 10
530.372850521643
 20
-655.085546233645
 30
0.0
 10
530.314351889342
 20
-655.0338581257299
 30
0.0
 10
530.1973550659318
 20
-654.930482299727
 30
0.0
 10
530.0172060962163
 20
-654.7889423840787
 30
0.0
 10
529.8350469453198
 20
-654.658515529656
 30
0.0
 10
529.7101882960692
 20
-654.5830970917925
 30
0.0
 10
529.647759556004
 20
-654.545388225953
 30
0.0
 11
530.372850521643
 21
-655.085546233645
 31
0.0
 11
530.1959053643194
 21
-654.9322066363914
 31
0.0
 11
530.0120734665506
 21
-654.7871975773082
 31
0.0
 11
529.833494167268
 21
-654.6608990417161
 31
0.0
 11
529.647759556004
 21
-654.545388225953
 31
0.0
  0
SPLINE
  5
2EE
330
1F
100
AcDbEntity
  8
0
  6
Continuous
 62
     3
100
AcDbSpline
210
0.0
220
0.0
230
1.0
 70
     8
 71
     3
 72
    19
 73
    15
 74
    13
 42
0.0000000001
 43
0.0000000001
 44
0.00000001
 40
0.0
 40
0.0
 40
0.0
 40
0.0
 40
1.730734392582093
 40
3.461454328222042
 40
4.332383750042618
 40
5.203321042126592
 40
6.060065607056233
 40
6.916804499239833
 40
7.774486097671249
 40
8.63217359995391
 40
9.504085674616077
 40
10.37598974353264
 40
12.10570792697482
 40
13.83544054673227
 40
13.83544054673227
 40
13.83544054673227
 40
13.83544054673227
 10
524.071626436585
 20
-655.085546233642
 30
0.0
 10
523.5090170150145
 20
-654.957350177164
 30
0.0
 10
522.3838028713882
 20
-654.700959135038
 30
0.0
 10
520.9562019997554
 20
-654.4750976801581
 30
0.0
 10
519.8061622367732
 20
-654.3428084510588
 30
0.0
 10
518.9427033565299
 20
-654.2717389462885
 30
0.0
 10
518.0821413250989
 20
-654.2290519245682
 30
0.0
 10
517.2250469608022
 20
-654.2147652112781
 30
0.0
 10
516.3676371147302
 20
-654.2290123048058
 30
0.0
 10
515.5061216088448
 20
-654.2717327827722
 30
0.0
 10
514.6417027843736
 20
-654.3428992295544
 30
0.0
 10
513.4913560354987
 20
-654.4752878472124
 30
0.0
 10
512.0641076200405
 20
-654.7011688521577
 30
0.0
 10
510.9395470013242
 20
-654.9574200833697
 30
0.0
 10
510.377264345566
 20
-655.085546233645
 30
0.0
 11
524.071626436585
 21
-655.085546233642
 31
0.0
 11
522.3799483108006
 21
-654.7199417254517
 31
0.0
 11
520.6709759885232
 21
-654.446436520179
 31
0.0
 11
519.805685680378
 21
-654.3474883497929
 31
0.0
 11
518.9376785365126
 21
-654.2761065247867
 31
0.0
 11
518.0819817891215
 21
-654.2337470389451
 31
0.0
 11
517.2253610184089
 21
-654.2195208460727
 31
0.0
 11
516.3677969266745
 21
-654.2337177772778
 31
0.0
 11
515.5111577137145
 21
-654.2761101161043
 31
0.0
 11
514.6421805052518
 21
-654.3475893236682
 31
0.0
 11
513.7759272303452
 21
-654.4466951716641
 31
0.0
 11
512.0679578254098
 21
-654.7201279896198
 31
0.0
 11
510.377264345566
 21
-655.085546233645
 31
0.0
  0
SPLINE
  5
2EF
330
1F
100
AcDbEntity
  8
0
  6
Continuous
 62
     3
100
AcDbSpline
210
0.0
220
0.0
230
1.0
 70
     8
 71
     3
 72
    11
 73
     7
 74
     5
 42
0.0000000001
 43
0.0000000001
 44
0.00000001
 40
0.0
 40
0.0
 40
0.0
 40
0.0
 40
0.2341482102415855
 40
0.4682946544616133
 40
0.6870166351596854
 40
0.905734520217891
 40
0.905734520217891
 40
0.905734520217891
 40
0.905734520217891
 10
495.793830817241
 20
-655.085546233645
 30
0.0
 10
495.8523309389444
 20
-655.0338568391078
 30
0.0
 10
495.9693307411243
 20
-654.9304784398912
 30
0.0
 10
496.1494815346281
 20
-654.788937643907
 30
0.0
 10
496.3316393891154
 20
-654.6585123768573
 30
0.0
 10
496.4564947079555
 20
-654.5830960408864
 30
0.0
 10
496.518921782881
 20
-654.545388225953
 30
0.0
 11
495.793830817241
 21
-655.085546233645
 31
0.0
 11
495.9707805188822
 21
-654.9322028691051
 31
0.0
 11
496.1546173264121
 21
-654.7871905057077
 31
0.0
 11
496.3331920851895
 21
-654.6608957696017
 31
0.0
 11
496.518921782881
 21
-654.545388225953
 31
0.0
  0
SPLINE
  5
2F0
330
1F
100
AcDbEntity
  8
0
  6
Continuous
 62
     3
100
AcDbSpline
210
0.0
220
0.0
230
1.0
 70
     8
 71
     3
 72
    19
 73
    15
 74
    13
 42
0.0000000001
 43
0.0000000001
 44
0.00000001
 40
0.0
 40
0.0
 40
0.0
 40
0.0
 40
1.285928902442375
 40
2.571836546009853
 40
3.212102263215867
 40
3.852377851817514
 40
4.479929125358566
 40
5.107471834411013
 40
5.735704539479043
 40
6.363946118535187
 40
7.004940496031374
 40
7.645924843264129
 40
8.93109411346032
 40
10.21628461470909
 40
10.21628461470909
 40
10.21628461470909
 40
10.21628461470909
 10
506.782116584388
 20
-655.085546233642
 30
0.0
 10
506.3727248564441
 20
-654.958023864042
 30
0.0
 10
505.5539481685879
 20
-654.7029812330317
 30
0.0
 10
504.5059606217317
 20
-654.4758236338262
 30
0.0
 10
503.6607197365802
 20
-654.3429731045209
 30
0.0
 10
503.0284449909036
 20
-654.2718127344303
 30
0.0
 10
502.3979015676804
 20
-654.2290765368422
 30
0.0
 10
501.770072703697
 20
-654.2147529065273
 30
0.0
 10
501.1420121403773
 20
-654.2290369798328
 30
0.0
 10
500.5107690232384
 20
-654.2718067100132
 30
0.0
 10
499.8777907696268
 20
-654.343064355859
 30
0.0
 10
499.0323290144745
 20
-654.4760141143679
 30
0.0
 10
497.9846066869555
 20
-654.7031890001433
 30
0.0
 10
497.1663029863799
 20
-654.9580931206457
 30
0.0
 10
496.757147756517
 20
-655.085546233645
 30
0.0
 11
506.782116584388
 21
-655.085546233642
 31
0.0
 11
505.5488622270005
 21
-654.7212704698019
 31
0.0
 11
504.292667669181
 21
-654.4464365186786
 31
0.0
 11
503.6600756044322
 21
-654.3476060160688
 31
0.0
 11
503.0238047209099
 21
-654.2761064206786
 31
0.0
 11
502.3976834913327
 21
-654.2337648713946
 31
0.0
 11
501.7703024592417
 21
-654.2195208460731
 31
0.0
 11
501.1422305915447
 21
-654.2337356525996
 31
0.0
 11
500.5154196987607
 21
-654.2761100120913
 31
0.0
 11
499.8784364847658
 21
-654.347707337952
 31
0.0
 11
499.245141654708
 21
-654.4466951736672
 31
0.0
 11
497.9896868375225
 21
-654.7214555330029
 31
0.0
 11
496.757147756517
 21
-655.085546233645
 31
0.0
  0
SPLINE
  5
2F1
330
1F
100
AcDbEntity
  8
0
  6
Continuous
 62
     3
100
AcDbSpline
210
0.0
220
0.0
230
1.0
 70
     8
 71
     3
 72
    11
 73
     7
 74
     5
 42
0.0000000001
 43
0.0000000001
 44
0.00000001
 40
0.0
 40
0.0
 40
0.0
 40
0.0
 40
0.7668638299466224
 40
1.533225294248135
 40
2.382970539784716
 40
3.232032965379483
 40
3.232032965379483
 40
3.232032965379483
 40
3.232032965379483
 10
529.647759556004
 20
-654.545388225953
 30
0.0
 10
529.4158543116531
 20
-654.4315237882608
 30
0.0
 10
528.9521957420053
 20
-654.2038695044521
 30
0.0
 10
528.1282436682419
 20
-654.2080087220869
 30
0.0
 10
527.3572349118108
 20
-654.5397567175146
 30
0.0
 10
526.9213247395853
 20
-654.9036651514716
 30
0.0
 10
526.703457258492
 20
-655.085546233645
 30
0.0
 11
529.647759556004
 21
-654.545388225953
 31
0.0
 11
528.9354129754141
 21
-654.2614120248334
 31
0.0
 11
528.169069657115
 21
-654.2561382724135
 31
0.0
 11
527.3808931830749
 21
-654.573699019487
 31
0.0
 11
526.703457258492
 21
-655.085546233645
 31
0.0
  0
SPLINE
  5
2F2
330
1F
100
AcDbEntity
  8
0
  6
Continuous
 62
     3
100
AcDbSpline
210
0.0
220
0.0
230
1.0
 70
     8
 71
     3
 72
    19
 73
    15
 74
    13
 42
0.0000000001
 43
0.0000000001
 44
0.00000001
 40
0.0
 40
0.0
 40
0.0
 40
0.0
 40
1.285928902393882
 40
2.571836545913583
 40
3.212102263113813
 40
3.852377851709811
 40
4.479929125274764
 40
5.107471834351107
 40
5.735704539503941
 40
6.363946118644541
 40
7.004940496073877
 40
7.645924843239611
 40
8.93109411345311
 40
10.21628461472056
 40
10.21628461472056
 40
10.21628461472056
 40
10.21628461472056
 10
496.757147756517
 20
-656.920482724183
 30
0.0
 10
497.1665394844453
 20
-657.0480050937792
 30
0.0
 10
497.9853161722702
 20
-657.3030477247818
 30
0.0
 10
499.0333037190921
 20
-657.5302053239839
 30
0.0
 10
499.8785446042232
 20
-657.6630558532923
 30
0.0
 10
500.510819349903
 20
-657.7342162233881
 30
0.0
 10
501.1413627731403
 20
-657.7769524209825
 30
0.0
 10
501.7691916371677
 20
-657.7912760513011
 30
0.0
 10
502.3972522005519
 20
-657.7769919779955
 30
0.0
 10
503.0284953177245
 20
-657.7342222478097
 30
0.0
 10
503.6614735713197
 20
-657.6629646019633
 30
0.0
 10
504.5069353264333
 20
-657.530014843461
 30
0.0
 10
505.554657653943
 20
-657.3028399576897
 30
0.0
 10
506.37296135453
 20
-657.0479358371842
 30
0.0
 10
506.782116584399
 20
-656.920482724183
 30
0.0
 11
496.757147756517
 21
-656.920482724183
 31
0.0
 11
497.9904021138571
 21
-657.2847584880125
 31
0.0
 11
499.2465966716287
 21
-657.5595924391309
 31
0.0
 11
499.8791887363711
 21
-657.6584229417444
 31
0.0
 11
500.5154596198872
 21
-657.7299225371391
 31
0.0
 11
501.1415808494879
 21
-657.7722640864295
 31
0.0
 11
501.7689618816027
 21
-657.7865081117546
 31
0.0
 11
502.3970337493846
 21
-657.7722933052274
 31
0.0
 11
503.0238446422526
 21
-657.7299189457273
 31
0.0
 11
503.6608278561808
 21
-657.6583216198713
 31
0.0
 11
504.2941226861724
 21
-657.5593337841668
 31
0.0
 11
505.5495775033753
 21
-657.2845734248297
 31
0.0
 11
506.782116584399
 21
-656.920482724183
 31
0.0
  0
SPLINE
  5
2F3
330
1F
100
AcDbEntity
  8
0
  6
Continuous
 62
     3
100
AcDbSpline
210
0.0
220
0.0
230
1.0
 70
     8
 71
     3
 72
    11
 73
     7
 74
     5
 42
0.0000000001
 43
0.0000000001
 44
0.00000001
 40
0.0
 40
0.0
 40
0.0
 40
0.0
 40
0.2186706796790762
 40
0.4373454516905768
 40
0.6715391071964705
 40
0.9057345295469719
 40
0.9057345295469719
 40
0.9057345295469719
 40
0.9057345295469719
 10
496.518921782881
 20
-657.460640731875
 30
0.0
 10
496.4565080294384
 20
-657.422941324347
 30
0.0
 10
496.3316793545051
 20
-657.3475418037618
 30
0.0
 10
496.1495318716569
 20
-657.2171292357459
 30
0.0
 10
495.9693664872346
 20
-657.0755813972237
 30
0.0
 10
495.8523428543833
 20
-656.9721824118762
 30
0.0
 10
495.793830817241
 20
-656.920482724183
 30
0.0
 11
496.518921782881
 21
-657.460640731875
 31
0.0
 11
496.3332313949255
 21
-657.3451593655328
 31
0.0
 11
496.1546929613123
 21
-657.2188950252098
 31
0.0
 11
495.9708168741943
 21
-657.0738562274163
 31
0.0
 11
495.793830817241
 21
-656.920482724183
 31
0.0
  0
SPLINE
  5
2F4
330
1F
100
AcDbEntity
  8
0
  6
Continuous
 62
     3
100
AcDbSpline
210
0.0
220
0.0
230
1.0
 70
     8
 71
     3
 72
    19
 73
    15
 74
    13
 42
0.0000000001
 43
0.0000000001
 44
0.00000001
 40
0.0
 40
0.0
 40
0.0
 40
0.0
 40
1.730734392790842
 40
3.461454328639151
 40
4.332383750586345
 40
5.203321042796738
 40
6.060065607799684
 40
6.916804500056656
 40
7.774486098477706
 40
8.632173600749715
 40
9.504085675624644
 40
10.37598974475404
 40
12.10570792758948
 40
13.8354405467403
 40
13.8354405467403
 40
13.8354405467403
 40
13.8354405467403
 10
510.377264345566
 20
-656.920482724183
 30
0.0
 10
510.9398737672045
 20
-657.0486787806756
 30
0.0
 10
512.0650879109669
 20
-657.3050698228309
 30
0.0
 10
513.4926887827817
 20
-657.5309312777249
 30
0.0
 10
514.6427285459189
 20
-657.6632205068227
 30
0.0
 10
515.5061874262718
 20
-657.7342900115827
 30
0.0
 10
516.3667494577954
 20
-657.776977033285
 30
0.0
 10
517.2238438221377
 20
-657.7912637465498
 30
0.0
 10
518.0812536682267
 20
-657.777016652996
 30
0.0
 10
518.9427691741748
 20
-657.7342961749998
 30
0.0
 10
519.8071879987815
 20
-657.6631297281768
 30
0.0
 10
520.9575347475911
 20
-657.530741110481
 30
0.0
 10
522.3847831627146
 20
-657.3048601055607
 30
0.0
 10
523.5093437810327
 20
-657.0486088744221
 30
0.0
 10
524.071626436592
 20
-656.920482724184
 30
0.0
 11
510.377264345566
 21
-656.920482724183
 31
0.0
 11
512.0689424715555
 21
-657.2860872324126
 31
0.0
 11
513.7779147940414
 21
-657.559592437701
 31
0.0
 11
514.643205102314
 21
-657.658540608087
 31
0.0
 11
515.511212246307
 21
-657.7299224330847
 31
0.0
 11
516.3669089937724
 21
-657.7722819189069
 31
0.0
 11
517.2235297645589
 21
-657.7865081117552
 31
0.0
 11
518.0810938562825
 21
-657.7723111805241
 31
0.0
 11
518.9377330692305
 21
-657.7299188416719
 31
0.0
 11
519.8067102779029
 21
-657.6584396340612
 31
0.0
 11
520.6729635530171
 21
-657.5593337860083
 31
0.0
 11
522.3809329573467
 21
-657.2859009681066
 31
0.0
 11
524.071626436592
 21
-656.920482724184
 31
0.0
  0
SPLINE
  5
2F5
330
1F
100
AcDbEntity
  8
0
  6
Continuous
 62
     3
100
AcDbSpline
210
0.0
220
0.0
230
1.0
 70
     8
 71
     3
 72
    11
 73
     7
 74
     5
 42
0.0000000001
 43
0.0000000001
 44
0.00000001
 40
0.0
 40
0.0
 40
0.0
 40
0.0
 40
0.2187178850578312
 40
0.437439865755772
 40
0.6715863099739611
 40
0.905734520212955
 40
0.905734520212955
 40
0.905734520212955
 40
0.905734520212955
 10
529.647759556004
 20
-657.460640731875
 30
0.0
 10
529.7101866309292
 20
-657.4229329169414
 30
0.0
 10
529.8350419497692
 20
-657.3475165809704
 30
0.0
 10
530.017199804256
 20
-657.2170913139216
 30
0.0
 10
530.197350597758
 20
-657.0755505179377
 30
0.0
 10
530.3143503999377
 20
-656.972172118723
 30
0.0
 10
530.372850521641
 20
-656.920482724187
 30
0.0
 11
529.647759556004
 21
-657.460640731875
 31
0.0
 11
529.833489253695
 21
-657.3451331882262
 31
0.0
 11
530.0120640124724
 21
-657.2188384521204
 31
0.0
 11
530.1959008200007
 21
-657.073826088724
 31
0.0
 11
530.372850521641
 21
-656.920482724187
 31
0.0
  0
SPLINE
  5
2F6
330
1F
100
AcDbEntity
  8
0
  6
Continuous
 62
     3
100
AcDbSpline
210
0.0
220
0.0
230
1.0
 70
     8
 71
     3
 72
    11
 73
     7
 74
     5
 42
0.0000000001
 43
0.0000000001
 44
0.00000001
 40
0.0
 40
0.0
 40
0.0
 40
0.0
 40
0.8491878086384669
 40
1.699058962119699
 40
2.465295409739926
 40
3.232033765267155
 40
3.232033765267155
 40
3.232033765267155
 40
3.232033765267155
 10
526.703457258426
 20
-656.920482724126
 30
0.0
 10
526.9213575386307
 20
-657.1023902137229
 30
0.0
 10
527.3573334442713
 20
-657.4663515746047
 30
0.0
 10
528.1284180271393
 20
-657.7980629931545
 30
0.0
 10
528.9523168817339
 20
-657.8021093166367
 30
0.0
 10
529.4158947382451
 20
-657.5744884350793
 30
0.0
 10
529.647759556004
 20
-657.460640731875
 30
0.0
 11
526.703457258426
 21
-656.920482724126
 31
0.0
 11
527.381001036028
 21
-657.432395181264
 31
0.0
 11
528.1693196013482
 21
-657.7499401656222
 31
0.0
 11
528.9355373712204
 21
-657.7445901381761
 31
0.0
 11
529.647759556004
 21
-657.460640731875
 31
0.0
  0
SPLINE
  5
2F7
330
1F
100
AcDbEntity
  8
0
  6
Continuous
 62
     3
100
AcDbSpline
210
0.0
220
0.0
230
1.0
 70
     8
 71
     3
 72
    19
 73
    15
 74
    13
 42
0.0000000001
 43
0.0000000001
 44
0.00000001
 40
0.0
 40
0.0
 40
0.0
 40
0.0
 40
1.053894441728813
 40
2.107778135950533
 40
2.636351115577583
 40
3.164929736904628
 40
3.684642687525059
 40
4.204351453506324
 40
4.724676388683975
 40
5.245005690019994
 40
5.774222437929303
 40
6.303433439387869
 40
7.356640134015738
 40
8.409857559096086
 40
8.409857559096086
 40
8.409857559096086
 40
8.409857559096086
 10
514.43002873806
 20
-672.353500109771
 30
0.0
 10
514.7708649009465
 20
-672.4389498757347
 30
0.0
 10
515.452533750908
 20
-672.6098485362545
 30
0.0
 10
516.3192081802235
 20
-672.7605704123307
 30
0.0
 10
517.0174085454198
 20
-672.8487590561068
 30
0.0
 10
517.5410238900615
 20
-672.8960787063706
 30
0.0
 10
518.0630244744826
 20
-672.9245018191
 30
0.0
 10
518.5829687238189
 20
-672.9340179236763
 30
0.0
 10
519.1031193157107
 20
-672.9245286868099
 30
0.0
 10
519.6257433641252
 20
-672.8960800213783
 30
0.0
 10
520.1499861114225
 20
-672.848689262753
 30
0.0
 10
520.8483789860244
 20
-672.7604282396228
 30
0.0
 10
521.7148071475838
 20
-672.609693298627
 30
0.0
 10
522.3960362930329
 20
-672.4388981292343
 30
0.0
 10
522.736652600901
 20
-672.353500109509
 30
0.0
 11
514.43002873806
 21
-672.353500109771
 31
0.0
 11
515.4553478616665
 21
-672.5972503694089
 31
0.0
 11
516.4933013835675
 21
-672.7797971505902
 31
0.0
 11
517.0177562527006
 21
-672.8456491439881
 31
0.0
 11
517.5441936831118
 21
-672.8931779856115
 31
0.0
 11
518.0631410542942
 21
-672.9213768683098
 31
0.0
 11
518.5827634693755
 21
-672.9308503672826
 31
0.0
 11
519.103002509609
 21
-672.921396310769
 31
0.0
 11
519.6225657773426
 21
-672.8931723377881
 31
0.0
 11
520.1496374799938
 21
-672.84557205909
 31
0.0
 11
520.6747209946924
 21
-672.7796055019833
 31
0.0
 11
521.7119965723346
 21
-672.5971124400985
 31
0.0
 11
522.736652600901
 21
-672.353500109509
 31
0.0
  0
SPLINE
  5
2F8
330
1F
100
AcDbEntity
  8
0
  6
Continuous
 62
     3
100
AcDbSpline
210
0.0
220
0.0
230
1.0
 70
     8
 71
     3
 72
    19
 73
    15
 74
    13
 42
0.0000000001
 43
0.0000000001
 44
0.00000001
 40
0.0
 40
0.0
 40
0.0
 40
0.0
 40
1.053894452835185
 40
2.107778158163417
 40
2.63635112991376
 40
3.164929743362806
 40
3.684642686121749
 40
4.204351444244399
 40
4.724676389992195
 40
5.245005701901256
 40
5.774222460629986
 40
6.303433472905595
 40
7.356640150788781
 40
8.40985755912334
 40
8.40985755912334
 40
8.40985755912334
 40
8.40985755912334
 10
503.430028737984
 20
-672.353500109751
 30
0.0
 10
503.7708649044785
 20
-672.4389498765587
 30
0.0
 10
504.4525337616553
 20
-672.6098485387662
 30
0.0
 10
505.3192081958574
 20
-672.7605704148019
 30
0.0
 10
506.0174085596173
 20
-672.8487590575538
 30
0.0
 10
506.5410238964469
 20
-672.8960787067394
 30
0.0
 10
507.0630244730137
 20
-672.924501818953
 30
0.0
 10
507.5829687206252
 20
-672.9340179236926
 30
0.0
 10
508.1031193169539
 20
-672.9245286868908
 30
0.0
 10
508.6257433760004
 20
-672.8960800206441
 30
0.0
 10
509.149986133942
 20
-672.8486892604379
 30
0.0
 10
509.8483790100071
 20
-672.7604282358286
 30
0.0
 10
510.7148071638393
 20
-672.6096932947875
 30
0.0
 10
511.3960362984514
 20
-672.4388981281156
 30
0.0
 10
511.736652600901
 20
-672.353500109751
 30
0.0
 11
503.430028737984
 21
-672.353500109751
 31
0.0
 11
504.4553478724703
 21
-672.5972503716445
 31
0.0
 11
505.4933014054906
 21
-672.7797971537225
 31
0.0
 11
506.0177562668856
 21
-672.8456491455235
 31
0.0
 11
506.5441936894837
 21
-672.8931779860721
 31
0.0
 11
507.063141052821
 21
-672.9213768682571
 31
0.0
 11
507.5827634600415
 21
-672.9308503672822
 31
0.0
 11
508.103002510846
 21
-672.9213963107228
 31
0.0
 11
508.6225657891245
 21
-672.893172336936
 31
0.0
 11
509.149637502496
 21
-672.8455720566544
 31
0.0
 11
509.6747210278079
 21
-672.7796054972486
 31
0.0
 11
510.7119965886883
 21
-672.5971124367285
 31
0.0
 11
511.736652600901
 21
-672.353500109751
 31
0.0
  0
SPLINE
  5
2F9
330
1F
100
AcDbEntity
  8
0
  6
Continuous
 62
     3
100
AcDbSpline
210
0.0
220
0.0
230
1.0
 70
     8
 71
     3
 72
   121
 73
   117
 74
   115
 42
0.0000000001
 43
0.0000000001
 44
0.00000001
 40
0.0
 40
0.0
 40
0.0
 40
0.0
 40
0.0165771468376255
 40
0.0331542936749042
 40
0.244969910884441
 40
0.4567858466934929
 40
0.6791426100585308
 40
0.9014993230540177
 40
1.133191944695776
 40
1.364884613058363
 40
1.608525529249884
 40
1.852166562743739
 40
2.104842240692222
 40
2.357517668701451
 40
2.618091566567883
 40
2.878666673416304
 40
3.352400381822993
 40
3.826136606807662
 40
4.296028411057237
 40
4.765919846157857
 40
5.246691126337296
 40
5.727462415744881
 40
6.192860491957457
 40
6.658257647508861
 40
7.109697631760707
 40
7.561137210410702
 40
8.000084701934323
 40
8.439030556663363
 40
8.866993208848053
 40
9.294958516780854
 40
9.713496920099672
 40
10.13202267172705
 40
10.29382267151172
 40
10.45562141302278
 40
10.63445702679664
 40
10.81329272809333
 40
10.93831434570543
 40
11.06333562731472
 40
11.17839239949706
 40
11.29344913979013
 40
11.39800977925765
 40
11.50257045937577
 40
11.62935805024359
 40
11.75614572287758
 40
11.87221108219847
 40
11.9882763184524
 40
12.09302250864951
 40
12.19776868581967
 40
12.30438798705754
 40
12.41100731343222
 40
12.52765328443339
 40
12.64429936649733
 40
12.77041632146993
 40
12.89653319265075
 40
13.00168690575517
 40
13.10684058053627
 40
13.22373650965397
 40
13.3406325023111
 40
13.46847857917057
 40
13.59632495656788
 40
13.77861260307302
 40
13.96090080407732
 40
14.12775879689424
 40
14.29461600150582
 40
14.39914859117046
 40
14.50368102834473
 40
14.61960583249003
 40
14.73553078767057
 40
14.86218399569109
 40
14.98883720352477
 40
15.11436977172695
 40
15.23990237510739
 40
15.35486506523007
 40
15.4698274294202
 40
15.57326973642014
 40
15.67671278884759
 40
16.06801642487762
 40
16.4593326565041
 40
16.85809210110546
 40
17.25684870749464
 40
17.66439144165955
 40
18.0719356863208
 40
18.48957373262177
 40
18.90721192352531
 40
19.33621961890147
 40
19.76522859564403
 40
20.20684639500596
 40
20.64846219074794
 40
20.97419406198598
 40
21.29992414051846
 40
21.65066654991995
 40
22.00141047220096
 40
22.37837487917779
 40
22.75533802603726
 40
22.99223854349929
 40
23.22913841882425
 40
23.454682561724
 40
23.68022642981769
 40
23.77932290023778
 40
23.87841930064524
 40
23.99138936301982
 40
24.10435938992591
 40
24.11717658943099
 40
24.1299937874638
 40
24.14270824976101
 40
24.15542271288592
 40
24.16737512131071
 40
24.17932752887253
 40
24.19266823613471
 40
24.20600894435286
 40
24.23102785429253
 40
24.2560467663686
 40
24.28081789721963
 40
24.30558903023819
 40
24.40281437706693
 40
24.50003972235668
 40
24.50003972235668
 40
24.50003972235668
 40
24.50003972235668
 10
630.916659330558
 20
-186.575183291802
 30
0.0
 10
630.9192513435678
 20
-186.5800633535288
 30
0.0
 10
630.9244353695873
 20
-186.5898234769824
 30
0.0
 10
630.962711913173
 20
-186.6619533071892
 30
0.0
 10
631.0312326471625
 20
-186.7917090526981
 30
0.0
 10
631.1310419888733
 20
-186.9825102315862
 30
0.0
 10
631.2316896741031
 20
-187.1768363816949
 30
0.0
 10
631.3345265762332
 20
-187.3774878700397
 30
0.0
 10
631.4378709825208
 20
-187.5813737027229
 30
0.0
 10
631.543435486383
 20
-187.7920854568731
 30
0.0
 10
631.6497245868609
 20
-188.0068858130495
 30
0.0
 10
631.7579633987386
 20
-188.2285215377571
 30
0.0
 10
631.8662999400563
 20
-188.4534570756633
 30
0.0
 10
631.975770411711
 20
-188.6841067529613
 30
0.0
 10
632.0849779858777
 20
-188.9177911468201
 30
0.0
 10
632.2235053619112
 20
-189.2191019869782
 30
0.0
 10
632.3883993172312
 20
-189.5864857979288
 30
0.0
 10
632.5765354127036
 20
-190.0198784816831
 30
0.0
 10
632.7585567892849
 20
-190.4544879160773
 30
0.0
 10
632.935533467986
 20
-190.8937067145482
 30
0.0
 10
633.1074476182284
 20
-191.3388243391818
 30
0.0
 10
633.2719581121011
 20
-191.7851372919727
 30
0.0
 10
633.4276258199031
 20
-192.2291842155131
 30
0.0
 10
633.5728647880971
 20
-192.666462183972
 30
0.0
 10
633.7092425519934
 20
-193.1017109598151
 30
0.0
 10
633.8354771973995
 20
-193.530828593333
 30
0.0
 10
633.952839465658
 20
-193.9581398117473
 30
0.0
 10
634.0603350835395
 20
-194.3799700035483
 30
0.0
 10
634.1589579669559
 20
-194.8002029972301
 30
0.0
 10
634.2479789996969
 20
-195.215621939992
 30
0.0
 10
634.3281390745383
 20
-195.6296364860448
 30
0.0
 10
634.3848239927183
 20
-195.9577568583539
 30
0.0
 10
634.4234253127181
 20
-196.202103368247
 30
0.0
 10
634.4482200073642
 20
-196.3677378897101
 30
0.0
 10
634.4723834465751
 20
-196.5392026808075
 30
0.0
 10
634.4933841354474
 20
-196.6987263069119
 30
0.0
 10
634.5109352723227
 20
-196.8406052910804
 30
0.0
 10
634.5250957451173
 20
-196.9614794357098
 30
0.0
 10
634.5381366189642
 20
-197.0791378925512
 30
0.0
 10
634.5497598241814
 20
-197.1900894741241
 30
0.0
 10
634.5603986466565
 20
-197.2976243796458
 30
0.0
 10
634.5708084514675
 20
-197.4091096192112
 30
0.0
 10
634.5811800319527
 20
-197.5280377980015
 30
0.0
 10
634.5910587066332
 20
-197.650855631934
 30
0.0
 10
634.5998792837793
 20
-197.7701702098632
 30
0.0
 10
634.607462674844
 20
-197.8822068585391
 30
0.0
 10
634.614148833313
 20
-197.9905204514439
 30
0.0
 10
634.6200486816468
 20
-198.0957262655599
 30
0.0
 10
634.6253818255739
 20
-198.201587534023
 30
0.0
 10
634.6302822960209
 20
-198.3114404163063
 30
0.0
 10
634.6346468720319
 20
-198.4246608848666
 30
0.0
 10
634.6385044670487
 20
-198.5444025515056
 30
0.0
 10
634.6416541362157
 20
-198.6673231418696
 30
0.0
 10
634.6438898333021
 20
-198.7864322973386
 30
0.0
 10
634.6452894553901
 20
-198.8985655762178
 30
0.0
 10
634.6460263610136
 20
-199.007631448221
 30
0.0
 10
634.646105873208
 20
-199.120614067106
 30
0.0
 10
634.6454235644679
 20
-199.2411589254686
 30
0.0
 10
634.6438943388921
 20
-199.3653466963081
 30
0.0
 10
634.6410819550563
 20
-199.5113140556346
 30
0.0
 10
634.6365360955027
 20
-199.6753946545797
 30
0.0
 10
634.6298795262804
 20
-199.8524170508817
 30
0.0
 10
634.6217931600986
 20
-200.0242302555379
 30
0.0
 10
634.6136128746978
 20
-200.1700857383057
 30
0.0
 10
634.6056840323672
 20
-200.295142636365
 30
0.0
 10
634.5982237425135
 20
-200.4032159652157
 30
0.0
 10
634.5898426395786
 20
-200.5150304261396
 30
0.0
 10
634.5801747300588
 20
-200.6341404388989
 30
0.0
 10
634.569428307989
 20
-200.7567484461705
 30
0.0
 10
634.5575602879213
 20
-200.8824701232116
 30
0.0
 10
634.5448951383407
 20
-201.0077385366015
 30
0.0
 10
634.5318247096235
 20
-201.1290465984938
 30
0.0
 10
634.5183953141348
 20
-201.2467696661748
 30
0.0
 10
634.505143098566
 20
-201.3570997309312
 30
0.0
 10
634.4917485681241
 20
-201.463543413408
 30
0.0
 10
634.4658028772384
 20
-201.6612449895009
 30
0.0
 10
634.4236707158062
 20
-201.9536009371566
 30
0.0
 10
634.3598884622153
 20
-202.3422181697489
 30
0.0
 10
634.2881673432529
 20
-202.7319764636387
 30
0.0
 10
634.207992540341
 20
-203.1256038264602
 30
0.0
 10
634.1198596898545
 20
-203.5205271048763
 30
0.0
 10
634.0230587506566
 20
-203.9198931540642
 30
0.0
 10
633.9182916839374
 20
-204.3207229490405
 30
0.0
 10
633.804630794711
 20
-204.7265553319768
 30
0.0
 10
633.6830067326786
 20
-205.1340298066716
 30
0.0
 10
633.5522534737623
 20
-205.5470577613987
 30
0.0
 10
633.4135475421403
 20
-205.9619167563744
 30
0.0
 10
633.279816716223
 20
-206.342086241651
 30
0.0
 10
633.1544756458693
 20
-206.6842149606121
 30
0.0
 10
633.0362352529735
 20
-206.9966646171252
 30
0.0
 10
632.9116470629015
 20
-207.3156064754491
 30
0.0
 10
632.7772999251592
 20
-207.6490489762522
 30
0.0
 10
632.6360802191809
 20
-207.9891239526979
 30
0.0
 10
632.506212160338
 20
-208.2928024266477
 30
0.0
 10
632.3925673647002
 20
-208.5526251462836
 30
0.0
 10
632.2978327399716
 20
-208.7656241736769
 30
0.0
 10
632.203409661508
 20
-208.974613986493
 30
0.0
 10
632.126968475105
 20
-209.1413196633129
 30
0.0
 10
632.0675941082529
 20
-209.2694798223702
 30
0.0
 10
632.0237714153518
 20
-209.3634885122077
 30
0.0
 10
631.9777493455758
 20
-209.4615738942359
 30
0.0
 10
631.9437545591643
 20
-209.5335340549566
 30
0.0
 10
631.923959674735
 20
-209.5752801780991
 30
0.0
 10
631.9184793412091
 20
-209.5868287644303
 30
0.0
 10
631.9130100720341
 20
-209.5983446947027
 30
0.0
 10
631.9076615509564
 20
-209.6095988496926
 30
0.0
 10
631.9024198639887
 20
-209.6206225317435
 30
0.0
 10
631.8970835766797
 20
-209.6318323761388
 30
0.0
 10
631.8915398784975
 20
-209.643456007676
 30
0.0
 10
631.8841097718017
 20
-209.659005447438
 30
0.0
 10
631.8749820937197
 20
-209.6780580345923
 30
0.0
 10
631.8641840896753
 20
-209.7005352056342
 30
0.0
 10
631.8534028496258
 20
-209.7229287908551
 30
0.0
 10
631.8321568839793
 20
-209.766997183215
 30
0.0
 10
631.8003338831102
 20
-209.8327780105784
 30
0.0
 10
631.7723602939703
 20
-209.8912478198144
 30
0.0
 10
631.758373499511
 20
-209.920482724201
 30
0.0
 11
630.916659330558
 21
-186.575183291802
 31
0.0
 11
630.9244344525104
 21
-186.5898239637778
 31
0.0
 11
630.9322051904094
 21
-186.6044669631211
 31
0.0
 11
631.0311109422597
 21
-186.7917728838625
 31
0.0
 11
631.1292889676331
 21
-186.9794616315179
 31
0.0
 11
631.231548666797
 21
-187.1769090527243
 31
0.0
 11
631.3329623973757
 21
-187.3747922583389
 31
0.0
 11
631.437709168998
 21
-187.5814552321826
 31
0.0
 11
631.541485113769
 21
-187.7886074608934
 31
0.0
 11
631.6495348650094
 21
-188.0069790416898
 31
0.0
 11
631.7564464129695
 21
-188.2259102503257
 31
0.0
 11
631.8660830213149
 21
-188.4535608869099
 31
0.0
 11
631.9744177613887
 21
-188.681833653601
 31
0.0
 11
632.0847319431848
 21
-188.9179046970264
 31
0.0
 11
632.1935715060848
 21
-189.1546605540961
 31
0.0
 11
632.3875084265011
 21
-189.5868782045689
 31
0.0
 11
632.576102683188
 21
-190.0214564106578
 31
0.0
 11
632.757572662708
 21
-190.4548926276885
 31
0.0
 11
632.933136687773
 21
-190.8907541124333
 31
0.0
 11
633.1062912909713
 21
-191.3392610881166
 31
0.0
 11
633.2725068557936
 21
-191.7903857036381
 31
0.0
 11
633.4264147982035
 21
-192.2295983111593
 31
0.0
 11
633.5730546386608
 21
-192.6712896848423
 31
0.0
 11
633.707979801754
 21
-193.1020950466306
 31
0.0
 11
633.835327135083
 21
-193.5352005186183
 31
0.0
 11
633.951529686887
 21
-193.9584874984194
 31
0.0
 11
634.0598714437688
 21
-194.3838526675383
 31
0.0
 11
634.1576065975775
 21
-194.8005058463033
 31
0.0
 11
634.2472346634278
 21
-195.2189805941746
 31
0.0
 11
634.3267551637755
 21
-195.6298952873618
 31
0.0
 11
634.3979638927693
 21
-196.0423187611
 31
0.0
 11
634.423209738979
 21
-196.2021370553578
 31
0.0
 11
634.4471614841607
 21
-196.3621531378537
 31
0.0
 11
634.472114454989
 21
-196.539239348499
 31
0.0
 11
634.4954534643664
 21
-196.7165455770968
 31
0.0
 11
634.5108016317301
 21
-196.8406215160572
 31
0.0
 11
634.5253478234988
 21
-196.9647936915244
 31
0.0
 11
634.5380220812857
 21
-197.0791502567691
 31
0.0
 11
634.5500090969052
 21
-197.1935808686848
 31
0.0
 11
634.5603030835608
 21
-197.297633553247
 31
0.0
 11
634.5700237045636
 21
-197.4017414076773
 31
0.0
 11
634.581038355928
 21
-197.528049644358
 31
0.0
 11
634.5912029712899
 21
-197.6544292096623
 31
0.0
 11
634.5997594740254
 21
-197.7701787405262
 31
0.0
 11
634.6075970895422
 21
-197.8859790464398
 31
0.0
 11
634.6140506995787
 21
-197.9905262380726
 31
0.0
 11
634.619915504224
 21
-198.0951080993022
 31
0.0
 11
634.6252796524759
 21
-198.2015923765922
 31
0.0
 11
634.6300307659777
 21
-198.3081057920716
 31
0.0
 11
634.6345239740243
 21
-198.4246651916594
 31
0.0
 11
634.6382798070948
 21
-198.54125079188
 31
0.0
 11
634.6415101868877
 21
-198.667326368333
 31
0.0
 11
634.6438768637848
 21
-198.7934210313323
 31
0.0
 11
634.6451891307336
 21
-198.8985665558928
 31
0.0
 11
634.6458994490959
 21
-199.0037178315284
 31
0.0
 11
634.6459818873029
 21
-199.1206137315773
 31
0.0
 11
634.6453204083778
 21
-199.2375078526652
 31
0.0
 11
634.6437462350706
 21
-199.3653442377313
 31
0.0
 11
634.6412834243231
 21
-199.4931668913449
 31
0.0
 11
634.6362358688966
 21
-199.6753846408992
 31
0.0
 11
634.6293868912762
 21
-199.8575441307177
 31
0.0
 11
634.621543298848
 21
-200.0242176673835
 31
0.0
 11
634.6122006704892
 21
-200.1908131115774
 31
0.0
 11
634.6055866179181
 21
-200.2951362471254
 31
0.0
 11
634.5983881134089
 21
-200.3994205314372
 31
0.0
 11
634.5897237029129
 21
-200.515021085964
 31
0.0
 11
634.5803456337868
 21
-200.6305660860855
 31
0.0
 11
634.5692875645624
 21
-200.7567356315666
 31
0.0
 11
634.5573850323528
 21
-200.8828283148657
 31
0.0
 11
634.5447584240572
 21
-201.0077242493167
 31
0.0
 11
634.531311519624
 21
-201.1325345664889
 31
0.0
 11
634.5182819477939
 21
-201.2467565012395
 31
0.0
 11
634.5045722887219
 21
-201.3608984761142
 31
0.0
 11
634.4916577702531
 21
-201.4635314439666
 31
0.0
 11
634.4781981440829
 21
-201.5660951000972
 31
0.0
 11
634.4224113773058
 21
-201.9534016611349
 31
0.0
 11
634.3590616490542
 21
-202.3395560409687
 31
0.0
 11
634.2869304524564
 21
-202.7317373576274
 31
0.0
 11
634.2073791577927
 21
-203.1224782214443
 31
0.0
 11
634.1186535674077
 21
-203.5202455526587
 31
0.0
 11
634.022689621244
 21
-203.9163304329472
 31
0.0
 11
633.9171215648573
 21
-204.3204058258986
 31
0.0
 11
633.8045319903531
 21
-204.7225814668991
 31
0.0
 11
633.6818774365478
 21
-205.1336817747593
 31
0.0
 11
633.5524452160646
 21
-205.5427001147228
 31
0.0
 11
633.4124621675873
 21
-205.9615449867844
 31
0.0
 11
633.2659682493239
 21
-206.3781551678418
 31
0.0
 11
633.1539359790982
 21
-206.6840146492516
 31
0.0
 11
633.0386675564516
 21
-206.9886673610422
 31
0.0
 11
632.9110708004623
 21
-207.3153771797097
 31
0.0
 11
632.7800144564936
 21
-207.6407162854481
 31
0.0
 11
632.6354709618596
 21
-207.9888676064083
 31
0.0
 11
632.4872731946275
 21
-208.3354778138138
 31
0.0
 11
632.3923443250886
 21
-208.5525270361156
 31
0.0
 11
632.2960780578593
 21
-208.768985708205
 31
0.0
 11
632.2032188009592
 21
-208.974527233947
 31
0.0
 11
632.1092147535446
 21
-209.1795474171104
 31
0.0
 11
632.0675587055449
 21
-209.2694634007549
 31
0.0
 11
632.0256903409929
 21
-209.3592806408788
 31
0.0
 11
631.9777046201145
 21
-209.461552854039
 31
0.0
 11
631.9294505993842
 21
-209.5636987128024
 31
0.0
 11
631.9239590870843
 21
-209.5752798999529
 31
0.0
 11
631.9184640509352
 21
-209.5868594138948
 31
0.0
 11
631.9130095758234
 21
-209.5983444586384
 31
0.0
 11
631.9075521223253
 21
-209.6098280893304
 31
0.0
 11
631.9024190680603
 21
-209.6206221534893
 31
0.0
 11
631.897281239535
 21
-209.6314139450259
 31
0.0
 11
631.891538401127
 21
-209.6434553019791
 31
0.0
 11
631.8857866948784
 21
-209.6554924266769
 31
0.0
 11
631.8749780583481
 21
-209.6780560972765
 31
0.0
 11
631.864145121026
 21
-209.7006081133825
 31
0.0
 11
631.8534008270128
 21
-209.7229278147648
 31
0.0
 11
631.8426432666108
 21
-209.7452411275001
 31
0.0
 11
631.800397269913
 21
-209.832808494875
 31
0.0
 11
631.758373499511
 21
-209.920482724201
 31
0.0
  0
SPLINE
  5
2FA
330
1F
100
AcDbEntity
  8
0
  6
Continuous
 62
     3
100
AcDbSpline
210
0.0
220
0.0
230
1.0
 70
     8
 71
     3
 72
    19
 73
    15
 74
    13
 42
0.0000000001
 43
0.0000000001
 44
0.00000001
 40
0.0
 40
0.0
 40
0.0
 40
0.0
 40
1.28592890239435
 40
2.571836545913604
 40
3.212102263115329
 40
3.852377851713047
 40
4.479929125275853
 40
5.107471834350659
 40
5.735704539448134
 40
6.36394611853371
 40
7.004940496018489
 40
7.645924843239218
 40
8.931094113452863
 40
10.21628461471956
 40
10.21628461471956
 40
10.21628461471956
 40
10.21628461471956
 10
641.615435245513
 20
-656.920482724183
 30
0.0
 10
641.2060435175846
 20
-657.0480050937792
 30
0.0
 10
640.3872668297597
 20
-657.303047724782
 30
0.0
 10
639.3392792829372
 20
-657.5302053239832
 30
0.0
 10
638.4940383978052
 20
-657.6630558532919
 30
0.0
 10
637.8617636521249
 20
-657.7342162233879
 30
0.0
 10
637.2312202288886
 20
-657.7769524209825
 30
0.0
 10
636.6033913648805
 20
-657.7912760513002
 30
0.0
 10
635.9753308015337
 20
-657.7769919779975
 30
0.0
 10
635.344087684379
 20
-657.7342222478168
 30
0.0
 10
634.7111094307651
 20
-657.6629646019724
 30
0.0
 10
633.8656476756148
 20
-657.530014843465
 30
0.0
 10
632.8179253480878
 20
-657.3028399576893
 30
0.0
 10
631.9996216475008
 20
-657.0479358371839
 30
0.0
 10
631.590466417632
 20
-656.920482724183
 30
0.0
 11
641.615435245513
 21
-656.920482724183
 31
0.0
 11
640.3821808881725
 21
-657.2847584880126
 31
0.0
 11
639.1259863304011
 21
-657.5595924391303
 31
0.0
 11
638.4933942656572
 21
-657.658422941744
 31
0.0
 11
637.8571233821394
 21
-657.7299225371389
 31
0.0
 11
637.2310021525409
 21
-657.7722640864293
 31
0.0
 11
636.6036211204276
 21
-657.7865081117544
 31
0.0
 11
635.9755492527011
 21
-657.77229330523
 31
0.0
 11
635.3487383598876
 21
-657.7299189457376
 31
0.0
 11
634.7117551459039
 21
-657.6583216198794
 31
0.0
 11
634.0784603158579
 21
-657.5593337841672
 31
0.0
 11
632.823005498655
 21
-657.2845734248293
 31
0.0
 11
631.590466417632
 21
-656.920482724183
 31
0.0
  0
SPLINE
  5
2FB
330
1F
100
AcDbEntity
  8
0
  6
Continuous
 62
     3
100
AcDbSpline
210
0.0
220
0.0
230
1.0
 70
     8
 71
     3
 72
    11
 73
     7
 74
     5
 42
0.0000000001
 43
0.0000000001
 44
0.00000001
 40
0.0
 40
0.0
 40
0.0
 40
0.0
 40
0.2187208462704946
 40
0.4374457884205093
 40
0.6715892710559108
 40
0.90573451963278
 40
0.90573451963278
 40
0.90573451963278
 40
0.90573451963278
 10
631.352240443996
 20
-654.545388225952
 30
0.0
 10
631.2898125334103
 20
-654.5830965682883
 30
0.0
 10
631.1649555431813
 20
-654.6585139591068
 30
0.0
 10
630.9827970380812
 20
-654.7889400227918
 30
0.0
 10
630.8026471598552
 20
-654.9304803769735
 30
0.0
 10
630.6856488525914
 20
-655.0338574848078
 30
0.0
 10
630.627149478356
 20
-655.085546233645
 30
0.0
 11
631.352240443996
 21
-654.545388225952
 31
0.0
 11
631.1665082803991
 21
-654.660897411729
 31
0.0
 11
630.987931242934
 21
-654.7871940546327
 31
0.0
 11
630.8040968993964
 21
-654.9322047597435
 31
0.0
 11
630.627149478356
 21
-655.085546233645
 31
0.0
  0
SPLINE
  5
2FC
330
1F
100
AcDbEntity
  8
0
  6
Continuous
 62
     3
100
AcDbSpline
210
0.0
220
0.0
230
1.0
 70
     8
 71
     3
 72
    11
 73
     7
 74
     5
 42
0.0000000001
 43
0.0000000001
 44
0.00000001
 40
0.0
 40
0.0
 40
0.0
 40
0.0
 40
0.2342026895525261
 40
0.4684036121136945
 40
0.6870711174581567
 40
0.9057345309791156
 40
0.9057345309791156
 40
0.9057345309791156
 40
0.9057345309791156
 10
630.627149478357
 20
-656.920482724183
 30
0.0
 10
630.6856633496121
 20
-656.9721839962568
 30
0.0
 10
630.8026906506525
 20
-657.0755861503335
 30
0.0
 10
630.9828582810172
 20
-657.2171350728663
 30
0.0
 10
631.1650041673703
 20
-657.3475456861867
 30
0.0
 10
631.2898287410884
 20
-657.422942618459
 30
0.0
 10
631.352240443996
 20
-657.460640731875
 30
0.0
 11
630.627149478357
 21
-656.920482724183
 31
0.0
 11
630.8041411313964
 21
-657.0738608665241
 31
0.0
 11
630.9880232647506
 21
-657.2189037331588
 31
0.0
 11
631.1665561068788
 21
-657.345163394869
 31
0.0
 11
631.352240443996
 21
-657.460640731875
 31
0.0
  0
SPLINE
  5
2FD
330
1F
100
AcDbEntity
  8
0
  6
Continuous
 62
     3
100
AcDbSpline
210
0.0
220
0.0
230
1.0
 70
     8
 71
     3
 72
    19
 73
    15
 74
    13
 42
0.0000000001
 43
0.0000000001
 44
0.00000001
 40
0.0
 40
0.0
 40
0.0
 40
0.0
 40
1.729798500481265
 40
3.459582563136862
 40
4.331443645314978
 40
5.203312727157387
 40
6.060958995184798
 40
6.918599368853368
 40
7.775371930053328
 40
8.632150173061536
 40
9.503122495556898
 40
10.37408694252686
 40
12.10475651257933
 40
13.83544053843844
 40
13.83544053843844
 40
13.83544053843844
 40
13.83544053843844
 10
658.904945097714
 20
-656.920482724183
 30
0.0
 10
658.3426409521566
 20
-657.0486134709818
 30
0.0
 10
657.2180373543338
 20
-657.3048738951313
 30
0.0
 10
655.7907588086032
 20
-657.5307547282953
 30
0.0
 10
654.6404182087092
 20
-657.6631379980114
 30
0.0
 10
653.7760414888749
 20
-657.7342987796075
 30
0.0
 10
652.9145677291369
 20
-657.7770163595935
 30
0.0
 10
652.0571741733439
 20
-657.7912637046504
 30
0.0
 10
651.200071075683
 20
-657.7769774946478
 30
0.0
 10
650.3394749656271
 20
-657.734288328968
 30
0.0
 10
649.475981734068
 20
-657.6632144218955
 30
0.0
 10
648.325935832441
 20
-657.5309209832246
 30
0.0
 10
646.8983572844202
 20
-657.3050592809905
 30
0.0
 10
645.7731759989756
 20
-657.0486752667014
 30
0.0
 10
645.210583006681
 20
-656.920482724183
 30
0.0
 11
658.904945097714
 21
-656.920482724183
 31
0.0
 11
657.2141868636671
 21
-657.2859132186277
 31
0.0
 11
655.5061515032955
 21
-657.5593508004222
 31
0.0
 11
654.6399405454821
 21
-657.6584483441894
 31
0.0
 11
653.771006006279
 21
-657.7299218529364
 31
0.0
 11
652.9144079367712
 21
-657.7723113372094
 31
0.0
 11
652.0568850728762
 21
-657.7865081130268
 31
0.0
 11
651.2002306269676
 21
-657.7722820127112
 31
0.0
 11
650.3445002647992
 21
-657.7299204150623
 31
0.0
 11
649.4764583363165
 21
-657.6585341632422
 31
0.0
 11
648.6111335244889
 21
-657.559579436618
 31
0.0
 11
646.9022116266866
 21
-657.2860778682176
 31
0.0
 11
645.210583006681
 21
-656.920482724183
 31
0.0
  0
SPLINE
  5
2FE
330
1F
100
AcDbEntity
  8
0
  6
Continuous
 62
     3
100
AcDbSpline
210
0.0
220
0.0
230
1.0
 70
     8
 71
     3
 72
    11
 73
     7
 74
     5
 42
0.0000000001
 43
0.0000000001
 44
0.00000001
 40
0.0
 40
0.0
 40
0.0
 40
0.0
 40
0.2187208462699648
 40
0.4374457884193728
 40
0.6715892710528206
 40
0.9057345196284927
 40
0.9057345196284927
 40
0.9057345196284927
 40
0.9057345196284927
 10
664.481078217119
 20
-654.545388225953
 30
0.0
 10
664.5435061277047
 20
-654.5830965682893
 30
0.0
 10
664.6683631179333
 20
-654.6585139591076
 30
0.0
 10
664.850521623033
 20
-654.7889400227914
 30
0.0
 10
665.0306715012576
 20
-654.9304803769728
 30
0.0
 10
665.147669808521
 20
-655.033857484806
 30
0.0
 10
665.206169182756
 20
-655.085546233643
 30
0.0
 11
664.481078217119
 21
-654.545388225953
 31
0.0
 11
664.6668103807157
 21
-654.6608974117296
 31
0.0
 11
664.8453874181804
 21
-654.7871940546327
 31
0.0
 11
665.0292217617164
 21
-654.9322047597424
 31
0.0
 11
665.206169182756
 21
-655.085546233643
 31
0.0
  0
SPLINE
  5
2FF
330
1F
100
AcDbEntity
  8
0
  6
Continuous
 62
     3
100
AcDbSpline
210
0.0
220
0.0
230
1.0
 70
     8
 71
     3
 72
    19
 73
    15
 74
    13
 42
0.0000000001
 43
0.0000000001
 44
0.00000001
 40
0.0
 40
0.0
 40
0.0
 40
0.0
 40
1.730339503423676
 40
3.460664557701156
 40
4.332026966111201
 40
5.203397306984503
 40
6.060561654405083
 40
6.917720216320794
 40
7.774878778432722
 40
8.632043126049624
 40
9.50341346672989
 40
10.37477587494643
 40
12.1051009292206
 40
13.83544043264139
 40
13.83544043264139
 40
13.83544043264139
 40
13.83544043264139
 10
645.210583006681
 20
-655.085546233645
 30
0.0
 10
645.7730636210104
 20
-654.9573777350513
 30
0.0
 10
646.8980201526921
 20
-654.7010418081308
 30
0.0
 10
648.3254981554628
 20
-654.4751700714619
 30
0.0
 10
649.475691378997
 20
-654.3428389186117
 30
0.0
 10
650.3395772766726
 20
-654.2717295588269
 30
0.0
 10
651.2005636382453
 20
-654.229030960367
 30
0.0
 10
652.0577640523886
 20
-654.2147657806511
 30
0.0
 10
652.9149644665977
 20
-654.2290309603796
 30
0.0
 10
653.7759508282359
 20
-654.271729558861
 30
0.0
 10
654.6398367258466
 20
-654.3428389186582
 30
0.0
 10
655.7900299492503
 20
-654.4751700715073
 30
0.0
 10
657.2175079519529
 20
-654.7010418081787
 30
0.0
 10
658.3424644836313
 20
-654.9573777351052
 30
0.0
 10
658.904945097959
 20
-655.085546233702
 30
0.0
 11
645.210583006681
 21
-655.085546233645
 31
0.0
 11
646.9018729938216
 21
-654.7200151453552
 31
0.0
 11
648.6104499738942
 21
-654.4465384614747
 31
0.0
 11
649.4761684373844
 21
-654.3475233678663
 31
0.0
 11
650.3446068010988
 21
-654.2761015267902
 31
0.0
 11
651.2007232830965
 21
-654.2337306908192
 31
0.0
 11
652.0577640523234
 21
-654.2195208298602
 31
0.0
 11
652.9148048217462
 21
-654.2337306908341
 31
0.0
 11
653.7709213039391
 21
-654.2761015268326
 31
0.0
 11
654.6393596674596
 21
-654.3475233679105
 31
0.0
 11
655.5050781307564
 21
-654.4465384615078
 31
0.0
 11
657.2136551108234
 21
-654.7200151454022
 31
0.0
 11
658.904945097959
 21
-655.085546233702
 31
0.0
  0
SPLINE
  5
300
330
1F
100
AcDbEntity
  8
0
  6
Continuous
 62
     3
100
AcDbSpline
210
0.0
220
0.0
230
1.0
 70
     8
 71
     3
 72
    19
 73
    15
 74
    13
 42
0.0000000001
 43
0.0000000001
 44
0.00000001
 40
0.0
 40
0.0
 40
0.0
 40
0.0
 40
1.285928902374951
 40
2.57183654587554
 40
3.212102263090771
 40
3.85237785170179
 40
4.479929125233373
 40
5.107471834276486
 40
5.735704539399067
 40
6.363946118509717
 40
7.004940495951653
 40
7.645924843129853
 40
8.93109411332545
 40
10.21628461457438
 40
10.21628461457438
 40
10.21628461457438
 40
10.21628461457438
 10
631.59046641777
 20
-655.085546233599
 30
0.0
 10
631.9998581456932
 20
-654.9580238640076
 30
0.0
 10
632.8186348335079
 20
-654.7029812330144
 30
0.0
 10
633.8666223803239
 20
-654.4758236338221
 30
0.0
 10
634.7118632654597
 20
-654.3429731045194
 30
0.0
 10
635.344138011139
 20
-654.2718127344293
 30
0.0
 10
635.9746814343592
 20
-654.229076536841
 30
0.0
 10
636.6025102983547
 20
-654.2147529065268
 30
0.0
 10
637.2305708617073
 20
-654.2290369798335
 30
0.0
 10
637.8618139788643
 20
-654.2718067100199
 30
0.0
 10
638.4947922324577
 20
-654.3430643558664
 30
0.0
 10
639.3402539875733
 20
-654.4760141143715
 30
0.0
 10
640.3879763150746
 20
-654.7031890001435
 30
0.0
 10
641.20628001565
 20
-654.9580931206458
 30
0.0
 10
641.615435245513
 20
-655.085546233645
 30
0.0
 11
631.59046641777
 21
-655.085546233599
 31
0.0
 11
632.8237207750946
 21
-654.7212704697836
 31
0.0
 11
634.0799153328495
 21
-654.4464365186784
 31
0.0
 11
634.7125073976075
 21
-654.3476060160674
 31
0.0
 11
635.3487782811392
 21
-654.2761064206768
 31
0.0
 11
635.9748995107069
 21
-654.2337648713935
 31
0.0
 11
636.6022805427885
 21
-654.2195208460727
 31
0.0
 11
637.2303524105401
 21
-654.2337356526015
 31
0.0
 11
637.8571633033782
 21
-654.2761100121007
 31
0.0
 11
638.4941465173189
 21
-654.3477073379587
 31
0.0
 11
639.1274413473225
 21
-654.4466951736669
 31
0.0
 11
640.3828961645073
 21
-654.7214555330029
 31
0.0
 11
641.615435245513
 21
-655.085546233645
 31
0.0
  0
SPLINE
  5
301
330
1F
100
AcDbEntity
  8
0
  6
Continuous
 62
     3
100
AcDbSpline
210
0.0
220
0.0
230
1.0
 70
     8
 71
     3
 72
    11
 73
     7
 74
     5
 42
0.0000000001
 43
0.0000000001
 44
0.00000001
 40
0.0
 40
0.0
 40
0.0
 40
0.0
 40
0.2342026895537804
 40
0.4684036121144133
 40
0.6870711174582032
 40
0.9057345309798248
 40
0.9057345309798248
 40
0.9057345309798248
 40
0.9057345309798248
 10
665.206169182759
 20
-656.920482724183
 30
0.0
 10
665.1476553115033
 20
-656.9721839962568
 30
0.0
 10
665.0306280104626
 20
-657.0755861503333
 30
0.0
 10
664.8504603800981
 20
-657.2171350728671
 30
0.0
 10
664.668314493745
 20
-657.3475456861861
 30
0.0
 10
664.5434899200269
 20
-657.4229426184588
 30
0.0
 10
664.481078217119
 20
-657.460640731875
 30
0.0
 11
665.206169182759
 21
-656.920482724183
 31
0.0
 11
665.0291775297183
 21
-657.0738608665245
 31
0.0
 11
664.8452953963647
 21
-657.2189037331591
 31
0.0
 11
664.6667625542368
 21
-657.3451633948687
 31
0.0
 11
664.481078217119
 21
-657.460640731875
 31
0.0
  0
SPLINE
  5
302
330
1F
100
AcDbEntity
  8
0
  6
Continuous
 62
     3
100
AcDbSpline
210
0.0
220
0.0
230
1.0
 70
     8
 71
     3
 72
    11
 73
     7
 74
     5
 42
0.0000000001
 43
0.0000000001
 44
0.00000001
 40
0.0
 40
0.0
 40
0.0
 40
0.0
 40
0.7666943359747922
 40
1.532886919885065
 40
2.382802248790842
 40
3.23203404665164
 40
3.23203404665164
 40
3.23203404665164
 40
3.23203404665164
 10
664.481078217119
 20
-657.460640731875
 30
0.0
 10
664.249227582396
 20
-657.5744825661953
 30
0.0
 10
663.7856780442581
 20
-657.8020917326874
 30
0.0
 10
662.9617978623164
 20
-657.7980779884908
 30
0.0
 10
662.1906866754398
 20
-657.4663794089237
 30
0.0
 10
661.754687707155
 20
-657.102399478614
 30
0.0
 10
661.536775919606
 20
-656.920482724183
 30
0.0
 11
664.481078217119
 21
-657.460640731875
 31
0.0
 11
663.768899674571
 21
-657.7445807402394
 31
0.0
 11
663.0027259567377
 21
-657.749957518135
 31
0.0
 11
662.2143575370959
 21
-657.4324180698446
 31
0.0
 11
661.536775919606
 21
-656.920482724183
 31
0.0
  0
SPLINE
  5
303
330
1F
100
AcDbEntity
  8
0
  6
Continuous
 62
     3
100
AcDbSpline
210
0.0
220
0.0
230
1.0
 70
     8
 71
     3
 72
    11
 73
     7
 74
     5
 42
0.0000000001
 43
0.0000000001
 44
0.00000001
 40
0.0
 40
0.0
 40
0.0
 40
0.0
 40
0.8490519130826969
 40
1.698786601981462
 40
2.465158547995485
 40
3.232032898195066
 40
3.232032898195066
 40
3.232032898195066
 40
3.232032898195066
 10
661.536775919657
 20
-655.085546233599
 30
0.0
 10
661.7546406507565
 20
-654.90366736546
 30
0.0
 10
662.1905453116301
 20
-654.5397633689938
 30
0.0
 10
662.9615477108306
 20
-654.2080123078459
 30
0.0
 10
663.7855042462327
 20
-654.2038653007139
 30
0.0
 10
664.2491695832084
 20
-654.4315223851418
 30
0.0
 10
664.481078217119
 20
-654.545388225953
 30
0.0
 11
661.536775919657
 21
-655.085546233599
 31
0.0
 11
662.2142028015888
 21
-654.5737044897509
 31
0.0
 11
663.0023673624044
 21
-654.2561424224438
 31
0.0
 11
663.7687212066551
 21
-654.2614097784665
 31
0.0
 11
664.481078217119
 21
-654.545388225953
 31
0.0
  0
SPLINE
  5
304
330
1F
100
AcDbEntity
  8
0
  6
Continuous
 62
     3
100
AcDbSpline
210
0.0
220
0.0
230
1.0
 70
     8
 71
     3
 72
    19
 73
    15
 74
    13
 42
0.0000000001
 43
0.0000000001
 44
0.00000001
 40
0.0
 40
0.0
 40
0.0
 40
0.0
 40
0.6333283004780718
 40
1.266635701244151
 40
1.575385286600024
 40
1.884141456737602
 40
2.184691138840029
 40
2.485231582656767
 40
2.786127677689807
 40
3.087033309711924
 40
3.396165471600923
 40
3.70529093799638
 40
4.338200040472168
 40
4.971130018549328
 40
4.971130018549328
 40
4.971130018549328
 40
4.971130018549328
 10
640.788295650584
 20
-672.353500109751
 30
0.0
 10
640.5946024563448
 20
-672.4377700596235
 30
0.0
 10
640.2072224597041
 20
-672.6063071784762
 30
0.0
 10
639.7033778082155
 20
-672.7592597140765
 30
0.0
 10
639.295958497905
 20
-672.8484604409563
 30
0.0
 10
638.9934303330783
 20
-672.8959425360306
 30
0.0
 10
638.6913055010702
 20
-672.9244561754889
 30
0.0
 10
638.3905948253741
 20
-672.9340407429712
 30
0.0
 10
638.0897639543307
 20
-672.9244829059206
 30
0.0
 10
637.7872767438087
 20
-672.8959435600508
 30
0.0
 10
637.484385312068
 20
-672.8483897246274
 30
0.0
 10
637.076860564043
 20
-672.7591169531772
 30
0.0
 10
636.5731680307032
 20
-672.6061558212267
 30
0.0
 10
636.1860342232233
 20
-672.4377196061656
 30
0.0
 10
635.992464127272
 20
-672.353500109751
 30
0.0
 11
640.788295650584
 21
-672.353500109751
 31
0.0
 11
640.2027860725703
 21
-672.5949193928266
 31
0.0
 11
639.5970646205883
 21
-672.7797971537224
 31
0.0
 11
639.2953728020351
 21
-672.8454351996675
 31
0.0
 11
638.9903302125047
 21
-672.8931781695226
 31
0.0
 11
638.6911031929678
 21
-672.9213437902503
 31
0.0
 11
638.390713140931
 21
-672.9308503672821
 31
0.0
 11
638.0899666488682
 21
-672.9213631380733
 31
0.0
 11
637.7903844589578
 21
-672.8931725213525
 31
0.0
 11
637.4849725875184
 21
-672.8453574369325
 31
0.0
 11
637.1829208760482
 21
-672.7796054972491
 31
0.0
 11
636.5775987354905
 21
-672.5947838585071
 31
0.0
 11
635.992464127272
 21
-672.353500109751
 31
0.0
  0
SPLINE
  5
305
330
1F
100
AcDbEntity
  8
0
  6
Continuous
 62
     3
100
AcDbSpline
210
0.0
220
0.0
230
1.0
 70
     8
 71
     3
 72
    19
 73
    15
 74
    13
 42
0.0000000001
 43
0.0000000001
 44
0.00000001
 40
0.0
 40
0.0
 40
0.0
 40
0.0
 40
1.210258857870073
 40
2.420508724529504
 40
3.030274712549821
 40
3.640045728830291
 40
4.240348794244214
 40
4.840648298686705
 40
5.44094780289758
 40
6.041250868079757
 40
6.651021884593051
 40
7.26078787284631
 40
8.471037739457444
 40
9.681296597278186
 40
9.681296597278186
 40
9.681296597278186
 40
9.681296597278186
 10
652.712490853869
 20
-672.353500109751
 30
0.0
 10
652.318177057815
 20
-672.4390910735863
 30
0.0
 10
651.5295523951283
 20
-672.6102723653872
 30
0.0
 10
650.529926706455
 20
-672.7606877925678
 30
0.0
 10
649.7247424712926
 20
-672.8487742980908
 30
0.0
 10
649.1198665253503
 20
-672.896101387267
 30
0.0
 10
648.5169853307218
 20
-672.9245218571696
 30
0.0
 10
647.9166593305866
 20
-672.93401463044
 30
0.0
 10
647.3163333305283
 20
-672.9245218571713
 30
0.0
 10
646.713452135977
 20
-672.8961013872803
 30
0.0
 10
646.1085761899554
 20
-672.8487742981052
 30
0.0
 10
645.303391954655
 20
-672.7606877925687
 30
0.0
 10
644.3037662659376
 20
-672.6102723653778
 30
0.0
 10
643.5151416032828
 20
-672.439091073583
 30
0.0
 10
643.120827807245
 20
-672.353500109751
 30
0.0
 11
652.712490853869
 21
-672.353500109751
 31
0.0
 11
651.527086524861
 21
-672.5975146171521
 31
0.0
 11
650.3306313467613
 21
-672.7797225932328
 31
0.0
 11
649.7244398574857
 21
-672.8456501176533
 31
0.0
 11
649.116524104202
 21
-672.8931804154142
 31
0.0
 11
648.5168843176434
 21
-672.9213920570071
 31
0.0
 11
647.9166593305093
 21
-672.9308503789401
 31
0.0
 11
647.3164343436068
 21
-672.9213920570112
 31
0.0
 11
646.7167945572794
 21
-672.893180415437
 31
0.0
 11
646.108878803763
 21
-672.8456501176656
 31
0.0
 11
645.5026873142557
 21
-672.779722593221
 31
0.0
 11
644.3062321362042
 21
-672.5975146171438
 31
0.0
 11
643.120827807245
 21
-672.353500109751
 31
0.0
  0
SPLINE
  5
306
330
1F
100
AcDbEntity
  8
0
  6
Continuous
 62
     3
100
AcDbSpline
210
0.0
220
0.0
230
1.0
 70
     8
 71
     3
 72
    19
 73
    15
 74
    13
 42
0.0000000001
 43
0.0000000001
 44
0.00000001
 40
0.0
 40
0.0
 40
0.0
 40
0.0
 40
0.6333282940618928
 40
1.266635688412723
 40
1.57538527848652
 40
1.884141453343217
 40
2.184691139872765
 40
2.485231588112606
 40
2.786127676904018
 40
3.087033302679949
 40
3.396165458203278
 40
3.705290918234848
 40
4.338200030752525
 40
4.971130018871118
 40
4.971130018871118
 40
4.971130018871118
 40
4.971130018871118
 10
659.840854534143
 20
-672.353500109625
 30
0.0
 10
659.64716134189
 20
-672.4377700586926
 30
0.0
 10
659.2597813492218
 20
-672.6063071759361
 30
0.0
 10
658.7559367006153
 20
-672.7592597115603
 30
0.0
 10
658.348517389495
 20
-672.8484604394835
 30
0.0
 10
658.0459892201521
 20
-672.8959425356451
 30
0.0
 10
657.743864383642
 20
-672.924456175622
 30
0.0
 10
657.4431537070631
 20
-672.9340407429519
 30
0.0
 10
657.1423228387216
 20
-672.9244829058657
 30
0.0
 10
656.839835634443
 20
-672.8959435608499
 30
0.0
 10
656.5369442088623
 20
-672.848389727048
 30
0.0
 10
656.1294194614386
 20
-672.7591169570815
 30
0.0
 10
655.6257269232738
 20
-672.6061558250341
 30
0.0
 10
655.2385931095846
 20
-672.4377196074348
 30
0.0
 10
655.045023010529
 20
-672.353500109751
 30
0.0
 11
659.840854534143
 21
-672.353500109625
 31
0.0
 11
659.2553449621788
 21
-672.5949193905403
 31
0.0
 11
658.649623516636
 21
-672.7797971505574
 31
0.0
 11
658.3479316936039
 21
-672.8454351981084
 31
0.0
 11
658.0428890994683
 21
-672.893178169059
 31
0.0
 11
657.7436620755324
 21
-672.9213437902921
 31
0.0
 11
657.4432720190689
 21
-672.9308503672827
 31
0.0
 11
657.1425255332485
 21
-672.9213631381468
 31
0.0
 11
656.8429433495326
 21
-672.8931725222691
 31
0.0
 11
656.537531484283
 21
-672.8453574394678
 31
0.0
 11
656.2354797788255
 21
-672.7796055020824
 31
0.0
 11
655.6301576282021
 21
-672.5947838619192
 31
0.0
 11
655.045023010529
 21
-672.353500109751
 31
0.0
  0
SPLINE
  5
307
330
1F
100
AcDbEntity
  8
0
  6
Continuous
 62
     3
100
AcDbSpline
210
0.0
220
0.0
230
1.0
 70
     8
 71
     3
 72
    23
 73
    19
 74
    17
 42
0.0000000001
 43
0.0000000001
 44
0.00000001
 40
0.0
 40
0.0
 40
0.0
 40
0.0
 40
0.7884211952458178
 40
1.576843047296975
 40
1.910074616454798
 40
2.243304893221927
 40
2.580059657895332
 40
2.916811041332471
 40
3.141710397059823
 40
3.366608385186093
 40
3.593782741229441
 40
3.820955154661815
 40
3.880484993697874
 40
3.94001464490469
 40
3.999725142905359
 40
4.05943565129999
 40
4.099806987771927
 40
4.140178324244156
 40
4.140178324244156
 40
4.140178324244156
 40
4.140178324244156
 10
631.418477612562
 20
-158.575183262719
 30
0.0
 10
631.4148620981431
 20
-158.8380132930297
 30
0.0
 10
631.4076310662932
 20
-159.3636735726052
 30
0.0
 10
631.3602511436293
 20
-159.9989987244376
 30
0.0
 10
631.3098438405316
 20
-160.4813341099593
 30
0.0
 10
631.2684500209454
 20
-160.8131950938045
 30
0.0
 10
631.2205601482995
 20
-161.1453577695781
 30
0.0
 10
631.1721872719323
 20
-161.4409131412415
 30
0.0
 10
631.1258195725858
 20
-161.698969395401
 30
0.0
 10
631.0831848765631
 20
-161.9205683384786
 30
0.0
 10
631.0377042499935
 20
-162.1423737558995
 30
0.0
 10
631.0012783270806
 20
-162.3097528233681
 30
0.0
 10
630.9758940784102
 20
-162.4223373441121
 30
0.0
 10
630.9626075950346
 20
-162.480427357989
 30
0.0
 10
630.9491292820792
 20
-162.538534973551
 30
0.0
 10
630.936932181843
 20
-162.5903838396337
 30
0.0
 10
630.9261013015408
 20
-162.6359315724025
 30
0.0
 10
630.9198066542183
 20
-162.6620993659468
 30
0.0
 10
630.916659330557
 20
-162.675183262719
 30
0.0
 11
631.418477612562
 21
-158.575183262719
 31
0.0
 11
631.3996603282685
 21
-159.3633798694896
 31
0.0
 11
631.3435058584955
 21
-160.1497994091224
 31
0.0
 11
631.3087417743737
 21
-160.4812126513723
 31
0.0
 11
631.2675499117287
 21
-160.8118871859317
 31
0.0
 11
631.2195036485788
 21
-161.145196843949
 31
0.0
 11
631.1651335171766
 21
-161.4775300849258
 31
0.0
 11
631.125366574638
 21
-161.6988857048854
 31
0.0
 11
631.0828830472051
 21
-161.9197346463818
 31
0.0
 11
631.0372580691128
 21
-162.1422802583758
 31
0.0
 11
630.9889574368317
 21
-162.3642585328667
 31
0.0
 11
630.9758641233204
 21
-162.422330616323
 31
0.0
 11
630.9625914073181
 21
-162.4803617664299
 31
0.0
 11
630.9490990591011
 21
-162.5385279087386
 31
0.0
 11
630.9354281154413
 21
-162.5966523451849
 31
0.0
 11
630.9260842335474
 21
-162.635927485919
 31
0.0
 11
630.916659330557
 21
-162.675183262719
 31
0.0
  0
SPLINE
  5
308
330
1F
100
AcDbEntity
  8
0
  6
Continuous
 62
     3
100
AcDbSpline
210
0.0
220
0.0
230
1.0
 70
     8
 71
     3
 72
    23
 73
    19
 74
    17
 42
0.0000000001
 43
0.0000000001
 44
0.00000001
 40
0.0
 40
0.0
 40
0.0
 40
0.0
 40
0.0403902498884802
 40
0.0807804997770823
 40
0.1405810520414338
 40
0.2003815939543327
 40
0.2600027628508073
 40
0.3196241201754976
 40
0.5469254693642613
 40
0.7742287642505894
 40
0.9992533671199734
 40
1.224279337574844
 40
1.561100706745387
 40
1.897925460797505
 40
2.231225794288978
 40
2.56452740624375
 40
3.352353344880487
 40
4.140178629167559
 40
4.140178629167559
 40
4.140178629167559
 40
4.140178629167559
 10
630.916659330557
 20
-154.47518326272
 30
0.0
 10
630.9198081250324
 20
-154.4882732900047
 30
0.0
 10
630.9261057139834
 20
-154.5144533445742
 30
0.0
 10
630.936946387055
 20
-154.5600425608501
 30
0.0
 10
630.9491584584875
 20
-154.6119560498813
 30
0.0
 10
630.9626567094044
 20
-154.6701519799548
 30
0.0
 10
630.9759626944181
 20
-154.7283309111188
 30
0.0
 10
631.0013677334645
 20
-154.8410173458019
 30
0.0
 10
631.0378143291634
 20
-155.0085111132885
 30
0.0
 10
631.0833136599715
 20
-155.2304435348323
 30
0.0
 10
631.1259637450203
 20
-155.4521692530398
 30
0.0
 10
631.1723384498662
 20
-155.71033372269
 30
0.0
 10
631.2207100220661
 20
-156.005979367613
 30
0.0
 10
631.26859064769
 20
-156.3382141265575
 30
0.0
 10
631.3099722493108
 20
-156.6701472177629
 30
0.0
 10
631.3603310629644
 20
-157.152334945749
 30
0.0
 10
631.407647433766
 20
-157.7872890166997
 30
0.0
 10
631.4148675539627
 20
-158.3125519200911
 30
0.0
 10
631.418477612562
 20
-158.575183262719
 30
0.0
 11
630.916659330557
 21
-154.47518326272
 31
0.0
 11
630.9260886300818
 21
-154.5144574348504
 31
0.0
 11
630.9354368324005
 21
-154.5537509890224
 31
0.0
 11
630.9491281442268
 21
-154.6119631357926
 31
0.0
 11
630.9626403195473
 21
-154.6702171136069
 31
0.0
 11
630.9759326463702
 21
-154.7283376592703
 31
0.0
 11
630.9890450138575
 21
-154.7864992623097
 31
0.0
 11
631.0373676223971
 21
-155.0086047076436
 31
0.0
 11
631.0830114233821
 21
-155.2312780812154
 31
0.0
 11
631.1255102110529
 21
-155.4522530231048
 31
0.0
 11
631.1652891979248
 21
-155.6737351207619
 31
0.0
 11
631.2196530194635
 21
-156.006140309707
 31
0.0
 11
631.2676899578347
 21
-156.3395220241039
 31
0.0
 11
631.3088696744466
 21
-156.6702686692045
 31
0.0
 11
631.3436185756498
 21
-157.0017539304105
 31
0.0
 11
631.3996887306855
 21
-157.7875820587586
 31
0.0
 11
631.418477612562
 21
-158.575183262719
 31
0.0
  0
LEADER
  5
309
330
1F
100
AcDbEntity
  8
1
  6
Continuous
 62
     4
100
AcDbLeader
  3
Standard
 71
     0
 76
     3
 10
658.558062629113
 20
-681.004080794371
 30
0.0
 10
674.729595693534
 20
-700.93823388188
 30
0.0
 10
710.207081966885
 20
-700.93823388188
 30
0.0
  0
ENDSEC
  0
SECTION
  2
OBJECTS
  0
DICTIONARY
  5
C
330
0
100
AcDbDictionary
281
     1
  3
ACAD_GROUP
350
D
  3
ACAD_LAYOUT
350
1A
  3
ACAD_MATERIAL
350
3B
  3
ACAD_MLEADERSTYLE
350
30C
  3
ACAD_MLINESTYLE
350
17
  3
ACAD_PLOTSETTINGS
350
19
  3
ACAD_PLOTSTYLENAME
350
E
  3
ACAD_VISUALSTYLE
350
2A
  3
AcDbVariableDictionary
350
30A
  0
DICTIONARY
  5
D
102
{ACAD_REACTORS
330
C
102
}
330
C
100
AcDbDictionary
281
     1
  0
DICTIONARY
  5
1A
102
{ACAD_REACTORS
330
C
102
}
330
C
100
AcDbDictionary
281
     1
  3
Layout1
350
1E
  3
Layout2
350
26
  3
Model
350
22
  0
DICTIONARY
  5
3B
102
{ACAD_REACTORS
330
C
102
}
330
C
100
AcDbDictionary
281
     1
  3
ByBlock
350
3D
  3
ByLayer
350
3C
  3
Global
350
3E
  0
DICTIONARY
  5
30C
102
{ACAD_REACTORS
330
C
102
}
330
C
100
AcDbDictionary
281
     1
  0
DICTIONARY
  5
17
102
{ACAD_REACTORS
330
C
102
}
330
C
100
AcDbDictionary
281
     1
  3
Standard
350
18
  0
DICTIONARY
  5
19
102
{ACAD_REACTORS
330
C
102
}
330
C
100
AcDbDictionary
281
     1
  0
ACDBDICTIONARYWDFLT
  5
E
102
{ACAD_REACTORS
330
C
102
}
330
C
100
AcDbDictionary
281
     1
  3
Normal
350
F
100
AcDbDictionaryWithDefault
340
F
  0
DICTIONARY
  5
2A
102
{ACAD_REACTORS
330
C
102
}
330
C
100
AcDbDictionary
281
     1
  3
2dWireframe
350
2F
  3
3D Hidden
350
31
  3
3dWireframe
350
30
  3
Basic
350
32
  3
Brighten
350
36
  3
ColorChange
350
3A
  3
Conceptual
350
34
  3
Dim
350
35
  3
Facepattern
350
39
  3
Flat
350
2B
  3
FlatWithEdges
350
2C
  3
Gouraud
350
2D
  3
GouraudWithEdges
350
2E
  3
Linepattern
350
38
  3
Realistic
350
33
  3
Thicken
350
37
  0
DICTIONARY
  5
30A
102
{ACAD_REACTORS
330
C
102
}
330
C
100
AcDbDictionary
281
     1
  3
DIMASSOC
350
30D
  3
HIDETEXT
350
30E
  0
LAYOUT
  5
1E
102
{ACAD_REACTORS
330
1A
102
}
330
1A
100
AcDbPlotSettings
  1

  2
none_device
  4

  6

 40
0.0
 41
0.0
 42
0.0
 43
0.0
 44
0.0
 45
0.0
 46
0.0
 47
0.0
 48
0.0
 49
0.0
140
0.0
141
0.0
142
1.0
143
1.0
 70
   688
 72
     0
 73
     0
 74
     5
  7

 75
    16
147
1.0
148
0.0
149
0.0
100
AcDbLayout
  1
Layout1
 70
     1
 71
     1
 10
0.0
 20
0.0
 11
12.0
 21
9.0
 12
0.0
 22
0.0
 32
0.0
 14
1.00000000000000E+20
 24
1.00000000000000E+20
 34
1.00000000000000E+20
 15
-1.00000000000000E+20
 25
-1.00000000000000E+20
 35
-1.00000000000000E+20
146
0.0
 13
0.0
 23
0.0
 33
0.0
 16
1.0
 26
0.0
 36
0.0
 17
0.0
 27
1.0
 37
0.0
 76
     0
330
1B
  0
LAYOUT
  5
26
102
{ACAD_REACTORS
330
1A
102
}
330
1A
100
AcDbPlotSettings
  1

  2
none_device
  4

  6

 40
0.0
 41
0.0
 42
0.0
 43
0.0
 44
0.0
 45
0.0
 46
0.0
 47
0.0
 48
0.0
 49
0.0
140
0.0
141
0.0
142
1.0
143
1.0
 70
   688
 72
     0
 73
     0
 74
     5
  7

 75
    16
147
1.0
148
0.0
149
0.0
100
AcDbLayout
  1
Layout2
 70
     1
 71
     2
 10
0.0
 20
0.0
 11
0.0
 21
0.0
 12
0.0
 22
0.0
 32
0.0
 14
0.0
 24
0.0
 34
0.0
 15
0.0
 25
0.0
 35
0.0
146
0.0
 13
0.0
 23
0.0
 33
0.0
 16
1.0
 26
0.0
 36
0.0
 17
0.0
 27
1.0
 37
0.0
 76
     0
330
23
  0
LAYOUT
  5
22
102
{ACAD_REACTORS
330
1A
102
}
330
1A
100
AcDbPlotSettings
  1

  2
none_device
  4

  6

 40
0.0
 41
0.0
 42
0.0
 43
0.0
 44
0.0
 45
0.0
 46
0.0
 47
0.0
 48
0.0
 49
0.0
140
0.0
141
0.0
142
1.0
143
1.0
 70
  1712
 72
     0
 73
     0
 74
     0
  7

 75
     0
147
1.0
148
0.0
149
0.0
100
AcDbLayout
  1
Model
 70
     1
 71
     0
 10
0.0
 20
0.0
 11
12.0
 21
9.0
 12
0.0
 22
0.0
 32
0.0
 14
490.083340669443
 24
-706.322846737615
 34
0.0
 15
752.897510512267
 25
-9.6179729618143
 35
0.0
146
0.0
 13
0.0
 23
0.0
 33
0.0
 16
1.0
 26
0.0
 36
0.0
 17
0.0
 27
1.0
 37
0.0
 76
     0
330
1F
331
29
  0
MATERIAL
  5
3D
102
{ACAD_REACTORS
330
3B
102
}
102
{ACAD_XDICTIONARY
360
331
102
}
330
3B
100
AcDbMaterial
  1
ByBlock
  0
MATERIAL
  5
3C
102
{ACAD_REACTORS
330
3B
102
}
102
{ACAD_XDICTIONARY
360
32F
102
}
330
3B
100
AcDbMaterial
  1
ByLayer
  0
MATERIAL
  5
3E
102
{ACAD_REACTORS
330
3B
102
}
102
{ACAD_XDICTIONARY
360
333
102
}
330
3B
100
AcDbMaterial
  1
Global
  0
MLINESTYLE
  5
18
102
{ACAD_REACTORS
330
17
102
}
330
17
100
AcDbMlineStyle
  2
Standard
 70
     0
  3

 62
   256
 51
90.0
 52
90.0
 71
     2
 49
0.5
 62
   256
  6
BYLAYER
 49
-0.5
 62
   256
  6
BYLAYER
  0
ACDBPLACEHOLDER
  5
F
102
{ACAD_REACTORS
330
E
102
}
330
E
  0
VISUALSTYLE
  5
2F
102
{ACAD_REACTORS
330
2A
102
}
102
{ACAD_XDICTIONARY
360
317
102
}
330
2A
100
AcDbVisualStyle
  2
2dWireframe
 70
     4
 71
     0
 72
     2
 73
     0
 90
        0
 40
-0.6
 41
-30.0
 62
     5
 63
     7
 74
     1
 91
        4
 64
     7
 65
   257
 75
     1
175
     1
 42
1.0
 92
        0
 66
   257
 43
1.0
 76
     1
 77
     6
 78
     2
 67
     7
 79
     5
170
     0
171
     0
290
     0
174
     0
 93
        1
 44
0.0
173
     0
291
     0
 45
0.0
1001
ACAD
1000
AcDbSavedByObjectVersion
1070
     0
  0
VISUALSTYLE
  5
31
102
{ACAD_REACTORS
330
2A
102
}
102
{ACAD_XDICTIONARY
360
31B
102
}
330
2A
100
AcDbVisualStyle
  2
3D Hidden
 70
     6
 71
     1
 72
     2
 73
     2
 90
        0
 40
-0.6
 41
-30.0
 62
     5
 63
     7
 74
     2
 91
        2
 64
     7
 65
   257
 75
     2
175
     1
 42
40.0
 92
        0
 66
   257
 43
1.0
 76
     1
 77
     6
 78
     2
 67
     7
 79
     3
170
     0
171
     0
290
     0
174
     0
 93
        1
 44
0.0
173
     0
291
     0
 45
0.0
1001
ACAD
1000
AcDbSavedByObjectVersion
1070
     0
  0
VISUALSTYLE
  5
30
102
{ACAD_REACTORS
330
2A
102
}
102
{ACAD_XDICTIONARY
360
319
102
}
330
2A
100
AcDbVisualStyle
  2
3dWireframe
 70
     5
 71
     0
 72
     2
 73
     0
 90
        0
 40
-0.6
 41
-30.0
 62
     5
 63
     7
 74
     1
 91
        4
 64
     7
 65
   257
 75
     1
175
     1
 42
1.0
 92
        0
 66
   257
 43
1.0
 76
     1
 77
     6
 78
     2
 67
     7
 79
     5
170
     0
171
     0
290
     0
174
     0
 93
        1
 44
0.0
173
     0
291
     0
 45
0.0
1001
ACAD
1000
AcDbSavedByObjectVersion
1070
     0
  0
VISUALSTYLE
  5
32
102
{ACAD_REACTORS
330
2A
102
}
102
{ACAD_XDICTIONARY
360
31D
102
}
330
2A
100
AcDbVisualStyle
  2
Basic
 70
     7
 71
     1
 72
     0
 73
     1
 90
        0
 40
-0.6
 41
-30.0
 62
     5
 63
     7
 74
     0
 91
        4
 64
     7
 65
   257
 75
     1
175
     1
 42
1.0
 92
        8
 66
     7
 43
1.0
 76
     1
 77
     6
 78
     2
 67
     7
 79
     5
170
     0
171
     0
290
     0
174
     0
 93
        1
 44
0.0
173
     0
291
     1
 45
0.0
1001
ACAD
1000
AcDbSavedByObjectVersion
1070
     0
  0
VISUALSTYLE
  5
36
102
{ACAD_REACTORS
330
2A
102
}
102
{ACAD_XDICTIONARY
360
325
102
}
330
2A
100
AcDbVisualStyle
  2
Brighten
 70
    12
 71
     2
 72
     2
 73
     0
 90
        0
 40
-0.6
 41
-30.0
 62
     5
 63
     7
 74
     1
 91
        4
 64
     7
 65
   257
 75
     1
175
     1
 42
1.0
 92
        8
 66
     7
 43
1.0
 76
     1
 77
     6
 78
     2
 67
     7
 79
     5
170
     0
171
     0
290
     0
174
     0
 93
        1
 44
50.0
173
     0
291
     1
 45
0.0
1001
ACAD
1000
AcDbSavedByObjectVersion
1070
     0
  0
VISUALSTYLE
  5
3A
102
{ACAD_REACTORS
330
2A
102
}
102
{ACAD_XDICTIONARY
360
32D
102
}
330
2A
100
AcDbVisualStyle
  2
ColorChange
 70
    16
 71
     2
 72
     2
 73
     3
 90
        0
 40
-0.6
 41
-30.0
 62
     5
 63
     8
 74
     1
 91
        4
 64
     7
 65
   257
 75
     1
175
     1
 42
1.0
 92
        8
 66
     8
 43
1.0
 76
     1
 77
     6
 78
     2
 67
     7
 79
     5
170
     0
171
     0
290
     0
174
     0
 93
        1
 44
0.0
173
     0
291
     1
 45
0.0
1001
ACAD
1000
AcDbSavedByObjectVersion
1070
     0
  0
VISUALSTYLE
  5
34
102
{ACAD_REACTORS
330
2A
102
}
102
{ACAD_XDICTIONARY
360
321
102
}
330
2A
100
AcDbVisualStyle
  2
Conceptual
 70
     9
 71
     3
 72
     2
 73
     0
 90
        0
 40
-0.6
 41
-30.0
 62
     5
 63
     7
 74
     2
 91
        2
 64
     7
 65
   257
 75
     1
175
     1
 42
40.0
 92
        8
 66
     7
 43
1.0
 76
     1
 77
     6
 78
     2
 67
     7
 79
     3
170
     0
171
     0
290
     0
174
     0
 93
        1
 44
0.0
173
     0
291
     0
 45
0.0
1001
ACAD
1000
AcDbSavedByObjectVersion
1070
     0
  0
VISUALSTYLE
  5
35
102
{ACAD_REACTORS
330
2A
102
}
102
{ACAD_XDICTIONARY
360
323
102
}
330
2A
100
AcDbVisualStyle
  2
Dim
 70
    11
 71
     2
 72
     2
 73
     0
 90
        0
 40
-0.6
 41
-30.0
 62
     5
 63
     7
 74
     1
 91
        4
 64
     7
 65
   257
 75
     1
175
     1
 42
1.0
 92
        8
 66
     7
 43
1.0
 76
     1
 77
     6
 78
     2
 67
     7
 79
     5
170
     0
171
     0
290
     0
174
     0
 93
        1
 44
-50.0
173
     0
291
     1
 45
0.0
1001
ACAD
1000
AcDbSavedByObjectVersion
1070
     0
  0
VISUALSTYLE
  5
39
102
{ACAD_REACTORS
330
2A
102
}
102
{ACAD_XDICTIONARY
360
32B
102
}
330
2A
100
AcDbVisualStyle
  2
Facepattern
 70
    15
 71
     2
 72
     2
 73
     0
 90
        0
 40
-0.6
 41
-30.0
 62
     5
 63
     7
 74
     1
 91
        4
 64
     7
 65
   257
 75
     1
175
     1
 42
1.0
 92
        8
 66
     7
 43
1.0
 76
     1
 77
     6
 78
     2
 67
     7
 79
     5
170
     0
171
     0
290
     0
174
     0
 93
        1
 44
0.0
173
     0
291
     1
 45
0.0
1001
ACAD
1000
AcDbSavedByObjectVersion
1070
     0
  0
VISUALSTYLE
  5
2B
102
{ACAD_REACTORS
330
2A
102
}
102
{ACAD_XDICTIONARY
360
30F
102
}
330
2A
100
AcDbVisualStyle
  2
Flat
 70
     0
 71
     2
 72
     1
 73
     1
 90
        2
 40
-0.6
 41
30.0
 62
     5
 63
     7
 74
     0
 91
        4
 64
     7
 65
   257
 75
     1
175
     1
 42
1.0
 92
        8
 66
     7
 43
1.0
 76
     1
 77
     6
 78
     2
 67
     7
 79
     5
170
     0
171
     0
290
     0
174
     0
 93
       13
 44
0.0
173
     0
291
     1
 45
0.0
1001
ACAD
1000
AcDbSavedByObjectVersion
1070
     0
  0
VISUALSTYLE
  5
2C
102
{ACAD_REACTORS
330
2A
102
}
102
{ACAD_XDICTIONARY
360
311
102
}
330
2A
100
AcDbVisualStyle
  2
FlatWithEdges
 70
     1
 71
     2
 72
     1
 73
     1
 90
        2
 40
-0.6
 41
30.0
 62
     5
 63
     7
 74
     1
 91
        4
 64
     7
 65
   257
 75
     1
175
     1
 42
1.0
 92
        0
 66
   257
 43
1.0
 76
     1
 77
     6
 78
     2
 67
     7
 79
     5
170
     0
171
     0
290
     0
174
     0
 93
       13
 44
0.0
173
     0
291
     1
 45
0.0
1001
ACAD
1000
AcDbSavedByObjectVersion
1070
     0
  0
VISUALSTYLE
  5
2D
102
{ACAD_REACTORS
330
2A
102
}
102
{ACAD_XDICTIONARY
360
313
102
}
330
2A
100
AcDbVisualStyle
  2
Gouraud
 70
     2
 71
     2
 72
     2
 73
     1
 90
        2
 40
-0.6
 41
30.0
 62
     5
 63
     7
 74
     0
 91
        4
 64
     7
 65
   257
 75
     1
175
     1
 42
1.0
 92
        0
 66
     7
 43
1.0
 76
     1
 77
     6
 78
     2
 67
     7
 79
     5
170
     0
171
     0
290
     0
174
     0
 93
       13
 44
0.0
173
     0
291
     1
 45
0.0
1001
ACAD
1000
AcDbSavedByObjectVersion
1070
     0
  0
VISUALSTYLE
  5
2E
102
{ACAD_REACTORS
330
2A
102
}
102
{ACAD_XDICTIONARY
360
315
102
}
330
2A
100
AcDbVisualStyle
  2
GouraudWithEdges
 70
     3
 71
     2
 72
     2
 73
     1
 90
        2
 40
-0.6
 41
30.0
 62
     5
 63
     7
 74
     1
 91
        4
 64
     7
 65
   257
 75
     1
175
     1
 42
1.0
 92
        0
 66
   257
 43
1.0
 76
     1
 77
     6
 78
     2
 67
     7
 79
     5
170
     0
171
     0
290
     0
174
     0
 93
       13
 44
0.0
173
     0
291
     1
 45
0.0
1001
ACAD
1000
AcDbSavedByObjectVersion
1070
     0
  0
VISUALSTYLE
  5
38
102
{ACAD_REACTORS
330
2A
102
}
102
{ACAD_XDICTIONARY
360
329
102
}
330
2A
100
AcDbVisualStyle
  2
Linepattern
 70
    14
 71
     2
 72
     2
 73
     0
 90
        0
 40
-0.6
 41
-30.0
 62
     5
 63
     7
 74
     1
 91
        4
 64
     7
 65
   257
 75
     7
175
     7
 42
1.0
 92
        8
 66
     7
 43
1.0
 76
     1
 77
     6
 78
     2
 67
     7
 79
     5
170
     0
171
     0
290
     0
174
     0
 93
        1
 44
0.0
173
     0
291
     1
 45
0.0
1001
ACAD
1000
AcDbSavedByObjectVersion
1070
     0
  0
VISUALSTYLE
  5
33
102
{ACAD_REACTORS
330
2A
102
}
102
{ACAD_XDICTIONARY
360
31F
102
}
330
2A
100
AcDbVisualStyle
  2
Realistic
 70
     8
 71
     2
 72
     2
 73
     0
 90
        0
 40
-0.6
 41
-30.0
 62
     5
 63
     7
 74
     1
 91
        0
 64
     7
 65
   257
 75
     1
175
     1
 42
1.0
 92
        8
 66
     8
 43
1.0
 76
     1
 77
     6
 78
     2
 67
     7
 79
     5
170
     0
171
     0
290
     0
174
     0
 93
       13
 44
0.0
173
     0
291
     0
 45
0.0
1001
ACAD
1000
AcDbSavedByObjectVersion
1070
     0
  0
VISUALSTYLE
  5
37
102
{ACAD_REACTORS
330
2A
102
}
102
{ACAD_XDICTIONARY
360
327
102
}
330
2A
100
AcDbVisualStyle
  2
Thicken
 70
    13
 71
     2
 72
     2
 73
     0
 90
        0
 40
-0.6
 41
-30.0
 62
     5
 63
     7
 74
     1
 91
        4
 64
     7
 65
   257
 75
     1
175
     1
 42
1.0
 92
       12
 66
     7
 43
1.0
 76
     1
 77
     6
 78
     2
 67
     7
 79
     5
170
     0
171
     0
290
     0
174
     0
 93
        1
 44
0.0
173
     0
291
     1
 45
0.0
1001
ACAD
1000
AcDbSavedByObjectVersion
1070
     0
  0
DICTIONARYVAR
  5
30D
102
{ACAD_REACTORS
330
30A
102
}
330
30A
100
DictionaryVariables
280
     0
  1
2
  0
DICTIONARYVAR
  5
30E
102
{ACAD_REACTORS
330
30A
102
}
330
30A
100
DictionaryVariables
280
     0
  1
1
  0
DICTIONARY
  5
331
330
3D
100
AcDbDictionary
280
     1
281
     1
  3
ACAD_XREC_ROUNDTRIP
360
332
  0
DICTIONARY
  5
32F
330
3C
100
AcDbDictionary
280
     1
281
     1
  3
ACAD_XREC_ROUNDTRIP
360
330
  0
DICTIONARY
  5
333
330
3E
100
AcDbDictionary
280
     1
281
     1
  3
ACAD_XREC_ROUNDTRIP
360
334
  0
DICTIONARY
  5
317
330
2F
100
AcDbDictionary
280
     1
281
     1
  3
ACAD_XREC_ROUNDTRIP
360
318
  0
DICTIONARY
  5
31B
330
31
100
AcDbDictionary
280
     1
281
     1
  3
ACAD_XREC_ROUNDTRIP
360
31C
  0
DICTIONARY
  5
319
330
30
100
AcDbDictionary
280
     1
281
     1
  3
ACAD_XREC_ROUNDTRIP
360
31A
  0
DICTIONARY
  5
31D
330
32
100
AcDbDictionary
280
     1
281
     1
  3
ACAD_XREC_ROUNDTRIP
360
31E
  0
DICTIONARY
  5
325
330
36
100
AcDbDictionary
280
     1
281
     1
  3
ACAD_XREC_ROUNDTRIP
360
326
  0
DICTIONARY
  5
32D
330
3A
100
AcDbDictionary
280
     1
281
     1
  3
ACAD_XREC_ROUNDTRIP
360
32E
  0
DICTIONARY
  5
321
330
34
100
AcDbDictionary
280
     1
281
     1
  3
ACAD_XREC_ROUNDTRIP
360
322
  0
DICTIONARY
  5
323
330
35
100
AcDbDictionary
280
     1
281
     1
  3
ACAD_XREC_ROUNDTRIP
360
324
  0
DICTIONARY
  5
32B
330
39
100
AcDbDictionary
280
     1
281
     1
  3
ACAD_XREC_ROUNDTRIP
360
32C
  0
DICTIONARY
  5
30F
330
2B
100
AcDbDictionary
280
     1
281
     1
  3
ACAD_XREC_ROUNDTRIP
360
310
  0
DICTIONARY
  5
311
330
2C
100
AcDbDictionary
280
     1
281
     1
  3
ACAD_XREC_ROUNDTRIP
360
312
  0
DICTIONARY
  5
313
330
2D
100
AcDbDictionary
280
     1
281
     1
  3
ACAD_XREC_ROUNDTRIP
360
314
  0
DICTIONARY
  5
315
330
2E
100
AcDbDictionary
280
     1
281
     1
  3
ACAD_XREC_ROUNDTRIP
360
316
  0
DICTIONARY
  5
329
330
38
100
AcDbDictionary
280
     1
281
     1
  3
ACAD_XREC_ROUNDTRIP
360
32A
  0
DICTIONARY
  5
31F
330
33
100
AcDbDictionary
280
     1
281
     1
  3
ACAD_XREC_ROUNDTRIP
360
320
  0
DICTIONARY
  5
327
330
37
100
AcDbDictionary
280
     1
281
     1
  3
ACAD_XREC_ROUNDTRIP
360
328
  0
XRECORD
  5
332
102
{ACAD_REACTORS
330
331
102
}
330
331
100
AcDbXrecord
280
     1
102
MATERIAL
148
0.0
149
0.0
149
0.0
 93
        0
 94
      127
282
     0
 72
     1
 77
     1
171
     1
175
     1
179
     1
273
     0
  0
XRECORD
  5
330
102
{ACAD_REACTORS
330
32F
102
}
330
32F
100
AcDbXrecord
280
     1
102
MATERIAL
148
0.0
149
0.0
149
0.0
 93
        0
 94
      127
282
     0
 72
     1
 77
     1
171
     1
175
     1
179
     1
273
     0
  0
XRECORD
  5
334
102
{ACAD_REACTORS
330
333
102
}
330
333
100
AcDbXrecord
280
     1
102
MATERIAL
148
0.0
149
0.0
149
0.0
 93
        0
 94
      127
282
     0
 72
     1
 77
     1
171
     1
175
     1
179
     1
273
     0
  0
XRECORD
  5
318
102
{ACAD_REACTORS
330
317
102
}
330
317
100
AcDbXrecord
280
     1
102
RTVSPropertyOp0
 70
     1
102
RTVSPropertyOp1
 70
     1
102
RTVSPropertyOp2
 70
     1
102
RTVSPropertyOp3
 70
     1
102
RTVSPropertyOp4
 70
     1
102
RTVSPropertyOp5
 70
     1
102
RTVSPropertyOp6
 70
     1
102
RTVSPropertyOp7
 70
     1
102
RTVSPropertyOp8
 70
     1
102
RTVSPropertyOp9
 70
     1
102
RTVSPropertyOp10
 70
     1
102
RTVSPropertyOp11
 70
     1
102
RTVSPropertyOp12
 70
     1
102
RTVSPropertyOp13
 70
     1
102
RTVSPropertyOp14
 70
     1
102
RTVSPropertyOp15
 70
     1
102
RTVSPropertyOp16
 70
     1
102
RTVSPropertyOp17
 70
     1
102
RTVSPropertyOp18
 70
     1
102
RTVSPropertyOp19
 70
     1
102
RTVSPropertyOp20
 70
     1
102
RTVSPropertyOp21
 70
     1
102
RTVSPropertyOp22
 70
     1
102
RTVSPropertyOp23
 70
     1
102
RTVSPropertyOp24
 70
     1
102
RTVSPropertyOp25
 70
     1
102
RTVSPropertyOp26
 70
     1
102
RTVSPropertyOp27
 70
     1
  0
XRECORD
  5
31C
102
{ACAD_REACTORS
330
31B
102
}
330
31B
100
AcDbXrecord
280
     1
102
RTVSPropertyOp0
 70
     1
102
RTVSPropertyOp1
 70
     1
102
RTVSPropertyOp2
 70
     1
102
RTVSPropertyOp3
 70
     1
102
RTVSPropertyOp4
 70
     1
102
RTVSPropertyOp5
 70
     1
102
RTVSPropertyOp6
 70
     1
102
RTVSPropertyOp7
 70
     1
102
RTVSPropertyOp8
 70
     1
102
RTVSPropertyOp9
 70
     1
102
RTVSPropertyOp10
 70
     1
102
RTVSPropertyOp11
 70
     1
102
RTVSPropertyOp12
 70
     1
102
RTVSPropertyOp13
 70
     1
102
RTVSPropertyOp14
 70
     1
102
RTVSPropertyOp15
 70
     1
102
RTVSPropertyOp16
 70
     1
102
RTVSPropertyOp17
 70
     1
102
RTVSPropertyOp18
 70
     1
102
RTVSPropertyOp19
 70
     1
102
RTVSPropertyOp20
 70
     1
102
RTVSPropertyOp21
 70
     1
102
RTVSPropertyOp22
 70
     1
102
RTVSPropertyOp23
 70
     1
102
RTVSPropertyOp24
 70
     1
102
RTVSPropertyOp25
 70
     1
102
RTVSPropertyOp26
 70
     1
102
RTVSPropertyOp27
 70
     1
  0
XRECORD
  5
31A
102
{ACAD_REACTORS
330
319
102
}
330
319
100
AcDbXrecord
280
     1
102
RTVSPropertyOp0
 70
     1
102
RTVSPropertyOp1
 70
     1
102
RTVSPropertyOp2
 70
     1
102
RTVSPropertyOp3
 70
     1
102
RTVSPropertyOp4
 70
     1
102
RTVSPropertyOp5
 70
     1
102
RTVSPropertyOp6
 70
     1
102
RTVSPropertyOp7
 70
     1
102
RTVSPropertyOp8
 70
     1
102
RTVSPropertyOp9
 70
     1
102
RTVSPropertyOp10
 70
     1
102
RTVSPropertyOp11
 70
     1
102
RTVSPropertyOp12
 70
     1
102
RTVSPropertyOp13
 70
     1
102
RTVSPropertyOp14
 70
     1
102
RTVSPropertyOp15
 70
     1
102
RTVSPropertyOp16
 70
     1
102
RTVSPropertyOp17
 70
     1
102
RTVSPropertyOp18
 70
     1
102
RTVSPropertyOp19
 70
     1
102
RTVSPropertyOp20
 70
     1
102
RTVSPropertyOp21
 70
     1
102
RTVSPropertyOp22
 70
     1
102
RTVSPropertyOp23
 70
     1
102
RTVSPropertyOp24
 70
     1
102
RTVSPropertyOp25
 70
     1
102
RTVSPropertyOp26
 70
     1
102
RTVSPropertyOp27
 70
     1
  0
XRECORD
  5
31E
102
{ACAD_REACTORS
330
31D
102
}
330
31D
100
AcDbXrecord
280
     1
102
RTVSPropertyOp0
 70
     1
102
RTVSPropertyOp1
 70
     1
102
RTVSPropertyOp2
 70
     1
102
RTVSPropertyOp3
 70
     1
102
RTVSPropertyOp4
 70
     1
102
RTVSPropertyOp5
 70
     1
102
RTVSPropertyOp6
 70
     1
102
RTVSPropertyOp7
 70
     1
102
RTVSPropertyOp8
 70
     1
102
RTVSPropertyOp9
 70
     1
102
RTVSPropertyOp10
 70
     1
102
RTVSPropertyOp11
 70
     1
102
RTVSPropertyOp12
 70
     1
102
RTVSPropertyOp13
 70
     1
102
RTVSPropertyOp14
 70
     1
102
RTVSPropertyOp15
 70
     1
102
RTVSPropertyOp16
 70
     1
102
RTVSPropertyOp17
 70
     1
102
RTVSPropertyOp18
 70
     1
102
RTVSPropertyOp19
 70
     1
102
RTVSPropertyOp20
 70
     1
102
RTVSPropertyOp21
 70
     1
102
RTVSPropertyOp22
 70
     1
102
RTVSPropertyOp23
 70
     1
102
RTVSPropertyOp24
 70
     1
102
RTVSPropertyOp25
 70
     1
102
RTVSPropertyOp26
 70
     1
102
RTVSPropertyOp27
 70
     1
  0
XRECORD
  5
326
102
{ACAD_REACTORS
330
325
102
}
330
325
100
AcDbXrecord
280
     1
102
RTVSPropertyOp0
 70
     1
102
RTVSPropertyOp1
 70
     1
102
RTVSPropertyOp2
 70
     1
102
RTVSPropertyOp3
 70
     1
102
RTVSPropertyOp4
 70
     1
102
RTVSPropertyOp5
 70
     1
102
RTVSPropertyOp6
 70
     1
102
RTVSPropertyOp7
 70
     1
102
RTVSPropertyOp8
 70
     1
102
RTVSPropertyOp9
 70
     1
102
RTVSPropertyOp10
 70
     1
102
RTVSPropertyOp11
 70
     1
102
RTVSPropertyOp12
 70
     1
102
RTVSPropertyOp13
 70
     1
102
RTVSPropertyOp14
 70
     1
102
RTVSPropertyOp15
 70
     1
102
RTVSPropertyOp16
 70
     1
102
RTVSPropertyOp17
 70
     1
102
RTVSPropertyOp18
 70
     1
102
RTVSPropertyOp19
 70
     1
102
RTVSPropertyOp20
 70
     1
102
RTVSPropertyOp21
 70
     1
102
RTVSPropertyOp22
 70
     1
102
RTVSPropertyOp23
 70
     1
102
RTVSPropertyOp24
 70
     1
102
RTVSPropertyOp25
 70
     1
102
RTVSPropertyOp26
 70
     1
102
RTVSPropertyOp27
 70
     1
  0
XRECORD
  5
32E
102
{ACAD_REACTORS
330
32D
102
}
330
32D
100
AcDbXrecord
280
     1
102
RTVSPropertyOp0
 70
     1
102
RTVSPropertyOp1
 70
     1
102
RTVSPropertyOp2
 70
     1
102
RTVSPropertyOp3
 70
     1
102
RTVSPropertyOp4
 70
     1
102
RTVSPropertyOp5
 70
     1
102
RTVSPropertyOp6
 70
     1
102
RTVSPropertyOp7
 70
     1
102
RTVSPropertyOp8
 70
     1
102
RTVSPropertyOp9
 70
     1
102
RTVSPropertyOp10
 70
     1
102
RTVSPropertyOp11
 70
     1
102
RTVSPropertyOp12
 70
     1
102
RTVSPropertyOp13
 70
     1
102
RTVSPropertyOp14
 70
     1
102
RTVSPropertyOp15
 70
     1
102
RTVSPropertyOp16
 70
     1
102
RTVSPropertyOp17
 70
     1
102
RTVSPropertyOp18
 70
     1
102
RTVSPropertyOp19
 70
     1
102
RTVSPropertyOp20
 70
     1
102
RTVSPropertyOp21
 70
     1
102
RTVSPropertyOp22
 70
     1
102
RTVSPropertyOp23
 70
     1
102
RTVSPropertyOp24
 70
     1
102
RTVSPropertyOp25
 70
     1
102
RTVSPropertyOp26
 70
     1
102
RTVSPropertyOp27
 70
     1
  0
XRECORD
  5
322
102
{ACAD_REACTORS
330
321
102
}
330
321
100
AcDbXrecord
280
     1
102
RTVSPropertyOp0
 70
     1
102
RTVSPropertyOp1
 70
     1
102
RTVSPropertyOp2
 70
     1
102
RTVSPropertyOp3
 70
     1
102
RTVSPropertyOp4
 70
     1
102
RTVSPropertyOp5
 70
     1
102
RTVSPropertyOp6
 70
     1
102
RTVSPropertyOp7
 70
     1
102
RTVSPropertyOp8
 70
     1
102
RTVSPropertyOp9
 70
     1
102
RTVSPropertyOp10
 70
     1
102
RTVSPropertyOp11
 70
     1
102
RTVSPropertyOp12
 70
     1
102
RTVSPropertyOp13
 70
     1
102
RTVSPropertyOp14
 70
     1
102
RTVSPropertyOp15
 70
     1
102
RTVSPropertyOp16
 70
     1
102
RTVSPropertyOp17
 70
     1
102
RTVSPropertyOp18
 70
     1
102
RTVSPropertyOp19
 70
     1
102
RTVSPropertyOp20
 70
     1
102
RTVSPropertyOp21
 70
     1
102
RTVSPropertyOp22
 70
     1
102
RTVSPropertyOp23
 70
     1
102
RTVSPropertyOp24
 70
     1
102
RTVSPropertyOp25
 70
     1
102
RTVSPropertyOp26
 70
     1
102
RTVSPropertyOp27
 70
     1
  0
XRECORD
  5
324
102
{ACAD_REACTORS
330
323
102
}
330
323
100
AcDbXrecord
280
     1
102
RTVSPropertyOp0
 70
     1
102
RTVSPropertyOp1
 70
     1
102
RTVSPropertyOp2
 70
     1
102
RTVSPropertyOp3
 70
     1
102
RTVSPropertyOp4
 70
     1
102
RTVSPropertyOp5
 70
     1
102
RTVSPropertyOp6
 70
     1
102
RTVSPropertyOp7
 70
     1
102
RTVSPropertyOp8
 70
     1
102
RTVSPropertyOp9
 70
     1
102
RTVSPropertyOp10
 70
     1
102
RTVSPropertyOp11
 70
     1
102
RTVSPropertyOp12
 70
     1
102
RTVSPropertyOp13
 70
     1
102
RTVSPropertyOp14
 70
     1
102
RTVSPropertyOp15
 70
     1
102
RTVSPropertyOp16
 70
     1
102
RTVSPropertyOp17
 70
     1
102
RTVSPropertyOp18
 70
     1
102
RTVSPropertyOp19
 70
     1
102
RTVSPropertyOp20
 70
     1
102
RTVSPropertyOp21
 70
     1
102
RTVSPropertyOp22
 70
     1
102
RTVSPropertyOp23
 70
     1
102
RTVSPropertyOp24
 70
     1
102
RTVSPropertyOp25
 70
     1
102
RTVSPropertyOp26
 70
     1
102
RTVSPropertyOp27
 70
     1
  0
XRECORD
  5
32C
102
{ACAD_REACTORS
330
32B
102
}
330
32B
100
AcDbXrecord
280
     1
102
RTVSPropertyOp0
 70
     1
102
RTVSPropertyOp1
 70
     1
102
RTVSPropertyOp2
 70
     1
102
RTVSPropertyOp3
 70
     1
102
RTVSPropertyOp4
 70
     1
102
RTVSPropertyOp5
 70
     1
102
RTVSPropertyOp6
 70
     1
102
RTVSPropertyOp7
 70
     1
102
RTVSPropertyOp8
 70
     1
102
RTVSPropertyOp9
 70
     1
102
RTVSPropertyOp10
 70
     1
102
RTVSPropertyOp11
 70
     1
102
RTVSPropertyOp12
 70
     1
102
RTVSPropertyOp13
 70
     1
102
RTVSPropertyOp14
 70
     1
102
RTVSPropertyOp15
 70
     1
102
RTVSPropertyOp16
 70
     1
102
RTVSPropertyOp17
 70
     1
102
RTVSPropertyOp18
 70
     1
102
RTVSPropertyOp19
 70
     1
102
RTVSPropertyOp20
 70
     1
102
RTVSPropertyOp21
 70
     1
102
RTVSPropertyOp22
 70
     1
102
RTVSPropertyOp23
 70
     1
102
RTVSPropertyOp24
 70
     1
102
RTVSPropertyOp25
 70
     1
102
RTVSPropertyOp26
 70
     1
102
RTVSPropertyOp27
 70
     1
  0
XRECORD
  5
310
102
{ACAD_REACTORS
330
30F
102
}
330
30F
100
AcDbXrecord
280
     1
102
RTVSPropertyOp0
 70
     1
102
RTVSPropertyOp1
 70
     1
102
RTVSPropertyOp2
 70
     1
102
RTVSPropertyOp3
 70
     1
102
RTVSPropertyOp4
 70
     1
102
RTVSPropertyOp5
 70
     1
102
RTVSPropertyOp6
 70
     1
102
RTVSPropertyOp7
 70
     1
102
RTVSPropertyOp8
 70
     1
102
RTVSPropertyOp9
 70
     1
102
RTVSPropertyOp10
 70
     1
102
RTVSPropertyOp11
 70
     1
102
RTVSPropertyOp12
 70
     1
102
RTVSPropertyOp13
 70
     1
102
RTVSPropertyOp14
 70
     1
102
RTVSPropertyOp15
 70
     1
102
RTVSPropertyOp16
 70
     1
102
RTVSPropertyOp17
 70
     1
102
RTVSPropertyOp18
 70
     1
102
RTVSPropertyOp19
 70
     1
102
RTVSPropertyOp20
 70
     1
102
RTVSPropertyOp21
 70
     1
102
RTVSPropertyOp22
 70
     1
102
RTVSPropertyOp23
 70
     1
102
RTVSPropertyOp24
 70
     1
102
RTVSPropertyOp25
 70
     1
102
RTVSPropertyOp26
 70
     1
102
RTVSPropertyOp27
 70
     1
  0
XRECORD
  5
312
102
{ACAD_REACTORS
330
311
102
}
330
311
100
AcDbXrecord
280
     1
102
RTVSPropertyOp0
 70
     1
102
RTVSPropertyOp1
 70
     1
102
RTVSPropertyOp2
 70
     1
102
RTVSPropertyOp3
 70
     1
102
RTVSPropertyOp4
 70
     1
102
RTVSPropertyOp5
 70
     1
102
RTVSPropertyOp6
 70
     1
102
RTVSPropertyOp7
 70
     1
102
RTVSPropertyOp8
 70
     1
102
RTVSPropertyOp9
 70
     1
102
RTVSPropertyOp10
 70
     1
102
RTVSPropertyOp11
 70
     1
102
RTVSPropertyOp12
 70
     1
102
RTVSPropertyOp13
 70
     1
102
RTVSPropertyOp14
 70
     1
102
RTVSPropertyOp15
 70
     1
102
RTVSPropertyOp16
 70
     1
102
RTVSPropertyOp17
 70
     1
102
RTVSPropertyOp18
 70
     1
102
RTVSPropertyOp19
 70
     1
102
RTVSPropertyOp20
 70
     1
102
RTVSPropertyOp21
 70
     1
102
RTVSPropertyOp22
 70
     1
102
RTVSPropertyOp23
 70
     1
102
RTVSPropertyOp24
 70
     1
102
RTVSPropertyOp25
 70
     1
102
RTVSPropertyOp26
 70
     1
102
RTVSPropertyOp27
 70
     1
  0
XRECORD
  5
314
102
{ACAD_REACTORS
330
313
102
}
330
313
100
AcDbXrecord
280
     1
102
RTVSPropertyOp0
 70
     1
102
RTVSPropertyOp1
 70
     1
102
RTVSPropertyOp2
 70
     1
102
RTVSPropertyOp3
 70
     1
102
RTVSPropertyOp4
 70
     1
102
RTVSPropertyOp5
 70
     1
102
RTVSPropertyOp6
 70
     1
102
RTVSPropertyOp7
 70
     1
102
RTVSPropertyOp8
 70
     1
102
RTVSPropertyOp9
 70
     1
102
RTVSPropertyOp10
 70
     1
102
RTVSPropertyOp11
 70
     1
102
RTVSPropertyOp12
 70
     1
102
RTVSPropertyOp13
 70
     1
102
RTVSPropertyOp14
 70
     1
102
RTVSPropertyOp15
 70
     1
102
RTVSPropertyOp16
 70
     1
102
RTVSPropertyOp17
 70
     1
102
RTVSPropertyOp18
 70
     1
102
RTVSPropertyOp19
 70
     1
102
RTVSPropertyOp20
 70
     1
102
RTVSPropertyOp21
 70
     1
102
RTVSPropertyOp22
 70
     1
102
RTVSPropertyOp23
 70
     1
102
RTVSPropertyOp24
 70
     1
102
RTVSPropertyOp25
 70
     1
102
RTVSPropertyOp26
 70
     1
102
RTVSPropertyOp27
 70
     1
  0
XRECORD
  5
316
102
{ACAD_REACTORS
330
315
102
}
330
315
100
AcDbXrecord
280
     1
102
RTVSPropertyOp0
 70
     1
102
RTVSPropertyOp1
 70
     1
102
RTVSPropertyOp2
 70
     1
102
RTVSPropertyOp3
 70
     1
102
RTVSPropertyOp4
 70
     1
102
RTVSPropertyOp5
 70
     1
102
RTVSPropertyOp6
 70
     1
102
RTVSPropertyOp7
 70
     1
102
RTVSPropertyOp8
 70
     1
102
RTVSPropertyOp9
 70
     1
102
RTVSPropertyOp10
 70
     1
102
RTVSPropertyOp11
 70
     1
102
RTVSPropertyOp12
 70
     1
102
RTVSPropertyOp13
 70
     1
102
RTVSPropertyOp14
 70
     1
102
RTVSPropertyOp15
 70
     1
102
RTVSPropertyOp16
 70
     1
102
RTVSPropertyOp17
 70
     1
102
RTVSPropertyOp18
 70
     1
102
RTVSPropertyOp19
 70
     1
102
RTVSPropertyOp20
 70
     1
102
RTVSPropertyOp21
 70
     1
102
RTVSPropertyOp22
 70
     1
102
RTVSPropertyOp23
 70
     1
102
RTVSPropertyOp24
 70
     1
102
RTVSPropertyOp25
 70
     1
102
RTVSPropertyOp26
 70
     1
102
RTVSPropertyOp27
 70
     1
  0
XRECORD
  5
32A
102
{ACAD_REACTORS
330
329
102
}
330
329
100
AcDbXrecord
280
     1
102
RTVSPropertyOp0
 70
     1
102
RTVSPropertyOp1
 70
     1
102
RTVSPropertyOp2
 70
     1
102
RTVSPropertyOp3
 70
     1
102
RTVSPropertyOp4
 70
     1
102
RTVSPropertyOp5
 70
     1
102
RTVSPropertyOp6
 70
     1
102
RTVSPropertyOp7
 70
     1
102
RTVSPropertyOp8
 70
     1
102
RTVSPropertyOp9
 70
     1
102
RTVSPropertyOp10
 70
     1
102
RTVSPropertyOp11
 70
     1
102
RTVSPropertyOp12
 70
     1
102
RTVSPropertyOp13
 70
     1
102
RTVSPropertyOp14
 70
     1
102
RTVSPropertyOp15
 70
     1
102
RTVSPropertyOp16
 70
     1
102
RTVSPropertyOp17
 70
     1
102
RTVSPropertyOp18
 70
     1
102
RTVSPropertyOp19
 70
     1
102
RTVSPropertyOp20
 70
     1
102
RTVSPropertyOp21
 70
     1
102
RTVSPropertyOp22
 70
     1
102
RTVSPropertyOp23
 70
     1
102
RTVSPropertyOp24
 70
     1
102
RTVSPropertyOp25
 70
     1
102
RTVSPropertyOp26
 70
     1
102
RTVSPropertyOp27
 70
     1
  0
XRECORD
  5
320
102
{ACAD_REACTORS
330
31F
102
}
330
31F
100
AcDbXrecord
280
     1
102
RTVSPropertyOp0
 70
     1
102
RTVSPropertyOp1
 70
     1
102
RTVSPropertyOp2
 70
     1
102
RTVSPropertyOp3
 70
     1
102
RTVSPropertyOp4
 70
     1
102
RTVSPropertyOp5
 70
     1
102
RTVSPropertyOp6
 70
     1
102
RTVSPropertyOp7
 70
     1
102
RTVSPropertyOp8
 70
     1
102
RTVSPropertyOp9
 70
     1
102
RTVSPropertyOp10
 70
     1
102
RTVSPropertyOp11
 70
     1
102
RTVSPropertyOp12
 70
     1
102
RTVSPropertyOp13
 70
     1
102
RTVSPropertyOp14
 70
     1
102
RTVSPropertyOp15
 70
     1
102
RTVSPropertyOp16
 70
     1
102
RTVSPropertyOp17
 70
     1
102
RTVSPropertyOp18
 70
     1
102
RTVSPropertyOp19
 70
     1
102
RTVSPropertyOp20
 70
     1
102
RTVSPropertyOp21
 70
     1
102
RTVSPropertyOp22
 70
     1
102
RTVSPropertyOp23
 70
     1
102
RTVSPropertyOp24
 70
     1
102
RTVSPropertyOp25
 70
     1
102
RTVSPropertyOp26
 70
     1
102
RTVSPropertyOp27
 70
     1
  0
XRECORD
  5
328
102
{ACAD_REACTORS
330
327
102
}
330
327
100
AcDbXrecord
280
     1
102
RTVSPropertyOp0
 70
     1
102
RTVSPropertyOp1
 70
     1
102
RTVSPropertyOp2
 70
     1
102
RTVSPropertyOp3
 70
     1
102
RTVSPropertyOp4
 70
     1
102
RTVSPropertyOp5
 70
     1
102
RTVSPropertyOp6
 70
     1
102
RTVSPropertyOp7
 70
     1
102
RTVSPropertyOp8
 70
     1
102
RTVSPropertyOp9
 70
     1
102
RTVSPropertyOp10
 70
     1
102
RTVSPropertyOp11
 70
     1
102
RTVSPropertyOp12
 70
     1
102
RTVSPropertyOp13
 70
     1
102
RTVSPropertyOp14
 70
     1
102
RTVSPropertyOp15
 70
     1
102
RTVSPropertyOp16
 70
     1
102
RTVSPropertyOp17
 70
     1
102
RTVSPropertyOp18
 70
     1
102
RTVSPropertyOp19
 70
     1
102
RTVSPropertyOp20
 70
     1
102
RTVSPropertyOp21
 70
     1
102
RTVSPropertyOp22
 70
     1
102
RTVSPropertyOp23
 70
     1
102
RTVSPropertyOp24
 70
     1
102
RTVSPropertyOp25
 70
     1
102
RTVSPropertyOp26
 70
     1
102
RTVSPropertyOp27
 70
     1
  0
ENDSEC
  0
EOF
