  0
SECTION
  2
HEADER
  9
$ACADVER
  1
AC1015
  9
$ACADMAINTVER
 70
     6
  9
$DWGCODEPAGE
  3
ANSI_932
  9
$INSBASE
 10
0.0
 20
0.0
 30
0.0
  9
$EXTMIN
 10
174.809786372206
 20
76.6920190786438
 30
0.0
  9
$EXTMAX
 10
402.050698471508
 20
228.161039647941
 30
0.0
  9
$LIMMIN
 10
0.0
 20
0.0
  9
$LIMMAX
 10
12.0
 20
9.0
  9
$ORTHOMODE
 70
     0
  9
$REGENMODE
 70
     1
  9
$FILLMODE
 70
     1
  9
$QTEXTMODE
 70
     0
  9
$MIRRTEXT
 70
     1
  9
$LTSCALE
 40
1.0
  9
$ATTMODE
 70
     1
  9
$TEXTSIZE
 40
0.2
  9
$TRACEWID
 40
0.05
  9
$TEXTSTYLE
  7
Standard
  9
$CLAYER
  8
0
  9
$CELTYPE
  6
ByLayer
  9
$CECOLOR
 62
   256
  9
$CELTSCALE
 40
1.0
  9
$DISPSILH
 70
     0
  9
$DIMSCALE
 40
1.0
  9
$DIMASZ
 40
0.18
  9
$DIMEXO
 40
0.0625
  9
$DIMDLI
 40
0.38
  9
$DIMRND
 40
0.0
  9
$DIMDLE
 40
0.0
  9
$DIMEXE
 40
0.18
  9
$DIMTP
 40
0.0
  9
$DIMTM
 40
0.0
  9
$DIMTXT
 40
0.18
  9
$DIMCEN
 40
0.09
  9
$DIMTSZ
 40
0.0
  9
$DIMTOL
 70
     0
  9
$DIMLIM
 70
     0
  9
$DIMTIH
 70
     1
  9
$DIMTOH
 70
     1
  9
$DIMSE1
 70
     0
  9
$DIMSE2
 70
     0
  9
$DIMTAD
 70
     0
  9
$DIMZIN
 70
     0
  9
$DIMBLK
  1

  9
$DIMASO
 70
     1
  9
$DIMSHO
 70
     1
  9
$DIMPOST
  1

  9
$DIMAPOST
  1

  9
$DIMALT
 70
     0
  9
$DIMALTD
 70
     2
  9
$DIMALTF
 40
25.4
  9
$DIMLFAC
 40
1.0
  9
$DIMTOFL
 70
     0
  9
$DIMTVP
 40
0.0
  9
$DIMTIX
 70
     0
  9
$DIMSOXD
 70
     0
  9
$DIMSAH
 70
     0
  9
$DIMBLK1
  1

  9
$DIMBLK2
  1

  9
$DIMSTYLE
  2
Standard
  9
$DIMCLRD
 70
     0
  9
$DIMCLRE
 70
     0
  9
$DIMCLRT
 70
     0
  9
$DIMTFAC
 40
1.0
  9
$DIMGAP
 40
0.09
  9
$DIMJUST
 70
     0
  9
$DIMSD1
 70
     0
  9
$DIMSD2
 70
     0
  9
$DIMTOLJ
 70
     1
  9
$DIMTZIN
 70
     0
  9
$DIMALTZ
 70
     0
  9
$DIMALTTZ
 70
     0
  9
$DIMUPT
 70
     0
  9
$DIMDEC
 70
     4
  9
$DIMTDEC
 70
     4
  9
$DIMALTU
 70
     2
  9
$DIMALTTD
 70
     2
  9
$DIMTXSTY
  7
Standard
  9
$DIMAUNIT
 70
     0
  9
$DIMADEC
 70
     0
  9
$DIMALTRND
 40
0.0
  9
$DIMAZIN
 70
     0
  9
$DIMDSEP
 70
    46
  9
$DIMATFIT
 70
     3
  9
$DIMFRAC
 70
     0
  9
$DIMLDRBLK
  1

  9
$DIMLUNIT
 70
     2
  9
$DIMLWD
 70
    -2
  9
$DIMLWE
 70
    -2
  9
$DIMTMOVE
 70
     0
  9
$LUNITS
 70
     2
  9
$LUPREC
 70
     4
  9
$SKETCHINC
 40
0.1
  9
$FILLETRAD
 40
0.5
  9
$AUNITS
 70
     0
  9
$AUPREC
 70
     0
  9
$MENU
  1
.
  9
$ELEVATION
 40
0.0
  9
$PELEVATION
 40
0.0
  9
$THICKNESS
 40
0.0
  9
$LIMCHECK
 70
     0
  9
$CHAMFERA
 40
0.5
  9
$CHAMFERB
 40
0.5
  9
$CHAMFERC
 40
1.0
  9
$CHAMFERD
 40
0.0
  9
$SKPOLY
 70
     0
  9
$TDCREATE
 40
2457624.669343206
  9
$TDUCREATE
 40
2457624.294343206
  9
$TDUPDATE
 40
2457624.669343218
  9
$TDUUPDATE
 40
2457624.294343218
  9
$TDINDWG
 40
0.0000000116
  9
$TDUSRTIMER
 40
0.0000000116
  9
$USRTIMER
 70
     1
  9
$ANGBASE
 50
0.0
  9
$ANGDIR
 70
     0
  9
$PDMODE
 70
     0
  9
$PDSIZE
 40
0.0
  9
$PLINEWID
 40
0.0
  9
$SPLFRAME
 70
     0
  9
$SPLINETYPE
 70
     6
  9
$SPLINESEGS
 70
     8
  9
$HANDSEED
  5
20A
  9
$SURFTAB1
 70
     6
  9
$SURFTAB2
 70
     6
  9
$SURFTYPE
 70
     6
  9
$SURFU
 70
     6
  9
$SURFV
 70
     6
  9
$UCSBASE
  2

  9
$UCSNAME
  2

  9
$UCSORG
 10
0.0
 20
0.0
 30
0.0
  9
$UCSXDIR
 10
1.0
 20
0.0
 30
0.0
  9
$UCSYDIR
 10
0.0
 20
1.0
 30
0.0
  9
$UCSORTHOREF
  2

  9
$UCSORTHOVIEW
 70
     0
  9
$UCSORGTOP
 10
0.0
 20
0.0
 30
0.0
  9
$UCSORGBOTTOM
 10
0.0
 20
0.0
 30
0.0
  9
$UCSORGLEFT
 10
0.0
 20
0.0
 30
0.0
  9
$UCSORGRIGHT
 10
0.0
 20
0.0
 30
0.0
  9
$UCSORGFRONT
 10
0.0
 20
0.0
 30
0.0
  9
$UCSORGBACK
 10
0.0
 20
0.0
 30
0.0
  9
$PUCSBASE
  2

  9
$PUCSNAME
  2

  9
$PUCSORG
 10
0.0
 20
0.0
 30
0.0
  9
$PUCSXDIR
 10
1.0
 20
0.0
 30
0.0
  9
$PUCSYDIR
 10
0.0
 20
1.0
 30
0.0
  9
$PUCSORTHOREF
  2

  9
$PUCSORTHOVIEW
 70
     0
  9
$PUCSORGTOP
 10
0.0
 20
0.0
 30
0.0
  9
$PUCSORGBOTTOM
 10
0.0
 20
0.0
 30
0.0
  9
$PUCSORGLEFT
 10
0.0
 20
0.0
 30
0.0
  9
$PUCSORGRIGHT
 10
0.0
 20
0.0
 30
0.0
  9
$PUCSORGFRONT
 10
0.0
 20
0.0
 30
0.0
  9
$PUCSORGBACK
 10
0.0
 20
0.0
 30
0.0
  9
$USERI1
 70
     0
  9
$USERI2
 70
     0
  9
$USERI3
 70
     0
  9
$USERI4
 70
     0
  9
$USERI5
 70
     0
  9
$USERR1
 40
18.0
  9
$USERR2
 40
0.0
  9
$USERR3
 40
0.0
  9
$USERR4
 40
0.0
  9
$USERR5
 40
0.0
  9
$WORLDVIEW
 70
     1
  9
$SHADEDGE
 70
     3
  9
$SHADEDIF
 70
    70
  9
$TILEMODE
 70
     1
  9
$MAXACTVP
 70
    64
  9
$PINSBASE
 10
0.0
 20
0.0
 30
0.0
  9
$PLIMCHECK
 70
     0
  9
$PEXTMIN
 10
1.00000000000000E+20
 20
1.00000000000000E+20
 30
1.00000000000000E+20
  9
$PEXTMAX
 10
-1.00000000000000E+20
 20
-1.00000000000000E+20
 30
-1.00000000000000E+20
  9
$PLIMMIN
 10
0.0
 20
0.0
  9
$PLIMMAX
 10
12.0
 20
9.0
  9
$UNITMODE
 70
     0
  9
$VISRETAIN
 70
     1
  9
$PLINEGEN
 70
     0
  9
$PSLTSCALE
 70
     1
  9
$TREEDEPTH
 70
  3020
  9
$CMLSTYLE
  2
Standard
  9
$CMLJUST
 70
     0
  9
$CMLSCALE
 40
1.0
  9
$PROXYGRAPHICS
 70
     1
  9
$MEASUREMENT
 70
     1
  9
$CELWEIGHT
370
    -1
  9
$ENDCAPS
280
     0
  9
$JOINSTYLE
280
     0
  9
$LWDISPLAY
290
     0
  9
$INSUNITS
 70
     1
  9
$HYPERLINKBASE
  1

  9
$STYLESHEET
  1

  9
$XEDIT
290
     1
  9
$CEPSNTYPE
380
     0
  9
$PSTYLEMODE
290
     1
  9
$FINGERPRINTGUID
  2
{0BEAFD53-30CB-4675-98D6-25B4F302006B}
  9
$VERSIONGUID
  2
{FAEB1C32-E019-11D5-929B-00C0DF256EC4}
  9
$EXTNAMES
290
     1
  9
$PSVPSCALE
 40
0.0
  9
$OLESTARTUP
290
     0
  0
ENDSEC
  0
SECTION
  2
CLASSES
  0
CLASS
  1
ACDBDICTIONARYWDFLT
  2
AcDbDictionaryWithDefault
  3
ObjectDBX Classes
 90
        0
280
     0
281
     0
  0
CLASS
  1
VISUALSTYLE
  2
AcDbVisualStyle
  3
ObjectDBX Classes
 90
     4095
280
     0
281
     0
  0
CLASS
  1
MATERIAL
  2
AcDbMaterial
  3
ObjectDBX Classes
 90
     1153
280
     0
281
     0
  0
CLASS
  1

  2
exOdDbCircle
  3

 90
        0
280
     0
281
     1
  0
CLASS
  1
DICTIONARYVAR
  2
AcDbDictionaryVar
  3
ObjectDBX Classes
 90
        0
280
     0
281
     0
  0
CLASS
  1
ACDBPLACEHOLDER
  2
AcDbPlaceHolder
  3
ObjectDBX Classes
 90
        0
280
     0
281
     0
  0
CLASS
  1
LAYOUT
  2
AcDbLayout
  3
ObjectDBX Classes
 90
        0
280
     0
281
     0
  0
ENDSEC
  0
SECTION
  2
TABLES
  0
TABLE
  2
VPORT
  5
8
330
0
100
AcDbSymbolTable
 70
     1
  0
VPORT
  5
29
330
8
100
AcDbSymbolTableRecord
100
AcDbViewportTableRecord
  2
*Active
 70
     0
 10
0.0
 20
0.0
 11
1.0
 21
1.0
 12
288.430242421857
 22
152.4265293632924
 13
0.0
 23
0.0
 14
0.5
 24
0.5
 15
0.5
 25
0.5
 16
0.0
 26
0.0
 36
1.0
 17
0.0
 27
0.0
 37
0.0
 40
166.615922626227
 41
1.60267857142857
 42
50.0
 43
0.0
 44
0.0
 50
0.0
 51
0.0
 71
     0
 72
   100
 73
     1
 74
     3
 75
     0
 76
     0
 77
     0
 78
     0
281
     0
 65
     1
110
0.0
120
0.0
130
0.0
111
1.0
121
0.0
131
0.0
112
0.0
122
1.0
132
0.0
 79
     0
146
0.0
  0
ENDTAB
  0
TABLE
  2
LTYPE
  5
5
330
0
100
AcDbSymbolTable
 70
     8
  0
LTYPE
  5
14
330
5
100
AcDbSymbolTableRecord
100
AcDbLinetypeTableRecord
  2
ByBlock
 70
     0
  3

 72
    65
 73
     0
 40
0.0
  0
LTYPE
  5
15
330
5
100
AcDbSymbolTableRecord
100
AcDbLinetypeTableRecord
  2
ByLayer
 70
     0
  3

 72
    65
 73
     0
 40
0.0
  0
LTYPE
  5
16
330
5
100
AcDbSymbolTableRecord
100
AcDbLinetypeTableRecord
  2
Continuous
 70
     0
  3
Solid line
 72
    65
 73
     0
 40
0.0
  0
LTYPE
  5
3F
330
5
100
AcDbSymbolTableRecord
100
AcDbLinetypeTableRecord
  2
DASHED
 70
     0
  3
Dashed
 72
    65
 73
     2
 40
15.0
 49
7.0
 74
     0
 49
-8.0
 74
     0
  0
LTYPE
  5
40
330
5
100
AcDbSymbolTableRecord
100
AcDbLinetypeTableRecord
  2
DOTTED
 70
     0
  3
Dotted
 72
    65
 73
     2
 40
1.0
 49
0.0
 74
     0
 49
-1.0
 74
     0
  0
LTYPE
  5
41
330
5
100
AcDbSymbolTableRecord
100
AcDbLinetypeTableRecord
  2
DOT_CENTER
 70
     0
  3
Dot_Center
 72
    65
 73
     4
 40
14.0
 49
12.0
 74
     0
 49
-1.0
 74
     0
 49
0.0
 74
     0
 49
-1.0
 74
     0
  0
LTYPE
  5
42
330
5
100
AcDbSymbolTableRecord
100
AcDbLinetypeTableRecord
  2
LONG_DASHED
 70
     0
  3
Long_Dashed
 72
    65
 73
     2
 40
15.0
 49
10.0
 74
     0
 49
-5.0
 74
     0
  0
LTYPE
  5
43
330
5
100
AcDbSymbolTableRecord
100
AcDbLinetypeTableRecord
  2
DASH_CENTER
 70
     0
  3
Dash_Center
 72
    65
 73
     4
 40
14.0
 49
11.0
 74
     0
 49
-1.0
 74
     0
 49
1.0
 74
     0
 49
-1.0
 74
     0
  0
LTYPE
  5
44
330
5
100
AcDbSymbolTableRecord
100
AcDbLinetypeTableRecord
  2
PHANTOM
 70
     0
  3
Phantom
 72
    65
 73
     6
 40
13.0
 49
10.0
 74
     0
 49
-1.0
 74
     0
 49
0.0
 74
     0
 49
-1.0
 74
     0
 49
0.0
 74
     0
 49
-1.0
 74
     0
  0
LTYPE
  5
45
330
5
100
AcDbSymbolTableRecord
100
AcDbLinetypeTableRecord
  2
CENTER_DASH_DASH
 70
     0
  3
Center_Dash_Dash
 72
    65
 73
     6
 40
14.0
 49
9.0
 74
     0
 49
-1.0
 74
     0
 49
1.0
 74
     0
 49
-1.0
 74
     0
 49
1.0
 74
     0
 49
-1.0
 74
     0
  0
ENDTAB
  0
TABLE
  2
LAYER
  5
2
330
0
100
AcDbSymbolTable
 70
     4
  0
LAYER
  5
10
330
2
100
AcDbSymbolTableRecord
100
AcDbLayerTableRecord
  2
0
 70
     0
 62
     7
  6
Continuous
370
    -3
390
F
  0
LAYER
  5
46
330
2
100
AcDbSymbolTableRecord
100
AcDbLayerTableRecord
  2
1
 70
     0
 62
     7
  6
Continuous
370
    -3
390
F
  0
LAYER
  5
47
330
2
100
AcDbSymbolTableRecord
100
AcDbLayerTableRecord
  2
6
 70
     0
 62
     7
  6
Continuous
370
    -3
390
F
  0
LAYER
  5
48
330
2
100
AcDbSymbolTableRecord
100
AcDbLayerTableRecord
  2
9
 70
     0
 62
     7
  6
Continuous
370
    -3
390
F
  0
ENDTAB
  0
TABLE
  2
STYLE
  5
3
330
0
100
AcDbSymbolTable
 70
     1
  0
STYLE
  5
11
330
3
100
AcDbSymbolTableRecord
100
AcDbTextStyleTableRecord
  2
Standard
 70
     0
 40
0.0
 41
1.0
 50
0.0
 71
     0
 42
0.2
  3
txt
  4

  0
ENDTAB
  0
TABLE
  2
VIEW
  5
6
330
0
100
AcDbSymbolTable
 70
     0
  0
ENDTAB
  0
TABLE
  2
UCS
  5
7
330
0
100
AcDbSymbolTable
 70
     0
  0
ENDTAB
  0
TABLE
  2
APPID
  5
9
330
0
100
AcDbSymbolTable
 70
     1
  0
APPID
  5
12
330
9
100
AcDbSymbolTableRecord
100
AcDbRegAppTableRecord
  2
ACAD
 70
     0
  0
ENDTAB
  0
TABLE
  2
DIMSTYLE
  5
A
330
0
100
AcDbSymbolTable
 70
     1
100
AcDbDimStyleTable
  0
DIMSTYLE
105
27
330
A
100
AcDbSymbolTableRecord
100
AcDbDimStyleTableRecord
  2
Standard
 70
     0
340
11
  0
ENDTAB
  0
TABLE
  2
BLOCK_RECORD
  5
1
330
0
100
AcDbSymbolTable
 70
     1
  0
BLOCK_RECORD
  5
1F
330
1
100
AcDbSymbolTableRecord
100
AcDbBlockTableRecord
  2
*Model_Space
340
22
  0
BLOCK_RECORD
  5
1B
330
1
100
AcDbSymbolTableRecord
100
AcDbBlockTableRecord
  2
*Paper_Space
340
1E
  0
BLOCK_RECORD
  5
23
330
1
100
AcDbSymbolTableRecord
100
AcDbBlockTableRecord
  2
*Paper_Space0
340
26
  0
ENDTAB
  0
ENDSEC
  0
SECTION
  2
BLOCKS
  0
BLOCK
  5
20
330
1F
100
AcDbEntity
  8
0
100
AcDbBlockBegin
  2
*Model_Space
 70
     0
 10
0.0
 20
0.0
 30
0.0
  3
*Model_Space
  1

  0
ENDBLK
  5
21
330
1F
100
AcDbEntity
  8
0
100
AcDbBlockEnd
  0
BLOCK
  5
1C
330
1B
100
AcDbEntity
 67
     1
  8
0
100
AcDbBlockBegin
  2
*Paper_Space
 70
     0
 10
0.0
 20
0.0
 30
0.0
  3
*Paper_Space
  1

  0
ENDBLK
  5
1D
330
1B
100
AcDbEntity
 67
     1
  8
0
100
AcDbBlockEnd
  0
BLOCK
  5
24
330
23
100
AcDbEntity
  8
0
100
AcDbBlockBegin
  2
*Paper_Space0
 70
     0
 10
0.0
 20
0.0
 30
0.0
  3
*Paper_Space0
  1

  0
ENDBLK
  5
25
330
23
100
AcDbEntity
  8
0
100
AcDbBlockEnd
  0
ENDSEC
  0
SECTION
  2
ENTITIES
  0
LINE
  5
49
330
1F
100
AcDbEntity
  8
1
  6
Continuous
 62
     4
100
AcDbLine
 10
289.628244948162
 20
150.25029769966
 30
0.0
 11
289.628244948162
 21
149.05029769966
 31
0.0
  0
LINE
  5
4A
330
1F
100
AcDbEntity
  8
1
  6
Continuous
 62
     4
100
AcDbLine
 10
288.278244948162
 20
149.65029769966
 30
0.0
 11
290.078244948162
 21
149.65029769966
 31
0.0
  0
LINE
  5
4B
330
1F
100
AcDbEntity
  8
1
  6
Continuous
 62
     4
100
AcDbLine
 10
289.628244948162
 20
152.05029769966
 30
0.0
 11
288.278244948162
 21
149.65029769966
 31
0.0
  0
LINE
  5
4C
330
1F
100
AcDbEntity
  8
1
  6
Continuous
 62
     4
100
AcDbLine
 10
286.178244948162
 20
149.05029769966
 30
0.0
 11
287.378244948162
 21
152.05029769966
 31
0.0
  0
LINE
  5
4D
330
1F
100
AcDbEntity
  8
1
  6
Continuous
 62
     4
100
AcDbLine
 10
284.603244948162
 20
149.05029769966
 30
0.0
 11
283.478244948162
 21
149.05029769966
 31
0.0
  0
LINE
  5
4E
330
1F
100
AcDbEntity
  8
1
  6
Continuous
 62
     4
100
AcDbLine
 10
284.828244948162
 20
149.12529769966
 30
0.0
 11
284.603244948162
 21
149.05029769966
 31
0.0
  0
LINE
  5
4F
330
1F
100
AcDbEntity
  8
1
  6
Continuous
 62
     4
100
AcDbLine
 10
285.053244948162
 20
149.27529769966
 30
0.0
 11
284.828244948162
 21
149.12529769966
 31
0.0
  0
LINE
  5
50
330
1F
100
AcDbEntity
  8
1
  6
Continuous
 62
     4
100
AcDbLine
 10
285.203244948162
 20
149.50029769966
 30
0.0
 11
285.053244948162
 21
149.27529769966
 31
0.0
  0
LINE
  5
51
330
1F
100
AcDbEntity
  8
1
  6
Continuous
 62
     4
100
AcDbLine
 10
285.278244948162
 20
149.80029769966
 30
0.0
 11
285.203244948162
 21
149.50029769966
 31
0.0
  0
LINE
  5
52
330
1F
100
AcDbEntity
  8
1
  6
Continuous
 62
     4
100
AcDbLine
 10
285.278244948162
 20
150.17529769966
 30
0.0
 11
285.278244948162
 21
149.80029769966
 31
0.0
  0
LINE
  5
53
330
1F
100
AcDbEntity
  8
1
  6
Continuous
 62
     4
100
AcDbLine
 10
285.203244948162
 20
150.47529769966
 30
0.0
 11
285.278244948162
 21
150.17529769966
 31
0.0
  0
LINE
  5
54
330
1F
100
AcDbEntity
  8
1
  6
Continuous
 62
     4
100
AcDbLine
 10
285.128244948162
 20
150.62529769966
 30
0.0
 11
285.203244948162
 21
150.47529769966
 31
0.0
  0
LINE
  5
55
330
1F
100
AcDbEntity
  8
1
  6
Continuous
 62
     4
100
AcDbLine
 10
284.978244948162
 20
150.77529769966
 30
0.0
 11
285.128244948162
 21
150.62529769966
 31
0.0
  0
LINE
  5
56
330
1F
100
AcDbEntity
  8
1
  6
Continuous
 62
     4
100
AcDbLine
 10
284.678244948162
 20
150.85029769966
 30
0.0
 11
284.978244948162
 21
150.77529769966
 31
0.0
  0
LINE
  5
57
330
1F
100
AcDbEntity
  8
1
  6
Continuous
 62
     4
100
AcDbLine
 10
284.903244948162
 20
150.92529769966
 30
0.0
 11
284.678244948162
 21
150.85029769966
 31
0.0
  0
LINE
  5
58
330
1F
100
AcDbEntity
  8
1
  6
Continuous
 62
     4
100
AcDbLine
 10
285.053244948162
 20
151.00029769966
 30
0.0
 11
284.903244948162
 21
150.92529769966
 31
0.0
  0
LINE
  5
59
330
1F
100
AcDbEntity
  8
1
  6
Continuous
 62
     4
100
AcDbLine
 10
285.203244948162
 20
151.15029769966
 30
0.0
 11
285.053244948162
 21
151.00029769966
 31
0.0
  0
LINE
  5
5A
330
1F
100
AcDbEntity
  8
1
  6
Continuous
 62
     4
100
AcDbLine
 10
285.278244948162
 20
151.37529769966
 30
0.0
 11
285.203244948162
 21
151.15029769966
 31
0.0
  0
LINE
  5
5B
330
1F
100
AcDbEntity
  8
1
  6
Continuous
 62
     4
100
AcDbLine
 10
285.278244948162
 20
151.60029769966
 30
0.0
 11
285.278244948162
 21
151.37529769966
 31
0.0
  0
LINE
  5
5C
330
1F
100
AcDbEntity
  8
1
  6
Continuous
 62
     4
100
AcDbLine
 10
285.203244948162
 20
151.82529769966
 30
0.0
 11
285.278244948162
 21
151.60029769966
 31
0.0
  0
LINE
  5
5D
330
1F
100
AcDbEntity
  8
1
  6
Continuous
 62
     4
100
AcDbLine
 10
284.978244948162
 20
151.97529769966
 30
0.0
 11
285.203244948162
 21
151.82529769966
 31
0.0
  0
LINE
  5
5E
330
1F
100
AcDbEntity
  8
1
  6
Continuous
 62
     4
100
AcDbLine
 10
284.603244948162
 20
152.05029769966
 30
0.0
 11
284.978244948162
 21
151.97529769966
 31
0.0
  0
LINE
  5
5F
330
1F
100
AcDbEntity
  8
1
  6
Continuous
 62
     4
100
AcDbLine
 10
283.478244948162
 20
152.05029769966
 30
0.0
 11
284.603244948162
 21
152.05029769966
 31
0.0
  0
LINE
  5
60
330
1F
100
AcDbEntity
  8
1
  6
Continuous
 62
     4
100
AcDbLine
 10
283.928244948162
 20
150.85029769966
 30
0.0
 11
284.678244948162
 21
150.85029769966
 31
0.0
  0
LINE
  5
61
330
1F
100
AcDbEntity
  8
1
  6
Continuous
 62
     4
100
AcDbLine
 10
281.453244948162
 20
149.05029769966
 30
0.0
 11
282.578244948162
 21
149.05029769966
 31
0.0
  0
LINE
  5
62
330
1F
100
AcDbEntity
  8
1
  6
Continuous
 62
     4
100
AcDbLine
 10
281.153244948162
 20
149.12529769966
 30
0.0
 11
281.453244948162
 21
149.05029769966
 31
0.0
  0
LINE
  5
63
330
1F
100
AcDbEntity
  8
1
  6
Continuous
 62
     4
100
AcDbLine
 10
281.003244948162
 20
149.20029769966
 30
0.0
 11
281.153244948162
 21
149.12529769966
 31
0.0
  0
LINE
  5
64
330
1F
100
AcDbEntity
  8
1
  6
Continuous
 62
     4
100
AcDbLine
 10
280.853244948162
 20
149.35029769966
 30
0.0
 11
281.003244948162
 21
149.20029769966
 31
0.0
  0
LINE
  5
65
330
1F
100
AcDbEntity
  8
1
  6
Continuous
 62
     4
100
AcDbLine
 10
280.778244948162
 20
149.65029769966
 30
0.0
 11
280.853244948162
 21
149.35029769966
 31
0.0
  0
LINE
  5
66
330
1F
100
AcDbEntity
  8
1
  6
Continuous
 62
     4
100
AcDbLine
 10
280.778244948162
 20
150.55029769966
 30
0.0
 11
280.778244948162
 21
149.65029769966
 31
0.0
  0
LINE
  5
67
330
1F
100
AcDbEntity
  8
1
  6
Continuous
 62
     4
100
AcDbLine
 10
280.853244948162
 20
150.85029769966
 30
0.0
 11
280.778244948162
 21
150.55029769966
 31
0.0
  0
LINE
  5
68
330
1F
100
AcDbEntity
  8
1
  6
Continuous
 62
     4
100
AcDbLine
 10
281.003244948162
 20
151.00029769966
 30
0.0
 11
280.853244948162
 21
150.85029769966
 31
0.0
  0
LINE
  5
69
330
1F
100
AcDbEntity
  8
1
  6
Continuous
 62
     4
100
AcDbLine
 10
281.153244948162
 20
151.07529769966
 30
0.0
 11
281.003244948162
 21
151.00029769966
 31
0.0
  0
LINE
  5
6A
330
1F
100
AcDbEntity
  8
1
  6
Continuous
 62
     4
100
AcDbLine
 10
281.453244948162
 20
151.15029769966
 30
0.0
 11
281.153244948162
 21
151.07529769966
 31
0.0
  0
LINE
  5
6B
330
1F
100
AcDbEntity
  8
1
  6
Continuous
 62
     4
100
AcDbLine
 10
282.578244948162
 20
151.15029769966
 30
0.0
 11
281.453244948162
 21
151.15029769966
 31
0.0
  0
LINE
  5
6C
330
1F
100
AcDbEntity
  8
1
  6
Continuous
 62
     4
100
AcDbLine
 10
277.778244948162
 20
149.05029769966
 30
0.0
 11
277.778244948162
 21
150.55029769966
 31
0.0
  0
LINE
  5
6D
330
1F
100
AcDbEntity
  8
1
  6
Continuous
 62
     4
100
AcDbLine
 10
278.978244948162
 20
150.55029769966
 30
0.0
 11
279.878244948162
 21
149.05029769966
 31
0.0
  0
LINE
  5
6E
330
1F
100
AcDbEntity
  8
1
  6
Continuous
 62
     4
100
AcDbLine
 10
279.203244948162
 20
150.55029769966
 30
0.0
 11
278.978244948162
 21
150.55029769966
 31
0.0
  0
LINE
  5
6F
330
1F
100
AcDbEntity
  8
1
  6
Continuous
 62
     4
100
AcDbLine
 10
279.503244948162
 20
150.62529769966
 30
0.0
 11
279.203244948162
 21
150.55029769966
 31
0.0
  0
LINE
  5
70
330
1F
100
AcDbEntity
  8
1
  6
Continuous
 62
     4
100
AcDbLine
 10
279.728244948162
 20
150.77529769966
 30
0.0
 11
279.503244948162
 21
150.62529769966
 31
0.0
  0
LINE
  5
71
330
1F
100
AcDbEntity
  8
1
  6
Continuous
 62
     4
100
AcDbLine
 10
279.803244948162
 20
150.92529769966
 30
0.0
 11
279.728244948162
 21
150.77529769966
 31
0.0
  0
LINE
  5
72
330
1F
100
AcDbEntity
  8
1
  6
Continuous
 62
     4
100
AcDbLine
 10
279.878244948162
 20
151.15029769966
 30
0.0
 11
279.803244948162
 21
150.92529769966
 31
0.0
  0
LINE
  5
73
330
1F
100
AcDbEntity
  8
1
  6
Continuous
 62
     4
100
AcDbLine
 10
279.878244948162
 20
151.45029769966
 30
0.0
 11
279.878244948162
 21
151.15029769966
 31
0.0
  0
LINE
  5
74
330
1F
100
AcDbEntity
  8
1
  6
Continuous
 62
     4
100
AcDbLine
 10
279.803244948162
 20
151.67529769966
 30
0.0
 11
279.878244948162
 21
151.45029769966
 31
0.0
  0
LINE
  5
75
330
1F
100
AcDbEntity
  8
1
  6
Continuous
 62
     4
100
AcDbLine
 10
279.728244948162
 20
151.82529769966
 30
0.0
 11
279.803244948162
 21
151.67529769966
 31
0.0
  0
LINE
  5
76
330
1F
100
AcDbEntity
  8
1
  6
Continuous
 62
     4
100
AcDbLine
 10
279.503244948162
 20
151.97529769966
 30
0.0
 11
279.728244948162
 21
151.82529769966
 31
0.0
  0
LINE
  5
77
330
1F
100
AcDbEntity
  8
1
  6
Continuous
 62
     4
100
AcDbLine
 10
279.203244948162
 20
152.05029769966
 30
0.0
 11
279.503244948162
 21
151.97529769966
 31
0.0
  0
LINE
  5
78
330
1F
100
AcDbEntity
  8
1
  6
Continuous
 62
     4
100
AcDbLine
 10
277.778244948162
 20
152.05029769966
 30
0.0
 11
279.203244948162
 21
152.05029769966
 31
0.0
  0
LINE
  5
79
330
1F
100
AcDbEntity
  8
1
  6
Continuous
 62
     4
100
AcDbLine
 10
277.778244948162
 20
150.55029769966
 30
0.0
 11
277.778244948162
 21
152.05029769966
 31
0.0
  0
LINE
  5
7A
330
1F
100
AcDbEntity
  8
1
  6
Continuous
 62
     4
100
AcDbLine
 10
278.978244948162
 20
150.55029769966
 30
0.0
 11
277.778244948162
 21
150.55029769966
 31
0.0
  0
LINE
  5
7B
330
1F
100
AcDbEntity
  8
1
  6
Continuous
 62
     4
100
AcDbLine
 10
362.653776158413
 20
121.375837242672
 30
0.0
 11
361.652526158413
 21
121.375837242672
 31
0.0
  0
LINE
  5
7C
330
1F
100
AcDbEntity
  8
1
  6
Continuous
 62
     4
100
AcDbLine
 10
362.854026158413
 20
121.450837242672
 30
0.0
 11
362.653776158413
 21
121.375837242672
 31
0.0
  0
LINE
  5
7D
330
1F
100
AcDbEntity
  8
1
  6
Continuous
 62
     4
100
AcDbLine
 10
363.054276158413
 20
121.600837242672
 30
0.0
 11
362.854026158413
 21
121.450837242672
 31
0.0
  0
LINE
  5
7E
330
1F
100
AcDbEntity
  8
1
  6
Continuous
 62
     4
100
AcDbLine
 10
363.187776158413
 20
121.825837242672
 30
0.0
 11
363.054276158413
 21
121.600837242672
 31
0.0
  0
LINE
  5
7F
330
1F
100
AcDbEntity
  8
1
  6
Continuous
 62
     4
100
AcDbLine
 10
363.254526158413
 20
122.125837242672
 30
0.0
 11
363.187776158413
 21
121.825837242672
 31
0.0
  0
LINE
  5
80
330
1F
100
AcDbEntity
  8
1
  6
Continuous
 62
     4
100
AcDbLine
 10
363.254526158413
 20
122.500837242672
 30
0.0
 11
363.254526158413
 21
122.125837242672
 31
0.0
  0
LINE
  5
81
330
1F
100
AcDbEntity
  8
1
  6
Continuous
 62
     4
100
AcDbLine
 10
363.187776158413
 20
122.800837242672
 30
0.0
 11
363.254526158413
 21
122.500837242672
 31
0.0
  0
LINE
  5
82
330
1F
100
AcDbEntity
  8
1
  6
Continuous
 62
     4
100
AcDbLine
 10
363.121026158413
 20
122.950837242672
 30
0.0
 11
363.187776158413
 21
122.800837242672
 31
0.0
  0
LINE
  5
83
330
1F
100
AcDbEntity
  8
1
  6
Continuous
 62
     4
100
AcDbLine
 10
362.987526158413
 20
123.100837242672
 30
0.0
 11
363.121026158413
 21
122.950837242672
 31
0.0
  0
LINE
  5
84
330
1F
100
AcDbEntity
  8
1
  6
Continuous
 62
     4
100
AcDbLine
 10
362.720526158413
 20
123.175837242672
 30
0.0
 11
362.987526158413
 21
123.100837242672
 31
0.0
  0
LINE
  5
85
330
1F
100
AcDbEntity
  8
1
  6
Continuous
 62
     4
100
AcDbLine
 10
362.920776158413
 20
123.250837242672
 30
0.0
 11
362.720526158413
 21
123.175837242672
 31
0.0
  0
LINE
  5
86
330
1F
100
AcDbEntity
  8
1
  6
Continuous
 62
     4
100
AcDbLine
 10
363.054276158413
 20
123.325837242672
 30
0.0
 11
362.920776158413
 21
123.250837242672
 31
0.0
  0
LINE
  5
87
330
1F
100
AcDbEntity
  8
1
  6
Continuous
 62
     4
100
AcDbLine
 10
363.187776158413
 20
123.475837242672
 30
0.0
 11
363.054276158413
 21
123.325837242672
 31
0.0
  0
LINE
  5
88
330
1F
100
AcDbEntity
  8
1
  6
Continuous
 62
     4
100
AcDbLine
 10
363.254526158413
 20
123.700837242672
 30
0.0
 11
363.187776158413
 21
123.475837242672
 31
0.0
  0
LINE
  5
89
330
1F
100
AcDbEntity
  8
1
  6
Continuous
 62
     4
100
AcDbLine
 10
363.254526158413
 20
123.925837242672
 30
0.0
 11
363.254526158413
 21
123.700837242672
 31
0.0
  0
LINE
  5
8A
330
1F
100
AcDbEntity
  8
1
  6
Continuous
 62
     4
100
AcDbLine
 10
363.187776158413
 20
124.150837242672
 30
0.0
 11
363.254526158413
 21
123.925837242672
 31
0.0
  0
LINE
  5
8B
330
1F
100
AcDbEntity
  8
1
  6
Continuous
 62
     4
100
AcDbLine
 10
362.987526158413
 20
124.300837242672
 30
0.0
 11
363.187776158413
 21
124.150837242672
 31
0.0
  0
LINE
  5
8C
330
1F
100
AcDbEntity
  8
1
  6
Continuous
 62
     4
100
AcDbLine
 10
362.653776158413
 20
124.375837242672
 30
0.0
 11
362.987526158413
 21
124.300837242672
 31
0.0
  0
LINE
  5
8D
330
1F
100
AcDbEntity
  8
1
  6
Continuous
 62
     4
100
AcDbLine
 10
361.652526158413
 20
124.375837242672
 30
0.0
 11
362.653776158413
 21
124.375837242672
 31
0.0
  0
LINE
  5
8E
330
1F
100
AcDbEntity
  8
1
  6
Continuous
 62
     4
100
AcDbLine
 10
362.053026158413
 20
123.175837242672
 30
0.0
 11
362.720526158413
 21
123.175837242672
 31
0.0
  0
LINE
  5
8F
330
1F
100
AcDbEntity
  8
1
  6
Continuous
 62
     4
100
AcDbLine
 10
360.851526158413
 20
124.375837242672
 30
0.0
 11
360.851526158413
 21
121.375837242672
 31
0.0
  0
LINE
  5
90
330
1F
100
AcDbEntity
  8
1
  6
Continuous
 62
     4
100
AcDbLine
 10
360.050526158413
 20
123.475837242672
 30
0.0
 11
360.851526158413
 21
124.375837242672
 31
0.0
  0
LINE
  5
91
330
1F
100
AcDbEntity
  8
1
  6
Continuous
 62
     4
100
AcDbLine
 10
358.949151158413
 20
121.563337242672
 30
0.0
 11
359.750151158413
 21
121.563337242672
 31
0.0
  0
LINE
  5
92
330
1F
100
AcDbEntity
  8
1
  6
Continuous
 62
     4
100
AcDbLine
 10
358.114776158413
 20
121.563337242672
 30
0.0
 11
358.949151158413
 21
121.563337242672
 31
0.0
  0
LINE
  5
93
330
1F
100
AcDbEntity
  8
1
  6
Continuous
 62
     4
100
AcDbLine
 10
358.949151158413
 20
122.988337242672
 30
0.0
 11
358.949151158413
 21
121.563337242672
 31
0.0
  0
LINE
  5
94
330
1F
100
AcDbEntity
  8
1
  6
Continuous
 62
     4
100
AcDbLine
 10
359.616651158413
 20
122.313337242672
 30
0.0
 11
358.348401158413
 21
122.313337242672
 31
0.0
  0
LINE
  5
95
330
1F
100
AcDbEntity
  8
1
  6
Continuous
 62
     4
100
AcDbLine
 10
359.316276158413
 20
123.063337242672
 30
0.0
 11
359.683401158413
 21
122.800837242672
 31
0.0
  0
LINE
  5
96
330
1F
100
AcDbEntity
  8
1
  6
Continuous
 62
     4
100
AcDbLine
 10
358.949151158413
 20
123.438337242672
 30
0.0
 11
359.316276158413
 21
123.063337242672
 31
0.0
  0
LINE
  5
97
330
1F
100
AcDbEntity
  8
1
  6
Continuous
 62
     4
100
AcDbLine
 10
358.582026158413
 20
124.000837242672
 30
0.0
 11
358.949151158413
 21
123.438337242672
 31
0.0
  0
LINE
  5
98
330
1F
100
AcDbEntity
  8
1
  6
Continuous
 62
     4
100
AcDbLine
 10
358.849026158413
 20
123.250837242672
 30
0.0
 11
358.281651158413
 21
122.800837242672
 31
0.0
  0
LINE
  5
99
330
1F
100
AcDbEntity
  8
1
  6
Continuous
 62
     4
100
AcDbLine
 10
359.449776158413
 20
124.188337242672
 30
0.0
 11
358.849026158413
 21
123.250837242672
 31
0.0
  0
LINE
  5
9A
330
1F
100
AcDbEntity
  8
1
  6
Continuous
 62
     4
100
AcDbLine
 10
358.348401158413
 20
124.188337242672
 30
0.0
 11
359.449776158413
 21
124.188337242672
 31
0.0
  0
LINE
  5
9B
330
1F
100
AcDbEntity
  8
1
  6
Continuous
 62
     4
100
AcDbLine
 10
357.814401158413
 20
124.000837242672
 30
0.0
 11
357.514026158413
 21
123.738337242672
 31
0.0
  0
LINE
  5
9C
330
1F
100
AcDbEntity
  8
1
  6
Continuous
 62
     4
100
AcDbLine
 10
358.114776158413
 20
124.375837242672
 30
0.0
 11
357.814401158413
 21
124.000837242672
 31
0.0
  0
LINE
  5
9D
330
1F
100
AcDbEntity
  8
1
  6
Continuous
 62
     4
100
AcDbLine
 10
357.747651158413
 20
123.175837242672
 30
0.0
 11
358.114776158413
 21
123.738337242672
 31
0.0
  0
LINE
  5
9E
330
1F
100
AcDbEntity
  8
1
  6
Continuous
 62
     4
100
AcDbLine
 10
357.380526158413
 20
122.688337242672
 30
0.0
 11
357.747651158413
 21
123.175837242672
 31
0.0
  0
LINE
  5
9F
330
1F
100
AcDbEntity
  8
1
  6
Continuous
 62
     4
100
AcDbLine
 10
357.814401158413
 20
121.375837242672
 30
0.0
 11
357.814401158413
 21
123.250837242672
 31
0.0
  0
LINE
  5
A0
330
1F
100
AcDbEntity
  8
1
  6
Continuous
 62
     4
100
AcDbLine
 10
356.846526158413
 20
123.925837242672
 30
0.0
 11
357.080151158413
 21
123.625837242672
 31
0.0
  0
LINE
  5
A1
330
1F
100
AcDbEntity
  8
1
  6
Continuous
 62
     4
100
AcDbLine
 10
356.646276158413
 20
123.738337242672
 30
0.0
 11
356.846526158413
 21
123.438337242672
 31
0.0
  0
LINE
  5
A2
330
1F
100
AcDbEntity
  8
1
  6
Continuous
 62
     4
100
AcDbLine
 10
356.345901158413
 20
122.988337242672
 30
0.0
 11
356.646276158413
 21
122.238337242672
 31
0.0
  0
LINE
  5
A3
330
1F
100
AcDbEntity
  8
1
  6
Continuous
 62
     4
100
AcDbLine
 10
356.279151158413
 20
123.625837242672
 30
0.0
 11
356.345901158413
 21
122.988337242672
 31
0.0
  0
LINE
  5
A4
330
1F
100
AcDbEntity
  8
1
  6
Continuous
 62
     4
100
AcDbLine
 10
356.279151158413
 20
123.063337242672
 30
0.0
 11
356.279151158413
 21
123.625837242672
 31
0.0
  0
LINE
  5
A5
330
1F
100
AcDbEntity
  8
1
  6
Continuous
 62
     4
100
AcDbLine
 10
356.179026158413
 20
122.500837242672
 30
0.0
 11
356.279151158413
 21
123.063337242672
 31
0.0
  0
LINE
  5
A6
330
1F
100
AcDbEntity
  8
1
  6
Continuous
 62
     4
100
AcDbLine
 10
355.978776158413
 20
121.938337242672
 30
0.0
 11
356.179026158413
 21
122.500837242672
 31
0.0
  0
LINE
  5
A7
330
1F
100
AcDbEntity
  8
1
  6
Continuous
 62
     4
100
AcDbLine
 10
355.678401158413
 20
121.675837242672
 30
0.0
 11
355.978776158413
 21
121.938337242672
 31
0.0
  0
LINE
  5
A8
330
1F
100
AcDbEntity
  8
1
  6
Continuous
 62
     4
100
AcDbLine
 10
355.378026158413
 20
121.563337242672
 30
0.0
 11
355.678401158413
 21
121.675837242672
 31
0.0
  0
LINE
  5
A9
330
1F
100
AcDbEntity
  8
1
  6
Continuous
 62
     4
100
AcDbLine
 10
355.077651158413
 20
121.675837242672
 30
0.0
 11
355.378026158413
 21
121.563337242672
 31
0.0
  0
LINE
  5
AA
330
1F
100
AcDbEntity
  8
1
  6
Continuous
 62
     4
100
AcDbLine
 10
354.944151158413
 20
121.938337242672
 30
0.0
 11
355.077651158413
 21
121.675837242672
 31
0.0
  0
LINE
  5
AB
330
1F
100
AcDbEntity
  8
1
  6
Continuous
 62
     4
100
AcDbLine
 10
354.944151158413
 20
122.313337242672
 30
0.0
 11
354.944151158413
 21
121.938337242672
 31
0.0
  0
LINE
  5
AC
330
1F
100
AcDbEntity
  8
1
  6
Continuous
 62
     4
100
AcDbLine
 10
355.077651158413
 20
122.800837242672
 30
0.0
 11
354.944151158413
 21
122.313337242672
 31
0.0
  0
LINE
  5
AD
330
1F
100
AcDbEntity
  8
1
  6
Continuous
 62
     4
100
AcDbLine
 10
355.311276158413
 20
123.175837242672
 30
0.0
 11
355.077651158413
 21
122.800837242672
 31
0.0
  0
LINE
  5
AE
330
1F
100
AcDbEntity
  8
1
  6
Continuous
 62
     4
100
AcDbLine
 10
355.611651158413
 20
123.550837242672
 30
0.0
 11
355.311276158413
 21
123.175837242672
 31
0.0
  0
LINE
  5
AF
330
1F
100
AcDbEntity
  8
1
  6
Continuous
 62
     4
100
AcDbLine
 10
355.311276158413
 20
123.438337242672
 30
0.0
 11
355.611651158413
 21
123.550837242672
 31
0.0
  0
LINE
  5
B0
330
1F
100
AcDbEntity
  8
1
  6
Continuous
 62
     4
100
AcDbLine
 10
354.944151158413
 20
123.363337242672
 30
0.0
 11
355.311276158413
 21
123.438337242672
 31
0.0
  0
LINE
  5
B1
330
1F
100
AcDbEntity
  8
1
  6
Continuous
 62
     4
100
AcDbLine
 10
353.675901158413
 20
121.488337242672
 30
0.0
 11
353.375526158413
 21
121.488337242672
 31
0.0
  0
LINE
  5
B2
330
1F
100
AcDbEntity
  8
1
  6
Continuous
 62
     4
100
AcDbLine
 10
353.675901158413
 20
123.925837242672
 30
0.0
 11
353.675901158413
 21
121.488337242672
 31
0.0
  0
LINE
  5
B3
330
1F
100
AcDbEntity
  8
1
  6
Continuous
 62
     4
100
AcDbLine
 10
353.075151158413
 20
123.625837242672
 30
0.0
 11
353.308776158413
 21
123.063337242672
 31
0.0
  0
LINE
  5
B4
330
1F
100
AcDbEntity
  8
1
  6
Continuous
 62
     4
100
AcDbLine
 10
353.509026158413
 20
124.113337242672
 30
0.0
 11
353.141901158413
 21
124.000837242672
 31
0.0
  0
LINE
  5
B5
330
1F
100
AcDbEntity
  8
1
  6
Continuous
 62
     4
100
AcDbLine
 10
354.043026158413
 20
124.300837242672
 30
0.0
 11
353.509026158413
 21
124.113337242672
 31
0.0
  0
LINE
  5
B6
330
1F
100
AcDbEntity
  8
1
  6
Continuous
 62
     4
100
AcDbLine
 10
353.976276158413
 20
123.063337242672
 30
0.0
 11
354.176526158413
 21
123.625837242672
 31
0.0
  0
LINE
  5
B7
330
1F
100
AcDbEntity
  8
1
  6
Continuous
 62
     4
100
AcDbLine
 10
352.941651158413
 20
122.688337242672
 30
0.0
 11
354.410151158413
 21
122.688337242672
 31
0.0
  0
LINE
  5
B8
330
1F
100
AcDbEntity
  8
1
  6
Continuous
 62
     4
100
AcDbLine
 10
352.174026158413
 20
123.925837242672
 30
0.0
 11
352.174026158413
 21
122.313337242672
 31
0.0
  0
LINE
  5
B9
330
1F
100
AcDbEntity
  8
1
  6
Continuous
 62
     4
100
AcDbLine
 10
352.708026158413
 20
123.925837242672
 30
0.0
 11
352.174026158413
 21
123.925837242672
 31
0.0
  0
LINE
  5
BA
330
1F
100
AcDbEntity
  8
1
  6
Continuous
 62
     4
100
AcDbLine
 10
352.708026158413
 20
122.313337242672
 30
0.0
 11
352.708026158413
 21
123.925837242672
 31
0.0
  0
LINE
  5
BB
330
1F
100
AcDbEntity
  8
1
  6
Continuous
 62
     4
100
AcDbLine
 10
352.174026158413
 20
122.313337242672
 30
0.0
 11
352.708026158413
 21
122.313337242672
 31
0.0
  0
LINE
  5
BC
330
1F
100
AcDbEntity
  8
1
  6
Continuous
 62
     4
100
AcDbLine
 10
402.050698471508
 20
226.286039647941
 30
0.0
 11
402.050698471508
 21
225.036039647941
 31
0.0
  0
LINE
  5
BD
330
1F
100
AcDbEntity
  8
1
  6
Continuous
 62
     4
100
AcDbLine
 10
401.939448471508
 20
227.036039647941
 30
0.0
 11
402.050698471508
 21
226.286039647941
 31
0.0
  0
LINE
  5
BE
330
1F
100
AcDbEntity
  8
1
  6
Continuous
 62
     4
100
AcDbLine
 10
401.716948471508
 20
227.536039647941
 30
0.0
 11
401.939448471508
 21
227.036039647941
 31
0.0
  0
LINE
  5
BF
330
1F
100
AcDbEntity
  8
1
  6
Continuous
 62
     4
100
AcDbLine
 10
401.494448471508
 20
227.786039647941
 30
0.0
 11
401.716948471508
 21
227.536039647941
 31
0.0
  0
LINE
  5
C0
330
1F
100
AcDbEntity
  8
1
  6
Continuous
 62
     4
100
AcDbLine
 10
401.160698471508
 20
228.036039647941
 30
0.0
 11
401.494448471508
 21
227.786039647941
 31
0.0
  0
LINE
  5
C1
330
1F
100
AcDbEntity
  8
1
  6
Continuous
 62
     4
100
AcDbLine
 10
400.826948471508
 20
228.161039647941
 30
0.0
 11
401.160698471508
 21
228.036039647941
 31
0.0
  0
LINE
  5
C2
330
1F
100
AcDbEntity
  8
1
  6
Continuous
 62
     4
100
AcDbLine
 10
400.604448471508
 20
228.161039647941
 30
0.0
 11
400.826948471508
 21
228.161039647941
 31
0.0
  0
LINE
  5
C3
330
1F
100
AcDbEntity
  8
1
  6
Continuous
 62
     4
100
AcDbLine
 10
400.270698471508
 20
228.036039647941
 30
0.0
 11
400.604448471508
 21
228.161039647941
 31
0.0
  0
LINE
  5
C4
330
1F
100
AcDbEntity
  8
1
  6
Continuous
 62
     4
100
AcDbLine
 10
399.936948471508
 20
227.786039647941
 30
0.0
 11
400.270698471508
 21
228.036039647941
 31
0.0
  0
LINE
  5
C5
330
1F
100
AcDbEntity
  8
1
  6
Continuous
 62
     4
100
AcDbLine
 10
399.714448471508
 20
227.536039647941
 30
0.0
 11
399.936948471508
 21
227.786039647941
 31
0.0
  0
LINE
  5
C6
330
1F
100
AcDbEntity
  8
1
  6
Continuous
 62
     4
100
AcDbLine
 10
399.491948471508
 20
227.036039647941
 30
0.0
 11
399.714448471508
 21
227.536039647941
 31
0.0
  0
LINE
  5
C7
330
1F
100
AcDbEntity
  8
1
  6
Continuous
 62
     4
100
AcDbLine
 10
399.380698471508
 20
226.286039647941
 30
0.0
 11
399.491948471508
 21
227.036039647941
 31
0.0
  0
LINE
  5
C8
330
1F
100
AcDbEntity
  8
1
  6
Continuous
 62
     4
100
AcDbLine
 10
399.380698471508
 20
225.036039647941
 30
0.0
 11
399.380698471508
 21
226.286039647941
 31
0.0
  0
LINE
  5
C9
330
1F
100
AcDbEntity
  8
1
  6
Continuous
 62
     4
100
AcDbLine
 10
399.491948471508
 20
224.286039647941
 30
0.0
 11
399.380698471508
 21
225.036039647941
 31
0.0
  0
LINE
  5
CA
330
1F
100
AcDbEntity
  8
1
  6
Continuous
 62
     4
100
AcDbLine
 10
399.714448471508
 20
223.786039647941
 30
0.0
 11
399.491948471508
 21
224.286039647941
 31
0.0
  0
LINE
  5
CB
330
1F
100
AcDbEntity
  8
1
  6
Continuous
 62
     4
100
AcDbLine
 10
399.936948471508
 20
223.536039647941
 30
0.0
 11
399.714448471508
 21
223.786039647941
 31
0.0
  0
LINE
  5
CC
330
1F
100
AcDbEntity
  8
1
  6
Continuous
 62
     4
100
AcDbLine
 10
400.270698471508
 20
223.286039647941
 30
0.0
 11
399.936948471508
 21
223.536039647941
 31
0.0
  0
LINE
  5
CD
330
1F
100
AcDbEntity
  8
1
  6
Continuous
 62
     4
100
AcDbLine
 10
400.604448471508
 20
223.161039647941
 30
0.0
 11
400.270698471508
 21
223.286039647941
 31
0.0
  0
LINE
  5
CE
330
1F
100
AcDbEntity
  8
1
  6
Continuous
 62
     4
100
AcDbLine
 10
400.826948471508
 20
223.161039647941
 30
0.0
 11
400.604448471508
 21
223.161039647941
 31
0.0
  0
LINE
  5
CF
330
1F
100
AcDbEntity
  8
1
  6
Continuous
 62
     4
100
AcDbLine
 10
401.160698471508
 20
223.286039647941
 30
0.0
 11
400.826948471508
 21
223.161039647941
 31
0.0
  0
LINE
  5
D0
330
1F
100
AcDbEntity
  8
1
  6
Continuous
 62
     4
100
AcDbLine
 10
401.494448471508
 20
223.536039647941
 30
0.0
 11
401.160698471508
 21
223.286039647941
 31
0.0
  0
LINE
  5
D1
330
1F
100
AcDbEntity
  8
1
  6
Continuous
 62
     4
100
AcDbLine
 10
401.716948471508
 20
223.786039647941
 30
0.0
 11
401.494448471508
 21
223.536039647941
 31
0.0
  0
LINE
  5
D2
330
1F
100
AcDbEntity
  8
1
  6
Continuous
 62
     4
100
AcDbLine
 10
401.939448471508
 20
224.286039647941
 30
0.0
 11
401.716948471508
 21
223.786039647941
 31
0.0
  0
LINE
  5
D3
330
1F
100
AcDbEntity
  8
1
  6
Continuous
 62
     4
100
AcDbLine
 10
402.050698471508
 20
225.036039647941
 30
0.0
 11
401.939448471508
 21
224.286039647941
 31
0.0
  0
LINE
  5
D4
330
1F
100
AcDbEntity
  8
1
  6
Continuous
 62
     4
100
AcDbLine
 10
395.375698471508
 20
223.161039647941
 30
0.0
 11
398.045698471508
 21
223.161039647941
 31
0.0
  0
LINE
  5
D5
330
1F
100
AcDbEntity
  8
1
  6
Continuous
 62
     4
100
AcDbLine
 10
397.823198471508
 20
226.411039647941
 30
0.0
 11
395.375698471508
 21
223.161039647941
 31
0.0
  0
LINE
  5
D6
330
1F
100
AcDbEntity
  8
1
  6
Continuous
 62
     4
100
AcDbLine
 10
398.045698471508
 20
226.911039647941
 30
0.0
 11
397.823198471508
 21
226.411039647941
 31
0.0
  0
LINE
  5
D7
330
1F
100
AcDbEntity
  8
1
  6
Continuous
 62
     4
100
AcDbLine
 10
398.045698471508
 20
227.411039647941
 30
0.0
 11
398.045698471508
 21
226.911039647941
 31
0.0
  0
LINE
  5
D8
330
1F
100
AcDbEntity
  8
1
  6
Continuous
 62
     4
100
AcDbLine
 10
397.823198471508
 20
227.786039647941
 30
0.0
 11
398.045698471508
 21
227.411039647941
 31
0.0
  0
LINE
  5
D9
330
1F
100
AcDbEntity
  8
1
  6
Continuous
 62
     4
100
AcDbLine
 10
397.489448471508
 20
228.036039647941
 30
0.0
 11
397.823198471508
 21
227.786039647941
 31
0.0
  0
LINE
  5
DA
330
1F
100
AcDbEntity
  8
1
  6
Continuous
 62
     4
100
AcDbLine
 10
397.044448471508
 20
228.161039647941
 30
0.0
 11
397.489448471508
 21
228.036039647941
 31
0.0
  0
LINE
  5
DB
330
1F
100
AcDbEntity
  8
1
  6
Continuous
 62
     4
100
AcDbLine
 10
396.376948471508
 20
228.161039647941
 30
0.0
 11
397.044448471508
 21
228.161039647941
 31
0.0
  0
LINE
  5
DC
330
1F
100
AcDbEntity
  8
1
  6
Continuous
 62
     4
100
AcDbLine
 10
395.931948471508
 20
228.036039647941
 30
0.0
 11
396.376948471508
 21
228.161039647941
 31
0.0
  0
LINE
  5
DD
330
1F
100
AcDbEntity
  8
1
  6
Continuous
 62
     4
100
AcDbLine
 10
395.598198471508
 20
227.786039647941
 30
0.0
 11
395.931948471508
 21
228.036039647941
 31
0.0
  0
LINE
  5
DE
330
1F
100
AcDbEntity
  8
1
  6
Continuous
 62
     4
100
AcDbLine
 10
395.375698471508
 20
227.411039647941
 30
0.0
 11
395.598198471508
 21
227.786039647941
 31
0.0
  0
LINE
  5
DF
330
1F
100
AcDbEntity
  8
1
  6
Continuous
 62
     4
100
AcDbLine
 10
391.315073471508
 20
227.723539647941
 30
0.0
 11
394.485698471508
 21
223.661039647941
 31
0.0
  0
LINE
  5
E0
330
1F
100
AcDbEntity
  8
1
  6
Continuous
 62
     4
100
AcDbLine
 10
391.315073471508
 20
223.661039647941
 30
0.0
 11
394.485698471508
 21
227.723539647941
 31
0.0
  0
LINE
  5
E1
330
1F
100
AcDbEntity
  8
1
  6
Continuous
 62
     4
100
AcDbLine
 10
388.589448471508
 20
223.161039647941
 30
0.0
 11
386.920698471508
 21
223.161039647941
 31
0.0
  0
LINE
  5
E2
330
1F
100
AcDbEntity
  8
1
  6
Continuous
 62
     4
100
AcDbLine
 10
388.923198471508
 20
223.286039647941
 30
0.0
 11
388.589448471508
 21
223.161039647941
 31
0.0
  0
LINE
  5
E3
330
1F
100
AcDbEntity
  8
1
  6
Continuous
 62
     4
100
AcDbLine
 10
389.256948471508
 20
223.536039647941
 30
0.0
 11
388.923198471508
 21
223.286039647941
 31
0.0
  0
LINE
  5
E4
330
1F
100
AcDbEntity
  8
1
  6
Continuous
 62
     4
100
AcDbLine
 10
389.479448471508
 20
223.911039647941
 30
0.0
 11
389.256948471508
 21
223.536039647941
 31
0.0
  0
LINE
  5
E5
330
1F
100
AcDbEntity
  8
1
  6
Continuous
 62
     4
100
AcDbLine
 10
389.590698471508
 20
224.411039647941
 30
0.0
 11
389.479448471508
 21
223.911039647941
 31
0.0
  0
LINE
  5
E6
330
1F
100
AcDbEntity
  8
1
  6
Continuous
 62
     4
100
AcDbLine
 10
389.590698471508
 20
225.036039647941
 30
0.0
 11
389.590698471508
 21
224.411039647941
 31
0.0
  0
LINE
  5
E7
330
1F
100
AcDbEntity
  8
1
  6
Continuous
 62
     4
100
AcDbLine
 10
389.479448471508
 20
225.536039647941
 30
0.0
 11
389.590698471508
 21
225.036039647941
 31
0.0
  0
LINE
  5
E8
330
1F
100
AcDbEntity
  8
1
  6
Continuous
 62
     4
100
AcDbLine
 10
389.368198471508
 20
225.786039647941
 30
0.0
 11
389.479448471508
 21
225.536039647941
 31
0.0
  0
LINE
  5
E9
330
1F
100
AcDbEntity
  8
1
  6
Continuous
 62
     4
100
AcDbLine
 10
389.145698471508
 20
226.036039647941
 30
0.0
 11
389.368198471508
 21
225.786039647941
 31
0.0
  0
LINE
  5
EA
330
1F
100
AcDbEntity
  8
1
  6
Continuous
 62
     4
100
AcDbLine
 10
388.700698471508
 20
226.161039647941
 30
0.0
 11
389.145698471508
 21
226.036039647941
 31
0.0
  0
LINE
  5
EB
330
1F
100
AcDbEntity
  8
1
  6
Continuous
 62
     4
100
AcDbLine
 10
389.034448471508
 20
226.286039647941
 30
0.0
 11
388.700698471508
 21
226.161039647941
 31
0.0
  0
LINE
  5
EC
330
1F
100
AcDbEntity
  8
1
  6
Continuous
 62
     4
100
AcDbLine
 10
389.256948471508
 20
226.411039647941
 30
0.0
 11
389.034448471508
 21
226.286039647941
 31
0.0
  0
LINE
  5
ED
330
1F
100
AcDbEntity
  8
1
  6
Continuous
 62
     4
100
AcDbLine
 10
389.479448471508
 20
226.661039647941
 30
0.0
 11
389.256948471508
 21
226.411039647941
 31
0.0
  0
LINE
  5
EE
330
1F
100
AcDbEntity
  8
1
  6
Continuous
 62
     4
100
AcDbLine
 10
389.590698471508
 20
227.036039647941
 30
0.0
 11
389.479448471508
 21
226.661039647941
 31
0.0
  0
LINE
  5
EF
330
1F
100
AcDbEntity
  8
1
  6
Continuous
 62
     4
100
AcDbLine
 10
389.590698471508
 20
227.411039647941
 30
0.0
 11
389.590698471508
 21
227.036039647941
 31
0.0
  0
LINE
  5
F0
330
1F
100
AcDbEntity
  8
1
  6
Continuous
 62
     4
100
AcDbLine
 10
389.479448471508
 20
227.786039647941
 30
0.0
 11
389.590698471508
 21
227.411039647941
 31
0.0
  0
LINE
  5
F1
330
1F
100
AcDbEntity
  8
1
  6
Continuous
 62
     4
100
AcDbLine
 10
389.145698471508
 20
228.036039647941
 30
0.0
 11
389.479448471508
 21
227.786039647941
 31
0.0
  0
LINE
  5
F2
330
1F
100
AcDbEntity
  8
1
  6
Continuous
 62
     4
100
AcDbLine
 10
388.589448471508
 20
228.161039647941
 30
0.0
 11
389.145698471508
 21
228.036039647941
 31
0.0
  0
LINE
  5
F3
330
1F
100
AcDbEntity
  8
1
  6
Continuous
 62
     4
100
AcDbLine
 10
386.920698471508
 20
228.161039647941
 30
0.0
 11
388.589448471508
 21
228.161039647941
 31
0.0
  0
LINE
  5
F4
330
1F
100
AcDbEntity
  8
1
  6
Continuous
 62
     4
100
AcDbLine
 10
387.588198471508
 20
226.161039647941
 30
0.0
 11
388.700698471508
 21
226.161039647941
 31
0.0
  0
LINE
  5
F5
330
1F
100
AcDbEntity
  8
1
  6
Continuous
 62
     4
100
AcDbLine
 10
385.585698471508
 20
228.161039647941
 30
0.0
 11
385.585698471508
 21
223.161039647941
 31
0.0
  0
LINE
  5
F6
330
1F
100
AcDbEntity
  8
1
  6
Continuous
 62
     4
100
AcDbLine
 10
384.250698471508
 20
226.661039647941
 30
0.0
 11
385.585698471508
 21
228.161039647941
 31
0.0
  0
LINE
  5
F7
330
1F
100
AcDbEntity
  8
1
  6
Continuous
 62
     4
100
AcDbLine
 10
380.690698471508
 20
224.911039647941
 30
0.0
 11
382.915698471508
 21
224.911039647941
 31
0.0
  0
LINE
  5
F8
330
1F
100
AcDbEntity
  8
1
  6
Continuous
 62
     4
100
AcDbLine
 10
377.798198471508
 20
225.661039647941
 30
0.0
 11
377.798198471508
 21
223.161039647941
 31
0.0
  0
LINE
  5
F9
330
1F
100
AcDbEntity
  8
1
  6
Continuous
 62
     4
100
AcDbLine
 10
376.240698471508
 20
228.161039647941
 30
0.0
 11
377.798198471508
 21
225.661039647941
 31
0.0
  0
LINE
  5
FA
330
1F
100
AcDbEntity
  8
1
  6
Continuous
 62
     4
100
AcDbLine
 10
377.798198471508
 20
225.661039647941
 30
0.0
 11
379.355698471508
 21
228.161039647941
 31
0.0
  0
LINE
  5
FB
330
1F
100
AcDbEntity
  8
1
  6
Continuous
 62
     4
100
AcDbLine
 10
374.015698471508
 20
223.161039647941
 30
0.0
 11
373.125698471508
 21
223.161039647941
 31
0.0
  0
LINE
  5
FC
330
1F
100
AcDbEntity
  8
1
  6
Continuous
 62
     4
100
AcDbLine
 10
374.349448471508
 20
223.286039647941
 30
0.0
 11
374.015698471508
 21
223.161039647941
 31
0.0
  0
LINE
  5
FD
330
1F
100
AcDbEntity
  8
1
  6
Continuous
 62
     4
100
AcDbLine
 10
374.683198471508
 20
223.536039647941
 30
0.0
 11
374.349448471508
 21
223.286039647941
 31
0.0
  0
LINE
  5
FE
330
1F
100
AcDbEntity
  8
1
  6
Continuous
 62
     4
100
AcDbLine
 10
374.905698471508
 20
224.036039647941
 30
0.0
 11
374.683198471508
 21
223.536039647941
 31
0.0
  0
LINE
  5
FF
330
1F
100
AcDbEntity
  8
1
  6
Continuous
 62
     4
100
AcDbLine
 10
374.905698471508
 20
228.161039647941
 30
0.0
 11
374.905698471508
 21
224.036039647941
 31
0.0
  0
LINE
  5
100
330
1F
100
AcDbEntity
  8
1
  6
Continuous
 62
     4
100
AcDbLine
 10
368.675698471508
 20
223.161039647941
 30
0.0
 11
368.675698471508
 21
225.661039647941
 31
0.0
  0
LINE
  5
101
330
1F
100
AcDbEntity
  8
1
  6
Continuous
 62
     4
100
AcDbLine
 10
370.455698471508
 20
225.661039647941
 30
0.0
 11
371.790698471508
 21
223.161039647941
 31
0.0
  0
LINE
  5
102
330
1F
100
AcDbEntity
  8
1
  6
Continuous
 62
     4
100
AcDbLine
 10
370.789448471508
 20
225.661039647941
 30
0.0
 11
370.455698471508
 21
225.661039647941
 31
0.0
  0
LINE
  5
103
330
1F
100
AcDbEntity
  8
1
  6
Continuous
 62
     4
100
AcDbLine
 10
371.234448471508
 20
225.786039647941
 30
0.0
 11
370.789448471508
 21
225.661039647941
 31
0.0
  0
LINE
  5
104
330
1F
100
AcDbEntity
  8
1
  6
Continuous
 62
     4
100
AcDbLine
 10
371.568198471508
 20
226.036039647941
 30
0.0
 11
371.234448471508
 21
225.786039647941
 31
0.0
  0
LINE
  5
105
330
1F
100
AcDbEntity
  8
1
  6
Continuous
 62
     4
100
AcDbLine
 10
371.679448471508
 20
226.286039647941
 30
0.0
 11
371.568198471508
 21
226.036039647941
 31
0.0
  0
LINE
  5
106
330
1F
100
AcDbEntity
  8
1
  6
Continuous
 62
     4
100
AcDbLine
 10
371.790698471508
 20
226.661039647941
 30
0.0
 11
371.679448471508
 21
226.286039647941
 31
0.0
  0
LINE
  5
107
330
1F
100
AcDbEntity
  8
1
  6
Continuous
 62
     4
100
AcDbLine
 10
371.790698471508
 20
227.161039647941
 30
0.0
 11
371.790698471508
 21
226.661039647941
 31
0.0
  0
LINE
  5
108
330
1F
100
AcDbEntity
  8
1
  6
Continuous
 62
     4
100
AcDbLine
 10
371.679448471508
 20
227.536039647941
 30
0.0
 11
371.790698471508
 21
227.161039647941
 31
0.0
  0
LINE
  5
109
330
1F
100
AcDbEntity
  8
1
  6
Continuous
 62
     4
100
AcDbLine
 10
371.568198471508
 20
227.786039647941
 30
0.0
 11
371.679448471508
 21
227.536039647941
 31
0.0
  0
LINE
  5
10A
330
1F
100
AcDbEntity
  8
1
  6
Continuous
 62
     4
100
AcDbLine
 10
371.234448471508
 20
228.036039647941
 30
0.0
 11
371.568198471508
 21
227.786039647941
 31
0.0
  0
LINE
  5
10B
330
1F
100
AcDbEntity
  8
1
  6
Continuous
 62
     4
100
AcDbLine
 10
370.789448471508
 20
228.161039647941
 30
0.0
 11
371.234448471508
 21
228.036039647941
 31
0.0
  0
LINE
  5
10C
330
1F
100
AcDbEntity
  8
1
  6
Continuous
 62
     4
100
AcDbLine
 10
368.675698471508
 20
228.161039647941
 30
0.0
 11
370.789448471508
 21
228.161039647941
 31
0.0
  0
LINE
  5
10D
330
1F
100
AcDbEntity
  8
1
  6
Continuous
 62
     4
100
AcDbLine
 10
368.675698471508
 20
225.661039647941
 30
0.0
 11
368.675698471508
 21
228.161039647941
 31
0.0
  0
LINE
  5
10E
330
1F
100
AcDbEntity
  8
1
  6
Continuous
 62
     4
100
AcDbLine
 10
370.455698471508
 20
225.661039647941
 30
0.0
 11
368.675698471508
 21
225.661039647941
 31
0.0
  0
LINE
  5
10F
330
1F
100
AcDbEntity
  8
1
  6
Continuous
 62
     4
100
AcDbLine
 10
365.115698471508
 20
224.911039647941
 30
0.0
 11
367.340698471508
 21
224.911039647941
 31
0.0
  0
LINE
  5
110
330
1F
100
AcDbEntity
  8
1
  6
Continuous
 62
     4
100
AcDbLine
 10
362.779448471508
 20
225.661039647941
 30
0.0
 11
360.665698471508
 21
225.661039647941
 31
0.0
  0
LINE
  5
111
330
1F
100
AcDbEntity
  8
1
  6
Continuous
 62
     4
100
AcDbLine
 10
363.224448471508
 20
225.786039647941
 30
0.0
 11
362.779448471508
 21
225.661039647941
 31
0.0
  0
LINE
  5
112
330
1F
100
AcDbEntity
  8
1
  6
Continuous
 62
     4
100
AcDbLine
 10
363.558198471508
 20
226.036039647941
 30
0.0
 11
363.224448471508
 21
225.786039647941
 31
0.0
  0
LINE
  5
113
330
1F
100
AcDbEntity
  8
1
  6
Continuous
 62
     4
100
AcDbLine
 10
363.669448471508
 20
226.286039647941
 30
0.0
 11
363.558198471508
 21
226.036039647941
 31
0.0
  0
LINE
  5
114
330
1F
100
AcDbEntity
  8
1
  6
Continuous
 62
     4
100
AcDbLine
 10
363.780698471508
 20
226.661039647941
 30
0.0
 11
363.669448471508
 21
226.286039647941
 31
0.0
  0
LINE
  5
115
330
1F
100
AcDbEntity
  8
1
  6
Continuous
 62
     4
100
AcDbLine
 10
363.780698471508
 20
227.161039647941
 30
0.0
 11
363.780698471508
 21
226.661039647941
 31
0.0
  0
LINE
  5
116
330
1F
100
AcDbEntity
  8
1
  6
Continuous
 62
     4
100
AcDbLine
 10
363.669448471508
 20
227.536039647941
 30
0.0
 11
363.780698471508
 21
227.161039647941
 31
0.0
  0
LINE
  5
117
330
1F
100
AcDbEntity
  8
1
  6
Continuous
 62
     4
100
AcDbLine
 10
363.558198471508
 20
227.786039647941
 30
0.0
 11
363.669448471508
 21
227.536039647941
 31
0.0
  0
LINE
  5
118
330
1F
100
AcDbEntity
  8
1
  6
Continuous
 62
     4
100
AcDbLine
 10
363.224448471508
 20
228.036039647941
 30
0.0
 11
363.558198471508
 21
227.786039647941
 31
0.0
  0
LINE
  5
119
330
1F
100
AcDbEntity
  8
1
  6
Continuous
 62
     4
100
AcDbLine
 10
362.779448471508
 20
228.161039647941
 30
0.0
 11
363.224448471508
 21
228.036039647941
 31
0.0
  0
LINE
  5
11A
330
1F
100
AcDbEntity
  8
1
  6
Continuous
 62
     4
100
AcDbLine
 10
360.665698471508
 20
228.161039647941
 30
0.0
 11
362.779448471508
 21
228.161039647941
 31
0.0
  0
LINE
  5
11B
330
1F
100
AcDbEntity
  8
1
  6
Continuous
 62
     4
100
AcDbLine
 10
360.665698471508
 20
225.661039647941
 30
0.0
 11
360.665698471508
 21
228.161039647941
 31
0.0
  0
LINE
  5
11C
330
1F
100
AcDbEntity
  8
1
  6
Continuous
 62
     4
100
AcDbLine
 10
360.665698471508
 20
223.161039647941
 30
0.0
 11
360.665698471508
 21
225.661039647941
 31
0.0
  0
LINE
  5
11D
330
1F
100
AcDbEntity
  8
1
  6
Continuous
 62
     3
100
AcDbLine
 10
319.397366471602
 20
194.438063456445
 30
0.0
 11
314.43412398582
 21
194.438063456445
 31
0.0
  0
LINE
  5
11E
330
1F
100
AcDbEntity
  8
1
  6
DOT_CENTER
 62
     1
100
AcDbLine
 10
345.674145117022
 20
194.438063456445
 30
0.0
 11
247.215745228711
 21
194.438063456445
 31
0.0
  0
LINE
  5
11F
330
1F
100
AcDbEntity
  8
1
  6
DOT_CENTER
 62
     1
100
AcDbLine
 10
269.715745228711
 20
216.938063456446
 30
0.0
 11
269.715745228711
 21
171.938063456445
 31
0.0
  0
LINE
  5
120
330
1F
100
AcDbEntity
  8
1
  6
Continuous
 62
     3
100
AcDbLine
 10
289.368989235745
 20
206.438063456445
 30
0.0
 11
291.231431745413
 21
206.438063456445
 31
0.0
  0
LINE
  5
121
330
1F
100
AcDbEntity
  8
1
  6
Continuous
 62
     3
100
AcDbLine
 10
291.231431745413
 20
182.438063456445
 30
0.0
 11
289.368989235745
 21
182.438063456445
 31
0.0
  0
LINE
  5
122
330
1F
100
AcDbEntity
  8
1
  6
Continuous
 62
     3
100
AcDbLine
 10
197.309786372206
 20
119.192019078644
 30
0.0
 11
197.309786372206
 21
142.192019078644
 31
0.0
  0
LINE
  5
123
330
1F
100
AcDbEntity
  8
1
  6
Continuous
 62
     3
100
AcDbLine
 10
181.309786372206
 20
120.532019081917
 30
0.0
 11
181.309786372206
 21
140.852019078644
 31
0.0
  0
LINE
  5
124
330
1F
100
AcDbEntity
  8
1
  6
Continuous
 62
     3
100
AcDbLine
 10
213.309786372206
 20
140.852019078644
 30
0.0
 11
213.309786372206
 21
120.532019081917
 31
0.0
  0
LINE
  5
125
330
1F
100
AcDbEntity
  8
1
  6
Continuous
 62
     3
100
AcDbLine
 10
182.649786372206
 20
142.192019078644
 30
0.0
 11
211.969786372206
 21
142.192019078644
 31
0.0
  0
LINE
  5
126
330
1F
100
AcDbEntity
  8
1
  6
Continuous
 62
     3
100
AcDbLine
 10
260.478140921677
 20
210.438063456445
 30
0.0
 11
251.240536614643
 21
194.438063456445
 31
0.0
  0
LINE
  5
127
330
1F
100
AcDbEntity
  8
1
  6
Continuous
 62
     3
100
AcDbLine
 10
251.240536614643
 20
194.438063456445
 30
0.0
 11
260.478140921677
 21
178.438063456445
 31
0.0
  0
LINE
  5
128
330
1F
100
AcDbEntity
  8
1
  6
Continuous
 62
     3
100
AcDbLine
 10
260.478140921677
 20
178.438063456445
 30
0.0
 11
278.953349535745
 21
178.438063456445
 31
0.0
  0
LINE
  5
129
330
1F
100
AcDbEntity
  8
1
  6
Continuous
 62
     3
100
AcDbLine
 10
278.953349535745
 20
178.438063456445
 30
0.0
 11
288.190953842779
 21
194.438063456445
 31
0.0
  0
LINE
  5
12A
330
1F
100
AcDbEntity
  8
1
  6
Continuous
 62
     3
100
AcDbLine
 10
288.190953842779
 20
194.438063456445
 30
0.0
 11
278.953349535745
 21
210.438063456445
 31
0.0
  0
LINE
  5
12B
330
1F
100
AcDbEntity
  8
1
  6
Continuous
 62
     3
100
AcDbLine
 10
278.953349535745
 20
210.438063456445
 30
0.0
 11
260.478140921677
 21
210.438063456445
 31
0.0
  0
LINE
  5
12C
330
1F
100
AcDbEntity
  8
6
  6
DOT_CENTER
 62
     1
100
AcDbLine
 10
269.715745228711
 20
145.192019078644
 30
0.0
 11
269.715745228711
 21
76.6920190786438
 31
0.0
  0
LINE
  5
12D
330
1F
100
AcDbEntity
  8
6
  6
Continuous
 62
     3
100
AcDbLine
 10
253.715745228711
 20
80.6920190786438
 30
0.0
 11
253.715745228711
 21
89.6920190786438
 31
0.0
  0
LINE
  5
12E
330
1F
100
AcDbEntity
  8
6
  6
Continuous
 62
     3
100
AcDbLine
 10
254.715745228711
 20
79.6920190786438
 30
0.0
 11
253.715745228711
 21
80.6920190786438
 31
0.0
  0
LINE
  5
12F
330
1F
100
AcDbEntity
  8
6
  6
Continuous
 62
     3
100
AcDbLine
 10
284.715745228711
 20
79.6920190786438
 30
0.0
 11
254.715745228711
 21
79.6920190786438
 31
0.0
  0
LINE
  5
130
330
1F
100
AcDbEntity
  8
6
  6
Continuous
 62
     3
100
AcDbLine
 10
285.715745228711
 20
80.6920190786438
 30
0.0
 11
284.715745228711
 21
79.6920190786438
 31
0.0
  0
LINE
  5
131
330
1F
100
AcDbEntity
  8
6
  6
Continuous
 62
     3
100
AcDbLine
 10
285.715745228711
 20
89.6920190786438
 30
0.0
 11
285.715745228711
 21
80.6920190786438
 31
0.0
  0
LINE
  5
132
330
1F
100
AcDbEntity
  8
6
  6
Continuous
 62
     3
100
AcDbLine
 10
284.715745228711
 20
90.6920190786438
 30
0.0
 11
285.715745228711
 21
89.6920190786438
 31
0.0
  0
LINE
  5
133
330
1F
100
AcDbEntity
  8
6
  6
Continuous
 62
     3
100
AcDbLine
 10
254.715745228711
 20
90.6920190786438
 30
0.0
 11
284.715745228711
 21
90.6920190786438
 31
0.0
  0
LINE
  5
134
330
1F
100
AcDbEntity
  8
6
  6
Continuous
 62
     3
100
AcDbLine
 10
253.715745228711
 20
89.6920190786438
 30
0.0
 11
254.715745228711
 21
90.6920190786438
 31
0.0
  0
LINE
  5
135
330
1F
100
AcDbEntity
  8
6
  6
Continuous
 62
     3
100
AcDbLine
 10
279.922244104063
 20
89.6920190786438
 30
0.0
 11
279.922244104063
 21
80.6920190786438
 31
0.0
  0
LINE
  5
136
330
1F
100
AcDbEntity
  8
6
  6
Continuous
 62
     3
100
AcDbLine
 10
275.283509591541
 20
89.6920190786438
 30
0.0
 11
275.283509591541
 21
80.6920190786438
 31
0.0
  0
LINE
  5
137
330
1F
100
AcDbEntity
  8
6
  6
Continuous
 62
     3
100
AcDbLine
 10
259.509246353359
 20
89.6920190786438
 30
0.0
 11
259.509246353359
 21
80.6920190786438
 31
0.0
  0
LINE
  5
138
330
1F
100
AcDbEntity
  8
6
  6
Continuous
 62
     3
100
AcDbLine
 10
264.147980865881
 20
89.6920190786438
 30
0.0
 11
264.147980865881
 21
80.6920190786438
 31
0.0
  0
LINE
  5
139
330
1F
100
AcDbEntity
  8
6
  6
Continuous
 62
     3
100
AcDbLine
 10
327.174145117022
 20
87.6920190786438
 30
0.0
 11
327.174145117022
 21
122.692019078644
 31
0.0
  0
LINE
  5
13A
330
1F
100
AcDbEntity
  8
6
  6
Continuous
 62
     3
100
AcDbLine
 10
328.616008622139
 20
112.440756420174
 30
0.0
 11
341.069177806261
 21
112.440756420174
 31
0.0
  0
LINE
  5
13B
330
1F
100
AcDbEntity
  8
6
  6
Continuous
 62
     3
100
AcDbLine
 10
341.741529800712
 20
122.692019078644
 30
0.0
 11
327.174145117022
 21
122.692019078644
 31
0.0
  0
LINE
  5
13C
330
1F
100
AcDbEntity
  8
6
  6
Continuous
 62
     3
100
AcDbLine
 10
341.741529800712
 20
87.6920190786438
 30
0.0
 11
327.174145117022
 21
87.6920190786438
 31
0.0
  0
LINE
  5
13D
330
1F
100
AcDbEntity
  8
6
  6
Continuous
 62
     3
100
AcDbLine
 10
341.741529800712
 20
122.692019078644
 30
0.0
 11
342.674145117022
 21
120.692019078644
 31
0.0
  0
LINE
  5
13E
330
1F
100
AcDbEntity
  8
6
  6
Continuous
 62
     3
100
AcDbLine
 10
342.674145117022
 20
89.6920190786438
 30
0.0
 11
341.741529800712
 21
87.6920190786438
 31
0.0
  0
LINE
  5
13F
330
1F
100
AcDbEntity
  8
6
  6
Continuous
 62
     3
100
AcDbLine
 10
328.616008622139
 20
97.9432817371138
 30
0.0
 11
341.069177806261
 21
97.9432817371138
 31
0.0
  0
LINE
  5
140
330
1F
100
AcDbEntity
  8
6
  6
Continuous
 62
     3
100
AcDbLine
 10
319.397366471602
 20
115.006973654868
 30
0.0
 11
314.434123985821
 21
115.006973654868
 31
0.0
  0
LINE
  5
141
330
1F
100
AcDbEntity
  8
6
  6
Continuous
 62
     3
100
AcDbLine
 10
319.397366471602
 20
124.82192823109
 30
0.0
 11
320.915745228711
 21
122.192019078644
 31
0.0
  0
LINE
  5
142
330
1F
100
AcDbEntity
  8
6
  6
Continuous
 62
     3
100
AcDbLine
 10
314.434123985821
 20
124.82192823109
 30
0.0
 11
319.397366471602
 21
124.82192823109
 31
0.0
  0
LINE
  5
143
330
1F
100
AcDbEntity
  8
6
  6
Continuous
 62
     3
100
AcDbLine
 10
312.915745228711
 20
122.192019078644
 30
0.0
 11
314.434123985821
 21
124.82192823109
 31
0.0
  0
LINE
  5
144
330
1F
100
AcDbEntity
  8
6
  6
Continuous
 62
     3
100
AcDbLine
 10
296.915745228711
 20
122.192019078644
 30
0.0
 11
312.915745228711
 21
122.192019078644
 31
0.0
  0
LINE
  5
145
330
1F
100
AcDbEntity
  8
6
  6
Continuous
 62
     3
100
AcDbLine
 10
322.915745228711
 20
120.692019078644
 30
0.0
 11
327.174145117022
 21
120.692019078644
 31
0.0
  0
LINE
  5
146
330
1F
100
AcDbEntity
  8
6
  6
Continuous
 62
     3
100
AcDbLine
 10
327.174145117022
 20
119.609019078644
 30
0.0
 11
322.915745228711
 21
119.609019078644
 31
0.0
  0
LINE
  5
147
330
1F
100
AcDbEntity
  8
6
  6
Continuous
 62
     3
100
AcDbLine
 10
320.915745228711
 20
122.192019078644
 30
0.0
 11
320.915745228711
 21
88.1920190786438
 31
0.0
  0
LINE
  5
148
330
1F
100
AcDbEntity
  8
6
  6
Continuous
 62
     3
100
AcDbLine
 10
312.915745228711
 20
88.1920190786438
 30
0.0
 11
312.915745228711
 21
122.192019078644
 31
0.0
  0
LINE
  5
149
330
1F
100
AcDbEntity
  8
6
  6
Continuous
 62
     3
100
AcDbLine
 10
322.915745228711
 20
120.692019078644
 30
0.0
 11
322.915745228711
 21
89.6920190786438
 31
0.0
  0
LINE
  5
14A
330
1F
100
AcDbEntity
  8
6
  6
Continuous
 62
     3
100
AcDbLine
 10
312.915745228711
 20
88.1920190786438
 30
0.0
 11
296.915745228711
 21
88.1920190786438
 31
0.0
  0
LINE
  5
14B
330
1F
100
AcDbEntity
  8
6
  6
Continuous
 62
     3
100
AcDbLine
 10
314.434123985821
 20
85.5621099261958
 30
0.0
 11
312.915745228711
 21
88.1920190786438
 31
0.0
  0
LINE
  5
14C
330
1F
100
AcDbEntity
  8
6
  6
Continuous
 62
     3
100
AcDbLine
 10
319.397366471602
 20
85.5621099261958
 30
0.0
 11
314.434123985821
 21
85.5621099261958
 31
0.0
  0
LINE
  5
14D
330
1F
100
AcDbEntity
  8
6
  6
Continuous
 62
     3
100
AcDbLine
 10
320.915745228711
 20
88.1920190786438
 30
0.0
 11
319.397366471602
 21
85.5621099261958
 31
0.0
  0
LINE
  5
14E
330
1F
100
AcDbEntity
  8
6
  6
Continuous
 62
     3
100
AcDbLine
 10
327.174145117022
 20
89.6920190786438
 30
0.0
 11
322.915745228711
 21
89.6920190786438
 31
0.0
  0
LINE
  5
14F
330
1F
100
AcDbEntity
  8
6
  6
Continuous
 62
     3
100
AcDbLine
 10
327.174145117022
 20
90.7750190786439
 30
0.0
 11
322.915745228711
 21
90.7750190786439
 31
0.0
  0
LINE
  5
150
330
1F
100
AcDbEntity
  8
6
  6
Continuous
 62
     3
100
AcDbLine
 10
319.397366471602
 20
95.3770645024198
 30
0.0
 11
314.434123985821
 21
95.3770645024198
 31
0.0
  0
LINE
  5
151
330
1F
100
AcDbEntity
  8
6
  6
Continuous
 62
     3
100
AcDbLine
 10
342.674145117022
 20
120.692019078644
 30
0.0
 11
342.674145117022
 21
89.6920190786438
 31
0.0
  0
LINE
  5
152
330
1F
100
AcDbEntity
  8
6
  6
DASHED
 62
     3
100
AcDbLine
 10
331.415745228711
 20
90.6920190786438
 30
0.0
 11
331.415745228711
 21
119.692019078644
 31
0.0
  0
LINE
  5
153
330
1F
100
AcDbEntity
  8
6
  6
DASHED
 62
     3
100
AcDbLine
 10
331.415745228711
 20
119.692019078644
 30
0.0
 11
330.415745228711
 21
120.692019078644
 31
0.0
  0
LINE
  5
154
330
1F
100
AcDbEntity
  8
6
  6
DASHED
 62
     3
100
AcDbLine
 10
330.415745228711
 20
120.692019078644
 30
0.0
 11
327.174145117022
 21
120.692019078644
 31
0.0
  0
LINE
  5
155
330
1F
100
AcDbEntity
  8
6
  6
DASHED
 62
     3
100
AcDbLine
 10
330.415745228711
 20
89.6920190786438
 30
0.0
 11
331.415745228711
 21
90.6920190786438
 31
0.0
  0
LINE
  5
156
330
1F
100
AcDbEntity
  8
6
  6
DASHED
 62
     3
100
AcDbLine
 10
327.174145117022
 20
89.6920190786438
 30
0.0
 11
330.415745228711
 21
89.6920190786438
 31
0.0
  0
LINE
  5
157
330
1F
100
AcDbEntity
  8
6
  6
Continuous
 62
     3
100
AcDbLine
 10
295.415745228711
 20
120.692019078644
 30
0.0
 11
296.915745228711
 21
122.192019078644
 31
0.0
  0
LINE
  5
158
330
1F
100
AcDbEntity
  8
6
  6
Continuous
 62
     3
100
AcDbLine
 10
295.415745228711
 20
120.692019078644
 30
0.0
 11
295.415745228711
 21
89.6920190786438
 31
0.0
  0
LINE
  5
159
330
1F
100
AcDbEntity
  8
6
  6
Continuous
 62
     3
100
AcDbLine
 10
296.915745228711
 20
88.1920190786438
 30
0.0
 11
295.415745228711
 21
89.6920190786438
 31
0.0
  0
LINE
  5
15A
330
1F
100
AcDbEntity
  8
6
  6
Continuous
 62
     3
100
AcDbLine
 10
295.415745228711
 20
120.692019078644
 30
0.0
 11
294.054844859889
 21
120.692019078644
 31
0.0
  0
LINE
  5
15B
330
1F
100
AcDbEntity
  8
6
  6
Continuous
 62
     3
100
AcDbLine
 10
292.890017039902
 20
118.84472272331
 30
0.0
 11
293.070037106877
 21
119.86566725631
 31
0.0
  0
LINE
  5
15C
330
1F
100
AcDbEntity
  8
6
  6
Continuous
 62
     3
100
AcDbLine
 10
288.861496539776
 20
117.192019078644
 30
0.0
 11
290.920401533877
 21
117.192019078644
 31
0.0
  0
LINE
  5
15D
330
1F
100
AcDbEntity
  8
6
  6
Continuous
 62
     3
100
AcDbLine
 10
294.054844859889
 20
89.6920190786438
 30
0.0
 11
295.415745228711
 21
89.6920190786438
 31
0.0
  0
LINE
  5
15E
330
1F
100
AcDbEntity
  8
6
  6
Continuous
 62
     3
100
AcDbLine
 10
292.890017039902
 20
91.5393154339778
 30
0.0
 11
293.070037106877
 21
90.5183709009778
 31
0.0
  0
LINE
  5
15F
330
1F
100
AcDbEntity
  8
6
  6
Continuous
 62
     3
100
AcDbLine
 10
288.861496539776
 20
93.1920190786438
 30
0.0
 11
290.920401533877
 21
93.1920190786438
 31
0.0
  0
LINE
  5
160
330
1F
100
AcDbEntity
  8
6
  6
Continuous
 62
     3
100
AcDbLine
 10
253.215745228711
 20
118.192019078644
 30
0.0
 11
286.215745228711
 21
118.192019078644
 31
0.0
  0
LINE
  5
161
330
1F
100
AcDbEntity
  8
6
  6
Continuous
 62
     3
100
AcDbLine
 10
250.215745228711
 20
115.192019078644
 30
0.0
 11
250.215745228711
 21
95.1920190786438
 31
0.0
  0
LINE
  5
162
330
1F
100
AcDbEntity
  8
6
  6
Continuous
 62
     3
100
AcDbLine
 10
286.215745228711
 20
92.1920190786438
 30
0.0
 11
253.215745228711
 21
92.1920190786438
 31
0.0
  0
LINE
  5
163
330
1F
100
AcDbEntity
  8
9
  6
DOT_CENTER
 62
     1
100
AcDbLine
 10
247.215745228711
 20
105.192019078644
 30
0.0
 11
345.674145117022
 21
105.192019078644
 31
0.0
  0
LINE
  5
164
330
1F
100
AcDbEntity
  8
1
  6
Continuous
 62
     3
100
AcDbLine
 10
252.395237153023
 20
120.531765040799
 30
0.0
 11
252.395237153023
 21
140.852273116488
 31
0.0
  0
LINE
  5
165
330
1F
100
AcDbEntity
  8
1
  6
Continuous
 62
     3
100
AcDbLine
 10
261.055491190867
 20
120.531765040799
 30
0.0
 11
261.055491190867
 21
140.852273116488
 31
0.0
  0
LINE
  5
166
330
1F
100
AcDbEntity
  8
1
  6
Continuous
 62
     3
100
AcDbLine
 10
278.375999266556
 20
140.852273116488
 30
0.0
 11
278.375999266556
 21
120.531765040799
 31
0.0
  0
LINE
  5
167
330
1F
100
AcDbEntity
  8
1
  6
Continuous
 62
     3
100
AcDbLine
 10
287.0362533044
 20
120.531765040799
 30
0.0
 11
284.715745228711
 21
119.192019078644
 31
0.0
  0
LINE
  5
168
330
1F
100
AcDbEntity
  8
1
  6
Continuous
 62
     3
100
AcDbLine
 10
287.0362533044
 20
120.531765040799
 30
0.0
 11
287.0362533044
 21
140.852273116488
 31
0.0
  0
LINE
  5
169
330
1F
100
AcDbEntity
  8
1
  6
Continuous
 62
     3
100
AcDbLine
 10
284.715745228711
 20
142.192019078644
 30
0.0
 11
287.0362533044
 21
140.852273116488
 31
0.0
  0
LINE
  5
16A
330
1F
100
AcDbEntity
  8
1
  6
Continuous
 62
     3
100
AcDbLine
 10
252.395237153023
 20
140.852273116488
 30
0.0
 11
254.715745228711
 21
142.192019078644
 31
0.0
  0
LINE
  5
16B
330
1F
100
AcDbEntity
  8
9
  6
Continuous
 62
     3
100
AcDbLine
 10
254.715745228711
 20
142.192019078644
 30
0.0
 11
284.715745228711
 21
142.192019078644
 31
0.0
  0
LINE
  5
16C
330
1F
100
AcDbEntity
  8
1
  6
Continuous
 62
     3
100
AcDbLine
 10
254.715745228711
 20
119.192019078644
 30
0.0
 11
252.395237153023
 21
120.531765040799
 31
0.0
  0
LINE
  5
16D
330
1F
100
AcDbEntity
  8
1
  6
Continuous
 62
     3
100
AcDbLine
 10
213.809786372206
 20
118.192019078644
 30
0.0
 11
213.309786372206
 21
118.192019078644
 31
0.0
  0
LINE
  5
16E
330
1F
100
AcDbEntity
  8
1
  6
Continuous
 62
     3
100
AcDbLine
 10
216.809786372206
 20
95.1920190786438
 30
0.0
 11
216.809786372206
 21
115.192019078644
 31
0.0
  0
LINE
  5
16F
330
1F
100
AcDbEntity
  8
1
  6
Continuous
 62
     3
100
AcDbLine
 10
180.809786372206
 20
118.192019078644
 30
0.0
 11
181.309786372206
 21
118.192019078644
 31
0.0
  0
LINE
  5
170
330
1F
100
AcDbEntity
  8
1
  6
Continuous
 62
     3
100
AcDbLine
 10
177.809786372206
 20
95.1920190786438
 30
0.0
 11
177.809786372206
 21
115.192019078644
 31
0.0
  0
LINE
  5
171
330
1F
100
AcDbEntity
  8
1
  6
Continuous
 62
     3
100
AcDbLine
 10
181.309786372206
 20
92.1920190786438
 30
0.0
 11
180.809786372206
 21
92.1920190786438
 31
0.0
  0
LINE
  5
172
330
1F
100
AcDbEntity
  8
1
  6
DOT_CENTER
 62
     1
100
AcDbLine
 10
219.809786372206
 20
105.192019078644
 30
0.0
 11
174.809786372206
 21
105.192019078644
 31
0.0
  0
LINE
  5
173
330
1F
100
AcDbEntity
  8
1
  6
Continuous
 62
     3
100
AcDbLine
 10
213.309786372206
 20
118.192019078644
 30
0.0
 11
181.309786372206
 21
118.192019078644
 31
0.0
  0
LINE
  5
174
330
1F
100
AcDbEntity
  8
1
  6
Continuous
 62
     3
100
AcDbLine
 10
181.309786372206
 20
92.1920190786438
 30
0.0
 11
213.309786372206
 21
92.1920190786438
 31
0.0
  0
LINE
  5
175
330
1F
100
AcDbEntity
  8
1
  6
Continuous
 62
     3
100
AcDbLine
 10
312.915745228711
 20
194.438063456445
 30
0.0
 11
312.915745228711
 21
211.438063456445
 31
0.0
  0
LINE
  5
176
330
1F
100
AcDbEntity
  8
1
  6
Continuous
 62
     3
100
AcDbLine
 10
322.915745228711
 20
209.938063456445
 30
0.0
 11
322.915745228711
 21
194.438063456445
 31
0.0
  0
LINE
  5
177
330
1F
100
AcDbEntity
  8
1
  6
Continuous
 62
     3
100
AcDbLine
 10
320.915745228711
 20
209.938063456445
 30
0.0
 11
320.915745228711
 21
194.438063456445
 31
0.0
  0
LINE
  5
178
330
1F
100
AcDbEntity
  8
1
  6
Continuous
 62
     3
100
AcDbLine
 10
296.915745228711
 20
211.438063456445
 30
0.0
 11
312.915745228711
 21
211.438063456445
 31
0.0
  0
LINE
  5
179
330
1F
100
AcDbEntity
  8
1
  6
Continuous
 62
     3
100
AcDbLine
 10
295.415745228711
 20
209.938063456445
 30
0.0
 11
296.915745228711
 21
211.438063456445
 31
0.0
  0
LINE
  5
17A
330
1F
100
AcDbEntity
  8
1
  6
Continuous
 62
     3
100
AcDbLine
 10
295.415745228711
 20
178.938063456445
 30
0.0
 11
295.415745228711
 21
209.938063456445
 31
0.0
  0
LINE
  5
17B
330
1F
100
AcDbEntity
  8
1
  6
DASHED
 62
     3
100
AcDbLine
 10
331.415745228711
 20
208.938063456445
 30
0.0
 11
331.415745228711
 21
194.438063456445
 31
0.0
  0
LINE
  5
17C
330
1F
100
AcDbEntity
  8
1
  6
DASHED
 62
     3
100
AcDbLine
 10
330.415745228711
 20
209.938063456445
 30
0.0
 11
331.415745228711
 21
208.938063456445
 31
0.0
  0
LINE
  5
17D
330
1F
100
AcDbEntity
  8
1
  6
Continuous
 62
     3
100
AcDbLine
 10
322.915745228711
 20
209.938063456445
 30
0.0
 11
327.174145117022
 21
209.938063456445
 31
0.0
  0
LINE
  5
17E
330
1F
100
AcDbEntity
  8
1
  6
Continuous
 62
     3
100
AcDbLine
 10
327.174145117022
 20
208.855063456445
 30
0.0
 11
322.915745228711
 21
208.855063456445
 31
0.0
  0
LINE
  5
17F
330
1F
100
AcDbEntity
  8
1
  6
Continuous
 62
     3
100
AcDbLine
 10
322.915745228711
 20
180.021063456445
 30
0.0
 11
327.174145117022
 21
180.021063456445
 31
0.0
  0
LINE
  5
180
330
1F
100
AcDbEntity
  8
1
  6
DASHED
 62
     3
100
AcDbLine
 10
330.415745228711
 20
178.938063456445
 30
0.0
 11
327.174145117022
 21
178.938063456445
 31
0.0
  0
LINE
  5
181
330
1F
100
AcDbEntity
  8
1
  6
DASHED
 62
     3
100
AcDbLine
 10
331.415745228711
 20
179.938063456445
 30
0.0
 11
330.415745228711
 21
178.938063456445
 31
0.0
  0
LINE
  5
182
330
1F
100
AcDbEntity
  8
1
  6
DASHED
 62
     3
100
AcDbLine
 10
331.415745228711
 20
194.438063456445
 30
0.0
 11
331.415745228711
 21
179.938063456445
 31
0.0
  0
LINE
  5
183
330
1F
100
AcDbEntity
  8
1
  6
Continuous
 62
     3
100
AcDbLine
 10
296.915745228711
 20
177.438063456445
 30
0.0
 11
295.415745228711
 21
178.938063456445
 31
0.0
  0
LINE
  5
184
330
1F
100
AcDbEntity
  8
1
  6
Continuous
 62
     3
100
AcDbLine
 10
312.915745228711
 20
177.438063456445
 30
0.0
 11
296.915745228711
 21
177.438063456445
 31
0.0
  0
LINE
  5
185
330
1F
100
AcDbEntity
  8
1
  6
Continuous
 62
     3
100
AcDbLine
 10
320.915745228711
 20
194.438063456445
 30
0.0
 11
320.915745228711
 21
178.938063456445
 31
0.0
  0
LINE
  5
186
330
1F
100
AcDbEntity
  8
1
  6
Continuous
 62
     3
100
AcDbLine
 10
322.915745228711
 20
194.438063456445
 30
0.0
 11
322.915745228711
 21
178.938063456445
 31
0.0
  0
LINE
  5
187
330
1F
100
AcDbEntity
  8
1
  6
Continuous
 62
     3
100
AcDbLine
 10
312.915745228711
 20
177.438063456445
 30
0.0
 11
312.915745228711
 21
194.438063456445
 31
0.0
  0
LINE
  5
188
330
1F
100
AcDbEntity
  8
6
  6
DASHED
 62
     3
100
AcDbLine
 10
327.174145117022
 20
178.938063456445
 30
0.0
 11
330.415745228711
 21
178.938063456445
 31
0.0
  0
LINE
  5
189
330
1F
100
AcDbEntity
  8
6
  6
DASHED
 62
     3
100
AcDbLine
 10
330.415745228711
 20
178.938063456445
 30
0.0
 11
331.415745228711
 21
179.938063456445
 31
0.0
  0
LINE
  5
18A
330
1F
100
AcDbEntity
  8
6
  6
DASHED
 62
     3
100
AcDbLine
 10
330.415745228711
 20
209.938063456445
 30
0.0
 11
327.174145117022
 21
209.938063456445
 31
0.0
  0
LINE
  5
18B
330
1F
100
AcDbEntity
  8
6
  6
DASHED
 62
     3
100
AcDbLine
 10
331.415745228711
 20
208.938063456445
 30
0.0
 11
330.415745228711
 21
209.938063456445
 31
0.0
  0
LINE
  5
18C
330
1F
100
AcDbEntity
  8
6
  6
DASHED
 62
     3
100
AcDbLine
 10
331.415745228711
 20
179.938063456445
 30
0.0
 11
331.415745228711
 21
208.938063456445
 31
0.0
  0
LINE
  5
18D
330
1F
100
AcDbEntity
  8
6
  6
Continuous
 62
     3
100
AcDbLine
 10
342.674145117022
 20
209.938063456445
 30
0.0
 11
342.674145117022
 21
178.938063456445
 31
0.0
  0
LINE
  5
18E
330
1F
100
AcDbEntity
  8
6
  6
Continuous
 62
     3
100
AcDbLine
 10
328.616008622139
 20
187.189326114916
 30
0.0
 11
341.069177806261
 21
187.189326114916
 31
0.0
  0
LINE
  5
18F
330
1F
100
AcDbEntity
  8
6
  6
Continuous
 62
     3
100
AcDbLine
 10
342.674145117022
 20
178.938063456445
 30
0.0
 11
341.741529800712
 21
176.938063456445
 31
0.0
  0
LINE
  5
190
330
1F
100
AcDbEntity
  8
6
  6
Continuous
 62
     3
100
AcDbLine
 10
341.741529800712
 20
211.938063456445
 30
0.0
 11
342.674145117022
 21
209.938063456445
 31
0.0
  0
LINE
  5
191
330
1F
100
AcDbEntity
  8
6
  6
Continuous
 62
     3
100
AcDbLine
 10
341.741529800712
 20
176.938063456445
 30
0.0
 11
327.174145117022
 21
176.938063456445
 31
0.0
  0
LINE
  5
192
330
1F
100
AcDbEntity
  8
6
  6
Continuous
 62
     3
100
AcDbLine
 10
341.741529800712
 20
211.938063456445
 30
0.0
 11
327.174145117022
 21
211.938063456445
 31
0.0
  0
LINE
  5
193
330
1F
100
AcDbEntity
  8
6
  6
Continuous
 62
     3
100
AcDbLine
 10
328.616008622139
 20
201.686800797976
 30
0.0
 11
341.069177806261
 21
201.686800797976
 31
0.0
  0
LINE
  5
194
330
1F
100
AcDbEntity
  8
6
  6
Continuous
 62
     3
100
AcDbLine
 10
327.174145117022
 20
176.938063456445
 30
0.0
 11
327.174145117022
 21
211.938063456445
 31
0.0
  0
LINE
  5
195
330
1F
100
AcDbEntity
  8
1
  6
DASHED
 62
     3
100
AcDbLine
 10
327.174145117022
 20
209.938063456445
 30
0.0
 11
330.415745228711
 21
209.938063456445
 31
0.0
  0
LINE
  5
196
330
1F
100
AcDbEntity
  8
1
  6
Continuous
 62
     3
100
AcDbLine
 10
327.174145117022
 20
178.938063456445
 30
0.0
 11
322.915745228711
 21
178.938063456445
 31
0.0
  0
LINE
  5
197
330
1F
100
AcDbEntity
  8
1
  6
Continuous
 62
     3
100
AcDbLine
 10
182.309786372206
 20
90.6920190786438
 30
0.0
 11
212.309786372207
 21
90.6920190786438
 31
0.0
  0
LINE
  5
198
330
1F
100
AcDbEntity
  8
1
  6
Continuous
 62
     3
100
AcDbLine
 10
182.309786372206
 20
89.6920190786438
 30
0.0
 11
183.309786372207
 21
90.6920190786438
 31
0.0
  0
LINE
  5
199
330
1F
100
AcDbEntity
  8
1
  6
Continuous
 62
     3
100
AcDbLine
 10
212.309786372206
 20
89.6920190786438
 30
0.0
 11
211.309786372206
 21
90.6920190786438
 31
0.0
  0
LINE
  5
19A
330
1F
100
AcDbEntity
  8
1
  6
Continuous
 62
     3
100
AcDbLine
 10
212.309786372206
 20
85.1920190786438
 30
0.0
 11
212.309786372206
 21
89.6920190786438
 31
0.0
  0
LINE
  5
19B
330
1F
100
AcDbEntity
  8
1
  6
Continuous
 62
     3
100
AcDbLine
 10
199.98796099171
 20
89.6920190786438
 30
0.0
 11
199.98796099171
 21
85.1920190786438
 31
0.0
  0
LINE
  5
19C
330
1F
100
AcDbEntity
  8
1
  6
Continuous
 62
     3
100
AcDbLine
 10
194.631611752703
 20
89.6920190786438
 30
0.0
 11
194.631611752703
 21
85.1920190786438
 31
0.0
  0
LINE
  5
19D
330
1F
100
AcDbEntity
  8
1
  6
DOT_CENTER
 62
     1
100
AcDbLine
 10
197.309786372207
 20
145.192019078644
 30
0.0
 11
197.309786372207
 21
76.6920190786438
 31
0.0
  0
LINE
  5
19E
330
1F
100
AcDbEntity
  8
1
  6
Continuous
 62
     3
100
AcDbLine
 10
211.309786372206
 20
79.6920190786438
 30
0.0
 11
183.309786372206
 21
79.6920190786438
 31
0.0
  0
LINE
  5
19F
330
1F
100
AcDbEntity
  8
1
  6
Continuous
 62
     3
100
AcDbLine
 10
183.309786372206
 20
79.6920190786438
 30
0.0
 11
211.309786372206
 21
79.6920190786438
 31
0.0
  0
LINE
  5
1A0
330
1F
100
AcDbEntity
  8
1
  6
Continuous
 62
     3
100
AcDbLine
 10
199.98796099171
 20
85.1920190786438
 30
0.0
 11
199.98796099171
 21
80.6920190786438
 31
0.0
  0
LINE
  5
1A1
330
1F
100
AcDbEntity
  8
1
  6
Continuous
 62
     3
100
AcDbLine
 10
212.309786372206
 20
80.6920190786438
 30
0.0
 11
212.309786372206
 21
85.1920190786438
 31
0.0
  0
LINE
  5
1A2
330
1F
100
AcDbEntity
  8
1
  6
Continuous
 62
     3
100
AcDbLine
 10
211.309786372206
 20
79.6920190786438
 30
0.0
 11
212.309786372206
 21
80.6920190786438
 31
0.0
  0
LINE
  5
1A3
330
1F
100
AcDbEntity
  8
1
  6
Continuous
 62
     3
100
AcDbLine
 10
182.309786372207
 20
80.6920190786438
 30
0.0
 11
183.309786372206
 21
79.6920190786438
 31
0.0
  0
LINE
  5
1A4
330
1F
100
AcDbEntity
  8
1
  6
Continuous
 62
     3
100
AcDbLine
 10
182.309786372207
 20
85.1920190786438
 30
0.0
 11
182.309786372207
 21
80.6920190786438
 31
0.0
  0
LINE
  5
1A5
330
1F
100
AcDbEntity
  8
1
  6
Continuous
 62
     3
100
AcDbLine
 10
194.631611752703
 20
85.1920190786438
 30
0.0
 11
194.631611752703
 21
89.6920190786438
 31
0.0
  0
LINE
  5
1A6
330
1F
100
AcDbEntity
  8
1
  6
Continuous
 62
     3
100
AcDbLine
 10
182.309786372206
 20
89.6920190786438
 30
0.0
 11
182.309786372207
 21
85.1920190786438
 31
0.0
  0
LINE
  5
1A7
330
1F
100
AcDbEntity
  8
1
  6
Continuous
 62
     3
100
AcDbLine
 10
183.309786372207
 20
90.6920190786438
 30
0.0
 11
182.309786372206
 21
89.6920190786438
 31
0.0
  0
LINE
  5
1A8
330
1F
100
AcDbEntity
  8
1
  6
Continuous
 62
     3
100
AcDbLine
 10
213.309786372206
 20
140.852019078644
 30
0.0
 11
211.969786372206
 21
142.192019078644
 31
0.0
  0
LINE
  5
1A9
330
1F
100
AcDbEntity
  8
1
  6
Continuous
 62
     3
100
AcDbLine
 10
181.309786372206
 20
140.852019078644
 30
0.0
 11
182.649786372206
 21
142.192019078644
 31
0.0
  0
LINE
  5
1AA
330
1F
100
AcDbEntity
  8
1
  6
Continuous
 62
     3
100
AcDbLine
 10
182.649786372206
 20
119.192019078644
 30
0.0
 11
181.309786372206
 21
120.532019078644
 31
0.0
  0
LINE
  5
1AB
330
1F
100
AcDbEntity
  8
1
  6
Continuous
 62
     3
100
AcDbLine
 10
211.969786372206
 20
119.192019078644
 30
0.0
 11
213.309786372206
 21
120.532019078644
 31
0.0
  0
LINE
  5
1AC
330
1F
100
AcDbEntity
  8
1
  6
Continuous
 62
     3
100
AcDbLine
 10
211.969786372206
 20
119.192019078644
 30
0.0
 11
182.649786372206
 21
119.192019078644
 31
0.0
  0
LINE
  5
1AD
330
1F
100
AcDbEntity
  8
1
  6
Continuous
 62
     3
100
AcDbLine
 10
319.397366471602
 20
177.438063456445
 30
0.0
 11
314.43412398582
 21
177.438063456445
 31
0.0
  0
LINE
  5
1AE
330
1F
100
AcDbEntity
  8
6
  6
Continuous
 62
     3
100
AcDbLine
 10
314.43412398582
 20
211.438063456445
 30
0.0
 11
319.397366471602
 21
211.438063456445
 31
0.0
  0
LINE
  5
1AF
330
1F
100
AcDbEntity
  8
1
  6
Continuous
 62
     3
100
AcDbLine
 10
320.915745228711
 20
209.938063456445
 30
0.0
 11
319.397366471602
 21
211.438063456445
 31
0.0
  0
LINE
  5
1B0
330
1F
100
AcDbEntity
  8
1
  6
Continuous
 62
     3
100
AcDbLine
 10
314.43412398582
 20
211.438063456445
 30
0.0
 11
312.915745228711
 21
209.938063456445
 31
0.0
  0
LINE
  5
1B1
330
1F
100
AcDbEntity
  8
1
  6
Continuous
 62
     3
100
AcDbLine
 10
319.397366471602
 20
177.438063456445
 30
0.0
 11
320.915745228711
 21
178.938063456445
 31
0.0
  0
LINE
  5
1B2
330
1F
100
AcDbEntity
  8
1
  6
Continuous
 62
     3
100
AcDbLine
 10
312.915745228711
 20
178.938063456445
 30
0.0
 11
314.43412398582
 21
177.438063456445
 31
0.0
  0
LINE
  5
1B3
330
1F
100
AcDbEntity
  8
1
  6
Continuous
 62
     3
100
AcDbLine
 10
284.715745228711
 20
90.6920190786438
 30
0.0
 11
284.715745228711
 21
92.1920190786438
 31
0.0
  0
LINE
  5
1B4
330
1F
100
AcDbEntity
  8
1
  6
Continuous
 62
     3
100
AcDbLine
 10
254.715745228711
 20
90.6920190786438
 30
0.0
 11
254.715745228711
 21
92.1920190786438
 31
0.0
  0
LINE
  5
1B5
330
1F
100
AcDbEntity
  8
9
  6
Continuous
 62
     3
100
AcDbLine
 10
284.715745228711
 20
119.192019078644
 30
0.0
 11
254.715745228711
 21
119.192019078644
 31
0.0
  0
LINE
  5
1B6
330
1F
100
AcDbEntity
  8
1
  6
Continuous
 62
     3
100
AcDbLine
 10
284.715745228711
 20
119.192019078644
 30
0.0
 11
284.715745228711
 21
118.192019078644
 31
0.0
  0
LINE
  5
1B7
330
1F
100
AcDbEntity
  8
1
  6
Continuous
 62
     3
100
AcDbLine
 10
254.469509190755
 20
119.334183521442
 30
0.0
 11
254.469509190755
 21
118.192019078644
 31
0.0
  0
LINE
  5
1B8
330
1F
100
AcDbEntity
  8
1
  6
Continuous
 62
     3
100
AcDbLine
 10
182.649786372206
 20
119.192019078644
 30
0.0
 11
182.649786372206
 21
118.192019078644
 31
0.0
  0
LINE
  5
1B9
330
1F
100
AcDbEntity
  8
1
  6
Continuous
 62
     3
100
AcDbLine
 10
211.969786372206
 20
119.192019078644
 30
0.0
 11
211.969786372206
 21
118.192019078644
 31
0.0
  0
LINE
  5
1BA
330
1F
100
AcDbEntity
  8
1
  6
Continuous
 62
     3
100
AcDbLine
 10
182.309786372206
 20
90.6920190786438
 30
0.0
 11
182.309786372206
 21
92.1920190786438
 31
0.0
  0
LINE
  5
1BB
330
1F
100
AcDbEntity
  8
1
  6
Continuous
 62
     3
100
AcDbLine
 10
212.309786372207
 20
92.1920190786438
 30
0.0
 11
212.309786372207
 21
90.6920190786438
 31
0.0
  0
LINE
  5
1BC
330
1F
100
AcDbEntity
  8
1
  6
Continuous
 62
     3
100
AcDbLine
 10
194.631611752703
 20
80.6920190786438
 30
0.0
 11
194.631611752703
 21
85.1920190786438
 31
0.0
  0
LINE
  5
1BD
330
1F
100
AcDbEntity
  8
1
  6
Continuous
 62
     4
100
AcDbLine
 10
269.715745228711
 20
142.192019078644
 30
0.0
 11
271.068487443469
 21
144.276158683859
 31
0.0
  0
LINE
  5
1BE
330
1F
100
AcDbEntity
  8
1
  6
Continuous
 62
     4
100
AcDbLine
 10
269.715745228711
 20
142.192019078644
 30
0.0
 11
271.929324154071
 21
143.320565814415
 31
0.0
  0
LINE
  5
1BF
330
1F
100
AcDbEntity
  8
1
  6
Continuous
 62
     4
100
AcDbLine
 10
342.674145117022
 20
105.192019078644
 30
0.0
 11
343.231869262668
 21
107.613277670983
 31
0.0
  0
LINE
  5
1C0
330
1F
100
AcDbEntity
  8
1
  6
Continuous
 62
     4
100
AcDbLine
 10
342.674145117022
 20
105.192019078644
 30
0.0
 11
344.367777691625
 21
107.010028455918
 31
0.0
  0
LINE
  5
1C1
330
1F
100
AcDbEntity
  8
1
  6
Continuous
 62
     3
100
AcDbLine
 10
213.309786372206
 20
92.1920190786438
 30
0.0
 11
213.809786372206
 21
92.1920190786438
 31
0.0
  0
ARC
  5
1C2
330
1F
100
AcDbEntity
  8
1
  6
Continuous
 62
     3
100
AcDbCircle
 10
291.231431745413
 20
180.438063456445
 30
0.0
 40
1.999999999999584
100
AcDbArc
 50
7.18075578145978
 51
90.0
  0
ARC
  5
1C3
330
1F
100
AcDbEntity
  8
1
  6
Continuous
 62
     3
100
AcDbCircle
 10
295.20005871201
 20
180.938063456445
 30
0.0
 40
2.000000000000543
100
AcDbArc
 50
187.1807557814563
 51
276.1910037371094
  0
ARC
  5
1C4
330
1F
100
AcDbEntity
  8
1
  6
Continuous
 62
     3
100
AcDbCircle
 10
295.20005871201
 20
207.938063456445
 30
0.0
 40
2.000000000001068
100
AcDbArc
 50
83.80899626289363
 51
172.8192442185437
  0
ARC
  5
1C5
330
1F
100
AcDbEntity
  8
1
  6
Continuous
 62
     3
100
AcDbCircle
 10
291.231431745413
 20
208.438063456445
 30
0.0
 40
2.0
100
AcDbArc
 50
270.0
 51
352.8192442185402
  0
ARC
  5
1C6
330
1F
100
AcDbEntity
  8
1
  6
Continuous
 62
     3
100
AcDbCircle
 10
289.368989235744
 20
172.438063456445
 30
0.0
 40
10.0
100
AcDbArc
 50
89.99999999999413
 51
131.7753480097184
  0
ARC
  5
1C7
330
1F
100
AcDbEntity
  8
1
  6
Continuous
 62
     3
100
AcDbCircle
 10
289.368989235744
 20
216.438063456445
 30
0.0
 40
9.999999999998725
100
AcDbArc
 50
228.2246519902735
 51
270.0000000000059
  0
ARC
  5
1C8
330
1F
100
AcDbEntity
  8
1
  6
Continuous
 62
     3
100
AcDbCircle
 10
269.715745228711
 20
194.438063456445
 30
0.0
 40
19.5000000000009
100
AcDbArc
 50
48.22465199027609
 51
311.7753480097281
  0
ARC
  5
1C9
330
1F
100
AcDbEntity
  8
6
  6
Continuous
 62
     3
100
AcDbCircle
 10
321.915745228711
 20
120.692019078644
 30
0.0
 40
1.0
100
AcDbArc
 50
180.0
 51
0.0
  0
ARC
  5
1CA
330
1F
100
AcDbEntity
  8
6
  6
Continuous
 62
     3
100
AcDbCircle
 10
321.915745228711
 20
89.6920190786438
 30
0.0
 40
1.0
100
AcDbArc
 50
0.0
 51
180.0
  0
ARC
  5
1CB
330
1F
100
AcDbEntity
  8
6
  6
Continuous
 62
     3
100
AcDbCircle
 10
294.054844859889
 20
119.692019078644
 30
0.0
 40
1.0
100
AcDbArc
 50
90.0
 51
170.0000000000497
  0
ARC
  5
1CC
330
1F
100
AcDbEntity
  8
6
  6
Continuous
 62
     3
100
AcDbCircle
 10
290.920401533877
 20
119.192019078644
 30
0.0
 40
2.0
100
AcDbArc
 50
270.0
 51
349.999999999999
  0
ARC
  5
1CD
330
1F
100
AcDbEntity
  8
6
  6
Continuous
 62
     3
100
AcDbCircle
 10
294.054844859889
 20
90.6920190786438
 30
0.0
 40
0.9999999999996112
100
AcDbArc
 50
189.9999999999495
 51
270.0
  0
ARC
  5
1CE
330
1F
100
AcDbEntity
  8
6
  6
Continuous
 62
     3
100
AcDbCircle
 10
290.920401533877
 20
91.1920190786438
 30
0.0
 40
2.00000000000058
100
AcDbArc
 50
10.00000000000139
 51
90.0
  0
ARC
  5
1CF
330
1F
100
AcDbEntity
  8
6
  6
Continuous
 62
     3
100
AcDbCircle
 10
286.215745228711
 20
115.192019078644
 30
0.0
 40
3.000000000000362
100
AcDbArc
 50
48.5903778907213
 51
90.0
  0
ARC
  5
1D0
330
1F
100
AcDbEntity
  8
6
  6
Continuous
 62
     3
100
AcDbCircle
 10
288.861496539776
 20
118.192019078644
 30
0.0
 40
0.9999999999999076
100
AcDbArc
 50
228.5903778907352
 51
270.0
  0
ARC
  5
1D1
330
1F
100
AcDbEntity
  8
6
  6
Continuous
 62
     3
100
AcDbCircle
 10
253.215745228711
 20
115.192019078644
 30
0.0
 40
3.0
100
AcDbArc
 50
90.0
 51
180.0
  0
ARC
  5
1D2
330
1F
100
AcDbEntity
  8
6
  6
Continuous
 62
     3
100
AcDbCircle
 10
253.215745228711
 20
95.1920190786438
 30
0.0
 40
3.0
100
AcDbArc
 50
180.0
 51
270.0
  0
ARC
  5
1D3
330
1F
100
AcDbEntity
  8
6
  6
Continuous
 62
     3
100
AcDbCircle
 10
288.861496539776
 20
92.1920190786438
 30
0.0
 40
1.0
100
AcDbArc
 50
90.0
 51
131.4096221092498
  0
ARC
  5
1D4
330
1F
100
AcDbEntity
  8
6
  6
Continuous
 62
     3
100
AcDbCircle
 10
286.215745228711
 20
95.1920190786438
 30
0.0
 40
3.0
100
AcDbArc
 50
270.0
 51
311.4096221092837
  0
ARC
  5
1D5
330
1F
100
AcDbEntity
  8
1
  6
Continuous
 62
     3
100
AcDbCircle
 10
213.809786372206
 20
115.192019078644
 30
0.0
 40
3.0
100
AcDbArc
 50
0.0
 51
90.0
  0
ARC
  5
1D6
330
1F
100
AcDbEntity
  8
1
  6
Continuous
 62
     3
100
AcDbCircle
 10
213.809786372206
 20
95.1920190786438
 30
0.0
 40
3.0
100
AcDbArc
 50
270.0
 51
0.0
  0
ARC
  5
1D7
330
1F
100
AcDbEntity
  8
1
  6
Continuous
 62
     3
100
AcDbCircle
 10
180.809786372206
 20
115.192019078644
 30
0.0
 40
3.0
100
AcDbArc
 50
90.0
 51
180.0
  0
ARC
  5
1D8
330
1F
100
AcDbEntity
  8
1
  6
Continuous
 62
     3
100
AcDbCircle
 10
180.809786372206
 20
95.1920190786438
 30
0.0
 40
3.0
100
AcDbArc
 50
180.0
 51
270.0
  0
ARC
  5
1D9
330
1F
100
AcDbEntity
  8
1
  6
Continuous
 62
     3
100
AcDbCircle
 10
321.915745228711
 20
209.938063456445
 30
0.0
 40
1.0
100
AcDbArc
 50
180.0
 51
0.0
  0
ARC
  5
1DA
330
1F
100
AcDbEntity
  8
1
  6
Continuous
 62
     3
100
AcDbCircle
 10
321.915745228711
 20
178.938063456445
 30
0.0
 40
1.0
100
AcDbArc
 50
0.0
 51
180.0
  0
CIRCLE
  5
1DB
330
1F
100
AcDbEntity
  8
1
  6
Continuous
 62
     3
100
AcDbCircle
 10
269.715745228711
 20
194.438063456445
 30
0.0
 40
10.000000259812
  0
CIRCLE
  5
1DC
330
1F
100
AcDbEntity
  8
1
  6
Continuous
 62
     3
100
AcDbCircle
 10
269.715745228711
 20
194.438063456445
 30
0.0
 40
13.19432553732003
  0
LEADER
  5
1DD
330
1F
100
AcDbEntity
  8
1
  6
Continuous
 62
     4
100
AcDbLeader
  3
Standard
 71
     0
 76
     3
 10
269.715745228711
 20
142.192019078644
 30
0.0
 10
276.926861676553
 20
148.688084465085
 30
0.0
 10
291.010260870603
 20
148.688084465085
 30
0.0
  0
LEADER
  5
1DE
330
1F
100
AcDbEntity
  8
1
  6
Continuous
 62
     4
100
AcDbLeader
  3
Standard
 71
     0
 76
     3
 10
342.674145117022
 20
105.192019078644
 30
0.0
 10
350.805269726298
 20
120.502794045132
 30
0.0
 10
366.916328626694
 20
120.502794045132
 30
0.0
  0
ENDSEC
  0
SECTION
  2
OBJECTS
  0
DICTIONARY
  5
C
330
0
100
AcDbDictionary
281
     1
  3
ACAD_GROUP
350
D
  3
ACAD_LAYOUT
350
1A
  3
ACAD_MATERIAL
350
3B
  3
ACAD_MLEADERSTYLE
350
1E1
  3
ACAD_MLINESTYLE
350
17
  3
ACAD_PLOTSETTINGS
350
19
  3
ACAD_PLOTSTYLENAME
350
E
  3
ACAD_VISUALSTYLE
350
2A
  3
AcDbVariableDictionary
350
1DF
  0
DICTIONARY
  5
D
102
{ACAD_REACTORS
330
C
102
}
330
C
100
AcDbDictionary
281
     1
  0
DICTIONARY
  5
1A
102
{ACAD_REACTORS
330
C
102
}
330
C
100
AcDbDictionary
281
     1
  3
Layout1
350
1E
  3
Layout2
350
26
  3
Model
350
22
  0
DICTIONARY
  5
3B
102
{ACAD_REACTORS
330
C
102
}
330
C
100
AcDbDictionary
281
     1
  3
ByBlock
350
3D
  3
ByLayer
350
3C
  3
Global
350
3E
  0
DICTIONARY
  5
1E1
102
{ACAD_REACTORS
330
C
102
}
330
C
100
AcDbDictionary
281
     1
  0
DICTIONARY
  5
17
102
{ACAD_REACTORS
330
C
102
}
330
C
100
AcDbDictionary
281
     1
  3
Standard
350
18
  0
DICTIONARY
  5
19
102
{ACAD_REACTORS
330
C
102
}
330
C
100
AcDbDictionary
281
     1
  0
ACDBDICTIONARYWDFLT
  5
E
102
{ACAD_REACTORS
330
C
102
}
330
C
100
AcDbDictionary
281
     1
  3
Normal
350
F
100
AcDbDictionaryWithDefault
340
F
  0
DICTIONARY
  5
2A
102
{ACAD_REACTORS
330
C
102
}
330
C
100
AcDbDictionary
281
     1
  3
2dWireframe
350
2F
  3
3D Hidden
350
31
  3
3dWireframe
350
30
  3
Basic
350
32
  3
Brighten
350
36
  3
ColorChange
350
3A
  3
Conceptual
350
34
  3
Dim
350
35
  3
Facepattern
350
39
  3
Flat
350
2B
  3
FlatWithEdges
350
2C
  3
Gouraud
350
2D
  3
GouraudWithEdges
350
2E
  3
Linepattern
350
38
  3
Realistic
350
33
  3
Thicken
350
37
  0
DICTIONARY
  5
1DF
102
{ACAD_REACTORS
330
C
102
}
330
C
100
AcDbDictionary
281
     1
  3
DIMASSOC
350
1E2
  3
HIDETEXT
350
1E3
  0
LAYOUT
  5
1E
102
{ACAD_REACTORS
330
1A
102
}
330
1A
100
AcDbPlotSettings
  1

  2
none_device
  4

  6

 40
0.0
 41
0.0
 42
0.0
 43
0.0
 44
0.0
 45
0.0
 46
0.0
 47
0.0
 48
0.0
 49
0.0
140
0.0
141
0.0
142
1.0
143
1.0
 70
   688
 72
     0
 73
     0
 74
     5
  7

 75
    16
147
1.0
148
0.0
149
0.0
100
AcDbLayout
  1
Layout1
 70
     1
 71
     1
 10
0.0
 20
0.0
 11
12.0
 21
9.0
 12
0.0
 22
0.0
 32
0.0
 14
1.00000000000000E+20
 24
1.00000000000000E+20
 34
1.00000000000000E+20
 15
-1.00000000000000E+20
 25
-1.00000000000000E+20
 35
-1.00000000000000E+20
146
0.0
 13
0.0
 23
0.0
 33
0.0
 16
1.0
 26
0.0
 36
0.0
 17
0.0
 27
1.0
 37
0.0
 76
     0
330
1B
  0
LAYOUT
  5
26
102
{ACAD_REACTORS
330
1A
102
}
330
1A
100
AcDbPlotSettings
  1

  2
none_device
  4

  6

 40
0.0
 41
0.0
 42
0.0
 43
0.0
 44
0.0
 45
0.0
 46
0.0
 47
0.0
 48
0.0
 49
0.0
140
0.0
141
0.0
142
1.0
143
1.0
 70
   688
 72
     0
 73
     0
 74
     5
  7

 75
    16
147
1.0
148
0.0
149
0.0
100
AcDbLayout
  1
Layout2
 70
     1
 71
     2
 10
0.0
 20
0.0
 11
0.0
 21
0.0
 12
0.0
 22
0.0
 32
0.0
 14
0.0
 24
0.0
 34
0.0
 15
0.0
 25
0.0
 35
0.0
146
0.0
 13
0.0
 23
0.0
 33
0.0
 16
1.0
 26
0.0
 36
0.0
 17
0.0
 27
1.0
 37
0.0
 76
     0
330
23
  0
LAYOUT
  5
22
102
{ACAD_REACTORS
330
1A
102
}
330
1A
100
AcDbPlotSettings
  1

  2
none_device
  4

  6

 40
0.0
 41
0.0
 42
0.0
 43
0.0
 44
0.0
 45
0.0
 46
0.0
 47
0.0
 48
0.0
 49
0.0
140
0.0
141
0.0
142
1.0
143
1.0
 70
  1712
 72
     0
 73
     0
 74
     0
  7

 75
     0
147
1.0
148
0.0
149
0.0
100
AcDbLayout
  1
Model
 70
     1
 71
     0
 10
0.0
 20
0.0
 11
12.0
 21
9.0
 12
0.0
 22
0.0
 32
0.0
 14
174.809786372206
 24
76.6920190786438
 34
0.0
 15
402.050698471508
 25
228.161039647941
 35
0.0
146
0.0
 13
0.0
 23
0.0
 33
0.0
 16
1.0
 26
0.0
 36
0.0
 17
0.0
 27
1.0
 37
0.0
 76
     0
330
1F
331
29
  0
MATERIAL
  5
3D
102
{ACAD_REACTORS
330
3B
102
}
102
{ACAD_XDICTIONARY
360
206
102
}
330
3B
100
AcDbMaterial
  1
ByBlock
  0
MATERIAL
  5
3C
102
{ACAD_REACTORS
330
3B
102
}
102
{ACAD_XDICTIONARY
360
204
102
}
330
3B
100
AcDbMaterial
  1
ByLayer
  0
MATERIAL
  5
3E
102
{ACAD_REACTORS
330
3B
102
}
102
{ACAD_XDICTIONARY
360
208
102
}
330
3B
100
AcDbMaterial
  1
Global
  0
MLINESTYLE
  5
18
102
{ACAD_REACTORS
330
17
102
}
330
17
100
AcDbMlineStyle
  2
Standard
 70
     0
  3

 62
   256
 51
90.0
 52
90.0
 71
     2
 49
0.5
 62
   256
  6
BYLAYER
 49
-0.5
 62
   256
  6
BYLAYER
  0
ACDBPLACEHOLDER
  5
F
102
{ACAD_REACTORS
330
E
102
}
330
E
  0
VISUALSTYLE
  5
2F
102
{ACAD_REACTORS
330
2A
102
}
102
{ACAD_XDICTIONARY
360
1EC
102
}
330
2A
100
AcDbVisualStyle
  2
2dWireframe
 70
     4
 71
     0
 72
     2
 73
     0
 90
        0
 40
-0.6
 41
-30.0
 62
     5
 63
     7
 74
     1
 91
        4
 64
     7
 65
   257
 75
     1
175
     1
 42
1.0
 92
        0
 66
   257
 43
1.0
 76
     1
 77
     6
 78
     2
 67
     7
 79
     5
170
     0
171
     0
290
     0
174
     0
 93
        1
 44
0.0
173
     0
291
     0
 45
0.0
1001
ACAD
1000
AcDbSavedByObjectVersion
1070
     0
  0
VISUALSTYLE
  5
31
102
{ACAD_REACTORS
330
2A
102
}
102
{ACAD_XDICTIONARY
360
1F0
102
}
330
2A
100
AcDbVisualStyle
  2
3D Hidden
 70
     6
 71
     1
 72
     2
 73
     2
 90
        0
 40
-0.6
 41
-30.0
 62
     5
 63
     7
 74
     2
 91
        2
 64
     7
 65
   257
 75
     2
175
     1
 42
40.0
 92
        0
 66
   257
 43
1.0
 76
     1
 77
     6
 78
     2
 67
     7
 79
     3
170
     0
171
     0
290
     0
174
     0
 93
        1
 44
0.0
173
     0
291
     0
 45
0.0
1001
ACAD
1000
AcDbSavedByObjectVersion
1070
     0
  0
VISUALSTYLE
  5
30
102
{ACAD_REACTORS
330
2A
102
}
102
{ACAD_XDICTIONARY
360
1EE
102
}
330
2A
100
AcDbVisualStyle
  2
3dWireframe
 70
     5
 71
     0
 72
     2
 73
     0
 90
        0
 40
-0.6
 41
-30.0
 62
     5
 63
     7
 74
     1
 91
        4
 64
     7
 65
   257
 75
     1
175
     1
 42
1.0
 92
        0
 66
   257
 43
1.0
 76
     1
 77
     6
 78
     2
 67
     7
 79
     5
170
     0
171
     0
290
     0
174
     0
 93
        1
 44
0.0
173
     0
291
     0
 45
0.0
1001
ACAD
1000
AcDbSavedByObjectVersion
1070
     0
  0
VISUALSTYLE
  5
32
102
{ACAD_REACTORS
330
2A
102
}
102
{ACAD_XDICTIONARY
360
1F2
102
}
330
2A
100
AcDbVisualStyle
  2
Basic
 70
     7
 71
     1
 72
     0
 73
     1
 90
        0
 40
-0.6
 41
-30.0
 62
     5
 63
     7
 74
     0
 91
        4
 64
     7
 65
   257
 75
     1
175
     1
 42
1.0
 92
        8
 66
     7
 43
1.0
 76
     1
 77
     6
 78
     2
 67
     7
 79
     5
170
     0
171
     0
290
     0
174
     0
 93
        1
 44
0.0
173
     0
291
     1
 45
0.0
1001
ACAD
1000
AcDbSavedByObjectVersion
1070
     0
  0
VISUALSTYLE
  5
36
102
{ACAD_REACTORS
330
2A
102
}
102
{ACAD_XDICTIONARY
360
1FA
102
}
330
2A
100
AcDbVisualStyle
  2
Brighten
 70
    12
 71
     2
 72
     2
 73
     0
 90
        0
 40
-0.6
 41
-30.0
 62
     5
 63
     7
 74
     1
 91
        4
 64
     7
 65
   257
 75
     1
175
     1
 42
1.0
 92
        8
 66
     7
 43
1.0
 76
     1
 77
     6
 78
     2
 67
     7
 79
     5
170
     0
171
     0
290
     0
174
     0
 93
        1
 44
50.0
173
     0
291
     1
 45
0.0
1001
ACAD
1000
AcDbSavedByObjectVersion
1070
     0
  0
VISUALSTYLE
  5
3A
102
{ACAD_REACTORS
330
2A
102
}
102
{ACAD_XDICTIONARY
360
202
102
}
330
2A
100
AcDbVisualStyle
  2
ColorChange
 70
    16
 71
     2
 72
     2
 73
     3
 90
        0
 40
-0.6
 41
-30.0
 62
     5
 63
     8
 74
     1
 91
        4
 64
     7
 65
   257
 75
     1
175
     1
 42
1.0
 92
        8
 66
     8
 43
1.0
 76
     1
 77
     6
 78
     2
 67
     7
 79
     5
170
     0
171
     0
290
     0
174
     0
 93
        1
 44
0.0
173
     0
291
     1
 45
0.0
1001
ACAD
1000
AcDbSavedByObjectVersion
1070
     0
  0
VISUALSTYLE
  5
34
102
{ACAD_REACTORS
330
2A
102
}
102
{ACAD_XDICTIONARY
360
1F6
102
}
330
2A
100
AcDbVisualStyle
  2
Conceptual
 70
     9
 71
     3
 72
     2
 73
     0
 90
        0
 40
-0.6
 41
-30.0
 62
     5
 63
     7
 74
     2
 91
        2
 64
     7
 65
   257
 75
     1
175
     1
 42
40.0
 92
        8
 66
     7
 43
1.0
 76
     1
 77
     6
 78
     2
 67
     7
 79
     3
170
     0
171
     0
290
     0
174
     0
 93
        1
 44
0.0
173
     0
291
     0
 45
0.0
1001
ACAD
1000
AcDbSavedByObjectVersion
1070
     0
  0
VISUALSTYLE
  5
35
102
{ACAD_REACTORS
330
2A
102
}
102
{ACAD_XDICTIONARY
360
1F8
102
}
330
2A
100
AcDbVisualStyle
  2
Dim
 70
    11
 71
     2
 72
     2
 73
     0
 90
        0
 40
-0.6
 41
-30.0
 62
     5
 63
     7
 74
     1
 91
        4
 64
     7
 65
   257
 75
     1
175
     1
 42
1.0
 92
        8
 66
     7
 43
1.0
 76
     1
 77
     6
 78
     2
 67
     7
 79
     5
170
     0
171
     0
290
     0
174
     0
 93
        1
 44
-50.0
173
     0
291
     1
 45
0.0
1001
ACAD
1000
AcDbSavedByObjectVersion
1070
     0
  0
VISUALSTYLE
  5
39
102
{ACAD_REACTORS
330
2A
102
}
102
{ACAD_XDICTIONARY
360
200
102
}
330
2A
100
AcDbVisualStyle
  2
Facepattern
 70
    15
 71
     2
 72
     2
 73
     0
 90
        0
 40
-0.6
 41
-30.0
 62
     5
 63
     7
 74
     1
 91
        4
 64
     7
 65
   257
 75
     1
175
     1
 42
1.0
 92
        8
 66
     7
 43
1.0
 76
     1
 77
     6
 78
     2
 67
     7
 79
     5
170
     0
171
     0
290
     0
174
     0
 93
        1
 44
0.0
173
     0
291
     1
 45
0.0
1001
ACAD
1000
AcDbSavedByObjectVersion
1070
     0
  0
VISUALSTYLE
  5
2B
102
{ACAD_REACTORS
330
2A
102
}
102
{ACAD_XDICTIONARY
360
1E4
102
}
330
2A
100
AcDbVisualStyle
  2
Flat
 70
     0
 71
     2
 72
     1
 73
     1
 90
        2
 40
-0.6
 41
30.0
 62
     5
 63
     7
 74
     0
 91
        4
 64
     7
 65
   257
 75
     1
175
     1
 42
1.0
 92
        8
 66
     7
 43
1.0
 76
     1
 77
     6
 78
     2
 67
     7
 79
     5
170
     0
171
     0
290
     0
174
     0
 93
       13
 44
0.0
173
     0
291
     1
 45
0.0
1001
ACAD
1000
AcDbSavedByObjectVersion
1070
     0
  0
VISUALSTYLE
  5
2C
102
{ACAD_REACTORS
330
2A
102
}
102
{ACAD_XDICTIONARY
360
1E6
102
}
330
2A
100
AcDbVisualStyle
  2
FlatWithEdges
 70
     1
 71
     2
 72
     1
 73
     1
 90
        2
 40
-0.6
 41
30.0
 62
     5
 63
     7
 74
     1
 91
        4
 64
     7
 65
   257
 75
     1
175
     1
 42
1.0
 92
        0
 66
   257
 43
1.0
 76
     1
 77
     6
 78
     2
 67
     7
 79
     5
170
     0
171
     0
290
     0
174
     0
 93
       13
 44
0.0
173
     0
291
     1
 45
0.0
1001
ACAD
1000
AcDbSavedByObjectVersion
1070
     0
  0
VISUALSTYLE
  5
2D
102
{ACAD_REACTORS
330
2A
102
}
102
{ACAD_XDICTIONARY
360
1E8
102
}
330
2A
100
AcDbVisualStyle
  2
Gouraud
 70
     2
 71
     2
 72
     2
 73
     1
 90
        2
 40
-0.6
 41
30.0
 62
     5
 63
     7
 74
     0
 91
        4
 64
     7
 65
   257
 75
     1
175
     1
 42
1.0
 92
        0
 66
     7
 43
1.0
 76
     1
 77
     6
 78
     2
 67
     7
 79
     5
170
     0
171
     0
290
     0
174
     0
 93
       13
 44
0.0
173
     0
291
     1
 45
0.0
1001
ACAD
1000
AcDbSavedByObjectVersion
1070
     0
  0
VISUALSTYLE
  5
2E
102
{ACAD_REACTORS
330
2A
102
}
102
{ACAD_XDICTIONARY
360
1EA
102
}
330
2A
100
AcDbVisualStyle
  2
GouraudWithEdges
 70
     3
 71
     2
 72
     2
 73
     1
 90
        2
 40
-0.6
 41
30.0
 62
     5
 63
     7
 74
     1
 91
        4
 64
     7
 65
   257
 75
     1
175
     1
 42
1.0
 92
        0
 66
   257
 43
1.0
 76
     1
 77
     6
 78
     2
 67
     7
 79
     5
170
     0
171
     0
290
     0
174
     0
 93
       13
 44
0.0
173
     0
291
     1
 45
0.0
1001
ACAD
1000
AcDbSavedByObjectVersion
1070
     0
  0
VISUALSTYLE
  5
38
102
{ACAD_REACTORS
330
2A
102
}
102
{ACAD_XDICTIONARY
360
1FE
102
}
330
2A
100
AcDbVisualStyle
  2
Linepattern
 70
    14
 71
     2
 72
     2
 73
     0
 90
        0
 40
-0.6
 41
-30.0
 62
     5
 63
     7
 74
     1
 91
        4
 64
     7
 65
   257
 75
     7
175
     7
 42
1.0
 92
        8
 66
     7
 43
1.0
 76
     1
 77
     6
 78
     2
 67
     7
 79
     5
170
     0
171
     0
290
     0
174
     0
 93
        1
 44
0.0
173
     0
291
     1
 45
0.0
1001
ACAD
1000
AcDbSavedByObjectVersion
1070
     0
  0
VISUALSTYLE
  5
33
102
{ACAD_REACTORS
330
2A
102
}
102
{ACAD_XDICTIONARY
360
1F4
102
}
330
2A
100
AcDbVisualStyle
  2
Realistic
 70
     8
 71
     2
 72
     2
 73
     0
 90
        0
 40
-0.6
 41
-30.0
 62
     5
 63
     7
 74
     1
 91
        0
 64
     7
 65
   257
 75
     1
175
     1
 42
1.0
 92
        8
 66
     8
 43
1.0
 76
     1
 77
     6
 78
     2
 67
     7
 79
     5
170
     0
171
     0
290
     0
174
     0
 93
       13
 44
0.0
173
     0
291
     0
 45
0.0
1001
ACAD
1000
AcDbSavedByObjectVersion
1070
     0
  0
VISUALSTYLE
  5
37
102
{ACAD_REACTORS
330
2A
102
}
102
{ACAD_XDICTIONARY
360
1FC
102
}
330
2A
100
AcDbVisualStyle
  2
Thicken
 70
    13
 71
     2
 72
     2
 73
     0
 90
        0
 40
-0.6
 41
-30.0
 62
     5
 63
     7
 74
     1
 91
        4
 64
     7
 65
   257
 75
     1
175
     1
 42
1.0
 92
       12
 66
     7
 43
1.0
 76
     1
 77
     6
 78
     2
 67
     7
 79
     5
170
     0
171
     0
290
     0
174
     0
 93
        1
 44
0.0
173
     0
291
     1
 45
0.0
1001
ACAD
1000
AcDbSavedByObjectVersion
1070
     0
  0
DICTIONARYVAR
  5
1E2
102
{ACAD_REACTORS
330
1DF
102
}
330
1DF
100
DictionaryVariables
280
     0
  1
2
  0
DICTIONARYVAR
  5
1E3
102
{ACAD_REACTORS
330
1DF
102
}
330
1DF
100
DictionaryVariables
280
     0
  1
1
  0
DICTIONARY
  5
206
330
3D
100
AcDbDictionary
280
     1
281
     1
  3
ACAD_XREC_ROUNDTRIP
360
207
  0
DICTIONARY
  5
204
330
3C
100
AcDbDictionary
280
     1
281
     1
  3
ACAD_XREC_ROUNDTRIP
360
205
  0
DICTIONARY
  5
208
330
3E
100
AcDbDictionary
280
     1
281
     1
  3
ACAD_XREC_ROUNDTRIP
360
209
  0
DICTIONARY
  5
1EC
330
2F
100
AcDbDictionary
280
     1
281
     1
  3
ACAD_XREC_ROUNDTRIP
360
1ED
  0
DICTIONARY
  5
1F0
330
31
100
AcDbDictionary
280
     1
281
     1
  3
ACAD_XREC_ROUNDTRIP
360
1F1
  0
DICTIONARY
  5
1EE
330
30
100
AcDbDictionary
280
     1
281
     1
  3
ACAD_XREC_ROUNDTRIP
360
1EF
  0
DICTIONARY
  5
1F2
330
32
100
AcDbDictionary
280
     1
281
     1
  3
ACAD_XREC_ROUNDTRIP
360
1F3
  0
DICTIONARY
  5
1FA
330
36
100
AcDbDictionary
280
     1
281
     1
  3
ACAD_XREC_ROUNDTRIP
360
1FB
  0
DICTIONARY
  5
202
330
3A
100
AcDbDictionary
280
     1
281
     1
  3
ACAD_XREC_ROUNDTRIP
360
203
  0
DICTIONARY
  5
1F6
330
34
100
AcDbDictionary
280
     1
281
     1
  3
ACAD_XREC_ROUNDTRIP
360
1F7
  0
DICTIONARY
  5
1F8
330
35
100
AcDbDictionary
280
     1
281
     1
  3
ACAD_XREC_ROUNDTRIP
360
1F9
  0
DICTIONARY
  5
200
330
39
100
AcDbDictionary
280
     1
281
     1
  3
ACAD_XREC_ROUNDTRIP
360
201
  0
DICTIONARY
  5
1E4
330
2B
100
AcDbDictionary
280
     1
281
     1
  3
ACAD_XREC_ROUNDTRIP
360
1E5
  0
DICTIONARY
  5
1E6
330
2C
100
AcDbDictionary
280
     1
281
     1
  3
ACAD_XREC_ROUNDTRIP
360
1E7
  0
DICTIONARY
  5
1E8
330
2D
100
AcDbDictionary
280
     1
281
     1
  3
ACAD_XREC_ROUNDTRIP
360
1E9
  0
DICTIONARY
  5
1EA
330
2E
100
AcDbDictionary
280
     1
281
     1
  3
ACAD_XREC_ROUNDTRIP
360
1EB
  0
DICTIONARY
  5
1FE
330
38
100
AcDbDictionary
280
     1
281
     1
  3
ACAD_XREC_ROUNDTRIP
360
1FF
  0
DICTIONARY
  5
1F4
330
33
100
AcDbDictionary
280
     1
281
     1
  3
ACAD_XREC_ROUNDTRIP
360
1F5
  0
DICTIONARY
  5
1FC
330
37
100
AcDbDictionary
280
     1
281
     1
  3
ACAD_XREC_ROUNDTRIP
360
1FD
  0
XRECORD
  5
207
102
{ACAD_REACTORS
330
206
102
}
330
206
100
AcDbXrecord
280
     1
102
MATERIAL
148
0.0
149
0.0
149
0.0
 93
        0
 94
      127
282
     0
 72
     1
 77
     1
171
     1
175
     1
179
     1
273
     0
  0
XRECORD
  5
205
102
{ACAD_REACTORS
330
204
102
}
330
204
100
AcDbXrecord
280
     1
102
MATERIAL
148
0.0
149
0.0
149
0.0
 93
        0
 94
      127
282
     0
 72
     1
 77
     1
171
     1
175
     1
179
     1
273
     0
  0
XRECORD
  5
209
102
{ACAD_REACTORS
330
208
102
}
330
208
100
AcDbXrecord
280
     1
102
MATERIAL
148
0.0
149
0.0
149
0.0
 93
        0
 94
      127
282
     0
 72
     1
 77
     1
171
     1
175
     1
179
     1
273
     0
  0
XRECORD
  5
1ED
102
{ACAD_REACTORS
330
1EC
102
}
330
1EC
100
AcDbXrecord
280
     1
102
RTVSPropertyOp0
 70
     1
102
RTVSPropertyOp1
 70
     1
102
RTVSPropertyOp2
 70
     1
102
RTVSPropertyOp3
 70
     1
102
RTVSPropertyOp4
 70
     1
102
RTVSPropertyOp5
 70
     1
102
RTVSPropertyOp6
 70
     1
102
RTVSPropertyOp7
 70
     1
102
RTVSPropertyOp8
 70
     1
102
RTVSPropertyOp9
 70
     1
102
RTVSPropertyOp10
 70
     1
102
RTVSPropertyOp11
 70
     1
102
RTVSPropertyOp12
 70
     1
102
RTVSPropertyOp13
 70
     1
102
RTVSPropertyOp14
 70
     1
102
RTVSPropertyOp15
 70
     1
102
RTVSPropertyOp16
 70
     1
102
RTVSPropertyOp17
 70
     1
102
RTVSPropertyOp18
 70
     1
102
RTVSPropertyOp19
 70
     1
102
RTVSPropertyOp20
 70
     1
102
RTVSPropertyOp21
 70
     1
102
RTVSPropertyOp22
 70
     1
102
RTVSPropertyOp23
 70
     1
102
RTVSPropertyOp24
 70
     1
102
RTVSPropertyOp25
 70
     1
102
RTVSPropertyOp26
 70
     1
102
RTVSPropertyOp27
 70
     1
  0
XRECORD
  5
1F1
102
{ACAD_REACTORS
330
1F0
102
}
330
1F0
100
AcDbXrecord
280
     1
102
RTVSPropertyOp0
 70
     1
102
RTVSPropertyOp1
 70
     1
102
RTVSPropertyOp2
 70
     1
102
RTVSPropertyOp3
 70
     1
102
RTVSPropertyOp4
 70
     1
102
RTVSPropertyOp5
 70
     1
102
RTVSPropertyOp6
 70
     1
102
RTVSPropertyOp7
 70
     1
102
RTVSPropertyOp8
 70
     1
102
RTVSPropertyOp9
 70
     1
102
RTVSPropertyOp10
 70
     1
102
RTVSPropertyOp11
 70
     1
102
RTVSPropertyOp12
 70
     1
102
RTVSPropertyOp13
 70
     1
102
RTVSPropertyOp14
 70
     1
102
RTVSPropertyOp15
 70
     1
102
RTVSPropertyOp16
 70
     1
102
RTVSPropertyOp17
 70
     1
102
RTVSPropertyOp18
 70
     1
102
RTVSPropertyOp19
 70
     1
102
RTVSPropertyOp20
 70
     1
102
RTVSPropertyOp21
 70
     1
102
RTVSPropertyOp22
 70
     1
102
RTVSPropertyOp23
 70
     1
102
RTVSPropertyOp24
 70
     1
102
RTVSPropertyOp25
 70
     1
102
RTVSPropertyOp26
 70
     1
102
RTVSPropertyOp27
 70
     1
  0
XRECORD
  5
1EF
102
{ACAD_REACTORS
330
1EE
102
}
330
1EE
100
AcDbXrecord
280
     1
102
RTVSPropertyOp0
 70
     1
102
RTVSPropertyOp1
 70
     1
102
RTVSPropertyOp2
 70
     1
102
RTVSPropertyOp3
 70
     1
102
RTVSPropertyOp4
 70
     1
102
RTVSPropertyOp5
 70
     1
102
RTVSPropertyOp6
 70
     1
102
RTVSPropertyOp7
 70
     1
102
RTVSPropertyOp8
 70
     1
102
RTVSPropertyOp9
 70
     1
102
RTVSPropertyOp10
 70
     1
102
RTVSPropertyOp11
 70
     1
102
RTVSPropertyOp12
 70
     1
102
RTVSPropertyOp13
 70
     1
102
RTVSPropertyOp14
 70
     1
102
RTVSPropertyOp15
 70
     1
102
RTVSPropertyOp16
 70
     1
102
RTVSPropertyOp17
 70
     1
102
RTVSPropertyOp18
 70
     1
102
RTVSPropertyOp19
 70
     1
102
RTVSPropertyOp20
 70
     1
102
RTVSPropertyOp21
 70
     1
102
RTVSPropertyOp22
 70
     1
102
RTVSPropertyOp23
 70
     1
102
RTVSPropertyOp24
 70
     1
102
RTVSPropertyOp25
 70
     1
102
RTVSPropertyOp26
 70
     1
102
RTVSPropertyOp27
 70
     1
  0
XRECORD
  5
1F3
102
{ACAD_REACTORS
330
1F2
102
}
330
1F2
100
AcDbXrecord
280
     1
102
RTVSPropertyOp0
 70
     1
102
RTVSPropertyOp1
 70
     1
102
RTVSPropertyOp2
 70
     1
102
RTVSPropertyOp3
 70
     1
102
RTVSPropertyOp4
 70
     1
102
RTVSPropertyOp5
 70
     1
102
RTVSPropertyOp6
 70
     1
102
RTVSPropertyOp7
 70
     1
102
RTVSPropertyOp8
 70
     1
102
RTVSPropertyOp9
 70
     1
102
RTVSPropertyOp10
 70
     1
102
RTVSPropertyOp11
 70
     1
102
RTVSPropertyOp12
 70
     1
102
RTVSPropertyOp13
 70
     1
102
RTVSPropertyOp14
 70
     1
102
RTVSPropertyOp15
 70
     1
102
RTVSPropertyOp16
 70
     1
102
RTVSPropertyOp17
 70
     1
102
RTVSPropertyOp18
 70
     1
102
RTVSPropertyOp19
 70
     1
102
RTVSPropertyOp20
 70
     1
102
RTVSPropertyOp21
 70
     1
102
RTVSPropertyOp22
 70
     1
102
RTVSPropertyOp23
 70
     1
102
RTVSPropertyOp24
 70
     1
102
RTVSPropertyOp25
 70
     1
102
RTVSPropertyOp26
 70
     1
102
RTVSPropertyOp27
 70
     1
  0
XRECORD
  5
1FB
102
{ACAD_REACTORS
330
1FA
102
}
330
1FA
100
AcDbXrecord
280
     1
102
RTVSPropertyOp0
 70
     1
102
RTVSPropertyOp1
 70
     1
102
RTVSPropertyOp2
 70
     1
102
RTVSPropertyOp3
 70
     1
102
RTVSPropertyOp4
 70
     1
102
RTVSPropertyOp5
 70
     1
102
RTVSPropertyOp6
 70
     1
102
RTVSPropertyOp7
 70
     1
102
RTVSPropertyOp8
 70
     1
102
RTVSPropertyOp9
 70
     1
102
RTVSPropertyOp10
 70
     1
102
RTVSPropertyOp11
 70
     1
102
RTVSPropertyOp12
 70
     1
102
RTVSPropertyOp13
 70
     1
102
RTVSPropertyOp14
 70
     1
102
RTVSPropertyOp15
 70
     1
102
RTVSPropertyOp16
 70
     1
102
RTVSPropertyOp17
 70
     1
102
RTVSPropertyOp18
 70
     1
102
RTVSPropertyOp19
 70
     1
102
RTVSPropertyOp20
 70
     1
102
RTVSPropertyOp21
 70
     1
102
RTVSPropertyOp22
 70
     1
102
RTVSPropertyOp23
 70
     1
102
RTVSPropertyOp24
 70
     1
102
RTVSPropertyOp25
 70
     1
102
RTVSPropertyOp26
 70
     1
102
RTVSPropertyOp27
 70
     1
  0
XRECORD
  5
203
102
{ACAD_REACTORS
330
202
102
}
330
202
100
AcDbXrecord
280
     1
102
RTVSPropertyOp0
 70
     1
102
RTVSPropertyOp1
 70
     1
102
RTVSPropertyOp2
 70
     1
102
RTVSPropertyOp3
 70
     1
102
RTVSPropertyOp4
 70
     1
102
RTVSPropertyOp5
 70
     1
102
RTVSPropertyOp6
 70
     1
102
RTVSPropertyOp7
 70
     1
102
RTVSPropertyOp8
 70
     1
102
RTVSPropertyOp9
 70
     1
102
RTVSPropertyOp10
 70
     1
102
RTVSPropertyOp11
 70
     1
102
RTVSPropertyOp12
 70
     1
102
RTVSPropertyOp13
 70
     1
102
RTVSPropertyOp14
 70
     1
102
RTVSPropertyOp15
 70
     1
102
RTVSPropertyOp16
 70
     1
102
RTVSPropertyOp17
 70
     1
102
RTVSPropertyOp18
 70
     1
102
RTVSPropertyOp19
 70
     1
102
RTVSPropertyOp20
 70
     1
102
RTVSPropertyOp21
 70
     1
102
RTVSPropertyOp22
 70
     1
102
RTVSPropertyOp23
 70
     1
102
RTVSPropertyOp24
 70
     1
102
RTVSPropertyOp25
 70
     1
102
RTVSPropertyOp26
 70
     1
102
RTVSPropertyOp27
 70
     1
  0
XRECORD
  5
1F7
102
{ACAD_REACTORS
330
1F6
102
}
330
1F6
100
AcDbXrecord
280
     1
102
RTVSPropertyOp0
 70
     1
102
RTVSPropertyOp1
 70
     1
102
RTVSPropertyOp2
 70
     1
102
RTVSPropertyOp3
 70
     1
102
RTVSPropertyOp4
 70
     1
102
RTVSPropertyOp5
 70
     1
102
RTVSPropertyOp6
 70
     1
102
RTVSPropertyOp7
 70
     1
102
RTVSPropertyOp8
 70
     1
102
RTVSPropertyOp9
 70
     1
102
RTVSPropertyOp10
 70
     1
102
RTVSPropertyOp11
 70
     1
102
RTVSPropertyOp12
 70
     1
102
RTVSPropertyOp13
 70
     1
102
RTVSPropertyOp14
 70
     1
102
RTVSPropertyOp15
 70
     1
102
RTVSPropertyOp16
 70
     1
102
RTVSPropertyOp17
 70
     1
102
RTVSPropertyOp18
 70
     1
102
RTVSPropertyOp19
 70
     1
102
RTVSPropertyOp20
 70
     1
102
RTVSPropertyOp21
 70
     1
102
RTVSPropertyOp22
 70
     1
102
RTVSPropertyOp23
 70
     1
102
RTVSPropertyOp24
 70
     1
102
RTVSPropertyOp25
 70
     1
102
RTVSPropertyOp26
 70
     1
102
RTVSPropertyOp27
 70
     1
  0
XRECORD
  5
1F9
102
{ACAD_REACTORS
330
1F8
102
}
330
1F8
100
AcDbXrecord
280
     1
102
RTVSPropertyOp0
 70
     1
102
RTVSPropertyOp1
 70
     1
102
RTVSPropertyOp2
 70
     1
102
RTVSPropertyOp3
 70
     1
102
RTVSPropertyOp4
 70
     1
102
RTVSPropertyOp5
 70
     1
102
RTVSPropertyOp6
 70
     1
102
RTVSPropertyOp7
 70
     1
102
RTVSPropertyOp8
 70
     1
102
RTVSPropertyOp9
 70
     1
102
RTVSPropertyOp10
 70
     1
102
RTVSPropertyOp11
 70
     1
102
RTVSPropertyOp12
 70
     1
102
RTVSPropertyOp13
 70
     1
102
RTVSPropertyOp14
 70
     1
102
RTVSPropertyOp15
 70
     1
102
RTVSPropertyOp16
 70
     1
102
RTVSPropertyOp17
 70
     1
102
RTVSPropertyOp18
 70
     1
102
RTVSPropertyOp19
 70
     1
102
RTVSPropertyOp20
 70
     1
102
RTVSPropertyOp21
 70
     1
102
RTVSPropertyOp22
 70
     1
102
RTVSPropertyOp23
 70
     1
102
RTVSPropertyOp24
 70
     1
102
RTVSPropertyOp25
 70
     1
102
RTVSPropertyOp26
 70
     1
102
RTVSPropertyOp27
 70
     1
  0
XRECORD
  5
201
102
{ACAD_REACTORS
330
200
102
}
330
200
100
AcDbXrecord
280
     1
102
RTVSPropertyOp0
 70
     1
102
RTVSPropertyOp1
 70
     1
102
RTVSPropertyOp2
 70
     1
102
RTVSPropertyOp3
 70
     1
102
RTVSPropertyOp4
 70
     1
102
RTVSPropertyOp5
 70
     1
102
RTVSPropertyOp6
 70
     1
102
RTVSPropertyOp7
 70
     1
102
RTVSPropertyOp8
 70
     1
102
RTVSPropertyOp9
 70
     1
102
RTVSPropertyOp10
 70
     1
102
RTVSPropertyOp11
 70
     1
102
RTVSPropertyOp12
 70
     1
102
RTVSPropertyOp13
 70
     1
102
RTVSPropertyOp14
 70
     1
102
RTVSPropertyOp15
 70
     1
102
RTVSPropertyOp16
 70
     1
102
RTVSPropertyOp17
 70
     1
102
RTVSPropertyOp18
 70
     1
102
RTVSPropertyOp19
 70
     1
102
RTVSPropertyOp20
 70
     1
102
RTVSPropertyOp21
 70
     1
102
RTVSPropertyOp22
 70
     1
102
RTVSPropertyOp23
 70
     1
102
RTVSPropertyOp24
 70
     1
102
RTVSPropertyOp25
 70
     1
102
RTVSPropertyOp26
 70
     1
102
RTVSPropertyOp27
 70
     1
  0
XRECORD
  5
1E5
102
{ACAD_REACTORS
330
1E4
102
}
330
1E4
100
AcDbXrecord
280
     1
102
RTVSPropertyOp0
 70
     1
102
RTVSPropertyOp1
 70
     1
102
RTVSPropertyOp2
 70
     1
102
RTVSPropertyOp3
 70
     1
102
RTVSPropertyOp4
 70
     1
102
RTVSPropertyOp5
 70
     1
102
RTVSPropertyOp6
 70
     1
102
RTVSPropertyOp7
 70
     1
102
RTVSPropertyOp8
 70
     1
102
RTVSPropertyOp9
 70
     1
102
RTVSPropertyOp10
 70
     1
102
RTVSPropertyOp11
 70
     1
102
RTVSPropertyOp12
 70
     1
102
RTVSPropertyOp13
 70
     1
102
RTVSPropertyOp14
 70
     1
102
RTVSPropertyOp15
 70
     1
102
RTVSPropertyOp16
 70
     1
102
RTVSPropertyOp17
 70
     1
102
RTVSPropertyOp18
 70
     1
102
RTVSPropertyOp19
 70
     1
102
RTVSPropertyOp20
 70
     1
102
RTVSPropertyOp21
 70
     1
102
RTVSPropertyOp22
 70
     1
102
RTVSPropertyOp23
 70
     1
102
RTVSPropertyOp24
 70
     1
102
RTVSPropertyOp25
 70
     1
102
RTVSPropertyOp26
 70
     1
102
RTVSPropertyOp27
 70
     1
  0
XRECORD
  5
1E7
102
{ACAD_REACTORS
330
1E6
102
}
330
1E6
100
AcDbXrecord
280
     1
102
RTVSPropertyOp0
 70
     1
102
RTVSPropertyOp1
 70
     1
102
RTVSPropertyOp2
 70
     1
102
RTVSPropertyOp3
 70
     1
102
RTVSPropertyOp4
 70
     1
102
RTVSPropertyOp5
 70
     1
102
RTVSPropertyOp6
 70
     1
102
RTVSPropertyOp7
 70
     1
102
RTVSPropertyOp8
 70
     1
102
RTVSPropertyOp9
 70
     1
102
RTVSPropertyOp10
 70
     1
102
RTVSPropertyOp11
 70
     1
102
RTVSPropertyOp12
 70
     1
102
RTVSPropertyOp13
 70
     1
102
RTVSPropertyOp14
 70
     1
102
RTVSPropertyOp15
 70
     1
102
RTVSPropertyOp16
 70
     1
102
RTVSPropertyOp17
 70
     1
102
RTVSPropertyOp18
 70
     1
102
RTVSPropertyOp19
 70
     1
102
RTVSPropertyOp20
 70
     1
102
RTVSPropertyOp21
 70
     1
102
RTVSPropertyOp22
 70
     1
102
RTVSPropertyOp23
 70
     1
102
RTVSPropertyOp24
 70
     1
102
RTVSPropertyOp25
 70
     1
102
RTVSPropertyOp26
 70
     1
102
RTVSPropertyOp27
 70
     1
  0
XRECORD
  5
1E9
102
{ACAD_REACTORS
330
1E8
102
}
330
1E8
100
AcDbXrecord
280
     1
102
RTVSPropertyOp0
 70
     1
102
RTVSPropertyOp1
 70
     1
102
RTVSPropertyOp2
 70
     1
102
RTVSPropertyOp3
 70
     1
102
RTVSPropertyOp4
 70
     1
102
RTVSPropertyOp5
 70
     1
102
RTVSPropertyOp6
 70
     1
102
RTVSPropertyOp7
 70
     1
102
RTVSPropertyOp8
 70
     1
102
RTVSPropertyOp9
 70
     1
102
RTVSPropertyOp10
 70
     1
102
RTVSPropertyOp11
 70
     1
102
RTVSPropertyOp12
 70
     1
102
RTVSPropertyOp13
 70
     1
102
RTVSPropertyOp14
 70
     1
102
RTVSPropertyOp15
 70
     1
102
RTVSPropertyOp16
 70
     1
102
RTVSPropertyOp17
 70
     1
102
RTVSPropertyOp18
 70
     1
102
RTVSPropertyOp19
 70
     1
102
RTVSPropertyOp20
 70
     1
102
RTVSPropertyOp21
 70
     1
102
RTVSPropertyOp22
 70
     1
102
RTVSPropertyOp23
 70
     1
102
RTVSPropertyOp24
 70
     1
102
RTVSPropertyOp25
 70
     1
102
RTVSPropertyOp26
 70
     1
102
RTVSPropertyOp27
 70
     1
  0
XRECORD
  5
1EB
102
{ACAD_REACTORS
330
1EA
102
}
330
1EA
100
AcDbXrecord
280
     1
102
RTVSPropertyOp0
 70
     1
102
RTVSPropertyOp1
 70
     1
102
RTVSPropertyOp2
 70
     1
102
RTVSPropertyOp3
 70
     1
102
RTVSPropertyOp4
 70
     1
102
RTVSPropertyOp5
 70
     1
102
RTVSPropertyOp6
 70
     1
102
RTVSPropertyOp7
 70
     1
102
RTVSPropertyOp8
 70
     1
102
RTVSPropertyOp9
 70
     1
102
RTVSPropertyOp10
 70
     1
102
RTVSPropertyOp11
 70
     1
102
RTVSPropertyOp12
 70
     1
102
RTVSPropertyOp13
 70
     1
102
RTVSPropertyOp14
 70
     1
102
RTVSPropertyOp15
 70
     1
102
RTVSPropertyOp16
 70
     1
102
RTVSPropertyOp17
 70
     1
102
RTVSPropertyOp18
 70
     1
102
RTVSPropertyOp19
 70
     1
102
RTVSPropertyOp20
 70
     1
102
RTVSPropertyOp21
 70
     1
102
RTVSPropertyOp22
 70
     1
102
RTVSPropertyOp23
 70
     1
102
RTVSPropertyOp24
 70
     1
102
RTVSPropertyOp25
 70
     1
102
RTVSPropertyOp26
 70
     1
102
RTVSPropertyOp27
 70
     1
  0
XRECORD
  5
1FF
102
{ACAD_REACTORS
330
1FE
102
}
330
1FE
100
AcDbXrecord
280
     1
102
RTVSPropertyOp0
 70
     1
102
RTVSPropertyOp1
 70
     1
102
RTVSPropertyOp2
 70
     1
102
RTVSPropertyOp3
 70
     1
102
RTVSPropertyOp4
 70
     1
102
RTVSPropertyOp5
 70
     1
102
RTVSPropertyOp6
 70
     1
102
RTVSPropertyOp7
 70
     1
102
RTVSPropertyOp8
 70
     1
102
RTVSPropertyOp9
 70
     1
102
RTVSPropertyOp10
 70
     1
102
RTVSPropertyOp11
 70
     1
102
RTVSPropertyOp12
 70
     1
102
RTVSPropertyOp13
 70
     1
102
RTVSPropertyOp14
 70
     1
102
RTVSPropertyOp15
 70
     1
102
RTVSPropertyOp16
 70
     1
102
RTVSPropertyOp17
 70
     1
102
RTVSPropertyOp18
 70
     1
102
RTVSPropertyOp19
 70
     1
102
RTVSPropertyOp20
 70
     1
102
RTVSPropertyOp21
 70
     1
102
RTVSPropertyOp22
 70
     1
102
RTVSPropertyOp23
 70
     1
102
RTVSPropertyOp24
 70
     1
102
RTVSPropertyOp25
 70
     1
102
RTVSPropertyOp26
 70
     1
102
RTVSPropertyOp27
 70
     1
  0
XRECORD
  5
1F5
102
{ACAD_REACTORS
330
1F4
102
}
330
1F4
100
AcDbXrecord
280
     1
102
RTVSPropertyOp0
 70
     1
102
RTVSPropertyOp1
 70
     1
102
RTVSPropertyOp2
 70
     1
102
RTVSPropertyOp3
 70
     1
102
RTVSPropertyOp4
 70
     1
102
RTVSPropertyOp5
 70
     1
102
RTVSPropertyOp6
 70
     1
102
RTVSPropertyOp7
 70
     1
102
RTVSPropertyOp8
 70
     1
102
RTVSPropertyOp9
 70
     1
102
RTVSPropertyOp10
 70
     1
102
RTVSPropertyOp11
 70
     1
102
RTVSPropertyOp12
 70
     1
102
RTVSPropertyOp13
 70
     1
102
RTVSPropertyOp14
 70
     1
102
RTVSPropertyOp15
 70
     1
102
RTVSPropertyOp16
 70
     1
102
RTVSPropertyOp17
 70
     1
102
RTVSPropertyOp18
 70
     1
102
RTVSPropertyOp19
 70
     1
102
RTVSPropertyOp20
 70
     1
102
RTVSPropertyOp21
 70
     1
102
RTVSPropertyOp22
 70
     1
102
RTVSPropertyOp23
 70
     1
102
RTVSPropertyOp24
 70
     1
102
RTVSPropertyOp25
 70
     1
102
RTVSPropertyOp26
 70
     1
102
RTVSPropertyOp27
 70
     1
  0
XRECORD
  5
1FD
102
{ACAD_REACTORS
330
1FC
102
}
330
1FC
100
AcDbXrecord
280
     1
102
RTVSPropertyOp0
 70
     1
102
RTVSPropertyOp1
 70
     1
102
RTVSPropertyOp2
 70
     1
102
RTVSPropertyOp3
 70
     1
102
RTVSPropertyOp4
 70
     1
102
RTVSPropertyOp5
 70
     1
102
RTVSPropertyOp6
 70
     1
102
RTVSPropertyOp7
 70
     1
102
RTVSPropertyOp8
 70
     1
102
RTVSPropertyOp9
 70
     1
102
RTVSPropertyOp10
 70
     1
102
RTVSPropertyOp11
 70
     1
102
RTVSPropertyOp12
 70
     1
102
RTVSPropertyOp13
 70
     1
102
RTVSPropertyOp14
 70
     1
102
RTVSPropertyOp15
 70
     1
102
RTVSPropertyOp16
 70
     1
102
RTVSPropertyOp17
 70
     1
102
RTVSPropertyOp18
 70
     1
102
RTVSPropertyOp19
 70
     1
102
RTVSPropertyOp20
 70
     1
102
RTVSPropertyOp21
 70
     1
102
RTVSPropertyOp22
 70
     1
102
RTVSPropertyOp23
 70
     1
102
RTVSPropertyOp24
 70
     1
102
RTVSPropertyOp25
 70
     1
102
RTVSPropertyOp26
 70
     1
102
RTVSPropertyOp27
 70
     1
  0
ENDSEC
  0
EOF
