  0
SECTION
  2
HEADER
  9
$ACADVER
  1
AC1015
  9
$ACADMAINTVER
 70
     6
  9
$DWGCODEPAGE
  3
ANSI_932
  9
$INSBASE
 10
0.0
 20
0.0
 30
0.0
  9
$EXTMIN
 10
-229.3390421505155
 20
252.306326204956
 30
0.0
  9
$EXTMAX
 10
580.5093547120891
 20
1099.598462616029
 30
0.0
  9
$LIMMIN
 10
0.0
 20
0.0
  9
$LIMMAX
 10
12.0
 20
9.0
  9
$ORTHOMODE
 70
     0
  9
$REGENMODE
 70
     1
  9
$FILLMODE
 70
     1
  9
$QTEXTMODE
 70
     0
  9
$MIRRTEXT
 70
     1
  9
$LTSCALE
 40
1.0
  9
$ATTMODE
 70
     1
  9
$TEXTSIZE
 40
0.2
  9
$TRACEWID
 40
0.05
  9
$TEXTSTYLE
  7
Standard
  9
$CLAYER
  8
0
  9
$CELTYPE
  6
ByLayer
  9
$CECOLOR
 62
   256
  9
$CELTSCALE
 40
1.0
  9
$DISPSILH
 70
     0
  9
$DIMSCALE
 40
1.0
  9
$DIMASZ
 40
0.18
  9
$DIMEXO
 40
0.0625
  9
$DIMDLI
 40
0.38
  9
$DIMRND
 40
0.0
  9
$DIMDLE
 40
0.0
  9
$DIMEXE
 40
0.18
  9
$DIMTP
 40
0.0
  9
$DIMTM
 40
0.0
  9
$DIMTXT
 40
0.18
  9
$DIMCEN
 40
0.09
  9
$DIMTSZ
 40
0.0
  9
$DIMTOL
 70
     0
  9
$DIMLIM
 70
     0
  9
$DIMTIH
 70
     1
  9
$DIMTOH
 70
     1
  9
$DIMSE1
 70
     0
  9
$DIMSE2
 70
     0
  9
$DIMTAD
 70
     0
  9
$DIMZIN
 70
     0
  9
$DIMBLK
  1

  9
$DIMASO
 70
     1
  9
$DIMSHO
 70
     1
  9
$DIMPOST
  1

  9
$DIMAPOST
  1

  9
$DIMALT
 70
     0
  9
$DIMALTD
 70
     2
  9
$DIMALTF
 40
25.4
  9
$DIMLFAC
 40
1.0
  9
$DIMTOFL
 70
     0
  9
$DIMTVP
 40
0.0
  9
$DIMTIX
 70
     0
  9
$DIMSOXD
 70
     0
  9
$DIMSAH
 70
     0
  9
$DIMBLK1
  1

  9
$DIMBLK2
  1

  9
$DIMSTYLE
  2
Standard
  9
$DIMCLRD
 70
     0
  9
$DIMCLRE
 70
     0
  9
$DIMCLRT
 70
     0
  9
$DIMTFAC
 40
1.0
  9
$DIMGAP
 40
0.09
  9
$DIMJUST
 70
     0
  9
$DIMSD1
 70
     0
  9
$DIMSD2
 70
     0
  9
$DIMTOLJ
 70
     1
  9
$DIMTZIN
 70
     0
  9
$DIMALTZ
 70
     0
  9
$DIMALTTZ
 70
     0
  9
$DIMUPT
 70
     0
  9
$DIMDEC
 70
     4
  9
$DIMTDEC
 70
     4
  9
$DIMALTU
 70
     2
  9
$DIMALTTD
 70
     2
  9
$DIMTXSTY
  7
Standard
  9
$DIMAUNIT
 70
     0
  9
$DIMADEC
 70
     0
  9
$DIMALTRND
 40
0.0
  9
$DIMAZIN
 70
     0
  9
$DIMDSEP
 70
    46
  9
$DIMATFIT
 70
     3
  9
$DIMFRAC
 70
     0
  9
$DIMLDRBLK
  1

  9
$DIMLUNIT
 70
     2
  9
$DIMLWD
 70
    -2
  9
$DIMLWE
 70
    -2
  9
$DIMTMOVE
 70
     0
  9
$LUNITS
 70
     2
  9
$LUPREC
 70
     4
  9
$SKETCHINC
 40
0.1
  9
$FILLETRAD
 40
0.5
  9
$AUNITS
 70
     0
  9
$AUPREC
 70
     0
  9
$MENU
  1
.
  9
$ELEVATION
 40
0.0
  9
$PELEVATION
 40
0.0
  9
$THICKNESS
 40
0.0
  9
$LIMCHECK
 70
     0
  9
$CHAMFERA
 40
0.5
  9
$CHAMFERB
 40
0.5
  9
$CHAMFERC
 40
1.0
  9
$CHAMFERD
 40
0.0
  9
$SKPOLY
 70
     0
  9
$TDCREATE
 40
2458597.736555023
  9
$TDUCREATE
 40
2458597.361555023
  9
$TDUPDATE
 40
2458597.736555035
  9
$TDUUPDATE
 40
2458597.361555035
  9
$TDINDWG
 40
0.0000000116
  9
$TDUSRTIMER
 40
0.0000000116
  9
$USRTIMER
 70
     1
  9
$ANGBASE
 50
0.0
  9
$ANGDIR
 70
     0
  9
$PDMODE
 70
     0
  9
$PDSIZE
 40
0.0
  9
$PLINEWID
 40
0.0
  9
$SPLFRAME
 70
     0
  9
$SPLINETYPE
 70
     6
  9
$SPLINESEGS
 70
     8
  9
$HANDSEED
  5
235
  9
$SURFTAB1
 70
     6
  9
$SURFTAB2
 70
     6
  9
$SURFTYPE
 70
     6
  9
$SURFU
 70
     6
  9
$SURFV
 70
     6
  9
$UCSBASE
  2

  9
$UCSNAME
  2

  9
$UCSORG
 10
0.0
 20
0.0
 30
0.0
  9
$UCSXDIR
 10
1.0
 20
0.0
 30
0.0
  9
$UCSYDIR
 10
0.0
 20
1.0
 30
0.0
  9
$UCSORTHOREF
  2

  9
$UCSORTHOVIEW
 70
     0
  9
$UCSORGTOP
 10
0.0
 20
0.0
 30
0.0
  9
$UCSORGBOTTOM
 10
0.0
 20
0.0
 30
0.0
  9
$UCSORGLEFT
 10
0.0
 20
0.0
 30
0.0
  9
$UCSORGRIGHT
 10
0.0
 20
0.0
 30
0.0
  9
$UCSORGFRONT
 10
0.0
 20
0.0
 30
0.0
  9
$UCSORGBACK
 10
0.0
 20
0.0
 30
0.0
  9
$PUCSBASE
  2

  9
$PUCSNAME
  2

  9
$PUCSORG
 10
0.0
 20
0.0
 30
0.0
  9
$PUCSXDIR
 10
1.0
 20
0.0
 30
0.0
  9
$PUCSYDIR
 10
0.0
 20
1.0
 30
0.0
  9
$PUCSORTHOREF
  2

  9
$PUCSORTHOVIEW
 70
     0
  9
$PUCSORGTOP
 10
0.0
 20
0.0
 30
0.0
  9
$PUCSORGBOTTOM
 10
0.0
 20
0.0
 30
0.0
  9
$PUCSORGLEFT
 10
0.0
 20
0.0
 30
0.0
  9
$PUCSORGRIGHT
 10
0.0
 20
0.0
 30
0.0
  9
$PUCSORGFRONT
 10
0.0
 20
0.0
 30
0.0
  9
$PUCSORGBACK
 10
0.0
 20
0.0
 30
0.0
  9
$USERI1
 70
     0
  9
$USERI2
 70
     0
  9
$USERI3
 70
     0
  9
$USERI4
 70
     0
  9
$USERI5
 70
     0
  9
$USERR1
 40
18.0
  9
$USERR2
 40
0.0
  9
$USERR3
 40
0.0
  9
$USERR4
 40
0.0
  9
$USERR5
 40
0.0
  9
$WORLDVIEW
 70
     1
  9
$SHADEDGE
 70
     3
  9
$SHADEDIF
 70
    70
  9
$TILEMODE
 70
     1
  9
$MAXACTVP
 70
    64
  9
$PINSBASE
 10
0.0
 20
0.0
 30
0.0
  9
$PLIMCHECK
 70
     0
  9
$PEXTMIN
 10
1.00000000000000E+20
 20
1.00000000000000E+20
 30
1.00000000000000E+20
  9
$PEXTMAX
 10
-1.00000000000000E+20
 20
-1.00000000000000E+20
 30
-1.00000000000000E+20
  9
$PLIMMIN
 10
0.0
 20
0.0
  9
$PLIMMAX
 10
12.0
 20
9.0
  9
$UNITMODE
 70
     0
  9
$VISRETAIN
 70
     1
  9
$PLINEGEN
 70
     0
  9
$PSLTSCALE
 70
     1
  9
$TREEDEPTH
 70
  3020
  9
$CMLSTYLE
  2
Standard
  9
$CMLJUST
 70
     0
  9
$CMLSCALE
 40
1.0
  9
$PROXYGRAPHICS
 70
     1
  9
$MEASUREMENT
 70
     1
  9
$CELWEIGHT
370
    -1
  9
$ENDCAPS
280
     0
  9
$JOINSTYLE
280
     0
  9
$LWDISPLAY
290
     0
  9
$INSUNITS
 70
     1
  9
$HYPERLINKBASE
  1

  9
$STYLESHEET
  1

  9
$XEDIT
290
     1
  9
$CEPSNTYPE
380
     0
  9
$PSTYLEMODE
290
     1
  9
$FINGERPRINTGUID
  2
{A3D31E85-4223-4A32-B67F-43D52A0EDF44}
  9
$VERSIONGUID
  2
{FAEB1C32-E019-11D5-929B-00C0DF256EC4}
  9
$EXTNAMES
290
     1
  9
$PSVPSCALE
 40
0.0
  9
$OLESTARTUP
290
     0
  0
ENDSEC
  0
SECTION
  2
CLASSES
  0
CLASS
  1
ACDBDICTIONARYWDFLT
  2
AcDbDictionaryWithDefault
  3
ObjectDBX Classes
 90
        0
280
     0
281
     0
  0
CLASS
  1
VISUALSTYLE
  2
AcDbVisualStyle
  3
ObjectDBX Classes
 90
     4095
280
     0
281
     0
  0
CLASS
  1
MATERIAL
  2
AcDbMaterial
  3
ObjectDBX Classes
 90
     1153
280
     0
281
     0
  0
CLASS
  1

  2
exOdDbSpline
  3

 90
        0
280
     0
281
     1
  0
CLASS
  1
DICTIONARYVAR
  2
AcDbDictionaryVar
  3
ObjectDBX Classes
 90
        0
280
     0
281
     0
  0
CLASS
  1
ACDBPLACEHOLDER
  2
AcDbPlaceHolder
  3
ObjectDBX Classes
 90
        0
280
     0
281
     0
  0
CLASS
  1
LAYOUT
  2
AcDbLayout
  3
ObjectDBX Classes
 90
        0
280
     0
281
     0
  0
ENDSEC
  0
SECTION
  2
TABLES
  0
TABLE
  2
VPORT
  5
8
330
0
100
AcDbSymbolTable
 70
     1
  0
VPORT
  5
29
330
8
100
AcDbSymbolTableRecord
100
AcDbViewportTableRecord
  2
*Active
 70
     0
 10
0.0
 20
0.0
 11
1.0
 21
1.0
 12
175.5851562807868
 22
675.9523944104926
 13
0.0
 23
0.0
 14
0.5
 24
0.5
 15
0.5
 25
0.5
 16
0.0
 26
0.0
 36
1.0
 17
0.0
 27
0.0
 37
0.0
 40
932.0213500521805
 41
1.60267857142857
 42
50.0
 43
0.0
 44
0.0
 50
0.0
 51
0.0
 71
     0
 72
   100
 73
     1
 74
     3
 75
     0
 76
     0
 77
     0
 78
     0
281
     0
 65
     1
110
0.0
120
0.0
130
0.0
111
1.0
121
0.0
131
0.0
112
0.0
122
1.0
132
0.0
 79
     0
146
0.0
  0
ENDTAB
  0
TABLE
  2
LTYPE
  5
5
330
0
100
AcDbSymbolTable
 70
     8
  0
LTYPE
  5
14
330
5
100
AcDbSymbolTableRecord
100
AcDbLinetypeTableRecord
  2
ByBlock
 70
     0
  3

 72
    65
 73
     0
 40
0.0
  0
LTYPE
  5
15
330
5
100
AcDbSymbolTableRecord
100
AcDbLinetypeTableRecord
  2
ByLayer
 70
     0
  3

 72
    65
 73
     0
 40
0.0
  0
LTYPE
  5
16
330
5
100
AcDbSymbolTableRecord
100
AcDbLinetypeTableRecord
  2
Continuous
 70
     0
  3
Solid line
 72
    65
 73
     0
 40
0.0
  0
LTYPE
  5
3F
330
5
100
AcDbSymbolTableRecord
100
AcDbLinetypeTableRecord
  2
DASHED
 70
     0
  3
Dashed
 72
    65
 73
     2
 40
15.0
 49
7.0
 74
     0
 49
-8.0
 74
     0
  0
LTYPE
  5
40
330
5
100
AcDbSymbolTableRecord
100
AcDbLinetypeTableRecord
  2
DOTTED
 70
     0
  3
Dotted
 72
    65
 73
     2
 40
1.0
 49
0.0
 74
     0
 49
-1.0
 74
     0
  0
LTYPE
  5
41
330
5
100
AcDbSymbolTableRecord
100
AcDbLinetypeTableRecord
  2
DOT_CENTER
 70
     0
  3
Dot_Center
 72
    65
 73
     4
 40
14.0
 49
12.0
 74
     0
 49
-1.0
 74
     0
 49
0.0
 74
     0
 49
-1.0
 74
     0
  0
LTYPE
  5
42
330
5
100
AcDbSymbolTableRecord
100
AcDbLinetypeTableRecord
  2
LONG_DASHED
 70
     0
  3
Long_Dashed
 72
    65
 73
     2
 40
15.0
 49
10.0
 74
     0
 49
-5.0
 74
     0
  0
LTYPE
  5
43
330
5
100
AcDbSymbolTableRecord
100
AcDbLinetypeTableRecord
  2
DASH_CENTER
 70
     0
  3
Dash_Center
 72
    65
 73
     4
 40
14.0
 49
11.0
 74
     0
 49
-1.0
 74
     0
 49
1.0
 74
     0
 49
-1.0
 74
     0
  0
LTYPE
  5
44
330
5
100
AcDbSymbolTableRecord
100
AcDbLinetypeTableRecord
  2
PHANTOM
 70
     0
  3
Phantom
 72
    65
 73
     6
 40
13.0
 49
10.0
 74
     0
 49
-1.0
 74
     0
 49
0.0
 74
     0
 49
-1.0
 74
     0
 49
0.0
 74
     0
 49
-1.0
 74
     0
  0
LTYPE
  5
45
330
5
100
AcDbSymbolTableRecord
100
AcDbLinetypeTableRecord
  2
CENTER_DASH_DASH
 70
     0
  3
Center_Dash_Dash
 72
    65
 73
     6
 40
14.0
 49
9.0
 74
     0
 49
-1.0
 74
     0
 49
1.0
 74
     0
 49
-1.0
 74
     0
 49
1.0
 74
     0
 49
-1.0
 74
     0
  0
ENDTAB
  0
TABLE
  2
LAYER
  5
2
330
0
100
AcDbSymbolTable
 70
     3
  0
LAYER
  5
10
330
2
100
AcDbSymbolTableRecord
100
AcDbLayerTableRecord
  2
0
 70
     0
 62
     7
  6
Continuous
370
    -3
390
F
  0
LAYER
  5
46
330
2
100
AcDbSymbolTableRecord
100
AcDbLayerTableRecord
  2
1
 70
     0
 62
     7
  6
Continuous
370
    -3
390
F
  0
LAYER
  5
47
330
2
100
AcDbSymbolTableRecord
100
AcDbLayerTableRecord
  2
100
 70
     0
 62
     7
  6
Continuous
370
    -3
390
F
  0
ENDTAB
  0
TABLE
  2
STYLE
  5
3
330
0
100
AcDbSymbolTable
 70
     1
  0
STYLE
  5
11
330
3
100
AcDbSymbolTableRecord
100
AcDbTextStyleTableRecord
  2
Standard
 70
     0
 40
0.0
 41
1.0
 50
0.0
 71
     0
 42
0.2
  3
txt
  4

  0
ENDTAB
  0
TABLE
  2
VIEW
  5
6
330
0
100
AcDbSymbolTable
 70
     0
  0
ENDTAB
  0
TABLE
  2
UCS
  5
7
330
0
100
AcDbSymbolTable
 70
     0
  0
ENDTAB
  0
TABLE
  2
APPID
  5
9
330
0
100
AcDbSymbolTable
 70
     1
  0
APPID
  5
12
330
9
100
AcDbSymbolTableRecord
100
AcDbRegAppTableRecord
  2
ACAD
 70
     0
  0
ENDTAB
  0
TABLE
  2
DIMSTYLE
  5
A
330
0
100
AcDbSymbolTable
 70
     1
100
AcDbDimStyleTable
  0
DIMSTYLE
105
27
330
A
100
AcDbSymbolTableRecord
100
AcDbDimStyleTableRecord
  2
Standard
 70
     0
340
11
  0
ENDTAB
  0
TABLE
  2
BLOCK_RECORD
  5
1
330
0
100
AcDbSymbolTable
 70
     1
  0
BLOCK_RECORD
  5
1F
330
1
100
AcDbSymbolTableRecord
100
AcDbBlockTableRecord
  2
*Model_Space
340
22
  0
BLOCK_RECORD
  5
1B
330
1
100
AcDbSymbolTableRecord
100
AcDbBlockTableRecord
  2
*Paper_Space
340
1E
  0
BLOCK_RECORD
  5
23
330
1
100
AcDbSymbolTableRecord
100
AcDbBlockTableRecord
  2
*Paper_Space0
340
26
  0
ENDTAB
  0
ENDSEC
  0
SECTION
  2
BLOCKS
  0
BLOCK
  5
20
330
1F
100
AcDbEntity
  8
0
100
AcDbBlockBegin
  2
*Model_Space
 70
     0
 10
0.0
 20
0.0
 30
0.0
  3
*Model_Space
  1

  0
ENDBLK
  5
21
330
1F
100
AcDbEntity
  8
0
100
AcDbBlockEnd
  0
BLOCK
  5
1C
330
1B
100
AcDbEntity
 67
     1
  8
0
100
AcDbBlockBegin
  2
*Paper_Space
 70
     0
 10
0.0
 20
0.0
 30
0.0
  3
*Paper_Space
  1

  0
ENDBLK
  5
1D
330
1B
100
AcDbEntity
 67
     1
  8
0
100
AcDbBlockEnd
  0
BLOCK
  5
24
330
23
100
AcDbEntity
  8
0
100
AcDbBlockBegin
  2
*Paper_Space0
 70
     0
 10
0.0
 20
0.0
 30
0.0
  3
*Paper_Space0
  1

  0
ENDBLK
  5
25
330
23
100
AcDbEntity
  8
0
100
AcDbBlockEnd
  0
ENDSEC
  0
SECTION
  2
ENTITIES
  0
POINT
  5
48
330
1F
100
AcDbEntity
  8
1
 62
     7
100
AcDbPoint
 10
549.5124688289172
 20
499.0794700165377
 30
0.0
  0
POINT
  5
49
330
1F
100
AcDbEntity
  8
1
 62
     7
100
AcDbPoint
 10
287.623014889325
 20
407.0794700165378
 30
0.0
  0
POINT
  5
4A
330
1F
100
AcDbEntity
  8
1
 62
     7
100
AcDbPoint
 10
288.623014889325
 20
399.0794700165378
 30
0.0
  0
POINT
  5
4B
330
1F
100
AcDbEntity
  8
1
 62
     7
100
AcDbPoint
 10
288.623014889325
 20
399.0794700165378
 30
0.0
  0
POINT
  5
4C
330
1F
100
AcDbEntity
  8
1
 62
     7
100
AcDbPoint
 10
558.376984957949
 20
399.0794700165378
 30
0.0
  0
POINT
  5
4D
330
1F
100
AcDbEntity
  8
1
 62
     7
100
AcDbPoint
 10
558.376984957949
 20
399.0794700165378
 30
0.0
  0
POINT
  5
4E
330
1F
100
AcDbEntity
  8
1
 62
     7
100
AcDbPoint
 10
559.376984957949
 20
407.0794700165378
 30
0.0
  0
POINT
  5
4F
330
1F
100
AcDbEntity
  8
1
 62
     7
100
AcDbPoint
 10
287.623014889325
 20
407.0794700165378
 30
0.0
  0
POINT
  5
50
330
1F
100
AcDbEntity
  8
1
 62
     7
100
AcDbPoint
 10
559.376984957949
 20
407.0794700165378
 30
0.0
  0
POINT
  5
51
330
1F
100
AcDbEntity
  8
1
 62
     7
100
AcDbPoint
 10
558.376984957949
 20
399.0794700165378
 30
0.0
  0
POINT
  5
52
330
1F
100
AcDbEntity
  8
1
 62
     3
 60
     1
100
AcDbPoint
 10
3776.504353171442
 20
964.999630586168
 30
0.0
  0
POINT
  5
53
330
1F
100
AcDbEntity
  8
1
 62
     3
 60
     1
100
AcDbPoint
 10
3474.504353171442
 20
964.999630586168
 30
0.0
  0
POINT
  5
54
330
1F
100
AcDbEntity
  8
1
 62
     3
 60
     1
100
AcDbPoint
 10
3090.5339731372
 20
415.214227541875
 30
0.0
  0
POINT
  5
55
330
1F
100
AcDbEntity
  8
1
 62
     3
 60
     1
100
AcDbPoint
 10
3347.687943205825
 20
415.214227541875
 30
0.0
  0
POINT
  5
56
330
1F
100
AcDbEntity
  8
1
 62
     3
 60
     1
100
AcDbPoint
 10
3927.905998209252
 20
415.214227541875
 30
0.0
  0
POINT
  5
57
330
1F
100
AcDbEntity
  8
1
 62
     3
 60
     1
100
AcDbPoint
 10
3736.250411789076
 20
507.214227541874
 30
0.0
  0
POINT
  5
58
330
1F
100
AcDbEntity
  8
1
 62
     3
 60
     1
100
AcDbPoint
 10
3753.814927918109
 20
415.214227541875
 30
0.0
  0
POINT
  5
59
330
1F
100
AcDbEntity
  8
1
 62
     3
 60
     1
100
AcDbPoint
 10
3496.660957849485
 20
415.214227541875
 30
0.0
  0
LINE
  5
5A
330
1F
100
AcDbEntity
  8
1
  6
Continuous
 62
     4
100
AcDbLine
 10
488.4396695553931
 20
266.806326204956
 30
0.0
 11
485.7926107318637
 21
267.806326204956
 31
0.0
  0
LINE
  5
5B
330
1F
100
AcDbEntity
  8
1
  6
Continuous
 62
     4
100
AcDbLine
 10
490.204375437746
 20
264.306326204956
 30
0.0
 11
488.4396695553931
 21
266.806326204956
 31
0.0
  0
LINE
  5
5C
330
1F
100
AcDbEntity
  8
1
  6
Continuous
 62
     4
100
AcDbLine
 10
490.6455519083343
 20
260.306326204956
 30
0.0
 11
490.204375437746
 21
264.306326204956
 31
0.0
  0
LINE
  5
5D
330
1F
100
AcDbEntity
  8
1
  6
Continuous
 62
     4
100
AcDbLine
 10
490.204375437746
 20
256.306326204956
 30
0.0
 11
490.6455519083343
 21
260.306326204956
 31
0.0
  0
LINE
  5
5E
330
1F
100
AcDbEntity
  8
1
  6
Continuous
 62
     4
100
AcDbLine
 10
488.4396695553931
 20
253.806326204956
 30
0.0
 11
490.204375437746
 21
256.306326204956
 31
0.0
  0
LINE
  5
5F
330
1F
100
AcDbEntity
  8
1
  6
Continuous
 62
     4
100
AcDbLine
 10
485.7926107318637
 20
252.806326204956
 30
0.0
 11
488.4396695553931
 21
253.806326204956
 31
0.0
  0
LINE
  5
60
330
1F
100
AcDbEntity
  8
1
  6
Continuous
 62
     4
100
AcDbLine
 10
483.1455519083343
 20
253.806326204956
 30
0.0
 11
485.7926107318637
 21
252.806326204956
 31
0.0
  0
LINE
  5
61
330
1F
100
AcDbEntity
  8
1
  6
Continuous
 62
     4
100
AcDbLine
 10
481.8220224965696
 20
256.306326204956
 30
0.0
 11
483.1455519083343
 21
253.806326204956
 31
0.0
  0
LINE
  5
62
330
1F
100
AcDbEntity
  8
1
  6
Continuous
 62
     4
100
AcDbLine
 10
480.9396695553931
 20
260.306326204956
 30
0.0
 11
481.8220224965696
 21
256.306326204956
 31
0.0
  0
LINE
  5
63
330
1F
100
AcDbEntity
  8
1
  6
Continuous
 62
     4
100
AcDbLine
 10
481.8220224965696
 20
264.306326204956
 30
0.0
 11
480.9396695553931
 21
260.306326204956
 31
0.0
  0
LINE
  5
64
330
1F
100
AcDbEntity
  8
1
  6
Continuous
 62
     4
100
AcDbLine
 10
483.1455519083343
 20
266.806326204956
 30
0.0
 11
481.8220224965696
 21
264.306326204956
 31
0.0
  0
LINE
  5
65
330
1F
100
AcDbEntity
  8
1
  6
Continuous
 62
     4
100
AcDbLine
 10
485.7926107318637
 20
267.806326204956
 30
0.0
 11
483.1455519083343
 21
266.806326204956
 31
0.0
  0
LINE
  5
66
330
1F
100
AcDbEntity
  8
1
  6
Continuous
 62
     4
100
AcDbLine
 10
468.5867283789225
 20
260.306326204956
 30
0.0
 11
476.5279048495107
 21
260.306326204956
 31
0.0
  0
LINE
  5
67
330
1F
100
AcDbEntity
  8
1
  6
Continuous
 62
     4
100
AcDbLine
 10
464.1749636730401
 20
267.806326204956
 30
0.0
 11
464.1749636730401
 21
252.806326204956
 31
0.0
  0
LINE
  5
68
330
1F
100
AcDbEntity
  8
1
  6
Continuous
 62
     4
100
AcDbLine
 10
461.969081320099
 20
266.306326204956
 30
0.0
 11
464.1749636730401
 21
267.806326204956
 31
0.0
  0
LINE
  5
69
330
1F
100
AcDbEntity
  8
1
  6
Continuous
 62
     4
100
AcDbLine
 10
455.3514342612754
 20
266.806326204956
 30
0.0
 11
452.704375437746
 21
267.806326204956
 31
0.0
  0
LINE
  5
6A
330
1F
100
AcDbEntity
  8
1
  6
Continuous
 62
     4
100
AcDbLine
 10
457.1161401436283
 20
264.306326204956
 30
0.0
 11
455.3514342612754
 21
266.806326204956
 31
0.0
  0
LINE
  5
6B
330
1F
100
AcDbEntity
  8
1
  6
Continuous
 62
     4
100
AcDbLine
 10
457.5573166142166
 20
260.306326204956
 30
0.0
 11
457.1161401436283
 21
264.306326204956
 31
0.0
  0
LINE
  5
6C
330
1F
100
AcDbEntity
  8
1
  6
Continuous
 62
     4
100
AcDbLine
 10
457.1161401436283
 20
256.306326204956
 30
0.0
 11
457.5573166142166
 21
260.306326204956
 31
0.0
  0
LINE
  5
6D
330
1F
100
AcDbEntity
  8
1
  6
Continuous
 62
     4
100
AcDbLine
 10
455.3514342612754
 20
253.806326204956
 30
0.0
 11
457.1161401436283
 21
256.306326204956
 31
0.0
  0
LINE
  5
6E
330
1F
100
AcDbEntity
  8
1
  6
Continuous
 62
     4
100
AcDbLine
 10
452.704375437746
 20
252.806326204956
 30
0.0
 11
455.3514342612754
 21
253.806326204956
 31
0.0
  0
LINE
  5
6F
330
1F
100
AcDbEntity
  8
1
  6
Continuous
 62
     4
100
AcDbLine
 10
450.0573166142166
 20
253.806326204956
 30
0.0
 11
452.704375437746
 21
252.806326204956
 31
0.0
  0
LINE
  5
70
330
1F
100
AcDbEntity
  8
1
  6
Continuous
 62
     4
100
AcDbLine
 10
448.7337872024519
 20
256.306326204956
 30
0.0
 11
450.0573166142166
 21
253.806326204956
 31
0.0
  0
LINE
  5
71
330
1F
100
AcDbEntity
  8
1
  6
Continuous
 62
     4
100
AcDbLine
 10
447.8514342612754
 20
260.306326204956
 30
0.0
 11
448.7337872024519
 21
256.306326204956
 31
0.0
  0
LINE
  5
72
330
1F
100
AcDbEntity
  8
1
  6
Continuous
 62
     4
100
AcDbLine
 10
448.7337872024519
 20
264.306326204956
 30
0.0
 11
447.8514342612754
 21
260.306326204956
 31
0.0
  0
LINE
  5
73
330
1F
100
AcDbEntity
  8
1
  6
Continuous
 62
     4
100
AcDbLine
 10
450.0573166142166
 20
266.806326204956
 30
0.0
 11
448.7337872024519
 21
264.306326204956
 31
0.0
  0
LINE
  5
74
330
1F
100
AcDbEntity
  8
1
  6
Continuous
 62
     4
100
AcDbLine
 10
452.704375437746
 20
267.806326204956
 30
0.0
 11
450.0573166142166
 21
266.806326204956
 31
0.0
  0
LINE
  5
75
330
1F
100
AcDbEntity
  8
1
  6
Continuous
 62
     4
100
AcDbLine
 10
435.0573166142166
 20
260.306326204956
 30
0.0
 11
435.0573166142166
 21
252.806326204956
 31
0.0
  0
LINE
  5
76
330
1F
100
AcDbEntity
  8
1
  6
Continuous
 62
     4
100
AcDbLine
 10
435.0573166142166
 20
260.306326204956
 30
0.0
 11
442.5573166142166
 21
260.306326204956
 31
0.0
  0
LINE
  5
77
330
1F
100
AcDbEntity
  8
1
  6
Continuous
 62
     4
100
AcDbLine
 10
435.0573166142166
 20
267.806326204956
 30
0.0
 11
435.0573166142166
 21
260.306326204956
 31
0.0
  0
LINE
  5
78
330
1F
100
AcDbEntity
  8
1
  6
Continuous
 62
     4
100
AcDbLine
 10
443.439669555393
 20
267.806326204956
 30
0.0
 11
435.0573166142166
 21
267.806326204956
 31
0.0
  0
LINE
  5
79
330
1F
100
AcDbEntity
  8
1
  6
Continuous
 62
     4
100
AcDbLine
 10
425.3514342612754
 20
260.306326204956
 30
0.0
 11
425.3514342612754
 21
252.806326204956
 31
0.0
  0
LINE
  5
7A
330
1F
100
AcDbEntity
  8
1
  6
Continuous
 62
     4
100
AcDbLine
 10
430.6455519083342
 20
267.806326204956
 30
0.0
 11
425.3514342612754
 21
260.306326204956
 31
0.0
  0
LINE
  5
7B
330
1F
100
AcDbEntity
  8
1
  6
Continuous
 62
     4
100
AcDbLine
 10
420.4984930848048
 20
267.806326204956
 30
0.0
 11
425.3514342612754
 21
260.306326204956
 31
0.0
  0
LINE
  5
7C
330
1F
100
AcDbEntity
  8
1
  6
Continuous
 62
     4
100
AcDbLine
 10
411.6749636730401
 20
256.306326204956
 30
0.0
 11
411.6749636730401
 21
252.806326204956
 31
0.0
  0
LINE
  5
7D
330
1F
100
AcDbEntity
  8
1
  6
Continuous
 62
     4
100
AcDbLine
 10
412.5573166142166
 20
260.806326204956
 30
0.0
 11
411.6749636730401
 21
256.306326204956
 31
0.0
  0
LINE
  5
7E
330
1F
100
AcDbEntity
  8
1
  6
Continuous
 62
     4
100
AcDbLine
 10
414.3220224965695
 20
264.306326204956
 30
0.0
 11
412.5573166142166
 21
260.806326204956
 31
0.0
  0
LINE
  5
7F
330
1F
100
AcDbEntity
  8
1
  6
Continuous
 62
     4
100
AcDbLine
 10
416.0867283789224
 20
267.806326204956
 30
0.0
 11
414.3220224965695
 21
264.306326204956
 31
0.0
  0
LINE
  5
80
330
1F
100
AcDbEntity
  8
1
  6
Continuous
 62
     4
100
AcDbLine
 10
407.2631989671577
 20
267.806326204956
 30
0.0
 11
416.0867283789224
 21
267.806326204956
 31
0.0
  0
LINE
  5
81
330
1F
100
AcDbEntity
  8
1
  6
Continuous
 62
     4
100
AcDbLine
 10
398.439669555393
 20
256.306326204956
 30
0.0
 11
398.439669555393
 21
252.806326204956
 31
0.0
  0
LINE
  5
82
330
1F
100
AcDbEntity
  8
1
  6
Continuous
 62
     4
100
AcDbLine
 10
399.3220224965695
 20
260.806326204956
 30
0.0
 11
398.439669555393
 21
256.306326204956
 31
0.0
  0
LINE
  5
83
330
1F
100
AcDbEntity
  8
1
  6
Continuous
 62
     4
100
AcDbLine
 10
401.0867283789224
 20
264.306326204956
 30
0.0
 11
399.3220224965695
 21
260.806326204956
 31
0.0
  0
LINE
  5
84
330
1F
100
AcDbEntity
  8
1
  6
Continuous
 62
     4
100
AcDbLine
 10
402.8514342612754
 20
267.806326204956
 30
0.0
 11
401.0867283789224
 21
264.306326204956
 31
0.0
  0
LINE
  5
85
330
1F
100
AcDbEntity
  8
1
  6
Continuous
 62
     4
100
AcDbLine
 10
394.0279048495107
 20
267.806326204956
 30
0.0
 11
402.8514342612754
 21
267.806326204956
 31
0.0
  0
LINE
  5
86
330
1F
100
AcDbEntity
  8
1
  6
Continuous
 62
     4
100
AcDbLine
 10
387.4102577906871
 20
266.806326204956
 30
0.0
 11
384.7631989671577
 21
267.806326204956
 31
0.0
  0
LINE
  5
87
330
1F
100
AcDbEntity
  8
1
  6
Continuous
 62
     4
100
AcDbLine
 10
389.1749636730401
 20
264.306326204956
 30
0.0
 11
387.4102577906871
 21
266.806326204956
 31
0.0
  0
LINE
  5
88
330
1F
100
AcDbEntity
  8
1
  6
Continuous
 62
     4
100
AcDbLine
 10
389.6161401436283
 20
260.306326204956
 30
0.0
 11
389.1749636730401
 21
264.306326204956
 31
0.0
  0
LINE
  5
89
330
1F
100
AcDbEntity
  8
1
  6
Continuous
 62
     4
100
AcDbLine
 10
389.1749636730401
 20
256.306326204956
 30
0.0
 11
389.6161401436283
 21
260.306326204956
 31
0.0
  0
LINE
  5
8A
330
1F
100
AcDbEntity
  8
1
  6
Continuous
 62
     4
100
AcDbLine
 10
387.4102577906871
 20
253.806326204956
 30
0.0
 11
389.1749636730401
 21
256.306326204956
 31
0.0
  0
LINE
  5
8B
330
1F
100
AcDbEntity
  8
1
  6
Continuous
 62
     4
100
AcDbLine
 10
384.7631989671577
 20
252.806326204956
 30
0.0
 11
387.4102577906871
 21
253.806326204956
 31
0.0
  0
LINE
  5
8C
330
1F
100
AcDbEntity
  8
1
  6
Continuous
 62
     4
100
AcDbLine
 10
382.1161401436283
 20
253.806326204956
 30
0.0
 11
384.7631989671577
 21
252.806326204956
 31
0.0
  0
LINE
  5
8D
330
1F
100
AcDbEntity
  8
1
  6
Continuous
 62
     4
100
AcDbLine
 10
380.7926107318636
 20
256.306326204956
 30
0.0
 11
382.1161401436283
 21
253.806326204956
 31
0.0
  0
LINE
  5
8E
330
1F
100
AcDbEntity
  8
1
  6
Continuous
 62
     4
100
AcDbLine
 10
379.9102577906871
 20
260.306326204956
 30
0.0
 11
380.7926107318636
 21
256.306326204956
 31
0.0
  0
LINE
  5
8F
330
1F
100
AcDbEntity
  8
1
  6
Continuous
 62
     4
100
AcDbLine
 10
380.7926107318636
 20
264.306326204956
 30
0.0
 11
379.9102577906871
 21
260.306326204956
 31
0.0
  0
LINE
  5
90
330
1F
100
AcDbEntity
  8
1
  6
Continuous
 62
     4
100
AcDbLine
 10
382.1161401436283
 20
266.806326204956
 30
0.0
 11
380.7926107318636
 21
264.306326204956
 31
0.0
  0
LINE
  5
91
330
1F
100
AcDbEntity
  8
1
  6
Continuous
 62
     4
100
AcDbLine
 10
384.7631989671577
 20
267.806326204956
 30
0.0
 11
382.1161401436283
 21
266.806326204956
 31
0.0
  0
LINE
  5
92
330
1F
100
AcDbEntity
  8
1
  6
Continuous
 62
     4
100
AcDbLine
 10
373.2926107318636
 20
266.806326204956
 30
0.0
 11
370.6455519083342
 21
267.806326204956
 31
0.0
  0
LINE
  5
93
330
1F
100
AcDbEntity
  8
1
  6
Continuous
 62
     4
100
AcDbLine
 10
375.0573166142165
 20
264.306326204956
 30
0.0
 11
373.2926107318636
 21
266.806326204956
 31
0.0
  0
LINE
  5
94
330
1F
100
AcDbEntity
  8
1
  6
Continuous
 62
     4
100
AcDbLine
 10
375.4984930848048
 20
260.306326204956
 30
0.0
 11
375.0573166142165
 21
264.306326204956
 31
0.0
  0
LINE
  5
95
330
1F
100
AcDbEntity
  8
1
  6
Continuous
 62
     4
100
AcDbLine
 10
375.0573166142165
 20
256.306326204956
 30
0.0
 11
375.4984930848048
 21
260.306326204956
 31
0.0
  0
LINE
  5
96
330
1F
100
AcDbEntity
  8
1
  6
Continuous
 62
     4
100
AcDbLine
 10
373.2926107318636
 20
253.806326204956
 30
0.0
 11
375.0573166142165
 21
256.306326204956
 31
0.0
  0
LINE
  5
97
330
1F
100
AcDbEntity
  8
1
  6
Continuous
 62
     4
100
AcDbLine
 10
370.6455519083342
 20
252.806326204956
 30
0.0
 11
373.2926107318636
 21
253.806326204956
 31
0.0
  0
LINE
  5
98
330
1F
100
AcDbEntity
  8
1
  6
Continuous
 62
     4
100
AcDbLine
 10
367.9984930848048
 20
253.806326204956
 30
0.0
 11
370.6455519083342
 21
252.806326204956
 31
0.0
  0
LINE
  5
99
330
1F
100
AcDbEntity
  8
1
  6
Continuous
 62
     4
100
AcDbLine
 10
366.6749636730401
 20
256.306326204956
 30
0.0
 11
367.9984930848048
 21
253.806326204956
 31
0.0
  0
LINE
  5
9A
330
1F
100
AcDbEntity
  8
1
  6
Continuous
 62
     4
100
AcDbLine
 10
365.7926107318636
 20
260.306326204956
 30
0.0
 11
366.6749636730401
 21
256.306326204956
 31
0.0
  0
LINE
  5
9B
330
1F
100
AcDbEntity
  8
1
  6
Continuous
 62
     4
100
AcDbLine
 10
366.6749636730401
 20
264.306326204956
 30
0.0
 11
365.7926107318636
 21
260.306326204956
 31
0.0
  0
LINE
  5
9C
330
1F
100
AcDbEntity
  8
1
  6
Continuous
 62
     4
100
AcDbLine
 10
367.9984930848048
 20
266.806326204956
 30
0.0
 11
366.6749636730401
 21
264.306326204956
 31
0.0
  0
LINE
  5
9D
330
1F
100
AcDbEntity
  8
1
  6
Continuous
 62
     4
100
AcDbLine
 10
370.6455519083342
 20
267.806326204956
 30
0.0
 11
367.9984930848048
 21
266.806326204956
 31
0.0
  0
LINE
  5
9E
330
1F
100
AcDbEntity
  8
1
  6
Continuous
 62
     4
100
AcDbLine
 10
347.2631989671577
 20
252.806326204956
 30
0.0
 11
361.3808460259813
 21
252.806326204956
 31
0.0
  0
LINE
  5
9F
330
1F
100
AcDbEntity
  8
1
  6
Continuous
 62
     4
100
AcDbLine
 10
341.5279048495107
 20
260.806326204956
 30
0.0
 11
341.0867283789224
 21
260.806326204956
 31
0.0
  0
LINE
  5
A0
330
1F
100
AcDbEntity
  8
1
  6
Continuous
 62
     4
100
AcDbLine
 10
341.5279048495107
 20
260.306326204956
 30
0.0
 11
341.5279048495107
 21
260.806326204956
 31
0.0
  0
LINE
  5
A1
330
1F
100
AcDbEntity
  8
1
  6
Continuous
 62
     4
100
AcDbLine
 10
341.0867283789224
 20
260.806326204956
 30
0.0
 11
341.5279048495107
 21
260.306326204956
 31
0.0
  0
LINE
  5
A2
330
1F
100
AcDbEntity
  8
1
  6
Continuous
 62
     4
100
AcDbLine
 10
340.204375437746
 20
260.306326204956
 30
0.0
 11
341.0867283789224
 21
260.806326204956
 31
0.0
  0
LINE
  5
A3
330
1F
100
AcDbEntity
  8
1
  6
Continuous
 62
     4
100
AcDbLine
 10
339.3220224965695
 20
260.806326204956
 30
0.0
 11
340.204375437746
 21
260.306326204956
 31
0.0
  0
LINE
  5
A4
330
1F
100
AcDbEntity
  8
1
  6
Continuous
 62
     4
100
AcDbLine
 10
338.439669555393
 20
260.306326204956
 30
0.0
 11
339.3220224965695
 21
260.806326204956
 31
0.0
  0
LINE
  5
A5
330
1F
100
AcDbEntity
  8
1
  6
Continuous
 62
     4
100
AcDbLine
 10
337.5573166142166
 20
260.806326204956
 30
0.0
 11
338.439669555393
 21
260.306326204956
 31
0.0
  0
LINE
  5
A6
330
1F
100
AcDbEntity
  8
1
  6
Continuous
 62
     4
100
AcDbLine
 10
336.6749636730401
 20
260.306326204956
 30
0.0
 11
337.5573166142166
 21
260.806326204956
 31
0.0
  0
LINE
  5
A7
330
1F
100
AcDbEntity
  8
1
  6
Continuous
 62
     4
100
AcDbLine
 10
335.7926107318637
 20
260.806326204956
 30
0.0
 11
336.6749636730401
 21
260.306326204956
 31
0.0
  0
LINE
  5
A8
330
1F
100
AcDbEntity
  8
1
  6
Continuous
 62
     4
100
AcDbLine
 10
334.9102577906872
 20
260.306326204956
 30
0.0
 11
335.7926107318637
 21
260.806326204956
 31
0.0
  0
LINE
  5
A9
330
1F
100
AcDbEntity
  8
1
  6
Continuous
 62
     4
100
AcDbLine
 10
334.0279048495107
 20
260.806326204956
 30
0.0
 11
334.9102577906872
 21
260.306326204956
 31
0.0
  0
LINE
  5
AA
330
1F
100
AcDbEntity
  8
1
  6
Continuous
 62
     4
100
AcDbLine
 10
333.1455519083342
 20
260.306326204956
 30
0.0
 11
334.0279048495107
 21
260.806326204956
 31
0.0
  0
LINE
  5
AB
330
1F
100
AcDbEntity
  8
1
  6
Continuous
 62
     4
100
AcDbLine
 10
332.2631989671577
 20
261.306326204956
 30
0.0
 11
333.1455519083342
 21
260.306326204956
 31
0.0
  0
LINE
  5
AC
330
1F
100
AcDbEntity
  8
1
  6
Continuous
 62
     4
100
AcDbLine
 10
332.704375437746
 20
260.306326204956
 30
0.0
 11
332.2631989671577
 21
261.306326204956
 31
0.0
  0
LINE
  5
AD
330
1F
100
AcDbEntity
  8
1
  6
Continuous
 62
     4
100
AcDbLine
 10
341.969081320099
 20
260.306326204956
 30
0.0
 11
332.704375437746
 21
260.306326204956
 31
0.0
  0
LINE
  5
AE
330
1F
100
AcDbEntity
  8
1
  6
Continuous
 62
     4
100
AcDbLine
 10
341.5279048495107
 20
261.306326204956
 30
0.0
 11
341.969081320099
 21
260.306326204956
 31
0.0
  0
LINE
  5
AF
330
1F
100
AcDbEntity
  8
1
  6
Continuous
 62
     4
100
AcDbLine
 10
341.0867283789224
 20
260.806326204956
 30
0.0
 11
341.5279048495107
 21
261.306326204956
 31
0.0
  0
LINE
  5
B0
330
1F
100
AcDbEntity
  8
1
  6
Continuous
 62
     4
100
AcDbLine
 10
333.1455519083342
 20
260.806326204956
 30
0.0
 11
341.0867283789224
 21
260.806326204956
 31
0.0
  0
LINE
  5
B1
330
1F
100
AcDbEntity
  8
1
  6
Continuous
 62
     4
100
AcDbLine
 10
332.2631989671577
 20
261.306326204956
 30
0.0
 11
333.1455519083342
 21
260.806326204956
 31
0.0
  0
LINE
  5
B2
330
1F
100
AcDbEntity
  8
1
  6
Continuous
 62
     4
100
AcDbLine
 10
324.7631989671578
 20
267.806326204956
 30
0.0
 11
325.6455519083343
 21
265.806326204956
 31
0.0
  0
LINE
  5
B3
330
1F
100
AcDbEntity
  8
1
  6
Continuous
 62
     4
100
AcDbLine
 10
322.5573166142166
 20
267.806326204956
 30
0.0
 11
323.439669555393
 21
265.806326204956
 31
0.0
  0
LINE
  5
B4
330
1F
100
AcDbEntity
  8
1
  6
Continuous
 62
     4
100
AcDbLine
 10
323.8808460259813
 20
258.306326204956
 30
0.0
 11
324.7631989671578
 21
255.306326204956
 31
0.0
  0
LINE
  5
B5
330
1F
100
AcDbEntity
  8
1
  6
Continuous
 62
     4
100
AcDbLine
 10
322.9984930848049
 20
261.306326204956
 30
0.0
 11
323.8808460259813
 21
258.306326204956
 31
0.0
  0
LINE
  5
B6
330
1F
100
AcDbEntity
  8
1
  6
Continuous
 62
     4
100
AcDbLine
 10
320.7926107318637
 20
264.306326204956
 30
0.0
 11
322.9984930848049
 21
261.306326204956
 31
0.0
  0
LINE
  5
B7
330
1F
100
AcDbEntity
  8
1
  6
Continuous
 62
     4
100
AcDbLine
 10
315.0573166142166
 20
258.306326204956
 30
0.0
 11
312.4102577906872
 21
255.306326204956
 31
0.0
  0
LINE
  5
B8
330
1F
100
AcDbEntity
  8
1
  6
Continuous
 62
     4
100
AcDbLine
 10
315.9396695553931
 20
261.306326204956
 30
0.0
 11
315.0573166142166
 21
258.306326204956
 31
0.0
  0
LINE
  5
B9
330
1F
100
AcDbEntity
  8
1
  6
Continuous
 62
     4
100
AcDbLine
 10
316.3808460259813
 20
264.306326204956
 30
0.0
 11
315.9396695553931
 21
261.306326204956
 31
0.0
  0
LINE
  5
BA
330
1F
100
AcDbEntity
  8
1
  6
Continuous
 62
     4
100
AcDbLine
 10
298.7337872024519
 20
256.306326204956
 30
0.0
 11
296.0867283789224
 21
254.806326204956
 31
0.0
  0
LINE
  5
BB
330
1F
100
AcDbEntity
  8
1
  6
Continuous
 62
     4
100
AcDbLine
 10
300.4984930848048
 20
258.806326204956
 30
0.0
 11
298.7337872024519
 21
256.306326204956
 31
0.0
  0
LINE
  5
BC
330
1F
100
AcDbEntity
  8
1
  6
Continuous
 62
     4
100
AcDbLine
 10
301.3808460259813
 20
261.806326204956
 30
0.0
 11
300.4984930848048
 21
258.806326204956
 31
0.0
  0
LINE
  5
BD
330
1F
100
AcDbEntity
  8
1
  6
Continuous
 62
     4
100
AcDbLine
 10
301.3808460259813
 20
266.306326204956
 30
0.0
 11
301.3808460259813
 21
261.806326204956
 31
0.0
  0
LINE
  5
BE
330
1F
100
AcDbEntity
  8
1
  6
Continuous
 62
     4
100
AcDbLine
 10
304.4690813200989
 20
253.806326204956
 30
0.0
 11
302.2631989671577
 21
255.306326204956
 31
0.0
  0
LINE
  5
BF
330
1F
100
AcDbEntity
  8
1
  6
Continuous
 62
     4
100
AcDbLine
 10
306.2337872024519
 20
257.306326204956
 30
0.0
 11
304.4690813200989
 21
253.806326204956
 31
0.0
  0
LINE
  5
C0
330
1F
100
AcDbEntity
  8
1
  6
Continuous
 62
     4
100
AcDbLine
 10
306.2337872024519
 20
262.806326204956
 30
0.0
 11
306.2337872024519
 21
257.306326204956
 31
0.0
  0
LINE
  5
C1
330
1F
100
AcDbEntity
  8
1
  6
Continuous
 62
     4
100
AcDbLine
 10
296.5279048495107
 20
262.806326204956
 30
0.0
 11
306.2337872024519
 21
262.806326204956
 31
0.0
  0
LINE
  5
C2
330
1F
100
AcDbEntity
  8
1
  6
Continuous
 62
     4
100
AcDbLine
 10
279.7631989671577
 20
267.306326204956
 30
0.0
 11
282.8514342612754
 21
267.306326204956
 31
0.0
  0
LINE
  5
C3
330
1F
100
AcDbEntity
  8
1
  6
Continuous
 62
     4
100
AcDbLine
 10
279.7631989671577
 20
263.306326204956
 30
0.0
 11
285.4984930848048
 21
263.306326204956
 31
0.0
  0
LINE
  5
C4
330
1F
100
AcDbEntity
  8
1
  6
Continuous
 62
     4
100
AcDbLine
 10
282.8514342612754
 20
267.306326204956
 30
0.0
 11
285.0573166142166
 21
267.306326204956
 31
0.0
  0
LINE
  5
C5
330
1F
100
AcDbEntity
  8
1
  6
Continuous
 62
     4
100
AcDbLine
 10
283.7337872024519
 20
253.306326204956
 30
0.0
 11
290.3514342612754
 21
253.306326204956
 31
0.0
  0
LINE
  5
C6
330
1F
100
AcDbEntity
  8
1
  6
Continuous
 62
     4
100
AcDbLine
 10
277.1161401436283
 20
253.306326204956
 30
0.0
 11
283.7337872024519
 21
253.306326204956
 31
0.0
  0
LINE
  5
C7
330
1F
100
AcDbEntity
  8
1
  6
Continuous
 62
     4
100
AcDbLine
 10
283.7337872024519
 20
258.306326204956
 30
0.0
 11
283.7337872024519
 21
253.306326204956
 31
0.0
  0
LINE
  5
C8
330
1F
100
AcDbEntity
  8
1
  6
Continuous
 62
     4
100
AcDbLine
 10
278.439669555393
 20
256.806326204956
 30
0.0
 11
289.0279048495107
 21
256.806326204956
 31
0.0
  0
LINE
  5
C9
330
1F
100
AcDbEntity
  8
1
  6
Continuous
 62
     4
100
AcDbLine
 10
288.5867283789225
 20
257.806326204956
 30
0.0
 11
285.0573166142166
 21
258.806326204956
 31
0.0
  0
LINE
  5
CA
330
1F
100
AcDbEntity
  8
1
  6
Continuous
 62
     4
100
AcDbLine
 10
289.9102577906872
 20
259.306326204956
 30
0.0
 11
288.5867283789225
 21
257.806326204956
 31
0.0
  0
LINE
  5
CB
330
1F
100
AcDbEntity
  8
1
  6
Continuous
 62
     4
100
AcDbLine
 10
289.9102577906872
 20
267.306326204956
 30
0.0
 11
289.9102577906872
 21
259.306326204956
 31
0.0
  0
LINE
  5
CC
330
1F
100
AcDbEntity
  8
1
  6
Continuous
 62
     4
100
AcDbLine
 10
286.3808460259813
 20
266.806326204956
 30
0.0
 11
286.3808460259813
 21
260.806326204956
 31
0.0
  0
LINE
  5
CD
330
1F
100
AcDbEntity
  8
1
  6
Continuous
 62
     4
100
AcDbLine
 10
282.8514342612754
 20
267.306326204956
 30
0.0
 11
282.8514342612754
 21
258.806326204956
 31
0.0
  0
LINE
  5
CE
330
1F
100
AcDbEntity
  8
1
  6
Continuous
 62
     4
100
AcDbLine
 10
279.7631989671577
 20
263.306326204956
 30
0.0
 11
277.9984930848048
 21
258.306326204956
 31
0.0
  0
LINE
  5
CF
330
1F
100
AcDbEntity
  8
1
  6
Continuous
 62
     4
100
AcDbLine
 10
279.7631989671577
 20
267.306326204956
 30
0.0
 11
279.7631989671577
 21
263.306326204956
 31
0.0
  0
LINE
  5
D0
330
1F
100
AcDbEntity
  8
1
  6
Continuous
 62
     4
100
AcDbLine
 10
277.1161401436283
 20
263.306326204956
 30
0.0
 11
279.7631989671577
 21
263.306326204956
 31
0.0
  0
LINE
  5
D1
330
1F
100
AcDbEntity
  8
1
  6
Continuous
 62
     4
100
AcDbLine
 10
277.5573166142166
 20
267.306326204956
 30
0.0
 11
279.7631989671577
 21
267.306326204956
 31
0.0
  0
LINE
  5
D2
330
1F
100
AcDbEntity
  8
1
  6
Continuous
 62
     4
100
AcDbLine
 10
266.9690813200989
 20
256.806326204956
 30
0.0
 11
272.2631989671577
 21
256.806326204956
 31
0.0
  0
LINE
  5
D3
330
1F
100
AcDbEntity
  8
1
  6
Continuous
 62
     4
100
AcDbLine
 10
261.2337872024518
 20
260.306326204956
 30
0.0
 11
261.2337872024518
 21
263.806326204956
 31
0.0
  0
LINE
  5
D4
330
1F
100
AcDbEntity
  8
1
  6
Continuous
 62
     4
100
AcDbLine
 10
272.2631989671577
 20
260.306326204956
 30
0.0
 11
272.2631989671577
 21
256.806326204956
 31
0.0
  0
LINE
  5
D5
330
1F
100
AcDbEntity
  8
1
  6
Continuous
 62
     4
100
AcDbLine
 10
272.2631989671577
 20
256.806326204956
 30
0.0
 11
272.2631989671577
 21
252.306326204956
 31
0.0
  0
LINE
  5
D6
330
1F
100
AcDbEntity
  8
1
  6
Continuous
 62
     4
100
AcDbLine
 10
261.2337872024518
 20
256.806326204956
 30
0.0
 11
266.9690813200989
 21
256.806326204956
 31
0.0
  0
LINE
  5
D7
330
1F
100
AcDbEntity
  8
1
  6
Continuous
 62
     4
100
AcDbLine
 10
261.2337872024518
 20
260.306326204956
 30
0.0
 11
272.2631989671577
 21
260.306326204956
 31
0.0
  0
LINE
  5
D8
330
1F
100
AcDbEntity
  8
1
  6
Continuous
 62
     4
100
AcDbLine
 10
272.2631989671577
 20
252.306326204956
 30
0.0
 11
268.7337872024518
 21
253.806326204956
 31
0.0
  0
LINE
  5
D9
330
1F
100
AcDbEntity
  8
1
  6
Continuous
 62
     4
100
AcDbLine
 10
272.2631989671577
 20
263.806326204956
 30
0.0
 11
272.2631989671577
 21
260.306326204956
 31
0.0
  0
LINE
  5
DA
330
1F
100
AcDbEntity
  8
1
  6
Continuous
 62
     4
100
AcDbLine
 10
261.2337872024518
 20
263.806326204956
 30
0.0
 11
272.2631989671577
 21
263.806326204956
 31
0.0
  0
LINE
  5
DB
330
1F
100
AcDbEntity
  8
1
  6
Continuous
 62
     4
100
AcDbLine
 10
261.2337872024518
 20
256.806326204956
 30
0.0
 11
261.2337872024518
 21
260.306326204956
 31
0.0
  0
LINE
  5
DC
330
1F
100
AcDbEntity
  8
1
  6
Continuous
 62
     4
100
AcDbLine
 10
259.4690813200989
 20
252.806326204956
 30
0.0
 11
261.2337872024518
 21
256.806326204956
 31
0.0
  0
LINE
  5
DD
330
1F
100
AcDbEntity
  8
1
  6
Continuous
 62
     4
100
AcDbLine
 10
266.9690813200989
 20
263.806326204956
 30
0.0
 11
266.9690813200989
 21
256.806326204956
 31
0.0
  0
LINE
  5
DE
330
1F
100
AcDbEntity
  8
1
  6
Continuous
 62
     4
100
AcDbLine
 10
270.0573166142166
 20
267.306326204956
 30
0.0
 11
266.9690813200989
 21
263.806326204956
 31
0.0
  0
LINE
  5
DF
330
1F
100
AcDbEntity
  8
1
  6
Continuous
 62
     4
100
AcDbLine
 10
263.8808460259813
 20
267.306326204956
 30
0.0
 11
270.0573166142166
 21
267.306326204956
 31
0.0
  0
LINE
  5
E0
330
1F
100
AcDbEntity
  8
1
  6
Continuous
 62
     4
100
AcDbLine
 10
259.9102577906871
 20
263.306326204956
 30
0.0
 11
263.8808460259813
 21
267.306326204956
 31
0.0
  0
LINE
  5
E1
330
1F
100
AcDbEntity
  8
1
  6
Continuous
 62
     4
100
AcDbLine
 10
250.6455519083342
 20
264.806326204956
 30
0.0
 11
250.6455519083342
 21
255.806326204956
 31
0.0
  0
LINE
  5
E2
330
1F
100
AcDbEntity
  8
1
  6
Continuous
 62
     4
100
AcDbLine
 10
246.6749636730401
 20
260.306326204956
 30
0.0
 11
254.6161401436283
 21
260.306326204956
 31
0.0
  0
LINE
  5
E3
330
1F
100
AcDbEntity
  8
1
  6
Continuous
 62
     4
100
AcDbLine
 10
237.4102577906871
 20
258.806326204956
 30
0.0
 11
241.8220224965695
 21
254.306326204956
 31
0.0
  0
LINE
  5
E4
330
1F
100
AcDbEntity
  8
1
  6
Continuous
 62
     4
100
AcDbLine
 10
234.7631989671577
 20
256.306326204956
 30
0.0
 11
231.2337872024519
 21
254.306326204956
 31
0.0
  0
LINE
  5
E5
330
1F
100
AcDbEntity
  8
1
  6
Continuous
 62
     4
100
AcDbLine
 10
237.4102577906871
 20
258.806326204956
 30
0.0
 11
234.7631989671577
 21
256.306326204956
 31
0.0
  0
LINE
  5
E6
330
1F
100
AcDbEntity
  8
1
  6
Continuous
 62
     4
100
AcDbLine
 10
239.1749636730401
 20
261.806326204956
 30
0.0
 11
237.4102577906871
 21
258.806326204956
 31
0.0
  0
LINE
  5
E7
330
1F
100
AcDbEntity
  8
1
  6
Continuous
 62
     4
100
AcDbLine
 10
240.0573166142166
 20
264.806326204956
 30
0.0
 11
239.1749636730401
 21
261.806326204956
 31
0.0
  0
LINE
  5
E8
330
1F
100
AcDbEntity
  8
1
  6
Continuous
 62
     4
100
AcDbLine
 10
232.1161401436283
 20
264.806326204956
 30
0.0
 11
240.0573166142166
 21
264.806326204956
 31
0.0
  0
LINE
  5
E9
330
1F
100
AcDbEntity
  8
1
  6
Continuous
 62
     4
100
AcDbLine
 10
218.8808460259813
 20
257.306326204956
 30
0.0
 11
220.6455519083342
 21
254.306326204956
 31
0.0
  0
LINE
  5
EA
330
1F
100
AcDbEntity
  8
1
  6
Continuous
 62
     4
100
AcDbLine
 10
216.2337872024519
 20
259.306326204956
 30
0.0
 11
218.8808460259813
 21
257.306326204956
 31
0.0
  0
LINE
  5
EB
330
1F
100
AcDbEntity
  8
1
  6
Continuous
 62
     4
100
AcDbLine
 10
221.5279048495107
 20
259.306326204956
 30
0.0
 11
218.8808460259813
 21
257.306326204956
 31
0.0
  0
LINE
  5
EC
330
1F
100
AcDbEntity
  8
1
  6
Continuous
 62
     4
100
AcDbLine
 10
223.2926107318636
 20
261.306326204956
 30
0.0
 11
221.5279048495107
 21
259.306326204956
 31
0.0
  0
LINE
  5
ED
330
1F
100
AcDbEntity
  8
1
  6
Continuous
 62
     4
100
AcDbLine
 10
224.1749636730401
 20
264.306326204956
 30
0.0
 11
223.2926107318636
 21
261.306326204956
 31
0.0
  0
LINE
  5
EE
330
1F
100
AcDbEntity
  8
1
  6
Continuous
 62
     4
100
AcDbLine
 10
213.1455519083342
 20
264.306326204956
 30
0.0
 11
224.1749636730401
 21
264.306326204956
 31
0.0
  0
LINE
  5
EF
330
1F
100
AcDbEntity
  8
1
  6
Continuous
 62
     4
100
AcDbLine
 10
202.1161401436283
 20
264.806326204956
 30
0.0
 11
206.5279048495106
 21
264.806326204956
 31
0.0
  0
LINE
  5
F0
330
1F
100
AcDbEntity
  8
1
  6
Continuous
 62
     4
100
AcDbLine
 10
202.1161401436283
 20
264.806326204956
 30
0.0
 11
202.1161401436283
 21
261.306326204956
 31
0.0
  0
LINE
  5
F1
330
1F
100
AcDbEntity
  8
1
  6
Continuous
 62
     4
100
AcDbLine
 10
202.1161401436283
 20
260.306326204956
 30
0.0
 11
204.3220224965695
 21
260.306326204956
 31
0.0
  0
LINE
  5
F2
330
1F
100
AcDbEntity
  8
1
  6
Continuous
 62
     4
100
AcDbLine
 10
200.7926107318636
 20
257.306326204956
 30
0.0
 11
198.1455519083342
 21
254.806326204956
 31
0.0
  0
LINE
  5
F3
330
1F
100
AcDbEntity
  8
1
  6
Continuous
 62
     4
100
AcDbLine
 10
202.1161401436283
 20
260.306326204956
 30
0.0
 11
200.7926107318636
 21
257.306326204956
 31
0.0
  0
LINE
  5
F4
330
1F
100
AcDbEntity
  8
1
  6
Continuous
 62
     4
100
AcDbLine
 10
204.7631989671577
 20
254.306326204956
 30
0.0
 11
202.5573166142165
 21
255.306326204956
 31
0.0
  0
LINE
  5
F5
330
1F
100
AcDbEntity
  8
1
  6
Continuous
 62
     4
100
AcDbLine
 10
206.5279048495106
 20
255.306326204956
 30
0.0
 11
204.7631989671577
 21
254.306326204956
 31
0.0
  0
LINE
  5
F6
330
1F
100
AcDbEntity
  8
1
  6
Continuous
 62
     4
100
AcDbLine
 10
206.9690813200989
 20
257.806326204956
 30
0.0
 11
206.5279048495106
 21
255.306326204956
 31
0.0
  0
LINE
  5
F7
330
1F
100
AcDbEntity
  8
1
  6
Continuous
 62
     4
100
AcDbLine
 10
203.8808460259812
 20
257.806326204956
 30
0.0
 11
206.9690813200989
 21
257.806326204956
 31
0.0
  0
LINE
  5
F8
330
1F
100
AcDbEntity
  8
1
  6
Continuous
 62
     4
100
AcDbLine
 10
204.3220224965695
 20
260.306326204956
 30
0.0
 11
203.8808460259812
 21
257.806326204956
 31
0.0
  0
LINE
  5
F9
330
1F
100
AcDbEntity
  8
1
  6
Continuous
 62
     4
100
AcDbLine
 10
199.0279048495106
 20
260.306326204956
 30
0.0
 11
202.1161401436283
 21
260.306326204956
 31
0.0
  0
LINE
  5
FA
330
1F
100
AcDbEntity
  8
1
  6
Continuous
 62
     4
100
AcDbLine
 10
202.1161401436283
 20
264.806326204956
 30
0.0
 11
206.9690813200989
 21
260.806326204956
 31
0.0
  0
LINE
  5
FB
330
1F
100
AcDbEntity
  8
1
  6
Continuous
 62
     4
100
AcDbLine
 10
202.1161401436283
 20
264.806326204956
 30
0.0
 11
197.2631989671577
 21
260.806326204956
 31
0.0
  0
LINE
  5
FC
330
1F
100
AcDbEntity
  8
1
  6
Continuous
 62
     4
100
AcDbLine
 10
202.1161401436283
 20
266.806326204956
 30
0.0
 11
202.1161401436283
 21
264.806326204956
 31
0.0
  0
LINE
  5
FD
330
1F
100
AcDbEntity
  8
1
  6
Continuous
 62
     4
100
AcDbLine
 10
197.7043754377459
 20
264.806326204956
 30
0.0
 11
202.1161401436283
 21
264.806326204956
 31
0.0
  0
LINE
  5
FE
330
1F
100
AcDbEntity
  8
1
  6
Continuous
 62
     4
100
AcDbLine
 10
202.1161401436283
 20
266.806326204956
 30
0.0
 11
198.1455519083342
 21
266.806326204956
 31
0.0
  0
LINE
  5
FF
330
1F
100
AcDbEntity
  8
1
  6
Continuous
 62
     4
100
AcDbLine
 10
206.0867283789224
 20
267.806326204956
 30
0.0
 11
202.1161401436283
 21
266.806326204956
 31
0.0
  0
LINE
  5
100
330
1F
100
AcDbEntity
  8
1
  6
Continuous
 62
     4
100
AcDbLine
 10
200.3514342612754
 20
252.806326204956
 30
0.0
 11
207.8514342612754
 21
252.806326204956
 31
0.0
  0
LINE
  5
101
330
1F
100
AcDbEntity
  8
1
  6
Continuous
 62
     4
100
AcDbLine
 10
196.3808460259812
 20
256.306326204956
 30
0.0
 11
200.3514342612754
 21
252.806326204956
 31
0.0
  0
LINE
  5
102
330
1F
100
AcDbEntity
  8
1
  6
Continuous
 62
     4
100
AcDbLine
 10
196.3808460259812
 20
256.306326204956
 30
0.0
 11
194.1749636730401
 21
252.806326204956
 31
0.0
  0
LINE
  5
103
330
1F
100
AcDbEntity
  8
1
  6
Continuous
 62
     4
100
AcDbLine
 10
196.3808460259812
 20
261.306326204956
 30
0.0
 11
196.3808460259812
 21
256.306326204956
 31
0.0
  0
LINE
  5
104
330
1F
100
AcDbEntity
  8
1
  6
Continuous
 62
     4
100
AcDbLine
 10
194.1749636730401
 20
261.306326204956
 30
0.0
 11
196.3808460259812
 21
261.306326204956
 31
0.0
  0
LINE
  5
105
330
1F
100
AcDbEntity
  8
1
  6
Continuous
 62
     4
100
AcDbLine
 10
194.6161401436283
 20
267.306326204956
 30
0.0
 11
196.8220224965695
 21
264.806326204956
 31
0.0
  0
LINE
  5
106
330
1F
100
AcDbEntity
  8
1
  6
Continuous
 62
     4
100
AcDbLine
 10
188.8808460259812
 20
264.806326204956
 30
0.0
 11
188.8808460259812
 21
262.306326204956
 31
0.0
  0
LINE
  5
107
330
1F
100
AcDbEntity
  8
1
  6
Continuous
 62
     4
100
AcDbLine
 10
186.6749636730401
 20
253.806326204956
 30
0.0
 11
190.204375437746
 21
252.806326204956
 31
0.0
  0
LINE
  5
108
330
1F
100
AcDbEntity
  8
1
  6
Continuous
 62
     4
100
AcDbLine
 10
183.5867283789224
 20
255.306326204956
 30
0.0
 11
186.6749636730401
 21
253.806326204956
 31
0.0
  0
LINE
  5
109
330
1F
100
AcDbEntity
  8
1
  6
Continuous
 62
     4
100
AcDbLine
 10
180.939669555393
 20
257.806326204956
 30
0.0
 11
183.5867283789224
 21
255.306326204956
 31
0.0
  0
LINE
  5
10A
330
1F
100
AcDbEntity
  8
1
  6
Continuous
 62
     4
100
AcDbLine
 10
183.5867283789224
 20
253.806326204956
 30
0.0
 11
179.1749636730401
 21
252.806326204956
 31
0.0
  0
LINE
  5
10B
330
1F
100
AcDbEntity
  8
1
  6
Continuous
 62
     4
100
AcDbLine
 10
186.6749636730401
 20
255.806326204956
 30
0.0
 11
183.5867283789224
 21
253.806326204956
 31
0.0
  0
LINE
  5
10C
330
1F
100
AcDbEntity
  8
1
  6
Continuous
 62
     4
100
AcDbLine
 10
188.439669555393
 20
258.806326204956
 30
0.0
 11
186.6749636730401
 21
255.806326204956
 31
0.0
  0
LINE
  5
10D
330
1F
100
AcDbEntity
  8
1
  6
Continuous
 62
     4
100
AcDbLine
 10
180.939669555393
 20
258.806326204956
 30
0.0
 11
188.439669555393
 21
258.806326204956
 31
0.0
  0
LINE
  5
10E
330
1F
100
AcDbEntity
  8
1
  6
Continuous
 62
     4
100
AcDbLine
 10
189.7631989671577
 20
260.806326204956
 30
0.0
 11
189.3220224965695
 21
257.806326204956
 31
0.0
  0
LINE
  5
10F
330
1F
100
AcDbEntity
  8
1
  6
Continuous
 62
     4
100
AcDbLine
 10
179.6161401436283
 20
260.806326204956
 30
0.0
 11
189.7631989671577
 21
260.806326204956
 31
0.0
  0
LINE
  5
110
330
1F
100
AcDbEntity
  8
1
  6
Continuous
 62
     4
100
AcDbLine
 10
179.6161401436283
 20
257.806326204956
 30
0.0
 11
179.6161401436283
 21
260.806326204956
 31
0.0
  0
LINE
  5
111
330
1F
100
AcDbEntity
  8
1
  6
Continuous
 62
     4
100
AcDbLine
 10
180.4984930848048
 20
264.806326204956
 30
0.0
 11
188.8808460259812
 21
264.806326204956
 31
0.0
  0
LINE
  5
112
330
1F
100
AcDbEntity
  8
1
  6
Continuous
 62
     4
100
AcDbLine
 10
188.8808460259812
 20
262.306326204956
 30
0.0
 11
180.4984930848048
 21
262.306326204956
 31
0.0
  0
LINE
  5
113
330
1F
100
AcDbEntity
  8
1
  6
Continuous
 62
     4
100
AcDbLine
 10
188.8808460259812
 20
267.306326204956
 30
0.0
 11
188.8808460259812
 21
264.806326204956
 31
0.0
  0
LINE
  5
114
330
1F
100
AcDbEntity
  8
1
  6
Continuous
 62
     4
100
AcDbLine
 10
180.4984930848048
 20
267.306326204956
 30
0.0
 11
188.8808460259812
 21
267.306326204956
 31
0.0
  0
LINE
  5
115
330
1F
100
AcDbEntity
  8
1
  6
Continuous
 62
     4
100
AcDbLine
 10
176.9690813200989
 20
252.806326204956
 30
0.0
 11
178.7337872024519
 21
258.806326204956
 31
0.0
  0
LINE
  5
116
330
1F
100
AcDbEntity
  8
1
  6
Continuous
 62
     4
100
AcDbLine
 10
176.9690813200989
 20
262.306326204956
 30
0.0
 11
178.7337872024519
 21
260.306326204956
 31
0.0
  0
LINE
  5
117
330
1F
100
AcDbEntity
  8
1
  6
Continuous
 62
     4
100
AcDbLine
 10
176.9690813200989
 20
266.806326204956
 30
0.0
 11
179.1749636730401
 21
264.806326204956
 31
0.0
  0
LINE
  5
118
330
1F
100
AcDbEntity
  8
1
  6
Continuous
 62
     4
100
AcDbLine
 10
161.5279048495106
 20
267.306326204956
 30
0.0
 11
164.6161401436283
 21
267.306326204956
 31
0.0
  0
LINE
  5
119
330
1F
100
AcDbEntity
  8
1
  6
Continuous
 62
     4
100
AcDbLine
 10
161.5279048495106
 20
263.306326204956
 30
0.0
 11
167.2631989671577
 21
263.306326204956
 31
0.0
  0
LINE
  5
11A
330
1F
100
AcDbEntity
  8
1
  6
Continuous
 62
     4
100
AcDbLine
 10
164.6161401436283
 20
267.306326204956
 30
0.0
 11
166.8220224965695
 21
267.306326204956
 31
0.0
  0
LINE
  5
11B
330
1F
100
AcDbEntity
  8
1
  6
Continuous
 62
     4
100
AcDbLine
 10
165.4984930848048
 20
253.306326204956
 30
0.0
 11
172.1161401436283
 21
253.306326204956
 31
0.0
  0
LINE
  5
11C
330
1F
100
AcDbEntity
  8
1
  6
Continuous
 62
     4
100
AcDbLine
 10
158.8808460259812
 20
253.306326204956
 30
0.0
 11
165.4984930848048
 21
253.306326204956
 31
0.0
  0
LINE
  5
11D
330
1F
100
AcDbEntity
  8
1
  6
Continuous
 62
     4
100
AcDbLine
 10
165.4984930848048
 20
258.306326204956
 30
0.0
 11
165.4984930848048
 21
253.306326204956
 31
0.0
  0
LINE
  5
11E
330
1F
100
AcDbEntity
  8
1
  6
Continuous
 62
     4
100
AcDbLine
 10
160.2043754377459
 20
256.806326204956
 30
0.0
 11
170.7926107318636
 21
256.806326204956
 31
0.0
  0
LINE
  5
11F
330
1F
100
AcDbEntity
  8
1
  6
Continuous
 62
     4
100
AcDbLine
 10
170.3514342612753
 20
257.806326204956
 30
0.0
 11
166.8220224965695
 21
258.806326204956
 31
0.0
  0
LINE
  5
120
330
1F
100
AcDbEntity
  8
1
  6
Continuous
 62
     4
100
AcDbLine
 10
171.6749636730401
 20
259.306326204956
 30
0.0
 11
170.3514342612753
 21
257.806326204956
 31
0.0
  0
LINE
  5
121
330
1F
100
AcDbEntity
  8
1
  6
Continuous
 62
     4
100
AcDbLine
 10
171.6749636730401
 20
267.306326204956
 30
0.0
 11
171.6749636730401
 21
259.306326204956
 31
0.0
  0
LINE
  5
122
330
1F
100
AcDbEntity
  8
1
  6
Continuous
 62
     4
100
AcDbLine
 10
168.1455519083342
 20
266.806326204956
 30
0.0
 11
168.1455519083342
 21
260.806326204956
 31
0.0
  0
LINE
  5
123
330
1F
100
AcDbEntity
  8
1
  6
Continuous
 62
     4
100
AcDbLine
 10
164.6161401436283
 20
267.306326204956
 30
0.0
 11
164.6161401436283
 21
258.806326204956
 31
0.0
  0
LINE
  5
124
330
1F
100
AcDbEntity
  8
1
  6
Continuous
 62
     4
100
AcDbLine
 10
161.5279048495106
 20
263.306326204956
 30
0.0
 11
159.7631989671577
 21
258.306326204956
 31
0.0
  0
LINE
  5
125
330
1F
100
AcDbEntity
  8
1
  6
Continuous
 62
     4
100
AcDbLine
 10
161.5279048495106
 20
267.306326204956
 30
0.0
 11
161.5279048495106
 21
263.306326204956
 31
0.0
  0
LINE
  5
126
330
1F
100
AcDbEntity
  8
1
  6
Continuous
 62
     4
100
AcDbLine
 10
158.8808460259812
 20
263.306326204956
 30
0.0
 11
161.5279048495106
 21
263.306326204956
 31
0.0
  0
LINE
  5
127
330
1F
100
AcDbEntity
  8
1
  6
Continuous
 62
     4
100
AcDbLine
 10
159.3220224965695
 20
267.306326204956
 30
0.0
 11
161.5279048495106
 21
267.306326204956
 31
0.0
  0
LINE
  5
128
330
1F
100
AcDbEntity
  8
1
  6
Continuous
 62
     4
100
AcDbLine
 10
146.0867283789224
 20
254.306326204956
 30
0.0
 11
145.2043754377459
 21
256.306326204956
 31
0.0
  0
LINE
  5
129
330
1F
100
AcDbEntity
  8
1
  6
Continuous
 62
     4
100
AcDbLine
 10
147.4102577906871
 20
253.306326204956
 30
0.0
 11
146.0867283789224
 21
254.306326204956
 31
0.0
  0
LINE
  5
12A
330
1F
100
AcDbEntity
  8
1
  6
Continuous
 62
     4
100
AcDbLine
 10
149.1749636730401
 20
252.806326204956
 30
0.0
 11
147.4102577906871
 21
253.306326204956
 31
0.0
  0
LINE
  5
12B
330
1F
100
AcDbEntity
  8
1
  6
Continuous
 62
     4
100
AcDbLine
 10
150.939669555393
 20
252.806326204956
 30
0.0
 11
149.1749636730401
 21
252.806326204956
 31
0.0
  0
LINE
  5
12C
330
1F
100
AcDbEntity
  8
1
  6
Continuous
 62
     4
100
AcDbLine
 10
152.2631989671577
 20
253.306326204956
 30
0.0
 11
150.939669555393
 21
252.806326204956
 31
0.0
  0
LINE
  5
12D
330
1F
100
AcDbEntity
  8
1
  6
Continuous
 62
     4
100
AcDbLine
 10
153.5867283789224
 20
254.306326204956
 30
0.0
 11
152.2631989671577
 21
253.306326204956
 31
0.0
  0
LINE
  5
12E
330
1F
100
AcDbEntity
  8
1
  6
Continuous
 62
     4
100
AcDbLine
 10
154.0279048495106
 20
256.306326204956
 30
0.0
 11
153.5867283789224
 21
254.306326204956
 31
0.0
  0
LINE
  5
12F
330
1F
100
AcDbEntity
  8
1
  6
Continuous
 62
     4
100
AcDbLine
 10
153.5867283789224
 20
258.306326204956
 30
0.0
 11
154.0279048495106
 21
256.306326204956
 31
0.0
  0
LINE
  5
130
330
1F
100
AcDbEntity
  8
1
  6
Continuous
 62
     4
100
AcDbLine
 10
152.2631989671577
 20
259.806326204956
 30
0.0
 11
153.5867283789224
 21
258.306326204956
 31
0.0
  0
LINE
  5
131
330
1F
100
AcDbEntity
  8
1
  6
Continuous
 62
     4
100
AcDbLine
 10
150.939669555393
 20
260.306326204956
 30
0.0
 11
152.2631989671577
 21
259.806326204956
 31
0.0
  0
LINE
  5
132
330
1F
100
AcDbEntity
  8
1
  6
Continuous
 62
     4
100
AcDbLine
 10
149.1749636730401
 20
260.306326204956
 30
0.0
 11
150.939669555393
 21
260.306326204956
 31
0.0
  0
LINE
  5
133
330
1F
100
AcDbEntity
  8
1
  6
Continuous
 62
     4
100
AcDbLine
 10
147.4102577906871
 20
260.806326204956
 30
0.0
 11
149.1749636730401
 21
260.306326204956
 31
0.0
  0
LINE
  5
134
330
1F
100
AcDbEntity
  8
1
  6
Continuous
 62
     4
100
AcDbLine
 10
146.5279048495106
 20
261.306326204956
 30
0.0
 11
147.4102577906871
 21
260.806326204956
 31
0.0
  0
LINE
  5
135
330
1F
100
AcDbEntity
  8
1
  6
Continuous
 62
     4
100
AcDbLine
 10
145.6455519083342
 20
262.306326204956
 30
0.0
 11
146.5279048495106
 21
261.306326204956
 31
0.0
  0
LINE
  5
136
330
1F
100
AcDbEntity
  8
1
  6
Continuous
 62
     4
100
AcDbLine
 10
145.2043754377459
 20
264.306326204956
 30
0.0
 11
145.6455519083342
 21
262.306326204956
 31
0.0
  0
LINE
  5
137
330
1F
100
AcDbEntity
  8
1
  6
Continuous
 62
     4
100
AcDbLine
 10
145.6455519083342
 20
265.806326204956
 30
0.0
 11
145.2043754377459
 21
264.306326204956
 31
0.0
  0
LINE
  5
138
330
1F
100
AcDbEntity
  8
1
  6
Continuous
 62
     4
100
AcDbLine
 10
146.9690813200989
 20
266.806326204956
 30
0.0
 11
145.6455519083342
 21
265.806326204956
 31
0.0
  0
LINE
  5
139
330
1F
100
AcDbEntity
  8
1
  6
Continuous
 62
     4
100
AcDbLine
 10
147.8514342612754
 20
267.306326204956
 30
0.0
 11
146.9690813200989
 21
266.806326204956
 31
0.0
  0
LINE
  5
13A
330
1F
100
AcDbEntity
  8
1
  6
Continuous
 62
     4
100
AcDbLine
 10
149.1749636730401
 20
267.306326204956
 30
0.0
 11
147.8514342612754
 21
267.306326204956
 31
0.0
  0
LINE
  5
13B
330
1F
100
AcDbEntity
  8
1
  6
Continuous
 62
     4
100
AcDbLine
 10
150.939669555393
 20
267.306326204956
 30
0.0
 11
149.1749636730401
 21
267.306326204956
 31
0.0
  0
LINE
  5
13C
330
1F
100
AcDbEntity
  8
1
  6
Continuous
 62
     4
100
AcDbLine
 10
152.7043754377459
 20
266.306326204956
 30
0.0
 11
150.939669555393
 21
267.306326204956
 31
0.0
  0
LINE
  5
13D
330
1F
100
AcDbEntity
  8
1
  6
Continuous
 62
     4
100
AcDbLine
 10
153.5867283789224
 20
264.806326204956
 30
0.0
 11
152.7043754377459
 21
266.306326204956
 31
0.0
  0
LINE
  5
13E
330
1F
100
AcDbEntity
  8
1
  6
Continuous
 62
     4
100
AcDbLine
 10
126.6749636730401
 20
252.806326204956
 30
0.0
 11
140.7926107318636
 21
252.806326204956
 31
0.0
  0
LINE
  5
13F
330
1F
100
AcDbEntity
  8
1
  6
Continuous
 62
     4
100
AcDbLine
 10
112.9984930848048
 20
258.806326204956
 30
0.0
 11
112.9984930848048
 21
252.806326204956
 31
0.0
  0
LINE
  5
140
330
1F
100
AcDbEntity
  8
1
  6
Continuous
 62
     4
100
AcDbLine
 10
115.2043754377459
 20
261.306326204956
 30
0.0
 11
122.2631989671577
 21
252.806326204956
 31
0.0
  0
LINE
  5
141
330
1F
100
AcDbEntity
  8
1
  6
Continuous
 62
     4
100
AcDbLine
 10
121.3808460259812
 20
267.806326204956
 30
0.0
 11
112.9984930848048
 21
258.806326204956
 31
0.0
  0
LINE
  5
142
330
1F
100
AcDbEntity
  8
1
  6
Continuous
 62
     4
100
AcDbLine
 10
112.9984930848048
 20
267.806326204956
 30
0.0
 11
112.9984930848048
 21
258.806326204956
 31
0.0
  0
LINE
  5
143
330
1F
100
AcDbEntity
  8
1
  6
Continuous
 62
     4
100
AcDbLine
 10
100.6455519083342
 20
260.306326204956
 30
0.0
 11
108.5867283789224
 21
260.306326204956
 31
0.0
  0
LINE
  5
144
330
1F
100
AcDbEntity
  8
1
  6
Continuous
 62
     4
100
AcDbLine
 10
88.29261073186358
 20
254.306326204956
 30
0.0
 11
87.41025779068711
 21
256.306326204956
 31
0.0
  0
LINE
  5
145
330
1F
100
AcDbEntity
  8
1
  6
Continuous
 62
     4
100
AcDbLine
 10
89.61614014362829
 20
253.306326204956
 30
0.0
 11
88.29261073186358
 21
254.306326204956
 31
0.0
  0
LINE
  5
146
330
1F
100
AcDbEntity
  8
1
  6
Continuous
 62
     4
100
AcDbLine
 10
91.38084602598123
 20
252.806326204956
 30
0.0
 11
89.61614014362829
 21
253.306326204956
 31
0.0
  0
LINE
  5
147
330
1F
100
AcDbEntity
  8
1
  6
Continuous
 62
     4
100
AcDbLine
 10
93.14555190833417
 20
252.806326204956
 30
0.0
 11
91.38084602598123
 21
252.806326204956
 31
0.0
  0
LINE
  5
148
330
1F
100
AcDbEntity
  8
1
  6
Continuous
 62
     4
100
AcDbLine
 10
94.46908132009888
 20
253.306326204956
 30
0.0
 11
93.14555190833417
 21
252.806326204956
 31
0.0
  0
LINE
  5
149
330
1F
100
AcDbEntity
  8
1
  6
Continuous
 62
     4
100
AcDbLine
 10
95.79261073186359
 20
254.306326204956
 30
0.0
 11
94.46908132009888
 21
253.306326204956
 31
0.0
  0
LINE
  5
14A
330
1F
100
AcDbEntity
  8
1
  6
Continuous
 62
     4
100
AcDbLine
 10
96.23378720245182
 20
256.306326204956
 30
0.0
 11
95.79261073186359
 21
254.306326204956
 31
0.0
  0
LINE
  5
14B
330
1F
100
AcDbEntity
  8
1
  6
Continuous
 62
     4
100
AcDbLine
 10
95.79261073186359
 20
258.306326204956
 30
0.0
 11
96.23378720245182
 21
256.306326204956
 31
0.0
  0
LINE
  5
14C
330
1F
100
AcDbEntity
  8
1
  6
Continuous
 62
     4
100
AcDbLine
 10
94.46908132009888
 20
259.806326204956
 30
0.0
 11
95.79261073186359
 21
258.306326204956
 31
0.0
  0
LINE
  5
14D
330
1F
100
AcDbEntity
  8
1
  6
Continuous
 62
     4
100
AcDbLine
 10
93.14555190833417
 20
260.306326204956
 30
0.0
 11
94.46908132009888
 21
259.806326204956
 31
0.0
  0
LINE
  5
14E
330
1F
100
AcDbEntity
  8
1
  6
Continuous
 62
     4
100
AcDbLine
 10
91.38084602598123
 20
260.306326204956
 30
0.0
 11
93.14555190833417
 21
260.306326204956
 31
0.0
  0
LINE
  5
14F
330
1F
100
AcDbEntity
  8
1
  6
Continuous
 62
     4
100
AcDbLine
 10
89.61614014362829
 20
260.806326204956
 30
0.0
 11
91.38084602598123
 21
260.306326204956
 31
0.0
  0
LINE
  5
150
330
1F
100
AcDbEntity
  8
1
  6
Continuous
 62
     4
100
AcDbLine
 10
88.73378720245182
 20
261.306326204956
 30
0.0
 11
89.61614014362829
 21
260.806326204956
 31
0.0
  0
LINE
  5
151
330
1F
100
AcDbEntity
  8
1
  6
Continuous
 62
     4
100
AcDbLine
 10
87.85143426127534
 20
262.306326204956
 30
0.0
 11
88.73378720245182
 21
261.306326204956
 31
0.0
  0
LINE
  5
152
330
1F
100
AcDbEntity
  8
1
  6
Continuous
 62
     4
100
AcDbLine
 10
87.41025779068711
 20
264.306326204956
 30
0.0
 11
87.85143426127534
 21
262.306326204956
 31
0.0
  0
LINE
  5
153
330
1F
100
AcDbEntity
  8
1
  6
Continuous
 62
     4
100
AcDbLine
 10
87.85143426127534
 20
265.806326204956
 30
0.0
 11
87.41025779068711
 21
264.306326204956
 31
0.0
  0
LINE
  5
154
330
1F
100
AcDbEntity
  8
1
  6
Continuous
 62
     4
100
AcDbLine
 10
89.17496367304005
 20
266.806326204956
 30
0.0
 11
87.85143426127534
 21
265.806326204956
 31
0.0
  0
LINE
  5
155
330
1F
100
AcDbEntity
  8
1
  6
Continuous
 62
     4
100
AcDbLine
 10
90.05731661421652
 20
267.306326204956
 30
0.0
 11
89.17496367304005
 21
266.806326204956
 31
0.0
  0
LINE
  5
156
330
1F
100
AcDbEntity
  8
1
  6
Continuous
 62
     4
100
AcDbLine
 10
91.38084602598123
 20
267.306326204956
 30
0.0
 11
90.05731661421652
 21
267.306326204956
 31
0.0
  0
LINE
  5
157
330
1F
100
AcDbEntity
  8
1
  6
Continuous
 62
     4
100
AcDbLine
 10
93.14555190833417
 20
267.306326204956
 30
0.0
 11
91.38084602598123
 21
267.306326204956
 31
0.0
  0
LINE
  5
158
330
1F
100
AcDbEntity
  8
1
  6
Continuous
 62
     4
100
AcDbLine
 10
94.91025779068711
 20
266.306326204956
 30
0.0
 11
93.14555190833417
 21
267.306326204956
 31
0.0
  0
LINE
  5
159
330
1F
100
AcDbEntity
  8
1
  6
Continuous
 62
     4
100
AcDbLine
 10
95.79261073186359
 20
264.806326204956
 30
0.0
 11
94.91025779068711
 21
266.306326204956
 31
0.0
  0
LINE
  5
15A
330
1F
100
AcDbEntity
  8
1
  6
Continuous
 62
     4
100
AcDbLine
 10
82.99849308480475
 20
267.806326204956
 30
0.0
 11
82.99849308480475
 21
252.806326204956
 31
0.0
  0
LINE
  5
15B
330
1F
100
AcDbEntity
  8
1
  6
Continuous
 62
     4
100
AcDbLine
 10
77.26319896715769
 20
253.306326204956
 30
0.0
 11
82.99849308480475
 21
267.806326204956
 31
0.0
  0
LINE
  5
15C
330
1F
100
AcDbEntity
  8
1
  6
Continuous
 62
     4
100
AcDbLine
 10
71.52790484951063
 20
267.806326204956
 30
0.0
 11
77.26319896715769
 21
253.306326204956
 31
0.0
  0
LINE
  5
15D
330
1F
100
AcDbEntity
  8
1
  6
Continuous
 62
     4
100
AcDbLine
 10
71.52790484951063
 20
252.806326204956
 30
0.0
 11
71.52790484951063
 21
267.806326204956
 31
0.0
  0
LINE
  5
15E
330
1F
100
AcDbEntity
  8
1
  6
Continuous
 62
     4
100
AcDbLine
 10
64.91025779068711
 20
266.806326204956
 30
0.0
 11
62.2631989671577
 21
267.806326204956
 31
0.0
  0
LINE
  5
15F
330
1F
100
AcDbEntity
  8
1
  6
Continuous
 62
     4
100
AcDbLine
 10
66.67496367304005
 20
263.806326204956
 30
0.0
 11
64.91025779068711
 21
266.806326204956
 31
0.0
  0
LINE
  5
160
330
1F
100
AcDbEntity
  8
1
  6
Continuous
 62
     4
100
AcDbLine
 10
67.11614014362829
 20
260.306326204956
 30
0.0
 11
66.67496367304005
 21
263.806326204956
 31
0.0
  0
LINE
  5
161
330
1F
100
AcDbEntity
  8
1
  6
Continuous
 62
     4
100
AcDbLine
 10
66.67496367304005
 20
256.806326204956
 30
0.0
 11
67.11614014362829
 21
260.306326204956
 31
0.0
  0
LINE
  5
162
330
1F
100
AcDbEntity
  8
1
  6
Continuous
 62
     4
100
AcDbLine
 10
64.91025779068711
 20
253.806326204956
 30
0.0
 11
66.67496367304005
 21
256.806326204956
 31
0.0
  0
LINE
  5
163
330
1F
100
AcDbEntity
  8
1
  6
Continuous
 62
     4
100
AcDbLine
 10
62.2631989671577
 20
252.806326204956
 30
0.0
 11
64.91025779068711
 21
253.806326204956
 31
0.0
  0
LINE
  5
164
330
1F
100
AcDbEntity
  8
1
  6
Continuous
 62
     4
100
AcDbLine
 10
59.61614014362829
 20
253.806326204956
 30
0.0
 11
62.2631989671577
 21
252.806326204956
 31
0.0
  0
LINE
  5
165
330
1F
100
AcDbEntity
  8
1
  6
Continuous
 62
     4
100
AcDbLine
 10
57.85143426127534
 20
256.806326204956
 30
0.0
 11
59.61614014362829
 21
253.806326204956
 31
0.0
  0
LINE
  5
166
330
1F
100
AcDbEntity
  8
1
  6
Continuous
 62
     4
100
AcDbLine
 10
57.41025779068711
 20
260.306326204956
 30
0.0
 11
57.85143426127534
 21
256.806326204956
 31
0.0
  0
LINE
  5
167
330
1F
100
AcDbEntity
  8
1
  6
Continuous
 62
     4
100
AcDbLine
 10
57.85143426127534
 20
263.806326204956
 30
0.0
 11
57.41025779068711
 21
260.306326204956
 31
0.0
  0
LINE
  5
168
330
1F
100
AcDbEntity
  8
1
  6
Continuous
 62
     4
100
AcDbLine
 10
59.61614014362829
 20
266.806326204956
 30
0.0
 11
57.85143426127534
 21
263.806326204956
 31
0.0
  0
LINE
  5
169
330
1F
100
AcDbEntity
  8
1
  6
Continuous
 62
     4
100
AcDbLine
 10
62.2631989671577
 20
267.806326204956
 30
0.0
 11
59.61614014362829
 21
266.806326204956
 31
0.0
  0
LINE
  5
16A
330
1F
100
AcDbEntity
  8
1
  6
DOT_CENTER
 62
     1
100
AcDbLine
 10
434.9999999999999
 20
384.0794700165378
 30
0.0
 11
434.9999999999999
 21
637.0794700165375
 31
0.0
  0
LINE
  5
16B
330
1F
100
AcDbEntity
  8
1
  6
Continuous
 62
     3
100
AcDbLine
 10
312.4875310183569
 20
499.0794700165377
 30
0.0
 11
295.1757030613671
 21
407.0794700165378
 31
0.0
  0
LINE
  5
16C
330
1F
100
AcDbEntity
  8
1
  6
Continuous
 62
     3
100
AcDbLine
 10
549.5124688289172
 20
499.0794700165377
 30
0.0
 11
312.4875310183569
 21
499.0794700165377
 31
0.0
  0
LINE
  5
16D
330
1F
100
AcDbEntity
  8
1
  6
Continuous
 62
     3
100
AcDbLine
 10
551.4479526998851
 20
407.0794700165378
 30
0.0
 11
549.5124688289172
 21
499.0794700165377
 31
0.0
  0
LINE
  5
16E
330
1F
100
AcDbEntity
  8
1
  6
Continuous
 62
     3
100
AcDbLine
 10
288.623014889325
 20
399.0794700165378
 30
0.0
 11
287.623014889325
 21
407.0794700165378
 31
0.0
  0
LINE
  5
16F
330
1F
100
AcDbEntity
  8
1
  6
Continuous
 62
     3
100
AcDbLine
 10
558.376984957949
 20
399.0794700165378
 30
0.0
 11
288.623014889325
 21
399.0794700165378
 31
0.0
  0
LINE
  5
170
330
1F
100
AcDbEntity
  8
1
  6
Continuous
 62
     3
100
AcDbLine
 10
558.376984957949
 20
399.0794700165378
 30
0.0
 11
559.376984957949
 21
407.0794700165378
 31
0.0
  0
LINE
  5
171
330
1F
100
AcDbEntity
  8
1
  6
Continuous
 62
     3
100
AcDbLine
 10
287.623014889325
 20
407.0794700165378
 30
0.0
 11
559.376984957949
 21
407.0794700165378
 31
0.0
  0
LINE
  5
172
330
1F
100
AcDbEntity
  8
0
  6
Continuous
 62
     3
100
AcDbLine
 10
469.5000000000009
 20
619.0794700165378
 30
0.0
 11
469.5000000000009
 21
622.0794700165378
 31
0.0
  0
LINE
  5
173
330
1F
100
AcDbEntity
  8
0
  6
Continuous
 62
     3
100
AcDbLine
 10
469.5000000000009
 20
622.0794700165378
 30
0.0
 11
435.0000000000009
 21
622.0794700165378
 31
0.0
  0
LINE
  5
174
330
1F
100
AcDbEntity
  8
0
  6
Continuous
 62
     3
100
AcDbLine
 10
463.6053217702079
 20
604.0794700165378
 30
0.0
 11
435.0
 21
604.0794700165378
 31
0.0
  0
LINE
  5
175
330
1F
100
AcDbEntity
  8
0
  6
Continuous
 62
     3
100
AcDbLine
 10
486.0916153781368
 20
582.3647086923438
 30
0.0
 11
486.9047538304958
 21
559.0794700165378
 31
0.0
  0
LINE
  5
176
330
1F
100
AcDbEntity
  8
0
  6
Continuous
 62
     3
100
AcDbLine
 10
493.0
 20
499.0794700165378
 30
0.0
 11
490.9047538304958
 21
559.0794700165378
 31
0.0
  0
LINE
  5
177
330
1F
100
AcDbEntity
  8
0
  6
Continuous
 62
     3
100
AcDbLine
 10
490.9047538304958
 20
559.0794700165378
 30
0.0
 11
435.0
 21
559.0794700165378
 31
0.0
  0
LINE
  5
178
330
1F
100
AcDbEntity
  8
0
  6
Continuous
 62
     3
100
AcDbLine
 10
446.0000000000009
 20
499.0794700165378
 30
0.0
 11
446.0000000000009
 21
515.0794700165378
 31
0.0
  0
LINE
  5
179
330
1F
100
AcDbEntity
  8
0
  6
Continuous
 62
     3
100
AcDbLine
 10
446.0000000000009
 20
515.0794700165378
 30
0.0
 11
435.0000000000009
 21
515.0794700165378
 31
0.0
  0
LINE
  5
17A
330
1F
100
AcDbEntity
  8
100
  6
Continuous
 62
     3
100
AcDbLine
 10
435.0
 20
988.3648729800371
 30
0.0
 11
461.5
 21
988.3648729800371
 31
0.0
  0
LINE
  5
17B
330
1F
100
AcDbEntity
  8
100
  6
Continuous
 62
     3
100
AcDbLine
 10
435.0
 20
925.364872980037
 30
0.0
 11
461.5
 21
925.364872980037
 31
0.0
  0
LINE
  5
17C
330
1F
100
AcDbEntity
  8
100
  6
Continuous
 62
     3
100
AcDbLine
 10
435.0
 20
919.864872980037
 30
0.0
 11
500.0
 21
919.864872980037
 31
0.0
  0
LINE
  5
17D
330
1F
100
AcDbEntity
  8
0
  6
Continuous
 62
     3
100
AcDbLine
 10
-157.7620571925665
 20
515.0794700165378
 30
0.0
 11
-157.7620571925665
 21
499.0794700165378
 31
0.0
  0
LINE
  5
17E
330
1F
100
AcDbEntity
  8
0
  6
Continuous
 62
     3
100
AcDbLine
 10
-146.8622385761516
 20
515.0794700165378
 30
0.0
 11
-157.7620571925665
 21
515.0794700165378
 31
0.0
  0
LINE
  5
17F
330
1F
100
AcDbEntity
  8
0
  6
Continuous
 62
     3
100
AcDbLine
 10
434.9999999999991
 20
622.0794700165378
 30
0.0
 11
400.4999999999991
 21
622.0794700165378
 31
0.0
  0
LINE
  5
180
330
1F
100
AcDbEntity
  8
100
  6
Continuous
 62
     3
100
AcDbLine
 10
370.0
 20
619.0794700165378
 30
0.0
 11
500.0
 21
619.0794700165378
 31
0.0
  0
LINE
  5
181
330
1F
100
AcDbEntity
  8
100
  6
Continuous
 62
     3
100
AcDbLine
 10
-63.76205719256654
 20
619.0794700165378
 30
0.0
 11
-53.26205719256654
 21
499.0794700165378
 31
0.0
  0
LINE
  5
182
330
1F
100
AcDbEntity
  8
0
  6
Continuous
 62
     3
100
AcDbLine
 10
-55.03495871588962
 20
565.1794700165378
 30
0.0
 11
-58.97194857455565
 21
610.1794700165378
 31
0.0
  0
LINE
  5
183
330
1F
100
AcDbEntity
  8
0
  6
Continuous
 62
     3
100
AcDbLine
 10
-51.02349920325855
 20
565.1794700165378
 30
0.0
 11
-45.24049854419468
 21
499.0794700165378
 31
0.0
  0
LINE
  5
184
330
1F
100
AcDbEntity
  8
0
  6
Continuous
 62
     3
100
AcDbLine
 10
435.0
 20
1004.364872980037
 30
0.0
 11
510.5
 21
1004.364872980037
 31
0.0
  0
LINE
  5
185
330
1F
100
AcDbEntity
  8
0
  6
Continuous
 62
     3
100
AcDbLine
 10
359.5
 20
1004.364872980037
 30
0.0
 11
435.0
 21
1004.364872980037
 31
0.0
  0
LINE
  5
186
330
1F
100
AcDbEntity
  8
0
  6
Continuous
 62
     3
100
AcDbLine
 10
435.0
 20
981.364872980037
 30
0.0
 11
435.0
 21
1013.864872980037
 31
0.0
  0
LINE
  5
187
330
1F
100
AcDbEntity
  8
0
  6
Continuous
 62
     3
100
AcDbLine
 10
430.0
 20
1004.364872980037
 30
0.0
 11
430.0
 21
1013.864872980037
 31
0.0
  0
LINE
  5
188
330
1F
100
AcDbEntity
  8
0
  6
Continuous
 62
     3
100
AcDbLine
 10
435.0
 20
1013.864872980037
 30
0.0
 11
430.0
 21
1013.864872980037
 31
0.0
  0
LINE
  5
189
330
1F
100
AcDbEntity
  8
0
  6
Continuous
 62
     3
100
AcDbLine
 10
446.0
 20
1013.864872980037
 30
0.0
 11
446.0
 21
1004.364872980037
 31
0.0
  0
LINE
  5
18A
330
1F
100
AcDbEntity
  8
1
  6
Continuous
 62
     3
100
AcDbLine
 10
446.0
 20
1013.864872980037
 30
0.0
 11
435.0
 21
1013.864872980037
 31
0.0
  0
LINE
  5
18B
330
1F
100
AcDbEntity
  8
100
  6
Continuous
 62
     3
100
AcDbLine
 10
493.0
 20
909.364872980037
 30
0.0
 11
510.5
 21
909.364872980037
 31
0.0
  0
LINE
  5
18C
330
1F
100
AcDbEntity
  8
0
  6
Continuous
 62
     3
100
AcDbLine
 10
490.9047538304958
 20
914.615553168482
 30
0.0
 11
486.9047538304958
 21
914.615553168482
 31
0.0
  0
LINE
  5
18D
330
1F
100
AcDbEntity
  8
0
  6
Continuous
 62
     3
100
AcDbLine
 10
486.9047538304958
 20
914.615553168482
 30
0.0
 11
486.9047538304958
 21
910.604093655852
 31
0.0
  0
LINE
  5
18E
330
1F
100
AcDbEntity
  8
0
  6
Continuous
 62
     3
100
AcDbLine
 10
486.0916153781368
 20
916.65274758011
 30
0.0
 11
486.0916153781368
 21
912.64128806748
 31
0.0
  0
LINE
  5
18F
330
1F
100
AcDbEntity
  8
0
  6
Continuous
 62
     3
100
AcDbLine
 10
486.0916153781368
 20
912.64128806748
 30
0.0
 11
486.9047538304958
 21
910.604093655852
 31
0.0
  0
LINE
  5
190
330
1F
100
AcDbEntity
  8
0
  6
Continuous
 62
     3
100
AcDbLine
 10
493.0
 20
909.364872980037
 30
0.0
 11
493.0
 21
901.364872980037
 31
0.0
  0
LINE
  5
191
330
1F
100
AcDbEntity
  8
0
  6
Continuous
 62
     3
100
AcDbLine
 10
486.9047538304958
 20
910.604093655852
 30
0.0
 11
435.0
 21
910.604093655852
 31
0.0
  0
LINE
  5
192
330
1F
100
AcDbEntity
  8
0
  6
Continuous
 62
     3
100
AcDbLine
 10
463.6053217702079
 20
918.5525430271481
 30
0.0
 11
435.0
 21
918.5525430271481
 31
0.0
  0
LINE
  5
193
330
1F
100
AcDbEntity
  8
0
  6
Continuous
 62
     3
100
AcDbLine
 10
435.0
 20
914.541083514518
 30
0.0
 11
463.6053217702079
 21
914.541083514518
 31
0.0
  0
LINE
  5
194
330
1F
100
AcDbEntity
  8
0
  6
Continuous
 62
     3
100
AcDbLine
 10
490.9047538304958
 20
914.615553168482
 30
0.0
 11
490.9047538304958
 21
906.614192791592
 31
0.0
  0
LINE
  5
195
330
1F
100
AcDbEntity
  8
0
  6
Continuous
 62
     3
100
AcDbLine
 10
435.0
 20
906.614192791592
 30
0.0
 11
490.9047538304958
 21
906.614192791592
 31
0.0
  0
LINE
  5
196
330
1F
100
AcDbEntity
  8
0
  6
Continuous
 62
     3
100
AcDbLine
 10
493.0
 20
901.364872980037
 30
0.0
 11
435.0
 21
901.364872980037
 31
0.0
  0
LINE
  5
197
330
1F
100
AcDbEntity
  8
0
  6
Continuous
 62
     3
100
AcDbLine
 10
486.0916153781368
 20
916.65274758011
 30
0.0
 11
486.9047538304958
 21
914.615553168482
 31
0.0
  0
LINE
  5
198
330
1F
100
AcDbEntity
  8
1
  6
Continuous
 62
     3
100
AcDbLine
 10
493.0
 20
909.364872980037
 30
0.0
 11
490.9047538304958
 21
914.615553168482
 31
0.0
  0
LINE
  5
199
330
1F
100
AcDbEntity
  8
1
  6
Continuous
 62
     3
100
AcDbLine
 10
493.0
 20
901.364872980037
 30
0.0
 11
490.9047538304958
 21
906.614192791592
 31
0.0
  0
LINE
  5
19A
330
1F
100
AcDbEntity
  8
1
  6
Continuous
 62
     3
100
AcDbLine
 10
424.0
 20
891.864872980037
 30
0.0
 11
435.0
 21
891.864872980037
 31
0.0
  0
LINE
  5
19B
330
1F
100
AcDbEntity
  8
1
  6
Continuous
 62
     3
100
AcDbLine
 10
379.0952461695042
 20
906.614192791592
 30
0.0
 11
377.0
 21
901.364872980037
 31
0.0
  0
LINE
  5
19C
330
1F
100
AcDbEntity
  8
1
  6
Continuous
 62
     3
100
AcDbLine
 10
379.0952461695042
 20
914.615553168482
 30
0.0
 11
377.0
 21
909.364872980037
 31
0.0
  0
LINE
  5
19D
330
1F
100
AcDbEntity
  8
0
  6
Continuous
 62
     3
100
AcDbLine
 10
383.0952461695042
 20
914.615553168482
 30
0.0
 11
383.9083846218632
 21
916.65274758011
 31
0.0
  0
LINE
  5
19E
330
1F
100
AcDbEntity
  8
100
  6
Continuous
 62
     3
100
AcDbLine
 10
-63.76205719256654
 20
619.0794700165378
 30
0.0
 11
-137.7620571925665
 21
619.0794700165378
 31
0.0
  0
LINE
  5
19F
330
1F
100
AcDbEntity
  8
0
  6
Continuous
 62
     3
100
AcDbLine
 10
-66.26205719256654
 20
619.0794700165378
 30
0.0
 11
-66.26205719256654
 21
622.0794700165378
 31
0.0
  0
LINE
  5
1A0
330
1F
100
AcDbEntity
  8
0
  6
Continuous
 62
     3
100
AcDbLine
 10
-66.26205719256654
 20
622.0794700165378
 30
0.0
 11
-135.2620571925665
 21
622.0794700165378
 31
0.0
  0
LINE
  5
1A1
330
1F
100
AcDbEntity
  8
0
  6
Continuous
 62
     3
100
AcDbLine
 10
-135.2620571925665
 20
619.0794700165378
 30
0.0
 11
-135.2620571925665
 21
622.0794700165378
 31
0.0
  0
LINE
  5
1A2
330
1F
100
AcDbEntity
  8
0
  6
Continuous
 62
     3
100
AcDbLine
 10
-35.76205719256654
 20
515.0794700165378
 30
0.0
 11
-46.64031716060958
 21
515.0794700165378
 31
0.0
  0
LINE
  5
1A3
330
1F
100
AcDbEntity
  8
0
  6
Continuous
 62
     3
100
AcDbLine
 10
-35.76205719256654
 20
499.0794700165378
 30
0.0
 11
-35.76205719256654
 21
515.0794700165378
 31
0.0
  0
LINE
  5
1A4
330
1F
100
AcDbEntity
  8
0
  6
Continuous
 62
     3
100
AcDbLine
 10
-51.01475033690554
 20
565.1794700165378
 30
0.0
 11
-59.0458071925666
 21
565.1794700165378
 31
0.0
  0
LINE
  5
1A5
330
1F
100
AcDbEntity
  8
0
  6
Continuous
 62
     3
100
AcDbLine
 10
-58.96319970820264
 20
610.1794700165378
 30
0.0
 11
-62.97465922083256
 21
610.1794700165378
 31
0.0
  0
LINE
  5
1A6
330
1F
100
AcDbEntity
  8
0
  6
Continuous
 62
     3
100
AcDbLine
 10
423.9999999999991
 20
515.0794700165378
 30
0.0
 11
423.9999999999991
 21
499.0794700165378
 31
0.0
  0
LINE
  5
1A7
330
1F
100
AcDbEntity
  8
0
  6
Continuous
 62
     3
100
AcDbLine
 10
434.9999999999991
 20
515.0794700165378
 30
0.0
 11
423.9999999999991
 21
515.0794700165378
 31
0.0
  0
LINE
  5
1A8
330
1F
100
AcDbEntity
  8
0
  6
Continuous
 62
     3
100
AcDbLine
 10
379.0952461695042
 20
559.0794700165378
 30
0.0
 11
377.0
 21
499.0794700165378
 31
0.0
  0
LINE
  5
1A9
330
1F
100
AcDbEntity
  8
0
  6
Continuous
 62
     3
100
AcDbLine
 10
435.0
 20
604.0794700165378
 30
0.0
 11
406.3946782297921
 21
604.0794700165378
 31
0.0
  0
LINE
  5
1AA
330
1F
100
AcDbEntity
  8
0
  6
Continuous
 62
     3
100
AcDbLine
 10
383.0952461695042
 20
559.0794700165378
 30
0.0
 11
383.9083846218632
 21
582.3647086923438
 31
0.0
  0
LINE
  5
1AB
330
1F
100
AcDbEntity
  8
0
  6
Continuous
 62
     3
100
AcDbLine
 10
435.0
 20
559.0794700165378
 30
0.0
 11
379.0952461695042
 21
559.0794700165378
 31
0.0
  0
LINE
  5
1AC
330
1F
100
AcDbEntity
  8
0
  6
Continuous
 62
     3
100
AcDbLine
 10
400.4999999999991
 20
622.0794700165378
 30
0.0
 11
400.4999999999991
 21
619.0794700165378
 31
0.0
  0
LINE
  5
1AD
330
1F
100
AcDbEntity
  8
0
  6
Continuous
 62
     3
100
AcDbLine
 10
434.9999999999991
 20
622.0794700165378
 30
0.0
 11
434.9999999999991
 21
499.0794700165378
 31
0.0
  0
LINE
  5
1AE
330
1F
100
AcDbEntity
  8
0
  6
Continuous
 62
     3
100
AcDbLine
 10
435.0
 20
932.364872980037
 30
0.0
 11
435.0
 21
891.864872980037
 31
0.0
  0
LINE
  5
1AF
330
1F
100
AcDbEntity
  8
0
  6
Continuous
 62
     3
100
AcDbLine
 10
424.0
 20
891.864872980037
 30
0.0
 11
424.0
 21
901.364872980037
 31
0.0
  0
LINE
  5
1B0
330
1F
100
AcDbEntity
  8
0
  6
Continuous
 62
     3
100
AcDbLine
 10
435.0
 20
901.364872980037
 30
0.0
 11
377.0
 21
901.364872980037
 31
0.0
  0
LINE
  5
1B1
330
1F
100
AcDbEntity
  8
0
  6
Continuous
 62
     3
100
AcDbLine
 10
379.0952461695042
 20
906.614192791592
 30
0.0
 11
435.0
 21
906.614192791592
 31
0.0
  0
LINE
  5
1B2
330
1F
100
AcDbEntity
  8
0
  6
Continuous
 62
     3
100
AcDbLine
 10
379.0952461695042
 20
906.614192791592
 30
0.0
 11
379.0952461695042
 21
914.615553168482
 31
0.0
  0
LINE
  5
1B3
330
1F
100
AcDbEntity
  8
0
  6
Continuous
 62
     3
100
AcDbLine
 10
406.3946782297921
 20
914.541083514518
 30
0.0
 11
435.0
 21
914.541083514518
 31
0.0
  0
LINE
  5
1B4
330
1F
100
AcDbEntity
  8
0
  6
Continuous
 62
     3
100
AcDbLine
 10
435.0
 20
918.5525430271481
 30
0.0
 11
406.3946782297921
 21
918.5525430271481
 31
0.0
  0
LINE
  5
1B5
330
1F
100
AcDbEntity
  8
0
  6
Continuous
 62
     3
100
AcDbLine
 10
435.0
 20
910.604093655852
 30
0.0
 11
383.0952461695042
 21
910.604093655852
 31
0.0
  0
LINE
  5
1B6
330
1F
100
AcDbEntity
  8
0
  6
Continuous
 62
     3
100
AcDbLine
 10
377.0
 20
901.364872980037
 30
0.0
 11
377.0
 21
909.364872980037
 31
0.0
  0
LINE
  5
1B7
330
1F
100
AcDbEntity
  8
0
  6
Continuous
 62
     3
100
AcDbLine
 10
383.0952461695042
 20
910.604093655852
 30
0.0
 11
383.9083846218632
 21
912.64128806748
 31
0.0
  0
LINE
  5
1B8
330
1F
100
AcDbEntity
  8
0
  6
Continuous
 62
     3
100
AcDbLine
 10
383.9083846218632
 20
912.64128806748
 30
0.0
 11
383.9083846218632
 21
916.65274758011
 31
0.0
  0
LINE
  5
1B9
330
1F
100
AcDbEntity
  8
0
  6
Continuous
 62
     3
100
AcDbLine
 10
383.0952461695042
 20
910.604093655852
 30
0.0
 11
383.0952461695042
 21
914.615553168482
 31
0.0
  0
LINE
  5
1BA
330
1F
100
AcDbEntity
  8
0
  6
Continuous
 62
     3
100
AcDbLine
 10
383.0952461695042
 20
914.615553168482
 30
0.0
 11
379.0952461695042
 21
914.615553168482
 31
0.0
  0
LINE
  5
1BB
330
1F
100
AcDbEntity
  8
0
  6
Continuous
 62
     3
100
AcDbLine
 10
435.0
 20
891.864872980037
 30
0.0
 11
440.0
 21
891.864872980037
 31
0.0
  0
LINE
  5
1BC
330
1F
100
AcDbEntity
  8
0
  6
Continuous
 62
     3
100
AcDbLine
 10
440.0
 20
901.364872980037
 30
0.0
 11
440.0
 21
891.864872980037
 31
0.0
  0
LINE
  5
1BD
330
1F
100
AcDbEntity
  8
100
  6
Continuous
 62
     3
100
AcDbLine
 10
510.5
 20
925.864872980037
 30
0.0
 11
510.5
 21
909.364872980037
 31
0.0
  0
LINE
  5
1BE
330
1F
100
AcDbEntity
  8
100
  6
Continuous
 62
     3
100
AcDbLine
 10
359.5
 20
909.364872980037
 30
0.0
 11
377.0
 21
909.364872980037
 31
0.0
  0
LINE
  5
1BF
330
1F
100
AcDbEntity
  8
100
  6
Continuous
 62
     3
100
AcDbLine
 10
-148.2620571925665
 20
499.0794700165378
 30
0.0
 11
-137.7620571925665
 21
619.0794700165378
 31
0.0
  0
LINE
  5
1C0
330
1F
100
AcDbEntity
  8
100
  6
Continuous
 62
     3
100
AcDbLine
 10
-131.7620571925665
 20
499.0794700165378
 30
0.0
 11
-131.7620571925665
 21
530.0794700165378
 31
0.0
  0
LINE
  5
1C1
330
1F
100
AcDbEntity
  8
100
  6
Continuous
 62
     3
100
AcDbLine
 10
-69.76205719256654
 20
499.0794700165378
 30
0.0
 11
-69.76205719256654
 21
530.0794700165378
 31
0.0
  0
LINE
  5
1C2
330
1F
100
AcDbEntity
  8
100
  6
Continuous
 62
     3
100
AcDbLine
 10
500.0
 20
619.0794700165378
 30
0.0
 11
510.5
 21
499.0794700165378
 31
0.0
  0
LINE
  5
1C3
330
1F
100
AcDbEntity
  8
100
  6
Continuous
 62
     3
100
AcDbLine
 10
370.0
 20
619.0794700165378
 30
0.0
 11
359.5
 21
499.0794700165378
 31
0.0
  0
LINE
  5
1C4
330
1F
100
AcDbEntity
  8
100
  6
Continuous
 62
     3
100
AcDbLine
 10
408.5
 20
988.3648729800371
 30
0.0
 11
435.0
 21
988.3648729800371
 31
0.0
  0
LINE
  5
1C5
330
1F
100
AcDbEntity
  8
100
  6
Continuous
 62
     3
100
AcDbLine
 10
466.5
 20
930.364872980037
 30
0.0
 11
466.5
 21
983.364872980037
 31
0.0
  0
LINE
  5
1C6
330
1F
100
AcDbEntity
  8
100
  6
Continuous
 62
     3
100
AcDbLine
 10
408.5
 20
925.364872980037
 30
0.0
 11
435.0
 21
925.364872980037
 31
0.0
  0
LINE
  5
1C7
330
1F
100
AcDbEntity
  8
100
  6
Continuous
 62
     3
100
AcDbLine
 10
510.5
 20
1004.364872980037
 30
0.0
 11
510.5
 21
987.8648729800371
 31
0.0
  0
LINE
  5
1C8
330
1F
100
AcDbEntity
  8
100
  6
Continuous
 62
     3
100
AcDbLine
 10
500.0
 20
993.8648729800371
 30
0.0
 11
435.0
 21
993.8648729800371
 31
0.0
  0
LINE
  5
1C9
330
1F
100
AcDbEntity
  8
100
  6
Continuous
 62
     3
100
AcDbLine
 10
500.0
 20
993.8648729800371
 30
0.0
 11
500.0
 21
919.864872980037
 31
0.0
  0
LINE
  5
1CA
330
1F
100
AcDbEntity
  8
100
  6
Continuous
 62
     3
100
AcDbLine
 10
403.5
 20
983.364872980037
 30
0.0
 11
403.5
 21
930.364872980037
 31
0.0
  0
LINE
  5
1CB
330
1F
100
AcDbEntity
  8
100
  6
Continuous
 62
     3
100
AcDbLine
 10
370.0
 20
919.864872980037
 30
0.0
 11
435.0
 21
919.864872980037
 31
0.0
  0
LINE
  5
1CC
330
1F
100
AcDbEntity
  8
100
  6
Continuous
 62
     3
100
AcDbLine
 10
370.0
 20
993.8648729800371
 30
0.0
 11
435.0
 21
993.8648729800371
 31
0.0
  0
LINE
  5
1CD
330
1F
100
AcDbEntity
  8
100
  6
Continuous
 62
     3
100
AcDbLine
 10
370.0
 20
919.864872980037
 30
0.0
 11
370.0
 21
993.8648729800371
 31
0.0
  0
LINE
  5
1CE
330
1F
100
AcDbEntity
  8
100
  6
Continuous
 62
     3
100
AcDbLine
 10
359.5
 20
987.8648729800371
 30
0.0
 11
359.5
 21
1004.364872980037
 31
0.0
  0
LINE
  5
1CF
330
1F
100
AcDbEntity
  8
100
  6
Continuous
 62
     3
100
AcDbLine
 10
359.5
 20
909.364872980037
 30
0.0
 11
359.5
 21
925.864872980037
 31
0.0
  0
LINE
  5
1D0
330
1F
100
AcDbEntity
  8
1
  6
DOT_CENTER
 62
     1
100
AcDbLine
 10
435.0
 20
1099.598462616029
 30
0.0
 11
435.0
 21
797.5984626160291
 31
0.0
  0
LINE
  5
1D1
330
1F
100
AcDbEntity
  8
1
  6
Continuous
 62
     3
100
AcDbLine
 10
555.5769849535181
 20
1073.441857937987
 30
0.0
 11
555.5769849535181
 21
824.2878878693621
 31
0.0
  0
LINE
  5
1D2
330
1F
100
AcDbEntity
  8
1
  6
Continuous
 62
     3
100
AcDbLine
 10
298.4230148848924
 20
824.2878878693621
 30
0.0
 11
298.4230148848924
 21
1073.441857937987
 31
0.0
  0
LINE
  5
1D3
330
1F
100
AcDbEntity
  8
1
  6
Continuous
 62
     3
100
AcDbLine
 10
302.4230148848924
 20
1077.441857937987
 30
0.0
 11
551.5769849535181
 21
1077.441857937987
 31
0.0
  0
LINE
  5
1D4
330
1F
100
AcDbEntity
  8
1
  6
Continuous
 62
     3
100
AcDbLine
 10
554.0124688244873
 20
841.8524039983952
 30
0.0
 11
554.0124688244873
 21
1071.877341808954
 31
0.0
  0
LINE
  5
1D5
330
1F
100
AcDbEntity
  8
1
  6
Continuous
 62
     3
100
AcDbLine
 10
550.0124688244873
 20
1075.877341808954
 30
0.0
 11
319.987531013926
 21
1075.877341808954
 31
0.0
  0
LINE
  5
1D6
330
1F
100
AcDbEntity
  8
1
  6
Continuous
 62
     3
100
AcDbLine
 10
315.987531013926
 20
1071.877341808954
 30
0.0
 11
315.987531013926
 21
841.8524039983952
 31
0.0
  0
LINE
  5
1D7
330
1F
100
AcDbEntity
  8
1
  6
Continuous
 62
     3
100
AcDbLine
 10
319.987531013926
 20
837.8524039983952
 30
0.0
 11
550.0124688244873
 21
837.8524039983952
 31
0.0
  0
LINE
  5
1D8
330
1F
100
AcDbEntity
  8
1
  6
Continuous
 62
     3
100
AcDbLine
 10
315.987531013926
 20
1075.877341808954
 30
0.0
 11
303.0981143575691
 21
1077.025434936288
 31
0.0
  0
LINE
  5
1D9
330
1F
100
AcDbEntity
  8
1
  6
Continuous
 62
     3
100
AcDbLine
 10
552.8505971733894
 20
1074.69603432059
 30
0.0
 11
554.5282768668972
 21
1076.14183498271
 31
0.0
  0
LINE
  5
1DA
330
1F
100
AcDbEntity
  8
1
  6
Continuous
 62
     3
100
AcDbLine
 10
555.1408237445603
 20
825.1845843286903
 30
0.0
 11
554.0124688244873
 21
837.8524039983943
 31
0.0
  0
LINE
  5
1DB
330
1F
100
AcDbEntity
  8
1
  6
Continuous
 62
     3
100
AcDbLine
 10
301.0545294236663
 20
822.9194024081341
 30
0.0
 11
315.987531013926
 21
837.8524039983943
 31
0.0
  0
LINE
  5
1DC
330
1F
100
AcDbEntity
  8
1
  6
Continuous
 62
     3
100
AcDbLine
 10
296.4230148848924
 20
1085.441857937987
 30
0.0
 11
558.5769849535181
 21
1085.441857937987
 31
0.0
  0
LINE
  5
1DD
330
1F
100
AcDbEntity
  8
1
  6
Continuous
 62
     3
100
AcDbLine
 10
291.4230148848924
 20
818.2878878693621
 30
0.0
 11
291.4230148848924
 21
1080.441857937987
 31
0.0
  0
LINE
  5
1DE
330
1F
100
AcDbEntity
  8
1
  6
Continuous
 62
     3
100
AcDbLine
 10
558.5769849535181
 20
813.2878878693621
 30
0.0
 11
296.4230148848924
 21
813.2878878693621
 31
0.0
  0
LINE
  5
1DF
330
1F
100
AcDbEntity
  8
1
  6
Continuous
 62
     3
100
AcDbLine
 10
563.5769849535181
 20
1080.441857937987
 30
0.0
 11
563.5769849535181
 21
818.2878878693621
 31
0.0
  0
LINE
  5
1E0
330
1F
100
AcDbEntity
  8
1
  6
Continuous
 62
     3
100
AcDbLine
 10
17.25041178907668
 20
499.0794700165378
 30
0.0
 11
-219.7745260214833
 21
499.0794700165378
 31
0.0
  0
LINE
  5
1E1
330
1F
100
AcDbEntity
  8
1
  6
Continuous
 62
     3
100
AcDbLine
 10
42.41492791810879
 20
407.0794700165388
 30
0.0
 11
41.41492791810879
 21
399.0794700165388
 31
0.0
  0
LINE
  5
1E2
330
1F
100
AcDbEntity
  8
1
  6
Continuous
 62
     3
100
AcDbLine
 10
41.41492791810879
 20
399.0794700165388
 30
0.0
 11
-228.3390421505155
 21
399.0794700165388
 31
0.0
  0
LINE
  5
1E3
330
1F
100
AcDbEntity
  8
1
  6
Continuous
 62
     3
100
AcDbLine
 10
-229.3390421505155
 20
407.0794700165388
 30
0.0
 11
-228.3390421505155
 21
399.0794700165388
 31
0.0
  0
LINE
  5
1E4
330
1F
100
AcDbEntity
  8
1
  6
Continuous
 62
     3
100
AcDbLine
 10
-229.3390421505155
 20
407.0794700165388
 30
0.0
 11
42.41492791810879
 21
407.0794700165388
 31
0.0
  0
LINE
  5
1E5
330
1F
100
AcDbEntity
  8
1
  6
Continuous
 62
     3
100
AcDbLine
 10
551.5769849535181
 20
820.2878878693621
 30
0.0
 11
302.4230148848924
 21
820.2878878693621
 31
0.0
  0
LINE
  5
1E6
330
1F
100
AcDbEntity
  8
1
  6
DOT_CENTER
 62
     1
100
AcDbLine
 10
580.5093547120891
 20
956.8648729800373
 30
0.0
 11
273.5093547120891
 21
956.8648729800373
 31
0.0
  0
LINE
  5
1E7
330
1F
100
AcDbEntity
  8
1
  6
DOT_CENTER
 62
     1
100
AcDbLine
 10
-100.7620571925663
 20
637.0794700165375
 30
0.0
 11
-100.7620571925663
 21
384.0794700165378
 31
0.0
  0
LINE
  5
1E8
330
1F
100
AcDbEntity
  8
0
  6
Continuous
 62
     3
100
AcDbLine
 10
-159.4970166538756
 20
499.0794700165378
 30
0.0
 11
-133.5013122246432
 21
499.0794700165378
 31
0.0
  0
LINE
  5
1E9
330
1F
100
AcDbEntity
  8
0
  6
Continuous
 62
     3
100
AcDbLine
 10
-198.2620571925663
 20
499.0794700165378
 30
0.0
 11
-198.2006573725785
 21
499.0794700165378
 31
0.0
  0
LINE
  5
1EA
330
1F
100
AcDbEntity
  8
0
  6
Continuous
 62
     3
100
AcDbLine
 10
-198.2006573725785
 20
499.0794700165378
 30
0.0
 11
-191.5120571925663
 21
499.0794700165388
 31
0.0
  0
LINE
  5
1EB
330
1F
100
AcDbEntity
  8
0
  6
Continuous
 62
     3
100
AcDbLine
 10
-183.5490069431294
 20
499.0794700165378
 30
0.0
 11
-174.1590268122354
 21
499.0794700165378
 31
0.0
  0
LINE
  5
1EC
330
1F
100
AcDbEntity
  8
0
  6
Continuous
 62
     3
100
AcDbLine
 10
-18.01205719256632
 20
499.0794700165378
 30
0.0
 11
17.23794280743368
 21
499.0794700165378
 31
0.0
  0
LINE
  5
1ED
330
1F
100
AcDbEntity
  8
1
  6
Continuous
 62
     3
100
AcDbLine
 10
18.25041178907577
 20
499.0794700165378
 30
0.0
 11
35.81492791810888
 21
407.0794700165388
 31
0.0
  0
LINE
  5
1EE
330
1F
100
AcDbEntity
  8
1
  6
Continuous
 62
     3
100
AcDbLine
 10
-219.7745260214833
 20
499.0794700165378
 30
0.0
 11
-221.3390421505155
 21
407.0794700165388
 31
0.0
  0
ARC
  5
1EF
330
1F
100
AcDbEntity
  8
0
  6
Continuous
 62
     3
100
AcDbCircle
 10
463.6053217702079
 20
581.5794700165378
 30
0.0
 40
22.49999999999921
100
AcDbArc
 50
1.99999999999938
 51
90.0
  0
ARC
  5
1F0
330
1F
100
AcDbEntity
  8
0
  6
Continuous
 62
     3
100
AcDbCircle
 10
406.3946782297921
 20
581.5794700165378
 30
0.0
 40
22.5
100
AcDbArc
 50
90.0
 51
178.0000000000006
  0
ARC
  5
1F1
330
1F
100
AcDbEntity
  8
100
  6
Continuous
 62
     3
100
AcDbCircle
 10
-100.7620571925665
 20
530.0794700165378
 30
0.0
 40
30.99999999999996
100
AcDbArc
 50
0.0
 51
180.0
  0
ARC
  5
1F2
330
1F
100
AcDbEntity
  8
100
  6
Continuous
 62
     3
100
AcDbCircle
 10
461.5
 20
983.364872980037
 30
0.0
 40
5.0
100
AcDbArc
 50
0.0
 51
90.0
  0
ARC
  5
1F3
330
1F
100
AcDbEntity
  8
100
  6
Continuous
 62
     3
100
AcDbCircle
 10
461.5
 20
930.364872980037
 30
0.0
 40
5.0
100
AcDbArc
 50
270.0
 51
0.0
  0
ARC
  5
1F4
330
1F
100
AcDbEntity
  8
100
  6
Continuous
 62
     3
100
AcDbCircle
 10
596.3589285714288
 20
956.864872980037
 30
0.0
 40
91.28392857142883
100
AcDbArc
 50
160.1475089866966
 51
199.8524910133034
  0
ARC
  5
1F5
330
1F
100
AcDbEntity
  8
100
  6
Continuous
 62
     3
100
AcDbCircle
 10
435.0
 20
956.864872980037
 30
0.0
 40
24.5
100
AcDbArc
 50
270.0
 51
90.0
  0
ARC
  5
1F6
330
1F
100
AcDbEntity
  8
100
  6
Continuous
 62
     3
100
AcDbCircle
 10
408.5
 20
930.364872980037
 30
0.0
 40
5.0
100
AcDbArc
 50
180.0
 51
270.0
  0
ARC
  5
1F7
330
1F
100
AcDbEntity
  8
100
  6
Continuous
 62
     3
100
AcDbCircle
 10
408.5
 20
983.364872980037
 30
0.0
 40
5.000000000000114
100
AcDbArc
 50
90.0
 51
180.0
  0
ARC
  5
1F8
330
1F
100
AcDbEntity
  8
100
  6
Continuous
 62
     3
100
AcDbCircle
 10
273.641071428571
 20
956.864872980037
 30
0.0
 40
91.28392857142896
100
AcDbArc
 50
340.1475089866967
 51
19.85249101330339
  0
ARC
  5
1F9
330
1F
100
AcDbEntity
  8
100
  6
Continuous
 62
     3
100
AcDbCircle
 10
435.0
 20
956.864872980037
 30
0.0
 40
24.5
100
AcDbArc
 50
90.0
 51
270.0
  0
ARC
  5
1FA
330
1F
100
AcDbEntity
  8
1
  6
Continuous
 62
     3
100
AcDbCircle
 10
551.5769849535181
 20
1073.441857937987
 30
0.0
 40
4.0
100
AcDbArc
 50
0.0
 51
90.0
  0
ARC
  5
1FB
330
1F
100
AcDbEntity
  8
1
  6
Continuous
 62
     3
100
AcDbCircle
 10
551.5769849535181
 20
824.2878878693621
 30
0.0
 40
4.0
100
AcDbArc
 50
270.0
 51
0.0
  0
ARC
  5
1FC
330
1F
100
AcDbEntity
  8
1
  6
Continuous
 62
     3
100
AcDbCircle
 10
302.4230148848951
 20
824.2878878693621
 30
0.0
 40
4.000000000002728
100
AcDbArc
 50
180.0
 51
269.9999999999609
  0
ARC
  5
1FD
330
1F
100
AcDbEntity
  8
1
  6
Continuous
 62
     3
100
AcDbCircle
 10
302.4230148848924
 20
1073.441857937987
 30
0.0
 40
4.0
100
AcDbArc
 50
90.0
 51
180.0
  0
ARC
  5
1FE
330
1F
100
AcDbEntity
  8
1
  6
Continuous
 62
     3
100
AcDbCircle
 10
550.0124688244873
 20
841.8524039983924
 30
0.0
 40
3.999999999997272
100
AcDbArc
 50
270.0
 51
0.00000000003908
  0
ARC
  5
1FF
330
1F
100
AcDbEntity
  8
1
  6
Continuous
 62
     3
100
AcDbCircle
 10
550.0124688244873
 20
1071.877341808954
 30
0.0
 40
4.0
100
AcDbArc
 50
0.0
 51
90.0
  0
ARC
  5
200
330
1F
100
AcDbEntity
  8
1
  6
Continuous
 62
     3
100
AcDbCircle
 10
319.9875310139241
 20
1071.877341808954
 30
0.0
 40
4.0
100
AcDbArc
 50
89.99999999997313
 51
180.0
  0
ARC
  5
201
330
1F
100
AcDbEntity
  8
1
  6
Continuous
 62
     3
100
AcDbCircle
 10
319.987531013926
 20
841.8524039983943
 30
0.0
 40
4.0
100
AcDbArc
 50
179.999999999987
 51
270.0
  0
ARC
  5
202
330
1F
100
AcDbEntity
  8
1
  6
Continuous
 62
     3
100
AcDbCircle
 10
296.4230148848951
 20
1080.441857937987
 30
0.0
 40
5.0
100
AcDbArc
 50
90.00000000003128
 51
180.0
  0
ARC
  5
203
330
1F
100
AcDbEntity
  8
1
  6
Continuous
 62
     3
100
AcDbCircle
 10
296.4230148848951
 20
818.2878878693621
 30
0.0
 40
5.000000000002728
100
AcDbArc
 50
180.0
 51
269.9999999999687
  0
ARC
  5
204
330
1F
100
AcDbEntity
  8
1
  6
Continuous
 62
     3
100
AcDbCircle
 10
558.5769849535181
 20
818.2878878693621
 30
0.0
 40
5.0
100
AcDbArc
 50
270.0
 51
0.0
  0
ARC
  5
205
330
1F
100
AcDbEntity
  8
1
  6
Continuous
 62
     3
100
AcDbCircle
 10
558.5769849535163
 20
1080.441857937984
 30
0.0
 40
5.000000000001819
100
AcDbArc
 50
0.00000000003387
 51
89.99999999997915
  0
SPLINE
  5
206
330
1F
100
AcDbEntity
  8
0
  6
Continuous
 62
     3
100
AcDbSpline
210
0.0
220
0.0
230
1.0
 70
     8
 71
     3
 72
    35
 73
    31
 74
    29
 42
0.0000000001
 43
0.0000000001
 44
0.00000001
 40
0.0
 40
0.0
 40
0.0
 40
0.0
 40
3.402054013682322
 40
6.804108027348921
 40
7.604866145384983
 40
8.40562353075915
 40
9.206365108927097
 40
10.00710684132082
 40
10.74945687660928
 40
11.491806665947
 40
12.23420849258834
 40
12.97661055760091
 40
13.64346652820564
 40
14.31032195899829
 40
14.97701660475968
 40
15.64371165713933
 40
16.21929896736516
 40
16.79488280680049
 40
17.37093203042713
 40
17.94699339133837
 40
18.41950700999145
 40
18.89199220906298
 40
19.36321701831341
 40
19.83453680021194
 40
20.19105959936044
 40
20.54730180685781
 40
20.90599541377087
 40
21.26572621525737
 40
21.98445376525247
 40
22.70293660157768
 40
22.70293660157768
 40
22.70293660157768
 40
22.70293660157768
 10
463.6053217702079
 20
914.541083514518
 30
0.0
 10
464.7393469375291
 20
914.5368038723036
 30
0.0
 10
467.0073972721664
 20
914.5282445878745
 30
0.0
 10
469.5419360075429
 20
914.4748909118412
 30
0.0
 10
471.2090681297807
 20
914.4257944446374
 30
0.0
 10
472.0093802161434
 20
914.399163279197
 30
0.0
 10
472.8095762066624
 20
914.3694131812267
 30
0.0
 10
473.5901907526136
 20
914.3371697155626
 30
0.0
 10
474.3512207433423
 20
914.3025734546361
 30
0.0
 10
475.0926744360701
 20
914.2657081515592
 30
0.0
 10
475.8339719339484
 20
914.2254987362787
 30
0.0
 10
476.5499486507406
 20
914.1832385357866
 30
0.0
 10
477.2405843853105
 20
914.1391678376492
 30
0.0
 10
477.9058078332535
 20
914.0932634323578
 30
0.0
 10
478.5706996954297
 20
914.0434864677411
 30
0.0
 10
479.2049328855442
 20
913.9918616676199
 30
0.0
 10
479.8085535807453
 20
913.9386742700467
 30
0.0
 10
480.3817310035155
 20
913.8843658302626
 30
0.0
 10
480.9546729222686
 20
913.8260389059894
 30
0.0
 10
481.4930160170931
 20
913.767225647578
 30
0.0
 10
481.9966419767537
 20
913.708613422009
 30
0.0
 10
482.4649970284771
 20
913.6493896110379
 30
0.0
 10
482.932128045752
 20
913.5839166733618
 30
0.0
 10
483.3598773753736
 20
913.5164245342387
 30
0.0
 10
483.7486070939852
 20
913.4478110592592
 30
0.0
 10
484.0992846161833
 20
913.3805715434454
 30
0.0
 10
484.4507199226906
 20
913.309282775759
 30
0.0
 10
484.9167184416395
 20
913.2061047327993
 30
0.0
 10
485.5188654283138
 20
913.0927450894083
 30
0.0
 10
485.9007204009985
 20
912.7917566583658
 30
0.0
 10
486.0916153781368
 20
912.64128806748
 30
0.0
 11
463.6053217702079
 21
914.541083514518
 31
0.0
 11
467.0073004969341
 21
914.5184504653578
 31
0.0
 11
470.408644312093
 21
914.4489395814234
 31
0.0
 11
471.2090529585458
 21
914.4252845125304
 31
0.0
 11
472.0093670423972
 21
914.3986432396574
 31
0.0
 11
472.8095546795278
 21
914.3688637099374
 31
0.0
 11
473.6096131931913
 21
914.3357926242071
 31
0.0
 11
474.3511958804492
 21
914.3020481009163
 31
0.0
 11
475.0926281945569
 21
914.2651518500685
 31
0.0
 11
475.8339385545955
 21
914.2249098036502
 31
0.0
 11
476.5750488840279
 21
914.1811341740882
 31
0.0
 11
477.2405466270244
 21
914.1385943151593
 31
0.0
 11
477.9058149427974
 21
914.0926135191005
 31
0.0
 11
478.5706435637031
 21
914.0427672001642
 31
0.0
 11
479.2351349357479
 21
913.9886053192365
 31
0.0
 11
479.8084973460123
 21
913.9380454716423
 31
0.0
 11
480.3815111585291
 21
913.8837138336764
 31
0.0
 11
480.9545947132313
 21
913.8253362063629
 31
0.0
 11
481.5272449257523
 21
913.7627388770704
 31
0.0
 11
481.9965580764505
 21
913.7078363598749
 31
0.0
 11
482.465275222329
 21
913.6482838578185
 31
0.0
 11
482.9318971937989
 21
913.5825818289713
 31
0.0
 11
483.3974144447038
 21
913.5088524188369
 31
0.0
 11
483.7485198690543
 21
913.4469372566848
 31
0.0
 11
484.0984340395235
 21
913.380089790708
 31
0.0
 11
484.4498852784299
 21
913.3083741695962
 31
0.0
 11
484.8016144579216
 21
913.2329232992754
 31
0.0
 11
485.4940019817729
 21
913.0401311626695
 31
0.0
 11
486.0916153781368
 21
912.64128806748
 31
0.0
  0
SPLINE
  5
207
330
1F
100
AcDbEntity
  8
0
  6
Continuous
 62
     3
100
AcDbSpline
210
0.0
220
0.0
230
1.0
 70
     8
 71
     3
 72
    35
 73
    31
 74
    29
 42
0.0000000001
 43
0.0000000001
 44
0.00000001
 40
0.0
 40
0.0
 40
0.0
 40
0.0
 40
3.40205401368232
 40
6.804108027348983
 40
7.604866145385039
 40
8.405623530759168
 40
9.206365108926892
 40
10.00710684132057
 40
10.74945687660901
 40
11.49180666594683
 40
12.2342084925883
 40
12.97661055760089
 40
13.64346652820557
 40
14.31032195899825
 40
14.97701660475965
 40
15.64371165713937
 40
16.21929896736521
 40
16.79488280680055
 40
17.37093203042737
 40
17.94699339133858
 40
18.4195070099915
 40
18.89199220906298
 40
19.36321701831329
 40
19.83453680021183
 40
20.19105959936032
 40
20.54730180685767
 40
20.90599541377081
 40
21.26572621525734
 40
21.98445376525262
 40
22.70293660157784
 40
22.70293660157784
 40
22.70293660157784
 40
22.70293660157784
 10
463.6053217702079
 20
918.5525430271481
 30
0.0
 10
464.739346937529
 20
918.5482633849338
 30
0.0
 10
467.0073972721664
 20
918.5397041005056
 30
0.0
 10
469.5419360075429
 20
918.4863504244704
 30
0.0
 10
471.2090681297809
 20
918.4372539572682
 30
0.0
 10
472.0093802161434
 20
918.4106227918262
 30
0.0
 10
472.8095762066623
 20
918.3808726938564
 30
0.0
 10
473.5901907526131
 20
918.3486292281921
 30
0.0
 10
474.3512207433421
 20
918.3140329672655
 30
0.0
 10
475.0926744360697
 20
918.2771676641894
 30
0.0
 10
475.8339719339484
 20
918.2369582489083
 30
0.0
 10
476.5499486507405
 20
918.1946980484172
 30
0.0
 10
477.2405843853106
 20
918.1506273502794
 30
0.0
 10
477.9058078332534
 20
918.1047229449886
 30
0.0
 10
478.5706996954297
 20
918.0549459803715
 30
0.0
 10
479.2049328855442
 20
918.0033211802499
 30
0.0
 10
479.8085535807455
 20
917.9501337826771
 30
0.0
 10
480.3817310035154
 20
917.8958253428925
 30
0.0
 10
480.9546729222691
 20
917.8374984186204
 30
0.0
 10
481.4930160170931
 20
917.7786851602084
 30
0.0
 10
481.9966419767538
 20
917.7200729346399
 30
0.0
 10
482.4649970284772
 20
917.6608491236694
 30
0.0
 10
482.9321280457521
 20
917.5953761859923
 30
0.0
 10
483.3598773753736
 20
917.52788404687
 30
0.0
 10
483.7486070939851
 20
917.4592705718896
 30
0.0
 10
484.0992846161834
 20
917.3920310560769
 30
0.0
 10
484.4507199226906
 20
917.3207422883896
 30
0.0
 10
484.9167184416393
 20
917.2175642454298
 30
0.0
 10
485.5188654283137
 20
917.1042046020384
 30
0.0
 10
485.9007204009986
 20
916.803216170996
 30
0.0
 10
486.0916153781368
 20
916.65274758011
 30
0.0
 11
463.6053217702079
 21
918.5525430271481
 31
0.0
 11
467.0073004969341
 21
918.5299099779882
 31
0.0
 11
470.4086443120931
 21
918.4603990940534
 31
0.0
 11
471.2090529585458
 21
918.4367440251607
 31
0.0
 11
472.0093670423972
 21
918.4101027522871
 31
0.0
 11
472.8095546795275
 21
918.380323222567
 31
0.0
 11
473.609613193191
 21
918.3472521368365
 31
0.0
 11
474.3511958804489
 21
918.313507613546
 31
0.0
 11
475.0926281945568
 21
918.2766113626985
 31
0.0
 11
475.8339385545954
 21
918.23636931628
 31
0.0
 11
476.5750488840279
 21
918.1925936867186
 31
0.0
 11
477.2405466270243
 21
918.1500538277896
 31
0.0
 11
477.9058149427974
 21
918.1040730317312
 31
0.0
 11
478.5706435637031
 21
918.0542267127948
 31
0.0
 11
479.2351349357479
 21
918.0000648318669
 31
0.0
 11
479.8084973460124
 21
917.9495049842726
 31
0.0
 11
480.3815111585292
 21
917.8951733463066
 31
0.0
 11
480.9545947132316
 21
917.8367957189935
 31
0.0
 11
481.5272449257526
 21
917.7741983897013
 31
0.0
 11
481.9965580764506
 21
917.7192958725058
 31
0.0
 11
482.4652752223291
 21
917.6597433704496
 31
0.0
 11
482.9318971937988
 21
917.5940413416022
 31
0.0
 11
483.3974144447038
 21
917.520311931468
 31
0.0
 11
483.7485198690543
 21
917.4583967693156
 31
0.0
 11
484.0984340395234
 21
917.3915493033389
 31
0.0
 11
484.4498852784299
 21
917.319833682227
 31
0.0
 11
484.8016144579216
 21
917.2443828119058
 31
0.0
 11
485.494001981773
 21
917.0515906752996
 31
0.0
 11
486.0916153781368
 21
916.65274758011
 31
0.0
  0
SPLINE
  5
208
330
1F
100
AcDbEntity
  8
0
  6
Continuous
 62
     3
100
AcDbSpline
210
0.0
220
0.0
230
1.0
 70
     8
 71
     3
 72
    35
 73
    31
 74
    29
 42
0.0000000001
 43
0.0000000001
 44
0.00000001
 40
0.0
 40
0.0
 40
0.0
 40
0.0
 40
3.402054013682319
 40
6.804108027348982
 40
7.604866145385044
 40
8.40562353075911
 40
9.20636510892689
 40
10.00710684132052
 40
10.74945687660907
 40
11.4918066659469
 40
12.23420849258835
 40
12.97661055760086
 40
13.6434665282055
 40
14.31032195899825
 40
14.97701660475965
 40
15.64371165713932
 40
16.21929896736504
 40
16.79488280680055
 40
17.37093203042731
 40
17.94699339133858
 40
18.41950700999161
 40
18.89199220906292
 40
19.36321701831334
 40
19.83453680021184
 40
20.19105959936032
 40
20.54730180685773
 40
20.90599541377076
 40
21.26572621525735
 40
21.98445376525252
 40
22.70293660157784
 40
22.70293660157784
 40
22.70293660157784
 40
22.70293660157784
 10
406.3946782297921
 20
918.5525430271481
 30
0.0
 10
405.2606530624707
 20
918.5482633849338
 30
0.0
 10
402.9926027278334
 20
918.5397041005053
 30
0.0
 10
400.4580639924575
 20
918.4863504244711
 30
0.0
 10
398.7909318702191
 20
918.437253957268
 30
0.0
 10
397.9906197838569
 20
918.4106227918265
 30
0.0
 10
397.1904237933377
 20
918.3808726938569
 30
0.0
 10
396.4098092473868
 20
918.3486292281916
 30
0.0
 10
395.6487792566578
 20
918.3140329672657
 30
0.0
 10
394.9073255639302
 20
918.2771676641889
 30
0.0
 10
394.1660280660515
 20
918.2369582489084
 30
0.0
 10
393.4500513492595
 20
918.1946980484167
 30
0.0
 10
392.7594156146895
 20
918.1506273502794
 30
0.0
 10
392.0941921667466
 20
918.1047229449886
 30
0.0
 10
391.4293003045705
 20
918.0549459803715
 30
0.0
 10
390.7950671144557
 20
918.0033211802503
 30
0.0
 10
390.1914464192546
 20
917.9501337826771
 30
0.0
 10
389.6182689964846
 20
917.8958253428923
 30
0.0
 10
389.045327077731
 20
917.8374984186205
 30
0.0
 10
388.5069839829071
 20
917.7786851602086
 30
0.0
 10
388.0033580232459
 20
917.7200729346396
 30
0.0
 10
387.5350029715229
 20
917.6608491236691
 30
0.0
 10
387.0678719542479
 20
917.5953761859923
 30
0.0
 10
386.6401226246264
 20
917.5278840468698
 30
0.0
 10
386.2513929060149
 20
917.4592705718898
 30
0.0
 10
385.9007153838166
 20
917.3920310560769
 30
0.0
 10
385.5492800773094
 20
917.3207422883895
 30
0.0
 10
385.0832815583606
 20
917.2175642454297
 30
0.0
 10
384.4811345716863
 20
917.1042046020386
 30
0.0
 10
384.0992795990015
 20
916.8032161709962
 30
0.0
 10
383.9083846218632
 20
916.65274758011
 30
0.0
 11
406.3946782297921
 21
918.5525430271481
 31
0.0
 11
402.9926995030659
 21
918.5299099779883
 31
0.0
 11
399.5913556879069
 21
918.4603990940535
 31
0.0
 11
398.7909470414542
 21
918.4367440251606
 31
0.0
 11
397.9906329576028
 21
918.4101027522872
 31
0.0
 11
397.1904453204725
 21
918.3803232225671
 31
0.0
 11
396.390386806809
 21
918.3472521368363
 31
0.0
 11
395.648804119551
 21
918.313507613546
 31
0.0
 11
394.9073718054432
 21
918.2766113626983
 31
0.0
 11
394.1660614454045
 21
918.23636931628
 31
0.0
 11
393.4249511159722
 21
918.1925936867183
 31
0.0
 11
392.7594533729757
 21
918.1500538277897
 31
0.0
 11
392.0941850572026
 21
918.1040730317312
 31
0.0
 11
391.4293564362969
 21
918.0542267127948
 31
0.0
 11
390.7648650642521
 21
918.0000648318669
 31
0.0
 11
390.1915026539878
 21
917.9495049842726
 31
0.0
 11
389.6184888414708
 21
917.8951733463066
 31
0.0
 11
389.0454052867685
 21
917.8367957189935
 31
0.0
 11
388.4727550742474
 21
917.7741983897013
 31
0.0
 11
388.0034419235493
 21
917.7192958725058
 31
0.0
 11
387.534724777671
 21
917.6597433704496
 31
0.0
 11
387.0681028062011
 21
917.5940413416022
 31
0.0
 11
386.6025855552962
 21
917.520311931468
 31
0.0
 11
386.2514801309457
 21
917.4583967693156
 31
0.0
 11
385.9015659604765
 21
917.3915493033389
 31
0.0
 11
385.5501147215702
 21
917.319833682227
 31
0.0
 11
385.1983855420784
 21
917.2443828119058
 31
0.0
 11
384.5059980182272
 21
917.0515906752996
 31
0.0
 11
383.9083846218632
 21
916.65274758011
 31
0.0
  0
SPLINE
  5
209
330
1F
100
AcDbEntity
  8
0
  6
Continuous
 62
     3
100
AcDbSpline
210
0.0
220
0.0
230
1.0
 70
     8
 71
     3
 72
    35
 73
    31
 74
    29
 42
0.0000000001
 43
0.0000000001
 44
0.00000001
 40
0.0
 40
0.0
 40
0.0
 40
0.0
 40
3.40205401368238
 40
6.80410802734886
 40
7.604866145385036
 40
8.405623530759103
 40
9.20636510892694
 40
10.00710684132052
 40
10.74945687660913
 40
11.49180666594689
 40
12.23420849258828
 40
12.97661055760095
 40
13.64346652820578
 40
14.31032195899859
 40
14.97701660475987
 40
15.64371165713932
 40
16.21929896736514
 40
16.79488280680055
 40
17.37093203042731
 40
17.9469933913386
 40
18.41950700999167
 40
18.89199220906301
 40
19.36321701831343
 40
19.83453680021196
 40
20.19105959936037
 40
20.54730180685772
 40
20.90599541377092
 40
21.26572621525739
 40
21.98445376525249
 40
22.7029366015777
 40
22.7029366015777
 40
22.7029366015777
 40
22.7029366015777
 10
406.3946782297921
 20
914.541083514518
 30
0.0
 10
405.2606530624707
 20
914.5368038723034
 30
0.0
 10
402.9926027278335
 20
914.5282445878745
 30
0.0
 10
400.4580639924573
 20
914.4748909118405
 30
0.0
 10
398.7909318702192
 20
914.4257944446381
 30
0.0
 10
397.9906197838566
 20
914.399163279196
 30
0.0
 10
397.1904237933377
 20
914.3694131812267
 30
0.0
 10
396.4098092473868
 20
914.3371697155616
 30
0.0
 10
395.6487792566579
 20
914.3025734546354
 30
0.0
 10
394.9073255639301
 20
914.2657081515592
 30
0.0
 10
394.1660280660516
 20
914.225498736279
 30
0.0
 10
393.4500513492592
 20
914.1832385357867
 30
0.0
 10
392.7594156146893
 20
914.1391678376498
 30
0.0
 10
392.0941921667463
 20
914.0932634323585
 30
0.0
 10
391.4293003045702
 20
914.0434864677414
 30
0.0
 10
390.7950671144557
 20
913.99186166762
 30
0.0
 10
390.1914464192545
 20
913.9386742700475
 30
0.0
 10
389.6182689964847
 20
913.8843658302625
 30
0.0
 10
389.0453270777309
 20
913.82603890599
 30
0.0
 10
388.506983982907
 20
913.7672256475782
 30
0.0
 10
388.0033580232462
 20
913.7086134220094
 30
0.0
 10
387.5350029715229
 20
913.6493896110381
 30
0.0
 10
387.0678719542479
 20
913.5839166733617
 30
0.0
 10
386.6401226246265
 20
913.5164245342387
 30
0.0
 10
386.2513929060149
 20
913.4478110592588
 30
0.0
 10
385.9007153838168
 20
913.380571543446
 30
0.0
 10
385.5492800773095
 20
913.3092827757589
 30
0.0
 10
385.0832815583605
 20
913.2061047327994
 30
0.0
 10
384.4811345716862
 20
913.0927450894081
 30
0.0
 10
384.0992795990015
 20
912.791756658366
 30
0.0
 10
383.9083846218632
 20
912.64128806748
 30
0.0
 11
406.3946782297921
 21
914.541083514518
 31
0.0
 11
402.9926995030658
 21
914.5184504653577
 31
0.0
 11
399.591355687907
 21
914.4489395814235
 31
0.0
 11
398.7909470414542
 21
914.4252845125305
 31
0.0
 11
397.9906329576028
 21
914.3986432396572
 31
0.0
 11
397.1904453204724
 21
914.368863709937
 31
0.0
 11
396.390386806809
 21
914.3357926242062
 31
0.0
 11
395.648804119551
 21
914.3020481009158
 31
0.0
 11
394.9073718054432
 21
914.2651518500684
 31
0.0
 11
394.1660614454046
 21
914.2249098036502
 31
0.0
 11
393.4249511159721
 21
914.1811341740885
 31
0.0
 11
392.7594533729754
 21
914.1385943151598
 31
0.0
 11
392.0941850572023
 21
914.0926135191012
 31
0.0
 11
391.4293564362966
 21
914.0427672001648
 31
0.0
 11
390.7648650642521
 21
913.9886053192367
 31
0.0
 11
390.1915026539877
 21
913.9380454716427
 31
0.0
 11
389.6184888414708
 21
913.8837138336766
 31
0.0
 11
389.0454052867685
 21
913.8253362063634
 31
0.0
 11
388.4727550742474
 21
913.762738877071
 31
0.0
 11
388.0034419235493
 21
913.7078363598752
 31
0.0
 11
387.534724777671
 21
913.6482838578188
 31
0.0
 11
387.0681028062011
 21
913.5825818289713
 31
0.0
 11
386.6025855552962
 21
913.5088524188369
 31
0.0
 11
386.2514801309458
 21
913.4469372566847
 31
0.0
 11
385.9015659604767
 21
913.380089790708
 31
0.0
 11
385.5501147215701
 21
913.308374169596
 31
0.0
 11
385.1983855420784
 21
913.2329232992754
 31
0.0
 11
384.5059980182271
 21
913.0401311626695
 31
0.0
 11
383.9083846218632
 21
912.64128806748
 31
0.0
  0
ENDSEC
  0
SECTION
  2
OBJECTS
  0
DICTIONARY
  5
C
330
0
100
AcDbDictionary
281
     1
  3
ACAD_GROUP
350
D
  3
ACAD_LAYOUT
350
1A
  3
ACAD_MATERIAL
350
3B
  3
ACAD_MLEADERSTYLE
350
20C
  3
ACAD_MLINESTYLE
350
17
  3
ACAD_PLOTSETTINGS
350
19
  3
ACAD_PLOTSTYLENAME
350
E
  3
ACAD_VISUALSTYLE
350
2A
  3
AcDbVariableDictionary
350
20A
  0
DICTIONARY
  5
D
102
{ACAD_REACTORS
330
C
102
}
330
C
100
AcDbDictionary
281
     1
  0
DICTIONARY
  5
1A
102
{ACAD_REACTORS
330
C
102
}
330
C
100
AcDbDictionary
281
     1
  3
Layout1
350
1E
  3
Layout2
350
26
  3
Model
350
22
  0
DICTIONARY
  5
3B
102
{ACAD_REACTORS
330
C
102
}
330
C
100
AcDbDictionary
281
     1
  3
ByBlock
350
3D
  3
ByLayer
350
3C
  3
Global
350
3E
  0
DICTIONARY
  5
20C
102
{ACAD_REACTORS
330
C
102
}
330
C
100
AcDbDictionary
281
     1
  0
DICTIONARY
  5
17
102
{ACAD_REACTORS
330
C
102
}
330
C
100
AcDbDictionary
281
     1
  3
Standard
350
18
  0
DICTIONARY
  5
19
102
{ACAD_REACTORS
330
C
102
}
330
C
100
AcDbDictionary
281
     1
  0
ACDBDICTIONARYWDFLT
  5
E
102
{ACAD_REACTORS
330
C
102
}
330
C
100
AcDbDictionary
281
     1
  3
Normal
350
F
100
AcDbDictionaryWithDefault
340
F
  0
DICTIONARY
  5
2A
102
{ACAD_REACTORS
330
C
102
}
330
C
100
AcDbDictionary
281
     1
  3
2dWireframe
350
2F
  3
3D Hidden
350
31
  3
3dWireframe
350
30
  3
Basic
350
32
  3
Brighten
350
36
  3
ColorChange
350
3A
  3
Conceptual
350
34
  3
Dim
350
35
  3
Facepattern
350
39
  3
Flat
350
2B
  3
FlatWithEdges
350
2C
  3
Gouraud
350
2D
  3
GouraudWithEdges
350
2E
  3
Linepattern
350
38
  3
Realistic
350
33
  3
Thicken
350
37
  0
DICTIONARY
  5
20A
102
{ACAD_REACTORS
330
C
102
}
330
C
100
AcDbDictionary
281
     1
  3
DIMASSOC
350
20D
  3
HIDETEXT
350
20E
  0
LAYOUT
  5
1E
102
{ACAD_REACTORS
330
1A
102
}
330
1A
100
AcDbPlotSettings
  1

  2
none_device
  4

  6

 40
0.0
 41
0.0
 42
0.0
 43
0.0
 44
0.0
 45
0.0
 46
0.0
 47
0.0
 48
0.0
 49
0.0
140
0.0
141
0.0
142
1.0
143
1.0
 70
   688
 72
     0
 73
     0
 74
     5
  7

 75
    16
147
1.0
148
0.0
149
0.0
100
AcDbLayout
  1
Layout1
 70
     1
 71
     1
 10
0.0
 20
0.0
 11
12.0
 21
9.0
 12
0.0
 22
0.0
 32
0.0
 14
1.00000000000000E+20
 24
1.00000000000000E+20
 34
1.00000000000000E+20
 15
-1.00000000000000E+20
 25
-1.00000000000000E+20
 35
-1.00000000000000E+20
146
0.0
 13
0.0
 23
0.0
 33
0.0
 16
1.0
 26
0.0
 36
0.0
 17
0.0
 27
1.0
 37
0.0
 76
     0
330
1B
  0
LAYOUT
  5
26
102
{ACAD_REACTORS
330
1A
102
}
330
1A
100
AcDbPlotSettings
  1

  2
none_device
  4

  6

 40
0.0
 41
0.0
 42
0.0
 43
0.0
 44
0.0
 45
0.0
 46
0.0
 47
0.0
 48
0.0
 49
0.0
140
0.0
141
0.0
142
1.0
143
1.0
 70
   688
 72
     0
 73
     0
 74
     5
  7

 75
    16
147
1.0
148
0.0
149
0.0
100
AcDbLayout
  1
Layout2
 70
     1
 71
     2
 10
0.0
 20
0.0
 11
0.0
 21
0.0
 12
0.0
 22
0.0
 32
0.0
 14
0.0
 24
0.0
 34
0.0
 15
0.0
 25
0.0
 35
0.0
146
0.0
 13
0.0
 23
0.0
 33
0.0
 16
1.0
 26
0.0
 36
0.0
 17
0.0
 27
1.0
 37
0.0
 76
     0
330
23
  0
LAYOUT
  5
22
102
{ACAD_REACTORS
330
1A
102
}
330
1A
100
AcDbPlotSettings
  1

  2
none_device
  4

  6

 40
0.0
 41
0.0
 42
0.0
 43
0.0
 44
0.0
 45
0.0
 46
0.0
 47
0.0
 48
0.0
 49
0.0
140
0.0
141
0.0
142
1.0
143
1.0
 70
  1712
 72
     0
 73
     0
 74
     0
  7

 75
     0
147
1.0
148
0.0
149
0.0
100
AcDbLayout
  1
Model
 70
     1
 71
     0
 10
0.0
 20
0.0
 11
12.0
 21
9.0
 12
0.0
 22
0.0
 32
0.0
 14
-229.3390421505155
 24
252.306326204956
 34
0.0
 15
580.5093547120891
 25
1099.598462616029
 35
0.0
146
0.0
 13
0.0
 23
0.0
 33
0.0
 16
1.0
 26
0.0
 36
0.0
 17
0.0
 27
1.0
 37
0.0
 76
     0
330
1F
331
29
  0
MATERIAL
  5
3D
102
{ACAD_REACTORS
330
3B
102
}
102
{ACAD_XDICTIONARY
360
231
102
}
330
3B
100
AcDbMaterial
  1
ByBlock
  0
MATERIAL
  5
3C
102
{ACAD_REACTORS
330
3B
102
}
102
{ACAD_XDICTIONARY
360
22F
102
}
330
3B
100
AcDbMaterial
  1
ByLayer
  0
MATERIAL
  5
3E
102
{ACAD_REACTORS
330
3B
102
}
102
{ACAD_XDICTIONARY
360
233
102
}
330
3B
100
AcDbMaterial
  1
Global
  0
MLINESTYLE
  5
18
102
{ACAD_REACTORS
330
17
102
}
330
17
100
AcDbMlineStyle
  2
Standard
 70
     0
  3

 62
   256
 51
90.0
 52
90.0
 71
     2
 49
0.5
 62
   256
  6
BYLAYER
 49
-0.5
 62
   256
  6
BYLAYER
  0
ACDBPLACEHOLDER
  5
F
102
{ACAD_REACTORS
330
E
102
}
330
E
  0
VISUALSTYLE
  5
2F
102
{ACAD_REACTORS
330
2A
102
}
102
{ACAD_XDICTIONARY
360
217
102
}
330
2A
100
AcDbVisualStyle
  2
2dWireframe
 70
     4
 71
     0
 72
     2
 73
     0
 90
        0
 40
-0.6
 41
-30.0
 62
     5
 63
     7
 74
     1
 91
        4
 64
     7
 65
   257
 75
     1
175
     1
 42
1.0
 92
        0
 66
   257
 43
1.0
 76
     1
 77
     6
 78
     2
 67
     7
 79
     5
170
     0
171
     0
290
     0
174
     0
 93
        1
 44
0.0
173
     0
291
     0
 45
0.0
1001
ACAD
1000
AcDbSavedByObjectVersion
1070
     0
  0
VISUALSTYLE
  5
31
102
{ACAD_REACTORS
330
2A
102
}
102
{ACAD_XDICTIONARY
360
21B
102
}
330
2A
100
AcDbVisualStyle
  2
3D Hidden
 70
     6
 71
     1
 72
     2
 73
     2
 90
        0
 40
-0.6
 41
-30.0
 62
     5
 63
     7
 74
     2
 91
        2
 64
     7
 65
   257
 75
     2
175
     1
 42
40.0
 92
        0
 66
   257
 43
1.0
 76
     1
 77
     6
 78
     2
 67
     7
 79
     3
170
     0
171
     0
290
     0
174
     0
 93
        1
 44
0.0
173
     0
291
     0
 45
0.0
1001
ACAD
1000
AcDbSavedByObjectVersion
1070
     0
  0
VISUALSTYLE
  5
30
102
{ACAD_REACTORS
330
2A
102
}
102
{ACAD_XDICTIONARY
360
219
102
}
330
2A
100
AcDbVisualStyle
  2
3dWireframe
 70
     5
 71
     0
 72
     2
 73
     0
 90
        0
 40
-0.6
 41
-30.0
 62
     5
 63
     7
 74
     1
 91
        4
 64
     7
 65
   257
 75
     1
175
     1
 42
1.0
 92
        0
 66
   257
 43
1.0
 76
     1
 77
     6
 78
     2
 67
     7
 79
     5
170
     0
171
     0
290
     0
174
     0
 93
        1
 44
0.0
173
     0
291
     0
 45
0.0
1001
ACAD
1000
AcDbSavedByObjectVersion
1070
     0
  0
VISUALSTYLE
  5
32
102
{ACAD_REACTORS
330
2A
102
}
102
{ACAD_XDICTIONARY
360
21D
102
}
330
2A
100
AcDbVisualStyle
  2
Basic
 70
     7
 71
     1
 72
     0
 73
     1
 90
        0
 40
-0.6
 41
-30.0
 62
     5
 63
     7
 74
     0
 91
        4
 64
     7
 65
   257
 75
     1
175
     1
 42
1.0
 92
        8
 66
     7
 43
1.0
 76
     1
 77
     6
 78
     2
 67
     7
 79
     5
170
     0
171
     0
290
     0
174
     0
 93
        1
 44
0.0
173
     0
291
     1
 45
0.0
1001
ACAD
1000
AcDbSavedByObjectVersion
1070
     0
  0
VISUALSTYLE
  5
36
102
{ACAD_REACTORS
330
2A
102
}
102
{ACAD_XDICTIONARY
360
225
102
}
330
2A
100
AcDbVisualStyle
  2
Brighten
 70
    12
 71
     2
 72
     2
 73
     0
 90
        0
 40
-0.6
 41
-30.0
 62
     5
 63
     7
 74
     1
 91
        4
 64
     7
 65
   257
 75
     1
175
     1
 42
1.0
 92
        8
 66
     7
 43
1.0
 76
     1
 77
     6
 78
     2
 67
     7
 79
     5
170
     0
171
     0
290
     0
174
     0
 93
        1
 44
50.0
173
     0
291
     1
 45
0.0
1001
ACAD
1000
AcDbSavedByObjectVersion
1070
     0
  0
VISUALSTYLE
  5
3A
102
{ACAD_REACTORS
330
2A
102
}
102
{ACAD_XDICTIONARY
360
22D
102
}
330
2A
100
AcDbVisualStyle
  2
ColorChange
 70
    16
 71
     2
 72
     2
 73
     3
 90
        0
 40
-0.6
 41
-30.0
 62
     5
 63
     8
 74
     1
 91
        4
 64
     7
 65
   257
 75
     1
175
     1
 42
1.0
 92
        8
 66
     8
 43
1.0
 76
     1
 77
     6
 78
     2
 67
     7
 79
     5
170
     0
171
     0
290
     0
174
     0
 93
        1
 44
0.0
173
     0
291
     1
 45
0.0
1001
ACAD
1000
AcDbSavedByObjectVersion
1070
     0
  0
VISUALSTYLE
  5
34
102
{ACAD_REACTORS
330
2A
102
}
102
{ACAD_XDICTIONARY
360
221
102
}
330
2A
100
AcDbVisualStyle
  2
Conceptual
 70
     9
 71
     3
 72
     2
 73
     0
 90
        0
 40
-0.6
 41
-30.0
 62
     5
 63
     7
 74
     2
 91
        2
 64
     7
 65
   257
 75
     1
175
     1
 42
40.0
 92
        8
 66
     7
 43
1.0
 76
     1
 77
     6
 78
     2
 67
     7
 79
     3
170
     0
171
     0
290
     0
174
     0
 93
        1
 44
0.0
173
     0
291
     0
 45
0.0
1001
ACAD
1000
AcDbSavedByObjectVersion
1070
     0
  0
VISUALSTYLE
  5
35
102
{ACAD_REACTORS
330
2A
102
}
102
{ACAD_XDICTIONARY
360
223
102
}
330
2A
100
AcDbVisualStyle
  2
Dim
 70
    11
 71
     2
 72
     2
 73
     0
 90
        0
 40
-0.6
 41
-30.0
 62
     5
 63
     7
 74
     1
 91
        4
 64
     7
 65
   257
 75
     1
175
     1
 42
1.0
 92
        8
 66
     7
 43
1.0
 76
     1
 77
     6
 78
     2
 67
     7
 79
     5
170
     0
171
     0
290
     0
174
     0
 93
        1
 44
-50.0
173
     0
291
     1
 45
0.0
1001
ACAD
1000
AcDbSavedByObjectVersion
1070
     0
  0
VISUALSTYLE
  5
39
102
{ACAD_REACTORS
330
2A
102
}
102
{ACAD_XDICTIONARY
360
22B
102
}
330
2A
100
AcDbVisualStyle
  2
Facepattern
 70
    15
 71
     2
 72
     2
 73
     0
 90
        0
 40
-0.6
 41
-30.0
 62
     5
 63
     7
 74
     1
 91
        4
 64
     7
 65
   257
 75
     1
175
     1
 42
1.0
 92
        8
 66
     7
 43
1.0
 76
     1
 77
     6
 78
     2
 67
     7
 79
     5
170
     0
171
     0
290
     0
174
     0
 93
        1
 44
0.0
173
     0
291
     1
 45
0.0
1001
ACAD
1000
AcDbSavedByObjectVersion
1070
     0
  0
VISUALSTYLE
  5
2B
102
{ACAD_REACTORS
330
2A
102
}
102
{ACAD_XDICTIONARY
360
20F
102
}
330
2A
100
AcDbVisualStyle
  2
Flat
 70
     0
 71
     2
 72
     1
 73
     1
 90
        2
 40
-0.6
 41
30.0
 62
     5
 63
     7
 74
     0
 91
        4
 64
     7
 65
   257
 75
     1
175
     1
 42
1.0
 92
        8
 66
     7
 43
1.0
 76
     1
 77
     6
 78
     2
 67
     7
 79
     5
170
     0
171
     0
290
     0
174
     0
 93
       13
 44
0.0
173
     0
291
     1
 45
0.0
1001
ACAD
1000
AcDbSavedByObjectVersion
1070
     0
  0
VISUALSTYLE
  5
2C
102
{ACAD_REACTORS
330
2A
102
}
102
{ACAD_XDICTIONARY
360
211
102
}
330
2A
100
AcDbVisualStyle
  2
FlatWithEdges
 70
     1
 71
     2
 72
     1
 73
     1
 90
        2
 40
-0.6
 41
30.0
 62
     5
 63
     7
 74
     1
 91
        4
 64
     7
 65
   257
 75
     1
175
     1
 42
1.0
 92
        0
 66
   257
 43
1.0
 76
     1
 77
     6
 78
     2
 67
     7
 79
     5
170
     0
171
     0
290
     0
174
     0
 93
       13
 44
0.0
173
     0
291
     1
 45
0.0
1001
ACAD
1000
AcDbSavedByObjectVersion
1070
     0
  0
VISUALSTYLE
  5
2D
102
{ACAD_REACTORS
330
2A
102
}
102
{ACAD_XDICTIONARY
360
213
102
}
330
2A
100
AcDbVisualStyle
  2
Gouraud
 70
     2
 71
     2
 72
     2
 73
     1
 90
        2
 40
-0.6
 41
30.0
 62
     5
 63
     7
 74
     0
 91
        4
 64
     7
 65
   257
 75
     1
175
     1
 42
1.0
 92
        0
 66
     7
 43
1.0
 76
     1
 77
     6
 78
     2
 67
     7
 79
     5
170
     0
171
     0
290
     0
174
     0
 93
       13
 44
0.0
173
     0
291
     1
 45
0.0
1001
ACAD
1000
AcDbSavedByObjectVersion
1070
     0
  0
VISUALSTYLE
  5
2E
102
{ACAD_REACTORS
330
2A
102
}
102
{ACAD_XDICTIONARY
360
215
102
}
330
2A
100
AcDbVisualStyle
  2
GouraudWithEdges
 70
     3
 71
     2
 72
     2
 73
     1
 90
        2
 40
-0.6
 41
30.0
 62
     5
 63
     7
 74
     1
 91
        4
 64
     7
 65
   257
 75
     1
175
     1
 42
1.0
 92
        0
 66
   257
 43
1.0
 76
     1
 77
     6
 78
     2
 67
     7
 79
     5
170
     0
171
     0
290
     0
174
     0
 93
       13
 44
0.0
173
     0
291
     1
 45
0.0
1001
ACAD
1000
AcDbSavedByObjectVersion
1070
     0
  0
VISUALSTYLE
  5
38
102
{ACAD_REACTORS
330
2A
102
}
102
{ACAD_XDICTIONARY
360
229
102
}
330
2A
100
AcDbVisualStyle
  2
Linepattern
 70
    14
 71
     2
 72
     2
 73
     0
 90
        0
 40
-0.6
 41
-30.0
 62
     5
 63
     7
 74
     1
 91
        4
 64
     7
 65
   257
 75
     7
175
     7
 42
1.0
 92
        8
 66
     7
 43
1.0
 76
     1
 77
     6
 78
     2
 67
     7
 79
     5
170
     0
171
     0
290
     0
174
     0
 93
        1
 44
0.0
173
     0
291
     1
 45
0.0
1001
ACAD
1000
AcDbSavedByObjectVersion
1070
     0
  0
VISUALSTYLE
  5
33
102
{ACAD_REACTORS
330
2A
102
}
102
{ACAD_XDICTIONARY
360
21F
102
}
330
2A
100
AcDbVisualStyle
  2
Realistic
 70
     8
 71
     2
 72
     2
 73
     0
 90
        0
 40
-0.6
 41
-30.0
 62
     5
 63
     7
 74
     1
 91
        0
 64
     7
 65
   257
 75
     1
175
     1
 42
1.0
 92
        8
 66
     8
 43
1.0
 76
     1
 77
     6
 78
     2
 67
     7
 79
     5
170
     0
171
     0
290
     0
174
     0
 93
       13
 44
0.0
173
     0
291
     0
 45
0.0
1001
ACAD
1000
AcDbSavedByObjectVersion
1070
     0
  0
VISUALSTYLE
  5
37
102
{ACAD_REACTORS
330
2A
102
}
102
{ACAD_XDICTIONARY
360
227
102
}
330
2A
100
AcDbVisualStyle
  2
Thicken
 70
    13
 71
     2
 72
     2
 73
     0
 90
        0
 40
-0.6
 41
-30.0
 62
     5
 63
     7
 74
     1
 91
        4
 64
     7
 65
   257
 75
     1
175
     1
 42
1.0
 92
       12
 66
     7
 43
1.0
 76
     1
 77
     6
 78
     2
 67
     7
 79
     5
170
     0
171
     0
290
     0
174
     0
 93
        1
 44
0.0
173
     0
291
     1
 45
0.0
1001
ACAD
1000
AcDbSavedByObjectVersion
1070
     0
  0
DICTIONARYVAR
  5
20D
102
{ACAD_REACTORS
330
20A
102
}
330
20A
100
DictionaryVariables
280
     0
  1
2
  0
DICTIONARYVAR
  5
20E
102
{ACAD_REACTORS
330
20A
102
}
330
20A
100
DictionaryVariables
280
     0
  1
1
  0
DICTIONARY
  5
231
330
3D
100
AcDbDictionary
280
     1
281
     1
  3
ACAD_XREC_ROUNDTRIP
360
232
  0
DICTIONARY
  5
22F
330
3C
100
AcDbDictionary
280
     1
281
     1
  3
ACAD_XREC_ROUNDTRIP
360
230
  0
DICTIONARY
  5
233
330
3E
100
AcDbDictionary
280
     1
281
     1
  3
ACAD_XREC_ROUNDTRIP
360
234
  0
DICTIONARY
  5
217
330
2F
100
AcDbDictionary
280
     1
281
     1
  3
ACAD_XREC_ROUNDTRIP
360
218
  0
DICTIONARY
  5
21B
330
31
100
AcDbDictionary
280
     1
281
     1
  3
ACAD_XREC_ROUNDTRIP
360
21C
  0
DICTIONARY
  5
219
330
30
100
AcDbDictionary
280
     1
281
     1
  3
ACAD_XREC_ROUNDTRIP
360
21A
  0
DICTIONARY
  5
21D
330
32
100
AcDbDictionary
280
     1
281
     1
  3
ACAD_XREC_ROUNDTRIP
360
21E
  0
DICTIONARY
  5
225
330
36
100
AcDbDictionary
280
     1
281
     1
  3
ACAD_XREC_ROUNDTRIP
360
226
  0
DICTIONARY
  5
22D
330
3A
100
AcDbDictionary
280
     1
281
     1
  3
ACAD_XREC_ROUNDTRIP
360
22E
  0
DICTIONARY
  5
221
330
34
100
AcDbDictionary
280
     1
281
     1
  3
ACAD_XREC_ROUNDTRIP
360
222
  0
DICTIONARY
  5
223
330
35
100
AcDbDictionary
280
     1
281
     1
  3
ACAD_XREC_ROUNDTRIP
360
224
  0
DICTIONARY
  5
22B
330
39
100
AcDbDictionary
280
     1
281
     1
  3
ACAD_XREC_ROUNDTRIP
360
22C
  0
DICTIONARY
  5
20F
330
2B
100
AcDbDictionary
280
     1
281
     1
  3
ACAD_XREC_ROUNDTRIP
360
210
  0
DICTIONARY
  5
211
330
2C
100
AcDbDictionary
280
     1
281
     1
  3
ACAD_XREC_ROUNDTRIP
360
212
  0
DICTIONARY
  5
213
330
2D
100
AcDbDictionary
280
     1
281
     1
  3
ACAD_XREC_ROUNDTRIP
360
214
  0
DICTIONARY
  5
215
330
2E
100
AcDbDictionary
280
     1
281
     1
  3
ACAD_XREC_ROUNDTRIP
360
216
  0
DICTIONARY
  5
229
330
38
100
AcDbDictionary
280
     1
281
     1
  3
ACAD_XREC_ROUNDTRIP
360
22A
  0
DICTIONARY
  5
21F
330
33
100
AcDbDictionary
280
     1
281
     1
  3
ACAD_XREC_ROUNDTRIP
360
220
  0
DICTIONARY
  5
227
330
37
100
AcDbDictionary
280
     1
281
     1
  3
ACAD_XREC_ROUNDTRIP
360
228
  0
XRECORD
  5
232
102
{ACAD_REACTORS
330
231
102
}
330
231
100
AcDbXrecord
280
     1
102
MATERIAL
148
0.0
149
0.0
149
0.0
 93
        0
 94
      127
282
     0
 72
     1
 77
     1
171
     1
175
     1
179
     1
273
     0
  0
XRECORD
  5
230
102
{ACAD_REACTORS
330
22F
102
}
330
22F
100
AcDbXrecord
280
     1
102
MATERIAL
148
0.0
149
0.0
149
0.0
 93
        0
 94
      127
282
     0
 72
     1
 77
     1
171
     1
175
     1
179
     1
273
     0
  0
XRECORD
  5
234
102
{ACAD_REACTORS
330
233
102
}
330
233
100
AcDbXrecord
280
     1
102
MATERIAL
148
0.0
149
0.0
149
0.0
 93
        0
 94
      127
282
     0
 72
     1
 77
     1
171
     1
175
     1
179
     1
273
     0
  0
XRECORD
  5
218
102
{ACAD_REACTORS
330
217
102
}
330
217
100
AcDbXrecord
280
     1
102
RTVSPropertyOp0
 70
     1
102
RTVSPropertyOp1
 70
     1
102
RTVSPropertyOp2
 70
     1
102
RTVSPropertyOp3
 70
     1
102
RTVSPropertyOp4
 70
     1
102
RTVSPropertyOp5
 70
     1
102
RTVSPropertyOp6
 70
     1
102
RTVSPropertyOp7
 70
     1
102
RTVSPropertyOp8
 70
     1
102
RTVSPropertyOp9
 70
     1
102
RTVSPropertyOp10
 70
     1
102
RTVSPropertyOp11
 70
     1
102
RTVSPropertyOp12
 70
     1
102
RTVSPropertyOp13
 70
     1
102
RTVSPropertyOp14
 70
     1
102
RTVSPropertyOp15
 70
     1
102
RTVSPropertyOp16
 70
     1
102
RTVSPropertyOp17
 70
     1
102
RTVSPropertyOp18
 70
     1
102
RTVSPropertyOp19
 70
     1
102
RTVSPropertyOp20
 70
     1
102
RTVSPropertyOp21
 70
     1
102
RTVSPropertyOp22
 70
     1
102
RTVSPropertyOp23
 70
     1
102
RTVSPropertyOp24
 70
     1
102
RTVSPropertyOp25
 70
     1
102
RTVSPropertyOp26
 70
     1
102
RTVSPropertyOp27
 70
     1
  0
XRECORD
  5
21C
102
{ACAD_REACTORS
330
21B
102
}
330
21B
100
AcDbXrecord
280
     1
102
RTVSPropertyOp0
 70
     1
102
RTVSPropertyOp1
 70
     1
102
RTVSPropertyOp2
 70
     1
102
RTVSPropertyOp3
 70
     1
102
RTVSPropertyOp4
 70
     1
102
RTVSPropertyOp5
 70
     1
102
RTVSPropertyOp6
 70
     1
102
RTVSPropertyOp7
 70
     1
102
RTVSPropertyOp8
 70
     1
102
RTVSPropertyOp9
 70
     1
102
RTVSPropertyOp10
 70
     1
102
RTVSPropertyOp11
 70
     1
102
RTVSPropertyOp12
 70
     1
102
RTVSPropertyOp13
 70
     1
102
RTVSPropertyOp14
 70
     1
102
RTVSPropertyOp15
 70
     1
102
RTVSPropertyOp16
 70
     1
102
RTVSPropertyOp17
 70
     1
102
RTVSPropertyOp18
 70
     1
102
RTVSPropertyOp19
 70
     1
102
RTVSPropertyOp20
 70
     1
102
RTVSPropertyOp21
 70
     1
102
RTVSPropertyOp22
 70
     1
102
RTVSPropertyOp23
 70
     1
102
RTVSPropertyOp24
 70
     1
102
RTVSPropertyOp25
 70
     1
102
RTVSPropertyOp26
 70
     1
102
RTVSPropertyOp27
 70
     1
  0
XRECORD
  5
21A
102
{ACAD_REACTORS
330
219
102
}
330
219
100
AcDbXrecord
280
     1
102
RTVSPropertyOp0
 70
     1
102
RTVSPropertyOp1
 70
     1
102
RTVSPropertyOp2
 70
     1
102
RTVSPropertyOp3
 70
     1
102
RTVSPropertyOp4
 70
     1
102
RTVSPropertyOp5
 70
     1
102
RTVSPropertyOp6
 70
     1
102
RTVSPropertyOp7
 70
     1
102
RTVSPropertyOp8
 70
     1
102
RTVSPropertyOp9
 70
     1
102
RTVSPropertyOp10
 70
     1
102
RTVSPropertyOp11
 70
     1
102
RTVSPropertyOp12
 70
     1
102
RTVSPropertyOp13
 70
     1
102
RTVSPropertyOp14
 70
     1
102
RTVSPropertyOp15
 70
     1
102
RTVSPropertyOp16
 70
     1
102
RTVSPropertyOp17
 70
     1
102
RTVSPropertyOp18
 70
     1
102
RTVSPropertyOp19
 70
     1
102
RTVSPropertyOp20
 70
     1
102
RTVSPropertyOp21
 70
     1
102
RTVSPropertyOp22
 70
     1
102
RTVSPropertyOp23
 70
     1
102
RTVSPropertyOp24
 70
     1
102
RTVSPropertyOp25
 70
     1
102
RTVSPropertyOp26
 70
     1
102
RTVSPropertyOp27
 70
     1
  0
XRECORD
  5
21E
102
{ACAD_REACTORS
330
21D
102
}
330
21D
100
AcDbXrecord
280
     1
102
RTVSPropertyOp0
 70
     1
102
RTVSPropertyOp1
 70
     1
102
RTVSPropertyOp2
 70
     1
102
RTVSPropertyOp3
 70
     1
102
RTVSPropertyOp4
 70
     1
102
RTVSPropertyOp5
 70
     1
102
RTVSPropertyOp6
 70
     1
102
RTVSPropertyOp7
 70
     1
102
RTVSPropertyOp8
 70
     1
102
RTVSPropertyOp9
 70
     1
102
RTVSPropertyOp10
 70
     1
102
RTVSPropertyOp11
 70
     1
102
RTVSPropertyOp12
 70
     1
102
RTVSPropertyOp13
 70
     1
102
RTVSPropertyOp14
 70
     1
102
RTVSPropertyOp15
 70
     1
102
RTVSPropertyOp16
 70
     1
102
RTVSPropertyOp17
 70
     1
102
RTVSPropertyOp18
 70
     1
102
RTVSPropertyOp19
 70
     1
102
RTVSPropertyOp20
 70
     1
102
RTVSPropertyOp21
 70
     1
102
RTVSPropertyOp22
 70
     1
102
RTVSPropertyOp23
 70
     1
102
RTVSPropertyOp24
 70
     1
102
RTVSPropertyOp25
 70
     1
102
RTVSPropertyOp26
 70
     1
102
RTVSPropertyOp27
 70
     1
  0
XRECORD
  5
226
102
{ACAD_REACTORS
330
225
102
}
330
225
100
AcDbXrecord
280
     1
102
RTVSPropertyOp0
 70
     1
102
RTVSPropertyOp1
 70
     1
102
RTVSPropertyOp2
 70
     1
102
RTVSPropertyOp3
 70
     1
102
RTVSPropertyOp4
 70
     1
102
RTVSPropertyOp5
 70
     1
102
RTVSPropertyOp6
 70
     1
102
RTVSPropertyOp7
 70
     1
102
RTVSPropertyOp8
 70
     1
102
RTVSPropertyOp9
 70
     1
102
RTVSPropertyOp10
 70
     1
102
RTVSPropertyOp11
 70
     1
102
RTVSPropertyOp12
 70
     1
102
RTVSPropertyOp13
 70
     1
102
RTVSPropertyOp14
 70
     1
102
RTVSPropertyOp15
 70
     1
102
RTVSPropertyOp16
 70
     1
102
RTVSPropertyOp17
 70
     1
102
RTVSPropertyOp18
 70
     1
102
RTVSPropertyOp19
 70
     1
102
RTVSPropertyOp20
 70
     1
102
RTVSPropertyOp21
 70
     1
102
RTVSPropertyOp22
 70
     1
102
RTVSPropertyOp23
 70
     1
102
RTVSPropertyOp24
 70
     1
102
RTVSPropertyOp25
 70
     1
102
RTVSPropertyOp26
 70
     1
102
RTVSPropertyOp27
 70
     1
  0
XRECORD
  5
22E
102
{ACAD_REACTORS
330
22D
102
}
330
22D
100
AcDbXrecord
280
     1
102
RTVSPropertyOp0
 70
     1
102
RTVSPropertyOp1
 70
     1
102
RTVSPropertyOp2
 70
     1
102
RTVSPropertyOp3
 70
     1
102
RTVSPropertyOp4
 70
     1
102
RTVSPropertyOp5
 70
     1
102
RTVSPropertyOp6
 70
     1
102
RTVSPropertyOp7
 70
     1
102
RTVSPropertyOp8
 70
     1
102
RTVSPropertyOp9
 70
     1
102
RTVSPropertyOp10
 70
     1
102
RTVSPropertyOp11
 70
     1
102
RTVSPropertyOp12
 70
     1
102
RTVSPropertyOp13
 70
     1
102
RTVSPropertyOp14
 70
     1
102
RTVSPropertyOp15
 70
     1
102
RTVSPropertyOp16
 70
     1
102
RTVSPropertyOp17
 70
     1
102
RTVSPropertyOp18
 70
     1
102
RTVSPropertyOp19
 70
     1
102
RTVSPropertyOp20
 70
     1
102
RTVSPropertyOp21
 70
     1
102
RTVSPropertyOp22
 70
     1
102
RTVSPropertyOp23
 70
     1
102
RTVSPropertyOp24
 70
     1
102
RTVSPropertyOp25
 70
     1
102
RTVSPropertyOp26
 70
     1
102
RTVSPropertyOp27
 70
     1
  0
XRECORD
  5
222
102
{ACAD_REACTORS
330
221
102
}
330
221
100
AcDbXrecord
280
     1
102
RTVSPropertyOp0
 70
     1
102
RTVSPropertyOp1
 70
     1
102
RTVSPropertyOp2
 70
     1
102
RTVSPropertyOp3
 70
     1
102
RTVSPropertyOp4
 70
     1
102
RTVSPropertyOp5
 70
     1
102
RTVSPropertyOp6
 70
     1
102
RTVSPropertyOp7
 70
     1
102
RTVSPropertyOp8
 70
     1
102
RTVSPropertyOp9
 70
     1
102
RTVSPropertyOp10
 70
     1
102
RTVSPropertyOp11
 70
     1
102
RTVSPropertyOp12
 70
     1
102
RTVSPropertyOp13
 70
     1
102
RTVSPropertyOp14
 70
     1
102
RTVSPropertyOp15
 70
     1
102
RTVSPropertyOp16
 70
     1
102
RTVSPropertyOp17
 70
     1
102
RTVSPropertyOp18
 70
     1
102
RTVSPropertyOp19
 70
     1
102
RTVSPropertyOp20
 70
     1
102
RTVSPropertyOp21
 70
     1
102
RTVSPropertyOp22
 70
     1
102
RTVSPropertyOp23
 70
     1
102
RTVSPropertyOp24
 70
     1
102
RTVSPropertyOp25
 70
     1
102
RTVSPropertyOp26
 70
     1
102
RTVSPropertyOp27
 70
     1
  0
XRECORD
  5
224
102
{ACAD_REACTORS
330
223
102
}
330
223
100
AcDbXrecord
280
     1
102
RTVSPropertyOp0
 70
     1
102
RTVSPropertyOp1
 70
     1
102
RTVSPropertyOp2
 70
     1
102
RTVSPropertyOp3
 70
     1
102
RTVSPropertyOp4
 70
     1
102
RTVSPropertyOp5
 70
     1
102
RTVSPropertyOp6
 70
     1
102
RTVSPropertyOp7
 70
     1
102
RTVSPropertyOp8
 70
     1
102
RTVSPropertyOp9
 70
     1
102
RTVSPropertyOp10
 70
     1
102
RTVSPropertyOp11
 70
     1
102
RTVSPropertyOp12
 70
     1
102
RTVSPropertyOp13
 70
     1
102
RTVSPropertyOp14
 70
     1
102
RTVSPropertyOp15
 70
     1
102
RTVSPropertyOp16
 70
     1
102
RTVSPropertyOp17
 70
     1
102
RTVSPropertyOp18
 70
     1
102
RTVSPropertyOp19
 70
     1
102
RTVSPropertyOp20
 70
     1
102
RTVSPropertyOp21
 70
     1
102
RTVSPropertyOp22
 70
     1
102
RTVSPropertyOp23
 70
     1
102
RTVSPropertyOp24
 70
     1
102
RTVSPropertyOp25
 70
     1
102
RTVSPropertyOp26
 70
     1
102
RTVSPropertyOp27
 70
     1
  0
XRECORD
  5
22C
102
{ACAD_REACTORS
330
22B
102
}
330
22B
100
AcDbXrecord
280
     1
102
RTVSPropertyOp0
 70
     1
102
RTVSPropertyOp1
 70
     1
102
RTVSPropertyOp2
 70
     1
102
RTVSPropertyOp3
 70
     1
102
RTVSPropertyOp4
 70
     1
102
RTVSPropertyOp5
 70
     1
102
RTVSPropertyOp6
 70
     1
102
RTVSPropertyOp7
 70
     1
102
RTVSPropertyOp8
 70
     1
102
RTVSPropertyOp9
 70
     1
102
RTVSPropertyOp10
 70
     1
102
RTVSPropertyOp11
 70
     1
102
RTVSPropertyOp12
 70
     1
102
RTVSPropertyOp13
 70
     1
102
RTVSPropertyOp14
 70
     1
102
RTVSPropertyOp15
 70
     1
102
RTVSPropertyOp16
 70
     1
102
RTVSPropertyOp17
 70
     1
102
RTVSPropertyOp18
 70
     1
102
RTVSPropertyOp19
 70
     1
102
RTVSPropertyOp20
 70
     1
102
RTVSPropertyOp21
 70
     1
102
RTVSPropertyOp22
 70
     1
102
RTVSPropertyOp23
 70
     1
102
RTVSPropertyOp24
 70
     1
102
RTVSPropertyOp25
 70
     1
102
RTVSPropertyOp26
 70
     1
102
RTVSPropertyOp27
 70
     1
  0
XRECORD
  5
210
102
{ACAD_REACTORS
330
20F
102
}
330
20F
100
AcDbXrecord
280
     1
102
RTVSPropertyOp0
 70
     1
102
RTVSPropertyOp1
 70
     1
102
RTVSPropertyOp2
 70
     1
102
RTVSPropertyOp3
 70
     1
102
RTVSPropertyOp4
 70
     1
102
RTVSPropertyOp5
 70
     1
102
RTVSPropertyOp6
 70
     1
102
RTVSPropertyOp7
 70
     1
102
RTVSPropertyOp8
 70
     1
102
RTVSPropertyOp9
 70
     1
102
RTVSPropertyOp10
 70
     1
102
RTVSPropertyOp11
 70
     1
102
RTVSPropertyOp12
 70
     1
102
RTVSPropertyOp13
 70
     1
102
RTVSPropertyOp14
 70
     1
102
RTVSPropertyOp15
 70
     1
102
RTVSPropertyOp16
 70
     1
102
RTVSPropertyOp17
 70
     1
102
RTVSPropertyOp18
 70
     1
102
RTVSPropertyOp19
 70
     1
102
RTVSPropertyOp20
 70
     1
102
RTVSPropertyOp21
 70
     1
102
RTVSPropertyOp22
 70
     1
102
RTVSPropertyOp23
 70
     1
102
RTVSPropertyOp24
 70
     1
102
RTVSPropertyOp25
 70
     1
102
RTVSPropertyOp26
 70
     1
102
RTVSPropertyOp27
 70
     1
  0
XRECORD
  5
212
102
{ACAD_REACTORS
330
211
102
}
330
211
100
AcDbXrecord
280
     1
102
RTVSPropertyOp0
 70
     1
102
RTVSPropertyOp1
 70
     1
102
RTVSPropertyOp2
 70
     1
102
RTVSPropertyOp3
 70
     1
102
RTVSPropertyOp4
 70
     1
102
RTVSPropertyOp5
 70
     1
102
RTVSPropertyOp6
 70
     1
102
RTVSPropertyOp7
 70
     1
102
RTVSPropertyOp8
 70
     1
102
RTVSPropertyOp9
 70
     1
102
RTVSPropertyOp10
 70
     1
102
RTVSPropertyOp11
 70
     1
102
RTVSPropertyOp12
 70
     1
102
RTVSPropertyOp13
 70
     1
102
RTVSPropertyOp14
 70
     1
102
RTVSPropertyOp15
 70
     1
102
RTVSPropertyOp16
 70
     1
102
RTVSPropertyOp17
 70
     1
102
RTVSPropertyOp18
 70
     1
102
RTVSPropertyOp19
 70
     1
102
RTVSPropertyOp20
 70
     1
102
RTVSPropertyOp21
 70
     1
102
RTVSPropertyOp22
 70
     1
102
RTVSPropertyOp23
 70
     1
102
RTVSPropertyOp24
 70
     1
102
RTVSPropertyOp25
 70
     1
102
RTVSPropertyOp26
 70
     1
102
RTVSPropertyOp27
 70
     1
  0
XRECORD
  5
214
102
{ACAD_REACTORS
330
213
102
}
330
213
100
AcDbXrecord
280
     1
102
RTVSPropertyOp0
 70
     1
102
RTVSPropertyOp1
 70
     1
102
RTVSPropertyOp2
 70
     1
102
RTVSPropertyOp3
 70
     1
102
RTVSPropertyOp4
 70
     1
102
RTVSPropertyOp5
 70
     1
102
RTVSPropertyOp6
 70
     1
102
RTVSPropertyOp7
 70
     1
102
RTVSPropertyOp8
 70
     1
102
RTVSPropertyOp9
 70
     1
102
RTVSPropertyOp10
 70
     1
102
RTVSPropertyOp11
 70
     1
102
RTVSPropertyOp12
 70
     1
102
RTVSPropertyOp13
 70
     1
102
RTVSPropertyOp14
 70
     1
102
RTVSPropertyOp15
 70
     1
102
RTVSPropertyOp16
 70
     1
102
RTVSPropertyOp17
 70
     1
102
RTVSPropertyOp18
 70
     1
102
RTVSPropertyOp19
 70
     1
102
RTVSPropertyOp20
 70
     1
102
RTVSPropertyOp21
 70
     1
102
RTVSPropertyOp22
 70
     1
102
RTVSPropertyOp23
 70
     1
102
RTVSPropertyOp24
 70
     1
102
RTVSPropertyOp25
 70
     1
102
RTVSPropertyOp26
 70
     1
102
RTVSPropertyOp27
 70
     1
  0
XRECORD
  5
216
102
{ACAD_REACTORS
330
215
102
}
330
215
100
AcDbXrecord
280
     1
102
RTVSPropertyOp0
 70
     1
102
RTVSPropertyOp1
 70
     1
102
RTVSPropertyOp2
 70
     1
102
RTVSPropertyOp3
 70
     1
102
RTVSPropertyOp4
 70
     1
102
RTVSPropertyOp5
 70
     1
102
RTVSPropertyOp6
 70
     1
102
RTVSPropertyOp7
 70
     1
102
RTVSPropertyOp8
 70
     1
102
RTVSPropertyOp9
 70
     1
102
RTVSPropertyOp10
 70
     1
102
RTVSPropertyOp11
 70
     1
102
RTVSPropertyOp12
 70
     1
102
RTVSPropertyOp13
 70
     1
102
RTVSPropertyOp14
 70
     1
102
RTVSPropertyOp15
 70
     1
102
RTVSPropertyOp16
 70
     1
102
RTVSPropertyOp17
 70
     1
102
RTVSPropertyOp18
 70
     1
102
RTVSPropertyOp19
 70
     1
102
RTVSPropertyOp20
 70
     1
102
RTVSPropertyOp21
 70
     1
102
RTVSPropertyOp22
 70
     1
102
RTVSPropertyOp23
 70
     1
102
RTVSPropertyOp24
 70
     1
102
RTVSPropertyOp25
 70
     1
102
RTVSPropertyOp26
 70
     1
102
RTVSPropertyOp27
 70
     1
  0
XRECORD
  5
22A
102
{ACAD_REACTORS
330
229
102
}
330
229
100
AcDbXrecord
280
     1
102
RTVSPropertyOp0
 70
     1
102
RTVSPropertyOp1
 70
     1
102
RTVSPropertyOp2
 70
     1
102
RTVSPropertyOp3
 70
     1
102
RTVSPropertyOp4
 70
     1
102
RTVSPropertyOp5
 70
     1
102
RTVSPropertyOp6
 70
     1
102
RTVSPropertyOp7
 70
     1
102
RTVSPropertyOp8
 70
     1
102
RTVSPropertyOp9
 70
     1
102
RTVSPropertyOp10
 70
     1
102
RTVSPropertyOp11
 70
     1
102
RTVSPropertyOp12
 70
     1
102
RTVSPropertyOp13
 70
     1
102
RTVSPropertyOp14
 70
     1
102
RTVSPropertyOp15
 70
     1
102
RTVSPropertyOp16
 70
     1
102
RTVSPropertyOp17
 70
     1
102
RTVSPropertyOp18
 70
     1
102
RTVSPropertyOp19
 70
     1
102
RTVSPropertyOp20
 70
     1
102
RTVSPropertyOp21
 70
     1
102
RTVSPropertyOp22
 70
     1
102
RTVSPropertyOp23
 70
     1
102
RTVSPropertyOp24
 70
     1
102
RTVSPropertyOp25
 70
     1
102
RTVSPropertyOp26
 70
     1
102
RTVSPropertyOp27
 70
     1
  0
XRECORD
  5
220
102
{ACAD_REACTORS
330
21F
102
}
330
21F
100
AcDbXrecord
280
     1
102
RTVSPropertyOp0
 70
     1
102
RTVSPropertyOp1
 70
     1
102
RTVSPropertyOp2
 70
     1
102
RTVSPropertyOp3
 70
     1
102
RTVSPropertyOp4
 70
     1
102
RTVSPropertyOp5
 70
     1
102
RTVSPropertyOp6
 70
     1
102
RTVSPropertyOp7
 70
     1
102
RTVSPropertyOp8
 70
     1
102
RTVSPropertyOp9
 70
     1
102
RTVSPropertyOp10
 70
     1
102
RTVSPropertyOp11
 70
     1
102
RTVSPropertyOp12
 70
     1
102
RTVSPropertyOp13
 70
     1
102
RTVSPropertyOp14
 70
     1
102
RTVSPropertyOp15
 70
     1
102
RTVSPropertyOp16
 70
     1
102
RTVSPropertyOp17
 70
     1
102
RTVSPropertyOp18
 70
     1
102
RTVSPropertyOp19
 70
     1
102
RTVSPropertyOp20
 70
     1
102
RTVSPropertyOp21
 70
     1
102
RTVSPropertyOp22
 70
     1
102
RTVSPropertyOp23
 70
     1
102
RTVSPropertyOp24
 70
     1
102
RTVSPropertyOp25
 70
     1
102
RTVSPropertyOp26
 70
     1
102
RTVSPropertyOp27
 70
     1
  0
XRECORD
  5
228
102
{ACAD_REACTORS
330
227
102
}
330
227
100
AcDbXrecord
280
     1
102
RTVSPropertyOp0
 70
     1
102
RTVSPropertyOp1
 70
     1
102
RTVSPropertyOp2
 70
     1
102
RTVSPropertyOp3
 70
     1
102
RTVSPropertyOp4
 70
     1
102
RTVSPropertyOp5
 70
     1
102
RTVSPropertyOp6
 70
     1
102
RTVSPropertyOp7
 70
     1
102
RTVSPropertyOp8
 70
     1
102
RTVSPropertyOp9
 70
     1
102
RTVSPropertyOp10
 70
     1
102
RTVSPropertyOp11
 70
     1
102
RTVSPropertyOp12
 70
     1
102
RTVSPropertyOp13
 70
     1
102
RTVSPropertyOp14
 70
     1
102
RTVSPropertyOp15
 70
     1
102
RTVSPropertyOp16
 70
     1
102
RTVSPropertyOp17
 70
     1
102
RTVSPropertyOp18
 70
     1
102
RTVSPropertyOp19
 70
     1
102
RTVSPropertyOp20
 70
     1
102
RTVSPropertyOp21
 70
     1
102
RTVSPropertyOp22
 70
     1
102
RTVSPropertyOp23
 70
     1
102
RTVSPropertyOp24
 70
     1
102
RTVSPropertyOp25
 70
     1
102
RTVSPropertyOp26
 70
     1
102
RTVSPropertyOp27
 70
     1
  0
ENDSEC
  0
EOF
