  0
SECTION
  2
HEADER
  9
$ACADVER
  1
AC1009
  9
$INSBASE
 10
0
 20
0
 30
0
  9
$EXTMIN
 10
0
 20
0
  9
$EXTMAX
 10
2100
 20
1485
  9
$LIMMIN
 10
0
 20
0
  9
$LIMMAX
 10
2100
 20
1485
  9
$LTSCALE
 40
5
  0
ENDSEC
  0
SECTION
  2
TABLES
  0
TABLE
  2
LTYPE
 70
     9
  0
LTYPE
  2
CONTINUOUS
 70
    64
  3
実線
 72
    65
 73
     0
 40
0.0
  0
LTYPE
  2
DASHED1
 70
    64
  3
--  --  --  --  --  --  --  --  
 72
    65
 73
     2
 40
2.5
 49
1.25
 49
-1.25
  0
LTYPE
  2
DASHED2
 70
    64
  3
----    ----    ----    ----    
 72
    65
 73
     2
 40
5.0
 49
2.5
 49
-2.5
  0
LTYPE
  2
DASHED3
 70
    64
  3
------  ------  ------  ------  
 72
    65
 73
     2
 40
5.0
 49
3.75
 49
-1.25
  0
LTYPE
  2
CENTER1
 70
    64
  3
----- - ----- - ----- - ----- - 
 72
    65
 73
     4
 40
10.0
 49
6.25
 49
-1.25
 49
1.25
 49
-1.25
  0
LTYPE
  2
CENTER2
 70
    64
  3
----------  --  ----------  --  
 72
    65
 73
     4
 40
20.0
 49
12.5
 49
-2.5
 49
2.5
 49
-2.5
  0
LTYPE
  2
PHANTOM1
 70
    64
  3
--- - - --- - - --- - - --- - - 
 72
    65
 73
     6
 40
10.0
 49
3.25
 49
-1.25
 49
1.25
 49
-1.25
 49
1.25
 49
-1.25
  0
LTYPE
  2
PHANTOM2
 70
    64
  3
--------  -  -  --------  -  -  
 72
    65
 73
     6
 40
20.0
 49
10.0
 49
-2.5
 49
1.25
 49
-2.5
 49
1.25
 49
-2.5
  0
LTYPE
  2
DOT
 70
    64
  3
-   -   -   -   -   -   -   -   
 72
    65
 73
     2
 40
2.5
 49
0.625
 49
-1.875
  0
LTYPE
  2
DUMMY
 70
    64
  3
ダミー
 72
    65
 73
     0
 40
0.0
  0
LTYPE
  2
RAND1
 70
    64
  3
ランダム線1
 72
    65
 73
     4
 40
10.0
 49
1.0
 49
-2.0
 49
3.0
 49
-4.0
  0
LTYPE
  2
RAND2
 70
    64
  3
ランダム線2
 72
    65
 73
     4
 40
14.0
 49
2.0
 49
-3.0
 49
4.0
 49
-5.0
  0
LTYPE
  2
RAND3
 70
    64
  3
ランダム線3
 72
    65
 73
     4
 40
18.0
 49
3.0
 49
-4.0
 49
5.0
 49
-6.0
  0
LTYPE
  2
RAND4
 70
    64
  3
ランダム線4
 72
    65
 73
     4
 40
22.0
 49
4.0
 49
-5.0
 49
6.0
 49
-7.0
  0
LTYPE
  2
RAND5
 70
    64
  3
ランダム線5
 72
    65
 73
     4
 40
26.0
 49
5.0
 49
-6.0
 49
7.0
 49
-8.0
  0
LTYPE
  2
LONG1
 70
    64
  3
----------  --  ----------  --  
 72
    65
 73
     4
 40
40.0
 49
32.5
 49
-2.5
 49
2.5
 49
-2.5
  0
LTYPE
  2
LONG2
 70
    64
  3
--------  -  -  --------  -  -  
 72
    65
 73
     6
 40
40.0
 49
30.0
 49
-2.5
 49
1.25
 49
-2.5
 49
1.25
 49
-2.5
  0
LTYPE
  2
LONG3
 70
    64
  3
+++++++++++++++..+++++++++++++++
 72
    65
 73
     2
 40
40.0
 49
37.5
 49
-2.5
  0
LTYPE
  2
LONG4
 70
    64
  3
+++++++++++++++..+++++++++++++++
 72
    65
 73
     2
 40
80.0
 49
75.0
 49
-5.0
  0
LTYPE
  2
LONG5
 70
    64
  3
----------  --  ----------  --  
 72
    65
 73
     4
 40
60.0
 49
37.5
 49
-7.5
 49
7.5
 49
-7.5
  0
LTYPE
  2
dashed
 70
   64
  3
-------   -------------   ------
 72
   65
 73
    2
 40
7.5
 49
6
 49
-1.5
  0
LTYPE
  2
dashed_spaced
 70
   64
  3
----        --------        ----
 72
   65
 73
    2
 40
12
 49
6
 49
-6
  0
LTYPE
  2
long_dashed_dotted
 70
   64
  3
------------- --- --------------
 72
   65
 73
    4
 40
15.25
 49
12
 49
-1.5
 49
0.25
 49
-1.5
  0
LTYPE
  2
long_dashed_double-dotted
 70
   64
  3
----------- --- --- ------------
 72
   65
 73
    6
 40
17
 49
12
 49
-1.5
 49
0.25
 49
-1.5
 49
0.25
 49
-1.5
  0
LTYPE
  2
long_dashed_triplicate-dotted
 70
   64
  3
--------- --- --- --- ----------
 72
   65
 73
    8
 40
18.75
 49
12
 49
-1.5
 49
0.25
 49
-1.5
 49
0.25
 49
-1.5
 49
0.25
 49
-1.5
  0
LTYPE
  2
dotted
 70
   64
  3
   -       -       -       -    
 72
   65
 73
    2
 40
1.75
 49
0.25
 49
-1.5
  0
LTYPE
  2
chain
 70
   64
  3
-------------- -- --------------
 72
   65
 73
    4
 40
18.5
 49
12
 49
-1.5
 49
3.5
 49
-1.5
  0
LTYPE
  2
chain_double_dash
 70
   64
  3
------------ -- -- -------------
 72
   65
 73
    6
 40
23.5
 49
12
 49
-1.5
 49
3.5
 49
-1.5
 49
3.5
 49
-1.5
  0
LTYPE
  2
dashed_dotted
 70
   64
  3
-----------     -     ----------
 72
   65
 73
    4
 40
9.25
 49
6
 49
-1.5
 49
0.25
 49
-1.5
  0
LTYPE
  2
double-dashed_dotted
 70
   64
  3
------   -----------   -   -----
 72
   65
 73
    6
 40
16.75
 49
6
 49
-1.5
 49
6
 49
-1.5
 49
0.25
 49
-1.5
  0
LTYPE
  2
dashed_double-dotted
 70
   64
  3
---------    -    -    ---------
 72
   65
 73
    6
 40
11
 49
6
 49
-1.5
 49
0.25
 49
-1.5
 49
0.25
 49
-1.5
  0
LTYPE
  2
double-dashed_double-dotted
 70
   64
  3
-----   ---------   -   -   ----
 72
   65
 73
    8
 40
18.5
 49
6
 49
-1.5
 49
6
 49
-1.5
 49
0.25
 49
-1.5
 49
0.25
 49
-1.5
  0
LTYPE
  2
dashed_triplicate-dotted
 70
   64
  3
-------    -    -    -    ------
 72
   65
 73
    8
 40
12.75
 49
6
 49
-1.5
 49
0.25
 49
-1.5
 49
0.25
 49
-1.5
 49
0.25
 49
-1.5
  0
LTYPE
  2
double-dashed_triplicate-dotted
 70
   64
  3
-----  ---------  -  -  -  -----
 72
   65
 73
   10
 40
20.25
 49
6
 49
-1.5
 49
6
 49
-1.5
 49
0.25
 49
-1.5
 49
0.25
 49
-1.5
 49
0.25
 49
-1.5
  0
LTYPE
  2
undefined
 70
   64
  3
--------------------------------
 72
   65
 73
    0
 40
0
  0
LTYPE
  2
_
 70
   64
  3
                                
 72
   65
 73
    0
 40
0
  0
LTYPE
  2
__18
 70
   64
  3
                                
 72
   65
 73
    0
 40
0
  0
LTYPE
  2
__19
 70
   64
  3
                                
 72
   65
 73
    0
 40
0
  0
LTYPE
  2
__20
 70
   64
  3
                                
 72
   65
 73
    0
 40
0
  0
LTYPE
  2
__21
 70
   64
  3
                                
 72
   65
 73
    0
 40
0
  0
LTYPE
  2
__22
 70
   64
  3
                                
 72
   65
 73
    0
 40
0
  0
LTYPE
  2
__23
 70
   64
  3
                                
 72
   65
 73
    0
 40
0
  0
LTYPE
  2
__24
 70
   64
  3
                                
 72
   65
 73
    0
 40
0
  0
LTYPE
  2
__25
 70
   64
  3
                                
 72
   65
 73
    0
 40
0
  0
LTYPE
  2
__26
 70
   64
  3
                                
 72
   65
 73
    0
 40
0
  0
LTYPE
  2
__27
 70
   64
  3
                                
 72
   65
 73
    0
 40
0
  0
LTYPE
  2
__28
 70
   64
  3
                                
 72
   65
 73
    0
 40
0
  0
LTYPE
  2
__29
 70
   64
  3
                                
 72
   65
 73
    0
 40
0
  0
LTYPE
  2
__30
 70
   64
  3
                                
 72
   65
 73
    0
 40
0
  0
LTYPE
  2
__31
 70
   64
  3
                                
 72
   65
 73
    0
 40
0
  0
LTYPE
  2
__32
 70
   64
  3
                                
 72
   65
 73
    0
 40
0
  0
ENDTAB
  0
TABLE
  2
STYLE
  5
3
100
AcDbSymbolTable
 70
     1
  0
STYLE
  5
10
100
AcDbSymbolTableRecord
100
AcDbTextStyleTableRecord
  2
STANDARD
 70
     0
 40
0.0
 41
1.0
 50
0.0
 71
     0
 42
0.2
  3
txt
  4
bigfont.shx
  0
STYLE
  5
26
100
AcDbSymbolTableRecord
100
AcDbTextStyleTableRecord
  2
TATEGAKI
 70
    68
 40
0.0
 41
1.0
 50
0.0
 71
     0
 42
1.0
  3
txt
  4
bigfont.shx
  0
ENDTAB
  0
TABLE
  2
LAYER
 70
   16
  0
LAYER
  2
_0-0_containe
 70
   64
 62
    7
  6
CONTINUOUS
  0
LAYER
  2
_0-2_free
 70
   64
 62
    7
  6
CONTINUOUS
  0
LAYER
  2
_0-3_free
 70
   64
 62
    7
  6
CONTINUOUS
  0
LAYER
  2
_0-4_free
 70
   64
 62
    7
  6
CONTINUOUS
  0
LAYER
  2
_0-7_word
 70
   64
 62
    7
  6
CONTINUOUS
  0
LAYER
  2
_0-9_measure
 70
   64
 62
    7
  6
CONTINUOUS
  0
LAYER
  2
_0-a_hatch
 70
   64
 62
    7
  6
CONTINUOUS
  0
LAYER
  2
_0-b_free
 70
   64
 62
    7
  6
CONTINUOUS
  0
LAYER
  2
_0-e_free
 70
   64
 62
    7
  6
CONTINUOUS
  0
LAYER
  2
_0-f_add_line
 70
   64
 62
    7
  6
CONTINUOUS
  0
LAYER
  2
_1-0_containe
 70
   64
 62
    7
  6
CONTINUOUS
  0
LAYER
  2
_7-0_free
 70
   64
 62
    7
  6
CONTINUOUS
  0
LAYER
  2
_8-0_free
 70
   64
 62
    7
  6
CONTINUOUS
  0
LAYER
  2
_f-0_line
 70
   64
 62
    7
  6
CONTINUOUS
  0
LAYER
  2
_f-7_word
 70
   64
 62
    7
  6
CONTINUOUS
  0
LAYER
  2
ADD_LINE
 70
   64
 62
    7
  6
CONTINUOUS
  0
ENDTAB
  0
ENDSEC
  0
SECTION
  2
BLOCKS
  0
ENDSEC
  0
SECTION
  2
ENTITIES
  0
LINE
  8
_7-0_free
  6
CONTINUOUS
 62
    7
 10
1555.4994017594288
 20
36.492117051459871
 11
1555.4994017594288
 21
256.49217208104562
  0
POINT
  8
_0-a_hatch
 62
    7
 10
-601.3385086354142
 20
131.79295086952706
  0
LINE
  8
_f-0_line
  6
CONTINUOUS
 62
    5
 10
55.499424735983496
 20
36.492117051459871
 11
55.499424735983496
 21
1451.4918900843372
  0
LINE
  8
_f-0_line
  6
CONTINUOUS
 62
    5
 10
55.499424735983496
 20
1451.4918900843372
 11
2055.4993192794877
 21
1451.4918900843372
  0
LINE
  8
_f-0_line
  6
CONTINUOUS
 62
    5
 10
2055.4993192794877
 20
1451.4918900843372
 11
2055.4993192794877
 21
36.492117051459871
  0
LINE
  8
_f-0_line
  6
CONTINUOUS
 62
    5
 10
2055.4993192794877
 20
36.492117051459871
 11
55.499424735983496
 21
36.492117051459871
  0
LINE
  8
_7-0_free
  6
CONTINUOUS
 62
    5
 10
2055.4993192794877
 20
36.492117051459871
 11
55.499162052100246
 21
36.492117051459871
  0
LINE
  8
_7-0_free
  6
CONTINUOUS
 62
    5
 10
2055.4993192794877
 20
1451.4917998903127
 11
2055.4993192794877
 21
36.492117051459871
  0
LINE
  8
_7-0_free
  6
CONTINUOUS
 62
    5
 10
55.499162052100246
 20
36.492117051459871
 11
55.499162052100246
 21
1451.4917998903127
  0
LINE
  8
_7-0_free
  6
CONTINUOUS
 62
    5
 10
55.499162052100246
 20
1451.4917998903127
 11
2055.4993192794877
 21
1451.4917998903127
  0
LINE
  8
_7-0_free
  6
CONTINUOUS
 62
    7
 10
1435.937929699345
 20
86.49209836459832
 11
2055.4993192794877
 21
86.49209836459832
  0
LINE
  8
_7-0_free
  6
CONTINUOUS
 62
    7
 10
2055.4993192794877
 20
1426.4918411302829
 11
1555.4994017594288
 21
1426.4918411302829
  0
LINE
  8
ADD_LINE
  6
DOT
 62
    7
 10
1680.499442999399
 20
1426.4917638053385
 11
1940.4998059111385
 21
1426.4917638053385
  0
LINE
  8
ADD_LINE
  6
DOT
 62
    7
 10
1680.499442999399
 20
1426.4917638053385
 11
1940.4998059111385
 21
1426.4917638053385
  0
LINE
  8
_7-0_free
  6
CONTINUOUS
 62
    7
 10
1555.4994017594288
 20
1426.4918411302829
 11
2055.4993192794877
 21
1426.4918411302829
  0
LINE
  8
_7-0_free
  6
CONTINUOUS
 62
    7
 10
2055.4993192794877
 20
1426.4918411302829
 11
1555.4994017594288
 21
1426.4918411302829
  0
LINE
  8
_7-0_free
  6
CONTINUOUS
 62
    7
 10
910.4995007353574
 20
36.492117051459871
 11
910.4995007353574
 21
183.35940871045167
  0
LINE
  8
_7-0_free
  6
CONTINUOUS
 62
    7
 10
910.4995007353574
 20
183.35940871045167
 11
910.4995007353574
 21
186.49206485712241
  0
LINE
  8
_7-0_free
  6
CONTINUOUS
 62
    7
 10
1427.2345824772988
 20
136.49208547710757
 11
1425.5379092099724
 21
136.49208547710757
  0
LINE
  8
_7-0_free
  6
CONTINUOUS
 62
    7
 10
2055.4993192794877
 20
1376.4918627812674
 11
1555.4994017594288
 21
1376.4918627812674
  0
LINE
  8
_7-0_free
  6
CONTINUOUS
 62
    7
 10
2055.4993192794877
 20
1376.4918627812674
 11
1555.4994017594288
 21
1376.4918627812674
  0
LINE
  8
_7-0_free
  6
CONTINUOUS
 62
    7
 10
2055.4993192794877
 20
1401.4918524712748
 11
1555.4994017594288
 21
1401.4918524712748
  0
LINE
  8
_7-0_free
  6
CONTINUOUS
 62
    7
 10
2055.4993192794877
 20
1401.4918627812676
 11
1555.4994017594288
 21
1401.4918627812676
  0
LINE
  8
_7-0_free
  6
CONTINUOUS
 62
    7
 10
785.49933577547563
 20
36.492117051459871
 11
785.49933577547563
 21
186.49206485712241
  0
TEXT
  8
_7-0_free
 62
    3
 10
816.39985589398293
 20
153.4952376542482
 40
15
 41
1
 50
0
  1
品　　名
  0
TEXT
  8
_7-0_free
 62
    3
 10
815.94134990282646
 20
104.18952028912699
 40
15
 41
1
 50
-0.0001903428782353
  1
品　　番
  0
TEXT
  8
_7-0_free
 62
    3
 10
815.94134990282646
 20
53.53111127357451
 40
15
 41
1
 50
-0.0001903428782353
  1
重　　量
  0
TEXT
  8
_7-0_free
 62
    3
 10
1456.3811522659125
 20
153.99229786295521
 40
15
 41
1
 50
0
  1
作成年月日
  0
TEXT
  8
_7-0_free
 62
    3
 10
1464.0084559306611
 20
103.99230301795157
 40
15
 41
1
 50
0
  1
縮　　尺
  0
TEXT
  8
_7-0_free
 62
    3
 10
1564.5205628130607
 20
1432.386708279842
 40
12.5
 41
1
 50
0
  1
部 品 No.
  0
TEXT
  8
_7-0_free
 62
    3
 10
1661.38991293711
 20
1432.7756991460137
 40
12.5
 41
1
 50
0
  1
名  称
  0
TEXT
  8
_7-0_free
 62
    3
 10
1864.2878250398867
 20
1432.7756991460137
 40
12.5
 41
1
 50
0
  1
材質・仕様
  0
TEXT
  8
_7-0_free
 62
    3
 10
1583.9569196410798
 20
1407.4241593279971
 40
12.5
 41
1
 50
0
  1
①
  0
TEXT
  8
_7-0_free
 62
    3
 10
1583.9569196410798
 20
1382.4241696379897
 40
12.5
 41
1
 50
0
  1
②
  0
TEXT
  8
_7-0_free
 62
    3
 10
1583.9569196410798
 20
1357.4241809789817
 40
12.5
 41
1
 50
0
  1
③
  0
TEXT
  8
_7-0_free
 62
    3
 10
1642.9997110592069
 20
51.345668632559267
 40
20
 41
1
 50
0
  1
株式会社 トーシンコーポレーション
  0
LINE
  8
_7-0_free
  6
CONTINUOUS
 62
    7
 10
2055.4993192794877
 20
186.49206485712241
 11
785.49933577547563
 21
186.49206485712241
  0
LINE
  8
_7-0_free
  6
CONTINUOUS
 62
    7
 10
2055.4993192794877
 20
136.49208547710757
 11
785.49933577547563
 21
136.49208547710757
  0
LINE
  8
_7-0_free
  6
CONTINUOUS
 62
    7
 10
785.49933577547563
 20
86.49209836459832
 11
1435.937929699345
 21
86.49209836459832
  0
TEXT
  8
_f-7_word
 62
    3
 10
930.83219761250859
 20
156.77085315914093
 40
15
 41
1
 50
0
  1
ガーデンパン
  0
TEXT
  8
_f-7_word
 62
    3
 10
930.83219761250859
 20
101.61758610888739
 40
20
 41
1
 50
0
  1
ＮＧＰ－５７１４Ｆ
  0
TEXT
  8
_f-7_word
 62
    3
 10
1130.8952816432181
 20
101.61758610888739
 40
15
 41
1
 50
0
  1
不凍栓仕様
  0
TEXT
  8
_f-7_word
 62
    3
 10
1076.2301572742638
 20
54.278715521339223
 40
15
 41
1
 50
0
  1
２１．５　Ｋｇ
  0
TEXT
  8
_f-7_word
 62
    3
 10
1802.0928396166696
 20
103.87181804162779
 40
15
 41
1
 50
0
  1
１／５
  0
LINE
  8
_7-0_free
  6
CONTINUOUS
 62
    7
 10
1325.83268670453
 20
186.49206485712241
 11
2055.4993192794877
 21
186.49206485712241
  0
LINE
  8
_7-0_free
  6
CONTINUOUS
 62
    7
 10
1427.2345824772988
 20
86.49209836459832
 11
1427.2345824772988
 21
186.49206485712241
  0
LINE
  8
_7-0_free
  6
CONTINUOUS
 62
    7
 10
1555.4994017594288
 20
216.49216383305131
 11
2055.4993192794877
 21
216.49216383305131
  0
LINE
  8
_7-0_free
  6
CONTINUOUS
 62
    7
 10
1555.4994017594288
 20
256.49217208104562
 11
2055.4993192794877
 21
256.49217208104562
  0
LINE
  8
_7-0_free
  6
CONTINUOUS
 62
    7
 10
1805.4993605194582
 20
256.49217208104562
 11
1805.4993605194582
 21
186.49206485712241
  0
TEXT
  8
_7-0_free
 62
    3
 10
1905.4992285523351
 20
227.23859904985048
 40
15
 41
1
 50
-0.0004253173678881
  1
仕上材
  0
TEXT
  8
_7-0_free
 62
    3
 10
1664.2492697920648
 20
227.23853409695167
 40
15
 41
1
 50
-0.0004253173678881
  1
材質
  0
TEXT
  8
_f-7_word
 62
    3
 10
1593.9479035870427
 20
195.24211434508686
 40
12.5
 41
1
 50
0
  1
ＧＲＣ(ガラス繊維強化セメント)
  0
TEXT
  8
_f-7_word
 62
    3
 10
1858.9442421727401
 20
195.24211434508686
 40
12.5
 41
1
 50
0
  1
アクリルシリコン樹脂塗装
  0
TEXT
  8
_7-0_free
 62
    3
 10
1664.6251496657464
 20
1407.314622343433
 40
12.5
 41
1
 50
0
  1
下口
  0
TEXT
  8
_7-0_free
 62
    3
 10
1661.3402983337214
 20
1383.38213406725
 40
12.5
 41
1
 50
0
  1
ゴム栓
  0
LINE
  8
_7-0_free
  6
CONTINUOUS
 62
    7
 10
2055.4993192794877
 20
1351.49187309126
 11
1555.4994017594288
 21
1351.49187309126
  0
LINE
  8
_7-0_free
  6
CONTINUOUS
 62
    7
 10
1555.4994017594288
 20
1351.49187309126
 11
1555.4994017594288
 21
1451.4917998903127
  0
LINE
  8
_7-0_free
  6
CONTINUOUS
 62
    7
 10
1625.4993852634402
 20
1451.4917998903127
 11
1625.4993852634402
 21
1351.49187309126
  0
LINE
  8
_7-0_free
  6
CONTINUOUS
 62
    7
 10
1735.4993770154465
 20
1451.4917998903127
 11
1735.4993770154465
 21
1351.49187309126
  0
TEXT
  8
_7-0_free
 62
    3
 10
1644.5403427008271
 20
1357.1531198946313
 40
12.5
 41
1
 50
0
  1
アジャスター
  0
TEXT
  8
_7-0_free
 62
    3
 10
1744.0138169476068
 20
1357.1531198946313
 40
12.5
 41
1
 50
0
  1
樹脂製
  0
TEXT
  8
_7-0_free
 62
    3
 10
1744.0138169476068
 20
1406.426293777231
 40
12.5
 41
1
 50
0
  1
樹脂製
  0
TEXT
  8
_7-0_free
 62
    3
 10
1743.6627312816317
 20
1382.3693958492699
 40
12.5
 41
1
 50
0
  1
ＮＲゴム
  0
LINE
  8
_7-0_free
  6
CONTINUOUS
 62
    7
 10
785.49933577547563
 20
257.226890490242
 11
55.499162052100246
 21
257.226890490242
  0
LINE
  8
_7-0_free
  6
CONTINUOUS
 62
    7
 10
785.49933577547563
 20
186.49206485712241
 11
785.49933577547563
 21
257.226890490242
  0
LINE
  8
_7-0_free
  6
CONTINUOUS
 62
    7
 10
162.0956864781347
 20
257.226890490242
 11
162.0956864781347
 21
231.35953192082161
  0
LINE
  8
_7-0_free
  6
CONTINUOUS
 62
    7
 10
162.0956864781347
 20
231.35953192082161
 11
55.499424735983496
 21
231.35953192082161
  0
TEXT
  8
_1-0_containe
 62
    3
 10
84.827680089017292
 20
236.99119826531779
 40
15
 41
1
 50
0
  1
付属品
  0
LINE
  8
_1-0_containe
  6
CONTINUOUS
 62
    7
 10
492.84202291832389
 20
171.59961580126676
 11
502.84202291832389
 21
171.59961580126676
  0
LINE
  8
_1-0_containe
  6
CONTINUOUS
 62
    7
 10
502.84202291832389
 20
171.59961580126676
 11
502.84202291832389
 21
179.93294913460011
  0
LINE
  8
_1-0_containe
  6
CONTINUOUS
 62
    7
 10
502.84202291832389
 20
179.93294913460011
 11
492.84202291832389
 21
179.93294913460011
  0
LINE
  8
_1-0_containe
  6
CONTINUOUS
 62
    7
 10
492.84202291832389
 20
179.93294913460011
 11
492.84202291832389
 21
171.59961580126676
  0
LINE
  8
_1-0_containe
  6
CONTINUOUS
 62
    7
 10
489.50868958499052
 20
179.93294913460011
 11
506.17535625165721
 21
179.93294913460011
  0
LINE
  8
_1-0_containe
  6
CONTINUOUS
 62
    7
 10
506.17535625165721
 20
179.93294913460011
 11
506.17535625165721
 21
183.26628246793342
  0
LINE
  8
_1-0_containe
  6
CONTINUOUS
 62
    7
 10
506.17535625165721
 20
183.26628246793342
 11
489.50868958499052
 21
183.26628246793342
  0
LINE
  8
_1-0_containe
  6
CONTINUOUS
 62
    7
 10
489.50868958499052
 20
183.26628246793342
 11
489.50868958499052
 21
179.93294913460011
  0
LINE
  8
_1-0_containe
  6
CONTINUOUS
 62
    7
 10
350.44814785159218
 20
92.47643870892631
 11
338.63518914239791
 21
116.61258588281598
  0
LINE
  8
_1-0_containe
  6
CONTINUOUS
 62
    7
 10
422.46826247314823
 20
92.47643870892631
 11
434.28122118234239
 21
116.61258588281598
  0
LINE
  8
_1-0_containe
  6
CONTINUOUS
 62
    7
 10
350.44814785159218
 20
92.476438708926381
 11
350.44814785159218
 21
92.476438708926381
  0
LINE
  8
_1-0_containe
  6
CONTINUOUS
 62
    7
 10
350.44814785159218
 20
92.476438708926381
 11
351.93045400147639
 21
90.625061131556123
  0
LINE
  8
_1-0_containe
  6
CONTINUOUS
 62
    7
 10
351.93045400147639
 20
90.625061131556123
 11
354.46186839849923
 21
88.879030068110509
  0
LINE
  8
_1-0_containe
  6
CONTINUOUS
 62
    7
 10
354.46186839849923
 20
88.879030068110509
 11
357.96547529716469
 21
87.291397788917962
  0
LINE
  8
_1-0_containe
  6
CONTINUOUS
 62
    7
 10
357.96547529716469
 20
87.291397788917962
 11
362.33481937476739
 21
85.910403697401065
  0
LINE
  8
_1-0_containe
  6
CONTINUOUS
 62
    7
 10
362.33481937476739
 20
85.910403697401065
 11
367.43714032250421
 21
84.778008600213823
  0
LINE
  8
_1-0_containe
  6
CONTINUOUS
 62
    7
 10
367.43714032250421
 20
84.778008600213823
 11
373.11740670027712
 21
83.928619749364714
  0
LINE
  8
_1-0_containe
  6
CONTINUOUS
 62
    7
 10
373.11740670027712
 20
83.928619749364714
 11
379.20302648855102
 21
83.38804539527527
  0
LINE
  8
_1-0_containe
  6
CONTINUOUS
 62
    7
 10
379.20302648855102
 20
83.38804539527527
 11
385.50909120953128
 21
83.172710616150695
  0
LINE
  8
_1-0_containe
  6
CONTINUOUS
 62
    7
 10
385.50909120953128
 20
83.172710616150695
 11
391.84399427769381
 21
83.289158250290029
  0
LINE
  8
_1-0_containe
  6
CONTINUOUS
 62
    7
 10
391.84399427769381
 20
83.289158250290029
 11
398.01525286892797
 21
83.733850095255292
  0
LINE
  8
_1-0_containe
  6
CONTINUOUS
 62
    7
 10
398.01525286892797
 20
83.733850095255292
 11
403.83535641374669
 21
84.493274414362148
  0
LINE
  8
_1-0_containe
  6
CONTINUOUS
 62
    7
 10
403.83535641374669
 20
84.493274414362148
 11
409.12746401105517
 21
85.544356483961778
  0
LINE
  8
_1-0_containe
  6
CONTINUOUS
 62
    7
 10
409.12746401105517
 20
85.544356483961778
 11
413.7307776494448
 21
86.855159707242592
  0
LINE
  8
_1-0_containe
  6
CONTINUOUS
 62
    7
 10
413.7307776494448
 20
86.855159707242592
 11
417.50542797340228
 21
88.385855991563631
  0
LINE
  8
_1-0_containe
  6
CONTINUOUS
 62
    7
 10
417.50542797340228
 20
88.385855991563631
 11
420.33672414289936
 21
90.089935904895498
  0
LINE
  8
_1-0_containe
  6
CONTINUOUS
 62
    7
 10
420.33672414289936
 20
90.089935904895498
 11
422.13863865653082
 21
91.915621841377657
  0
LINE
  8
_1-0_containe
  6
CONTINUOUS
 62
    7
 10
422.13863865653082
 20
91.915621841377657
 11
422.46826247314829
 21
92.476438708926381
  0
CIRCLE
  8
_1-0_containe
  6
CONTINUOUS
 62
    7
 10
386.45820516237023
 20
120.11258588281599
 40
3.5000000000000009
  0
CIRCLE
  8
_1-0_containe
  6
CONTINUOUS
 62
    7
 10
387.61243150001292
 20
127.4933412387756
 40
3.5000000000000009
  0
CIRCLE
  8
_1-0_containe
  6
CONTINUOUS
 62
    7
 10
390.09356653630505
 20
133.94429233313497
 40
3.5000000000000009
  0
CIRCLE
  8
_1-0_containe
  6
CONTINUOUS
 62
    7
 10
416.64171142462999
 20
151.56035109080852
 40
3.5000000000000009
  0
CIRCLE
  8
_1-0_containe
  6
CONTINUOUS
 62
    7
 10
428.55115959883187
 20
146.34996751459525
 40
3.5000000000000009
  0
CIRCLE
  8
_1-0_containe
  6
CONTINUOUS
 62
    7
 10
438.72381324762927
 20
137.66599488757299
 40
3.5000000000000009
  0
CIRCLE
  8
_1-0_containe
  6
CONTINUOUS
 62
    7
 10
445.17476434198852
 20
125.50843320974195
 40
3.5000000000000009
  0
CIRCLE
  8
_1-0_containe
  6
CONTINUOUS
 62
    7
 10
450.13703441457267
 20
120.5461631371579
 40
3.5000000000000009
  0
CIRCLE
  8
_1-0_containe
  6
CONTINUOUS
 62
    7
 10
463.28705010692056
 20
116.57634707909061
 40
3.5000000000000009
  0
LINE
  8
_1-0_containe
  6
CONTINUOUS
 62
    7
 10
384.373030765544
 20
126.16809300485056
 11
384.373030765544
 21
126.16809300485056
  0
LINE
  8
_1-0_containe
  6
CONTINUOUS
 62
    7
 10
384.373030765544
 20
126.16809300485056
 11
376.10822725786983
 21
125.95050603373369
  0
LINE
  8
_1-0_containe
  6
CONTINUOUS
 62
    7
 10
376.10822725786983
 20
125.95050603373369
 11
368.15790259148235
 21
125.44919108404677
  0
LINE
  8
_1-0_containe
  6
CONTINUOUS
 62
    7
 10
368.15790259148235
 20
125.44919108404677
 11
360.76362335831141
 21
124.67938035685845
  0
LINE
  8
_1-0_containe
  6
CONTINUOUS
 62
    7
 10
360.76362335831141
 20
124.67938035685845
 11
354.15006099117096
 21
123.66446416157129
  0
LINE
  8
_1-0_containe
  6
CONTINUOUS
 62
    7
 10
354.15006099117096
 20
123.66446416157129
 11
348.51816523596267
 21
122.43528021320675
  0
LINE
  8
_1-0_containe
  6
CONTINUOUS
 62
    7
 10
348.51816523596267
 20
122.43528021320675
 11
344.03905839533172
 21
121.0291766440388
  0
LINE
  8
_1-0_containe
  6
CONTINUOUS
 62
    7
 10
344.03905839533172
 20
121.0291766440388
 11
340.84883586409325
 21
119.48887719949384
  0
LINE
  8
_1-0_containe
  6
CONTINUOUS
 62
    7
 10
340.84883586409325
 20
119.48887719949384
 11
339.04443093952847
 21
117.86118309876525
  0
LINE
  8
_1-0_containe
  6
CONTINUOUS
 62
    7
 10
339.04443093952847
 20
117.86118309876525
 11
338.68066955219729
 21
116.19555100345073
  0
LINE
  8
_1-0_containe
  6
CONTINUOUS
 62
    7
 10
338.68066955219729
 20
116.19555100345073
 11
339.76860440778171
 21
114.54259030191589
  0
LINE
  8
_1-0_containe
  6
CONTINUOUS
 62
    7
 10
339.76860440778171
 20
114.54259030191589
 11
342.27517915621627
 21
112.9525253686384
  0
LINE
  8
_1-0_containe
  6
CONTINUOUS
 62
    7
 10
342.27517915621627
 20
112.9525253686384
 11
346.12423279215795
 21
111.4736695220042
  0
LINE
  8
_1-0_containe
  6
CONTINUOUS
 62
    7
 10
346.12423279215795
 20
111.4736695220042
 11
351.19881376859365
 21
110.15095704857613
  0
LINE
  8
_1-0_containe
  6
CONTINUOUS
 62
    7
 10
351.19881376859365
 20
110.15095704857613
 11
357.34473351041629
 21
109.02457789753447
  0
LINE
  8
_1-0_containe
  6
CONTINUOUS
 62
    7
 10
357.34473351041629
 20
109.02457789753447
 11
364.37525135625611
 21
108.12875652940828
  0
LINE
  8
_1-0_containe
  6
CONTINUOUS
 62
    7
 10
364.37525135625611
 20
108.12875652940828
 11
372.07674857898087
 21
107.49071202316058
  0
LINE
  8
_1-0_containe
  6
CONTINUOUS
 62
    7
 10
372.07674857898087
 20
107.49071202316058
 11
380.21521908262378
 21
107.12983103824763
  0
LINE
  8
_1-0_containe
  6
CONTINUOUS
 62
    7
 10
380.21521908262378
 20
107.12983103824763
 11
388.54337955919635
 21
107.05707876078139
  0
LINE
  8
_1-0_containe
  6
CONTINUOUS
 62
    7
 10
388.54337955919635
 20
107.05707876078139
 11
396.80818306687053
 21
107.27466573189827
  0
LINE
  8
_1-0_containe
  6
CONTINUOUS
 62
    7
 10
396.80818306687053
 20
107.27466573189827
 11
404.758507733258
 21
107.77598068158518
  0
LINE
  8
_1-0_containe
  6
CONTINUOUS
 62
    7
 10
404.758507733258
 20
107.77598068158518
 11
412.15278696642901
 21
108.54579140877351
  0
LINE
  8
_1-0_containe
  6
CONTINUOUS
 62
    7
 10
412.15278696642901
 20
108.54579140877351
 11
418.76634933356939
 21
109.56070760406064
  0
LINE
  8
_1-0_containe
  6
CONTINUOUS
 62
    7
 10
418.76634933356939
 20
109.56070760406064
 11
424.39824508877774
 21
110.78989155242519
  0
LINE
  8
_1-0_containe
  6
CONTINUOUS
 62
    7
 10
424.39824508877774
 20
110.78989155242519
 11
428.87735192940869
 21
112.19599512159314
  0
LINE
  8
_1-0_containe
  6
CONTINUOUS
 62
    7
 10
428.87735192940869
 20
112.19599512159314
 11
432.06757446064717
 21
113.7362945661381
  0
LINE
  8
_1-0_containe
  6
CONTINUOUS
 62
    7
 10
432.06757446064717
 20
113.7362945661381
 11
433.871979385212
 21
115.36398866686667
  0
LINE
  8
_1-0_containe
  6
CONTINUOUS
 62
    7
 10
433.871979385212
 20
115.36398866686667
 11
434.23574077254318
 21
117.0296207621812
  0
LINE
  8
_1-0_containe
  6
CONTINUOUS
 62
    7
 10
434.23574077254318
 20
117.0296207621812
 11
433.14780591695882
 21
118.68258146371603
  0
LINE
  8
_1-0_containe
  6
CONTINUOUS
 62
    7
 10
433.14780591695882
 20
118.68258146371603
 11
430.64123116852426
 21
120.27264639699352
  0
LINE
  8
_1-0_containe
  6
CONTINUOUS
 62
    7
 10
430.64123116852426
 20
120.27264639699352
 11
426.79217753258263
 21
121.75150224362773
  0
LINE
  8
_1-0_containe
  6
CONTINUOUS
 62
    7
 10
426.79217753258263
 20
121.75150224362773
 11
421.71759655614693
 21
123.07421471705581
  0
LINE
  8
_1-0_containe
  6
CONTINUOUS
 62
    7
 10
421.71759655614693
 20
123.07421471705581
 11
415.57167681432429
 21
124.20059386809747
  0
LINE
  8
_1-0_containe
  6
CONTINUOUS
 62
    7
 10
415.57167681432429
 20
124.20059386809747
 11
408.54115896848447
 21
125.09641523622366
  0
LINE
  8
_1-0_containe
  6
CONTINUOUS
 62
    7
 10
408.54115896848447
 20
125.09641523622366
 11
400.83966174575971
 21
125.73445974247136
  0
LINE
  8
_1-0_containe
  6
CONTINUOUS
 62
    7
 10
400.83966174575971
 20
125.73445974247136
 11
392.70119124211686
 21
126.09534072738433
  0
LINE
  8
_1-0_containe
  6
CONTINUOUS
 62
    7
 10
392.70119124211686
 20
126.09534072738433
 11
390.83892698442617
 21
126.13697591591371
  0
ARC
  8
_1-0_containe
  6
CONTINUOUS
 62
    7
 10
409.44641981938304
 20
151.06412408355013
 40
3.5000000000000009
 50
218.25959959161082
 51
189.2393893941225
  0
ARC
  8
_1-0_containe
  6
CONTINUOUS
 62
    7
 10
403.243582228653
 20
148.33487554362881
 40
3.5000000000000009
 50
223.10072964045446
 51
193.78512760827206
  0
ARC
  8
_1-0_containe
  6
CONTINUOUS
 62
    7
 10
422.59643551173093
 20
149.82355656540406
 40
3.5000000000000009
 50
191.35017229524098
 51
136.12941828813518
  0
ARC
  8
_1-0_containe
  6
CONTINUOUS
 62
    7
 10
434.00965667867433
 20
142.8763784637863
 40
3.5000000000000009
 50
169.96773121927669
 51
125.08988419902624
  0
ARC
  8
_1-0_containe
  6
CONTINUOUS
 62
    7
 10
441.70117529117977
 20
131.95938430410132
 40
3.5000000000000009
 50
140.69719876560765
 51
94.408424387827836
  0
ARC
  8
_1-0_containe
  6
CONTINUOUS
 62
    7
 10
456.58798550893198
 20
116.57634707909061
 40
3.5000000000000009
 50
16.861396809366727
 51
343.13860319063326
  0
ARC
  8
_1-0_containe
  6
CONTINUOUS
 62
    7
 10
393.07092857985566
 20
139.89901642023591
 40
3.5000000000000009
 50
261.42996030703529
 51
225.43993733880879
  0
ARC
  8
_1-0_containe
  6
CONTINUOUS
 62
    7
 10
397.28885814155205
 20
145.10939999644918
 40
3.5000000000000009
 50
247.74030238317326
 51
214.27770953181579
  0
ARC
  8
_1-0_containe
  6
CONTINUOUS
 62
    7
 10
469.73800120127987
 20
118.80936861175343
 40
3.5000000000000009
 50
211.87654548088003
 51
186.3104385200912
  0
CIRCLE
  8
_1-0_containe
  6
CONTINUOUS
 62
    7
 10
482.66565100541879
 20
142.89814439983346
 40
3.5000000000000009
  0
CIRCLE
  8
_1-0_containe
  6
CONTINUOUS
 62
    7
 10
487.9705142494148
 20
148.44413779128382
 40
3.5000000000000009
  0
CIRCLE
  8
_1-0_containe
  6
CONTINUOUS
 62
    7
 10
492.79311719850205
 20
154.23126133018854
 40
3.5000000000000009
  0
ARC
  8
_1-0_containe
  6
CONTINUOUS
 62
    7
 10
470.95996779750891
 20
137.47802460556329
 40
10.907641558478678
 50
194.8083770390424
 51
290.85445803957833
  0
ARC
  8
_1-0_containe
  6
CONTINUOUS
 62
    7
 10
478.7261066572421
 20
117.09191009876363
 40
10.907641558478678
 50
14.808377039042393
 51
110.85445803957835
  0
ARC
  8
_1-0_containe
  6
CONTINUOUS
 62
    7
 10
477.71161192623094
 20
144.22966873428544
 40
10.907641558478678
 50
194.8083770390424
 51
290.85445803957833
  0
ARC
  8
_1-0_containe
  6
CONTINUOUS
 62
    7
 10
485.47775078596425
 20
123.84355422748577
 40
10.907641558478678
 50
14.808377039042393
 51
110.85445803957835
  0
ARC
  8
_1-0_containe
  6
CONTINUOUS
 62
    7
 10
473.21159025208874
 20
125.01220620248354
 40
3.5000000000000009
 50
152.93441384684968
 51
46.448915086057013
  0
ARC
  8
_1-0_containe
  6
CONTINUOUS
 62
    7
 10
479.34629299795154
 20
135.90537012365695
 40
3.5000000000000009
 50
333.22377234245653
 51
226.93859070841287
  0
CIRCLE
  8
_1-0_containe
  6
CONTINUOUS
 62
    7
 10
496.80789549913237
 20
160.13910114868196
 40
3.5000000000000009
  0
CIRCLE
  8
_1-0_containe
  6
CONTINUOUS
 62
    7
 10
498.08439698294626
 20
167.37260955696121
 40
3.5000000000000009
  0
LINE
  8
_1-0_containe
  6
CONTINUOUS
 62
    7
 10
494.50868958499052
 20
183.26628246793342
 11
501.17535625165721
 21
183.26628246793342
  0
LINE
  8
_1-0_containe
  6
CONTINUOUS
 62
    7
 10
501.17535625165721
 20
183.26628246793342
 11
501.17535625165721
 21
233.26628246793342
  0
LINE
  8
_1-0_containe
  6
CONTINUOUS
 62
    7
 10
501.17535625165721
 20
233.26628246793342
 11
494.50868958499052
 21
233.26628246793342
  0
LINE
  8
_1-0_containe
  6
CONTINUOUS
 62
    7
 10
494.50868958499052
 20
233.26628246793342
 11
494.50868958499052
 21
183.26628246793342
  0
LINE
  8
_1-0_containe
  6
CONTINUOUS
 62
    7
 10
494.24236837863481
 20
230.83415969822184
 11
501.44167745801292
 21
231.9140560601285
  0
LINE
  8
_1-0_containe
  6
CONTINUOUS
 62
    7
 10
494.24236837863481
 20
228.47004852743174
 11
501.44167745801292
 21
229.54994488933849
  0
LINE
  8
_1-0_containe
  6
CONTINUOUS
 62
    7
 10
494.24236837863481
 20
226.10593735664168
 11
501.44167745801292
 21
227.18583371854839
  0
LINE
  8
_1-0_containe
  6
CONTINUOUS
 62
    7
 10
494.24236837863481
 20
223.74182618585166
 11
501.44167745801292
 21
224.82172254775833
  0
LINE
  8
_1-0_containe
  6
CONTINUOUS
 62
    7
 10
494.24236837863481
 20
221.3777150150616
 11
501.44167745801292
 21
222.45761137696832
  0
LINE
  8
_1-0_containe
  6
CONTINUOUS
 62
    7
 10
494.24236837863481
 20
219.0136038442715
 11
501.44167745801292
 21
220.09350020617825
  0
LINE
  8
_1-0_containe
  6
CONTINUOUS
 62
    7
 10
494.24236837863481
 20
216.64949267348149
 11
501.44167745801292
 21
217.72938903538815
  0
LINE
  8
_1-0_containe
  6
CONTINUOUS
 62
    7
 10
494.24236837863481
 20
214.28538150269139
 11
501.44167745801292
 21
215.36527786459814
  0
LINE
  8
_1-0_containe
  6
CONTINUOUS
 62
    7
 10
494.24236837863481
 20
211.92127033190133
 11
501.44167745801292
 21
213.00116669380805
  0
LINE
  8
_1-0_containe
  6
CONTINUOUS
 62
    7
 10
494.24236837863481
 20
209.55715916111131
 11
501.44167745801292
 21
210.63705552301798
  0
LINE
  8
_1-0_containe
  6
CONTINUOUS
 62
    7
 10
494.24236837863481
 20
207.19304799032125
 11
501.44167745801292
 21
208.27294435222797
  0
LINE
  8
_1-0_containe
  6
CONTINUOUS
 62
    7
 10
494.24236837863481
 20
204.82893681953115
 11
501.44167745801292
 21
205.9088331814379
  0
LINE
  8
_1-0_containe
  6
CONTINUOUS
 62
    7
 10
494.24236837863481
 20
202.46482564874114
 11
501.44167745801292
 21
203.5447220106478
  0
LINE
  8
_1-0_containe
  6
CONTINUOUS
 62
    7
 10
494.24236837863481
 20
200.10071447795104
 11
501.44167745801292
 21
201.18061083985779
  0
LINE
  8
_1-0_containe
  6
CONTINUOUS
 62
    7
 10
494.24236837863481
 20
197.73660330716098
 11
501.44167745801292
 21
198.8164996690677
  0
LINE
  8
_1-0_containe
  6
CONTINUOUS
 62
    7
 10
494.24236837863481
 20
195.37249213637097
 11
501.44167745801292
 21
196.45238849827763
  0
LINE
  8
_1-0_containe
  6
CONTINUOUS
 62
    7
 10
494.24236837863481
 20
193.0083809655809
 11
501.44167745801292
 21
194.08827732748762
  0
LINE
  8
_1-0_containe
  6
CONTINUOUS
 62
    7
 10
494.24236837863481
 20
190.6442697947908
 11
501.44167745801292
 21
191.72416615669755
  0
LINE
  8
_1-0_containe
  6
CONTINUOUS
 62
    7
 10
494.24236837863481
 20
188.28015862400079
 11
501.44167745801292
 21
189.36005498590745
  0
LINE
  8
_1-0_containe
  6
CONTINUOUS
 62
    7
 10
494.24236837863481
 20
185.91604745321069
 11
501.44167745801292
 21
186.99594381511744
  0
LINE
  8
_1-0_containe
  6
CONTINUOUS
 62
    7
 10
494.24236837863481
 20
183.55193628242063
 11
501.44167745801292
 21
184.63183264432735
  0
LINE
  8
_1-0_containe
  6
CONTINUOUS
 62
    7
 10
491.17535625165721
 20
242.25298565537798
 11
504.50868958499052
 21
242.25298565537798
  0
LINE
  8
_1-0_containe
  6
CONTINUOUS
 62
    7
 10
504.50868958499052
 20
242.25298565537798
 11
504.50868958499052
 21
238.08631898871127
  0
LINE
  8
_1-0_containe
  6
CONTINUOUS
 62
    7
 10
504.50868958499052
 20
238.08631898871127
 11
491.17535625165721
 21
238.08631898871127
  0
LINE
  8
_1-0_containe
  6
CONTINUOUS
 62
    7
 10
491.17535625165721
 20
238.08631898871127
 11
491.17535625165721
 21
242.25298565537798
  0
LINE
  8
_1-0_containe
  6
CONTINUOUS
 62
    7
 10
494.00868958499052
 20
238.08631898871127
 11
494.00868958499052
 21
242.25298565537798
  0
LINE
  8
_1-0_containe
  6
CONTINUOUS
 62
    7
 10
501.67535625165721
 20
242.25298565537798
 11
501.67535625165721
 21
238.08631898871127
  0
LINE
  8
_1-0_containe
  6
CONTINUOUS
 62
    7
 10
489.50868958499052
 20
235.8890764349691
 11
506.17535625165721
 21
235.8890764349691
  0
LINE
  8
_1-0_containe
  6
CONTINUOUS
 62
    7
 10
506.17535625165721
 20
235.8890764349691
 11
506.17535625165721
 21
235.05574310163576
  0
LINE
  8
_1-0_containe
  6
CONTINUOUS
 62
    7
 10
506.17535625165721
 20
235.05574310163576
 11
489.50868958499052
 21
235.05574310163576
  0
LINE
  8
_1-0_containe
  6
CONTINUOUS
 62
    7
 10
489.50868958499052
 20
235.05574310163576
 11
489.50868958499052
 21
235.8890764349691
  0
TEXT
  8
_1-0_containe
 62
    3
 10
383.18331201479214
 20
49.392089132609698
 40
15
 41
1
 50
0
  1
②ゴム栓
  0
ARC
  8
_1-0_containe
  6
CONTINUOUS
 62
    7
 10
574.06786116175067
 20
100.17016011128561
 40
8.3333333333333321
 50
180
 51
270
  0
LINE
  8
_1-0_containe
  6
CONTINUOUS
 62
    7
 10
719.06786116175067
 20
91.836826777952467
 11
574.06786116175067
 21
91.836826777952467
  0
ARC
  8
_1-0_containe
  6
CONTINUOUS
 62
    7
 10
719.06786116175067
 20
100.17016011128561
 40
8.3333333333333321
 50
270
 51
0
  0
ARC
  8
_1-0_containe
  6
CONTINUOUS
 62
    7
 10
646.56786116175067
 20
172.67016011128567
 40
50.833333333333329
 50
180
 51
0
  0
LINE
  8
_1-0_containe
  6
CONTINUOUS
 62
    7
 10
697.40119449508381
 20
172.67016011128567
 11
697.40119449508381
 21
221.83682677795241
  0
LINE
  8
_1-0_containe
  6
CONTINUOUS
 62
    7
 10
595.7345278284173
 20
172.67016011128567
 11
595.7345278284173
 21
221.83682677795241
  0
LINE
  8
_1-0_containe
  6
CONTINUOUS
 62
    7
 10
725.7345278284173
 20
221.83682677795241
 11
697.40119449508381
 21
221.83682677795241
  0
LINE
  8
_1-0_containe
  6
CONTINUOUS
 62
    7
 10
727.40119449508381
 20
220.17016011128575
 11
727.40119449508381
 21
100.17016011128561
  0
ARC
  8
_1-0_containe
  6
CONTINUOUS
 62
    7
 10
725.7345278284173
 20
220.17016011128575
 40
1.6666666666666665
 50
0
 51
90
  0
LINE
  8
_1-0_containe
  6
CONTINUOUS
 62
    7
 10
565.7345278284173
 20
220.17016011128575
 11
565.7345278284173
 21
100.17016011128561
  0
LINE
  8
_1-0_containe
  6
CONTINUOUS
 62
    7
 10
567.40119449508381
 20
221.83682677795241
 11
595.7345278284173
 21
221.83682677795241
  0
ARC
  8
_1-0_containe
  6
CONTINUOUS
 62
    7
 10
567.40119449508381
 20
220.17016011128575
 40
1.6666666666666665
 50
90
 51
180
  0
TEXT
  8
_1-0_containe
 62
    3
 10
593.87010837861669
 20
49.622598834451992
 40
15
 41
1
 50
0
  1
③アジャスター
  0
TEXT
  8
_7-0_free
 62
    3
 10
1915.5310509376034
 20
268.12811825830954
 40
15
 41
1
 50
0
  1
寸法誤差／±５
  0
LINE
  8
_8-0_free
  6
CONTINUOUS
 62
    4
 10
145.92753830474095
 20
92.580847869399605
 11
215.92752180875266
 21
92.580847869399605
  0
LINE
  8
_8-0_free
  6
CONTINUOUS
 62
    7
 10
140.92752180875266
 20
92.580847869399605
 11
145.92753830474095
 21
92.580847869399605
  0
LINE
  8
_8-0_free
  6
CONTINUOUS
 62
    7
 10
215.92752180875266
 20
92.580847869399605
 11
220.92753830474095
 21
92.580847869399605
  0
LINE
  8
_8-0_free
  6
CONTINUOUS
 62
    7
 10
140.92752180875266
 20
165.0808396214056
 11
140.92752180875266
 21
92.580847869399605
  0
LINE
  8
_8-0_free
  6
CONTINUOUS
 62
    7
 10
220.92753830474095
 20
165.0808396214056
 11
220.92753830474095
 21
92.580847869399605
  0
TEXT
  8
_1-0_containe
 62
    3
 10
143.98364559956065
 20
49.392089132609698
 40
15
 41
1
 50
0
  1
①排水下口
  0
LINE
  8
_0-7_word
  6
CENTER2
 62
    3
 10
846.93649509619604
 20
974.3544282370633
 11
846.93649509619604
 21
899.85450264575275
  0
LINE
  8
_0-4_free
  6
CONTINUOUS
 62
    7
 10
1526.2882039391766
 20
961.94205193814673
 11
1524.2882220847637
 21
961.94205193814673
  0
LINE
  8
_0-4_free
  6
CONTINUOUS
 62
    3
 10
815.93625172145607
 20
1117.0433696034872
 11
877.93624300214788
 21
1117.0433696034872
  0
LINE
  8
_0-0_containe
  6
CONTINUOUS
 62
    4
 10
1071.9365513592988
 20
622.10448576682199
 11
621.93643883309335
 21
622.10448576682199
  0
LINE
  8
_0-2_free
  6
CONTINUOUS
 62
    3
 10
1071.9365513592988
 20
612.10450115816809
 11
621.93643883309335
 21
612.10450115816809
  0
LINE
  8
_0-0_containe
  6
CONTINUOUS
 62
    4
 10
571.9364538562254
 20
1097.1044669142641
 11
571.9364538562254
 21
672.10447074368983
  0
LINE
  8
_0-0_containe
  6
CONTINUOUS
 62
    4
 10
797.93636613291687
 20
1102.1044901853902
 11
576.93647712735151
 21
1102.1044901853902
  0
LINE
  8
_0-0_containe
  6
CONTINUOUS
 62
    4
 10
1116.9365130650403
 20
1102.1044901853902
 11
895.93637632508091
 21
1102.1044901853902
  0
LINE
  8
_0-0_containe
  6
CONTINUOUS
 62
    4
 10
1121.9365363361662
 20
1097.1044669142641
 11
1121.9365363361662
 21
672.10447074368983
  0
LINE
  8
_0-0_containe
  6
CONTINUOUS
 62
    4
 10
1061.9365048170459
 20
1090.1046077487631
 11
907.93638262890511
 21
1090.1046077487631
  0
LINE
  8
_0-0_containe
  6
CONTINUOUS
 62
    4
 10
1071.9365513592988
 20
1080.1045612065109
 11
1071.9365513592988
 21
1002.1045202316544
  0
LINE
  8
_0-0_containe
  6
CONTINUOUS
 62
    4
 10
621.93643883309335
 20
1080.1045612065109
 11
621.93643883309335
 21
1002.1045202316544
  0
LINE
  8
_0-0_containe
  6
CONTINUOUS
 62
    4
 10
785.93660756348663
 20
1090.1046077487631
 11
631.93648537534591
 21
1090.1046077487631
  0
LINE
  8
_0-0_containe
  6
CONTINUOUS
 62
    4
 10
790.93663083461274
 20
1017.1045900450329
 11
790.93663083461274
 21
1085.104584477637
  0
LINE
  8
_0-0_containe
  6
CONTINUOUS
 62
    4
 10
902.936359357779
 20
1017.1045900450329
 11
902.936359357779
 21
1085.104584477637
  0
LINE
  8
_0-0_containe
  6
CONTINUOUS
 62
    4
 10
897.93633608665289
 20
1012.1045667739068
 11
795.93665410573919
 21
1012.1045667739068
  0
LINE
  8
_0-0_containe
  6
CONTINUOUS
 62
    4
 10
631.93648537534591
 20
1012.1045667739068
 11
795.93665410573919
 21
1012.1045667739068
  0
LINE
  8
_0-0_containe
  6
CONTINUOUS
 62
    4
 10
897.93633608665289
 20
1012.1045667739068
 11
1061.9365048170459
 21
1012.1045667739068
  0
LINE
  8
_0-0_containe
  6
CONTINUOUS
 62
    4
 10
922.4365244354891
 20
1024.1045730777309
 11
1052.4363862815881
 21
1024.1045730777309
  0
LINE
  8
_0-0_containe
  6
CONTINUOUS
 62
    4
 10
1057.4364095527142
 20
1017.1045900450329
 11
1057.4364095527142
 21
1019.1045498066046
  0
LINE
  8
_0-0_containe
  6
CONTINUOUS
 62
    4
 10
922.4365244354891
 20
1012.1045667739068
 11
1052.4363862815881
 21
1012.1045667739068
  0
LINE
  8
_0-0_containe
  6
CONTINUOUS
 62
    4
 10
917.43650116436299
 20
1019.1045498066046
 11
917.43650116436299
 21
1017.1045900450329
  0
LINE
  8
_0-0_containe
  6
CONTINUOUS
 62
    4
 10
771.43646575690263
 20
1024.1045730777309
 11
641.4366039108038
 21
1024.1045730777309
  0
LINE
  8
_0-0_containe
  6
CONTINUOUS
 62
    4
 10
636.43658063967735
 20
1017.1045900450329
 11
636.43658063967735
 21
1019.1045498066046
  0
LINE
  8
_0-0_containe
  6
CONTINUOUS
 62
    4
 10
771.43646575690263
 20
1012.1045667739068
 11
641.4366039108038
 21
1012.1045667739068
  0
LINE
  8
_0-0_containe
  6
CONTINUOUS
 62
    4
 10
776.43648902802875
 20
1019.1045498066046
 11
776.43648902802875
 21
1017.1045900450329
  0
LINE
  8
_0-2_free
  6
CONTINUOUS
 62
    3
 10
561.93640731397318
 20
1107.1045134565163
 11
561.93640731397318
 21
672.10447074368983
  0
LINE
  8
_0-2_free
  6
CONTINUOUS
 62
    3
 10
797.93636613291687
 20
1112.1045367276427
 11
566.93643058509929
 21
1112.1045367276427
  0
LINE
  8
_0-2_free
  6
CONTINUOUS
 62
    3
 10
1126.9365596072926
 20
1112.1045367276427
 11
895.93637632508091
 21
1112.1045367276427
  0
LINE
  8
_0-2_free
  6
CONTINUOUS
 62
    3
 10
1131.9365828784184
 20
1107.1045134565163
 11
1131.9365828784184
 21
672.10447074368983
  0
LINE
  8
_0-0_containe
  6
CONTINUOUS
 62
    4
 10
1398.2879686946023
 20
647.90540355058124
 11
1398.2879686946023
 21
640.93353837158566
  0
LINE
  8
_0-0_containe
  6
CONTINUOUS
 62
    4
 10
1402.5276951109954
 20
652.84733310634908
 11
1526.2878707791299
 21
687.13501188751229
  0
LINE
  8
ADD_LINE
  6
DOT
 62
    4
 10
1526.2878707791299
 20
612.10443922456966
 11
1352.3798127009973
 21
612.10443922456966
  0
LINE
  8
ADD_LINE
  6
DOT
 62
    4
 10
1526.2878707791299
 20
622.10448576682199
 11
1352.3798127009973
 21
622.10448576682199
  0
LINE
  8
ADD_LINE
  6
DOT
 62
    4
 10
1396.2880089330311
 20
608.23879174289436
 11
1396.2880089330311
 21
630.19858774996965
  0
LINE
  8
_0-0_containe
  6
CONTINUOUS
 62
    4
 10
1395.5210232496631
 20
622.16344655255898
 11
1526.2878707791299
 21
612.10443922456966
  0
LINE
  8
_0-0_containe
  6
CONTINUOUS
 62
    4
 10
1386.2879623907788
 20
657.10452479750825
 11
1386.2879623907788
 21
632.13401270194277
  0
LINE
  8
_0-0_containe
  6
CONTINUOUS
 62
    4
 10
1526.2878707791299
 20
612.10443922456966
 11
1526.2878707791299
 21
627.13498036839201
  0
LINE
  8
_0-0_containe
  6
CONTINUOUS
 62
    4
 10
1402.9317499073686
 20
635.94614955454608
 11
1526.2878707791299
 21
627.13498036839201
  0
LINE
  8
_0-3_free
  6
CONTINUOUS
 62
    7
 10
1526.2878707791299
 20
627.13498036839201
 11
1526.2878707791299
 21
687.10441668987141
  0
LINE
  8
_0-0_containe
  6
CONTINUOUS
 62
    4
 10
1386.2879623907788
 20
1022.1047371833561
 11
1392.2878416754934
 21
1024.1045730777309
  0
LINE
  8
_0-0_containe
  6
CONTINUOUS
 62
    4
 10
1386.2879623907788
 20
1090.1046077487631
 11
1392.2878416754934
 21
1088.1046479871914
  0
LINE
  8
_0-0_containe
  6
CONTINUOUS
 62
    4
 10
1392.2878416754934
 20
1088.1046479871914
 11
1392.2878416754934
 21
1024.1045730777309
  0
LINE
  8
_0-3_free
  6
CONTINUOUS
 62
    7
 10
1386.2879623907788
 20
1090.1046077487631
 11
1386.2879623907788
 21
1022.1047371833561
  0
LINE
  8
_0-0_containe
  6
CONTINUOUS
 62
    4
 10
1386.2879623907788
 20
1092.7932691252449
 11
1386.2879623907788
 21
1090.1046077487631
  0
LINE
  8
_0-0_containe
  6
CONTINUOUS
 62
    4
 10
1386.2879623907788
 20
1012.1045667739068
 11
1386.2879623907788
 21
1022.1047371833561
  0
LINE
  8
_0-0_containe
  6
CONTINUOUS
 62
    4
 10
1395.5210232496631
 20
1102.0455293996533
 11
1526.2878707791299
 21
1112.1045367276427
  0
LINE
  8
_0-0_containe
  6
CONTINUOUS
 62
    4
 10
1402.9044991240448
 20
1087.582795486541
 11
1526.2878707791299
 21
1097.0738717166232
  0
LINE
  8
_0-0_containe
  6
CONTINUOUS
 62
    4
 10
1526.2878707791299
 20
1112.1045367276427
 11
1526.2878707791299
 21
1097.0738717166232
  0
LINE
  8
_0-0_containe
  6
CONTINUOUS
 62
    4
 10
1402.5276951109954
 20
1016.361758465066
 11
1526.2878707791299
 21
1008.0596834582791
  0
LINE
  8
_0-0_containe
  6
CONTINUOUS
 62
    4
 10
1390.95329649581
 20
1007.1156915505039
 11
1506.9574037612085
 21
999.33398263800427
  0
LINE
  8
_0-3_free
  6
CONTINUOUS
 62
    7
 10
1386.2879623907788
 20
657.10452479750825
 11
1386.2879623907788
 21
1012.1045667739068
  0
LINE
  8
_0-0_containe
  6
CONTINUOUS
 62
    4
 10
1398.2879686946023
 20
1082.5976362790461
 11
1398.2879686946023
 21
1021.3036880208338
  0
LINE
  8
_0-0_containe
  6
CONTINUOUS
 62
    4
 10
1526.2878707791299
 20
687.10441668987141
 11
1526.2878707791299
 21
919.85447186306044
  0
LINE
  8
_0-0_containe
  6
CONTINUOUS
 62
    4
 10
1071.9365513592988
 20
1002.1045202316544
 11
1071.9365513592988
 21
707.1045097743762
  0
LINE
  8
_0-0_containe
  6
CONTINUOUS
 62
    4
 10
621.93643883309335
 20
1002.1045202316544
 11
621.93643883309335
 21
707.1045097743762
  0
LINE
  8
_0-0_containe
  6
CONTINUOUS
 62
    4
 10
1390.95329649581
 20
662.09340002091108
 11
1506.9574037612085
 21
695.860712707787
  0
LINE
  8
_0-9_measure
  6
CONTINUOUS
 62
    3
 10
511.93642233710534
 20
622.10442383322356
 11
511.93642233710534
 21
652.10425379198819
  0
LINE
  8
_0-9_measure
  6
CONTINUOUS
 62
    3
 10
536.93653869273612
 20
622.10442383322356
 11
511.93642233710534
 21
622.10442383322356
  0
LINE
  8
_0-9_measure
  6
CONTINUOUS
 62
    3
 10
536.93653869273612
 20
652.10425379198819
 11
511.93642233710534
 21
652.10425379198819
  0
LINE
  8
_0-9_measure
  6
CONTINUOUS
 62
    3
 10
511.93642233710534
 20
652.10425379198819
 11
511.93642233710534
 21
1012.1045667739068
  0
LINE
  8
_0-9_measure
  6
CONTINUOUS
 62
    3
 10
536.93653869273612
 20
652.10425379198819
 11
511.93642233710534
 21
652.10425379198819
  0
LINE
  8
_0-9_measure
  6
CONTINUOUS
 62
    3
 10
536.93653869273612
 20
1012.1045667739068
 11
511.93642233710534
 21
1012.1045667739068
  0
LINE
  8
_0-9_measure
  6
CONTINUOUS
 62
    3
 10
511.93642233710534
 20
1012.1045667739068
 11
511.93642233710534
 21
1102.1044901853902
  0
LINE
  8
_0-9_measure
  6
CONTINUOUS
 62
    3
 10
536.93653869273612
 20
1102.1044901853902
 11
511.93642233710534
 21
1102.1044901853902
  0
LINE
  8
_0-9_measure
  6
CONTINUOUS
 62
    3
 10
486.93655371586829
 20
1102.1044901853902
 11
486.93655371586829
 21
622.10442383322356
  0
LINE
  8
_0-9_measure
  6
CONTINUOUS
 62
    3
 10
511.93642233710534
 20
1102.1044901853902
 11
486.93655371586829
 21
1102.1044901853902
  0
LINE
  8
_0-9_measure
  6
CONTINUOUS
 62
    3
 10
511.93642233710534
 20
622.10442383322356
 11
486.93655371586829
 21
622.10442383322356
  0
LINE
  8
_0-9_measure
  6
CONTINUOUS
 62
    3
 10
802.93638940404321
 20
1162.1045217045107
 11
890.9363530539548
 21
1162.1045217045107
  0
LINE
  8
_0-9_measure
  6
CONTINUOUS
 62
    3
 10
802.93638940404321
 20
1137.1045292160766
 11
802.93638940404321
 21
1162.1045217045107
  0
LINE
  8
_0-9_measure
  6
CONTINUOUS
 62
    3
 10
890.9363530539548
 20
1137.1045292160766
 11
890.9363530539548
 21
1162.1045217045107
  0
LINE
  8
_0-9_measure
  6
CONTINUOUS
 62
    3
 10
571.9364538562254
 20
562.10451618130026
 11
621.93643883309335
 21
562.10451618130026
  0
LINE
  8
_0-9_measure
  6
CONTINUOUS
 62
    3
 10
571.9364538562254
 20
587.10450866973417
 11
571.9364538562254
 21
562.10451618130026
  0
LINE
  8
_0-9_measure
  6
CONTINUOUS
 62
    3
 10
621.93643883309335
 20
587.10450866973417
 11
621.93643883309335
 21
562.10451618130026
  0
LINE
  8
_0-9_measure
  6
CONTINUOUS
 62
    3
 10
621.93643883309335
 20
562.10451618130026
 11
1071.9365513592988
 21
562.10451618130026
  0
LINE
  8
_0-9_measure
  6
CONTINUOUS
 62
    3
 10
1071.9365513592988
 20
587.10450866973417
 11
1071.9365513592988
 21
562.10451618130026
  0
LINE
  8
_0-9_measure
  6
CONTINUOUS
 62
    3
 10
1071.9365513592988
 20
562.10451618130026
 11
1121.9365363361662
 21
562.10451618130026
  0
LINE
  8
_0-9_measure
  6
CONTINUOUS
 62
    3
 10
1121.9365363361662
 20
587.10450866973417
 11
1121.9365363361662
 21
562.10451618130026
  0
LINE
  8
_0-9_measure
  6
CONTINUOUS
 62
    3
 10
571.9364538562254
 20
537.10452369286622
 11
1121.9365363361662
 21
537.10452369286622
  0
LINE
  8
_0-9_measure
  6
CONTINUOUS
 62
    3
 10
571.9364538562254
 20
562.10451618130026
 11
571.9364538562254
 21
537.10452369286622
  0
LINE
  8
_0-9_measure
  6
CONTINUOUS
 62
    3
 10
1121.9365363361662
 20
562.10451618130026
 11
1121.9365363361662
 21
537.10452369286622
  0
LINE
  8
_0-9_measure
  6
CONTINUOUS
 62
    3
 10
1181.9365678552867
 20
1102.1044901853902
 11
1181.9365678552867
 21
937.10446544140791
  0
LINE
  8
_0-9_measure
  6
CONTINUOUS
 62
    3
 10
1156.9364514996555
 20
1102.1044901853902
 11
1181.9365678552867
 21
1102.1044901853902
  0
LINE
  8
_0-9_measure
  6
CONTINUOUS
 62
    3
 10
1156.9364514996555
 20
937.10446544140791
 11
1181.9365678552867
 21
937.10446544140791
  0
LINE
  8
_0-9_measure
  6
CONTINUOUS
 62
    3
 10
1336.2879774139105
 20
612.10443922456966
 11
1336.2879774139105
 21
622.10448576682199
  0
LINE
  8
_0-9_measure
  6
CONTINUOUS
 62
    3
 10
1361.2880937695418
 20
612.10443922456966
 11
1336.2879774139105
 21
612.10443922456966
  0
LINE
  8
_0-9_measure
  6
CONTINUOUS
 62
    3
 10
1361.2880937695418
 20
622.10448576682199
 11
1336.2879774139105
 21
622.10448576682199
  0
LINE
  8
_0-9_measure
  6
CONTINUOUS
 62
    3
 10
1336.2879774139105
 20
622.10448576682199
 11
1336.2879774139105
 21
1102.1044901853902
  0
LINE
  8
_0-9_measure
  6
CONTINUOUS
 62
    3
 10
1361.2880937695418
 20
1102.1044901853902
 11
1336.2879774139105
 21
1102.1044901853902
  0
LINE
  8
_0-9_measure
  6
CONTINUOUS
 62
    3
 10
1336.2879774139105
 20
1102.1044901853902
 11
1336.2879774139105
 21
1112.1045367276427
  0
LINE
  8
_0-9_measure
  6
CONTINUOUS
 62
    3
 10
1361.2880937695418
 20
1112.1045367276427
 11
1336.2879774139105
 21
1112.1045367276427
  0
LINE
  8
_0-9_measure
  6
CONTINUOUS
 62
    3
 10
1526.2878707791299
 20
562.10445424770171
 11
1386.2879623907788
 21
562.10445424770171
  0
LINE
  8
_0-9_measure
  6
CONTINUOUS
 62
    3
 10
1526.2878707791299
 20
587.10444673613563
 11
1526.2878707791299
 21
562.10445424770171
  0
LINE
  8
_0-9_measure
  6
CONTINUOUS
 62
    3
 10
1386.2879623907788
 20
587.10444673613563
 11
1386.2879623907788
 21
562.10445424770171
  0
LINE
  8
_0-0_containe
  6
CONTINUOUS
 62
    4
 10
641.93653191759813
 20
982.10455101434661
 11
641.93653191759813
 21
752.1045953473149
  0
LINE
  8
_0-0_containe
  6
CONTINUOUS
 62
    4
 10
1041.9364117325415
 20
992.10459755659895
 11
651.93657845985058
 21
992.10459755659895
  0
LINE
  8
_0-0_containe
  6
CONTINUOUS
 62
    4
 10
1051.9364582747937
 20
982.10455101434661
 11
1051.9364582747937
 21
752.1045953473149
  0
LINE
  8
_0-e_free
  6
CENTER2
 62
    6
 10
965.93645438645353
 20
1147.2838115922814
 11
965.93645438645353
 21
579.2674930538069
  0
LINE
  8
_0-e_free
  6
CENTER2
 62
    6
 10
965.93645438645353
 20
1147.2838115922814
 11
916.34746076898693
 21
1147.2838115922814
  0
LINE
  8
_0-e_free
  6
CENTER2
 62
    6
 10
916.34746076898693
 20
1147.2838115922814
 11
930.3300854268133
 21
1143.5919497878936
  0
LINE
  8
_0-e_free
  6
CENTER2
 62
    6
 10
930.3300854268133
 20
1143.5919497878936
 11
940.63509300789804
 21
1152.0783391837067
  0
LINE
  8
_0-e_free
  6
CENTER2
 62
    6
 10
965.93645438645353
 20
579.2674930538069
 11
916.34746076898693
 21
579.2674930538069
  0
LINE
  8
_0-e_free
  6
CENTER2
 62
    6
 10
916.34746076898693
 20
579.2674930538069
 11
930.3300854268133
 21
582.95935485819473
  0
LINE
  8
_0-e_free
  6
CENTER2
 62
    6
 10
930.3300854268133
 20
582.95935485819473
 11
940.63509300789804
 21
574.47296546238147
  0
LINE
  8
_0-a_hatch
  6
CONTINUOUS
 62
    3
 10
1516.2880719712712
 20
972.57061673412795
 11
1526.2878707791299
 21
982.57053940918331
  0
LINE
  8
_0-a_hatch
  6
CONTINUOUS
 62
    3
 10
1516.2880719712712
 20
983.17724093972834
 11
1526.2878707791299
 21
993.17716361478358
  0
LINE
  8
_0-a_hatch
  6
CONTINUOUS
 62
    3
 10
1515.5733582450068
 20
993.06915141906393
 11
1526.2878707791299
 21
1003.783787820384
  0
LINE
  8
_0-a_hatch
  6
CONTINUOUS
 62
    3
 10
1510.3788634747066
 20
998.48128085436383
 11
1520.3553752495422
 21
1008.4576687620033
  0
LINE
  8
_0-a_hatch
  6
CONTINUOUS
 62
    3
 10
1501.0231740908644
 20
999.73209180892536
 11
1510.4155281649964
 21
1009.1244458830574
  0
LINE
  8
_0-a_hatch
  6
CONTINUOUS
 62
    3
 10
1491.0833270063181
 20
1000.3988689299796
 11
1500.4756810804502
 21
1009.7912230041117
  0
LINE
  8
_0-a_hatch
  6
CONTINUOUS
 62
    3
 10
1481.1434799217723
 20
1001.0656460510337
 11
1490.5358339959043
 21
1010.4580001251658
  0
LINE
  8
_0-a_hatch
  6
CONTINUOUS
 62
    3
 10
1471.203632837226
 20
1001.7324231720879
 11
1480.5959869113581
 21
1011.12477724622
  0
LINE
  8
_0-a_hatch
  6
CONTINUOUS
 62
    3
 10
1461.2637857526795
 20
1002.399200293142
 11
1470.6561398268116
 21
1011.7915543672741
  0
LINE
  8
_0-a_hatch
  6
CONTINUOUS
 62
    3
 10
1451.3239386681335
 20
1003.0659774141963
 11
1460.7162927422655
 21
1012.4583314883283
  0
LINE
  8
_0-a_hatch
  6
CONTINUOUS
 62
    3
 10
1441.3840915835874
 20
1003.7327545352504
 11
1450.7764456577195
 21
1013.1251086093823
  0
LINE
  8
_0-a_hatch
  6
CONTINUOUS
 62
    3
 10
1431.4442444990414
 20
1004.3995316563046
 11
1440.8365985731734
 21
1013.7918857304364
  0
LINE
  8
_0-a_hatch
  6
CONTINUOUS
 62
    3
 10
1523.9378623190446
 20
1096.8931494763078
 11
1526.2878707791299
 21
1099.2431579363931
  0
LINE
  8
_0-a_hatch
  6
CONTINUOUS
 62
    3
 10
1421.5043974144946
 20
1005.0663087773587
 11
1430.8969992230209
 21
1014.4586628514907
  0
LINE
  8
_0-a_hatch
  6
CONTINUOUS
 62
    3
 10
1512.4474456633748
 20
1096.0092331590417
 11
1526.2878707791299
 21
1109.8497821419935
  0
LINE
  8
_0-a_hatch
  6
CONTINUOUS
 62
    3
 10
1411.5645503299488
 20
1005.7330858984129
 11
1420.9569044040809
 21
1015.1254399725449
  0
LINE
  8
_0-a_hatch
  6
CONTINUOUS
 62
    3
 10
1500.9567812733121
 20
1095.1253168417761
 11
1517.2401152468467
 21
1111.4085269481138
  0
LINE
  8
_0-a_hatch
  6
CONTINUOUS
 62
    3
 10
1401.6247032454025
 20
1006.399863019467
 11
1411.0173050539283
 21
1015.792217093599
  0
LINE
  8
_0-a_hatch
  6
CONTINUOUS
 62
    3
 10
1489.4663646176427
 20
1094.24140052451
 11
1505.7496985911775
 21
1110.5246106308477
  0
LINE
  8
_0-a_hatch
  6
CONTINUOUS
 62
    3
 10
1391.6848561608567
 20
1007.066640140521
 11
1401.3239536912658
 21
1016.7056138037334
  0
LINE
  8
_0-a_hatch
  6
CONTINUOUS
 62
    3
 10
1477.9759479619729
 20
1093.3576080744413
 11
1494.259034201114
 21
1109.640818180779
  0
LINE
  8
_0-a_hatch
  6
CONTINUOUS
 62
    3
 10
1386.2879623907788
 20
1012.2762467088467
 11
1398.2879686946023
 21
1024.2762530126706
  0
LINE
  8
_0-a_hatch
  6
CONTINUOUS
 62
    3
 10
1466.4852835719103
 20
1092.4736917571752
 11
1482.7686175454448
 21
1108.7569018635129
  0
LINE
  8
_0-a_hatch
  6
CONTINUOUS
 62
    3
 10
1392.2878416754934
 20
1028.882750199162
 11
1398.2879686946023
 21
1034.8827533510739
  0
LINE
  8
_0-a_hatch
  6
CONTINUOUS
 62
    3
 10
1454.9948669162409
 20
1091.5897754399093
 11
1471.2782008897757
 21
1107.872985546247
  0
LINE
  8
_0-a_hatch
  6
CONTINUOUS
 62
    3
 10
1392.2878416754934
 20
1039.4893744047624
 11
1398.2879686946023
 21
1045.4893775566743
  0
LINE
  8
_0-a_hatch
  6
CONTINUOUS
 62
    3
 10
1443.504450260571
 20
1090.7058591226432
 11
1459.7875364997121
 21
1106.989069228981
  0
LINE
  8
_0-a_hatch
  6
CONTINUOUS
 62
    3
 10
1392.2878416754934
 20
1050.0959986103628
 11
1398.2879686946023
 21
1056.0960017622747
  0
LINE
  8
_0-a_hatch
  6
CONTINUOUS
 62
    3
 10
1432.0140336049019
 20
1089.8219428053774
 11
1448.297119844043
 21
1106.1052767789122
  0
LINE
  8
_0-a_hatch
  6
CONTINUOUS
 62
    3
 10
1392.2878416754934
 20
1060.702622815963
 11
1398.2879686946023
 21
1066.7026259678751
  0
LINE
  8
_0-a_hatch
  6
CONTINUOUS
 62
    3
 10
1420.5233692148386
 20
1088.9381503553084
 11
1436.8067031883738
 21
1105.2213604616461
  0
LINE
  8
_0-a_hatch
  6
CONTINUOUS
 62
    3
 10
1392.2878416754934
 20
1071.3092470215636
 11
1398.2879686946023
 21
1077.3092501734752
  0
LINE
  8
_0-a_hatch
  6
CONTINUOUS
 62
    3
 10
1409.0329525591692
 20
1088.0542340380425
 11
1425.3162865327045
 21
1104.3374441443805
  0
LINE
  8
_0-a_hatch
  6
CONTINUOUS
 62
    3
 10
1392.2878416754934
 20
1081.9158712271637
 11
1413.8256221426411
 21
1103.4535278271144
  0
LINE
  8
_0-a_hatch
  6
CONTINUOUS
 62
    3
 10
1388.9746418921095
 20
1089.2090479149861
 11
1402.335205486972
 21
1102.5697353770452
  0
LINE
  8
_0-a_hatch
  6
CONTINUOUS
 62
    3
 10
1517.1491967243026
 20
612.80738556712618
 11
1526.2878707791299
 21
621.94605962195328
  0
LINE
  8
_0-a_hatch
  6
CONTINUOUS
 62
    3
 10
1507.3002681623007
 20
613.56501927712588
 11
1521.2313640662051
 21
627.49617711462906
  0
LINE
  8
_0-a_hatch
  6
CONTINUOUS
 62
    3
 10
1497.4513396002981
 20
614.32265298712548
 11
1511.3318976878572
 21
628.20327300828262
  0
LINE
  8
_0-a_hatch
  6
CONTINUOUS
 62
    3
 10
1487.6021633039022
 20
615.08028669712508
 11
1501.432431309509
 21
628.91036890193629
  0
LINE
  8
_0-a_hatch
  6
CONTINUOUS
 62
    3
 10
1477.7532347418996
 20
615.83785847352613
 11
1491.5329649311604
 21
629.61746479559008
  0
LINE
  8
_0-a_hatch
  6
CONTINUOUS
 62
    3
 10
1467.9043061798973
 20
616.59549218352572
 11
1481.6334985528124
 21
630.32462262284207
  0
LINE
  8
_0-a_hatch
  6
CONTINUOUS
 62
    3
 10
1458.0553776178954
 20
617.35312589352532
 11
1471.7340321744643
 21
631.03171851649574
  0
LINE
  8
_0-a_hatch
  6
CONTINUOUS
 62
    3
 10
1448.2062013214988
 20
618.11069766992648
 11
1461.8343180617221
 21
631.73881441014953
  0
LINE
  8
_0-a_hatch
  6
CONTINUOUS
 62
    3
 10
1513.7596947476122
 20
683.66406722884267
 11
1526.2878707791299
 21
696.19236712755719
  0
LINE
  8
_0-a_hatch
  6
CONTINUOUS
 62
    3
 10
1438.3572727594969
 20
618.86833137992596
 11
1451.9348516833743
 21
632.4459103038032
  0
LINE
  8
_0-a_hatch
  6
CONTINUOUS
 62
    3
 10
1499.0883684748758
 20
679.59942709530526
 11
1526.2878707791299
 21
706.79892939955903
  0
LINE
  8
_0-a_hatch
  6
CONTINUOUS
 62
    3
 10
1428.5083441974944
 20
619.62596508992556
 11
1442.0353853050256
 21
633.15300619745688
  0
LINE
  8
_0-a_hatch
  6
CONTINUOUS
 62
    3
 10
1484.4170422021398
 20
675.53472502816931
 11
1503.8339685235155
 21
694.95152748234818
  0
LINE
  8
_0-a_hatch
  6
CONTINUOUS
 62
    3
 10
1516.2880719712712
 20
707.40563093010394
 11
1526.2878707791299
 21
717.40555360515941
  0
LINE
  8
_0-a_hatch
  6
CONTINUOUS
 62
    3
 10
1418.659415635492
 20
620.38359879992527
 11
1432.1359189266775
 21
633.86016402470898
  0
LINE
  8
_0-a_hatch
  6
CONTINUOUS
 62
    3
 10
1469.7459636637973
 20
671.4700848946319
 11
1488.8720498067903
 21
690.59635683842021
  0
LINE
  8
_0-a_hatch
  6
CONTINUOUS
 62
    3
 10
1516.2880719712712
 20
718.01225513570432
 11
1526.2878707791299
 21
728.01217781075979
  0
LINE
  8
_0-a_hatch
  6
CONTINUOUS
 62
    3
 10
1408.8104870734901
 20
621.1411705763262
 11
1422.2364525483295
 21
634.56725991836265
  0
LINE
  8
_0-a_hatch
  6
CONTINUOUS
 62
    3
 10
1455.0746373910613
 20
667.4054447610946
 11
1473.9103788244593
 21
686.2411242608938
  0
LINE
  8
_0-a_hatch
  6
CONTINUOUS
 62
    3
 10
1516.2880719712712
 20
728.61881740770627
 11
1526.2878707791299
 21
738.61874008276163
  0
LINE
  8
_0-a_hatch
  6
CONTINUOUS
 62
    3
 10
1398.9613107770936
 20
621.89880428632591
 11
1412.3369861699807
 21
635.27435581201632
  0
LINE
  8
_0-a_hatch
  6
CONTINUOUS
 62
    3
 10
1440.4033111183253
 20
663.34074269395865
 11
1458.9484601077338
 21
681.88595361696582
  0
LINE
  8
_0-a_hatch
  6
CONTINUOUS
 62
    3
 10
1516.2880719712712
 20
739.22550354690497
 11
1526.2878707791299
 21
749.22542622196045
  0
LINE
  8
_0-a_hatch
  6
CONTINUOUS
 62
    3
 10
1390.4622869271941
 20
624.00621884123109
 11
1402.4588249495041
 21
636.00275686354121
  0
LINE
  8
_0-a_hatch
  6
CONTINUOUS
 62
    3
 10
1425.7322325799828
 20
659.27610256042135
 11
1443.9867891254021
 21
677.53078297303784
  0
LINE
  8
_0-a_hatch
  6
CONTINUOUS
 62
    3
 10
1516.2880719712712
 20
749.8320038853085
 11
1526.2878707791299
 21
759.83192656036385
  0
LINE
  8
_0-a_hatch
  6
CONTINUOUS
 62
    3
 10
1386.4120773220986
 20
630.56281924253142
 11
1398.2879686946023
 21
642.43858674783837
  0
LINE
  8
_0-a_hatch
  6
CONTINUOUS
 62
    3
 10
1411.0609063072468
 20
655.21146242688405
 11
1429.0248704086771
 21
673.17555039551144
  0
LINE
  8
_0-a_hatch
  6
CONTINUOUS
 62
    3
 10
1516.2880719712712
 20
760.4386900245072
 11
1526.2878707791299
 21
770.43861269956267
  0
LINE
  8
_0-a_hatch
  6
CONTINUOUS
 62
    3
 10
1386.2879623907788
 20
641.04520464961467
 11
1414.0631994263458
 21
668.82037975158346
  0
LINE
  8
_0-a_hatch
  6
CONTINUOUS
 62
    3
 10
1516.2880719712712
 20
771.04525229650915
 11
1526.2878707791299
 21
781.04517497156451
  0
LINE
  8
_0-a_hatch
  6
CONTINUOUS
 62
    3
 10
1386.2879623907788
 20
651.65182885521506
 11
1399.1012807096206
 21
664.46514717405705
  0
LINE
  8
_0-a_hatch
  6
CONTINUOUS
 62
    3
 10
1516.2880719712712
 20
781.65187650210942
 11
1526.2878707791299
 21
791.65179917716489
  0
LINE
  8
_0-a_hatch
  6
CONTINUOUS
 62
    3
 10
1516.2880719712712
 20
792.2585007077098
 11
1526.2878707791299
 21
802.25842338276516
  0
LINE
  8
_0-a_hatch
  6
CONTINUOUS
 62
    3
 10
1516.2880719712712
 20
802.86506297971175
 11
1526.2878707791299
 21
812.864985654767
  0
LINE
  8
_0-a_hatch
  6
CONTINUOUS
 62
    3
 10
1516.2880719712712
 20
813.47174911891045
 11
1526.2878707791299
 21
823.47167179396592
  0
LINE
  8
_0-a_hatch
  6
CONTINUOUS
 62
    3
 10
1516.2880719712712
 20
824.07824945731386
 11
1526.2878707791299
 21
834.07817213236922
  0
LINE
  8
_0-a_hatch
  6
CONTINUOUS
 62
    3
 10
1516.2880719712712
 20
834.68487366291424
 11
1526.2878707791299
 21
844.6847963379696
  0
LINE
  8
_0-a_hatch
  6
CONTINUOUS
 62
    3
 10
1516.2880719712712
 20
845.29149786851463
 11
1526.2878707791299
 21
855.29142054356998
  0
LINE
  8
_0-a_hatch
  6
CONTINUOUS
 62
    3
 10
1516.2880719712712
 20
855.89799820691792
 11
1526.2878707791299
 21
865.89792088197339
  0
LINE
  8
_0-a_hatch
  6
CONTINUOUS
 62
    3
 10
1516.2880719712712
 20
866.50474627971516
 11
1526.2878707791299
 21
876.50466895477064
  0
LINE
  8
_0-a_hatch
  6
CONTINUOUS
 62
    3
 10
1516.2880719712712
 20
877.11124661811868
 11
1526.2878707791299
 21
887.11116929317416
  0
LINE
  8
_0-a_hatch
  6
CONTINUOUS
 62
    3
 10
1516.2880719712712
 20
887.71799469091593
 11
1526.2878707791299
 21
897.7179173659714
  0
LINE
  8
_0-a_hatch
  6
CONTINUOUS
 62
    3
 10
1516.2880719712712
 20
898.32449502931934
 11
1526.2878707791299
 21
908.32441770437481
  0
LINE
  8
_0-4_free
  6
CONTINUOUS
 62
    4
 10
805.48136483209055
 20
1085.0057384544898
 11
761.65145266851425
 21
1158.4380526754926
  0
ARC
  8
_0-0_containe
  6
CONTINUOUS
 62
    4
 10
621.93643883309335
 20
672.10447074368983
 40
50.000000460267529
 50
180
 51
270
  0
ARC
  8
_0-0_containe
  6
CONTINUOUS
 62
    4
 10
1071.9365513592988
 20
672.10447074368983
 40
50.000000460267529
 50
270
 51
0
  0
ARC
  8
_0-0_containe
  6
CONTINUOUS
 62
    4
 10
671.9364238099613
 20
707.1045097743762
 40
50.000000460267529
 50
180
 51
270
  0
ARC
  8
_0-0_containe
  6
CONTINUOUS
 62
    4
 10
1021.9365663824306
 20
707.1045097743762
 40
50.000000460267529
 50
270
 51
0
  0
ARC
  8
_0-2_free
  6
CONTINUOUS
 62
    3
 10
621.93643883309335
 20
672.10447074368983
 40
60.000000552321033
 50
180
 51
270
  0
ARC
  8
_0-2_free
  6
CONTINUOUS
 62
    3
 10
1071.9365513592988
 20
672.10447074368983
 40
60.000000552321033
 50
270
 51
0
  0
ARC
  8
_0-0_containe
  6
CONTINUOUS
 62
    4
 10
671.9364238099613
 20
752.1045953473149
 40
30.000000276160517
 50
180
 51
270
  0
ARC
  8
_0-0_containe
  6
CONTINUOUS
 62
    4
 10
1021.9365663824306
 20
752.1045953473149
 40
30.000000276160517
 50
270
 51
0
  0
ARC
  8
_0-0_containe
  6
CONTINUOUS
 62
    4
 10
846.93649509619604
 20
3782.0897127256967
 40
3064.9850325418715
 50
266.72683715820313
 51
273.27316284179687
  0
ARC
  8
_0-0_containe
  6
CONTINUOUS
 62
    4
 10
846.93649509619604
 20
3717.0894102010561
 40
3064.9850325418715
 50
266.72683715820313
 51
273.27316284179687
  0
ARC
  8
_0-0_containe
  6
CONTINUOUS
 62
    4
 10
576.93647712735151
 20
1097.1044669142641
 40
5.0000000460267522
 50
90
 51
180
  0
ARC
  8
_0-0_containe
  6
CONTINUOUS
 62
    4
 10
1116.9365130650403
 20
1097.1044669142641
 40
5.0000000460267522
 50
0
 51
90
  0
ARC
  8
_0-0_containe
  6
CONTINUOUS
 62
    4
 10
785.93660756348663
 20
1085.104584477637
 40
5.0000000460267522
 50
0
 51
90
  0
ARC
  8
_0-0_containe
  6
CONTINUOUS
 62
    4
 10
907.93638262890511
 20
1085.104584477637
 40
5.0000000460267522
 50
90
 51
180
  0
ARC
  8
_0-0_containe
  6
CONTINUOUS
 62
    4
 10
631.93648537534591
 20
1002.1045202316544
 40
10.000000092053504
 50
90
 51
180
  0
ARC
  8
_0-0_containe
  6
CONTINUOUS
 62
    4
 10
1061.9365048170459
 20
1002.1045202316544
 40
10.000000092053504
 50
0
 51
90
  0
ARC
  8
_0-0_containe
  6
CONTINUOUS
 62
    4
 10
1061.9365048170459
 20
1080.1045612065109
 40
10.000000092053504
 50
0
 51
90
  0
ARC
  8
_0-0_containe
  6
CONTINUOUS
 62
    4
 10
631.93648537534591
 20
1080.1045612065109
 40
10.000000092053504
 50
90
 51
180
  0
ARC
  8
_0-0_containe
  6
CONTINUOUS
 62
    4
 10
795.93665410573919
 20
1017.1045900450329
 40
5.0000000460267522
 50
180
 51
270
  0
ARC
  8
_0-0_containe
  6
CONTINUOUS
 62
    4
 10
897.93633608665289
 20
1017.1045900450329
 40
5.0000000460267522
 50
270
 51
0
  0
ARC
  8
_0-0_containe
  6
CONTINUOUS
 62
    4
 10
1052.4363862815881
 20
1019.1045498066046
 40
5.0000000460267522
 50
0
 51
90
  0
ARC
  8
_0-0_containe
  6
CONTINUOUS
 62
    4
 10
1052.4363862815881
 20
1017.1045900450329
 40
5.0000000460267522
 50
270
 51
0
  0
ARC
  8
_0-0_containe
  6
CONTINUOUS
 62
    4
 10
922.4365244354891
 20
1017.1045900450329
 40
5.0000000460267522
 50
180
 51
270
  0
ARC
  8
_0-0_containe
  6
CONTINUOUS
 62
    4
 10
922.4365244354891
 20
1019.1045498066046
 40
5.0000000460267522
 50
90
 51
180
  0
ARC
  8
_0-0_containe
  6
CONTINUOUS
 62
    4
 10
641.4366039108038
 20
1019.1045498066046
 40
5.0000000460267522
 50
90
 51
180
  0
ARC
  8
_0-0_containe
  6
CONTINUOUS
 62
    4
 10
641.4366039108038
 20
1017.1045900450329
 40
5.0000000460267522
 50
180
 51
270
  0
ARC
  8
_0-0_containe
  6
CONTINUOUS
 62
    4
 10
771.43646575690263
 20
1017.1045900450329
 40
5.0000000460267522
 50
270
 51
0
  0
ARC
  8
_0-0_containe
  6
CONTINUOUS
 62
    4
 10
771.43646575690263
 20
1019.1045498066046
 40
5.0000000460267522
 50
0
 51
90
  0
ARC
  8
_0-2_free
  6
CONTINUOUS
 62
    3
 10
566.93643058509929
 20
1107.1045134565163
 40
5.0000000460267522
 50
90
 51
180
  0
ARC
  8
_0-2_free
  6
CONTINUOUS
 62
    3
 10
797.93636613291687
 20
1107.1045134565163
 40
5.0000000460267522
 50
0
 51
90
  0
ARC
  8
_0-2_free
  6
CONTINUOUS
 62
    3
 10
895.93637632508091
 20
1107.1045134565163
 40
5.0000000460267522
 50
90
 51
180
  0
ARC
  8
_0-2_free
  6
CONTINUOUS
 62
    3
 10
1126.9365596072926
 20
1107.1045134565163
 40
5.0000000460267522
 50
0
 51
90
  0
ARC
  8
_0-0_containe
  6
CONTINUOUS
 62
    4
 10
1403.2879919657285
 20
640.93353837158566
 40
5.0000000460267522
 50
180
 51
265.914306640625
  0
ARC
  8
_0-0_containe
  6
CONTINUOUS
 62
    4
 10
1403.2879919657285
 20
647.90540355058124
 40
5.0000000460267522
 50
98.74627685546875
 51
180
  0
ARC
  8
_0-0_containe
  6
CONTINUOUS
 62
    4
 10
1506.2880254290189
 20
705.8383392873958
 40
10.000000092053504
 50
273.8377685546875
 51
0
  0
ARC
  8
_0-0_containe
  6
CONTINUOUS
 62
    4
 10
1391.2879856619047
 20
657.10452479750825
 40
5.0000000460267522
 50
93.838119506835938
 51
180
  0
ARC
  8
_0-0_containe
  6
CONTINUOUS
 62
    4
 10
1396.2880089330311
 20
632.13401270194277
 40
10.000000092053504
 50
180
 51
265.60116577148437
  0
ARC
  8
_0-0_containe
  6
CONTINUOUS
 62
    4
 10
1396.2880089330311
 20
1092.0749632502695
 40
10.000000092053504
 50
94.398666381835938
 51
180
  0
ARC
  8
_0-0_containe
  6
CONTINUOUS
 62
    4
 10
1403.2879919657285
 20
1082.5976362790461
 40
5.0000000460267522
 50
94.398468017578125
 51
180
  0
ARC
  8
_0-0_containe
  6
CONTINUOUS
 62
    4
 10
1403.2879919657285
 20
1021.3036880208338
 40
5.0000000460267522
 50
180
 51
261.25372314453125
  0
ARC
  8
_0-0_containe
  6
CONTINUOUS
 62
    4
 10
1506.2880254290189
 20
989.3563560583957
 40
10.000000092053504
 50
0
 51
86.1622314453125
  0
ARC
  8
_0-0_containe
  6
CONTINUOUS
 62
    4
 10
1391.2879856619047
 20
1012.1045667739068
 40
5.0000000460267522
 50
180
 51
266.16188049316406
  0
ARC
  8
_0-0_containe
  6
CONTINUOUS
 62
    4
 10
651.93657845985058
 20
982.10455101434661
 40
10.000000092053504
 50
90
 51
180
  0
ARC
  8
_0-0_containe
  6
CONTINUOUS
 62
    4
 10
1041.9364117325415
 20
982.10455101434661
 40
10.000000092053504
 50
0
 51
90
  0
TEXT
  8
_0-9_measure
 62
    3
 10
510.93656714310498
 20
813.35447221654601
 40
12.5
 41
1
 50
90.00000250447826
  1
３６０
  0
TEXT
  8
_0-9_measure
 62
    3
 10
510.93656686990869
 20
1044.6044665460502
 40
12.5
 41
1
 50
90.00000250447782
  1
９０
  0
TEXT
  8
_0-9_measure
 62
    3
 10
510.93656686990869
 20
624.60430784580683
 40
12.5
 41
1
 50
90.00000250447782
  1
３０
  0
TEXT
  8
_0-9_measure
 62
    3
 10
485.93645078747414
 20
843.35448797610616
 40
12.5
 41
1
 50
90.00000250447826
  1
４８０
  0
TEXT
  8
_0-9_measure
 62
    3
 10
834.43649509619604
 20
1163.1045015852962
 40
12.5
 41
1
 50
0
  1
８８
  0
TEXT
  8
_0-9_measure
 62
    3
 10
584.43644634465943
 20
563.10449606208613
 40
12.5
 41
1
 50
0
  1
５０
  0
TEXT
  8
_0-9_measure
 62
    3
 10
828.18649509619604
 20
563.10449606208613
 40
12.5
 41
1
 50
0
  1
４５０
  0
TEXT
  8
_0-9_measure
 62
    3
 10
1084.4365438477323
 20
563.10449606208613
 40
12.5
 41
1
 50
0
  1
５０
  0
TEXT
  8
_0-9_measure
 62
    3
 10
828.18649509619604
 20
538.1045035736521
 40
12.5
 41
1
 50
0
  1
５５０
  0
TEXT
  8
_0-9_measure
 62
    3
 10
1180.9364649268925
 20
1000.8544778133991
 40
12.5
 41
1
 50
90.00000250447826
  1
１６５
  0
TEXT
  8
_0-9_measure
 62
    3
 10
1335.2881219467145
 20
604.60446249569588
 40
12.5
 41
1
 50
90.000002504478147
  1
１０
  0
TEXT
  8
_0-9_measure
 62
    3
 10
1335.2881222199105
 20
843.35448797610616
 40
12.5
 41
1
 50
90.00000250447826
  1
４８０
  0
TEXT
  8
_0-9_measure
 62
    3
 10
1335.2881219467145
 20
1094.604451522918
 40
12.5
 41
1
 50
90.000002504478147
  1
１０
  0
TEXT
  8
_0-9_measure
 62
    3
 10
1437.5380404521511
 20
563.10443412848758
 40
12.5
 41
1
 50
0
  1
１４０
  0
TEXT
  8
_0-7_word
 62
    3
 10
894.04573724457691
 20
1139.7837766855919
 40
15
 41
1
 50
0
  1
Ａ’
  0
TEXT
  8
_0-7_word
 62
    3
 10
901.54561337737982
 20
571.76758201431448
 40
15
 41
1
 50
0
  1
Ａ
  0
POINT
  8
_0-9_measure
 62
    5
 10
511.93642233710534
 20
622.10442383322356
  0
POINT
  8
_0-9_measure
 62
    5
 10
511.93642233710534
 20
652.10425379198819
  0
POINT
  8
_0-9_measure
 62
    5
 10
511.93642233710534
 20
652.10425379198819
  0
POINT
  8
_0-9_measure
 62
    5
 10
511.93642233710534
 20
1012.1045667739068
  0
POINT
  8
_0-9_measure
 62
    5
 10
511.93642233710534
 20
1102.1044901853902
  0
POINT
  8
_0-9_measure
 62
    5
 10
486.93655371586829
 20
1102.1044901853902
  0
POINT
  8
_0-9_measure
 62
    5
 10
486.93655371586829
 20
622.10442383322356
  0
POINT
  8
_0-9_measure
 62
    5
 10
802.93638940404321
 20
1162.1045217045107
  0
POINT
  8
_0-9_measure
 62
    5
 10
890.9363530539548
 20
1162.1045217045107
  0
POINT
  8
_0-9_measure
 62
    5
 10
571.9364538562254
 20
562.10451618130026
  0
POINT
  8
_0-9_measure
 62
    5
 10
621.93643883309335
 20
562.10451618130026
  0
POINT
  8
_0-9_measure
 62
    5
 10
1071.9365513592988
 20
562.10451618130026
  0
POINT
  8
_0-9_measure
 62
    5
 10
1121.9365363361662
 20
562.10451618130026
  0
POINT
  8
_0-9_measure
 62
    5
 10
571.9364538562254
 20
537.10452369286622
  0
POINT
  8
_0-9_measure
 62
    5
 10
1121.9365363361662
 20
537.10452369286622
  0
POINT
  8
_0-9_measure
 62
    5
 10
1181.9365678552867
 20
1102.1044901853902
  0
POINT
  8
_0-9_measure
 62
    5
 10
1181.9365678552867
 20
937.10446544140791
  0
POINT
  8
_0-9_measure
 62
    5
 10
1336.2879774139105
 20
612.10443922456966
  0
POINT
  8
_0-9_measure
 62
    5
 10
1336.2879774139105
 20
622.10448576682199
  0
POINT
  8
_0-9_measure
 62
    5
 10
1336.2879774139105
 20
1102.1044901853902
  0
POINT
  8
_0-9_measure
 62
    5
 10
1336.2879774139105
 20
1112.1045367276427
  0
POINT
  8
_0-9_measure
 62
    5
 10
1526.2878707791299
 20
562.10445424770171
  0
POINT
  8
_0-9_measure
 62
    5
 10
1386.2879623907788
 20
562.10445424770171
  0
TEXT
  8
_0-4_free
 62
    3
 10
665.82103301847167
 20
1161.6507961621694
 40
12.5
 41
1
 50
0
  1
①アジャスター
  0
LINE
  8
_0-4_free
  6
CONTINUOUS
 62
    4
 10
761.65145266851425
 20
1158.4380526754926
 11
657.2316742530478
 21
1158.4380526754926
  0
LINE
  8
_0-4_free
  6
CONTINUOUS
 62
    7
 10
1516.2880719712712
 20
905.94206513493714
 11
1519.2881066128461
 21
905.94206513493714
  0
LINE
  8
_0-4_free
  6
CONTINUOUS
 62
    7
 10
1521.2881132112416
 20
909.94207833172766
 11
1519.2881066128461
 21
909.94207833172766
  0
LINE
  8
_0-4_free
  6
CONTINUOUS
 62
    7
 10
1524.2881231088345
 20
912.94208822932069
 11
1521.2881132112416
 21
912.94208822932069
  0
LINE
  8
_0-4_free
  6
CONTINUOUS
 62
    7
 10
1526.2881049632474
 20
909.94207833172766
 11
1524.2881231088345
 21
909.94207833172766
  0
LINE
  8
_0-4_free
  6
CONTINUOUS
 62
    7
 10
1516.2880719712712
 20
905.94206513493714
 11
1516.7880488768878
 21
911.94208493012297
  0
LINE
  8
_0-4_free
  6
CONTINUOUS
 62
    7
 10
1518.7880554752833
 20
911.94208493012297
 11
1516.7880488768878
 21
911.94208493012297
  0
LINE
  8
_0-4_free
  6
CONTINUOUS
 62
    7
 10
1518.7880554752833
 20
915.94209812691361
 11
1526.2881049632474
 21
918.4420321429609
  0
LINE
  8
_0-4_free
  6
CONTINUOUS
 62
    7
 10
1518.788154451212
 20
955.94208163092526
 11
1526.2881049632474
 21
953.44204863894902
  0
LINE
  8
_0-4_free
  6
CONTINUOUS
 62
    7
 10
1524.2882220847637
 20
958.94209152851829
 11
1521.2881874431882
 21
958.94209152851829
  0
LINE
  8
_0-4_free
  6
CONTINUOUS
 62
    7
 10
1521.2881874431882
 20
961.94205193814673
 11
1519.2882055887753
 21
961.94205193814673
  0
LINE
  8
_0-4_free
  6
CONTINUOUS
 62
    7
 10
1519.2881066128461
 20
965.94206513493737
 11
1516.2881709472003
 21
965.94206513493737
  0
LINE
  8
_0-4_free
  6
CONTINUOUS
 62
    7
 10
1518.788154451212
 20
959.94209482771589
 11
1516.7881478528168
 21
959.94209482771589
  0
LINE
  8
_0-4_free
  6
CONTINUOUS
 62
    7
 10
1516.2881709472003
 20
965.94206513493737
 11
1516.7881478528168
 21
959.94209482771589
  0
LINE
  8
_0-4_free
  6
CONTINUOUS
 62
    7
 10
1526.2881049632474
 20
953.44204863894902
 11
1526.2881049632474
 21
961.94205193814673
  0
LINE
  8
_0-4_free
  6
CONTINUOUS
 62
    7
 10
1524.2881231088345
 20
961.94205193814673
 11
1524.2881231088345
 21
958.94209152851829
  0
LINE
  8
_0-4_free
  6
CONTINUOUS
 62
    7
 10
1524.2881231088345
 20
912.94208822932069
 11
1524.2881231088345
 21
909.94207833172766
  0
LINE
  8
_0-4_free
  6
CONTINUOUS
 62
    7
 10
1521.2881132112416
 20
961.94205193814673
 11
1521.2881132112416
 21
958.94209152851829
  0
LINE
  8
_0-4_free
  6
CONTINUOUS
 62
    7
 10
1521.2881132112416
 20
912.94208822932069
 11
1521.2881132112416
 21
909.94207833172766
  0
LINE
  8
_0-4_free
  6
CONTINUOUS
 62
    7
 10
1519.2881066128461
 20
965.94206513493737
 11
1519.2881066128461
 21
961.94205193814673
  0
LINE
  8
_0-4_free
  6
CONTINUOUS
 62
    7
 10
1519.2881066128461
 20
909.94207833172766
 11
1519.2881066128461
 21
905.94206513493714
  0
LINE
  8
_0-4_free
  6
CONTINUOUS
 62
    7
 10
1518.7880554752833
 20
959.94209482771589
 11
1518.7880554752833
 21
955.94208163092526
  0
LINE
  8
_0-4_free
  6
CONTINUOUS
 62
    7
 10
1518.7880554752833
 20
915.94209812691361
 11
1518.7880554752833
 21
911.94208493012297
  0
LINE
  8
_0-4_free
  6
CONTINUOUS
 62
    7
 10
1526.2881049632474
 20
909.94207833172766
 11
1526.2881049632474
 21
918.4420321429609
  0
LINE
  8
_0-4_free
  6
CONTINUOUS
 62
    7
 10
1526.2881049632474
 20
953.44204863894902
 11
1526.2881049632474
 21
961.94205193814673
  0
LINE
  8
_0-4_free
  6
CONTINUOUS
 62
    7
 10
1516.7880488768878
 20
959.9420453397513
 11
1518.7880554752833
 21
959.9420453397513
  0
LINE
  8
_0-4_free
  6
CONTINUOUS
 62
    7
 10
1518.7880554752833
 20
911.9420354421585
 11
1516.7880488768878
 21
911.9420354421585
  0
LINE
  8
_0-4_free
  6
CONTINUOUS
 62
    7
 10
1527.7880604240795
 20
933.94205853654194
 11
1527.7880604240795
 21
937.94207173333245
  0
LINE
  8
_0-4_free
  6
CONTINUOUS
 62
    7
 10
1516.7880488768878
 20
918.4420321429609
 11
1524.7880752704689
 21
921.94206843413485
  0
LINE
  8
_0-4_free
  6
CONTINUOUS
 62
    7
 10
1524.7880752704689
 20
921.94206843413485
 11
1556.7880571248818
 21
921.94206843413485
  0
LINE
  8
_0-4_free
  6
CONTINUOUS
 62
    7
 10
1516.7880488768878
 20
953.44204863894902
 11
1524.7880752704689
 21
949.94206183573954
  0
LINE
  8
_0-4_free
  6
CONTINUOUS
 62
    7
 10
1524.7880752704689
 20
949.94206183573954
 11
1556.7880571248818
 21
949.94206183573954
  0
LINE
  8
_0-4_free
  6
CONTINUOUS
 62
    4
 10
1524.7880752704689
 20
921.94206843413485
 11
1524.7880752704689
 21
949.94206183573954
  0
LINE
  8
_0-4_free
  6
CONTINUOUS
 62
    4
 10
1525.7880785696666
 20
949.94206183573954
 11
1525.7880785696666
 21
921.94206843413485
  0
LINE
  8
_0-4_free
  6
CONTINUOUS
 62
    4
 10
1527.7880604240795
 20
949.94206183573954
 11
1527.7880604240795
 21
937.94207173333245
  0
LINE
  8
_0-4_free
  6
CONTINUOUS
 62
    4
 10
1527.7880604240795
 20
933.94205853654194
 11
1527.7880604240795
 21
921.94206843413485
  0
LINE
  8
_0-4_free
  6
CONTINUOUS
 62
    7
 10
1516.7880488768878
 20
911.9420354421585
 11
1516.7880488768878
 21
918.4420321429609
  0
LINE
  8
_0-4_free
  6
CONTINUOUS
 62
    7
 10
1516.7880488768878
 20
953.44204863894902
 11
1516.7880488768878
 21
959.9420453397513
  0
LINE
  8
_0-4_free
  6
CONTINUOUS
 62
    7
 10
1518.7880554752833
 20
916.90929090562975
 11
1518.7880554752833
 21
911.9420354421585
  0
LINE
  8
_0-4_free
  6
CONTINUOUS
 62
    7
 10
1518.7880554752833
 20
959.9420453397513
 11
1518.7880554752833
 21
954.97478987628006
  0
LINE
  8
_0-4_free
  6
CONTINUOUS
 62
    4
 10
1516.7880488768878
 20
918.4420321429609
 11
1516.7880488768878
 21
953.44204863894902
  0
LINE
  8
_0-4_free
  6
CONTINUOUS
 62
    4
 10
1556.7880571248818
 20
921.94206843413485
 11
1556.7880571248818
 21
949.94206183573954
  0
LINE
  8
_0-4_free
  6
CONTINUOUS
 62
    7
 10
1556.7880571248818
 20
919.94206183573954
 11
1556.7880571248818
 21
921.94206843413485
  0
LINE
  8
_0-4_free
  6
CONTINUOUS
 62
    7
 10
1556.7880571248818
 20
949.94206183573954
 11
1556.7880571248818
 21
951.94206843413485
  0
LINE
  8
_0-4_free
  6
CONTINUOUS
 62
    7
 10
1527.7880604240795
 20
919.94206183573954
 11
1556.7880571248818
 21
919.94206183573954
  0
LINE
  8
_0-4_free
  6
CONTINUOUS
 62
    7
 10
1518.7880554752833
 20
916.90929090562975
 11
1527.7880604240795
 21
919.94206183573954
  0
LINE
  8
_0-4_free
  6
CONTINUOUS
 62
    7
 10
1518.7880554752833
 20
954.97478987628006
 11
1527.7880604240795
 21
951.94206843413485
  0
LINE
  8
_0-4_free
  6
CONTINUOUS
 62
    7
 10
1527.7880604240795
 20
951.94206843413485
 11
1556.7880571248818
 21
951.94206843413485
  0
LINE
  8
_0-4_free
  6
CONTINUOUS
 62
    4
 10
1526.2881049632474
 20
918.4420321429609
 11
1526.2881049632474
 21
919.43659176606047
  0
LINE
  8
_0-4_free
  6
CONTINUOUS
 62
    4
 10
1526.2881049632474
 20
952.44748901584921
 11
1526.2881049632474
 21
953.44204863894902
  0
LINE
  8
_0-4_free
  6
CONTINUOUS
 62
    2
 10
1516.2880719712712
 20
905.80245958700641
 11
1516.2880719712712
 21
905.94206513493714
  0
LINE
  8
_0-4_free
  6
CONTINUOUS
 62
    2
 10
1516.2880719712712
 20
966.08167068286798
 11
1516.2880719712712
 21
965.94206513493737
  0
ARC
  8
_0-4_free
  6
CONTINUOUS
 62
    7
 10
1527.7880604240795
 20
935.94206513493737
 40
2.0000000257749817
 50
90
 51
270
  0
LINE
  8
_0-0_containe
  6
CONTINUOUS
 62
    4
 10
1516.2880719712712
 20
705.8383392873958
 11
1516.2880719712712
 21
905.94206513493714
  0
LINE
  8
_0-0_containe
  6
CONTINUOUS
 62
    4
 10
1516.2880719712712
 20
965.94206513493737
 11
1516.2880719712712
 21
989.3563560583957
  0
LINE
  8
_0-a_hatch
  6
CONTINUOUS
 62
    3
 10
1519.2881066128461
 20
964.96406433143852
 11
1526.2878707791299
 21
971.96391520358293
  0
LINE
  8
_0-a_hatch
  6
CONTINUOUS
 62
    3
 10
1523.8727140300946
 20
958.94209152851829
 11
1524.2881231088345
 21
959.35750795520948
  0
LINE
  8
_0-3_free
  6
CONTINUOUS
 62
    7
 10
1526.2878707791299
 20
1097.0738717166232
 11
1526.2878707791299
 21
961.94205193814673
  0
LINE
  8
_0-9_measure
  6
CONTINUOUS
 62
    3
 10
1589.4310741977229
 20
951.94206843413485
 11
1589.4310741977229
 21
919.94206183573954
  0
POINT
  8
_0-9_measure
 62
    5
 10
1589.4310741977229
 20
951.94206843413485
  0
POINT
  8
_0-9_measure
 62
    5
 10
1589.4310741977229
 20
919.94206183573954
  0
LINE
  8
_0-9_measure
  6
CONTINUOUS
 62
    4
 10
1589.4310741977229
 20
951.94206843413485
 11
1563.8776733801421
 21
951.94206843413485
  0
LINE
  8
_0-9_measure
  6
CONTINUOUS
 62
    4
 10
1589.4310741977229
 20
919.94206183573954
 11
1563.8776733801421
 21
919.94206183573954
  0
LINE
  8
_0-0_containe
  6
CONTINUOUS
 62
    4
 10
845.43750465067228
 20
938.60512619759038
 11
848.43697018065541
 21
935.60528950787329
  0
LINE
  8
_0-0_containe
  6
CONTINUOUS
 62
    4
 10
848.43697018065541
 20
938.60512619759038
 11
845.43750465067228
 21
935.60528950787329
  0
LINE
  8
_0-0_containe
  6
CONTINUOUS
 62
    4
 10
845.43676233120436
 20
938.60586851705818
 11
848.43628972114311
 21
935.60590810742974
  0
LINE
  8
_0-0_containe
  6
CONTINUOUS
 62
    4
 10
848.43628972114311
 20
938.60586851705818
 11
845.43676233120436
 21
935.60590810742974
  0
LINE
  8
_0-0_containe
  6
CONTINUOUS
 62
    4
 10
845.43676233120436
 20
938.60586851705818
 11
848.43628972114311
 21
935.60590810742974
  0
LINE
  8
_0-0_containe
  6
CONTINUOUS
 62
    4
 10
848.43628972114311
 20
938.60586851705818
 11
845.43676233120436
 21
935.60590810742974
  0
LINE
  8
_0-0_containe
  6
CENTER1
 62
    4
 10
846.93649509619604
 20
982.10591305622631
 11
846.93649509619604
 21
892.10586356826184
  0
LINE
  8
_0-0_containe
  6
CONTINUOUS
 62
    7
 10
861.35895817817436
 20
938.60512619759038
 11
848.43697018065541
 21
938.60512619759038
  0
LINE
  8
_0-0_containe
  6
CONTINUOUS
 62
    7
 10
848.43628972114311
 20
922.68361081013256
 11
848.43628972114311
 21
935.60590810742974
  0
LINE
  8
_0-0_containe
  6
CONTINUOUS
 62
    7
 10
861.3585870184404
 20
935.60590810742974
 11
848.43628972114311
 21
935.60590810742974
  0
LINE
  8
_0-0_containe
  6
CONTINUOUS
 62
    7
 10
848.43697018065541
 20
938.60512619759038
 11
848.43697018065541
 21
951.52816581435559
  0
LINE
  8
_0-0_containe
  6
CONTINUOUS
 62
    7
 10
845.43608187169207
 20
938.60512619759038
 11
845.43608187169207
 21
951.52816581435559
  0
LINE
  8
_0-0_containe
  6
CONTINUOUS
 62
    7
 10
832.51409387417311
 20
938.60512619759038
 11
845.43608187169207
 21
938.60512619759038
  0
LINE
  8
_0-0_containe
  6
CONTINUOUS
 62
    7
 10
832.51446503390707
 20
935.60590810742974
 11
845.43676233120436
 21
935.60590810742974
  0
LINE
  8
_0-0_containe
  6
CONTINUOUS
 62
    7
 10
845.43676233120436
 20
922.68361081013256
 11
845.43676233120436
 21
935.60590810742974
  0
CIRCLE
  8
_0-0_containe
  6
CONTINUOUS
 62
    4
 10
846.93655695615166
 20
937.10601203215538
 40
30.00000231974834
  0
CIRCLE
  8
_0-0_containe
  6
CONTINUOUS
 62
    4
 10
846.93723741566384
 20
937.10539343259882
 40
24.000004175547009
  0
CIRCLE
  8
_0-0_containe
  6
CONTINUOUS
 62
    4
 10
846.93723741566384
 20
937.10539343259882
 40
30.00000231974834
  0
CIRCLE
  8
_0-0_containe
  6
CONTINUOUS
 62
    4
 10
846.93723741566384
 20
937.10539343259882
 40
17.500001675373799
  0
CIRCLE
  8
_0-0_containe
  6
CONTINUOUS
 62
    4
 10
846.93655695615166
 20
937.10601203215538
 40
24.000004175547009
  0
CIRCLE
  8
_0-0_containe
  6
CONTINUOUS
 62
    4
 10
846.93655695615166
 20
937.10601203215538
 40
17.500001675373799
  0
CIRCLE
  8
_0-0_containe
  6
CONTINUOUS
 62
    4
 10
846.93655695615166
 20
937.10601203215538
 40
24.000004175547009
  0
CIRCLE
  8
_0-0_containe
  6
CONTINUOUS
 62
    4
 10
846.93655695615166
 20
937.10601203215538
 40
14.500001636711328
  0
CIRCLE
  8
_0-0_containe
  6
CONTINUOUS
 62
    4
 10
846.93655695615166
 20
937.10601203215538
 40
30.00000231974834
  0
CIRCLE
  8
_0-0_containe
  6
CONTINUOUS
 62
    4
 10
846.93655695615166
 20
937.10601203215538
 40
17.500001675373799
  0
CIRCLE
  8
_0-0_containe
  6
CONTINUOUS
 62
    4
 10
846.93649509619604
 20
937.10588831224402
 40
31.499999922675062
  0
CIRCLE
  8
_0-0_containe
  6
CONTINUOUS
 62
    7
 10
846.93649509619604
 20
937.10588831224402
 40
30.500000876349379
  0
CIRCLE
  8
_0-0_containe
  6
CONTINUOUS
 62
    7
 10
846.93655695615166
 20
937.10601203215538
 40
14.500001636711328
  0
LINE
  8
_0-4_free
  6
CONTINUOUS
 62
    4
 10
809.69601849054868
 20
967.01309483951241
 11
705.27624007508223
 21
967.01309483951241
  0
TEXT
  8
_0-4_free
 62
    3
 10
726.3655988405061
 20
970.2258383261892
 40
12.5
 41
1
 50
0
  1
③排水下口
  0
LINE
  8
_0-4_free
  6
CONTINUOUS
 62
    4
 10
827.5477315048845
 20
937.10446544140791
 11
809.69601849054868
 21
967.01309483951241
  0
LINE
  8
_0-4_free
  6
CONTINUOUS
 62
    4
 10
884.1769717018434
 20
967.01309483951241
 11
988.59675011730985
 21
967.01309483951241
  0
LINE
  8
_0-4_free
  6
CONTINUOUS
 62
    4
 10
872.47081304324752
 20
947.40068225399773
 11
884.1769717018434
 21
967.01309483951241
  0
TEXT
  8
_0-4_free
 62
    3
 10
905.00739135188599
 20
970.2258383261892
 40
12.5
 41
1
 50
0
  1
③排水上口
  0
LINE
  8
_0-9_measure
  6
CONTINUOUS
 62
    4
 10
691.42311585790003
 20
1012.1045667739068
 11
778.26377137138138
 21
1012.1045667739068
  0
LINE
  8
_0-9_measure
  6
CONTINUOUS
 62
    4
 10
1131.9365828784184
 20
999.68369542966786
 11
1131.9365828784184
 21
985.02014953152127
  0
LINE
  8
_0-9_measure
  6
CONTINUOUS
 62
    3
 10
846.93649509619604
 20
996.81520509071311
 11
1131.9365828784184
 21
996.81520509071311
  0
POINT
  8
_0-9_measure
 62
    5
 10
846.93649509619604
 20
996.81520509071311
  0
POINT
  8
_0-9_measure
 62
    5
 10
1131.9365828784184
 20
996.81520509071311
  0
TEXT
  8
_0-9_measure
 62
    3
 10
980.06153898730736
 20
997.81520509071311
 40
12.5
 41
1
 50
0
  1
２８５
  0
LINE
  8
_0-9_measure
  6
CONTINUOUS
 62
    4
 10
846.93649509619604
 20
996.81520509071311
 11
846.93649509619604
 21
982.10591305622631
  0
LINE
  8
_0-7_word
  6
CONTINUOUS
 62
    3
 10
918.76807353132051
 20
482.49067290406038
 11
918.76807353132051
 21
518.41333675105216
  0
LINE
  8
_0-7_word
  6
CONTINUOUS
 62
    3
 10
918.76807353132051
 20
518.41333675105216
 11
775.1046689266775
 21
518.41333675105216
  0
LINE
  8
_0-7_word
  6
CONTINUOUS
 62
    3
 10
775.1046689266775
 20
518.41333675105216
 11
775.1046689266775
 21
482.49067290406038
  0
LINE
  8
_0-7_word
  6
CONTINUOUS
 62
    3
 10
775.1046689266775
 20
482.49067290406038
 11
918.76807353132051
 21
482.49067290406038
  0
LINE
  8
_0-7_word
  6
CONTINUOUS
 62
    3
 10
1565.2919169504582
 20
482.49067290406038
 11
1565.2919169504582
 21
518.41327481745361
  0
LINE
  8
_0-7_word
  6
CONTINUOUS
 62
    3
 10
1565.2919169504582
 20
518.41327481745361
 11
1347.2841639538437
 21
518.41327481745361
  0
LINE
  8
_0-7_word
  6
CONTINUOUS
 62
    3
 10
1347.2841639538437
 20
518.41327481745361
 11
1347.2841639538437
 21
482.49067290406038
  0
LINE
  8
_0-7_word
  6
CONTINUOUS
 62
    3
 10
1347.2841639538437
 20
482.49067290406038
 11
1565.2919169504582
 21
482.49067290406038
  0
TEXT
  8
_0-7_word
 62
    3
 10
794.48987022250799
 20
491.06222099776039
 40
20
 41
1
 50
0
  1
平　面　図
  0
TEXT
  8
_0-7_word
 62
    3
 10
1363.8415394456601
 20
491.06215906416202
 40
20
 41
1
 50
0
  1
Ａ－Ａ’断　面　図
  0
LINE
  8
_0-7_word
  6
CONTINUOUS
 62
    3
 10
775.10466892667773
 20
482.49067290406038
 11
918.76782579692735
 21
482.49067290406038
  0
LINE
  8
_0-0_containe
  6
CONTINUOUS
 62
    3
 10
815.43649517352094
 20
838.21233422865112
 11
878.43649501887114
 21
838.21233422865112
  0
POINT
  8
_0-0_containe
 62
    5
 10
815.43649517352094
 20
838.21233422865112
  0
POINT
  8
_0-0_containe
 62
    5
 10
878.43649501887114
 20
838.21233422865112
  0
LINE
  8
_0-0_containe
  6
CONTINUOUS
 62
    3
 10
832.43655540192105
 20
860.2789225085952
 11
861.43655851038216
 21
860.2789225085952
  0
POINT
  8
_0-0_containe
 62
    5
 10
832.43655540192105
 20
860.2789225085952
  0
POINT
  8
_0-0_containe
 62
    5
 10
861.43655851038216
 20
860.2789225085952
  0
TEXT
  8
_0-0_containe
 62
    3
 10
834.43649509619604
 20
839.21233424355228
 40
12.5
 41
1
 50
0
  1
６３
  0
TEXT
  8
_0-0_containe
 62
    3
 10
834.43655695615166
 20
861.27892252349636
 40
12.5
 41
1
 50
0
  1
２９
  0
LINE
  8
_0-0_containe
  6
CONTINUOUS
 62
    4
 10
815.43649517352094
 20
838.21233422865112
 11
815.43649517352094
 21
902.90482716533324
  0
LINE
  8
_0-0_containe
  6
CONTINUOUS
 62
    4
 10
832.43655540192105
 20
860.2789225085952
 11
832.43655540192105
 21
902.90482716533324
  0
LINE
  8
_0-0_containe
  6
CONTINUOUS
 62
    4
 10
861.43655851038216
 20
860.2789225085952
 11
861.43655851038216
 21
902.90482716533324
  0
LINE
  8
_0-0_containe
  6
CONTINUOUS
 62
    4
 10
878.43649501887114
 20
838.21233422865112
 11
878.43649501887114
 21
902.90482716533324
  0
LINE
  8
_0-b_free
  6
DASHED2
 62
    7
 10
875.43637122899895
 20
1036.6044724356334
 11
818.43637122899906
 21
1036.6044724356334
  0
ARC
  8
_0-b_free
  6
CONTINUOUS
 62
    7
 10
803.43637122899906
 20
1023.6044724356334
 40
5
 50
180
 51
270
  0
LINE
  8
_0-b_free
  6
CONTINUOUS
 62
    7
 10
890.43637122899895
 20
1018.6044724356334
 11
803.43637122899906
 21
1018.6044724356334
  0
ARC
  8
_0-b_free
  6
CONTINUOUS
 62
    7
 10
890.43637122899895
 20
1023.6044724356334
 40
5
 50
270
 51
0
  0
ARC
  8
_0-b_free
  6
CONTINUOUS
 62
    7
 10
846.93637122899895
 20
1067.1044724356334
 40
30.500000000000004
 50
180
 51
0
  0
LINE
  8
_0-b_free
  6
CONTINUOUS
 62
    7
 10
877.43637122899918
 20
1067.1044724356334
 11
877.43637122899918
 21
1096.6044724356334
  0
LINE
  8
_0-b_free
  6
CONTINUOUS
 62
    7
 10
816.43637122899906
 20
1067.1044724356334
 11
816.43637122899906
 21
1096.6044724356334
  0
ARC
  8
_0-b_free
  6
DASHED2
 62
    7
 10
818.43637122899906
 20
1038.6044724356334
 40
2
 50
180
 51
270
  0
ARC
  8
_0-b_free
  6
DASHED2
 62
    7
 10
875.43637122899895
 20
1038.6044724356334
 40
2
 50
270
 51
0
  0
LINE
  8
_0-b_free
  6
DASHED2
 62
    7
 10
877.43637122899918
 20
1038.6044724356334
 11
877.43637122899918
 21
1067.1044724356334
  0
LINE
  8
_0-b_free
  6
DASHED2
 62
    7
 10
816.43637122899906
 20
1038.6044724356334
 11
816.43637122899906
 21
1067.1044724356334
  0
ARC
  8
_0-b_free
  6
DASHED2
 62
    7
 10
808.93637122899906
 20
1029.1044724356334
 40
5
 50
180
 51
270
  0
LINE
  8
_0-b_free
  6
DASHED2
 62
    7
 10
884.93637122899918
 20
1024.1044724356334
 11
808.93637122899906
 21
1024.1044724356334
  0
ARC
  8
_0-b_free
  6
DASHED2
 62
    7
 10
884.93637122899918
 20
1029.1044724356334
 40
5
 50
270
 51
0
  0
LINE
  8
_0-b_free
  6
DASHED2
 62
    7
 10
803.93637122899906
 20
1029.1044724356334
 11
803.93637122899906
 21
1091.6044724356334
  0
LINE
  8
_0-b_free
  6
DASHED2
 62
    7
 10
889.93637122899918
 20
1029.1044724356334
 11
889.93637122899918
 21
1091.6044724356334
  0
LINE
  8
_0-b_free
  6
DASHED1
 62
    7
 10
847.93637122899895
 20
1026.1044724356334
 11
847.93637122899895
 21
1036.6044724356334
  0
LINE
  8
_0-b_free
  6
DASHED1
 62
    7
 10
845.93637122899906
 20
1026.1044724356334
 11
845.93637122899906
 21
1036.6044724356334
  0
ARC
  8
_0-b_free
  6
DASHED1
 62
    7
 10
818.43637122899906
 20
1038.6044724356334
 40
1.5000000000000002
 50
180
 51
270
  0
ARC
  8
_0-b_free
  6
DASHED1
 62
    7
 10
875.43637122899895
 20
1038.6044724356334
 40
1.5000000000000002
 50
270
 51
0
  0
LINE
  8
_0-b_free
  6
DASHED1
 62
    7
 10
876.93637122899895
 20
1038.6044724356334
 11
876.93637122899895
 21
1061.6044724356334
  0
LINE
  8
_0-b_free
  6
DASHED1
 62
    7
 10
816.93637122899895
 20
1038.6044724356334
 11
816.93637122899895
 21
1061.6044724356334
  0
LINE
  8
_0-b_free
  6
DASHED1
 62
    7
 10
841.43637122899906
 20
1037.1044724356334
 11
818.43637122899906
 21
1037.1044724356334
  0
LINE
  8
_0-b_free
  6
DASHED1
 62
    7
 10
875.43637122899895
 20
1037.1044724356334
 11
852.43637122899918
 21
1037.1044724356334
  0
LINE
  8
_0-b_free
  6
CONTINUOUS
 62
    7
 10
894.43637122899895
 20
1096.6044724356334
 11
877.43637122899918
 21
1096.6044724356334
  0
LINE
  8
_0-b_free
  6
CONTINUOUS
 62
    7
 10
895.43637122899895
 20
1095.6044724356334
 11
895.43637122899895
 21
1023.6044724356334
  0
ARC
  8
_0-b_free
  6
CONTINUOUS
 62
    7
 10
894.43637122899895
 20
1095.6044724356334
 40
1
 50
0
 51
90
  0
LINE
  8
_0-b_free
  6
CONTINUOUS
 62
    7
 10
798.43637122899906
 20
1095.6044724356334
 11
798.43637122899906
 21
1023.6044724356334
  0
LINE
  8
_0-b_free
  6
CONTINUOUS
 62
    7
 10
799.43637122899895
 20
1096.6044724356334
 11
816.43637122899906
 21
1096.6044724356334
  0
ARC
  8
_0-b_free
  6
CONTINUOUS
 62
    7
 10
799.43637122899895
 20
1095.6044724356334
 40
1
 50
90
 51
180
  0
LINE
  8
_0-b_free
  6
DASHED2
 62
    7
 10
806.93637122899895
 20
1029.1044724356334
 11
806.93637122899895
 21
1091.6044724356334
  0
ARC
  8
_0-b_free
  6
DASHED2
 62
    7
 10
808.93637122899906
 20
1029.1044724356334
 40
2
 50
180
 51
270
  0
LINE
  8
_0-b_free
  6
DASHED2
 62
    7
 10
884.93637122899918
 20
1027.1044724356334
 11
808.93637122899906
 21
1027.1044724356334
  0
ARC
  8
_0-b_free
  6
DASHED2
 62
    7
 10
884.93637122899918
 20
1029.1044724356334
 40
2
 50
270
 51
0
  0
LINE
  8
_0-b_free
  6
DASHED2
 62
    7
 10
886.93637122899895
 20
1029.1044724356334
 11
886.93637122899895
 21
1091.6044724356334
  0
LINE
  8
_0-b_free
  6
DASHED2
 62
    7
 10
803.93637122899906
 20
1091.6044724356334
 11
806.93637122899895
 21
1091.6044724356334
  0
LINE
  8
_0-b_free
  6
DASHED1
 62
    7
 10
806.93637122899895
 20
1088.6044724356334
 11
803.93637122899906
 21
1088.6044724356334
  0
LINE
  8
_0-b_free
  6
DASHED1
 62
    7
 10
816.43637122899906
 20
1068.1044724356334
 11
806.93637122899895
 21
1068.1044724356334
  0
LINE
  8
_0-b_free
  6
DASHED1
 62
    7
 10
816.43637122899906
 20
1066.1044724356334
 11
806.93637122899895
 21
1066.1044724356334
  0
LINE
  8
_0-b_free
  6
DASHED2
 62
    7
 10
886.93637122899895
 20
1091.6044724356334
 11
889.93637122899918
 21
1091.6044724356334
  0
LINE
  8
_0-b_free
  6
DASHED1
 62
    7
 10
889.93637122899918
 20
1088.6044724356334
 11
886.93637122899895
 21
1088.6044724356334
  0
LINE
  8
_0-b_free
  6
DASHED1
 62
    7
 10
886.93637122899895
 20
1068.1044724356334
 11
877.43637122899918
 21
1068.1044724356334
  0
LINE
  8
_0-b_free
  6
DASHED1
 62
    7
 10
886.93637122899895
 20
1066.1044724356334
 11
877.43637122899918
 21
1066.1044724356334
  0
ARC
  8
_0-0_containe
  6
CONTINUOUS
 62
    4
 10
797.93636613291687
 20
1097.1044669142641
 40
5.0000000460267522
 50
354.26089316471183
 51
90
  0
ARC
  8
_0-0_containe
  6
CONTINUOUS
 62
    4
 10
895.93637632508091
 20
1097.1044669142641
 40
5.0000000460267522
 50
90
 51
185.73910683528814
  0
LINE
  8
_0-2_free
  6
CONTINUOUS
 62
    3
 10
890.9363530539548
 20
1107.1045134565163
 11
890.9363530539548
 21
1096.6044724356334
  0
LINE
  8
_0-2_free
  6
CONTINUOUS
 62
    3
 10
802.93638940404321
 20
1107.1045134565163
 11
802.93638940404321
 21
1096.6044724356334
  0
LINE
  8
_0-4_free
  6
CONTINUOUS
 62
    3
 10
846.93637122899895
 20
1096.6044724356334
 11
846.93637122899895
 21
1036.6044724356334
  0
POINT
  8
_0-4_free
 62
    5
 10
846.93637122899895
 20
1096.6044724356334
  0
POINT
  8
_0-4_free
 62
    5
 10
846.93637122899895
 20
1036.6044724356334
  0
LINE
  8
_0-4_free
  6
CONTINUOUS
 62
    4
 10
846.93637122899895
 20
1096.6044724356334
 11
869.29814573440626
 21
1096.6044724356334
  0
LINE
  8
_0-4_free
  6
CONTINUOUS
 62
    4
 10
846.93637122899895
 20
1036.6044724356334
 11
869.29814573440626
 21
1036.6044724356334
  0
TEXT
  8
_0-4_free
 62
    3
 10
845.93637122899906
 20
1048.2712022192484
 40
12.5
 41
1
 50
90
  1
６０
  0
LINE
  8
_0-4_free
  6
CONTINUOUS
 62
    4
 10
816.43637122899906
 20
1117.0433696034872
 11
816.43637122899906
 21
1109.0420441508372
  0
POINT
  8
_0-4_free
 62
    5
 10
816.43637122899906
 20
1117.0433696034872
  0
LINE
  8
_0-4_free
  6
CONTINUOUS
 62
    4
 10
877.43637122899918
 20
1117.0433696034872
 11
877.43637122899918
 21
1109.0420441508372
  0
POINT
  8
_0-4_free
 62
    5
 10
877.43637122899918
 20
1117.0433696034872
  0
TEXT
  8
_0-4_free
 62
    3
 10
833.30781719780362
 20
1119.4044022440989
 40
12.5
 41
1
 50
0
  1
６１
  0
LINE
  8
_0-b_free
  6
CONTINUOUS
 62
    3
 10
1156.9364514996555
 20
1036.6044724356334
 11
1156.9364514996555
 21
937.10446544140791
  0
POINT
  8
_0-b_free
 62
    5
 10
1156.9364514996555
 20
1036.6044724356334
  0
POINT
  8
_0-b_free
 62
    5
 10
1156.9364514996555
 20
937.10446544140791
  0
LINE
  8
_0-b_free
  6
CONTINUOUS
 62
    4
 10
1156.9364514996555
 20
1036.6044724356334
 11
846.93637122899895
 21
1036.6044724356334
  0
LINE
  8
_0-b_free
  6
CONTINUOUS
 62
    4
 10
1156.9364514996555
 20
937.10446544140791
 11
846.93637122899895
 21
937.10446544140791
  0
TEXT
  8
_0-b_free
 62
    3
 10
1155.9364514996557
 20
961.85446893852054
 40
12.5
 41
1
 50
90
  1
９９．５
  0
TEXT
  8
_0-9_measure
 62
    3
 10
1605.8827458480084
 20
896.9035911275522
 40
12.5
 41
1
 50
90
  1
（±０．５）
  0
TEXT
  8
_0-9_measure
 62
    3
 10
1588.4310741828217
 20
923.44206513493714
 40
12.5
 41
1
 50
90
  1
３３
  0
TEXT
  8
_7-0_free
 62
    3
 10
1762.8016545004675
 20
152.93216399873316
 40
15
 41
1
 50
0
  1
2023.10.12
  0
ENDSEC
  0
EOF
