  0
SECTION
  2
HEADER
  9
$ACADVER
  1
AC1015
  9
$ACADMAINTVER
 70
     6
  9
$DWGCODEPAGE
  3
ANSI_932
  9
$INSBASE
 10
0.0
 20
0.0
 30
0.0
  9
$EXTMIN
 10
-120.462715107997
 20
-128.014394416247
 30
0.0
  9
$EXTMAX
 10
228.468844875981
 20
398.575353951767
 30
0.0
  9
$LIMMIN
 10
0.0
 20
0.0
  9
$LIMMAX
 10
12.0
 20
9.0
  9
$ORTHOMODE
 70
     0
  9
$REGENMODE
 70
     1
  9
$FILLMODE
 70
     1
  9
$QTEXTMODE
 70
     0
  9
$MIRRTEXT
 70
     1
  9
$LTSCALE
 40
1.0
  9
$ATTMODE
 70
     1
  9
$TEXTSIZE
 40
0.2
  9
$TRACEWID
 40
0.05
  9
$TEXTSTYLE
  7
Standard
  9
$CLAYER
  8
0
  9
$CELTYPE
  6
ByLayer
  9
$CECOLOR
 62
   256
  9
$CELTSCALE
 40
1.0
  9
$DISPSILH
 70
     0
  9
$DIMSCALE
 40
1.0
  9
$DIMASZ
 40
0.18
  9
$DIMEXO
 40
0.0625
  9
$DIMDLI
 40
0.38
  9
$DIMRND
 40
0.0
  9
$DIMDLE
 40
0.0
  9
$DIMEXE
 40
0.18
  9
$DIMTP
 40
0.0
  9
$DIMTM
 40
0.0
  9
$DIMTXT
 40
0.18
  9
$DIMCEN
 40
0.09
  9
$DIMTSZ
 40
0.0
  9
$DIMTOL
 70
     0
  9
$DIMLIM
 70
     0
  9
$DIMTIH
 70
     1
  9
$DIMTOH
 70
     1
  9
$DIMSE1
 70
     0
  9
$DIMSE2
 70
     0
  9
$DIMTAD
 70
     0
  9
$DIMZIN
 70
     0
  9
$DIMBLK
  1

  9
$DIMASO
 70
     1
  9
$DIMSHO
 70
     1
  9
$DIMPOST
  1

  9
$DIMAPOST
  1

  9
$DIMALT
 70
     0
  9
$DIMALTD
 70
     2
  9
$DIMALTF
 40
25.4
  9
$DIMLFAC
 40
1.0
  9
$DIMTOFL
 70
     0
  9
$DIMTVP
 40
0.0
  9
$DIMTIX
 70
     0
  9
$DIMSOXD
 70
     0
  9
$DIMSAH
 70
     0
  9
$DIMBLK1
  1

  9
$DIMBLK2
  1

  9
$DIMSTYLE
  2
Standard
  9
$DIMCLRD
 70
     0
  9
$DIMCLRE
 70
     0
  9
$DIMCLRT
 70
     0
  9
$DIMTFAC
 40
1.0
  9
$DIMGAP
 40
0.09
  9
$DIMJUST
 70
     0
  9
$DIMSD1
 70
     0
  9
$DIMSD2
 70
     0
  9
$DIMTOLJ
 70
     1
  9
$DIMTZIN
 70
     0
  9
$DIMALTZ
 70
     0
  9
$DIMALTTZ
 70
     0
  9
$DIMUPT
 70
     0
  9
$DIMDEC
 70
     4
  9
$DIMTDEC
 70
     4
  9
$DIMALTU
 70
     2
  9
$DIMALTTD
 70
     2
  9
$DIMTXSTY
  7
Standard
  9
$DIMAUNIT
 70
     0
  9
$DIMADEC
 70
     0
  9
$DIMALTRND
 40
0.0
  9
$DIMAZIN
 70
     0
  9
$DIMDSEP
 70
    46
  9
$DIMATFIT
 70
     3
  9
$DIMFRAC
 70
     0
  9
$DIMLDRBLK
  1

  9
$DIMLUNIT
 70
     2
  9
$DIMLWD
 70
    -2
  9
$DIMLWE
 70
    -2
  9
$DIMTMOVE
 70
     0
  9
$LUNITS
 70
     2
  9
$LUPREC
 70
     4
  9
$SKETCHINC
 40
0.1
  9
$FILLETRAD
 40
0.5
  9
$AUNITS
 70
     0
  9
$AUPREC
 70
     0
  9
$MENU
  1
.
  9
$ELEVATION
 40
0.0
  9
$PELEVATION
 40
0.0
  9
$THICKNESS
 40
0.0
  9
$LIMCHECK
 70
     0
  9
$CHAMFERA
 40
0.5
  9
$CHAMFERB
 40
0.5
  9
$CHAMFERC
 40
1.0
  9
$CHAMFERD
 40
0.0
  9
$SKPOLY
 70
     0
  9
$TDCREATE
 40
2457624.562856285
  9
$TDUCREATE
 40
2457624.187856285
  9
$TDUPDATE
 40
2457624.562856296
  9
$TDUUPDATE
 40
2457624.187856296
  9
$TDINDWG
 40
0.0000000116
  9
$TDUSRTIMER
 40
0.0000000116
  9
$USRTIMER
 70
     1
  9
$ANGBASE
 50
0.0
  9
$ANGDIR
 70
     0
  9
$PDMODE
 70
     0
  9
$PDSIZE
 40
0.0
  9
$PLINEWID
 40
0.0
  9
$SPLFRAME
 70
     0
  9
$SPLINETYPE
 70
     6
  9
$SPLINESEGS
 70
     8
  9
$HANDSEED
  5
500
  9
$SURFTAB1
 70
     6
  9
$SURFTAB2
 70
     6
  9
$SURFTYPE
 70
     6
  9
$SURFU
 70
     6
  9
$SURFV
 70
     6
  9
$UCSBASE
  2

  9
$UCSNAME
  2

  9
$UCSORG
 10
0.0
 20
0.0
 30
0.0
  9
$UCSXDIR
 10
1.0
 20
0.0
 30
0.0
  9
$UCSYDIR
 10
0.0
 20
1.0
 30
0.0
  9
$UCSORTHOREF
  2

  9
$UCSORTHOVIEW
 70
     0
  9
$UCSORGTOP
 10
0.0
 20
0.0
 30
0.0
  9
$UCSORGBOTTOM
 10
0.0
 20
0.0
 30
0.0
  9
$UCSORGLEFT
 10
0.0
 20
0.0
 30
0.0
  9
$UCSORGRIGHT
 10
0.0
 20
0.0
 30
0.0
  9
$UCSORGFRONT
 10
0.0
 20
0.0
 30
0.0
  9
$UCSORGBACK
 10
0.0
 20
0.0
 30
0.0
  9
$PUCSBASE
  2

  9
$PUCSNAME
  2

  9
$PUCSORG
 10
0.0
 20
0.0
 30
0.0
  9
$PUCSXDIR
 10
1.0
 20
0.0
 30
0.0
  9
$PUCSYDIR
 10
0.0
 20
1.0
 30
0.0
  9
$PUCSORTHOREF
  2

  9
$PUCSORTHOVIEW
 70
     0
  9
$PUCSORGTOP
 10
0.0
 20
0.0
 30
0.0
  9
$PUCSORGBOTTOM
 10
0.0
 20
0.0
 30
0.0
  9
$PUCSORGLEFT
 10
0.0
 20
0.0
 30
0.0
  9
$PUCSORGRIGHT
 10
0.0
 20
0.0
 30
0.0
  9
$PUCSORGFRONT
 10
0.0
 20
0.0
 30
0.0
  9
$PUCSORGBACK
 10
0.0
 20
0.0
 30
0.0
  9
$USERI1
 70
     0
  9
$USERI2
 70
     0
  9
$USERI3
 70
     0
  9
$USERI4
 70
     0
  9
$USERI5
 70
     0
  9
$USERR1
 40
18.0
  9
$USERR2
 40
0.0
  9
$USERR3
 40
0.0
  9
$USERR4
 40
0.0
  9
$USERR5
 40
0.0
  9
$WORLDVIEW
 70
     1
  9
$SHADEDGE
 70
     3
  9
$SHADEDIF
 70
    70
  9
$TILEMODE
 70
     1
  9
$MAXACTVP
 70
    64
  9
$PINSBASE
 10
0.0
 20
0.0
 30
0.0
  9
$PLIMCHECK
 70
     0
  9
$PEXTMIN
 10
1.00000000000000E+20
 20
1.00000000000000E+20
 30
1.00000000000000E+20
  9
$PEXTMAX
 10
-1.00000000000000E+20
 20
-1.00000000000000E+20
 30
-1.00000000000000E+20
  9
$PLIMMIN
 10
0.0
 20
0.0
  9
$PLIMMAX
 10
12.0
 20
9.0
  9
$UNITMODE
 70
     0
  9
$VISRETAIN
 70
     1
  9
$PLINEGEN
 70
     0
  9
$PSLTSCALE
 70
     1
  9
$TREEDEPTH
 70
  3020
  9
$CMLSTYLE
  2
Standard
  9
$CMLJUST
 70
     0
  9
$CMLSCALE
 40
1.0
  9
$PROXYGRAPHICS
 70
     1
  9
$MEASUREMENT
 70
     1
  9
$CELWEIGHT
370
    -1
  9
$ENDCAPS
280
     0
  9
$JOINSTYLE
280
     0
  9
$LWDISPLAY
290
     0
  9
$INSUNITS
 70
     1
  9
$HYPERLINKBASE
  1

  9
$STYLESHEET
  1

  9
$XEDIT
290
     1
  9
$CEPSNTYPE
380
     0
  9
$PSTYLEMODE
290
     1
  9
$FINGERPRINTGUID
  2
{21FB0787-6AF2-46CD-9C57-898BA056910B}
  9
$VERSIONGUID
  2
{FAEB1C32-E019-11D5-929B-00C0DF256EC4}
  9
$EXTNAMES
290
     1
  9
$PSVPSCALE
 40
0.0
  9
$OLESTARTUP
290
     0
  0
ENDSEC
  0
SECTION
  2
CLASSES
  0
CLASS
  1
ACDBDICTIONARYWDFLT
  2
AcDbDictionaryWithDefault
  3
ObjectDBX Classes
 90
        0
280
     0
281
     0
  0
CLASS
  1
VISUALSTYLE
  2
AcDbVisualStyle
  3
ObjectDBX Classes
 90
     4095
280
     0
281
     0
  0
CLASS
  1
MATERIAL
  2
AcDbMaterial
  3
ObjectDBX Classes
 90
     1153
280
     0
281
     0
  0
CLASS
  1

  2
exOdDbPolyline
  3

 90
        0
280
     0
281
     1
  0
CLASS
  1
DICTIONARYVAR
  2
AcDbDictionaryVar
  3
ObjectDBX Classes
 90
        0
280
     0
281
     0
  0
CLASS
  1
ACDBPLACEHOLDER
  2
AcDbPlaceHolder
  3
ObjectDBX Classes
 90
        0
280
     0
281
     0
  0
CLASS
  1
LAYOUT
  2
AcDbLayout
  3
ObjectDBX Classes
 90
        0
280
     0
281
     0
  0
ENDSEC
  0
SECTION
  2
TABLES
  0
TABLE
  2
VPORT
  5
8
330
0
100
AcDbSymbolTable
 70
     1
  0
VPORT
  5
29
330
8
100
AcDbSymbolTableRecord
100
AcDbViewportTableRecord
  2
*Active
 70
     0
 10
0.0
 20
0.0
 11
1.0
 21
1.0
 12
54.003064883992
 22
135.28047976776
 13
0.0
 23
0.0
 14
0.5
 24
0.5
 15
0.5
 25
0.5
 16
0.0
 26
0.0
 36
1.0
 17
0.0
 27
0.0
 37
0.0
 40
579.2487232048154
 41
1.60267857142857
 42
50.0
 43
0.0
 44
0.0
 50
0.0
 51
0.0
 71
     0
 72
   100
 73
     1
 74
     3
 75
     0
 76
     0
 77
     0
 78
     0
281
     0
 65
     1
110
0.0
120
0.0
130
0.0
111
1.0
121
0.0
131
0.0
112
0.0
122
1.0
132
0.0
 79
     0
146
0.0
  0
ENDTAB
  0
TABLE
  2
LTYPE
  5
5
330
0
100
AcDbSymbolTable
 70
     8
  0
LTYPE
  5
14
330
5
100
AcDbSymbolTableRecord
100
AcDbLinetypeTableRecord
  2
ByBlock
 70
     0
  3

 72
    65
 73
     0
 40
0.0
  0
LTYPE
  5
15
330
5
100
AcDbSymbolTableRecord
100
AcDbLinetypeTableRecord
  2
ByLayer
 70
     0
  3

 72
    65
 73
     0
 40
0.0
  0
LTYPE
  5
16
330
5
100
AcDbSymbolTableRecord
100
AcDbLinetypeTableRecord
  2
Continuous
 70
     0
  3
Solid line
 72
    65
 73
     0
 40
0.0
  0
LTYPE
  5
3F
330
5
100
AcDbSymbolTableRecord
100
AcDbLinetypeTableRecord
  2
DASHED
 70
     0
  3
Dashed
 72
    65
 73
     2
 40
15.0
 49
7.0
 74
     0
 49
-8.0
 74
     0
  0
LTYPE
  5
40
330
5
100
AcDbSymbolTableRecord
100
AcDbLinetypeTableRecord
  2
DOTTED
 70
     0
  3
Dotted
 72
    65
 73
     2
 40
1.0
 49
0.0
 74
     0
 49
-1.0
 74
     0
  0
LTYPE
  5
41
330
5
100
AcDbSymbolTableRecord
100
AcDbLinetypeTableRecord
  2
DOT_CENTER
 70
     0
  3
Dot_Center
 72
    65
 73
     4
 40
14.0
 49
12.0
 74
     0
 49
-1.0
 74
     0
 49
0.0
 74
     0
 49
-1.0
 74
     0
  0
LTYPE
  5
42
330
5
100
AcDbSymbolTableRecord
100
AcDbLinetypeTableRecord
  2
LONG_DASHED
 70
     0
  3
Long_Dashed
 72
    65
 73
     2
 40
15.0
 49
10.0
 74
     0
 49
-5.0
 74
     0
  0
LTYPE
  5
43
330
5
100
AcDbSymbolTableRecord
100
AcDbLinetypeTableRecord
  2
DASH_CENTER
 70
     0
  3
Dash_Center
 72
    65
 73
     4
 40
14.0
 49
11.0
 74
     0
 49
-1.0
 74
     0
 49
1.0
 74
     0
 49
-1.0
 74
     0
  0
LTYPE
  5
44
330
5
100
AcDbSymbolTableRecord
100
AcDbLinetypeTableRecord
  2
PHANTOM
 70
     0
  3
Phantom
 72
    65
 73
     6
 40
13.0
 49
10.0
 74
     0
 49
-1.0
 74
     0
 49
0.0
 74
     0
 49
-1.0
 74
     0
 49
0.0
 74
     0
 49
-1.0
 74
     0
  0
LTYPE
  5
45
330
5
100
AcDbSymbolTableRecord
100
AcDbLinetypeTableRecord
  2
CENTER_DASH_DASH
 70
     0
  3
Center_Dash_Dash
 72
    65
 73
     6
 40
14.0
 49
9.0
 74
     0
 49
-1.0
 74
     0
 49
1.0
 74
     0
 49
-1.0
 74
     0
 49
1.0
 74
     0
 49
-1.0
 74
     0
  0
ENDTAB
  0
TABLE
  2
LAYER
  5
2
330
0
100
AcDbSymbolTable
 70
     4
  0
LAYER
  5
10
330
2
100
AcDbSymbolTableRecord
100
AcDbLayerTableRecord
  2
0
 70
     0
 62
     7
  6
Continuous
370
    -3
390
F
  0
LAYER
  5
46
330
2
100
AcDbSymbolTableRecord
100
AcDbLayerTableRecord
  2
1
 70
     0
 62
     7
  6
Continuous
370
    -3
390
F
  0
LAYER
  5
47
330
2
100
AcDbSymbolTableRecord
100
AcDbLayerTableRecord
  2
2
 70
     0
 62
     7
  6
Continuous
370
    -3
390
F
  0
LAYER
  5
48
330
2
100
AcDbSymbolTableRecord
100
AcDbLayerTableRecord
  2
3
 70
     0
 62
     7
  6
Continuous
370
    -3
390
F
  0
ENDTAB
  0
TABLE
  2
STYLE
  5
3
330
0
100
AcDbSymbolTable
 70
     1
  0
STYLE
  5
11
330
3
100
AcDbSymbolTableRecord
100
AcDbTextStyleTableRecord
  2
Standard
 70
     0
 40
0.0
 41
1.0
 50
0.0
 71
     0
 42
0.2
  3
txt
  4

  0
ENDTAB
  0
TABLE
  2
VIEW
  5
6
330
0
100
AcDbSymbolTable
 70
     0
  0
ENDTAB
  0
TABLE
  2
UCS
  5
7
330
0
100
AcDbSymbolTable
 70
     0
  0
ENDTAB
  0
TABLE
  2
APPID
  5
9
330
0
100
AcDbSymbolTable
 70
     1
  0
APPID
  5
12
330
9
100
AcDbSymbolTableRecord
100
AcDbRegAppTableRecord
  2
ACAD
 70
     0
  0
ENDTAB
  0
TABLE
  2
DIMSTYLE
  5
A
330
0
100
AcDbSymbolTable
 70
     1
100
AcDbDimStyleTable
  0
DIMSTYLE
105
27
330
A
100
AcDbSymbolTableRecord
100
AcDbDimStyleTableRecord
  2
Standard
 70
     0
340
11
  0
ENDTAB
  0
TABLE
  2
BLOCK_RECORD
  5
1
330
0
100
AcDbSymbolTable
 70
     1
  0
BLOCK_RECORD
  5
1F
330
1
100
AcDbSymbolTableRecord
100
AcDbBlockTableRecord
  2
*Model_Space
340
22
  0
BLOCK_RECORD
  5
1B
330
1
100
AcDbSymbolTableRecord
100
AcDbBlockTableRecord
  2
*Paper_Space
340
1E
  0
BLOCK_RECORD
  5
23
330
1
100
AcDbSymbolTableRecord
100
AcDbBlockTableRecord
  2
*Paper_Space0
340
26
  0
ENDTAB
  0
ENDSEC
  0
SECTION
  2
BLOCKS
  0
BLOCK
  5
20
330
1F
100
AcDbEntity
  8
0
100
AcDbBlockBegin
  2
*Model_Space
 70
     0
 10
0.0
 20
0.0
 30
0.0
  3
*Model_Space
  1

  0
ENDBLK
  5
21
330
1F
100
AcDbEntity
  8
0
100
AcDbBlockEnd
  0
BLOCK
  5
1C
330
1B
100
AcDbEntity
 67
     1
  8
0
100
AcDbBlockBegin
  2
*Paper_Space
 70
     0
 10
0.0
 20
0.0
 30
0.0
  3
*Paper_Space
  1

  0
ENDBLK
  5
1D
330
1B
100
AcDbEntity
 67
     1
  8
0
100
AcDbBlockEnd
  0
BLOCK
  5
24
330
23
100
AcDbEntity
  8
0
100
AcDbBlockBegin
  2
*Paper_Space0
 70
     0
 10
0.0
 20
0.0
 30
0.0
  3
*Paper_Space0
  1

  0
ENDBLK
  5
25
330
23
100
AcDbEntity
  8
0
100
AcDbBlockEnd
  0
ENDSEC
  0
SECTION
  2
ENTITIES
  0
LINE
  5
49
330
1F
100
AcDbEntity
  8
1
  6
Continuous
 62
     4
100
AcDbLine
 10
67.1875087493908
 20
-125.514394416247
 30
0.0
 11
66.6875087493908
 21
-126.139394416247
 31
0.0
  0
LINE
  5
4A
330
1F
100
AcDbEntity
  8
1
  6
Continuous
 62
     4
100
AcDbLine
 10
66.6875087493908
 20
-124.889394416247
 30
0.0
 11
67.1875087493908
 21
-125.514394416247
 31
0.0
  0
LINE
  5
4B
330
1F
100
AcDbEntity
  8
1
  6
Continuous
 62
     4
100
AcDbLine
 10
63.4375087493908
 20
-125.514394416247
 30
0.0
 11
67.1875087493908
 21
-125.514394416247
 31
0.0
  0
LINE
  5
4C
330
1F
100
AcDbEntity
  8
1
  6
Continuous
 62
     4
100
AcDbLine
 10
59.3125087493908
 20
-124.076894416247
 30
0.0
 11
62.1875087493908
 21
-124.076894416247
 31
0.0
  0
LINE
  5
4D
330
1F
100
AcDbEntity
  8
1
  6
Continuous
 62
     4
100
AcDbLine
 10
59.3125087493908
 20
-124.076894416247
 30
0.0
 11
60.0000087493908
 21
-123.139394416247
 31
0.0
  0
LINE
  5
4E
330
1F
100
AcDbEntity
  8
1
  6
Continuous
 62
     4
100
AcDbLine
 10
60.9375087493908
 20
-126.451894416247
 30
0.0
 11
59.8750087493908
 21
-126.451894416247
 31
0.0
  0
LINE
  5
4F
330
1F
100
AcDbEntity
  8
1
  6
Continuous
 62
     4
100
AcDbLine
 10
60.9375087493908
 20
-125.201894416247
 30
0.0
 11
60.9375087493908
 21
-126.451894416247
 31
0.0
  0
LINE
  5
50
330
1F
100
AcDbEntity
  8
1
  6
Continuous
 62
     4
100
AcDbLine
 10
59.8750087493908
 20
-125.201894416247
 30
0.0
 11
60.9375087493908
 21
-125.201894416247
 31
0.0
  0
LINE
  5
51
330
1F
100
AcDbEntity
  8
1
  6
Continuous
 62
     4
100
AcDbLine
 10
59.8750087493908
 20
-126.451894416247
 30
0.0
 11
59.8750087493908
 21
-125.201894416247
 31
0.0
  0
LINE
  5
52
330
1F
100
AcDbEntity
  8
1
  6
Continuous
 62
     4
100
AcDbLine
 10
62.1875087493908
 20
-127.826894416247
 30
0.0
 11
61.5000087493908
 21
-127.826894416247
 31
0.0
  0
LINE
  5
53
330
1F
100
AcDbEntity
  8
1
  6
Continuous
 62
     4
100
AcDbLine
 10
62.1875087493908
 20
-124.076894416247
 30
0.0
 11
62.1875087493908
 21
-127.826894416247
 31
0.0
  0
LINE
  5
54
330
1F
100
AcDbEntity
  8
1
  6
Continuous
 62
     4
100
AcDbLine
 10
58.6250087493908
 20
-124.076894416247
 30
0.0
 11
59.3125087493908
 21
-124.076894416247
 31
0.0
  0
LINE
  5
55
330
1F
100
AcDbEntity
  8
1
  6
Continuous
 62
     4
100
AcDbLine
 10
58.6250087493908
 20
-127.826894416247
 30
0.0
 11
58.6250087493908
 21
-124.076894416247
 31
0.0
  0
LINE
  5
56
330
1F
100
AcDbEntity
  8
1
  6
Continuous
 62
     4
100
AcDbLine
 10
55.9375087493908
 20
-128.014394416247
 30
0.0
 11
55.4375087493908
 21
-127.701894416247
 31
0.0
  0
LINE
  5
57
330
1F
100
AcDbEntity
  8
1
  6
Continuous
 62
     4
100
AcDbLine
 10
56.2500087493908
 20
-127.514394416247
 30
0.0
 11
55.9375087493908
 21
-128.014394416247
 31
0.0
  0
LINE
  5
58
330
1F
100
AcDbEntity
  8
1
  6
Continuous
 62
     4
100
AcDbLine
 10
56.5000087493908
 20
-126.764394416247
 30
0.0
 11
56.2500087493908
 21
-127.514394416247
 31
0.0
  0
LINE
  5
59
330
1F
100
AcDbEntity
  8
1
  6
Continuous
 62
     4
100
AcDbLine
 10
56.8125087493908
 20
-125.639394416247
 30
0.0
 11
56.5000087493908
 21
-126.764394416247
 31
0.0
  0
LINE
  5
5A
330
1F
100
AcDbEntity
  8
1
  6
Continuous
 62
     4
100
AcDbLine
 10
56.8125087493908
 20
-125.201894416247
 30
0.0
 11
56.8125087493908
 21
-125.639394416247
 31
0.0
  0
LINE
  5
5B
330
1F
100
AcDbEntity
  8
1
  6
Continuous
 62
     4
100
AcDbLine
 10
55.0000087493908
 20
-125.201894416247
 30
0.0
 11
56.8125087493908
 21
-125.201894416247
 31
0.0
  0
LINE
  5
5C
330
1F
100
AcDbEntity
  8
1
  6
Continuous
 62
     4
100
AcDbLine
 10
53.3125087493908
 20
-123.951894416247
 30
0.0
 11
57.5000087493908
 21
-123.951894416247
 31
0.0
  0
LINE
  5
5D
330
1F
100
AcDbEntity
  8
1
  6
Continuous
 62
     4
100
AcDbLine
 10
55.1250087493908
 20
-124.389394416247
 30
0.0
 11
55.2500087493908
 21
-123.139394416247
 31
0.0
  0
LINE
  5
5E
330
1F
100
AcDbEntity
  8
1
  6
Continuous
 62
     4
100
AcDbLine
 10
54.8750087493908
 20
-125.639394416247
 30
0.0
 11
55.1250087493908
 21
-124.389394416247
 31
0.0
  0
LINE
  5
5F
330
1F
100
AcDbEntity
  8
1
  6
Continuous
 62
     4
100
AcDbLine
 10
54.5625087493908
 20
-126.451894416247
 30
0.0
 11
54.8750087493908
 21
-125.639394416247
 31
0.0
  0
LINE
  5
60
330
1F
100
AcDbEntity
  8
1
  6
Continuous
 62
     4
100
AcDbLine
 10
54.1875087493908
 20
-127.201894416247
 30
0.0
 11
54.5625087493908
 21
-126.451894416247
 31
0.0
  0
LINE
  5
61
330
1F
100
AcDbEntity
  8
1
  6
Continuous
 62
     4
100
AcDbLine
 10
53.6250087493908
 20
-127.826894416247
 30
0.0
 11
54.1875087493908
 21
-127.201894416247
 31
0.0
  0
LINE
  5
62
330
1F
100
AcDbEntity
  8
1
  6
Continuous
 62
     4
100
AcDbLine
 10
51.9375087493908
 20
-126.451894416247
 30
0.0
 11
52.6250087493908
 21
-127.201894416247
 31
0.0
  0
LINE
  5
63
330
1F
100
AcDbEntity
  8
1
  6
Continuous
 62
     4
100
AcDbLine
 10
51.3750087493908
 20
-125.514394416247
 30
0.0
 11
51.9375087493908
 21
-126.451894416247
 31
0.0
  0
LINE
  5
64
330
1F
100
AcDbEntity
  8
1
  6
Continuous
 62
     4
100
AcDbLine
 10
50.9375087493908
 20
-124.389394416247
 30
0.0
 11
51.3750087493908
 21
-125.514394416247
 31
0.0
  0
LINE
  5
65
330
1F
100
AcDbEntity
  8
1
  6
Continuous
 62
     4
100
AcDbLine
 10
52.1875087493908
 20
-124.264394416247
 30
0.0
 11
51.2500087493908
 21
-125.014394416247
 31
0.0
  0
LINE
  5
66
330
1F
100
AcDbEntity
  8
1
  6
Continuous
 62
     4
100
AcDbLine
 10
50.5625087493908
 20
-128.014394416247
 30
0.0
 11
50.1250087493908
 21
-127.826894416247
 31
0.0
  0
LINE
  5
67
330
1F
100
AcDbEntity
  8
1
  6
Continuous
 62
     4
100
AcDbLine
 10
50.5625087493908
 20
-123.139394416247
 30
0.0
 11
50.5625087493908
 21
-128.014394416247
 31
0.0
  0
LINE
  5
68
330
1F
100
AcDbEntity
  8
1
  6
Continuous
 62
     4
100
AcDbLine
 10
49.8750087493908
 20
-124.701894416247
 30
0.0
 11
48.4375087493908
 21
-124.701894416247
 31
0.0
  0
LINE
  5
69
330
1F
100
AcDbEntity
  8
1
  6
Continuous
 62
     4
100
AcDbLine
 10
49.5625087493908
 20
-125.639394416247
 30
0.0
 11
49.8750087493908
 21
-124.701894416247
 31
0.0
  0
LINE
  5
6A
330
1F
100
AcDbEntity
  8
1
  6
Continuous
 62
     4
100
AcDbLine
 10
49.0000087493908
 20
-126.576894416247
 30
0.0
 11
49.5625087493908
 21
-125.639394416247
 31
0.0
  0
LINE
  5
6B
330
1F
100
AcDbEntity
  8
1
  6
Continuous
 62
     4
100
AcDbLine
 10
48.4375087493908
 20
-127.201894416247
 30
0.0
 11
49.0000087493908
 21
-126.576894416247
 31
0.0
  0
LINE
  5
6C
330
1F
100
AcDbEntity
  8
1
  6
Continuous
 62
     4
100
AcDbLine
 10
45.6875087493908
 20
-123.764394416247
 30
0.0
 11
47.3750087493908
 21
-123.764394416247
 31
0.0
  0
LINE
  5
6D
330
1F
100
AcDbEntity
  8
1
  6
Continuous
 62
     4
100
AcDbLine
 10
47.6250087493908
 20
-127.514394416247
 30
0.0
 11
47.6250087493908
 21
-127.201894416247
 31
0.0
  0
LINE
  5
6E
330
1F
100
AcDbEntity
  8
1
  6
Continuous
 62
     4
100
AcDbLine
 10
47.3750087493908
 20
-127.826894416247
 30
0.0
 11
47.6250087493908
 21
-127.514394416247
 31
0.0
  0
LINE
  5
6F
330
1F
100
AcDbEntity
  8
1
  6
Continuous
 62
     4
100
AcDbLine
 10
46.8125087493908
 20
-127.826894416247
 30
0.0
 11
47.3750087493908
 21
-127.826894416247
 31
0.0
  0
LINE
  5
70
330
1F
100
AcDbEntity
  8
1
  6
Continuous
 62
     4
100
AcDbLine
 10
46.5000087493908
 20
-127.389394416247
 30
0.0
 11
46.8125087493908
 21
-127.826894416247
 31
0.0
  0
LINE
  5
71
330
1F
100
AcDbEntity
  8
1
  6
Continuous
 62
     4
100
AcDbLine
 10
46.5000087493908
 20
-125.826894416247
 30
0.0
 11
46.5000087493908
 21
-127.389394416247
 31
0.0
  0
LINE
  5
72
330
1F
100
AcDbEntity
  8
1
  6
Continuous
 62
     4
100
AcDbLine
 10
45.6875087493908
 20
-127.826894416247
 30
0.0
 11
45.6875087493908
 21
-125.826894416247
 31
0.0
  0
LINE
  5
73
330
1F
100
AcDbEntity
  8
1
  6
Continuous
 62
     4
100
AcDbLine
 10
44.4375087493908
 20
-127.701894416247
 30
0.0
 11
44.0000087493908
 21
-128.014394416247
 31
0.0
  0
LINE
  5
74
330
1F
100
AcDbEntity
  8
1
  6
Continuous
 62
     4
100
AcDbLine
 10
44.6875087493908
 20
-127.389394416247
 30
0.0
 11
44.4375087493908
 21
-127.701894416247
 31
0.0
  0
LINE
  5
75
330
1F
100
AcDbEntity
  8
1
  6
Continuous
 62
     4
100
AcDbLine
 10
44.8750087493908
 20
-126.889394416247
 30
0.0
 11
44.6875087493908
 21
-127.389394416247
 31
0.0
  0
LINE
  5
76
330
1F
100
AcDbEntity
  8
1
  6
Continuous
 62
     4
100
AcDbLine
 10
45.0000087493908
 20
-125.826894416247
 30
0.0
 11
44.8750087493908
 21
-126.889394416247
 31
0.0
  0
LINE
  5
77
330
1F
100
AcDbEntity
  8
1
  6
Continuous
 62
     4
100
AcDbLine
 10
46.3750087493908
 20
-124.264394416247
 30
0.0
 11
46.9375087493908
 21
-125.326894416247
 31
0.0
  0
LINE
  5
78
330
1F
100
AcDbEntity
  8
1
  6
Continuous
 62
     4
100
AcDbLine
 10
44.5625087493908
 20
-125.014394416247
 30
0.0
 11
46.6875087493908
 21
-124.889394416247
 31
0.0
  0
LINE
  5
79
330
1F
100
AcDbEntity
  8
1
  6
Continuous
 62
     4
100
AcDbLine
 10
45.6875087493908
 20
-123.764394416247
 30
0.0
 11
45.1250087493908
 21
-125.014394416247
 31
0.0
  0
LINE
  5
7A
330
1F
100
AcDbEntity
  8
1
  6
Continuous
 62
     4
100
AcDbLine
 10
45.8125087493908
 20
-123.014394416247
 30
0.0
 11
45.8125087493908
 21
-123.764394416247
 31
0.0
  0
LINE
  5
7B
330
1F
100
AcDbEntity
  8
1
  6
Continuous
 62
     4
100
AcDbLine
 10
44.3125087493908
 20
-123.764394416247
 30
0.0
 11
45.6875087493908
 21
-123.764394416247
 31
0.0
  0
LINE
  5
7C
330
1F
100
AcDbEntity
  8
1
  6
Continuous
 62
     4
100
AcDbLine
 10
43.3125087493908
 20
-127.826894416247
 30
0.0
 11
43.8750087493908
 21
-125.826894416247
 31
0.0
  0
LINE
  5
7D
330
1F
100
AcDbEntity
  8
1
  6
Continuous
 62
     4
100
AcDbLine
 10
43.1875087493908
 20
-124.576894416247
 30
0.0
 11
43.6250087493908
 21
-125.014394416247
 31
0.0
  0
LINE
  5
7E
330
1F
100
AcDbEntity
  8
1
  6
Continuous
 62
     4
100
AcDbLine
 10
43.6250087493908
 20
-123.139394416247
 30
0.0
 11
43.8750087493908
 21
-123.639394416247
 31
0.0
  0
LINE
  5
7F
330
1F
100
AcDbEntity
  8
1
  6
Continuous
 62
     4
100
AcDbLine
 10
157.050239577732
 20
-99.0
 30
0.0
 11
158.050239577732
 21
-99.625
 31
0.0
  0
LINE
  5
80
330
1F
100
AcDbEntity
  8
1
  6
Continuous
 62
     4
100
AcDbLine
 10
158.425239577732
 20
-98.6875
 30
0.0
 11
157.612739577732
 21
-98.0625
 31
0.0
  0
LINE
  5
81
330
1F
100
AcDbEntity
  8
1
  6
Continuous
 62
     4
100
AcDbLine
 10
159.112739577732
 20
-97.9375
 30
0.0
 11
159.550239577732
 21
-98.375
 31
0.0
  0
LINE
  5
82
330
1F
100
AcDbEntity
  8
1
  6
Continuous
 62
     4
100
AcDbLine
 10
159.862739577732
 20
-98.0625
 30
0.0
 11
159.425239577732
 21
-97.625
 31
0.0
  0
LINE
  5
83
330
1F
100
AcDbEntity
  8
1
  6
Continuous
 62
     4
100
AcDbLine
 10
159.550239577732
 20
-99.9375
 30
0.0
 11
160.237739577732
 21
-99.0
 31
0.0
  0
LINE
  5
84
330
1F
100
AcDbEntity
  8
1
  6
Continuous
 62
     4
100
AcDbLine
 10
158.425239577732
 20
-100.875
 30
0.0
 11
159.550239577732
 21
-99.9375
 31
0.0
  0
LINE
  5
85
330
1F
100
AcDbEntity
  8
1
  6
Continuous
 62
     4
100
AcDbLine
 10
157.362739577732
 20
-101.5
 30
0.0
 11
158.425239577732
 21
-100.875
 31
0.0
  0
LINE
  5
86
330
1F
100
AcDbEntity
  8
1
  6
Continuous
 62
     4
100
AcDbLine
 10
154.675239577732
 20
-100.125
 30
0.0
 11
155.112739577732
 21
-100.75
 31
0.0
  0
LINE
  5
87
330
1F
100
AcDbEntity
  8
1
  6
Continuous
 62
     4
100
AcDbLine
 10
154.112739577732
 20
-99.625
 30
0.0
 11
154.675239577732
 21
-100.125
 31
0.0
  0
LINE
  5
88
330
1F
100
AcDbEntity
  8
1
  6
Continuous
 62
     4
100
AcDbLine
 10
153.737739577732
 20
-97.625
 30
0.0
 11
153.987739577732
 21
-97.9375
 31
0.0
  0
LINE
  5
89
330
1F
100
AcDbEntity
  8
1
  6
Continuous
 62
     4
100
AcDbLine
 10
153.175239577732
 20
-97.3125
 30
0.0
 11
153.737739577732
 21
-97.625
 31
0.0
  0
LINE
  5
8A
330
1F
100
AcDbEntity
  8
1
  6
Continuous
 62
     4
100
AcDbLine
 10
154.425239577732
 20
-98.5625
 30
0.0
 11
152.487739577732
 21
-98.5625
 31
0.0
  0
LINE
  5
8B
330
1F
100
AcDbEntity
  8
1
  6
Continuous
 62
     4
100
AcDbLine
 10
153.425239577732
 20
-99.625
 30
0.0
 11
154.425239577732
 21
-98.5625
 31
0.0
  0
LINE
  5
8C
330
1F
100
AcDbEntity
  8
1
  6
Continuous
 62
     4
100
AcDbLine
 10
152.050239577732
 20
-100.5625
 30
0.0
 11
153.425239577732
 21
-99.625
 31
0.0
  0
LINE
  5
8D
330
1F
100
AcDbEntity
  8
1
  6
Continuous
 62
     4
100
AcDbLine
 10
153.612739577732
 20
-101.5
 30
0.0
 11
153.612739577732
 21
-99.5
 31
0.0
  0
LINE
  5
8E
330
1F
100
AcDbEntity
  8
1
  6
Continuous
 62
     4
100
AcDbLine
 10
149.112739577732
 20
-100.0
 30
0.0
 11
149.112739577732
 21
-102.0
 31
0.0
  0
LINE
  5
8F
330
1F
100
AcDbEntity
  8
1
  6
Continuous
 62
     4
100
AcDbLine
 10
146.862739577732
 20
-101.0
 30
0.0
 11
149.862739577732
 21
-101.0
 31
0.0
  0
LINE
  5
90
330
1F
100
AcDbEntity
  8
1
  6
Continuous
 62
     4
100
AcDbLine
 10
149.112739577732
 20
-97.0
 30
0.0
 11
146.862739577732
 21
-101.0
 31
0.0
  0
LINE
  5
91
330
1F
100
AcDbEntity
  8
1
  6
Continuous
 62
     4
100
AcDbLine
 10
143.362739577732
 20
-102.0
 30
0.0
 11
145.362739577732
 21
-97.0
 31
0.0
  0
LINE
  5
92
330
1F
100
AcDbEntity
  8
1
  6
Continuous
 62
     4
100
AcDbLine
 10
140.737739577732
 20
-102.0
 30
0.0
 11
138.862739577732
 21
-102.0
 31
0.0
  0
LINE
  5
93
330
1F
100
AcDbEntity
  8
1
  6
Continuous
 62
     4
100
AcDbLine
 10
141.112739577732
 20
-101.875
 30
0.0
 11
140.737739577732
 21
-102.0
 31
0.0
  0
LINE
  5
94
330
1F
100
AcDbEntity
  8
1
  6
Continuous
 62
     4
100
AcDbLine
 10
141.487739577732
 20
-101.625
 30
0.0
 11
141.112739577732
 21
-101.875
 31
0.0
  0
LINE
  5
95
330
1F
100
AcDbEntity
  8
1
  6
Continuous
 62
     4
100
AcDbLine
 10
141.737739577732
 20
-101.25
 30
0.0
 11
141.487739577732
 21
-101.625
 31
0.0
  0
LINE
  5
96
330
1F
100
AcDbEntity
  8
1
  6
Continuous
 62
     4
100
AcDbLine
 10
141.862739577732
 20
-100.75
 30
0.0
 11
141.737739577732
 21
-101.25
 31
0.0
  0
LINE
  5
97
330
1F
100
AcDbEntity
  8
1
  6
Continuous
 62
     4
100
AcDbLine
 10
141.862739577732
 20
-100.125
 30
0.0
 11
141.862739577732
 21
-100.75
 31
0.0
  0
LINE
  5
98
330
1F
100
AcDbEntity
  8
1
  6
Continuous
 62
     4
100
AcDbLine
 10
141.737739577732
 20
-99.625
 30
0.0
 11
141.862739577732
 21
-100.125
 31
0.0
  0
LINE
  5
99
330
1F
100
AcDbEntity
  8
1
  6
Continuous
 62
     4
100
AcDbLine
 10
141.612739577732
 20
-99.375
 30
0.0
 11
141.737739577732
 21
-99.625
 31
0.0
  0
LINE
  5
9A
330
1F
100
AcDbEntity
  8
1
  6
Continuous
 62
     4
100
AcDbLine
 10
141.362739577732
 20
-99.125
 30
0.0
 11
141.612739577732
 21
-99.375
 31
0.0
  0
LINE
  5
9B
330
1F
100
AcDbEntity
  8
1
  6
Continuous
 62
     4
100
AcDbLine
 10
140.862739577732
 20
-99.0
 30
0.0
 11
141.362739577732
 21
-99.125
 31
0.0
  0
LINE
  5
9C
330
1F
100
AcDbEntity
  8
1
  6
Continuous
 62
     4
100
AcDbLine
 10
141.237739577732
 20
-98.875
 30
0.0
 11
140.862739577732
 21
-99.0
 31
0.0
  0
LINE
  5
9D
330
1F
100
AcDbEntity
  8
1
  6
Continuous
 62
     4
100
AcDbLine
 10
141.487739577732
 20
-98.75
 30
0.0
 11
141.237739577732
 21
-98.875
 31
0.0
  0
LINE
  5
9E
330
1F
100
AcDbEntity
  8
1
  6
Continuous
 62
     4
100
AcDbLine
 10
141.737739577732
 20
-98.5
 30
0.0
 11
141.487739577732
 21
-98.75
 31
0.0
  0
LINE
  5
9F
330
1F
100
AcDbEntity
  8
1
  6
Continuous
 62
     4
100
AcDbLine
 10
141.862739577732
 20
-98.125
 30
0.0
 11
141.737739577732
 21
-98.5
 31
0.0
  0
LINE
  5
A0
330
1F
100
AcDbEntity
  8
1
  6
Continuous
 62
     4
100
AcDbLine
 10
141.862739577732
 20
-97.75
 30
0.0
 11
141.862739577732
 21
-98.125
 31
0.0
  0
LINE
  5
A1
330
1F
100
AcDbEntity
  8
1
  6
Continuous
 62
     4
100
AcDbLine
 10
141.737739577732
 20
-97.375
 30
0.0
 11
141.862739577732
 21
-97.75
 31
0.0
  0
LINE
  5
A2
330
1F
100
AcDbEntity
  8
1
  6
Continuous
 62
     4
100
AcDbLine
 10
141.362739577732
 20
-97.125
 30
0.0
 11
141.737739577732
 21
-97.375
 31
0.0
  0
LINE
  5
A3
330
1F
100
AcDbEntity
  8
1
  6
Continuous
 62
     4
100
AcDbLine
 10
140.737739577732
 20
-97.0
 30
0.0
 11
141.362739577732
 21
-97.125
 31
0.0
  0
LINE
  5
A4
330
1F
100
AcDbEntity
  8
1
  6
Continuous
 62
     4
100
AcDbLine
 10
138.862739577732
 20
-97.0
 30
0.0
 11
140.737739577732
 21
-97.0
 31
0.0
  0
LINE
  5
A5
330
1F
100
AcDbEntity
  8
1
  6
Continuous
 62
     4
100
AcDbLine
 10
139.612739577732
 20
-99.0
 30
0.0
 11
140.862739577732
 21
-99.0
 31
0.0
  0
LINE
  5
A6
330
1F
100
AcDbEntity
  8
1
  6
Continuous
 62
     4
100
AcDbLine
 10
135.487739577732
 20
-102.0
 30
0.0
 11
137.362739577732
 21
-102.0
 31
0.0
  0
LINE
  5
A7
330
1F
100
AcDbEntity
  8
1
  6
Continuous
 62
     4
100
AcDbLine
 10
134.987739577732
 20
-101.875
 30
0.0
 11
135.487739577732
 21
-102.0
 31
0.0
  0
LINE
  5
A8
330
1F
100
AcDbEntity
  8
1
  6
Continuous
 62
     4
100
AcDbLine
 10
134.737739577732
 20
-101.75
 30
0.0
 11
134.987739577732
 21
-101.875
 31
0.0
  0
LINE
  5
A9
330
1F
100
AcDbEntity
  8
1
  6
Continuous
 62
     4
100
AcDbLine
 10
134.487739577732
 20
-101.5
 30
0.0
 11
134.737739577732
 21
-101.75
 31
0.0
  0
LINE
  5
AA
330
1F
100
AcDbEntity
  8
1
  6
Continuous
 62
     4
100
AcDbLine
 10
134.362739577732
 20
-101.0
 30
0.0
 11
134.487739577732
 21
-101.5
 31
0.0
  0
LINE
  5
AB
330
1F
100
AcDbEntity
  8
1
  6
Continuous
 62
     4
100
AcDbLine
 10
134.362739577732
 20
-99.5
 30
0.0
 11
134.362739577732
 21
-101.0
 31
0.0
  0
LINE
  5
AC
330
1F
100
AcDbEntity
  8
1
  6
Continuous
 62
     4
100
AcDbLine
 10
134.487739577732
 20
-99.0
 30
0.0
 11
134.362739577732
 21
-99.5
 31
0.0
  0
LINE
  5
AD
330
1F
100
AcDbEntity
  8
1
  6
Continuous
 62
     4
100
AcDbLine
 10
134.737739577732
 20
-98.75
 30
0.0
 11
134.487739577732
 21
-99.0
 31
0.0
  0
LINE
  5
AE
330
1F
100
AcDbEntity
  8
1
  6
Continuous
 62
     4
100
AcDbLine
 10
134.987739577732
 20
-98.625
 30
0.0
 11
134.737739577732
 21
-98.75
 31
0.0
  0
LINE
  5
AF
330
1F
100
AcDbEntity
  8
1
  6
Continuous
 62
     4
100
AcDbLine
 10
135.487739577732
 20
-98.5
 30
0.0
 11
134.987739577732
 21
-98.625
 31
0.0
  0
LINE
  5
B0
330
1F
100
AcDbEntity
  8
1
  6
Continuous
 62
     4
100
AcDbLine
 10
137.362739577732
 20
-98.5
 30
0.0
 11
135.487739577732
 21
-98.5
 31
0.0
  0
LINE
  5
B1
330
1F
100
AcDbEntity
  8
1
  6
Continuous
 62
     4
100
AcDbLine
 10
129.362739577732
 20
-102.0
 30
0.0
 11
129.362739577732
 21
-99.5
 31
0.0
  0
LINE
  5
B2
330
1F
100
AcDbEntity
  8
1
  6
Continuous
 62
     4
100
AcDbLine
 10
131.362739577732
 20
-99.5
 30
0.0
 11
132.862739577732
 21
-102.0
 31
0.0
  0
LINE
  5
B3
330
1F
100
AcDbEntity
  8
1
  6
Continuous
 62
     4
100
AcDbLine
 10
131.737739577732
 20
-99.5
 30
0.0
 11
131.362739577732
 21
-99.5
 31
0.0
  0
LINE
  5
B4
330
1F
100
AcDbEntity
  8
1
  6
Continuous
 62
     4
100
AcDbLine
 10
132.237739577732
 20
-99.375
 30
0.0
 11
131.737739577732
 21
-99.5
 31
0.0
  0
LINE
  5
B5
330
1F
100
AcDbEntity
  8
1
  6
Continuous
 62
     4
100
AcDbLine
 10
132.612739577732
 20
-99.125
 30
0.0
 11
132.237739577732
 21
-99.375
 31
0.0
  0
LINE
  5
B6
330
1F
100
AcDbEntity
  8
1
  6
Continuous
 62
     4
100
AcDbLine
 10
132.737739577732
 20
-98.875
 30
0.0
 11
132.612739577732
 21
-99.125
 31
0.0
  0
LINE
  5
B7
330
1F
100
AcDbEntity
  8
1
  6
Continuous
 62
     4
100
AcDbLine
 10
132.862739577732
 20
-98.5
 30
0.0
 11
132.737739577732
 21
-98.875
 31
0.0
  0
LINE
  5
B8
330
1F
100
AcDbEntity
  8
1
  6
Continuous
 62
     4
100
AcDbLine
 10
132.862739577732
 20
-98.0
 30
0.0
 11
132.862739577732
 21
-98.5
 31
0.0
  0
LINE
  5
B9
330
1F
100
AcDbEntity
  8
1
  6
Continuous
 62
     4
100
AcDbLine
 10
132.737739577732
 20
-97.625
 30
0.0
 11
132.862739577732
 21
-98.0
 31
0.0
  0
LINE
  5
BA
330
1F
100
AcDbEntity
  8
1
  6
Continuous
 62
     4
100
AcDbLine
 10
132.612739577732
 20
-97.375
 30
0.0
 11
132.737739577732
 21
-97.625
 31
0.0
  0
LINE
  5
BB
330
1F
100
AcDbEntity
  8
1
  6
Continuous
 62
     4
100
AcDbLine
 10
132.237739577732
 20
-97.125
 30
0.0
 11
132.612739577732
 21
-97.375
 31
0.0
  0
LINE
  5
BC
330
1F
100
AcDbEntity
  8
1
  6
Continuous
 62
     4
100
AcDbLine
 10
131.737739577732
 20
-97.0
 30
0.0
 11
132.237739577732
 21
-97.125
 31
0.0
  0
LINE
  5
BD
330
1F
100
AcDbEntity
  8
1
  6
Continuous
 62
     4
100
AcDbLine
 10
129.362739577732
 20
-97.0
 30
0.0
 11
131.737739577732
 21
-97.0
 31
0.0
  0
LINE
  5
BE
330
1F
100
AcDbEntity
  8
1
  6
Continuous
 62
     4
100
AcDbLine
 10
129.362739577732
 20
-99.5
 30
0.0
 11
129.362739577732
 21
-97.0
 31
0.0
  0
LINE
  5
BF
330
1F
100
AcDbEntity
  8
1
  6
Continuous
 62
     4
100
AcDbLine
 10
131.362739577732
 20
-99.5
 30
0.0
 11
129.362739577732
 21
-99.5
 31
0.0
  0
LINE
  5
C0
330
1F
100
AcDbEntity
  8
1
  6
Continuous
 62
     4
100
AcDbLine
 10
-3.2843136041315
 20
-99.0
 30
0.0
 11
-2.2843136041315
 21
-99.625
 31
0.0
  0
LINE
  5
C1
330
1F
100
AcDbEntity
  8
1
  6
Continuous
 62
     4
100
AcDbLine
 10
-1.9093136041315
 20
-98.6875
 30
0.0
 11
-2.7218136041315
 21
-98.0625
 31
0.0
  0
LINE
  5
C2
330
1F
100
AcDbEntity
  8
1
  6
Continuous
 62
     4
100
AcDbLine
 10
-1.2218136041315
 20
-97.9375
 30
0.0
 11
-0.7843136041315
 21
-98.375
 31
0.0
  0
LINE
  5
C3
330
1F
100
AcDbEntity
  8
1
  6
Continuous
 62
     4
100
AcDbLine
 10
-0.4718136041315
 20
-98.0625
 30
0.0
 11
-0.9093136041315
 21
-97.625
 31
0.0
  0
LINE
  5
C4
330
1F
100
AcDbEntity
  8
1
  6
Continuous
 62
     4
100
AcDbLine
 10
-0.7843136041315
 20
-99.9375
 30
0.0
 11
-0.0968136041315
 21
-99.0
 31
0.0
  0
LINE
  5
C5
330
1F
100
AcDbEntity
  8
1
  6
Continuous
 62
     4
100
AcDbLine
 10
-1.9093136041315
 20
-100.875
 30
0.0
 11
-0.7843136041315
 21
-99.9375
 31
0.0
  0
LINE
  5
C6
330
1F
100
AcDbEntity
  8
1
  6
Continuous
 62
     4
100
AcDbLine
 10
-2.9718136041315
 20
-101.5
 30
0.0
 11
-1.9093136041315
 21
-100.875
 31
0.0
  0
LINE
  5
C7
330
1F
100
AcDbEntity
  8
1
  6
Continuous
 62
     4
100
AcDbLine
 10
-5.6593136041315
 20
-100.125
 30
0.0
 11
-5.2218136041315
 21
-100.75
 31
0.0
  0
LINE
  5
C8
330
1F
100
AcDbEntity
  8
1
  6
Continuous
 62
     4
100
AcDbLine
 10
-6.2218136041315
 20
-99.625
 30
0.0
 11
-5.6593136041315
 21
-100.125
 31
0.0
  0
LINE
  5
C9
330
1F
100
AcDbEntity
  8
1
  6
Continuous
 62
     4
100
AcDbLine
 10
-6.5968136041315
 20
-97.625
 30
0.0
 11
-6.3468136041315
 21
-97.9375
 31
0.0
  0
LINE
  5
CA
330
1F
100
AcDbEntity
  8
1
  6
Continuous
 62
     4
100
AcDbLine
 10
-7.1593136041315
 20
-97.3125
 30
0.0
 11
-6.5968136041315
 21
-97.625
 31
0.0
  0
LINE
  5
CB
330
1F
100
AcDbEntity
  8
1
  6
Continuous
 62
     4
100
AcDbLine
 10
-5.9093136041315
 20
-98.5625
 30
0.0
 11
-7.8468136041315
 21
-98.5625
 31
0.0
  0
LINE
  5
CC
330
1F
100
AcDbEntity
  8
1
  6
Continuous
 62
     4
100
AcDbLine
 10
-6.9093136041315
 20
-99.625
 30
0.0
 11
-5.9093136041315
 21
-98.5625
 31
0.0
  0
LINE
  5
CD
330
1F
100
AcDbEntity
  8
1
  6
Continuous
 62
     4
100
AcDbLine
 10
-8.2843136041315
 20
-100.5625
 30
0.0
 11
-6.9093136041315
 21
-99.625
 31
0.0
  0
LINE
  5
CE
330
1F
100
AcDbEntity
  8
1
  6
Continuous
 62
     4
100
AcDbLine
 10
-6.7218136041315
 20
-101.5
 30
0.0
 11
-6.7218136041315
 21
-99.5
 31
0.0
  0
LINE
  5
CF
330
1F
100
AcDbEntity
  8
1
  6
Continuous
 62
     4
100
AcDbLine
 10
-11.2218136041315
 20
-100.0
 30
0.0
 11
-11.2218136041315
 21
-102.0
 31
0.0
  0
LINE
  5
D0
330
1F
100
AcDbEntity
  8
1
  6
Continuous
 62
     4
100
AcDbLine
 10
-13.4718136041315
 20
-101.0
 30
0.0
 11
-10.4718136041315
 21
-101.0
 31
0.0
  0
LINE
  5
D1
330
1F
100
AcDbEntity
  8
1
  6
Continuous
 62
     4
100
AcDbLine
 10
-11.2218136041315
 20
-97.0
 30
0.0
 11
-13.4718136041315
 21
-101.0
 31
0.0
  0
LINE
  5
D2
330
1F
100
AcDbEntity
  8
1
  6
Continuous
 62
     4
100
AcDbLine
 10
-16.9718136041315
 20
-102.0
 30
0.0
 11
-14.9718136041315
 21
-97.0
 31
0.0
  0
LINE
  5
D3
330
1F
100
AcDbEntity
  8
1
  6
Continuous
 62
     4
100
AcDbLine
 10
-19.5968136041315
 20
-102.0
 30
0.0
 11
-21.4718136041315
 21
-102.0
 31
0.0
  0
LINE
  5
D4
330
1F
100
AcDbEntity
  8
1
  6
Continuous
 62
     4
100
AcDbLine
 10
-19.2218136041315
 20
-101.875
 30
0.0
 11
-19.5968136041315
 21
-102.0
 31
0.0
  0
LINE
  5
D5
330
1F
100
AcDbEntity
  8
1
  6
Continuous
 62
     4
100
AcDbLine
 10
-18.8468136041315
 20
-101.625
 30
0.0
 11
-19.2218136041315
 21
-101.875
 31
0.0
  0
LINE
  5
D6
330
1F
100
AcDbEntity
  8
1
  6
Continuous
 62
     4
100
AcDbLine
 10
-18.5968136041315
 20
-101.25
 30
0.0
 11
-18.8468136041315
 21
-101.625
 31
0.0
  0
LINE
  5
D7
330
1F
100
AcDbEntity
  8
1
  6
Continuous
 62
     4
100
AcDbLine
 10
-18.4718136041315
 20
-100.75
 30
0.0
 11
-18.5968136041315
 21
-101.25
 31
0.0
  0
LINE
  5
D8
330
1F
100
AcDbEntity
  8
1
  6
Continuous
 62
     4
100
AcDbLine
 10
-18.4718136041315
 20
-100.125
 30
0.0
 11
-18.4718136041315
 21
-100.75
 31
0.0
  0
LINE
  5
D9
330
1F
100
AcDbEntity
  8
1
  6
Continuous
 62
     4
100
AcDbLine
 10
-18.5968136041315
 20
-99.625
 30
0.0
 11
-18.4718136041315
 21
-100.125
 31
0.0
  0
LINE
  5
DA
330
1F
100
AcDbEntity
  8
1
  6
Continuous
 62
     4
100
AcDbLine
 10
-18.7218136041315
 20
-99.375
 30
0.0
 11
-18.5968136041315
 21
-99.625
 31
0.0
  0
LINE
  5
DB
330
1F
100
AcDbEntity
  8
1
  6
Continuous
 62
     4
100
AcDbLine
 10
-18.9718136041315
 20
-99.125
 30
0.0
 11
-18.7218136041315
 21
-99.375
 31
0.0
  0
LINE
  5
DC
330
1F
100
AcDbEntity
  8
1
  6
Continuous
 62
     4
100
AcDbLine
 10
-19.4718136041315
 20
-99.0
 30
0.0
 11
-18.9718136041315
 21
-99.125
 31
0.0
  0
LINE
  5
DD
330
1F
100
AcDbEntity
  8
1
  6
Continuous
 62
     4
100
AcDbLine
 10
-19.0968136041315
 20
-98.875
 30
0.0
 11
-19.4718136041315
 21
-99.0
 31
0.0
  0
LINE
  5
DE
330
1F
100
AcDbEntity
  8
1
  6
Continuous
 62
     4
100
AcDbLine
 10
-18.8468136041315
 20
-98.75
 30
0.0
 11
-19.0968136041315
 21
-98.875
 31
0.0
  0
LINE
  5
DF
330
1F
100
AcDbEntity
  8
1
  6
Continuous
 62
     4
100
AcDbLine
 10
-18.5968136041315
 20
-98.5
 30
0.0
 11
-18.8468136041315
 21
-98.75
 31
0.0
  0
LINE
  5
E0
330
1F
100
AcDbEntity
  8
1
  6
Continuous
 62
     4
100
AcDbLine
 10
-18.4718136041315
 20
-98.125
 30
0.0
 11
-18.5968136041315
 21
-98.5
 31
0.0
  0
LINE
  5
E1
330
1F
100
AcDbEntity
  8
1
  6
Continuous
 62
     4
100
AcDbLine
 10
-18.4718136041315
 20
-97.75
 30
0.0
 11
-18.4718136041315
 21
-98.125
 31
0.0
  0
LINE
  5
E2
330
1F
100
AcDbEntity
  8
1
  6
Continuous
 62
     4
100
AcDbLine
 10
-18.5968136041315
 20
-97.375
 30
0.0
 11
-18.4718136041315
 21
-97.75
 31
0.0
  0
LINE
  5
E3
330
1F
100
AcDbEntity
  8
1
  6
Continuous
 62
     4
100
AcDbLine
 10
-18.9718136041315
 20
-97.125
 30
0.0
 11
-18.5968136041315
 21
-97.375
 31
0.0
  0
LINE
  5
E4
330
1F
100
AcDbEntity
  8
1
  6
Continuous
 62
     4
100
AcDbLine
 10
-19.5968136041315
 20
-97.0
 30
0.0
 11
-18.9718136041315
 21
-97.125
 31
0.0
  0
LINE
  5
E5
330
1F
100
AcDbEntity
  8
1
  6
Continuous
 62
     4
100
AcDbLine
 10
-21.4718136041315
 20
-97.0
 30
0.0
 11
-19.5968136041315
 21
-97.0
 31
0.0
  0
LINE
  5
E6
330
1F
100
AcDbEntity
  8
1
  6
Continuous
 62
     4
100
AcDbLine
 10
-20.7218136041315
 20
-99.0
 30
0.0
 11
-19.4718136041315
 21
-99.0
 31
0.0
  0
LINE
  5
E7
330
1F
100
AcDbEntity
  8
1
  6
Continuous
 62
     4
100
AcDbLine
 10
-24.8468136041315
 20
-102.0
 30
0.0
 11
-22.9718136041315
 21
-102.0
 31
0.0
  0
LINE
  5
E8
330
1F
100
AcDbEntity
  8
1
  6
Continuous
 62
     4
100
AcDbLine
 10
-25.3468136041315
 20
-101.875
 30
0.0
 11
-24.8468136041315
 21
-102.0
 31
0.0
  0
LINE
  5
E9
330
1F
100
AcDbEntity
  8
1
  6
Continuous
 62
     4
100
AcDbLine
 10
-25.5968136041315
 20
-101.75
 30
0.0
 11
-25.3468136041315
 21
-101.875
 31
0.0
  0
LINE
  5
EA
330
1F
100
AcDbEntity
  8
1
  6
Continuous
 62
     4
100
AcDbLine
 10
-25.8468136041315
 20
-101.5
 30
0.0
 11
-25.5968136041315
 21
-101.75
 31
0.0
  0
LINE
  5
EB
330
1F
100
AcDbEntity
  8
1
  6
Continuous
 62
     4
100
AcDbLine
 10
-25.9718136041315
 20
-101.0
 30
0.0
 11
-25.8468136041315
 21
-101.5
 31
0.0
  0
LINE
  5
EC
330
1F
100
AcDbEntity
  8
1
  6
Continuous
 62
     4
100
AcDbLine
 10
-25.9718136041315
 20
-99.5
 30
0.0
 11
-25.9718136041315
 21
-101.0
 31
0.0
  0
LINE
  5
ED
330
1F
100
AcDbEntity
  8
1
  6
Continuous
 62
     4
100
AcDbLine
 10
-25.8468136041315
 20
-99.0
 30
0.0
 11
-25.9718136041315
 21
-99.5
 31
0.0
  0
LINE
  5
EE
330
1F
100
AcDbEntity
  8
1
  6
Continuous
 62
     4
100
AcDbLine
 10
-25.5968136041315
 20
-98.75
 30
0.0
 11
-25.8468136041315
 21
-99.0
 31
0.0
  0
LINE
  5
EF
330
1F
100
AcDbEntity
  8
1
  6
Continuous
 62
     4
100
AcDbLine
 10
-25.3468136041315
 20
-98.625
 30
0.0
 11
-25.5968136041315
 21
-98.75
 31
0.0
  0
LINE
  5
F0
330
1F
100
AcDbEntity
  8
1
  6
Continuous
 62
     4
100
AcDbLine
 10
-24.8468136041315
 20
-98.5
 30
0.0
 11
-25.3468136041315
 21
-98.625
 31
0.0
  0
LINE
  5
F1
330
1F
100
AcDbEntity
  8
1
  6
Continuous
 62
     4
100
AcDbLine
 10
-22.9718136041315
 20
-98.5
 30
0.0
 11
-24.8468136041315
 21
-98.5
 31
0.0
  0
LINE
  5
F2
330
1F
100
AcDbEntity
  8
1
  6
Continuous
 62
     4
100
AcDbLine
 10
-30.9718136041315
 20
-102.0
 30
0.0
 11
-30.9718136041315
 21
-99.5
 31
0.0
  0
LINE
  5
F3
330
1F
100
AcDbEntity
  8
1
  6
Continuous
 62
     4
100
AcDbLine
 10
-28.9718136041315
 20
-99.5
 30
0.0
 11
-27.4718136041315
 21
-102.0
 31
0.0
  0
LINE
  5
F4
330
1F
100
AcDbEntity
  8
1
  6
Continuous
 62
     4
100
AcDbLine
 10
-28.5968136041315
 20
-99.5
 30
0.0
 11
-28.9718136041315
 21
-99.5
 31
0.0
  0
LINE
  5
F5
330
1F
100
AcDbEntity
  8
1
  6
Continuous
 62
     4
100
AcDbLine
 10
-28.0968136041315
 20
-99.375
 30
0.0
 11
-28.5968136041315
 21
-99.5
 31
0.0
  0
LINE
  5
F6
330
1F
100
AcDbEntity
  8
1
  6
Continuous
 62
     4
100
AcDbLine
 10
-27.7218136041315
 20
-99.125
 30
0.0
 11
-28.0968136041315
 21
-99.375
 31
0.0
  0
LINE
  5
F7
330
1F
100
AcDbEntity
  8
1
  6
Continuous
 62
     4
100
AcDbLine
 10
-27.5968136041315
 20
-98.875
 30
0.0
 11
-27.7218136041315
 21
-99.125
 31
0.0
  0
LINE
  5
F8
330
1F
100
AcDbEntity
  8
1
  6
Continuous
 62
     4
100
AcDbLine
 10
-27.4718136041315
 20
-98.5
 30
0.0
 11
-27.5968136041315
 21
-98.875
 31
0.0
  0
LINE
  5
F9
330
1F
100
AcDbEntity
  8
1
  6
Continuous
 62
     4
100
AcDbLine
 10
-27.4718136041315
 20
-98.0
 30
0.0
 11
-27.4718136041315
 21
-98.5
 31
0.0
  0
LINE
  5
FA
330
1F
100
AcDbEntity
  8
1
  6
Continuous
 62
     4
100
AcDbLine
 10
-27.5968136041315
 20
-97.625
 30
0.0
 11
-27.4718136041315
 21
-98.0
 31
0.0
  0
LINE
  5
FB
330
1F
100
AcDbEntity
  8
1
  6
Continuous
 62
     4
100
AcDbLine
 10
-27.7218136041315
 20
-97.375
 30
0.0
 11
-27.5968136041315
 21
-97.625
 31
0.0
  0
LINE
  5
FC
330
1F
100
AcDbEntity
  8
1
  6
Continuous
 62
     4
100
AcDbLine
 10
-28.0968136041315
 20
-97.125
 30
0.0
 11
-27.7218136041315
 21
-97.375
 31
0.0
  0
LINE
  5
FD
330
1F
100
AcDbEntity
  8
1
  6
Continuous
 62
     4
100
AcDbLine
 10
-28.5968136041315
 20
-97.0
 30
0.0
 11
-28.0968136041315
 21
-97.125
 31
0.0
  0
LINE
  5
FE
330
1F
100
AcDbEntity
  8
1
  6
Continuous
 62
     4
100
AcDbLine
 10
-30.9718136041315
 20
-97.0
 30
0.0
 11
-28.5968136041315
 21
-97.0
 31
0.0
  0
LINE
  5
FF
330
1F
100
AcDbEntity
  8
1
  6
Continuous
 62
     4
100
AcDbLine
 10
-30.9718136041315
 20
-99.5
 30
0.0
 11
-30.9718136041315
 21
-97.0
 31
0.0
  0
LINE
  5
100
330
1F
100
AcDbEntity
  8
1
  6
Continuous
 62
     4
100
AcDbLine
 10
-28.9718136041315
 20
-99.5
 30
0.0
 11
-30.9718136041315
 21
-99.5
 31
0.0
  0
LINE
  5
101
330
1F
100
AcDbEntity
  8
1
  6
Continuous
 62
     4
100
AcDbLine
 10
227.343844875981
 20
343.067314242537
 30
0.0
 11
225.468844875981
 21
343.067314242537
 31
0.0
  0
LINE
  5
102
330
1F
100
AcDbEntity
  8
1
  6
Continuous
 62
     4
100
AcDbLine
 10
227.718844875981
 20
343.192314242537
 30
0.0
 11
227.343844875981
 21
343.067314242537
 31
0.0
  0
LINE
  5
103
330
1F
100
AcDbEntity
  8
1
  6
Continuous
 62
     4
100
AcDbLine
 10
228.093844875981
 20
343.442314242537
 30
0.0
 11
227.718844875981
 21
343.192314242537
 31
0.0
  0
LINE
  5
104
330
1F
100
AcDbEntity
  8
1
  6
Continuous
 62
     4
100
AcDbLine
 10
228.343844875981
 20
343.817314242537
 30
0.0
 11
228.093844875981
 21
343.442314242537
 31
0.0
  0
LINE
  5
105
330
1F
100
AcDbEntity
  8
1
  6
Continuous
 62
     4
100
AcDbLine
 10
228.468844875981
 20
344.317314242537
 30
0.0
 11
228.343844875981
 21
343.817314242537
 31
0.0
  0
LINE
  5
106
330
1F
100
AcDbEntity
  8
1
  6
Continuous
 62
     4
100
AcDbLine
 10
228.468844875981
 20
345.067314242537
 30
0.0
 11
228.468844875981
 21
344.317314242537
 31
0.0
  0
LINE
  5
107
330
1F
100
AcDbEntity
  8
1
  6
Continuous
 62
     4
100
AcDbLine
 10
228.343844875981
 20
345.567314242537
 30
0.0
 11
228.468844875981
 21
345.067314242537
 31
0.0
  0
LINE
  5
108
330
1F
100
AcDbEntity
  8
1
  6
Continuous
 62
     4
100
AcDbLine
 10
227.968844875981
 20
345.942314242537
 30
0.0
 11
228.343844875981
 21
345.567314242537
 31
0.0
  0
LINE
  5
109
330
1F
100
AcDbEntity
  8
1
  6
Continuous
 62
     4
100
AcDbLine
 10
227.343844875981
 20
346.067314242537
 30
0.0
 11
227.968844875981
 21
345.942314242537
 31
0.0
  0
LINE
  5
10A
330
1F
100
AcDbEntity
  8
1
  6
Continuous
 62
     4
100
AcDbLine
 10
225.468844875981
 20
346.067314242537
 30
0.0
 11
227.343844875981
 21
346.067314242537
 31
0.0
  0
LINE
  5
10B
330
1F
100
AcDbEntity
  8
1
  6
Continuous
 62
     4
100
AcDbLine
 10
225.468844875981
 20
348.067314242537
 30
0.0
 11
225.468844875981
 21
346.067314242537
 31
0.0
  0
LINE
  5
10C
330
1F
100
AcDbEntity
  8
1
  6
Continuous
 62
     4
100
AcDbLine
 10
228.218844875981
 20
348.067314242537
 30
0.0
 11
225.468844875981
 21
348.067314242537
 31
0.0
  0
LINE
  5
10D
330
1F
100
AcDbEntity
  8
1
  6
Continuous
 62
     4
100
AcDbLine
 10
222.468844875981
 20
343.567314242537
 30
0.0
 11
221.343844875981
 21
343.067314242537
 31
0.0
  0
LINE
  5
10E
330
1F
100
AcDbEntity
  8
1
  6
Continuous
 62
     4
100
AcDbLine
 10
223.343844875981
 20
344.317314242537
 30
0.0
 11
222.468844875981
 21
343.567314242537
 31
0.0
  0
LINE
  5
10F
330
1F
100
AcDbEntity
  8
1
  6
Continuous
 62
     4
100
AcDbLine
 10
223.718844875981
 20
344.817314242537
 30
0.0
 11
223.343844875981
 21
344.317314242537
 31
0.0
  0
LINE
  5
110
330
1F
100
AcDbEntity
  8
1
  6
Continuous
 62
     4
100
AcDbLine
 10
223.843844875981
 20
345.317314242537
 30
0.0
 11
223.718844875981
 21
344.817314242537
 31
0.0
  0
LINE
  5
111
330
1F
100
AcDbEntity
  8
1
  6
Continuous
 62
     4
100
AcDbLine
 10
223.968844875981
 20
345.942314242537
 30
0.0
 11
223.843844875981
 21
345.317314242537
 31
0.0
  0
LINE
  5
112
330
1F
100
AcDbEntity
  8
1
  6
Continuous
 62
     4
100
AcDbLine
 10
223.968844875981
 20
346.817314242537
 30
0.0
 11
223.968844875981
 21
345.942314242537
 31
0.0
  0
LINE
  5
113
330
1F
100
AcDbEntity
  8
1
  6
Continuous
 62
     4
100
AcDbLine
 10
223.843844875981
 20
347.317314242537
 30
0.0
 11
223.968844875981
 21
346.817314242537
 31
0.0
  0
LINE
  5
114
330
1F
100
AcDbEntity
  8
1
  6
Continuous
 62
     4
100
AcDbLine
 10
223.593844875981
 20
347.692314242537
 30
0.0
 11
223.843844875981
 21
347.317314242537
 31
0.0
  0
LINE
  5
115
330
1F
100
AcDbEntity
  8
1
  6
Continuous
 62
     4
100
AcDbLine
 10
223.218844875981
 20
347.942314242537
 30
0.0
 11
223.593844875981
 21
347.692314242537
 31
0.0
  0
LINE
  5
116
330
1F
100
AcDbEntity
  8
1
  6
Continuous
 62
     4
100
AcDbLine
 10
222.843844875981
 20
348.067314242537
 30
0.0
 11
223.218844875981
 21
347.942314242537
 31
0.0
  0
LINE
  5
117
330
1F
100
AcDbEntity
  8
1
  6
Continuous
 62
     4
100
AcDbLine
 10
222.093844875981
 20
348.067314242537
 30
0.0
 11
222.843844875981
 21
348.067314242537
 31
0.0
  0
LINE
  5
118
330
1F
100
AcDbEntity
  8
1
  6
Continuous
 62
     4
100
AcDbLine
 10
221.718844875981
 20
347.942314242537
 30
0.0
 11
222.093844875981
 21
348.067314242537
 31
0.0
  0
LINE
  5
119
330
1F
100
AcDbEntity
  8
1
  6
Continuous
 62
     4
100
AcDbLine
 10
221.343844875981
 20
347.692314242537
 30
0.0
 11
221.718844875981
 21
347.942314242537
 31
0.0
  0
LINE
  5
11A
330
1F
100
AcDbEntity
  8
1
  6
Continuous
 62
     4
100
AcDbLine
 10
221.093844875981
 20
347.317314242537
 30
0.0
 11
221.343844875981
 21
347.692314242537
 31
0.0
  0
LINE
  5
11B
330
1F
100
AcDbEntity
  8
1
  6
Continuous
 62
     4
100
AcDbLine
 10
220.968844875981
 20
346.817314242537
 30
0.0
 11
221.093844875981
 21
347.317314242537
 31
0.0
  0
LINE
  5
11C
330
1F
100
AcDbEntity
  8
1
  6
Continuous
 62
     4
100
AcDbLine
 10
220.968844875981
 20
346.567314242537
 30
0.0
 11
220.968844875981
 21
346.817314242537
 31
0.0
  0
LINE
  5
11D
330
1F
100
AcDbEntity
  8
1
  6
Continuous
 62
     4
100
AcDbLine
 10
221.093844875981
 20
346.067314242537
 30
0.0
 11
220.968844875981
 21
346.567314242537
 31
0.0
  0
LINE
  5
11E
330
1F
100
AcDbEntity
  8
1
  6
Continuous
 62
     4
100
AcDbLine
 10
221.343844875981
 20
345.692314242537
 30
0.0
 11
221.093844875981
 21
346.067314242537
 31
0.0
  0
LINE
  5
11F
330
1F
100
AcDbEntity
  8
1
  6
Continuous
 62
     4
100
AcDbLine
 10
221.718844875981
 20
345.442314242537
 30
0.0
 11
221.343844875981
 21
345.692314242537
 31
0.0
  0
LINE
  5
120
330
1F
100
AcDbEntity
  8
1
  6
Continuous
 62
     4
100
AcDbLine
 10
222.093844875981
 20
345.317314242537
 30
0.0
 11
221.718844875981
 21
345.442314242537
 31
0.0
  0
LINE
  5
121
330
1F
100
AcDbEntity
  8
1
  6
Continuous
 62
     4
100
AcDbLine
 10
223.843844875981
 20
345.317314242537
 30
0.0
 11
222.093844875981
 21
345.317314242537
 31
0.0
  0
LINE
  5
122
330
1F
100
AcDbEntity
  8
1
  6
Continuous
 62
     4
100
AcDbLine
 10
219.468844875981
 20
348.067314242537
 30
0.0
 11
216.968844875981
 21
343.067314242537
 31
0.0
  0
LINE
  5
123
330
1F
100
AcDbEntity
  8
1
  6
Continuous
 62
     4
100
AcDbLine
 10
216.468844875981
 20
348.067314242537
 30
0.0
 11
219.468844875981
 21
348.067314242537
 31
0.0
  0
LINE
  5
124
330
1F
100
AcDbEntity
  8
1
  6
Continuous
 62
     4
100
AcDbLine
 10
216.468844875981
 20
347.567314242537
 30
0.0
 11
216.468844875981
 21
348.067314242537
 31
0.0
  0
LINE
  5
125
330
1F
100
AcDbEntity
  8
1
  6
Continuous
 62
     4
100
AcDbLine
 10
197.468844875981
 20
347.692314242537
 30
0.0
 11
197.843844875981
 21
347.942314242537
 31
0.0
  0
LINE
  5
126
330
1F
100
AcDbEntity
  8
1
  6
Continuous
 62
     4
100
AcDbLine
 10
197.218844875981
 20
347.317314242537
 30
0.0
 11
197.468844875981
 21
347.692314242537
 31
0.0
  0
LINE
  5
127
330
1F
100
AcDbEntity
  8
1
  6
Continuous
 62
     4
100
AcDbLine
 10
197.218844875981
 20
346.817314242537
 30
0.0
 11
197.218844875981
 21
347.317314242537
 31
0.0
  0
LINE
  5
128
330
1F
100
AcDbEntity
  8
1
  6
Continuous
 62
     4
100
AcDbLine
 10
197.468844875981
 20
346.442314242537
 30
0.0
 11
197.218844875981
 21
346.817314242537
 31
0.0
  0
LINE
  5
129
330
1F
100
AcDbEntity
  8
1
  6
Continuous
 62
     4
100
AcDbLine
 10
197.843844875981
 20
346.192314242537
 30
0.0
 11
197.468844875981
 21
346.442314242537
 31
0.0
  0
LINE
  5
12A
330
1F
100
AcDbEntity
  8
1
  6
Continuous
 62
     4
100
AcDbLine
 10
198.218844875981
 20
346.067314242537
 30
0.0
 11
197.843844875981
 21
346.192314242537
 31
0.0
  0
LINE
  5
12B
330
1F
100
AcDbEntity
  8
1
  6
Continuous
 62
     4
100
AcDbLine
 10
198.718844875981
 20
346.067314242537
 30
0.0
 11
198.218844875981
 21
346.067314242537
 31
0.0
  0
LINE
  5
12C
330
1F
100
AcDbEntity
  8
1
  6
Continuous
 62
     4
100
AcDbLine
 10
199.093844875981
 20
346.192314242537
 30
0.0
 11
198.718844875981
 21
346.067314242537
 31
0.0
  0
LINE
  5
12D
330
1F
100
AcDbEntity
  8
1
  6
Continuous
 62
     4
100
AcDbLine
 10
199.468844875981
 20
346.442314242537
 30
0.0
 11
199.093844875981
 21
346.192314242537
 31
0.0
  0
LINE
  5
12E
330
1F
100
AcDbEntity
  8
1
  6
Continuous
 62
     4
100
AcDbLine
 10
199.718844875981
 20
346.817314242537
 30
0.0
 11
199.468844875981
 21
346.442314242537
 31
0.0
  0
LINE
  5
12F
330
1F
100
AcDbEntity
  8
1
  6
Continuous
 62
     4
100
AcDbLine
 10
199.718844875981
 20
347.317314242537
 30
0.0
 11
199.718844875981
 21
346.817314242537
 31
0.0
  0
LINE
  5
130
330
1F
100
AcDbEntity
  8
1
  6
Continuous
 62
     4
100
AcDbLine
 10
199.468844875981
 20
347.692314242537
 30
0.0
 11
199.718844875981
 21
347.317314242537
 31
0.0
  0
LINE
  5
131
330
1F
100
AcDbEntity
  8
1
  6
Continuous
 62
     4
100
AcDbLine
 10
199.093844875981
 20
347.942314242537
 30
0.0
 11
199.468844875981
 21
347.692314242537
 31
0.0
  0
LINE
  5
132
330
1F
100
AcDbEntity
  8
1
  6
Continuous
 62
     4
100
AcDbLine
 10
198.718844875981
 20
348.067314242537
 30
0.0
 11
199.093844875981
 21
347.942314242537
 31
0.0
  0
LINE
  5
133
330
1F
100
AcDbEntity
  8
1
  6
Continuous
 62
     4
100
AcDbLine
 10
198.218844875981
 20
348.067314242537
 30
0.0
 11
198.718844875981
 21
348.067314242537
 31
0.0
  0
LINE
  5
134
330
1F
100
AcDbEntity
  8
1
  6
Continuous
 62
     4
100
AcDbLine
 10
197.843844875981
 20
347.942314242537
 30
0.0
 11
198.218844875981
 21
348.067314242537
 31
0.0
  0
LINE
  5
135
330
1F
100
AcDbEntity
  8
1
  6
Continuous
 62
     4
100
AcDbLine
 10
199.343844875981
 20
345.817314242537
 30
0.0
 11
198.718844875981
 21
346.067314242537
 31
0.0
  0
LINE
  5
136
330
1F
100
AcDbEntity
  8
1
  6
Continuous
 62
     4
100
AcDbLine
 10
199.718844875981
 20
345.442314242537
 30
0.0
 11
199.343844875981
 21
345.817314242537
 31
0.0
  0
LINE
  5
137
330
1F
100
AcDbEntity
  8
1
  6
Continuous
 62
     4
100
AcDbLine
 10
199.968844875981
 20
344.942314242537
 30
0.0
 11
199.718844875981
 21
345.442314242537
 31
0.0
  0
LINE
  5
138
330
1F
100
AcDbEntity
  8
1
  6
Continuous
 62
     4
100
AcDbLine
 10
199.968844875981
 20
344.192314242537
 30
0.0
 11
199.968844875981
 21
344.942314242537
 31
0.0
  0
LINE
  5
139
330
1F
100
AcDbEntity
  8
1
  6
Continuous
 62
     4
100
AcDbLine
 10
199.718844875981
 20
343.692314242537
 30
0.0
 11
199.968844875981
 21
344.192314242537
 31
0.0
  0
LINE
  5
13A
330
1F
100
AcDbEntity
  8
1
  6
Continuous
 62
     4
100
AcDbLine
 10
199.343844875981
 20
343.317314242537
 30
0.0
 11
199.718844875981
 21
343.692314242537
 31
0.0
  0
LINE
  5
13B
330
1F
100
AcDbEntity
  8
1
  6
Continuous
 62
     4
100
AcDbLine
 10
198.843844875981
 20
343.067314242537
 30
0.0
 11
199.343844875981
 21
343.317314242537
 31
0.0
  0
LINE
  5
13C
330
1F
100
AcDbEntity
  8
1
  6
Continuous
 62
     4
100
AcDbLine
 10
198.093844875981
 20
343.067314242537
 30
0.0
 11
198.843844875981
 21
343.067314242537
 31
0.0
  0
LINE
  5
13D
330
1F
100
AcDbEntity
  8
1
  6
Continuous
 62
     4
100
AcDbLine
 10
197.593844875981
 20
343.317314242537
 30
0.0
 11
198.093844875981
 21
343.067314242537
 31
0.0
  0
LINE
  5
13E
330
1F
100
AcDbEntity
  8
1
  6
Continuous
 62
     4
100
AcDbLine
 10
197.218844875981
 20
343.692314242537
 30
0.0
 11
197.593844875981
 21
343.317314242537
 31
0.0
  0
LINE
  5
13F
330
1F
100
AcDbEntity
  8
1
  6
Continuous
 62
     4
100
AcDbLine
 10
196.968844875981
 20
344.192314242537
 30
0.0
 11
197.218844875981
 21
343.692314242537
 31
0.0
  0
LINE
  5
140
330
1F
100
AcDbEntity
  8
1
  6
Continuous
 62
     4
100
AcDbLine
 10
196.968844875981
 20
344.942314242537
 30
0.0
 11
196.968844875981
 21
344.192314242537
 31
0.0
  0
LINE
  5
141
330
1F
100
AcDbEntity
  8
1
  6
Continuous
 62
     4
100
AcDbLine
 10
197.218844875981
 20
345.442314242537
 30
0.0
 11
196.968844875981
 21
344.942314242537
 31
0.0
  0
LINE
  5
142
330
1F
100
AcDbEntity
  8
1
  6
Continuous
 62
     4
100
AcDbLine
 10
197.593844875981
 20
345.817314242537
 30
0.0
 11
197.218844875981
 21
345.442314242537
 31
0.0
  0
LINE
  5
143
330
1F
100
AcDbEntity
  8
1
  6
Continuous
 62
     4
100
AcDbLine
 10
198.218844875981
 20
346.067314242537
 30
0.0
 11
197.593844875981
 21
345.817314242537
 31
0.0
  0
LINE
  5
144
330
1F
100
AcDbEntity
  8
1
  6
Continuous
 62
     4
100
AcDbLine
 10
195.593844875981
 20
343.317314242537
 30
0.0
 11
195.593844875981
 21
343.192314242537
 31
0.0
  0
LINE
  5
145
330
1F
100
AcDbEntity
  8
1
  6
Continuous
 62
     4
100
AcDbLine
 10
195.468844875981
 20
343.317314242537
 30
0.0
 11
195.593844875981
 21
343.317314242537
 31
0.0
  0
LINE
  5
146
330
1F
100
AcDbEntity
  8
1
  6
Continuous
 62
     4
100
AcDbLine
 10
195.468844875981
 20
343.192314242537
 30
0.0
 11
195.468844875981
 21
343.317314242537
 31
0.0
  0
LINE
  5
147
330
1F
100
AcDbEntity
  8
1
  6
Continuous
 62
     4
100
AcDbLine
 10
195.593844875981
 20
343.192314242537
 30
0.0
 11
195.468844875981
 21
343.192314242537
 31
0.0
  0
LINE
  5
148
330
1F
100
AcDbEntity
  8
1
  6
Continuous
 62
     4
100
AcDbLine
 10
195.718844875981
 20
343.442314242537
 30
0.0
 11
195.718844875981
 21
343.067314242537
 31
0.0
  0
LINE
  5
149
330
1F
100
AcDbEntity
  8
1
  6
Continuous
 62
     4
100
AcDbLine
 10
195.343844875981
 20
343.442314242537
 30
0.0
 11
195.718844875981
 21
343.442314242537
 31
0.0
  0
LINE
  5
14A
330
1F
100
AcDbEntity
  8
1
  6
Continuous
 62
     4
100
AcDbLine
 10
195.343844875981
 20
343.067314242537
 30
0.0
 11
195.343844875981
 21
343.442314242537
 31
0.0
  0
LINE
  5
14B
330
1F
100
AcDbEntity
  8
1
  6
Continuous
 62
     4
100
AcDbLine
 10
195.718844875981
 20
343.067314242537
 30
0.0
 11
195.343844875981
 21
343.067314242537
 31
0.0
  0
LINE
  5
14C
330
1F
100
AcDbEntity
  8
1
  6
Continuous
 62
     4
100
AcDbLine
 10
193.843844875981
 20
346.192314242537
 30
0.0
 11
193.843844875981
 21
344.942314242537
 31
0.0
  0
LINE
  5
14D
330
1F
100
AcDbEntity
  8
1
  6
Continuous
 62
     4
100
AcDbLine
 10
193.718844875981
 20
346.942314242537
 30
0.0
 11
193.843844875981
 21
346.192314242537
 31
0.0
  0
LINE
  5
14E
330
1F
100
AcDbEntity
  8
1
  6
Continuous
 62
     4
100
AcDbLine
 10
193.468844875981
 20
347.442314242537
 30
0.0
 11
193.718844875981
 21
346.942314242537
 31
0.0
  0
LINE
  5
14F
330
1F
100
AcDbEntity
  8
1
  6
Continuous
 62
     4
100
AcDbLine
 10
193.218844875981
 20
347.692314242537
 30
0.0
 11
193.468844875981
 21
347.442314242537
 31
0.0
  0
LINE
  5
150
330
1F
100
AcDbEntity
  8
1
  6
Continuous
 62
     4
100
AcDbLine
 10
192.843844875981
 20
347.942314242537
 30
0.0
 11
193.218844875981
 21
347.692314242537
 31
0.0
  0
LINE
  5
151
330
1F
100
AcDbEntity
  8
1
  6
Continuous
 62
     4
100
AcDbLine
 10
192.468844875981
 20
348.067314242537
 30
0.0
 11
192.843844875981
 21
347.942314242537
 31
0.0
  0
LINE
  5
152
330
1F
100
AcDbEntity
  8
1
  6
Continuous
 62
     4
100
AcDbLine
 10
192.218844875981
 20
348.067314242537
 30
0.0
 11
192.468844875981
 21
348.067314242537
 31
0.0
  0
LINE
  5
153
330
1F
100
AcDbEntity
  8
1
  6
Continuous
 62
     4
100
AcDbLine
 10
191.843844875981
 20
347.942314242537
 30
0.0
 11
192.218844875981
 21
348.067314242537
 31
0.0
  0
LINE
  5
154
330
1F
100
AcDbEntity
  8
1
  6
Continuous
 62
     4
100
AcDbLine
 10
191.468844875981
 20
347.692314242537
 30
0.0
 11
191.843844875981
 21
347.942314242537
 31
0.0
  0
LINE
  5
155
330
1F
100
AcDbEntity
  8
1
  6
Continuous
 62
     4
100
AcDbLine
 10
191.218844875981
 20
347.442314242537
 30
0.0
 11
191.468844875981
 21
347.692314242537
 31
0.0
  0
LINE
  5
156
330
1F
100
AcDbEntity
  8
1
  6
Continuous
 62
     4
100
AcDbLine
 10
190.968844875981
 20
346.942314242537
 30
0.0
 11
191.218844875981
 21
347.442314242537
 31
0.0
  0
LINE
  5
157
330
1F
100
AcDbEntity
  8
1
  6
Continuous
 62
     4
100
AcDbLine
 10
190.843844875981
 20
346.192314242537
 30
0.0
 11
190.968844875981
 21
346.942314242537
 31
0.0
  0
LINE
  5
158
330
1F
100
AcDbEntity
  8
1
  6
Continuous
 62
     4
100
AcDbLine
 10
190.843844875981
 20
344.942314242537
 30
0.0
 11
190.843844875981
 21
346.192314242537
 31
0.0
  0
LINE
  5
159
330
1F
100
AcDbEntity
  8
1
  6
Continuous
 62
     4
100
AcDbLine
 10
190.968844875981
 20
344.192314242537
 30
0.0
 11
190.843844875981
 21
344.942314242537
 31
0.0
  0
LINE
  5
15A
330
1F
100
AcDbEntity
  8
1
  6
Continuous
 62
     4
100
AcDbLine
 10
191.218844875981
 20
343.692314242537
 30
0.0
 11
190.968844875981
 21
344.192314242537
 31
0.0
  0
LINE
  5
15B
330
1F
100
AcDbEntity
  8
1
  6
Continuous
 62
     4
100
AcDbLine
 10
191.468844875981
 20
343.442314242537
 30
0.0
 11
191.218844875981
 21
343.692314242537
 31
0.0
  0
LINE
  5
15C
330
1F
100
AcDbEntity
  8
1
  6
Continuous
 62
     4
100
AcDbLine
 10
191.843844875981
 20
343.192314242537
 30
0.0
 11
191.468844875981
 21
343.442314242537
 31
0.0
  0
LINE
  5
15D
330
1F
100
AcDbEntity
  8
1
  6
Continuous
 62
     4
100
AcDbLine
 10
192.218844875981
 20
343.067314242537
 30
0.0
 11
191.843844875981
 21
343.192314242537
 31
0.0
  0
LINE
  5
15E
330
1F
100
AcDbEntity
  8
1
  6
Continuous
 62
     4
100
AcDbLine
 10
192.468844875981
 20
343.067314242537
 30
0.0
 11
192.218844875981
 21
343.067314242537
 31
0.0
  0
LINE
  5
15F
330
1F
100
AcDbEntity
  8
1
  6
Continuous
 62
     4
100
AcDbLine
 10
192.843844875981
 20
343.192314242537
 30
0.0
 11
192.468844875981
 21
343.067314242537
 31
0.0
  0
LINE
  5
160
330
1F
100
AcDbEntity
  8
1
  6
Continuous
 62
     4
100
AcDbLine
 10
193.218844875981
 20
343.442314242537
 30
0.0
 11
192.843844875981
 21
343.192314242537
 31
0.0
  0
LINE
  5
161
330
1F
100
AcDbEntity
  8
1
  6
Continuous
 62
     4
100
AcDbLine
 10
193.468844875981
 20
343.692314242537
 30
0.0
 11
193.218844875981
 21
343.442314242537
 31
0.0
  0
LINE
  5
162
330
1F
100
AcDbEntity
  8
1
  6
Continuous
 62
     4
100
AcDbLine
 10
193.718844875981
 20
344.192314242537
 30
0.0
 11
193.468844875981
 21
343.692314242537
 31
0.0
  0
LINE
  5
163
330
1F
100
AcDbEntity
  8
1
  6
Continuous
 62
     4
100
AcDbLine
 10
193.843844875981
 20
344.942314242537
 30
0.0
 11
193.718844875981
 21
344.192314242537
 31
0.0
  0
LINE
  5
164
330
1F
100
AcDbEntity
  8
1
  6
Continuous
 62
     4
100
AcDbLine
 10
227.343844875981
 20
351.397314242537
 30
0.0
 11
225.468844875981
 21
351.397314242537
 31
0.0
  0
LINE
  5
165
330
1F
100
AcDbEntity
  8
1
  6
Continuous
 62
     4
100
AcDbLine
 10
227.718844875981
 20
351.522314242537
 30
0.0
 11
227.343844875981
 21
351.397314242537
 31
0.0
  0
LINE
  5
166
330
1F
100
AcDbEntity
  8
1
  6
Continuous
 62
     4
100
AcDbLine
 10
228.093844875981
 20
351.772314242537
 30
0.0
 11
227.718844875981
 21
351.522314242537
 31
0.0
  0
LINE
  5
167
330
1F
100
AcDbEntity
  8
1
  6
Continuous
 62
     4
100
AcDbLine
 10
228.343844875981
 20
352.147314242537
 30
0.0
 11
228.093844875981
 21
351.772314242537
 31
0.0
  0
LINE
  5
168
330
1F
100
AcDbEntity
  8
1
  6
Continuous
 62
     4
100
AcDbLine
 10
228.468844875981
 20
352.647314242537
 30
0.0
 11
228.343844875981
 21
352.147314242537
 31
0.0
  0
LINE
  5
169
330
1F
100
AcDbEntity
  8
1
  6
Continuous
 62
     4
100
AcDbLine
 10
228.468844875981
 20
353.397314242537
 30
0.0
 11
228.468844875981
 21
352.647314242537
 31
0.0
  0
LINE
  5
16A
330
1F
100
AcDbEntity
  8
1
  6
Continuous
 62
     4
100
AcDbLine
 10
228.343844875981
 20
353.897314242537
 30
0.0
 11
228.468844875981
 21
353.397314242537
 31
0.0
  0
LINE
  5
16B
330
1F
100
AcDbEntity
  8
1
  6
Continuous
 62
     4
100
AcDbLine
 10
227.968844875981
 20
354.272314242537
 30
0.0
 11
228.343844875981
 21
353.897314242537
 31
0.0
  0
LINE
  5
16C
330
1F
100
AcDbEntity
  8
1
  6
Continuous
 62
     4
100
AcDbLine
 10
227.343844875981
 20
354.397314242537
 30
0.0
 11
227.968844875981
 21
354.272314242537
 31
0.0
  0
LINE
  5
16D
330
1F
100
AcDbEntity
  8
1
  6
Continuous
 62
     4
100
AcDbLine
 10
225.468844875981
 20
354.397314242537
 30
0.0
 11
227.343844875981
 21
354.397314242537
 31
0.0
  0
LINE
  5
16E
330
1F
100
AcDbEntity
  8
1
  6
Continuous
 62
     4
100
AcDbLine
 10
225.468844875981
 20
356.397314242537
 30
0.0
 11
225.468844875981
 21
354.397314242537
 31
0.0
  0
LINE
  5
16F
330
1F
100
AcDbEntity
  8
1
  6
Continuous
 62
     4
100
AcDbLine
 10
228.218844875981
 20
356.397314242537
 30
0.0
 11
225.468844875981
 21
356.397314242537
 31
0.0
  0
LINE
  5
170
330
1F
100
AcDbEntity
  8
1
  6
Continuous
 62
     4
100
AcDbLine
 10
222.468844875981
 20
351.897314242537
 30
0.0
 11
221.343844875981
 21
351.397314242537
 31
0.0
  0
LINE
  5
171
330
1F
100
AcDbEntity
  8
1
  6
Continuous
 62
     4
100
AcDbLine
 10
223.343844875981
 20
352.647314242537
 30
0.0
 11
222.468844875981
 21
351.897314242537
 31
0.0
  0
LINE
  5
172
330
1F
100
AcDbEntity
  8
1
  6
Continuous
 62
     4
100
AcDbLine
 10
223.718844875981
 20
353.147314242537
 30
0.0
 11
223.343844875981
 21
352.647314242537
 31
0.0
  0
LINE
  5
173
330
1F
100
AcDbEntity
  8
1
  6
Continuous
 62
     4
100
AcDbLine
 10
223.843844875981
 20
353.647314242537
 30
0.0
 11
223.718844875981
 21
353.147314242537
 31
0.0
  0
LINE
  5
174
330
1F
100
AcDbEntity
  8
1
  6
Continuous
 62
     4
100
AcDbLine
 10
223.968844875981
 20
354.272314242537
 30
0.0
 11
223.843844875981
 21
353.647314242537
 31
0.0
  0
LINE
  5
175
330
1F
100
AcDbEntity
  8
1
  6
Continuous
 62
     4
100
AcDbLine
 10
223.968844875981
 20
355.147314242537
 30
0.0
 11
223.968844875981
 21
354.272314242537
 31
0.0
  0
LINE
  5
176
330
1F
100
AcDbEntity
  8
1
  6
Continuous
 62
     4
100
AcDbLine
 10
223.843844875981
 20
355.647314242537
 30
0.0
 11
223.968844875981
 21
355.147314242537
 31
0.0
  0
LINE
  5
177
330
1F
100
AcDbEntity
  8
1
  6
Continuous
 62
     4
100
AcDbLine
 10
223.593844875981
 20
356.022314242537
 30
0.0
 11
223.843844875981
 21
355.647314242537
 31
0.0
  0
LINE
  5
178
330
1F
100
AcDbEntity
  8
1
  6
Continuous
 62
     4
100
AcDbLine
 10
223.218844875981
 20
356.272314242537
 30
0.0
 11
223.593844875981
 21
356.022314242537
 31
0.0
  0
LINE
  5
179
330
1F
100
AcDbEntity
  8
1
  6
Continuous
 62
     4
100
AcDbLine
 10
222.843844875981
 20
356.397314242537
 30
0.0
 11
223.218844875981
 21
356.272314242537
 31
0.0
  0
LINE
  5
17A
330
1F
100
AcDbEntity
  8
1
  6
Continuous
 62
     4
100
AcDbLine
 10
222.093844875981
 20
356.397314242537
 30
0.0
 11
222.843844875981
 21
356.397314242537
 31
0.0
  0
LINE
  5
17B
330
1F
100
AcDbEntity
  8
1
  6
Continuous
 62
     4
100
AcDbLine
 10
221.718844875981
 20
356.272314242537
 30
0.0
 11
222.093844875981
 21
356.397314242537
 31
0.0
  0
LINE
  5
17C
330
1F
100
AcDbEntity
  8
1
  6
Continuous
 62
     4
100
AcDbLine
 10
221.343844875981
 20
356.022314242537
 30
0.0
 11
221.718844875981
 21
356.272314242537
 31
0.0
  0
LINE
  5
17D
330
1F
100
AcDbEntity
  8
1
  6
Continuous
 62
     4
100
AcDbLine
 10
221.093844875981
 20
355.647314242537
 30
0.0
 11
221.343844875981
 21
356.022314242537
 31
0.0
  0
LINE
  5
17E
330
1F
100
AcDbEntity
  8
1
  6
Continuous
 62
     4
100
AcDbLine
 10
220.968844875981
 20
355.147314242537
 30
0.0
 11
221.093844875981
 21
355.647314242537
 31
0.0
  0
LINE
  5
17F
330
1F
100
AcDbEntity
  8
1
  6
Continuous
 62
     4
100
AcDbLine
 10
220.968844875981
 20
354.897314242537
 30
0.0
 11
220.968844875981
 21
355.147314242537
 31
0.0
  0
LINE
  5
180
330
1F
100
AcDbEntity
  8
1
  6
Continuous
 62
     4
100
AcDbLine
 10
221.093844875981
 20
354.397314242537
 30
0.0
 11
220.968844875981
 21
354.897314242537
 31
0.0
  0
LINE
  5
181
330
1F
100
AcDbEntity
  8
1
  6
Continuous
 62
     4
100
AcDbLine
 10
221.343844875981
 20
354.022314242537
 30
0.0
 11
221.093844875981
 21
354.397314242537
 31
0.0
  0
LINE
  5
182
330
1F
100
AcDbEntity
  8
1
  6
Continuous
 62
     4
100
AcDbLine
 10
221.718844875981
 20
353.772314242537
 30
0.0
 11
221.343844875981
 21
354.022314242537
 31
0.0
  0
LINE
  5
183
330
1F
100
AcDbEntity
  8
1
  6
Continuous
 62
     4
100
AcDbLine
 10
222.093844875981
 20
353.647314242537
 30
0.0
 11
221.718844875981
 21
353.772314242537
 31
0.0
  0
LINE
  5
184
330
1F
100
AcDbEntity
  8
1
  6
Continuous
 62
     4
100
AcDbLine
 10
223.843844875981
 20
353.647314242537
 30
0.0
 11
222.093844875981
 21
353.647314242537
 31
0.0
  0
LINE
  5
185
330
1F
100
AcDbEntity
  8
1
  6
Continuous
 62
     4
100
AcDbLine
 10
218.343844875981
 20
351.397314242537
 30
0.0
 11
216.468844875981
 21
351.397314242537
 31
0.0
  0
LINE
  5
186
330
1F
100
AcDbEntity
  8
1
  6
Continuous
 62
     4
100
AcDbLine
 10
218.718844875981
 20
351.522314242537
 30
0.0
 11
218.343844875981
 21
351.397314242537
 31
0.0
  0
LINE
  5
187
330
1F
100
AcDbEntity
  8
1
  6
Continuous
 62
     4
100
AcDbLine
 10
219.093844875981
 20
351.772314242537
 30
0.0
 11
218.718844875981
 21
351.522314242537
 31
0.0
  0
LINE
  5
188
330
1F
100
AcDbEntity
  8
1
  6
Continuous
 62
     4
100
AcDbLine
 10
219.343844875981
 20
352.147314242537
 30
0.0
 11
219.093844875981
 21
351.772314242537
 31
0.0
  0
LINE
  5
189
330
1F
100
AcDbEntity
  8
1
  6
Continuous
 62
     4
100
AcDbLine
 10
219.468844875981
 20
352.647314242537
 30
0.0
 11
219.343844875981
 21
352.147314242537
 31
0.0
  0
LINE
  5
18A
330
1F
100
AcDbEntity
  8
1
  6
Continuous
 62
     4
100
AcDbLine
 10
219.468844875981
 20
353.397314242537
 30
0.0
 11
219.468844875981
 21
352.647314242537
 31
0.0
  0
LINE
  5
18B
330
1F
100
AcDbEntity
  8
1
  6
Continuous
 62
     4
100
AcDbLine
 10
219.343844875981
 20
353.897314242537
 30
0.0
 11
219.468844875981
 21
353.397314242537
 31
0.0
  0
LINE
  5
18C
330
1F
100
AcDbEntity
  8
1
  6
Continuous
 62
     4
100
AcDbLine
 10
218.968844875981
 20
354.272314242537
 30
0.0
 11
219.343844875981
 21
353.897314242537
 31
0.0
  0
LINE
  5
18D
330
1F
100
AcDbEntity
  8
1
  6
Continuous
 62
     4
100
AcDbLine
 10
218.343844875981
 20
354.397314242537
 30
0.0
 11
218.968844875981
 21
354.272314242537
 31
0.0
  0
LINE
  5
18E
330
1F
100
AcDbEntity
  8
1
  6
Continuous
 62
     4
100
AcDbLine
 10
216.468844875981
 20
354.397314242537
 30
0.0
 11
218.343844875981
 21
354.397314242537
 31
0.0
  0
LINE
  5
18F
330
1F
100
AcDbEntity
  8
1
  6
Continuous
 62
     4
100
AcDbLine
 10
216.468844875981
 20
356.397314242537
 30
0.0
 11
216.468844875981
 21
354.397314242537
 31
0.0
  0
LINE
  5
190
330
1F
100
AcDbEntity
  8
1
  6
Continuous
 62
     4
100
AcDbLine
 10
219.218844875981
 20
356.397314242537
 30
0.0
 11
216.468844875981
 21
356.397314242537
 31
0.0
  0
LINE
  5
191
330
1F
100
AcDbEntity
  8
1
  6
Continuous
 62
     4
100
AcDbLine
 10
197.843844875981
 20
355.272314242537
 30
0.0
 11
199.218844875981
 21
356.397314242537
 31
0.0
  0
LINE
  5
192
330
1F
100
AcDbEntity
  8
1
  6
Continuous
 62
     4
100
AcDbLine
 10
197.343844875981
 20
354.647314242537
 30
0.0
 11
197.843844875981
 21
355.272314242537
 31
0.0
  0
LINE
  5
193
330
1F
100
AcDbEntity
  8
1
  6
Continuous
 62
     4
100
AcDbLine
 10
197.093844875981
 20
354.147314242537
 30
0.0
 11
197.343844875981
 21
354.647314242537
 31
0.0
  0
LINE
  5
194
330
1F
100
AcDbEntity
  8
1
  6
Continuous
 62
     4
100
AcDbLine
 10
196.968844875981
 20
353.147314242537
 30
0.0
 11
197.093844875981
 21
354.147314242537
 31
0.0
  0
LINE
  5
195
330
1F
100
AcDbEntity
  8
1
  6
Continuous
 62
     4
100
AcDbLine
 10
196.968844875981
 20
352.647314242537
 30
0.0
 11
196.968844875981
 21
353.147314242537
 31
0.0
  0
LINE
  5
196
330
1F
100
AcDbEntity
  8
1
  6
Continuous
 62
     4
100
AcDbLine
 10
197.093844875981
 20
352.147314242537
 30
0.0
 11
196.968844875981
 21
352.647314242537
 31
0.0
  0
LINE
  5
197
330
1F
100
AcDbEntity
  8
1
  6
Continuous
 62
     4
100
AcDbLine
 10
197.343844875981
 20
351.772314242537
 30
0.0
 11
197.093844875981
 21
352.147314242537
 31
0.0
  0
LINE
  5
198
330
1F
100
AcDbEntity
  8
1
  6
Continuous
 62
     4
100
AcDbLine
 10
197.718844875981
 20
351.522314242537
 30
0.0
 11
197.343844875981
 21
351.772314242537
 31
0.0
  0
LINE
  5
199
330
1F
100
AcDbEntity
  8
1
  6
Continuous
 62
     4
100
AcDbLine
 10
198.093844875981
 20
351.397314242537
 30
0.0
 11
197.718844875981
 21
351.522314242537
 31
0.0
  0
LINE
  5
19A
330
1F
100
AcDbEntity
  8
1
  6
Continuous
 62
     4
100
AcDbLine
 10
198.843844875981
 20
351.397314242537
 30
0.0
 11
198.093844875981
 21
351.397314242537
 31
0.0
  0
LINE
  5
19B
330
1F
100
AcDbEntity
  8
1
  6
Continuous
 62
     4
100
AcDbLine
 10
199.218844875981
 20
351.522314242537
 30
0.0
 11
198.843844875981
 21
351.397314242537
 31
0.0
  0
LINE
  5
19C
330
1F
100
AcDbEntity
  8
1
  6
Continuous
 62
     4
100
AcDbLine
 10
199.593844875981
 20
351.772314242537
 30
0.0
 11
199.218844875981
 21
351.522314242537
 31
0.0
  0
LINE
  5
19D
330
1F
100
AcDbEntity
  8
1
  6
Continuous
 62
     4
100
AcDbLine
 10
199.843844875981
 20
352.147314242537
 30
0.0
 11
199.593844875981
 21
351.772314242537
 31
0.0
  0
LINE
  5
19E
330
1F
100
AcDbEntity
  8
1
  6
Continuous
 62
     4
100
AcDbLine
 10
199.968844875981
 20
352.647314242537
 30
0.0
 11
199.843844875981
 21
352.147314242537
 31
0.0
  0
LINE
  5
19F
330
1F
100
AcDbEntity
  8
1
  6
Continuous
 62
     4
100
AcDbLine
 10
199.968844875981
 20
353.147314242537
 30
0.0
 11
199.968844875981
 21
352.647314242537
 31
0.0
  0
LINE
  5
1A0
330
1F
100
AcDbEntity
  8
1
  6
Continuous
 62
     4
100
AcDbLine
 10
199.843844875981
 20
353.647314242537
 30
0.0
 11
199.968844875981
 21
353.147314242537
 31
0.0
  0
LINE
  5
1A1
330
1F
100
AcDbEntity
  8
1
  6
Continuous
 62
     4
100
AcDbLine
 10
199.593844875981
 20
354.022314242537
 30
0.0
 11
199.843844875981
 21
353.647314242537
 31
0.0
  0
LINE
  5
1A2
330
1F
100
AcDbEntity
  8
1
  6
Continuous
 62
     4
100
AcDbLine
 10
199.218844875981
 20
354.272314242537
 30
0.0
 11
199.593844875981
 21
354.022314242537
 31
0.0
  0
LINE
  5
1A3
330
1F
100
AcDbEntity
  8
1
  6
Continuous
 62
     4
100
AcDbLine
 10
198.843844875981
 20
354.397314242537
 30
0.0
 11
199.218844875981
 21
354.272314242537
 31
0.0
  0
LINE
  5
1A4
330
1F
100
AcDbEntity
  8
1
  6
Continuous
 62
     4
100
AcDbLine
 10
198.093844875981
 20
354.397314242537
 30
0.0
 11
198.843844875981
 21
354.397314242537
 31
0.0
  0
LINE
  5
1A5
330
1F
100
AcDbEntity
  8
1
  6
Continuous
 62
     4
100
AcDbLine
 10
197.718844875981
 20
354.272314242537
 30
0.0
 11
198.093844875981
 21
354.397314242537
 31
0.0
  0
LINE
  5
1A6
330
1F
100
AcDbEntity
  8
1
  6
Continuous
 62
     4
100
AcDbLine
 10
197.343844875981
 20
354.022314242537
 30
0.0
 11
197.718844875981
 21
354.272314242537
 31
0.0
  0
LINE
  5
1A7
330
1F
100
AcDbEntity
  8
1
  6
Continuous
 62
     4
100
AcDbLine
 10
197.093844875981
 20
353.647314242537
 30
0.0
 11
197.343844875981
 21
354.022314242537
 31
0.0
  0
LINE
  5
1A8
330
1F
100
AcDbEntity
  8
1
  6
Continuous
 62
     4
100
AcDbLine
 10
196.968844875981
 20
353.147314242537
 30
0.0
 11
197.093844875981
 21
353.647314242537
 31
0.0
  0
LINE
  5
1A9
330
1F
100
AcDbEntity
  8
1
  6
Continuous
 62
     4
100
AcDbLine
 10
195.593844875981
 20
351.647314242537
 30
0.0
 11
195.593844875981
 21
351.522314242537
 31
0.0
  0
LINE
  5
1AA
330
1F
100
AcDbEntity
  8
1
  6
Continuous
 62
     4
100
AcDbLine
 10
195.468844875981
 20
351.647314242537
 30
0.0
 11
195.593844875981
 21
351.647314242537
 31
0.0
  0
LINE
  5
1AB
330
1F
100
AcDbEntity
  8
1
  6
Continuous
 62
     4
100
AcDbLine
 10
195.468844875981
 20
351.522314242537
 30
0.0
 11
195.468844875981
 21
351.647314242537
 31
0.0
  0
LINE
  5
1AC
330
1F
100
AcDbEntity
  8
1
  6
Continuous
 62
     4
100
AcDbLine
 10
195.593844875981
 20
351.522314242537
 30
0.0
 11
195.468844875981
 21
351.522314242537
 31
0.0
  0
LINE
  5
1AD
330
1F
100
AcDbEntity
  8
1
  6
Continuous
 62
     4
100
AcDbLine
 10
195.718844875981
 20
351.772314242537
 30
0.0
 11
195.718844875981
 21
351.397314242537
 31
0.0
  0
LINE
  5
1AE
330
1F
100
AcDbEntity
  8
1
  6
Continuous
 62
     4
100
AcDbLine
 10
195.343844875981
 20
351.772314242537
 30
0.0
 11
195.718844875981
 21
351.772314242537
 31
0.0
  0
LINE
  5
1AF
330
1F
100
AcDbEntity
  8
1
  6
Continuous
 62
     4
100
AcDbLine
 10
195.343844875981
 20
351.397314242537
 30
0.0
 11
195.343844875981
 21
351.772314242537
 31
0.0
  0
LINE
  5
1B0
330
1F
100
AcDbEntity
  8
1
  6
Continuous
 62
     4
100
AcDbLine
 10
195.718844875981
 20
351.397314242537
 30
0.0
 11
195.343844875981
 21
351.397314242537
 31
0.0
  0
LINE
  5
1B1
330
1F
100
AcDbEntity
  8
1
  6
Continuous
 62
     4
100
AcDbLine
 10
193.843844875981
 20
354.522314242537
 30
0.0
 11
193.843844875981
 21
353.272314242537
 31
0.0
  0
LINE
  5
1B2
330
1F
100
AcDbEntity
  8
1
  6
Continuous
 62
     4
100
AcDbLine
 10
193.718844875981
 20
355.272314242537
 30
0.0
 11
193.843844875981
 21
354.522314242537
 31
0.0
  0
LINE
  5
1B3
330
1F
100
AcDbEntity
  8
1
  6
Continuous
 62
     4
100
AcDbLine
 10
193.468844875981
 20
355.772314242537
 30
0.0
 11
193.718844875981
 21
355.272314242537
 31
0.0
  0
LINE
  5
1B4
330
1F
100
AcDbEntity
  8
1
  6
Continuous
 62
     4
100
AcDbLine
 10
193.218844875981
 20
356.022314242537
 30
0.0
 11
193.468844875981
 21
355.772314242537
 31
0.0
  0
LINE
  5
1B5
330
1F
100
AcDbEntity
  8
1
  6
Continuous
 62
     4
100
AcDbLine
 10
192.843844875981
 20
356.272314242537
 30
0.0
 11
193.218844875981
 21
356.022314242537
 31
0.0
  0
LINE
  5
1B6
330
1F
100
AcDbEntity
  8
1
  6
Continuous
 62
     4
100
AcDbLine
 10
192.468844875981
 20
356.397314242537
 30
0.0
 11
192.843844875981
 21
356.272314242537
 31
0.0
  0
LINE
  5
1B7
330
1F
100
AcDbEntity
  8
1
  6
Continuous
 62
     4
100
AcDbLine
 10
192.218844875981
 20
356.397314242537
 30
0.0
 11
192.468844875981
 21
356.397314242537
 31
0.0
  0
LINE
  5
1B8
330
1F
100
AcDbEntity
  8
1
  6
Continuous
 62
     4
100
AcDbLine
 10
191.843844875981
 20
356.272314242537
 30
0.0
 11
192.218844875981
 21
356.397314242537
 31
0.0
  0
LINE
  5
1B9
330
1F
100
AcDbEntity
  8
1
  6
Continuous
 62
     4
100
AcDbLine
 10
191.468844875981
 20
356.022314242537
 30
0.0
 11
191.843844875981
 21
356.272314242537
 31
0.0
  0
LINE
  5
1BA
330
1F
100
AcDbEntity
  8
1
  6
Continuous
 62
     4
100
AcDbLine
 10
191.218844875981
 20
355.772314242537
 30
0.0
 11
191.468844875981
 21
356.022314242537
 31
0.0
  0
LINE
  5
1BB
330
1F
100
AcDbEntity
  8
1
  6
Continuous
 62
     4
100
AcDbLine
 10
190.968844875981
 20
355.272314242537
 30
0.0
 11
191.218844875981
 21
355.772314242537
 31
0.0
  0
LINE
  5
1BC
330
1F
100
AcDbEntity
  8
1
  6
Continuous
 62
     4
100
AcDbLine
 10
190.843844875981
 20
354.522314242537
 30
0.0
 11
190.968844875981
 21
355.272314242537
 31
0.0
  0
LINE
  5
1BD
330
1F
100
AcDbEntity
  8
1
  6
Continuous
 62
     4
100
AcDbLine
 10
190.843844875981
 20
353.272314242537
 30
0.0
 11
190.843844875981
 21
354.522314242537
 31
0.0
  0
LINE
  5
1BE
330
1F
100
AcDbEntity
  8
1
  6
Continuous
 62
     4
100
AcDbLine
 10
190.968844875981
 20
352.522314242537
 30
0.0
 11
190.843844875981
 21
353.272314242537
 31
0.0
  0
LINE
  5
1BF
330
1F
100
AcDbEntity
  8
1
  6
Continuous
 62
     4
100
AcDbLine
 10
191.218844875981
 20
352.022314242537
 30
0.0
 11
190.968844875981
 21
352.522314242537
 31
0.0
  0
LINE
  5
1C0
330
1F
100
AcDbEntity
  8
1
  6
Continuous
 62
     4
100
AcDbLine
 10
191.468844875981
 20
351.772314242537
 30
0.0
 11
191.218844875981
 21
352.022314242537
 31
0.0
  0
LINE
  5
1C1
330
1F
100
AcDbEntity
  8
1
  6
Continuous
 62
     4
100
AcDbLine
 10
191.843844875981
 20
351.522314242537
 30
0.0
 11
191.468844875981
 21
351.772314242537
 31
0.0
  0
LINE
  5
1C2
330
1F
100
AcDbEntity
  8
1
  6
Continuous
 62
     4
100
AcDbLine
 10
192.218844875981
 20
351.397314242537
 30
0.0
 11
191.843844875981
 21
351.522314242537
 31
0.0
  0
LINE
  5
1C3
330
1F
100
AcDbEntity
  8
1
  6
Continuous
 62
     4
100
AcDbLine
 10
192.468844875981
 20
351.397314242537
 30
0.0
 11
192.218844875981
 21
351.397314242537
 31
0.0
  0
LINE
  5
1C4
330
1F
100
AcDbEntity
  8
1
  6
Continuous
 62
     4
100
AcDbLine
 10
192.843844875981
 20
351.522314242537
 30
0.0
 11
192.468844875981
 21
351.397314242537
 31
0.0
  0
LINE
  5
1C5
330
1F
100
AcDbEntity
  8
1
  6
Continuous
 62
     4
100
AcDbLine
 10
193.218844875981
 20
351.772314242537
 30
0.0
 11
192.843844875981
 21
351.522314242537
 31
0.0
  0
LINE
  5
1C6
330
1F
100
AcDbEntity
  8
1
  6
Continuous
 62
     4
100
AcDbLine
 10
193.468844875981
 20
352.022314242537
 30
0.0
 11
193.218844875981
 21
351.772314242537
 31
0.0
  0
LINE
  5
1C7
330
1F
100
AcDbEntity
  8
1
  6
Continuous
 62
     4
100
AcDbLine
 10
193.718844875981
 20
352.522314242537
 30
0.0
 11
193.468844875981
 21
352.022314242537
 31
0.0
  0
LINE
  5
1C8
330
1F
100
AcDbEntity
  8
1
  6
Continuous
 62
     4
100
AcDbLine
 10
193.843844875981
 20
353.272314242537
 30
0.0
 11
193.718844875981
 21
352.522314242537
 31
0.0
  0
LINE
  5
1C9
330
1F
100
AcDbEntity
  8
1
  6
Continuous
 62
     4
100
AcDbLine
 10
227.343844875981
 20
359.727314242537
 30
0.0
 11
225.468844875981
 21
359.727314242537
 31
0.0
  0
LINE
  5
1CA
330
1F
100
AcDbEntity
  8
1
  6
Continuous
 62
     4
100
AcDbLine
 10
227.718844875981
 20
359.852314242537
 30
0.0
 11
227.343844875981
 21
359.727314242537
 31
0.0
  0
LINE
  5
1CB
330
1F
100
AcDbEntity
  8
1
  6
Continuous
 62
     4
100
AcDbLine
 10
228.093844875981
 20
360.102314242537
 30
0.0
 11
227.718844875981
 21
359.852314242537
 31
0.0
  0
LINE
  5
1CC
330
1F
100
AcDbEntity
  8
1
  6
Continuous
 62
     4
100
AcDbLine
 10
228.343844875981
 20
360.477314242537
 30
0.0
 11
228.093844875981
 21
360.102314242537
 31
0.0
  0
LINE
  5
1CD
330
1F
100
AcDbEntity
  8
1
  6
Continuous
 62
     4
100
AcDbLine
 10
228.468844875981
 20
360.977314242537
 30
0.0
 11
228.343844875981
 21
360.477314242537
 31
0.0
  0
LINE
  5
1CE
330
1F
100
AcDbEntity
  8
1
  6
Continuous
 62
     4
100
AcDbLine
 10
228.468844875981
 20
361.727314242537
 30
0.0
 11
228.468844875981
 21
360.977314242537
 31
0.0
  0
LINE
  5
1CF
330
1F
100
AcDbEntity
  8
1
  6
Continuous
 62
     4
100
AcDbLine
 10
228.343844875981
 20
362.227314242537
 30
0.0
 11
228.468844875981
 21
361.727314242537
 31
0.0
  0
LINE
  5
1D0
330
1F
100
AcDbEntity
  8
1
  6
Continuous
 62
     4
100
AcDbLine
 10
227.968844875981
 20
362.602314242537
 30
0.0
 11
228.343844875981
 21
362.227314242537
 31
0.0
  0
LINE
  5
1D1
330
1F
100
AcDbEntity
  8
1
  6
Continuous
 62
     4
100
AcDbLine
 10
227.343844875981
 20
362.727314242537
 30
0.0
 11
227.968844875981
 21
362.602314242537
 31
0.0
  0
LINE
  5
1D2
330
1F
100
AcDbEntity
  8
1
  6
Continuous
 62
     4
100
AcDbLine
 10
225.468844875981
 20
362.727314242537
 30
0.0
 11
227.343844875981
 21
362.727314242537
 31
0.0
  0
LINE
  5
1D3
330
1F
100
AcDbEntity
  8
1
  6
Continuous
 62
     4
100
AcDbLine
 10
225.468844875981
 20
364.727314242537
 30
0.0
 11
225.468844875981
 21
362.727314242537
 31
0.0
  0
LINE
  5
1D4
330
1F
100
AcDbEntity
  8
1
  6
Continuous
 62
     4
100
AcDbLine
 10
228.218844875981
 20
364.727314242537
 30
0.0
 11
225.468844875981
 21
364.727314242537
 31
0.0
  0
LINE
  5
1D5
330
1F
100
AcDbEntity
  8
1
  6
Continuous
 62
     4
100
AcDbLine
 10
222.468844875981
 20
360.227314242537
 30
0.0
 11
221.343844875981
 21
359.727314242537
 31
0.0
  0
LINE
  5
1D6
330
1F
100
AcDbEntity
  8
1
  6
Continuous
 62
     4
100
AcDbLine
 10
223.343844875981
 20
360.977314242537
 30
0.0
 11
222.468844875981
 21
360.227314242537
 31
0.0
  0
LINE
  5
1D7
330
1F
100
AcDbEntity
  8
1
  6
Continuous
 62
     4
100
AcDbLine
 10
223.718844875981
 20
361.477314242537
 30
0.0
 11
223.343844875981
 21
360.977314242537
 31
0.0
  0
LINE
  5
1D8
330
1F
100
AcDbEntity
  8
1
  6
Continuous
 62
     4
100
AcDbLine
 10
223.843844875981
 20
361.977314242537
 30
0.0
 11
223.718844875981
 21
361.477314242537
 31
0.0
  0
LINE
  5
1D9
330
1F
100
AcDbEntity
  8
1
  6
Continuous
 62
     4
100
AcDbLine
 10
223.968844875981
 20
362.602314242537
 30
0.0
 11
223.843844875981
 21
361.977314242537
 31
0.0
  0
LINE
  5
1DA
330
1F
100
AcDbEntity
  8
1
  6
Continuous
 62
     4
100
AcDbLine
 10
223.968844875981
 20
363.477314242537
 30
0.0
 11
223.968844875981
 21
362.602314242537
 31
0.0
  0
LINE
  5
1DB
330
1F
100
AcDbEntity
  8
1
  6
Continuous
 62
     4
100
AcDbLine
 10
223.843844875981
 20
363.977314242537
 30
0.0
 11
223.968844875981
 21
363.477314242537
 31
0.0
  0
LINE
  5
1DC
330
1F
100
AcDbEntity
  8
1
  6
Continuous
 62
     4
100
AcDbLine
 10
223.593844875981
 20
364.352314242537
 30
0.0
 11
223.843844875981
 21
363.977314242537
 31
0.0
  0
LINE
  5
1DD
330
1F
100
AcDbEntity
  8
1
  6
Continuous
 62
     4
100
AcDbLine
 10
223.218844875981
 20
364.602314242537
 30
0.0
 11
223.593844875981
 21
364.352314242537
 31
0.0
  0
LINE
  5
1DE
330
1F
100
AcDbEntity
  8
1
  6
Continuous
 62
     4
100
AcDbLine
 10
222.843844875981
 20
364.727314242537
 30
0.0
 11
223.218844875981
 21
364.602314242537
 31
0.0
  0
LINE
  5
1DF
330
1F
100
AcDbEntity
  8
1
  6
Continuous
 62
     4
100
AcDbLine
 10
222.093844875981
 20
364.727314242537
 30
0.0
 11
222.843844875981
 21
364.727314242537
 31
0.0
  0
LINE
  5
1E0
330
1F
100
AcDbEntity
  8
1
  6
Continuous
 62
     4
100
AcDbLine
 10
221.718844875981
 20
364.602314242537
 30
0.0
 11
222.093844875981
 21
364.727314242537
 31
0.0
  0
LINE
  5
1E1
330
1F
100
AcDbEntity
  8
1
  6
Continuous
 62
     4
100
AcDbLine
 10
221.343844875981
 20
364.352314242537
 30
0.0
 11
221.718844875981
 21
364.602314242537
 31
0.0
  0
LINE
  5
1E2
330
1F
100
AcDbEntity
  8
1
  6
Continuous
 62
     4
100
AcDbLine
 10
221.093844875981
 20
363.977314242537
 30
0.0
 11
221.343844875981
 21
364.352314242537
 31
0.0
  0
LINE
  5
1E3
330
1F
100
AcDbEntity
  8
1
  6
Continuous
 62
     4
100
AcDbLine
 10
220.968844875981
 20
363.477314242537
 30
0.0
 11
221.093844875981
 21
363.977314242537
 31
0.0
  0
LINE
  5
1E4
330
1F
100
AcDbEntity
  8
1
  6
Continuous
 62
     4
100
AcDbLine
 10
220.968844875981
 20
363.227314242537
 30
0.0
 11
220.968844875981
 21
363.477314242537
 31
0.0
  0
LINE
  5
1E5
330
1F
100
AcDbEntity
  8
1
  6
Continuous
 62
     4
100
AcDbLine
 10
221.093844875981
 20
362.727314242537
 30
0.0
 11
220.968844875981
 21
363.227314242537
 31
0.0
  0
LINE
  5
1E6
330
1F
100
AcDbEntity
  8
1
  6
Continuous
 62
     4
100
AcDbLine
 10
221.343844875981
 20
362.352314242537
 30
0.0
 11
221.093844875981
 21
362.727314242537
 31
0.0
  0
LINE
  5
1E7
330
1F
100
AcDbEntity
  8
1
  6
Continuous
 62
     4
100
AcDbLine
 10
221.718844875981
 20
362.102314242537
 30
0.0
 11
221.343844875981
 21
362.352314242537
 31
0.0
  0
LINE
  5
1E8
330
1F
100
AcDbEntity
  8
1
  6
Continuous
 62
     4
100
AcDbLine
 10
222.093844875981
 20
361.977314242537
 30
0.0
 11
221.718844875981
 21
362.102314242537
 31
0.0
  0
LINE
  5
1E9
330
1F
100
AcDbEntity
  8
1
  6
Continuous
 62
     4
100
AcDbLine
 10
223.843844875981
 20
361.977314242537
 30
0.0
 11
222.093844875981
 21
361.977314242537
 31
0.0
  0
LINE
  5
1EA
330
1F
100
AcDbEntity
  8
1
  6
Continuous
 62
     4
100
AcDbLine
 10
218.343844875981
 20
359.727314242537
 30
0.0
 11
216.468844875981
 21
359.727314242537
 31
0.0
  0
LINE
  5
1EB
330
1F
100
AcDbEntity
  8
1
  6
Continuous
 62
     4
100
AcDbLine
 10
218.718844875981
 20
359.852314242537
 30
0.0
 11
218.343844875981
 21
359.727314242537
 31
0.0
  0
LINE
  5
1EC
330
1F
100
AcDbEntity
  8
1
  6
Continuous
 62
     4
100
AcDbLine
 10
219.093844875981
 20
360.102314242537
 30
0.0
 11
218.718844875981
 21
359.852314242537
 31
0.0
  0
LINE
  5
1ED
330
1F
100
AcDbEntity
  8
1
  6
Continuous
 62
     4
100
AcDbLine
 10
219.343844875981
 20
360.477314242537
 30
0.0
 11
219.093844875981
 21
360.102314242537
 31
0.0
  0
LINE
  5
1EE
330
1F
100
AcDbEntity
  8
1
  6
Continuous
 62
     4
100
AcDbLine
 10
219.468844875981
 20
360.977314242537
 30
0.0
 11
219.343844875981
 21
360.477314242537
 31
0.0
  0
LINE
  5
1EF
330
1F
100
AcDbEntity
  8
1
  6
Continuous
 62
     4
100
AcDbLine
 10
219.468844875981
 20
361.602314242537
 30
0.0
 11
219.468844875981
 21
360.977314242537
 31
0.0
  0
LINE
  5
1F0
330
1F
100
AcDbEntity
  8
1
  6
Continuous
 62
     4
100
AcDbLine
 10
219.343844875981
 20
362.102314242537
 30
0.0
 11
219.468844875981
 21
361.602314242537
 31
0.0
  0
LINE
  5
1F1
330
1F
100
AcDbEntity
  8
1
  6
Continuous
 62
     4
100
AcDbLine
 10
219.218844875981
 20
362.352314242537
 30
0.0
 11
219.343844875981
 21
362.102314242537
 31
0.0
  0
LINE
  5
1F2
330
1F
100
AcDbEntity
  8
1
  6
Continuous
 62
     4
100
AcDbLine
 10
218.968844875981
 20
362.602314242537
 30
0.0
 11
219.218844875981
 21
362.352314242537
 31
0.0
  0
LINE
  5
1F3
330
1F
100
AcDbEntity
  8
1
  6
Continuous
 62
     4
100
AcDbLine
 10
218.468844875981
 20
362.727314242537
 30
0.0
 11
218.968844875981
 21
362.602314242537
 31
0.0
  0
LINE
  5
1F4
330
1F
100
AcDbEntity
  8
1
  6
Continuous
 62
     4
100
AcDbLine
 10
218.843844875981
 20
362.852314242537
 30
0.0
 11
218.468844875981
 21
362.727314242537
 31
0.0
  0
LINE
  5
1F5
330
1F
100
AcDbEntity
  8
1
  6
Continuous
 62
     4
100
AcDbLine
 10
219.093844875981
 20
362.977314242537
 30
0.0
 11
218.843844875981
 21
362.852314242537
 31
0.0
  0
LINE
  5
1F6
330
1F
100
AcDbEntity
  8
1
  6
Continuous
 62
     4
100
AcDbLine
 10
219.343844875981
 20
363.227314242537
 30
0.0
 11
219.093844875981
 21
362.977314242537
 31
0.0
  0
LINE
  5
1F7
330
1F
100
AcDbEntity
  8
1
  6
Continuous
 62
     4
100
AcDbLine
 10
219.468844875981
 20
363.602314242537
 30
0.0
 11
219.343844875981
 21
363.227314242537
 31
0.0
  0
LINE
  5
1F8
330
1F
100
AcDbEntity
  8
1
  6
Continuous
 62
     4
100
AcDbLine
 10
219.468844875981
 20
363.977314242537
 30
0.0
 11
219.468844875981
 21
363.602314242537
 31
0.0
  0
LINE
  5
1F9
330
1F
100
AcDbEntity
  8
1
  6
Continuous
 62
     4
100
AcDbLine
 10
219.343844875981
 20
364.352314242537
 30
0.0
 11
219.468844875981
 21
363.977314242537
 31
0.0
  0
LINE
  5
1FA
330
1F
100
AcDbEntity
  8
1
  6
Continuous
 62
     4
100
AcDbLine
 10
218.968844875981
 20
364.602314242537
 30
0.0
 11
219.343844875981
 21
364.352314242537
 31
0.0
  0
LINE
  5
1FB
330
1F
100
AcDbEntity
  8
1
  6
Continuous
 62
     4
100
AcDbLine
 10
218.343844875981
 20
364.727314242537
 30
0.0
 11
218.968844875981
 21
364.602314242537
 31
0.0
  0
LINE
  5
1FC
330
1F
100
AcDbEntity
  8
1
  6
Continuous
 62
     4
100
AcDbLine
 10
216.468844875981
 20
364.727314242537
 30
0.0
 11
218.343844875981
 21
364.727314242537
 31
0.0
  0
LINE
  5
1FD
330
1F
100
AcDbEntity
  8
1
  6
Continuous
 62
     4
100
AcDbLine
 10
217.218844875981
 20
362.727314242537
 30
0.0
 11
218.468844875981
 21
362.727314242537
 31
0.0
  0
LINE
  5
1FE
330
1F
100
AcDbEntity
  8
1
  6
Continuous
 62
     4
100
AcDbLine
 10
199.218844875981
 20
361.727314242537
 30
0.0
 11
199.218844875981
 21
359.727314242537
 31
0.0
  0
LINE
  5
1FF
330
1F
100
AcDbEntity
  8
1
  6
Continuous
 62
     4
100
AcDbLine
 10
196.968844875981
 20
360.727314242537
 30
0.0
 11
199.968844875981
 21
360.727314242537
 31
0.0
  0
LINE
  5
200
330
1F
100
AcDbEntity
  8
1
  6
Continuous
 62
     4
100
AcDbLine
 10
199.218844875981
 20
364.727314242537
 30
0.0
 11
196.968844875981
 21
360.727314242537
 31
0.0
  0
LINE
  5
201
330
1F
100
AcDbEntity
  8
1
  6
Continuous
 62
     4
100
AcDbLine
 10
195.593844875981
 20
359.977314242537
 30
0.0
 11
195.593844875981
 21
359.852314242537
 31
0.0
  0
LINE
  5
202
330
1F
100
AcDbEntity
  8
1
  6
Continuous
 62
     4
100
AcDbLine
 10
195.468844875981
 20
359.977314242537
 30
0.0
 11
195.593844875981
 21
359.977314242537
 31
0.0
  0
LINE
  5
203
330
1F
100
AcDbEntity
  8
1
  6
Continuous
 62
     4
100
AcDbLine
 10
195.468844875981
 20
359.852314242537
 30
0.0
 11
195.468844875981
 21
359.977314242537
 31
0.0
  0
LINE
  5
204
330
1F
100
AcDbEntity
  8
1
  6
Continuous
 62
     4
100
AcDbLine
 10
195.593844875981
 20
359.852314242537
 30
0.0
 11
195.468844875981
 21
359.852314242537
 31
0.0
  0
LINE
  5
205
330
1F
100
AcDbEntity
  8
1
  6
Continuous
 62
     4
100
AcDbLine
 10
195.718844875981
 20
360.102314242537
 30
0.0
 11
195.718844875981
 21
359.727314242537
 31
0.0
  0
LINE
  5
206
330
1F
100
AcDbEntity
  8
1
  6
Continuous
 62
     4
100
AcDbLine
 10
195.343844875981
 20
360.102314242537
 30
0.0
 11
195.718844875981
 21
360.102314242537
 31
0.0
  0
LINE
  5
207
330
1F
100
AcDbEntity
  8
1
  6
Continuous
 62
     4
100
AcDbLine
 10
195.343844875981
 20
359.727314242537
 30
0.0
 11
195.343844875981
 21
360.102314242537
 31
0.0
  0
LINE
  5
208
330
1F
100
AcDbEntity
  8
1
  6
Continuous
 62
     4
100
AcDbLine
 10
195.718844875981
 20
359.727314242537
 30
0.0
 11
195.343844875981
 21
359.727314242537
 31
0.0
  0
LINE
  5
209
330
1F
100
AcDbEntity
  8
1
  6
Continuous
 62
     4
100
AcDbLine
 10
193.843844875981
 20
362.852314242537
 30
0.0
 11
193.843844875981
 21
361.602314242537
 31
0.0
  0
LINE
  5
20A
330
1F
100
AcDbEntity
  8
1
  6
Continuous
 62
     4
100
AcDbLine
 10
193.718844875981
 20
363.602314242537
 30
0.0
 11
193.843844875981
 21
362.852314242537
 31
0.0
  0
LINE
  5
20B
330
1F
100
AcDbEntity
  8
1
  6
Continuous
 62
     4
100
AcDbLine
 10
193.468844875981
 20
364.102314242537
 30
0.0
 11
193.718844875981
 21
363.602314242537
 31
0.0
  0
LINE
  5
20C
330
1F
100
AcDbEntity
  8
1
  6
Continuous
 62
     4
100
AcDbLine
 10
193.218844875981
 20
364.352314242537
 30
0.0
 11
193.468844875981
 21
364.102314242537
 31
0.0
  0
LINE
  5
20D
330
1F
100
AcDbEntity
  8
1
  6
Continuous
 62
     4
100
AcDbLine
 10
192.843844875981
 20
364.602314242537
 30
0.0
 11
193.218844875981
 21
364.352314242537
 31
0.0
  0
LINE
  5
20E
330
1F
100
AcDbEntity
  8
1
  6
Continuous
 62
     4
100
AcDbLine
 10
192.468844875981
 20
364.727314242537
 30
0.0
 11
192.843844875981
 21
364.602314242537
 31
0.0
  0
LINE
  5
20F
330
1F
100
AcDbEntity
  8
1
  6
Continuous
 62
     4
100
AcDbLine
 10
192.218844875981
 20
364.727314242537
 30
0.0
 11
192.468844875981
 21
364.727314242537
 31
0.0
  0
LINE
  5
210
330
1F
100
AcDbEntity
  8
1
  6
Continuous
 62
     4
100
AcDbLine
 10
191.843844875981
 20
364.602314242537
 30
0.0
 11
192.218844875981
 21
364.727314242537
 31
0.0
  0
LINE
  5
211
330
1F
100
AcDbEntity
  8
1
  6
Continuous
 62
     4
100
AcDbLine
 10
191.468844875981
 20
364.352314242537
 30
0.0
 11
191.843844875981
 21
364.602314242537
 31
0.0
  0
LINE
  5
212
330
1F
100
AcDbEntity
  8
1
  6
Continuous
 62
     4
100
AcDbLine
 10
191.218844875981
 20
364.102314242537
 30
0.0
 11
191.468844875981
 21
364.352314242537
 31
0.0
  0
LINE
  5
213
330
1F
100
AcDbEntity
  8
1
  6
Continuous
 62
     4
100
AcDbLine
 10
190.968844875981
 20
363.602314242537
 30
0.0
 11
191.218844875981
 21
364.102314242537
 31
0.0
  0
LINE
  5
214
330
1F
100
AcDbEntity
  8
1
  6
Continuous
 62
     4
100
AcDbLine
 10
190.843844875981
 20
362.852314242537
 30
0.0
 11
190.968844875981
 21
363.602314242537
 31
0.0
  0
LINE
  5
215
330
1F
100
AcDbEntity
  8
1
  6
Continuous
 62
     4
100
AcDbLine
 10
190.843844875981
 20
361.602314242537
 30
0.0
 11
190.843844875981
 21
362.852314242537
 31
0.0
  0
LINE
  5
216
330
1F
100
AcDbEntity
  8
1
  6
Continuous
 62
     4
100
AcDbLine
 10
190.968844875981
 20
360.852314242537
 30
0.0
 11
190.843844875981
 21
361.602314242537
 31
0.0
  0
LINE
  5
217
330
1F
100
AcDbEntity
  8
1
  6
Continuous
 62
     4
100
AcDbLine
 10
191.218844875981
 20
360.352314242537
 30
0.0
 11
190.968844875981
 21
360.852314242537
 31
0.0
  0
LINE
  5
218
330
1F
100
AcDbEntity
  8
1
  6
Continuous
 62
     4
100
AcDbLine
 10
191.468844875981
 20
360.102314242537
 30
0.0
 11
191.218844875981
 21
360.352314242537
 31
0.0
  0
LINE
  5
219
330
1F
100
AcDbEntity
  8
1
  6
Continuous
 62
     4
100
AcDbLine
 10
191.843844875981
 20
359.852314242537
 30
0.0
 11
191.468844875981
 21
360.102314242537
 31
0.0
  0
LINE
  5
21A
330
1F
100
AcDbEntity
  8
1
  6
Continuous
 62
     4
100
AcDbLine
 10
192.218844875981
 20
359.727314242537
 30
0.0
 11
191.843844875981
 21
359.852314242537
 31
0.0
  0
LINE
  5
21B
330
1F
100
AcDbEntity
  8
1
  6
Continuous
 62
     4
100
AcDbLine
 10
192.468844875981
 20
359.727314242537
 30
0.0
 11
192.218844875981
 21
359.727314242537
 31
0.0
  0
LINE
  5
21C
330
1F
100
AcDbEntity
  8
1
  6
Continuous
 62
     4
100
AcDbLine
 10
192.843844875981
 20
359.852314242537
 30
0.0
 11
192.468844875981
 21
359.727314242537
 31
0.0
  0
LINE
  5
21D
330
1F
100
AcDbEntity
  8
1
  6
Continuous
 62
     4
100
AcDbLine
 10
193.218844875981
 20
360.102314242537
 30
0.0
 11
192.843844875981
 21
359.852314242537
 31
0.0
  0
LINE
  5
21E
330
1F
100
AcDbEntity
  8
1
  6
Continuous
 62
     4
100
AcDbLine
 10
193.468844875981
 20
360.352314242537
 30
0.0
 11
193.218844875981
 21
360.102314242537
 31
0.0
  0
LINE
  5
21F
330
1F
100
AcDbEntity
  8
1
  6
Continuous
 62
     4
100
AcDbLine
 10
193.718844875981
 20
360.852314242537
 30
0.0
 11
193.468844875981
 21
360.352314242537
 31
0.0
  0
LINE
  5
220
330
1F
100
AcDbEntity
  8
1
  6
Continuous
 62
     4
100
AcDbLine
 10
193.843844875981
 20
361.602314242537
 30
0.0
 11
193.718844875981
 21
360.852314242537
 31
0.0
  0
LINE
  5
221
330
1F
100
AcDbEntity
  8
1
  6
Continuous
 62
     4
100
AcDbLine
 10
220.343844875981
 20
368.057314242537
 30
0.0
 11
220.343844875981
 21
373.057314242537
 31
0.0
  0
LINE
  5
222
330
1F
100
AcDbEntity
  8
1
  6
Continuous
 62
     4
100
AcDbLine
 10
223.343844875981
 20
368.057314242537
 30
0.0
 11
220.343844875981
 21
368.057314242537
 31
0.0
  0
LINE
  5
223
330
1F
100
AcDbEntity
  8
1
  6
Continuous
 62
     4
100
AcDbLine
 10
208.593844875981
 20
369.057314242537
 30
0.0
 11
208.093844875981
 21
368.057314242537
 31
0.0
  0
LINE
  5
224
330
1F
100
AcDbEntity
  8
1
  6
Continuous
 62
     4
100
AcDbLine
 10
208.843844875981
 20
370.057314242537
 30
0.0
 11
208.593844875981
 21
369.057314242537
 31
0.0
  0
LINE
  5
225
330
1F
100
AcDbEntity
  8
1
  6
Continuous
 62
     4
100
AcDbLine
 10
208.843844875981
 20
371.057314242537
 30
0.0
 11
208.843844875981
 21
370.057314242537
 31
0.0
  0
LINE
  5
226
330
1F
100
AcDbEntity
  8
1
  6
Continuous
 62
     4
100
AcDbLine
 10
208.593844875981
 20
372.057314242537
 30
0.0
 11
208.843844875981
 21
371.057314242537
 31
0.0
  0
LINE
  5
227
330
1F
100
AcDbEntity
  8
1
  6
Continuous
 62
     4
100
AcDbLine
 10
208.093844875981
 20
373.057314242537
 30
0.0
 11
208.593844875981
 21
372.057314242537
 31
0.0
  0
LINE
  5
228
330
1F
100
AcDbEntity
  8
1
  6
Continuous
 62
     4
100
AcDbLine
 10
204.843844875981
 20
371.557314242537
 30
0.0
 11
205.843844875981
 21
371.557314242537
 31
0.0
  0
LINE
  5
229
330
1F
100
AcDbEntity
  8
1
  6
Continuous
 62
     4
100
AcDbLine
 10
204.843844875981
 20
371.557314242537
 30
0.0
 11
204.843844875981
 21
368.057314242537
 31
0.0
  0
LINE
  5
22A
330
1F
100
AcDbEntity
  8
1
  6
Continuous
 62
     4
100
AcDbLine
 10
206.593844875981
 20
370.932314242537
 30
0.0
 11
206.593844875981
 21
368.057314242537
 31
0.0
  0
LINE
  5
22B
330
1F
100
AcDbEntity
  8
1
  6
Continuous
 62
     4
100
AcDbLine
 10
206.468844875981
 20
371.182314242537
 30
0.0
 11
206.593844875981
 21
370.932314242537
 31
0.0
  0
LINE
  5
22C
330
1F
100
AcDbEntity
  8
1
  6
Continuous
 62
     4
100
AcDbLine
 10
206.218844875981
 20
371.432314242537
 30
0.0
 11
206.468844875981
 21
371.182314242537
 31
0.0
  0
LINE
  5
22D
330
1F
100
AcDbEntity
  8
1
  6
Continuous
 62
     4
100
AcDbLine
 10
205.843844875981
 20
371.557314242537
 30
0.0
 11
206.218844875981
 21
371.432314242537
 31
0.0
  0
LINE
  5
22E
330
1F
100
AcDbEntity
  8
1
  6
Continuous
 62
     4
100
AcDbLine
 10
203.093844875981
 20
371.557314242537
 30
0.0
 11
204.843844875981
 21
371.557314242537
 31
0.0
  0
LINE
  5
22F
330
1F
100
AcDbEntity
  8
1
  6
Continuous
 62
     4
100
AcDbLine
 10
203.093844875981
 20
368.057314242537
 30
0.0
 11
203.093844875981
 21
371.557314242537
 31
0.0
  0
LINE
  5
230
330
1F
100
AcDbEntity
  8
1
  6
Continuous
 62
     4
100
AcDbLine
 10
201.093844875981
 20
369.057314242537
 30
0.0
 11
201.593844875981
 21
368.057314242537
 31
0.0
  0
LINE
  5
231
330
1F
100
AcDbEntity
  8
1
  6
Continuous
 62
     4
100
AcDbLine
 10
200.843844875981
 20
370.057314242537
 30
0.0
 11
201.093844875981
 21
369.057314242537
 31
0.0
  0
LINE
  5
232
330
1F
100
AcDbEntity
  8
1
  6
Continuous
 62
     4
100
AcDbLine
 10
200.843844875981
 20
371.057314242537
 30
0.0
 11
200.843844875981
 21
370.057314242537
 31
0.0
  0
LINE
  5
233
330
1F
100
AcDbEntity
  8
1
  6
Continuous
 62
     4
100
AcDbLine
 10
201.093844875981
 20
372.057314242537
 30
0.0
 11
200.843844875981
 21
371.057314242537
 31
0.0
  0
LINE
  5
234
330
1F
100
AcDbEntity
  8
1
  6
Continuous
 62
     4
100
AcDbLine
 10
201.593844875981
 20
373.057314242537
 30
0.0
 11
201.093844875981
 21
372.057314242537
 31
0.0
  0
LINE
  5
235
330
1F
100
AcDbEntity
  8
1
  6
Continuous
 62
     4
100
AcDbLine
 10
197.906344875981
 20
368.682314242537
 30
0.0
 11
198.781344875981
 21
368.557314242537
 31
0.0
  0
LINE
  5
236
330
1F
100
AcDbEntity
  8
1
  6
Continuous
 62
     4
100
AcDbLine
 10
197.343844875981
 20
368.994814242537
 30
0.0
 11
197.906344875981
 21
368.682314242537
 31
0.0
  0
LINE
  5
237
330
1F
100
AcDbEntity
  8
1
  6
Continuous
 62
     4
100
AcDbLine
 10
197.093844875981
 20
369.494814242537
 30
0.0
 11
197.343844875981
 21
368.994814242537
 31
0.0
  0
LINE
  5
238
330
1F
100
AcDbEntity
  8
1
  6
Continuous
 62
     4
100
AcDbLine
 10
197.343844875981
 20
369.932314242537
 30
0.0
 11
197.093844875981
 21
369.494814242537
 31
0.0
  0
LINE
  5
239
330
1F
100
AcDbEntity
  8
1
  6
Continuous
 62
     4
100
AcDbLine
 10
198.218844875981
 20
370.244814242537
 30
0.0
 11
197.343844875981
 21
369.932314242537
 31
0.0
  0
LINE
  5
23A
330
1F
100
AcDbEntity
  8
1
  6
Continuous
 62
     4
100
AcDbLine
 10
199.156344875981
 20
370.119814242537
 30
0.0
 11
198.218844875981
 21
370.244814242537
 31
0.0
  0
LINE
  5
23B
330
1F
100
AcDbEntity
  8
1
  6
Continuous
 62
     4
100
AcDbLine
 10
198.593844875981
 20
371.182314242537
 30
0.0
 11
199.156344875981
 21
370.119814242537
 31
0.0
  0
LINE
  5
23C
330
1F
100
AcDbEntity
  8
1
  6
Continuous
 62
     4
100
AcDbLine
 10
197.656344875981
 20
372.619814242537
 30
0.0
 11
198.593844875981
 21
371.182314242537
 31
0.0
  0
LINE
  5
23D
330
1F
100
AcDbEntity
  8
1
  6
Continuous
 62
     4
100
AcDbLine
 10
198.093844875981
 20
371.682314242537
 30
0.0
 11
199.031344875981
 21
372.119814242537
 31
0.0
  0
LINE
  5
23E
330
1F
100
AcDbEntity
  8
1
  6
Continuous
 62
     4
100
AcDbLine
 10
196.968844875981
 20
371.369814242537
 30
0.0
 11
198.093844875981
 21
371.682314242537
 31
0.0
  0
LINE
  5
23F
330
1F
100
AcDbEntity
  8
1
  6
Continuous
 62
     4
100
AcDbLine
 10
192.093844875981
 20
372.119814242537
 30
0.0
 11
192.093844875981
 21
368.557314242537
 31
0.0
  0
LINE
  5
240
330
1F
100
AcDbEntity
  8
1
  6
Continuous
 62
     4
100
AcDbLine
 10
194.031344875981
 20
368.682314242537
 30
0.0
 11
195.156344875981
 21
368.244814242537
 31
0.0
  0
LINE
  5
241
330
1F
100
AcDbEntity
  8
1
  6
Continuous
 62
     4
100
AcDbLine
 10
193.468844875981
 20
369.307314242537
 30
0.0
 11
194.031344875981
 21
368.682314242537
 31
0.0
  0
LINE
  5
242
330
1F
100
AcDbEntity
  8
1
  6
Continuous
 62
     4
100
AcDbLine
 10
192.906344875981
 20
370.244814242537
 30
0.0
 11
193.468844875981
 21
369.307314242537
 31
0.0
  0
LINE
  5
243
330
1F
100
AcDbEntity
  8
1
  6
Continuous
 62
     4
100
AcDbLine
 10
192.093844875981
 20
372.932314242537
 30
0.0
 11
192.093844875981
 21
372.119814242537
 31
0.0
  0
LINE
  5
244
330
1F
100
AcDbEntity
  8
1
  6
Continuous
 62
     4
100
AcDbLine
 10
194.343844875981
 20
372.932314242537
 30
0.0
 11
192.093844875981
 21
372.932314242537
 31
0.0
  0
LINE
  5
245
330
1F
100
AcDbEntity
  8
1
  6
Continuous
 62
     4
100
AcDbLine
 10
194.156344875981
 20
372.119814242537
 30
0.0
 11
192.093844875981
 21
372.119814242537
 31
0.0
  0
LINE
  5
246
330
1F
100
AcDbEntity
  8
1
  6
Continuous
 62
     4
100
AcDbLine
 10
192.093844875981
 20
371.369814242537
 30
0.0
 11
194.156344875981
 21
371.369814242537
 31
0.0
  0
LINE
  5
247
330
1F
100
AcDbEntity
  8
1
  6
Continuous
 62
     4
100
AcDbLine
 10
195.156344875981
 20
370.557314242537
 30
0.0
 11
190.968844875981
 21
370.557314242537
 31
0.0
  0
LINE
  5
248
330
1F
100
AcDbEntity
  8
1
  6
Continuous
 62
     4
100
AcDbLine
 10
193.468844875981
 20
369.494814242537
 30
0.0
 11
194.468844875981
 21
370.119814242537
 31
0.0
  0
LINE
  5
249
330
1F
100
AcDbEntity
  8
1
  6
Continuous
 62
     4
100
AcDbLine
 10
191.281344875981
 20
368.244814242537
 30
0.0
 11
193.093844875981
 21
368.994814242537
 31
0.0
  0
LINE
  5
24A
330
1F
100
AcDbEntity
  8
1
  6
Continuous
 62
     4
100
AcDbLine
 10
189.843844875981
 20
372.307314242537
 30
0.0
 11
190.281344875981
 21
371.807314242537
 31
0.0
  0
LINE
  5
24B
330
1F
100
AcDbEntity
  8
1
  6
Continuous
 62
     4
100
AcDbLine
 10
189.468844875981
 20
371.994814242537
 30
0.0
 11
189.843844875981
 21
371.494814242537
 31
0.0
  0
LINE
  5
24C
330
1F
100
AcDbEntity
  8
1
  6
Continuous
 62
     4
100
AcDbLine
 10
188.906344875981
 20
370.744814242537
 30
0.0
 11
189.468844875981
 21
369.494814242537
 31
0.0
  0
LINE
  5
24D
330
1F
100
AcDbEntity
  8
1
  6
Continuous
 62
     4
100
AcDbLine
 10
188.781344875981
 20
371.807314242537
 30
0.0
 11
188.906344875981
 21
370.744814242537
 31
0.0
  0
LINE
  5
24E
330
1F
100
AcDbEntity
  8
1
  6
Continuous
 62
     4
100
AcDbLine
 10
188.781344875981
 20
370.869814242537
 30
0.0
 11
188.781344875981
 21
371.807314242537
 31
0.0
  0
LINE
  5
24F
330
1F
100
AcDbEntity
  8
1
  6
Continuous
 62
     4
100
AcDbLine
 10
188.593844875981
 20
369.932314242537
 30
0.0
 11
188.781344875981
 21
370.869814242537
 31
0.0
  0
LINE
  5
250
330
1F
100
AcDbEntity
  8
1
  6
Continuous
 62
     4
100
AcDbLine
 10
188.218844875981
 20
368.994814242537
 30
0.0
 11
188.593844875981
 21
369.932314242537
 31
0.0
  0
LINE
  5
251
330
1F
100
AcDbEntity
  8
1
  6
Continuous
 62
     4
100
AcDbLine
 10
187.656344875981
 20
368.557314242537
 30
0.0
 11
188.218844875981
 21
368.994814242537
 31
0.0
  0
LINE
  5
252
330
1F
100
AcDbEntity
  8
1
  6
Continuous
 62
     4
100
AcDbLine
 10
187.093844875981
 20
368.369814242537
 30
0.0
 11
187.656344875981
 21
368.557314242537
 31
0.0
  0
LINE
  5
253
330
1F
100
AcDbEntity
  8
1
  6
Continuous
 62
     4
100
AcDbLine
 10
186.531344875981
 20
368.557314242537
 30
0.0
 11
187.093844875981
 21
368.369814242537
 31
0.0
  0
LINE
  5
254
330
1F
100
AcDbEntity
  8
1
  6
Continuous
 62
     4
100
AcDbLine
 10
186.281344875981
 20
368.994814242537
 30
0.0
 11
186.531344875981
 21
368.557314242537
 31
0.0
  0
LINE
  5
255
330
1F
100
AcDbEntity
  8
1
  6
Continuous
 62
     4
100
AcDbLine
 10
186.281344875981
 20
369.619814242537
 30
0.0
 11
186.281344875981
 21
368.994814242537
 31
0.0
  0
LINE
  5
256
330
1F
100
AcDbEntity
  8
1
  6
Continuous
 62
     4
100
AcDbLine
 10
186.531344875981
 20
370.432314242537
 30
0.0
 11
186.281344875981
 21
369.619814242537
 31
0.0
  0
LINE
  5
257
330
1F
100
AcDbEntity
  8
1
  6
Continuous
 62
     4
100
AcDbLine
 10
186.968844875981
 20
371.057314242537
 30
0.0
 11
186.531344875981
 21
370.432314242537
 31
0.0
  0
LINE
  5
258
330
1F
100
AcDbEntity
  8
1
  6
Continuous
 62
     4
100
AcDbLine
 10
187.531344875981
 20
371.682314242537
 30
0.0
 11
186.968844875981
 21
371.057314242537
 31
0.0
  0
LINE
  5
259
330
1F
100
AcDbEntity
  8
1
  6
Continuous
 62
     4
100
AcDbLine
 10
186.968844875981
 20
371.494814242537
 30
0.0
 11
187.531344875981
 21
371.682314242537
 31
0.0
  0
LINE
  5
25A
330
1F
100
AcDbEntity
  8
1
  6
Continuous
 62
     4
100
AcDbLine
 10
186.281344875981
 20
371.369814242537
 30
0.0
 11
186.968844875981
 21
371.494814242537
 31
0.0
  0
LINE
  5
25B
330
1F
100
AcDbEntity
  8
1
  6
Continuous
 62
     4
100
AcDbLine
 10
183.906344875981
 20
368.244814242537
 30
0.0
 11
183.343844875981
 21
368.244814242537
 31
0.0
  0
LINE
  5
25C
330
1F
100
AcDbEntity
  8
1
  6
Continuous
 62
     4
100
AcDbLine
 10
183.906344875981
 20
372.307314242537
 30
0.0
 11
183.906344875981
 21
368.244814242537
 31
0.0
  0
LINE
  5
25D
330
1F
100
AcDbEntity
  8
1
  6
Continuous
 62
     4
100
AcDbLine
 10
182.781344875981
 20
371.807314242537
 30
0.0
 11
183.218844875981
 21
370.869814242537
 31
0.0
  0
LINE
  5
25E
330
1F
100
AcDbEntity
  8
1
  6
Continuous
 62
     4
100
AcDbLine
 10
183.593844875981
 20
372.619814242537
 30
0.0
 11
182.906344875981
 21
372.432314242537
 31
0.0
  0
LINE
  5
25F
330
1F
100
AcDbEntity
  8
1
  6
Continuous
 62
     4
100
AcDbLine
 10
184.593844875981
 20
372.932314242537
 30
0.0
 11
183.593844875981
 21
372.619814242537
 31
0.0
  0
LINE
  5
260
330
1F
100
AcDbEntity
  8
1
  6
Continuous
 62
     4
100
AcDbLine
 10
184.468844875981
 20
370.869814242537
 30
0.0
 11
184.843844875981
 21
371.807314242537
 31
0.0
  0
LINE
  5
261
330
1F
100
AcDbEntity
  8
1
  6
Continuous
 62
     4
100
AcDbLine
 10
182.531344875981
 20
370.244814242537
 30
0.0
 11
185.281344875981
 21
370.244814242537
 31
0.0
  0
LINE
  5
262
330
1F
100
AcDbEntity
  8
1
  6
Continuous
 62
     4
100
AcDbLine
 10
181.093844875981
 20
372.307314242537
 30
0.0
 11
181.093844875981
 21
369.619814242537
 31
0.0
  0
LINE
  5
263
330
1F
100
AcDbEntity
  8
1
  6
Continuous
 62
     4
100
AcDbLine
 10
182.093844875981
 20
372.307314242537
 30
0.0
 11
181.093844875981
 21
372.307314242537
 31
0.0
  0
LINE
  5
264
330
1F
100
AcDbEntity
  8
1
  6
Continuous
 62
     4
100
AcDbLine
 10
182.093844875981
 20
369.619814242537
 30
0.0
 11
182.093844875981
 21
372.307314242537
 31
0.0
  0
LINE
  5
265
330
1F
100
AcDbEntity
  8
1
  6
Continuous
 62
     4
100
AcDbLine
 10
181.093844875981
 20
369.619814242537
 30
0.0
 11
182.093844875981
 21
369.619814242537
 31
0.0
  0
LINE
  5
266
330
1F
100
AcDbEntity
  8
1
  6
Continuous
 62
     4
100
AcDbLine
 10
211.093844875981
 20
387.842314242537
 30
0.0
 11
211.093844875981
 21
386.592314242537
 31
0.0
  0
LINE
  5
267
330
1F
100
AcDbEntity
  8
1
  6
Continuous
 62
     4
100
AcDbLine
 10
210.968844875981
 20
388.592314242537
 30
0.0
 11
211.093844875981
 21
387.842314242537
 31
0.0
  0
LINE
  5
268
330
1F
100
AcDbEntity
  8
1
  6
Continuous
 62
     4
100
AcDbLine
 10
210.718844875981
 20
389.092314242537
 30
0.0
 11
210.968844875981
 21
388.592314242537
 31
0.0
  0
LINE
  5
269
330
1F
100
AcDbEntity
  8
1
  6
Continuous
 62
     4
100
AcDbLine
 10
210.468844875981
 20
389.342314242537
 30
0.0
 11
210.718844875981
 21
389.092314242537
 31
0.0
  0
LINE
  5
26A
330
1F
100
AcDbEntity
  8
1
  6
Continuous
 62
     4
100
AcDbLine
 10
210.093844875981
 20
389.592314242537
 30
0.0
 11
210.468844875981
 21
389.342314242537
 31
0.0
  0
LINE
  5
26B
330
1F
100
AcDbEntity
  8
1
  6
Continuous
 62
     4
100
AcDbLine
 10
209.718844875981
 20
389.717314242537
 30
0.0
 11
210.093844875981
 21
389.592314242537
 31
0.0
  0
LINE
  5
26C
330
1F
100
AcDbEntity
  8
1
  6
Continuous
 62
     4
100
AcDbLine
 10
209.468844875981
 20
389.717314242537
 30
0.0
 11
209.718844875981
 21
389.717314242537
 31
0.0
  0
LINE
  5
26D
330
1F
100
AcDbEntity
  8
1
  6
Continuous
 62
     4
100
AcDbLine
 10
209.093844875981
 20
389.592314242537
 30
0.0
 11
209.468844875981
 21
389.717314242537
 31
0.0
  0
LINE
  5
26E
330
1F
100
AcDbEntity
  8
1
  6
Continuous
 62
     4
100
AcDbLine
 10
208.718844875981
 20
389.342314242537
 30
0.0
 11
209.093844875981
 21
389.592314242537
 31
0.0
  0
LINE
  5
26F
330
1F
100
AcDbEntity
  8
1
  6
Continuous
 62
     4
100
AcDbLine
 10
208.468844875981
 20
389.092314242537
 30
0.0
 11
208.718844875981
 21
389.342314242537
 31
0.0
  0
LINE
  5
270
330
1F
100
AcDbEntity
  8
1
  6
Continuous
 62
     4
100
AcDbLine
 10
208.218844875981
 20
388.592314242537
 30
0.0
 11
208.468844875981
 21
389.092314242537
 31
0.0
  0
LINE
  5
271
330
1F
100
AcDbEntity
  8
1
  6
Continuous
 62
     4
100
AcDbLine
 10
208.093844875981
 20
387.842314242537
 30
0.0
 11
208.218844875981
 21
388.592314242537
 31
0.0
  0
LINE
  5
272
330
1F
100
AcDbEntity
  8
1
  6
Continuous
 62
     4
100
AcDbLine
 10
208.093844875981
 20
386.592314242537
 30
0.0
 11
208.093844875981
 21
387.842314242537
 31
0.0
  0
LINE
  5
273
330
1F
100
AcDbEntity
  8
1
  6
Continuous
 62
     4
100
AcDbLine
 10
208.218844875981
 20
385.842314242537
 30
0.0
 11
208.093844875981
 21
386.592314242537
 31
0.0
  0
LINE
  5
274
330
1F
100
AcDbEntity
  8
1
  6
Continuous
 62
     4
100
AcDbLine
 10
208.468844875981
 20
385.342314242537
 30
0.0
 11
208.218844875981
 21
385.842314242537
 31
0.0
  0
LINE
  5
275
330
1F
100
AcDbEntity
  8
1
  6
Continuous
 62
     4
100
AcDbLine
 10
208.718844875981
 20
385.092314242537
 30
0.0
 11
208.468844875981
 21
385.342314242537
 31
0.0
  0
LINE
  5
276
330
1F
100
AcDbEntity
  8
1
  6
Continuous
 62
     4
100
AcDbLine
 10
209.093844875981
 20
384.842314242537
 30
0.0
 11
208.718844875981
 21
385.092314242537
 31
0.0
  0
LINE
  5
277
330
1F
100
AcDbEntity
  8
1
  6
Continuous
 62
     4
100
AcDbLine
 10
209.468844875981
 20
384.717314242537
 30
0.0
 11
209.093844875981
 21
384.842314242537
 31
0.0
  0
LINE
  5
278
330
1F
100
AcDbEntity
  8
1
  6
Continuous
 62
     4
100
AcDbLine
 10
209.718844875981
 20
384.717314242537
 30
0.0
 11
209.468844875981
 21
384.717314242537
 31
0.0
  0
LINE
  5
279
330
1F
100
AcDbEntity
  8
1
  6
Continuous
 62
     4
100
AcDbLine
 10
210.093844875981
 20
384.842314242537
 30
0.0
 11
209.718844875981
 21
384.717314242537
 31
0.0
  0
LINE
  5
27A
330
1F
100
AcDbEntity
  8
1
  6
Continuous
 62
     4
100
AcDbLine
 10
210.468844875981
 20
385.092314242537
 30
0.0
 11
210.093844875981
 21
384.842314242537
 31
0.0
  0
LINE
  5
27B
330
1F
100
AcDbEntity
  8
1
  6
Continuous
 62
     4
100
AcDbLine
 10
210.718844875981
 20
385.342314242537
 30
0.0
 11
210.468844875981
 21
385.092314242537
 31
0.0
  0
LINE
  5
27C
330
1F
100
AcDbEntity
  8
1
  6
Continuous
 62
     4
100
AcDbLine
 10
210.968844875981
 20
385.842314242537
 30
0.0
 11
210.718844875981
 21
385.342314242537
 31
0.0
  0
LINE
  5
27D
330
1F
100
AcDbEntity
  8
1
  6
Continuous
 62
     4
100
AcDbLine
 10
211.093844875981
 20
386.592314242537
 30
0.0
 11
210.968844875981
 21
385.842314242537
 31
0.0
  0
LINE
  5
27E
330
1F
100
AcDbEntity
  8
1
  6
Continuous
 62
     4
100
AcDbLine
 10
203.593844875981
 20
384.717314242537
 30
0.0
 11
206.593844875981
 21
384.717314242537
 31
0.0
  0
LINE
  5
27F
330
1F
100
AcDbEntity
  8
1
  6
Continuous
 62
     4
100
AcDbLine
 10
206.343844875981
 20
387.967314242537
 30
0.0
 11
203.593844875981
 21
384.717314242537
 31
0.0
  0
LINE
  5
280
330
1F
100
AcDbEntity
  8
1
  6
Continuous
 62
     4
100
AcDbLine
 10
206.593844875981
 20
388.467314242537
 30
0.0
 11
206.343844875981
 21
387.967314242537
 31
0.0
  0
LINE
  5
281
330
1F
100
AcDbEntity
  8
1
  6
Continuous
 62
     4
100
AcDbLine
 10
206.593844875981
 20
388.967314242537
 30
0.0
 11
206.593844875981
 21
388.467314242537
 31
0.0
  0
LINE
  5
282
330
1F
100
AcDbEntity
  8
1
  6
Continuous
 62
     4
100
AcDbLine
 10
206.343844875981
 20
389.342314242537
 30
0.0
 11
206.593844875981
 21
388.967314242537
 31
0.0
  0
LINE
  5
283
330
1F
100
AcDbEntity
  8
1
  6
Continuous
 62
     4
100
AcDbLine
 10
205.968844875981
 20
389.592314242537
 30
0.0
 11
206.343844875981
 21
389.342314242537
 31
0.0
  0
LINE
  5
284
330
1F
100
AcDbEntity
  8
1
  6
Continuous
 62
     4
100
AcDbLine
 10
205.468844875981
 20
389.717314242537
 30
0.0
 11
205.968844875981
 21
389.592314242537
 31
0.0
  0
LINE
  5
285
330
1F
100
AcDbEntity
  8
1
  6
Continuous
 62
     4
100
AcDbLine
 10
204.718844875981
 20
389.717314242537
 30
0.0
 11
205.468844875981
 21
389.717314242537
 31
0.0
  0
LINE
  5
286
330
1F
100
AcDbEntity
  8
1
  6
Continuous
 62
     4
100
AcDbLine
 10
204.218844875981
 20
389.592314242537
 30
0.0
 11
204.718844875981
 21
389.717314242537
 31
0.0
  0
LINE
  5
287
330
1F
100
AcDbEntity
  8
1
  6
Continuous
 62
     4
100
AcDbLine
 10
203.843844875981
 20
389.342314242537
 30
0.0
 11
204.218844875981
 21
389.592314242537
 31
0.0
  0
LINE
  5
288
330
1F
100
AcDbEntity
  8
1
  6
Continuous
 62
     4
100
AcDbLine
 10
203.593844875981
 20
388.967314242537
 30
0.0
 11
203.843844875981
 21
389.342314242537
 31
0.0
  0
LINE
  5
289
330
1F
100
AcDbEntity
  8
1
  6
Continuous
 62
     4
100
AcDbLine
 10
199.593844875981
 20
386.467314242537
 30
0.0
 11
202.093844875981
 21
386.467314242537
 31
0.0
  0
LINE
  5
28A
330
1F
100
AcDbEntity
  8
1
  6
Continuous
 62
     4
100
AcDbLine
 10
194.843844875981
 20
387.467314242537
 30
0.0
 11
194.843844875981
 21
389.717314242537
 31
0.0
  0
LINE
  5
28B
330
1F
100
AcDbEntity
  8
1
  6
Continuous
 62
     4
100
AcDbLine
 10
197.218844875981
 20
387.592314242537
 30
0.0
 11
196.843844875981
 21
387.467314242537
 31
0.0
  0
LINE
  5
28C
330
1F
100
AcDbEntity
  8
1
  6
Continuous
 62
     4
100
AcDbLine
 10
197.593844875981
 20
387.842314242537
 30
0.0
 11
197.218844875981
 21
387.592314242537
 31
0.0
  0
LINE
  5
28D
330
1F
100
AcDbEntity
  8
1
  6
Continuous
 62
     4
100
AcDbLine
 10
197.843844875981
 20
388.342314242537
 30
0.0
 11
197.593844875981
 21
387.842314242537
 31
0.0
  0
LINE
  5
28E
330
1F
100
AcDbEntity
  8
1
  6
Continuous
 62
     4
100
AcDbLine
 10
197.843844875981
 20
388.717314242537
 30
0.0
 11
197.843844875981
 21
388.342314242537
 31
0.0
  0
LINE
  5
28F
330
1F
100
AcDbEntity
  8
1
  6
Continuous
 62
     4
100
AcDbLine
 10
197.718844875981
 20
389.217314242537
 30
0.0
 11
197.843844875981
 21
388.717314242537
 31
0.0
  0
LINE
  5
290
330
1F
100
AcDbEntity
  8
1
  6
Continuous
 62
     4
100
AcDbLine
 10
197.343844875981
 20
389.592314242537
 30
0.0
 11
197.718844875981
 21
389.217314242537
 31
0.0
  0
LINE
  5
291
330
1F
100
AcDbEntity
  8
1
  6
Continuous
 62
     4
100
AcDbLine
 10
196.718844875981
 20
389.717314242537
 30
0.0
 11
197.343844875981
 21
389.592314242537
 31
0.0
  0
LINE
  5
292
330
1F
100
AcDbEntity
  8
1
  6
Continuous
 62
     4
100
AcDbLine
 10
194.843844875981
 20
389.717314242537
 30
0.0
 11
196.718844875981
 21
389.717314242537
 31
0.0
  0
LINE
  5
293
330
1F
100
AcDbEntity
  8
1
  6
Continuous
 62
     4
100
AcDbLine
 10
194.843844875981
 20
384.717314242537
 30
0.0
 11
194.843844875981
 21
387.467314242537
 31
0.0
  0
LINE
  5
294
330
1F
100
AcDbEntity
  8
1
  6
Continuous
 62
     4
100
AcDbLine
 10
197.093844875981
 20
384.717314242537
 30
0.0
 11
194.843844875981
 21
384.717314242537
 31
0.0
  0
LINE
  5
295
330
1F
100
AcDbEntity
  8
1
  6
Continuous
 62
     4
100
AcDbLine
 10
197.593844875981
 20
384.967314242537
 30
0.0
 11
197.093844875981
 21
384.717314242537
 31
0.0
  0
LINE
  5
296
330
1F
100
AcDbEntity
  8
1
  6
Continuous
 62
     4
100
AcDbLine
 10
197.843844875981
 20
385.217314242537
 30
0.0
 11
197.593844875981
 21
384.967314242537
 31
0.0
  0
LINE
  5
297
330
1F
100
AcDbEntity
  8
1
  6
Continuous
 62
     4
100
AcDbLine
 10
198.093844875981
 20
385.717314242537
 30
0.0
 11
197.843844875981
 21
385.217314242537
 31
0.0
  0
LINE
  5
298
330
1F
100
AcDbEntity
  8
1
  6
Continuous
 62
     4
100
AcDbLine
 10
198.093844875981
 20
386.342314242537
 30
0.0
 11
198.093844875981
 21
385.717314242537
 31
0.0
  0
LINE
  5
299
330
1F
100
AcDbEntity
  8
1
  6
Continuous
 62
     4
100
AcDbLine
 10
197.843844875981
 20
386.967314242537
 30
0.0
 11
198.093844875981
 21
386.342314242537
 31
0.0
  0
LINE
  5
29A
330
1F
100
AcDbEntity
  8
1
  6
Continuous
 62
     4
100
AcDbLine
 10
197.593844875981
 20
387.217314242537
 30
0.0
 11
197.843844875981
 21
386.967314242537
 31
0.0
  0
LINE
  5
29B
330
1F
100
AcDbEntity
  8
1
  6
Continuous
 62
     4
100
AcDbLine
 10
197.093844875981
 20
387.467314242537
 30
0.0
 11
197.593844875981
 21
387.217314242537
 31
0.0
  0
LINE
  5
29C
330
1F
100
AcDbEntity
  8
1
  6
Continuous
 62
     4
100
AcDbLine
 10
196.843844875981
 20
387.467314242537
 30
0.0
 11
197.093844875981
 21
387.467314242537
 31
0.0
  0
LINE
  5
29D
330
1F
100
AcDbEntity
  8
1
  6
Continuous
 62
     4
100
AcDbLine
 10
194.843844875981
 20
387.467314242537
 30
0.0
 11
196.843844875981
 21
387.467314242537
 31
0.0
  0
LINE
  5
29E
330
1F
100
AcDbEntity
  8
1
  6
Continuous
 62
     4
100
AcDbLine
 10
190.843844875981
 20
386.467314242537
 30
0.0
 11
193.343844875981
 21
386.467314242537
 31
0.0
  0
LINE
  5
29F
330
1F
100
AcDbEntity
  8
1
  6
Continuous
 62
     4
100
AcDbLine
 10
187.593844875981
 20
384.717314242537
 30
0.0
 11
189.343844875981
 21
389.717314242537
 31
0.0
  0
LINE
  5
2A0
330
1F
100
AcDbEntity
  8
1
  6
Continuous
 62
     4
100
AcDbLine
 10
185.843844875981
 20
389.717314242537
 30
0.0
 11
187.593844875981
 21
384.717314242537
 31
0.0
  0
LINE
  5
2A1
330
1F
100
AcDbEntity
  8
1
  6
Continuous
 62
     4
100
AcDbLine
 10
184.343844875981
 20
389.717314242537
 30
0.0
 11
184.343844875981
 21
384.717314242537
 31
0.0
  0
LINE
  5
2A2
330
1F
100
AcDbEntity
  8
1
  6
Continuous
 62
     4
100
AcDbLine
 10
182.593844875981
 20
386.967314242537
 30
0.0
 11
184.343844875981
 21
389.717314242537
 31
0.0
  0
LINE
  5
2A3
330
1F
100
AcDbEntity
  8
1
  6
Continuous
 62
     4
100
AcDbLine
 10
180.843844875981
 20
389.717314242537
 30
0.0
 11
182.593844875981
 21
386.967314242537
 31
0.0
  0
LINE
  5
2A4
330
1F
100
AcDbEntity
  8
1
  6
Continuous
 62
     4
100
AcDbLine
 10
180.843844875981
 20
384.717314242537
 30
0.0
 11
180.843844875981
 21
389.717314242537
 31
0.0
  0
LINE
  5
3EB
330
1F
100
AcDbEntity
  8
1
  6
Continuous
 62
     4
100
AcDbLine
 10
24.0
 20
-81.1415486827445
 30
0.0
 11
21.3721970639523
 21
-82.7970916924
 31
0.0
  0
LINE
  5
3EC
330
1F
100
AcDbEntity
  8
1
  6
Continuous
 62
     4
100
AcDbLine
 10
24.0
 20
-81.1415486827445
 30
0.0
 11
22.5520274060711
 21
-83.8891924541878
 31
0.0
  0
LINE
  5
3ED
330
1F
100
AcDbEntity
  8
1
  6
Continuous
 62
     4
100
AcDbLine
 10
104.0
 20
-81.1415486827445
 30
0.0
 11
105.619555578695
 21
-83.7916827652085
 31
0.0
  0
LINE
  5
3EE
330
1F
100
AcDbEntity
  8
1
  6
Continuous
 62
     4
100
AcDbLine
 10
104.0
 20
-81.1415486827445
 30
0.0
 11
106.727643315223
 21
-82.6268543322457
 31
0.0
  0
LINE
  5
3EF
330
1F
100
AcDbEntity
  8
3
  6
Continuous
 62
     3
100
AcDbLine
 10
43.0
 20
-58.1415486827445
 30
0.0
 11
85.0
 21
-58.1415486827445
 31
0.0
  0
LINE
  5
3F0
330
1F
100
AcDbEntity
  8
3
  6
Continuous
 62
     3
100
AcDbLine
 10
43.0
 20
-58.1415486827445
 30
0.0
 11
43.0
 21
56.8584513172555
 31
0.0
  0
LINE
  5
3F1
330
1F
100
AcDbEntity
  8
3
  6
Continuous
 62
     3
100
AcDbLine
 10
85.0
 20
-58.1415486827445
 30
0.0
 11
85.0
 21
56.8584513172555
 31
0.0
  0
LINE
  5
3F2
330
1F
100
AcDbEntity
  8
3
  6
Continuous
 62
     3
100
AcDbLine
 10
85.0
 20
61.8584513172555
 30
0.0
 11
85.0
 21
243.575353951766
 31
0.0
  0
LINE
  5
3F3
330
1F
100
AcDbEntity
  8
3
  6
Continuous
 62
     3
100
AcDbLine
 10
43.0
 20
61.8584513172555
 30
0.0
 11
43.0
 21
243.575353951766
 31
0.0
  0
LINE
  5
3F4
330
1F
100
AcDbEntity
  8
3
  6
Continuous
 62
     3
100
AcDbLine
 10
77.0
 20
272.286678817171
 30
0.0
 11
77.0
 21
257.075353951766
 31
0.0
  0
LINE
  5
3F5
330
1F
100
AcDbEntity
  8
3
  6
Continuous
 62
     3
100
AcDbLine
 10
87.75
 20
243.575353951766
 30
0.0
 11
87.75
 21
257.075353951766
 31
0.0
  0
LINE
  5
3F6
330
1F
100
AcDbEntity
  8
3
  6
Continuous
 62
     3
100
AcDbLine
 10
87.75
 20
257.075353951766
 30
0.0
 11
40.25
 21
257.075353951766
 31
0.0
  0
LINE
  5
3F7
330
1F
100
AcDbEntity
  8
3
  6
Continuous
 62
     3
100
AcDbLine
 10
40.25
 20
243.575353951766
 30
0.0
 11
87.75
 21
243.575353951766
 31
0.0
  0
LINE
  5
3F8
330
1F
100
AcDbEntity
  8
3
  6
Continuous
 62
     3
100
AcDbLine
 10
40.25
 20
243.575353951766
 30
0.0
 11
40.25
 21
257.075353951766
 31
0.0
  0
LINE
  5
3F9
330
1F
100
AcDbEntity
  8
3
  6
DOT_CENTER
 62
     1
100
AcDbLine
 10
64.0
 20
-106.141548682745
 30
0.0
 11
64.0
 21
319.858451317256
 31
0.0
  0
LINE
  5
3FA
330
1F
100
AcDbEntity
  8
3
  6
Continuous
 62
     3
100
AcDbLine
 10
59.500015258789
 20
-89.1415486827445
 30
0.0
 11
62.000015258789
 21
-85.1415486827445
 31
0.0
  0
LINE
  5
3FB
330
1F
100
AcDbEntity
  8
3
  6
Continuous
 62
     3
100
AcDbLine
 10
51.000015258789
 20
-89.1415486827445
 30
0.0
 11
59.500015258789
 21
-89.1415486827445
 31
0.0
  0
LINE
  5
3FC
330
1F
100
AcDbEntity
  8
3
  6
Continuous
 62
     3
100
AcDbLine
 10
62.000015258789
 20
-85.1415486827445
 30
0.0
 11
73.000015258789
 21
-85.1415486827445
 31
0.0
  0
LINE
  5
3FD
330
1F
100
AcDbEntity
  8
3
  6
Continuous
 62
     3
100
AcDbLine
 10
73.000015258789
 20
-85.1415486827445
 30
0.0
 11
72.000015258789
 21
-89.1415486827445
 31
0.0
  0
LINE
  5
3FE
330
1F
100
AcDbEntity
  8
3
  6
Continuous
 62
     3
100
AcDbLine
 10
77.000015258789
 20
-84.1415486827445
 30
0.0
 11
72.000015258789
 21
-89.1415486827445
 31
0.0
  0
LINE
  5
3FF
330
1F
100
AcDbEntity
  8
3
  6
Continuous
 62
     3
100
AcDbLine
 10
51.000015258789
 20
-89.1415486827445
 30
0.0
 11
54.125015258789
 21
-84.1415486827445
 31
0.0
  0
LINE
  5
400
330
1F
100
AcDbEntity
  8
3
  6
Continuous
 62
     3
100
AcDbLine
 10
51.0
 20
272.286678817171
 30
0.0
 11
51.0
 21
257.075353951766
 31
0.0
  0
LINE
  5
401
330
1F
100
AcDbEntity
  8
3
  6
Continuous
 62
     3
100
AcDbLine
 10
69.38477631085
 20
257.075353951766
 30
0.0
 11
69.38477631085
 21
271.668279749939
 31
0.0
  0
LINE
  5
402
330
1F
100
AcDbEntity
  8
3
  6
Continuous
 62
     3
100
AcDbLine
 10
58.61522368915
 20
257.075353951766
 30
0.0
 11
58.61522368915
 21
271.668279749939
 31
0.0
  0
LINE
  5
403
330
1F
100
AcDbEntity
  8
3
  6
Continuous
 62
     3
100
AcDbLine
 10
41.0411070152066
 20
305.575353947409
 30
0.0
 11
40.4650898726722
 21
272.575353951766
 31
0.0
  0
LINE
  5
404
330
1F
100
AcDbEntity
  8
3
  6
Continuous
 62
     3
100
AcDbLine
 10
50.3987545370726
 20
313.609280596424
 30
0.0
 11
50.837707933943
 21
313.747805607648
 31
0.0
  0
LINE
  5
405
330
1F
100
AcDbEntity
  8
3
  6
Continuous
 62
     3
100
AcDbLine
 10
87.5349101273283
 20
272.575353951766
 30
0.0
 11
40.4650898726722
 21
272.575353951766
 31
0.0
  0
LINE
  5
406
330
1F
100
AcDbEntity
  8
3
  6
Continuous
 62
     3
100
AcDbLine
 10
45.2580311322383
 20
272.575353951766
 30
0.0
 11
45.5056401379438
 21
307.51934066119
 31
0.0
  0
LINE
  5
407
330
1F
100
AcDbEntity
  8
3
  6
Continuous
 62
     3
100
AcDbLine
 10
47.5466712739283
 20
272.575353951766
 30
0.0
 11
48.1528908502454
 21
307.305650313894
 31
0.0
  0
LINE
  5
408
330
1F
100
AcDbEntity
  8
3
  6
Continuous
 62
     3
100
AcDbLine
 10
61.3076736552236
 20
307.51934066119
 30
0.0
 11
61.6666177233593
 21
272.575353951766
 31
0.0
  0
LINE
  5
409
330
1F
100
AcDbEntity
  8
3
  6
Continuous
 62
     3
100
AcDbLine
 10
66.6923263422368
 20
307.51934066119
 30
0.0
 11
66.3333822767949
 21
272.575353951766
 31
0.0
  0
LINE
  5
40A
330
1F
100
AcDbEntity
  8
3
  6
Continuous
 62
     6
100
AcDbLine
 10
86.9588929847932
 20
305.575353947409
 30
0.0
 11
86.9295608971566
 21
305.575353947409
 31
0.0
  0
LINE
  5
40B
330
1F
100
AcDbEntity
  8
3
  6
Continuous
 62
     3
100
AcDbLine
 10
41.0704391028434
 20
305.575353947409
 30
0.0
 11
41.0411070152066
 21
305.575353947409
 31
0.0
  0
LINE
  5
40C
330
1F
100
AcDbEntity
  8
3
  6
Continuous
 62
     3
100
AcDbLine
 10
80.453328726244
 20
272.575353951766
 30
0.0
 11
79.8471089694148
 21
307.305660484054
 31
0.0
  0
LINE
  5
40D
330
1F
100
AcDbEntity
  8
3
  6
Continuous
 62
     3
100
AcDbLine
 10
82.7419688677621
 20
272.575353951766
 30
0.0
 11
82.4943598620566
 21
307.51934066119
 31
0.0
  0
LINE
  5
40E
330
1F
100
AcDbEntity
  8
3
  6
Continuous
 62
     3
100
AcDbLine
 10
51.57322549
 20
313.858451317256
 30
0.0
 11
76.42677451
 21
313.858451317256
 31
0.0
  0
LINE
  5
40F
330
1F
100
AcDbEntity
  8
3
  6
Continuous
 62
     3
100
AcDbLine
 10
86.9588929847932
 20
305.575353947409
 30
0.0
 11
87.5349101273283
 21
272.575353951766
 31
0.0
  0
LINE
  5
410
330
1F
100
AcDbEntity
  8
3
  6
DOT_CENTER
 62
     6
100
AcDbLine
 10
51.57322549
 20
303.858451317256
 30
0.0
 11
76.42677451
 21
303.858451317255
 31
0.0
  0
LINE
  5
411
330
1F
100
AcDbEntity
  8
3
  6
PHANTOM
 62
     6
100
AcDbLine
 10
50.3987545370726
 20
303.609280596424
 30
0.0
 11
50.837707933943
 21
303.747805607648
 31
0.0
  0
LINE
  5
412
330
1F
100
AcDbEntity
  8
3
  6
DOT_CENTER
 62
     6
100
AcDbLine
 10
87.3391654152646
 20
273.789560995707
 30
0.0
 11
87.5349101273283
 21
262.575353951766
 31
0.0
  0
LINE
  5
413
330
1F
100
AcDbEntity
  8
3
  6
DOT_CENTER
 62
     6
100
AcDbLine
 10
87.5349101273283
 20
262.575353951766
 30
0.0
 11
40.4650898726719
 21
262.575353951766
 31
0.0
  0
LINE
  5
414
330
1F
100
AcDbEntity
  8
3
  6
PHANTOM
 62
     6
100
AcDbLine
 10
40.6608345847356
 20
273.789560995706
 30
0.0
 11
40.4650898726719
 21
262.575353951766
 31
0.0
  0
LINE
  5
415
330
1F
100
AcDbEntity
  8
3
  6
Continuous
 62
     3
100
AcDbLine
 10
77.000015258789
 20
-84.1415486827445
 30
0.0
 11
54.125015258789
 21
-84.1415486827445
 31
0.0
  0
LINE
  5
416
330
1F
100
AcDbEntity
  8
1
  6
Continuous
 62
     3
100
AcDbLine
 10
91.0000000000005
 20
-101.141548682745
 30
0.0
 11
102.5
 21
-101.141548682745
 31
0.0
  0
LINE
  5
417
330
1F
100
AcDbEntity
  8
1
  6
Continuous
 62
     3
100
AcDbLine
 10
104.0
 20
-99.6415486827445
 30
0.0
 11
104.0
 21
-62.6415486827445
 31
0.0
  0
LINE
  5
418
330
1F
100
AcDbEntity
  8
1
  6
Continuous
 62
     3
100
AcDbLine
 10
102.5
 20
-101.141548682745
 30
0.0
 11
104.0
 21
-99.6415486827445
 31
0.0
  0
LINE
  5
419
330
1F
100
AcDbEntity
  8
1
  6
Continuous
 62
     3
100
AcDbLine
 10
91.0000000000005
 20
-101.141548682745
 30
0.0
 11
89.8986040763974
 21
-98.1154882527671
 31
0.0
  0
LINE
  5
41A
330
1F
100
AcDbEntity
  8
1
  6
Continuous
 62
     3
100
AcDbLine
 10
87.0795262140397
 20
-96.1415486827444
 30
0.0
 11
86.7156333832004
 21
-96.1415486827445
 31
0.0
  0
LINE
  5
41B
330
1F
100
AcDbEntity
  8
1
  6
Continuous
 62
     3
100
AcDbLine
 10
25.5
 20
-101.141548682745
 30
0.0
 11
24.0
 21
-99.6415486827445
 31
0.0
  0
LINE
  5
41C
330
1F
100
AcDbEntity
  8
1
  6
Continuous
 62
     3
100
AcDbLine
 10
25.5
 20
-101.141548682745
 30
0.0
 11
36.9999999999997
 21
-101.141548682745
 31
0.0
  0
LINE
  5
41D
330
1F
100
AcDbEntity
  8
1
  6
Continuous
 62
     3
100
AcDbLine
 10
41.2843666167997
 20
-96.1415486827445
 30
0.0
 11
40.9204737859603
 21
-96.1415486827445
 31
0.0
  0
LINE
  5
41E
330
1F
100
AcDbEntity
  8
1
  6
Continuous
 62
     3
100
AcDbLine
 10
38.1013959236028
 20
-98.1154882527671
 30
0.0
 11
36.9999999999997
 21
-101.141548682745
 31
0.0
  0
LINE
  5
41F
330
1F
100
AcDbEntity
  8
1
  6
Continuous
 62
     3
100
AcDbLine
 10
24.0
 20
-62.6415486827445
 30
0.0
 11
24.0
 21
-99.6415486827445
 31
0.0
  0
LINE
  5
420
330
1F
100
AcDbEntity
  8
1
  6
Continuous
 62
     3
100
AcDbLine
 10
25.5
 20
-61.1415486827445
 30
0.0
 11
24.0
 21
-62.6415486827445
 31
0.0
  0
LINE
  5
421
330
1F
100
AcDbEntity
  8
1
  6
Continuous
 62
     3
100
AcDbLine
 10
25.5
 20
-61.1415486827445
 30
0.0
 11
36.9999999999997
 21
-61.1415486827445
 31
0.0
  0
LINE
  5
422
330
1F
100
AcDbEntity
  8
1
  6
Continuous
 62
     3
100
AcDbLine
 10
36.9999999999997
 20
-61.1415486827445
 30
0.0
 11
38.1013959236028
 21
-64.167609112722
 31
0.0
  0
LINE
  5
423
330
1F
100
AcDbEntity
  8
1
  6
Continuous
 62
     3
100
AcDbLine
 10
40.9204737859603
 20
-66.1415486827445
 30
0.0
 11
41.2843666167986
 21
-66.1415486827445
 31
0.0
  0
LINE
  5
424
330
1F
100
AcDbEntity
  8
1
  6
Continuous
 62
     3
100
AcDbLine
 10
89.8986040763973
 20
-64.167609112722
 30
0.0
 11
91.0000000000005
 21
-61.1415486827445
 31
0.0
  0
LINE
  5
425
330
1F
100
AcDbEntity
  8
1
  6
Continuous
 62
     3
100
AcDbLine
 10
91.0000000000005
 20
-61.1415486827445
 30
0.0
 11
102.5
 21
-61.1415486827445
 31
0.0
  0
LINE
  5
426
330
1F
100
AcDbEntity
  8
1
  6
Continuous
 62
     3
100
AcDbLine
 10
102.5
 20
-61.1415486827445
 30
0.0
 11
104.0
 21
-62.6415486827445
 31
0.0
  0
LINE
  5
427
330
1F
100
AcDbEntity
  8
1
  6
Continuous
 62
     3
100
AcDbLine
 10
86.7156333832014
 20
-66.1415486827445
 30
0.0
 11
87.0795262140397
 21
-66.1415486827445
 31
0.0
  0
LINE
  5
428
330
1F
100
AcDbEntity
  8
3
  6
Continuous
 62
     3
100
AcDbLine
 10
79.0
 20
-60.6443577601705
 30
0.0
 11
79.0
 21
-58.1415486827445
 31
0.0
  0
LINE
  5
429
330
1F
100
AcDbEntity
  8
3
  6
Continuous
 62
     3
100
AcDbLine
 10
49.0000000000001
 20
-60.6443577601705
 30
0.0
 11
49.0
 21
-58.1415486827445
 31
0.0
  0
LINE
  5
42A
330
1F
100
AcDbEntity
  8
1
  6
Continuous
 62
     3
100
AcDbLine
 10
-78.9627151079969
 20
-71.037918971926
 30
0.0
 11
-96.462715107997
 21
-60.9342892611076
 31
0.0
  0
LINE
  5
42B
330
1F
100
AcDbEntity
  8
1
  6
Continuous
 62
     3
100
AcDbLine
 10
-96.462715107997
 20
-101.348808104381
 30
0.0
 11
-78.9627151079969
 21
-91.2451783935629
 31
0.0
  0
LINE
  5
42C
330
1F
100
AcDbEntity
  8
1
  6
Continuous
 62
     3
100
AcDbLine
 10
-75.462715107997
 20
-58.1415486827445
 30
0.0
 11
-75.462715107997
 21
-81.1415486827445
 31
0.0
  0
LINE
  5
42D
330
1F
100
AcDbEntity
  8
1
  6
Continuous
 62
     3
100
AcDbLine
 10
-78.9627151079969
 20
-91.2451783935629
 30
0.0
 11
-78.9627151079969
 21
-71.037918971926
 31
0.0
  0
LINE
  5
42E
330
1F
100
AcDbEntity
  8
1
  6
Continuous
 62
     3
100
AcDbLine
 10
-84.5712298244002
 20
-83.1415486827445
 30
0.0
 11
-108.354200391594
 21
-83.1415486827445
 31
0.0
  0
LINE
  5
42F
330
1F
100
AcDbEntity
  8
1
  6
Continuous
 62
     3
100
AcDbLine
 10
23.9999999999999
 20
374.575353951767
 30
0.0
 11
37.0
 21
374.575353951767
 31
0.0
  0
LINE
  5
430
330
1F
100
AcDbEntity
  8
1
  6
Continuous
 62
     3
100
AcDbLine
 10
92.0
 20
374.575353951767
 30
0.0
 11
104.0
 21
374.575353951767
 31
0.0
  0
LINE
  5
431
330
1F
100
AcDbEntity
  8
1
  6
Continuous
 62
     3
100
AcDbLine
 10
23.9999999999999
 20
392.075353951767
 30
0.0
 11
23.9999999999999
 21
357.075353951766
 31
0.0
  0
LINE
  5
432
330
1F
100
AcDbEntity
  8
1
  6
Continuous
 62
     3
100
AcDbLine
 10
37.9099255856654
 20
357.075353951766
 30
0.0
 11
23.9999999999999
 21
357.075353951766
 31
0.0
  0
LINE
  5
433
330
1F
100
AcDbEntity
  8
1
  6
Continuous
 62
     3
100
AcDbLine
 10
23.9999999999999
 20
392.075353951767
 30
0.0
 11
37.9099255856654
 21
392.075353951767
 31
0.0
  0
LINE
  5
434
330
1F
100
AcDbEntity
  8
1
  6
Continuous
 62
     3
100
AcDbLine
 10
90.0900744143345
 20
392.075353951767
 30
0.0
 11
104.0
 21
392.075353951767
 31
0.0
  0
LINE
  5
435
330
1F
100
AcDbEntity
  8
1
  6
Continuous
 62
     3
100
AcDbLine
 10
104.0
 20
357.075353951766
 30
0.0
 11
90.0900744143345
 21
357.075353951766
 31
0.0
  0
LINE
  5
436
330
1F
100
AcDbEntity
  8
1
  6
Continuous
 62
     3
100
AcDbLine
 10
104.0
 20
357.075353951766
 30
0.0
 11
104.0
 21
392.075353951767
 31
0.0
  0
LINE
  5
437
330
1F
100
AcDbEntity
  8
1
  6
Continuous
 62
     3
100
AcDbLine
 10
-113.962715107997
 20
-71.037918971926
 30
0.0
 11
-113.962715107997
 21
-91.2451783935629
 31
0.0
  0
LINE
  5
438
330
1F
100
AcDbEntity
  8
1
  6
Continuous
 62
     3
100
AcDbLine
 10
-113.962715107997
 20
-91.2451783935629
 30
0.0
 11
-96.462715107997
 21
-101.348808104381
 31
0.0
  0
LINE
  5
439
330
1F
100
AcDbEntity
  8
1
  6
Continuous
 62
     3
100
AcDbLine
 10
-96.462715107997
 20
-60.9342892611076
 30
0.0
 11
-113.962715107997
 21
-71.037918971926
 31
0.0
  0
LINE
  5
43A
330
1F
100
AcDbEntity
  8
1
  6
DOT_CENTER
 62
     1
100
AcDbLine
 10
-72.462715107997
 20
-81.1415486827445
 30
0.0
 11
-120.462715107997
 21
-81.1415486827445
 31
0.0
  0
LINE
  5
43B
330
1F
100
AcDbEntity
  8
1
  6
Continuous
 62
     3
100
AcDbLine
 10
-117.462715107997
 20
-81.1415486827445
 30
0.0
 11
-117.462715107997
 21
-58.1415486827445
 31
0.0
  0
LINE
  5
43C
330
1F
100
AcDbEntity
  8
1
  6
DOT_CENTER
 62
     1
100
AcDbLine
 10
64.0
 20
350.575353951766
 30
0.0
 11
64.0
 21
398.575353951767
 31
0.0
  0
LINE
  5
43D
330
1F
100
AcDbEntity
  8
1
  6
DOT_CENTER
 62
     1
100
AcDbLine
 10
18.3961639404299
 20
374.575353951767
 30
0.0
 11
107.0
 21
374.575353951767
 31
0.0
  0
LINE
  5
43E
330
1F
100
AcDbEntity
  8
1
  6
Continuous
 62
     3
100
AcDbLine
 10
40.9204737859602
 20
389.575353951767
 30
0.0
 11
41.2843666167985
 21
389.575353951767
 31
0.0
  0
LINE
  5
43F
330
1F
100
AcDbEntity
  8
1
  6
Continuous
 62
     3
100
AcDbLine
 10
37.9099255856654
 20
392.075353951767
 30
0.0
 11
38.1013959236027
 21
391.549293521789
 31
0.0
  0
LINE
  5
440
330
1F
100
AcDbEntity
  8
1
  6
Continuous
 62
     3
100
AcDbLine
 10
38.1013959236027
 20
357.601414381744
 30
0.0
 11
37.9099255856654
 21
357.075353951766
 31
0.0
  0
LINE
  5
441
330
1F
100
AcDbEntity
  8
1
  6
Continuous
 62
     3
100
AcDbLine
 10
41.2843666167996
 20
359.575353951767
 30
0.0
 11
40.9204737859602
 21
359.575353951767
 31
0.0
  0
LINE
  5
442
330
1F
100
AcDbEntity
  8
1
  6
Continuous
 62
     3
100
AcDbLine
 10
87.0795262140397
 20
359.575353951767
 30
0.0
 11
86.4499443206435
 21
359.575353951766
 31
0.0
  0
LINE
  5
443
330
1F
100
AcDbEntity
  8
1
  6
Continuous
 62
     3
100
AcDbLine
 10
90.0900744143345
 20
357.075353951766
 30
0.0
 11
89.8986040763973
 21
357.601414381744
 31
0.0
  0
LINE
  5
444
330
1F
100
AcDbEntity
  8
1
  6
Continuous
 62
     3
100
AcDbLine
 10
89.8986040763972
 20
391.549293521789
 30
0.0
 11
90.0900744143345
 21
392.075353951767
 31
0.0
  0
LINE
  5
445
330
1F
100
AcDbEntity
  8
1
  6
Continuous
 62
     3
100
AcDbLine
 10
86.7156333832013
 20
389.575353951767
 30
0.0
 11
87.0795262140397
 21
389.575353951767
 31
0.0
  0
LINE
  5
446
330
1F
100
AcDbEntity
  8
3
  6
PHANTOM
 62
     6
100
AcDbLine
 10
-119.801880523261
 20
273.789560995706
 30
0.0
 11
-119.997625235325
 21
262.575353951766
 31
0.0
  0
LINE
  5
447
330
1F
100
AcDbEntity
  8
3
  6
DOT_CENTER
 62
     6
100
AcDbLine
 10
-72.9278049806687
 20
262.575353951766
 30
0.0
 11
-119.997625235325
 21
262.575353951766
 31
0.0
  0
LINE
  5
448
330
1F
100
AcDbEntity
  8
3
  6
DOT_CENTER
 62
     6
100
AcDbLine
 10
-73.1235496927324
 20
273.789560995707
 30
0.0
 11
-72.9278049806687
 21
262.575353951766
 31
0.0
  0
LINE
  5
449
330
1F
100
AcDbEntity
  8
3
  6
PHANTOM
 62
     6
100
AcDbLine
 10
-110.063960570924
 20
303.609280596424
 30
0.0
 11
-109.625007174054
 21
303.747805607648
 31
0.0
  0
LINE
  5
44A
330
1F
100
AcDbEntity
  8
3
  6
DOT_CENTER
 62
     6
100
AcDbLine
 10
-108.889489617997
 20
303.858451317256
 30
0.0
 11
-84.035940597997
 21
303.858451317255
 31
0.0
  0
LINE
  5
44B
330
1F
100
AcDbEntity
  8
3
  6
Continuous
 62
     3
100
AcDbLine
 10
-73.5038221232038
 20
305.575353947409
 30
0.0
 11
-72.9278049806687
 21
272.575353951766
 31
0.0
  0
LINE
  5
44C
330
1F
100
AcDbEntity
  8
3
  6
Continuous
 62
     3
100
AcDbLine
 10
-108.889489617997
 20
313.858451317256
 30
0.0
 11
-84.035940597997
 21
313.858451317255
 31
0.0
  0
LINE
  5
44D
330
1F
100
AcDbEntity
  8
3
  6
Continuous
 62
     3
100
AcDbLine
 10
-77.7207462402349
 20
272.575353951766
 30
0.0
 11
-77.9683552459404
 21
307.51934066119
 31
0.0
  0
LINE
  5
44E
330
1F
100
AcDbEntity
  8
3
  6
Continuous
 62
     3
100
AcDbLine
 10
-80.009386381753
 20
272.575353951766
 30
0.0
 11
-80.6156061385822
 21
307.305660484054
 31
0.0
  0
LINE
  5
44F
330
1F
100
AcDbEntity
  8
3
  6
Continuous
 62
     3
100
AcDbLine
 10
-119.392276005154
 20
305.575353947409
 30
0.0
 11
-119.42160809279
 21
305.575353947409
 31
0.0
  0
LINE
  5
450
330
1F
100
AcDbEntity
  8
3
  6
Continuous
 62
     3
100
AcDbLine
 10
-73.5038221232038
 20
305.575353947409
 30
0.0
 11
-73.5331542108404
 21
305.575353947409
 31
0.0
  0
LINE
  5
451
330
1F
100
AcDbEntity
  8
3
  6
Continuous
 62
     3
100
AcDbLine
 10
-93.7703887657602
 20
307.51934066119
 30
0.0
 11
-94.1293328312021
 21
272.575353951766
 31
0.0
  0
LINE
  5
452
330
1F
100
AcDbEntity
  8
3
  6
Continuous
 62
     3
100
AcDbLine
 10
-99.1550414527734
 20
307.51934066119
 30
0.0
 11
-98.7960973846377
 21
272.575353951766
 31
0.0
  0
LINE
  5
453
330
1F
100
AcDbEntity
  8
3
  6
Continuous
 62
     3
100
AcDbLine
 10
-112.916043834069
 20
272.575353951766
 30
0.0
 11
-112.309824257752
 21
307.305650313894
 31
0.0
  0
LINE
  5
454
330
1F
100
AcDbEntity
  8
3
  6
Continuous
 62
     3
100
AcDbLine
 10
-115.204683975759
 20
272.575353951766
 30
0.0
 11
-114.957074970053
 21
307.51934066119
 31
0.0
  0
LINE
  5
455
330
1F
100
AcDbEntity
  8
3
  6
Continuous
 62
     3
100
AcDbLine
 10
-72.9278049806687
 20
272.575353951766
 30
0.0
 11
-119.997625235325
 21
272.575353951766
 31
0.0
  0
LINE
  5
456
330
1F
100
AcDbEntity
  8
3
  6
Continuous
 62
     3
100
AcDbLine
 10
-110.063960570924
 20
313.609280596424
 30
0.0
 11
-109.625007174054
 21
313.747805607648
 31
0.0
  0
LINE
  5
457
330
1F
100
AcDbEntity
  8
3
  6
Continuous
 62
     3
100
AcDbLine
 10
-119.42160809279
 20
305.575353947409
 30
0.0
 11
-119.997625235325
 21
272.575353951766
 31
0.0
  0
LINE
  5
458
330
1F
100
AcDbEntity
  8
3
  6
Continuous
 62
     3
100
AcDbLine
 10
-101.847491418847
 20
257.075353951766
 30
0.0
 11
-101.847491418847
 21
271.668279749939
 31
0.0
  0
LINE
  5
459
330
1F
100
AcDbEntity
  8
3
  6
Continuous
 62
     3
100
AcDbLine
 10
-91.077938797147
 20
257.075353951766
 30
0.0
 11
-91.077938797147
 21
271.668279749939
 31
0.0
  0
LINE
  5
45A
330
1F
100
AcDbEntity
  8
3
  6
Continuous
 62
     3
100
AcDbLine
 10
-109.462715107997
 20
272.286678817171
 30
0.0
 11
-109.462715107997
 21
257.075353951766
 31
0.0
  0
LINE
  5
45B
330
1F
100
AcDbEntity
  8
3
  6
Continuous
 62
     3
100
AcDbLine
 10
-120.212715107997
 20
243.575353951766
 30
0.0
 11
-120.212715107997
 21
257.075353951766
 31
0.0
  0
LINE
  5
45C
330
1F
100
AcDbEntity
  8
3
  6
Continuous
 62
     3
100
AcDbLine
 10
-120.212715107997
 20
243.575353951766
 30
0.0
 11
-72.712715107997
 21
243.575353951766
 31
0.0
  0
LINE
  5
45D
330
1F
100
AcDbEntity
  8
3
  6
Continuous
 62
     3
100
AcDbLine
 10
-72.712715107997
 20
257.075353951766
 30
0.0
 11
-120.212715107997
 21
257.075353951766
 31
0.0
  0
LINE
  5
45E
330
1F
100
AcDbEntity
  8
3
  6
Continuous
 62
     3
100
AcDbLine
 10
-72.712715107997
 20
243.575353951766
 30
0.0
 11
-72.712715107997
 21
257.075353951766
 31
0.0
  0
LINE
  5
45F
330
1F
100
AcDbEntity
  8
3
  6
Continuous
 62
     3
100
AcDbLine
 10
-83.462715107997
 20
272.286678817171
 30
0.0
 11
-83.462715107997
 21
257.075353951766
 31
0.0
  0
LINE
  5
460
330
1F
100
AcDbEntity
  8
3
  6
Continuous
 62
     3
100
AcDbLine
 10
-117.462715107997
 20
61.8584513172555
 30
0.0
 11
-117.462715107997
 21
243.575353951766
 31
0.0
  0
LINE
  5
461
330
1F
100
AcDbEntity
  8
3
  6
Continuous
 62
     3
100
AcDbLine
 10
-75.462715107997
 20
61.8584513172555
 30
0.0
 11
-75.462715107997
 21
243.575353951766
 31
0.0
  0
LINE
  5
462
330
1F
100
AcDbEntity
  8
3
  6
Continuous
 62
     3
100
AcDbLine
 10
-75.462715107997
 20
-58.1415486827445
 30
0.0
 11
-75.462715107997
 21
56.8584513172555
 31
0.0
  0
LINE
  5
463
330
1F
100
AcDbEntity
  8
3
  6
Continuous
 62
     3
100
AcDbLine
 10
-117.462715107997
 20
-58.1415486827445
 30
0.0
 11
-117.462715107997
 21
56.8584513172555
 31
0.0
  0
LINE
  5
464
330
1F
100
AcDbEntity
  8
3
  6
Continuous
 62
     3
100
AcDbLine
 10
-117.462715107997
 20
-58.1415486827445
 30
0.0
 11
-75.462715107997
 21
-58.1415486827445
 31
0.0
  0
LINE
  5
465
330
1F
100
AcDbEntity
  8
3
  6
DOT_CENTER
 62
     1
100
AcDbLine
 10
-96.462715107997
 20
-106.141548682745
 30
0.0
 11
-96.462715107997
 21
319.858451317256
 31
0.0
  0
LINE
  5
466
330
1F
100
AcDbEntity
  8
1
  6
Continuous
 62
     3
100
AcDbLine
 10
102.5
 20
-71.9039443757105
 30
0.0
 11
91.0000000000005
 21
-71.9039443757105
 31
0.0
  0
LINE
  5
467
330
1F
100
AcDbEntity
  8
1
  6
Continuous
 62
     3
100
AcDbLine
 10
91.0000000000005
 20
-90.3791529897785
 30
0.0
 11
102.5
 21
-90.3791529897785
 31
0.0
  0
LINE
  5
468
330
1F
100
AcDbEntity
  8
1
  6
Continuous
 62
     3
100
AcDbLine
 10
36.9999999999997
 20
-90.3791529897785
 30
0.0
 11
25.5
 21
-90.3791529897785
 31
0.0
  0
LINE
  5
469
330
1F
100
AcDbEntity
  8
1
  6
Continuous
 62
     3
100
AcDbLine
 10
36.9999999999997
 20
-71.9039443757105
 30
0.0
 11
25.5
 21
-71.9039443757105
 31
0.0
  0
LINE
  5
46A
330
1F
100
AcDbEntity
  8
0
  6
Continuous
 62
     3
100
AcDbLine
 10
40.5300234005
 20
373.387836197267
 30
0.0
 11
40.5300234004414
 21
375.762871706269
 31
0.0
  0
LINE
  5
46B
330
1F
100
AcDbEntity
  8
0
  6
Continuous
 62
     3
100
AcDbLine
 10
74.7065677569
 20
395.494708790466
 30
0.0
 11
76.7634088428
 21
394.307191035867
 31
0.0
  0
LINE
  5
46C
330
1F
100
AcDbEntity
  8
0
  6
Continuous
 62
     3
100
AcDbLine
 10
51.2365911569
 20
394.307191035566
 30
0.0
 11
53.293432243
 21
395.494708790366
 31
0.0
  0
LINE
  5
46D
330
1F
100
AcDbEntity
  8
3
  6
DOT_CENTER
 62
     1
100
AcDbLine
 10
20.0
 20
-81.1415486827445
 30
0.0
 11
107.0
 21
-81.1415486827445
 31
0.0
  0
LINE
  5
46E
330
1F
100
AcDbEntity
  8
2
  6
Continuous
 62
     2
100
AcDbLine
 10
74.0
 20
313.858450265244
 30
0.0
 11
140.761749267578
 21
313.858450265244
 31
0.0
  0
LINE
  5
46F
330
1F
100
AcDbEntity
  8
2
  6
Continuous
 62
     2
100
AcDbLine
 10
139.761749267578
 20
313.858450265244
 30
0.0
 11
139.761749267578
 21
70.6415486827455
 31
0.0
  0
LINE
  5
470
330
1F
100
AcDbEntity
  8
2
  6
Continuous
 62
     2
100
AcDbLine
 10
139.761749267578
 20
-81.1415486827445
 30
0.0
 11
139.761749267578
 21
70.6415486827455
 31
0.0
  0
LINE
  5
471
330
1F
100
AcDbEntity
  8
2
  6
Continuous
 62
     2
100
AcDbLine
 10
103.0
 20
-81.1415486827445
 30
0.0
 11
140.761749267578
 21
-81.1415486827445
 31
0.0
  0
ARC
  5
476
330
1F
100
AcDbEntity
  8
1
  6
Continuous
 62
     3
100
AcDbCircle
 10
87.0795262140397
 20
-99.1415486827445
 30
0.0
 40
3.000000000000115
100
AcDbArc
 50
20.00000000000733
 51
90.0
  0
ARC
  5
477
330
1F
100
AcDbEntity
  8
1
  6
Continuous
 62
     3
100
AcDbCircle
 10
86.7156333832004
 20
-97.1415486827445
 30
0.0
 40
1.0
100
AcDbArc
 50
90.0
 51
119.5918457939501
  0
ARC
  5
478
330
1F
100
AcDbEntity
  8
1
  6
Continuous
 62
     3
100
AcDbCircle
 10
41.2843666167997
 20
-97.1415486827445
 30
0.0
 40
0.9999999999999897
100
AcDbArc
 50
60.40815420604952
 51
90.0
  0
ARC
  5
479
330
1F
100
AcDbEntity
  8
1
  6
Continuous
 62
     3
100
AcDbCircle
 10
40.9204737859603
 20
-99.1415486827445
 30
0.0
 40
3.0
100
AcDbArc
 50
90.0
 51
159.9999999999913
  0
ARC
  5
47A
330
1F
100
AcDbEntity
  8
1
  6
Continuous
 62
     3
100
AcDbCircle
 10
40.9204737859603
 20
-63.1415486827445
 30
0.0
 40
2.999999999999955
100
AcDbArc
 50
200.0000000000104
 51
270.0
  0
ARC
  5
47B
330
1F
100
AcDbEntity
  8
1
  6
Continuous
 62
     3
100
AcDbCircle
 10
41.2843666167986
 20
-65.1415486827445
 30
0.0
 40
1.0
100
AcDbArc
 50
270.0
 51
299.5918457939547
  0
ARC
  5
47C
330
1F
100
AcDbEntity
  8
1
  6
Continuous
 62
     3
100
AcDbCircle
 10
87.0795262140397
 20
-63.1415486827445
 30
0.0
 40
3.0
100
AcDbArc
 50
270.0
 51
339.9999999999902
  0
ARC
  5
47D
330
1F
100
AcDbEntity
  8
1
  6
Continuous
 62
     3
100
AcDbCircle
 10
86.7156333832014
 20
-65.1415486827445
 30
0.0
 40
0.9999999999999932
100
AcDbArc
 50
240.4081542060492
 51
270.0
  0
ARC
  5
47E
330
1F
100
AcDbEntity
  8
1
  6
Continuous
 62
     3
100
AcDbCircle
 10
40.9204737859602
 20
392.575353951767
 30
0.0
 40
3.000000000000115
100
AcDbArc
 50
200.0000000000189
 51
270.0
  0
ARC
  5
47F
330
1F
100
AcDbEntity
  8
1
  6
Continuous
 62
     3
100
AcDbCircle
 10
41.2843666167985
 20
390.575353951767
 30
0.0
 40
1.0
100
AcDbArc
 50
270.0
 51
299.5918457938908
  0
ARC
  5
480
330
1F
100
AcDbEntity
  8
1
  6
Continuous
 62
     3
100
AcDbCircle
 10
40.9204737859602
 20
356.575353951767
 30
0.0
 40
3.0
100
AcDbArc
 50
90.0
 51
159.9999999999985
  0
ARC
  5
481
330
1F
100
AcDbEntity
  8
1
  6
Continuous
 62
     3
100
AcDbCircle
 10
41.2843666167996
 20
358.575353951767
 30
0.0
 40
0.9999999999998039
100
AcDbArc
 50
60.40815420603693
 51
90.0
  0
ARC
  5
482
330
1F
100
AcDbEntity
  8
1
  6
Continuous
 62
     3
100
AcDbCircle
 10
86.7156333832002
 20
358.575353951767
 30
0.0
 40
1.0
100
AcDbArc
 50
90.0
 51
119.5918457939826
  0
ARC
  5
483
330
1F
100
AcDbEntity
  8
1
  6
Continuous
 62
     3
100
AcDbCircle
 10
87.0795262140397
 20
356.575353951767
 30
0.0
 40
2.999999999999885
100
AcDbArc
 50
20.00000000000083
 51
90.0
  0
ARC
  5
484
330
1F
100
AcDbEntity
  8
1
  6
Continuous
 62
     3
100
AcDbCircle
 10
86.7156333832013
 20
390.575353951767
 30
0.0
 40
1.000000000000592
100
AcDbArc
 50
240.4081542060695
 51
270.0
  0
ARC
  5
485
330
1F
100
AcDbEntity
  8
1
  6
Continuous
 62
     3
100
AcDbCircle
 10
87.0795262140397
 20
392.575353951767
 30
0.0
 40
3.0
100
AcDbArc
 50
270.0
 51
339.9999999999812
  0
ARC
  5
486
330
1F
100
AcDbEntity
  8
3
  6
Continuous
 62
     3
100
AcDbCircle
 10
51.57322549
 20
311.358451316278
 30
0.0
 40
2.500000000978048
100
AcDbArc
 50
90.0
 51
107.109993041615
  0
ARC
  5
487
330
1F
100
AcDbEntity
  8
3
  6
PHANTOM
 62
     6
100
AcDbCircle
 10
51.57322549
 20
301.358451316278
 30
0.0
 40
2.500000000978048
100
AcDbArc
 50
90.0
 51
107.109993041615
  0
ARC
  5
488
330
1F
100
AcDbEntity
  8
3
  6
PHANTOM
 62
     6
100
AcDbCircle
 10
76.42677451
 20
301.358451316277
 30
0.0
 40
2.500000000978472
100
AcDbArc
 50
72.89000695840257
 51
90.0
  0
ARC
  5
489
330
1F
100
AcDbEntity
  8
3
  6
Continuous
 62
     3
100
AcDbCircle
 10
64.0
 20
-57.1415486827445
 30
0.0
 40
44.99999999999962
100
AcDbArc
 50
240.4081542060501
 51
299.59184579395
  0
ARC
  5
48A
330
1F
100
AcDbEntity
  8
1
  6
Continuous
 62
     3
100
AcDbCircle
 10
64.0
 20
-105.141548682745
 30
0.0
 40
45.00000000000036
100
AcDbArc
 50
112.024312837042
 51
119.5918457939507
  0
ARC
  5
48B
330
1F
100
AcDbEntity
  8
1
  6
Continuous
 62
     3
100
AcDbCircle
 10
46.0
 20
-60.6443577601705
 30
0.0
 40
3.000000000000118
100
AcDbArc
 50
292.0243128370412
 51
0.0
  0
ARC
  5
48C
330
1F
100
AcDbEntity
  8
1
  6
Continuous
 62
     3
100
AcDbCircle
 10
82.0000000000001
 20
-60.6443577601705
 30
0.0
 40
3.000000000000099
100
AcDbArc
 50
180.0
 51
247.9756871629573
  0
ARC
  5
48D
330
1F
100
AcDbEntity
  8
1
  6
Continuous
 62
     3
100
AcDbCircle
 10
64.0
 20
-105.141548682745
 30
0.0
 40
45.0000000000006
100
AcDbArc
 50
60.40815420604923
 51
67.975687162958
  0
ARC
  5
48E
330
1F
100
AcDbEntity
  8
1
  6
Continuous
 62
     3
100
AcDbCircle
 10
-96.462715107997
 20
-81.1415486827445
 30
0.0
 40
21.0
100
AcDbArc
 50
180.0
 51
270.0
  0
ARC
  5
48F
330
1F
100
AcDbEntity
  8
1
  6
Continuous
 62
     3
100
AcDbCircle
 10
64.0
 20
350.575353951766
 30
0.0
 40
45.00000000000043
100
AcDbArc
 50
85.75100455582165
 51
90.0
  0
ARC
  5
490
330
1F
100
AcDbEntity
  8
1
  6
Continuous
 62
     3
100
AcDbCircle
 10
64.0
 20
398.575353951767
 30
0.0
 40
45.00000000000035
100
AcDbArc
 50
265.7510045558232
 51
270.0
  0
ARC
  5
491
330
1F
100
AcDbEntity
  8
1
  6
Continuous
 62
     3
100
AcDbCircle
 10
-96.462715107997
 20
-81.1415486827445
 30
0.0
 40
21.0000000000005
100
AcDbArc
 50
270.0
 51
0.0
  0
ARC
  5
492
330
1F
100
AcDbEntity
  8
1
  6
Continuous
 62
     3
100
AcDbCircle
 10
64.0
 20
350.575353951766
 30
0.0
 40
45.00000000000091
100
AcDbArc
 50
108.082232283466
 51
119.5918457939519
  0
ARC
  5
493
330
1F
100
AcDbEntity
  8
1
  6
Continuous
 62
     3
100
AcDbCircle
 10
64.0
 20
398.575353951767
 30
0.0
 40
45.00000000000016
100
AcDbArc
 50
288.0822322832253
 51
299.9264348666134
  0
ARC
  5
494
330
1F
100
AcDbEntity
  8
3
  6
PHANTOM
 62
     6
100
AcDbCircle
 10
-84.035940597997
 20
301.358451316277
 30
0.0
 40
2.500000000978472
100
AcDbArc
 50
72.89000695840257
 51
90.0
  0
ARC
  5
495
330
1F
100
AcDbEntity
  8
3
  6
PHANTOM
 62
     6
100
AcDbCircle
 10
-108.889489617997
 20
301.358451316278
 30
0.0
 40
2.500000000978048
100
AcDbArc
 50
90.0
 51
107.1099930580485
  0
ARC
  5
496
330
1F
100
AcDbEntity
  8
3
  6
Continuous
 62
     3
100
AcDbCircle
 10
-108.889489617997
 20
311.358451316278
 30
0.0
 40
2.500000000978048
100
AcDbArc
 50
90.0
 51
107.1099930580485
  0
ARC
  5
497
330
1F
100
AcDbEntity
  8
3
  6
Continuous
 62
     3
100
AcDbCircle
 10
-84.035940597997
 20
311.358451316277
 30
0.0
 40
2.500000000978472
100
AcDbArc
 50
72.89000695840257
 51
90.0
  0
ARC
  5
498
330
1F
100
AcDbEntity
  8
0
  6
Continuous
 62
     3
100
AcDbCircle
 10
64.0
 20
374.575353951767
 30
0.0
 40
23.49999999995351
100
AcDbArc
 50
297.1034576204783
 51
302.8965423797177
  0
ARC
  5
499
330
1F
100
AcDbEntity
  8
0
  6
Continuous
 62
     3
100
AcDbCircle
 10
48.5198026684
 20
373.792097560466
 30
0.0
 40
7.999999999971258
100
AcDbArc
 50
182.8965423791939
 51
246.0493290533403
  0
ARC
  5
49A
330
1F
100
AcDbEntity
  8
0
  6
Continuous
 62
     3
100
AcDbCircle
 10
71.0617787332
 20
360.777481611366
 30
0.0
 40
7.999999999995864
100
AcDbArc
 50
233.9506709466271
 51
297.1034576208892
  0
ARC
  5
49B
330
1F
100
AcDbEntity
  8
0
  6
Continuous
 62
     3
100
AcDbCircle
 10
55.5815814016
 20
387.589969900867
 30
0.0
 40
7.999999999972044
100
AcDbArc
 50
122.8965423796265
 51
186.0493290536101
  0
ARC
  5
49C
330
1F
100
AcDbEntity
  8
0
  6
Continuous
 62
     3
100
AcDbCircle
 10
84.3515969889
 20
386.325353951767
 30
0.0
 40
4.000000000008239
100
AcDbArc
 50
173.9506709464452
 51
246.0493290546572
  0
ARC
  5
49D
330
1F
100
AcDbEntity
  8
0
  6
Continuous
 62
     3
100
AcDbCircle
 10
64.0
 20
351.075353951767
 30
0.0
 40
3.999999999997128
100
AcDbArc
 50
53.95067094661876
 51
126.0493290533886
  0
ARC
  5
49E
330
1F
100
AcDbEntity
  8
0
  6
Continuous
 62
     3
100
AcDbCircle
 10
64.0
 20
374.575353951767
 30
0.0
 40
23.49999999993188
100
AcDbArc
 50
237.1034576202828
 51
242.8965423795192
  0
ARC
  5
49F
330
1F
100
AcDbEntity
  8
0
  6
Continuous
 62
     3
100
AcDbCircle
 10
43.6484030111
 20
362.825353951767
 30
0.0
 40
4.000000000008448
100
AcDbArc
 50
353.9506709464169
 51
66.04932905464764
  0
ARC
  5
4A0
330
1F
100
AcDbEntity
  8
0
  6
Continuous
 62
     3
100
AcDbCircle
 10
43.6484030111
 20
386.325353951767
 30
0.0
 40
4.000000000001251
100
AcDbArc
 50
293.9506709463915
 51
6.04932905363738
  0
ARC
  5
4A1
330
1F
100
AcDbEntity
  8
0
  6
Continuous
 62
     3
100
AcDbCircle
 10
71.0617787332
 20
388.373226292166
 30
0.0
 40
8.000000000054822
100
AcDbArc
 50
62.89654237910706
 51
126.0493290533717
  0
ARC
  5
4A2
330
1F
100
AcDbEntity
  8
0
  6
Continuous
 62
     3
100
AcDbCircle
 10
72.4184185984
 20
387.589969900867
 30
0.0
 40
7.999999999917359
100
AcDbArc
 50
353.9506709463487
 51
57.10345762037324
  0
ARC
  5
4A3
330
1F
100
AcDbEntity
  8
0
  6
Continuous
 62
     3
100
AcDbCircle
 10
79.4801973316
 20
375.358610343066
 30
0.0
 40
8.000000000029148
100
AcDbArc
 50
2.89654237991886
 51
66.0493290533413
  0
ARC
  5
4A4
330
1F
100
AcDbEntity
  8
0
  6
Continuous
 62
     3
100
AcDbCircle
 10
64.0
 20
374.575353951767
 30
0.0
 40
23.50000000002226
100
AcDbArc
 50
357.103457620314
 51
2.89654237968109
  0
ARC
  5
4A5
330
1F
100
AcDbEntity
  8
0
  6
Continuous
 62
     3
100
AcDbCircle
 10
79.4801973316
 20
373.792097560466
 30
0.0
 40
8.000000000029061
100
AcDbArc
 50
293.9506709466613
 51
357.1034576200811
  0
ARC
  5
4A6
330
1F
100
AcDbEntity
  8
0
  6
Continuous
 62
     3
100
AcDbCircle
 10
84.3515969889
 20
362.825353951767
 30
0.0
 40
3.9999999999744
100
AcDbArc
 50
113.9506709453492
 51
186.0493290535728
  0
ARC
  5
4A7
330
1F
100
AcDbEntity
  8
0
  6
Continuous
 62
     3
100
AcDbCircle
 10
72.4184185984
 20
361.560738002667
 30
0.0
 40
7.999999999938786
100
AcDbArc
 50
302.896542379627
 51
6.04932905364231
  0
ARC
  5
4A8
330
1F
100
AcDbEntity
  8
0
  6
Continuous
 62
     3
100
AcDbCircle
 10
56.9382212668
 20
360.777481611366
 30
0.0
 40
7.999999999974172
100
AcDbArc
 50
242.8965423791035
 51
306.0493290533692
  0
ARC
  5
4A9
330
1F
100
AcDbEntity
  8
0
  6
Continuous
 62
     3
100
AcDbCircle
 10
55.5815814016
 20
361.560738002667
 30
0.0
 40
7.999999999917143
100
AcDbArc
 50
173.9506709463628
 51
237.1034576203745
  0
ARC
  5
4AA
330
1F
100
AcDbEntity
  8
0
  6
Continuous
 62
     3
100
AcDbCircle
 10
48.5198026684
 20
375.358610343066
 30
0.0
 40
8.000000000004025
100
AcDbArc
 50
113.9506709461343
 51
177.1034576207989
  0
ARC
  5
4AB
330
1F
100
AcDbEntity
  8
0
  6
Continuous
 62
     3
100
AcDbCircle
 10
56.9382212668
 20
388.373226292166
 30
0.0
 40
7.999999999995864
100
AcDbArc
 50
53.95067094662715
 51
117.1034576203986
  0
ARC
  5
4AC
330
1F
100
AcDbEntity
  8
0
  6
Continuous
 62
     3
100
AcDbCircle
 10
64.0
 20
398.075353951767
 30
0.0
 40
3.999999999998736
100
AcDbArc
 50
233.9506709466355
 51
306.0493290533668
  0
ARC
  5
4AD
330
1F
100
AcDbEntity
  8
1
  6
Continuous
 62
     3
100
AcDbCircle
 10
64.0
 20
398.575353951767
 30
0.0
 40
45.0
100
AcDbArc
 50
270.0
 51
274.2489954440362
  0
ARC
  5
4AE
330
1F
100
AcDbEntity
  8
1
  6
Continuous
 62
     3
100
AcDbCircle
 10
64.0
 20
398.575353951767
 30
0.0
 40
44.99999999999985
100
AcDbArc
 50
240.4081542060503
 51
251.9177677166147
  0
ARC
  5
4AF
330
1F
100
AcDbEntity
  8
1
  6
Continuous
 62
     3
100
AcDbCircle
 10
64.0
 20
350.575353951766
 30
0.0
 40
45.0
100
AcDbArc
 50
90.0
 51
94.24899544416719
  0
ARC
  5
4B0
330
1F
100
AcDbEntity
  8
1
  6
Continuous
 62
     3
100
AcDbCircle
 10
64.0
 20
350.575353951766
 30
0.0
 40
45.00000000000039
100
AcDbArc
 50
60.40815420604924
 51
71.91776771661517
  0
ARC
  5
4B1
330
1F
100
AcDbEntity
  8
3
  6
Continuous
 62
     3
100
AcDbCircle
 10
76.42677451
 20
311.358451316277
 30
0.0
 40
2.500000000978472
100
AcDbArc
 50
72.89000695840257
 51
90.0
  0
LWPOLYLINE
  5
4B2
330
1F
100
AcDbEntity
  8
3
  6
Continuous
 62
     1
100
AcDbPolyline
 90
       20
 70
     0
 43
0.0
 10
85.0
 20
56.8584513172555
 10
81.6350584874566
 20
55.1692218635315
 10
78.5832363008374
 20
54.2258848239375
 10
77.0815339325448
 20
54.0037347671135
 10
75.607989154856
 20
53.9534151429495
 10
74.1627972197636
 20
54.0749364331615
 10
72.746827710708
 20
54.3682387400175
 10
69.6357166372898
 20
55.5754671014835
 10
65.2444744339092
 20
57.9881134665835
 10
62.1176182579452
 20
59.7585116173215
 10
59.8384407694926
 20
60.8772511624475
 10
57.8002530840368
 20
61.6421461116475
 10
55.9649603423672
 20
62.0554166958375
 10
54.4968654654982
 20
62.1504992029355
 10
52.989251720198
 20
62.0346458857535
 10
51.4430269351958
 20
61.7079422838755
 10
49.8583961907076
 20
61.1704362533035
 10
48.257718902359
 20
60.4339054412635
 10
46.6125398291514
 20
59.4892355416495
 10
43.0
 20
56.8584513172555
  0
LWPOLYLINE
  5
4B3
330
1F
100
AcDbEntity
  8
3
  6
Continuous
 62
     1
100
AcDbPolyline
 90
       20
 70
     0
 43
0.0
 10
85.0
 20
61.8584513172555
 10
81.6350584874566
 20
60.1692218635315
 10
78.5832363008374
 20
59.2258848239375
 10
77.0815339325448
 20
59.0037347671135
 10
75.607989154856
 20
58.9534151429495
 10
74.1627972197636
 20
59.0749364331615
 10
72.746827710708
 20
59.3682387400175
 10
69.6357166372898
 20
60.5754671014835
 10
65.2444744339092
 20
62.9881134665835
 10
62.1176182579452
 20
64.7585116173215
 10
59.8384407694926
 20
65.8772511624475
 10
57.8002530840368
 20
66.6421461116475
 10
55.9649603423672
 20
67.0554166958375
 10
54.4968654654982
 20
67.1504992029355
 10
52.989251720198
 20
67.0346458857535
 10
51.4430269351958
 20
66.7079422838755
 10
49.8583961907076
 20
66.1704362533035
 10
48.257718902359
 20
65.4339054412635
 10
46.6125398291514
 20
64.4892355416495
 10
43.0
 20
61.8584513172555
  0
LWPOLYLINE
  5
4B4
330
1F
100
AcDbEntity
  8
3
  6
Continuous
 62
     3
100
AcDbPolyline
 90
       17
 70
     0
 43
0.0
 10
46.3137888974726
 20
311.914059183915
 10
45.9392306880348
 20
311.710001121138
 10
45.5717489008162
 20
311.498742038981
 10
45.2116654401768
 20
311.279954366346
 10
44.8593444938564
 20
311.053267499451
 10
44.5151998227754
 20
310.818260395198
 10
44.1797038085132
 20
310.574452356046
 10
43.8533988426696
 20
310.321291437454
 10
43.5369118378852
 20
310.058139687944
 10
43.2309729654198
 20
309.784254081315
 10
42.9364401991732
 20
309.498761535747
 10
42.6543321096248
 20
309.20062554836
 10
42.3858724890952
 20
308.888600777475
 10
42.1325525538036
 20
308.561169753432
 10
41.8962200292902
 20
308.216452210751
 10
41.6792108519548
 20
307.852071087892
 10
41.4845515587964
 20
307.464946561196
  0
LWPOLYLINE
  5
4B5
330
1F
100
AcDbEntity
  8
3
  6
Continuous
 62
     3
100
AcDbPolyline
 90
        5
 70
     0
 43
0.0
 10
41.4845515587964
 20
307.464946561196
 10
41.3162852151354
 20
307.050964371683
 10
41.1800282511908
 20
306.604409199313
 10
41.0839971377018
 20
306.116919905108
 10
41.0411070152066
 20
305.575353947409
  0
LWPOLYLINE
  5
4B6
330
1F
100
AcDbEntity
  8
3
  6
Continuous
 62
     3
100
AcDbPolyline
 90
        4
 70
     0
 43
0.0
 10
47.4772206852816
 20
312.48577618875
 10
47.0830240746858
 20
312.301702307491
 10
46.6951380128096
 20
312.111206767752
 10
46.3137888974726
 20
311.914059183915
  0
LWPOLYLINE
  5
4B7
330
1F
100
AcDbEntity
  8
3
  6
Continuous
 62
     3
100
AcDbPolyline
 90
        6
 70
     0
 43
0.0
 10
49.5364924694694
 20
313.316302322877
 10
49.1133783678172
 20
313.161655095994
 10
48.6957574378044
 20
313.001417976812
 10
48.2837584447308
 20
312.835459931811
 10
47.8775256936164
 20
312.66363411597
 10
47.4772206852816
 20
312.48577618875
  0
LWPOLYLINE
  5
4B8
330
1F
100
AcDbEntity
  8
3
  6
Continuous
 62
     3
100
AcDbPolyline
 90
        3
 70
     0
 43
0.0
 10
50.3987545370726
 20
313.609280596424
 10
49.9649850973212
 20
313.46547631966
 10
49.5364924694694
 20
313.316302322877
  0
LWPOLYLINE
  5
4B9
330
1F
100
AcDbEntity
  8
3
  6
Continuous
 62
     3
100
AcDbPolyline
 90
       32
 70
     0
 43
0.0
 10
77.1622920635174
 20
313.747805607648
 10
77.6012454603878
 20
313.609280596424
 10
78.035014900139
 20
313.46547631966
 10
78.4635075305306
 20
313.316302322877
 10
78.8866216321828
 20
313.161655095994
 10
79.3042425621956
 20
313.001417976812
 10
79.7162415527296
 20
312.835459931811
 10
80.1224743038438
 20
312.66363411597
 10
80.5227793147188
 20
312.48577618875
 10
80.9169759227742
 20
312.301702307491
 10
81.3048619846506
 20
312.111206767752
 10
81.6862111025274
 20
311.914059183915
 10
82.0607693119652
 20
311.710001121138
 10
82.4282510991838
 20
311.498742038981
 10
82.7883345598232
 20
311.279954366346
 10
83.1406555036036
 20
311.053267499451
 10
83.484800174685
 20
310.818260395198
 10
83.8202961914872
 20
310.574452356046
 10
84.1466011573304
 20
310.321291437454
 10
84.4630881595746
 20
310.058139687944
 10
84.7690270345802
 20
309.784254081315
 10
85.063559798287
 20
309.498761535747
 10
85.3456678878352
 20
309.20062554836
 10
85.6141275109052
 20
308.888600777475
 10
85.8674474461964
 20
308.561169753432
 10
86.1037799707098
 20
308.216452210751
 10
86.3207891455052
 20
307.852071087892
 10
86.5154484412036
 20
307.464946561196
 10
86.6837147848646
 20
307.050964371683
 10
86.8199717462692
 20
306.604409199313
 10
86.9160028622982
 20
306.116919905108
 10
86.9588929847932
 20
305.575353947409
  0
LWPOLYLINE
  5
4BA
330
1F
100
AcDbEntity
  8
3
  6
PHANTOM
 62
     6
100
AcDbPolyline
 90
       17
 70
     0
 43
0.0
 10
46.3137888974726
 20
301.914059183915
 10
45.9392306880348
 20
301.710001121138
 10
45.5717489008162
 20
301.498742038981
 10
45.2116654401768
 20
301.279954366346
 10
44.8593444938564
 20
301.053267499451
 10
44.5151998227754
 20
300.818260395198
 10
44.1797038085132
 20
300.574452356046
 10
43.8533988426696
 20
300.321291437454
 10
43.5369118378852
 20
300.058139687944
 10
43.2309729654198
 20
299.784254081315
 10
42.9364401991732
 20
299.498761535747
 10
42.6543321096248
 20
299.20062554836
 10
42.3858724890952
 20
298.888600777475
 10
42.1325525538036
 20
298.561169753432
 10
41.8962200292902
 20
298.216452210751
 10
41.6792108519548
 20
297.852071087892
 10
41.4845515587964
 20
297.464946561196
  0
LWPOLYLINE
  5
4BB
330
1F
100
AcDbEntity
  8
3
  6
DOT_CENTER
 62
     6
100
AcDbPolyline
 90
        6
 70
     0
 43
0.0
 10
49.5364924694694
 20
303.316302322877
 10
49.1133783678172
 20
303.161655095994
 10
48.6957574378044
 20
303.001417976812
 10
48.2837584447308
 20
302.835459931811
 10
47.8775256936164
 20
302.66363411597
 10
47.4772206852816
 20
302.48577618875
  0
LWPOLYLINE
  5
4BC
330
1F
100
AcDbEntity
  8
3
  6
PHANTOM
 62
     6
100
AcDbPolyline
 90
        4
 70
     0
 43
0.0
 10
47.4772206852816
 20
302.48577618875
 10
47.0830240746858
 20
302.301702307491
 10
46.6951380128096
 20
302.111206767752
 10
46.3137888974726
 20
301.914059183915
  0
LWPOLYLINE
  5
4BD
330
1F
100
AcDbEntity
  8
3
  6
DOT_CENTER
 62
     6
100
AcDbPolyline
 90
        3
 70
     0
 43
0.0
 10
50.3987545370726
 20
303.609280596424
 10
49.9649850973212
 20
303.46547631966
 10
49.5364924694694
 20
303.316302322877
  0
LWPOLYLINE
  5
4BE
330
1F
100
AcDbEntity
  8
3
  6
DOT_CENTER
 62
     6
100
AcDbPolyline
 90
       32
 70
     0
 43
0.0
 10
77.1622920635174
 20
303.747805607648
 10
77.6012454603878
 20
303.609280596424
 10
78.035014900139
 20
303.46547631966
 10
78.4635075305306
 20
303.316302322877
 10
78.8866216321828
 20
303.161655095994
 10
79.3042425621956
 20
303.001417976812
 10
79.7162415527296
 20
302.835459931811
 10
80.1224743038438
 20
302.66363411597
 10
80.5227793147188
 20
302.48577618875
 10
80.9169759227742
 20
302.301702307491
 10
81.3048619846506
 20
302.111206767752
 10
81.6862111025274
 20
301.914059183915
 10
82.0607693119652
 20
301.710001121138
 10
82.4282510991838
 20
301.498742038981
 10
82.7883345598232
 20
301.279954366346
 10
83.1406555036036
 20
301.053267499451
 10
83.484800174685
 20
300.818260395198
 10
83.8202961914872
 20
300.574452356046
 10
84.1466011573304
 20
300.321291437454
 10
84.4630881595746
 20
300.058139687944
 10
84.7690270345802
 20
299.784254081315
 10
85.063559798287
 20
299.498761535747
 10
85.3456678878352
 20
299.20062554836
 10
85.6141275109052
 20
298.888600777475
 10
85.8674474461964
 20
298.561169753432
 10
86.1037799707098
 20
298.216452210751
 10
86.3207891455052
 20
297.852071087892
 10
86.5154484412036
 20
297.464946561196
 10
86.6837147848646
 20
297.050964371683
 10
86.8199717462692
 20
296.604409199313
 10
86.9160028622982
 20
296.116919905108
 10
86.9588929847932
 20
295.575353947409
  0
LWPOLYLINE
  5
4BF
330
1F
100
AcDbEntity
  8
3
  6
PHANTOM
 62
     6
100
AcDbPolyline
 90
        5
 70
     0
 43
0.0
 10
41.4845515587964
 20
297.464946561196
 10
41.3162852151354
 20
297.050964371683
 10
41.1800282511908
 20
296.604409199313
 10
41.0839971377018
 20
296.116919905108
 10
41.0411070152066
 20
295.575353947409
  0
LWPOLYLINE
  5
4C0
330
1F
100
AcDbEntity
  8
3
  6
PHANTOM
 62
     6
100
AcDbPolyline
 90
        5
 70
     0
 43
0.0
 10
-118.978163549201
 20
297.464946561196
 10
-119.146429892862
 20
297.050964371683
 10
-119.282686856806
 20
296.604409199313
 10
-119.378717970295
 20
296.116919905108
 10
-119.42160809279
 20
295.575353947409
  0
LWPOLYLINE
  5
4C1
330
1F
100
AcDbEntity
  8
3
  6
DOT_CENTER
 62
     6
100
AcDbPolyline
 90
       32
 70
     0
 43
0.0
 10
-83.3004230444796
 20
303.747805607648
 10
-82.8614696476092
 20
303.609280596424
 10
-82.427700207858
 20
303.46547631966
 10
-81.9992075774664
 20
303.316302322877
 10
-81.5760934758142
 20
303.161655095994
 10
-81.1584725458014
 20
303.001417976812
 10
-80.7464735552674
 20
302.835459931811
 10
-80.3402408041532
 20
302.66363411597
 10
-79.9399357932782
 20
302.48577618875
 10
-79.5457391852228
 20
302.301702307491
 10
-79.1578531233464
 20
302.111206767752
 10
-78.7765040054696
 20
301.914059183915
 10
-78.4019457960318
 20
301.710001121138
 10
-78.0344640088132
 20
301.498742038981
 10
-77.6743805481738
 20
301.279954366346
 10
-77.3220596043934
 20
301.053267499451
 10
-76.977914933312
 20
300.818260395198
 10
-76.6424189165098
 20
300.574452356046
 10
-76.3161139506666
 20
300.321291437454
 10
-75.9996269484224
 20
300.058139687944
 10
-75.6936880734168
 20
299.784254081315
 10
-75.39915530971
 20
299.498761535747
 10
-75.1170472201618
 20
299.20062554836
 10
-74.8485875970918
 20
298.888600777475
 10
-74.5952676618006
 20
298.561169753432
 10
-74.3589351372872
 20
298.216452210751
 10
-74.1419259624918
 20
297.852071087892
 10
-73.9472666667934
 20
297.464946561196
 10
-73.7790003231324
 20
297.050964371683
 10
-73.6427433617278
 20
296.604409199313
 10
-73.5467122456988
 20
296.116919905108
 10
-73.5038221232038
 20
295.575353947409
  0
LWPOLYLINE
  5
4C2
330
1F
100
AcDbEntity
  8
3
  6
DOT_CENTER
 62
     6
100
AcDbPolyline
 90
        3
 70
     0
 43
0.0
 10
-110.063960570924
 20
303.609280596424
 10
-110.497730010676
 20
303.46547631966
 10
-110.926222638528
 20
303.316302322877
  0
LWPOLYLINE
  5
4C3
330
1F
100
AcDbEntity
  8
3
  6
PHANTOM
 62
     6
100
AcDbPolyline
 90
        4
 70
     0
 43
0.0
 10
-112.985494422715
 20
302.48577618875
 10
-113.379691033311
 20
302.301702307491
 10
-113.767577095187
 20
302.111206767752
 10
-114.148926210524
 20
301.914059183915
  0
LWPOLYLINE
  5
4C4
330
1F
100
AcDbEntity
  8
3
  6
DOT_CENTER
 62
     6
100
AcDbPolyline
 90
        6
 70
     0
 43
0.0
 10
-110.926222638528
 20
303.316302322877
 10
-111.34933674018
 20
303.161655095994
 10
-111.766957670193
 20
303.001417976812
 10
-112.178956663266
 20
302.835459931811
 10
-112.585189414381
 20
302.66363411597
 10
-112.985494422715
 20
302.48577618875
  0
LWPOLYLINE
  5
4C5
330
1F
100
AcDbEntity
  8
3
  6
PHANTOM
 62
     6
100
AcDbPolyline
 90
       17
 70
     0
 43
0.0
 10
-114.148926210524
 20
301.914059183915
 10
-114.523484419962
 20
301.710001121138
 10
-114.890966207181
 20
301.498742038981
 10
-115.25104966782
 20
301.279954366346
 10
-115.603370614141
 20
301.053267499451
 10
-115.947515285222
 20
300.818260395198
 10
-116.283011299484
 20
300.574452356046
 10
-116.609316265327
 20
300.321291437454
 10
-116.925803270112
 20
300.058139687944
 10
-117.231742142577
 20
299.784254081315
 10
-117.526274908824
 20
299.498761535747
 10
-117.808382998372
 20
299.20062554836
 10
-118.076842618902
 20
298.888600777475
 10
-118.330162554193
 20
298.561169753432
 10
-118.566495078707
 20
298.216452210751
 10
-118.783504256042
 20
297.852071087892
 10
-118.978163549201
 20
297.464946561196
  0
LWPOLYLINE
  5
4C6
330
1F
100
AcDbEntity
  8
3
  6
Continuous
 62
     3
100
AcDbPolyline
 90
       32
 70
     0
 43
0.0
 10
-83.3004230444796
 20
313.747805607648
 10
-82.8614696476092
 20
313.609280596424
 10
-82.427700207858
 20
313.46547631966
 10
-81.9992075774664
 20
313.316302322877
 10
-81.5760934758142
 20
313.161655095994
 10
-81.1584725458014
 20
313.001417976812
 10
-80.7464735552674
 20
312.835459931811
 10
-80.3402408041532
 20
312.66363411597
 10
-79.9399357932782
 20
312.48577618875
 10
-79.5457391852228
 20
312.301702307491
 10
-79.1578531233464
 20
312.111206767752
 10
-78.7765040054696
 20
311.914059183915
 10
-78.4019457960318
 20
311.710001121138
 10
-78.0344640088132
 20
311.498742038981
 10
-77.6743805481738
 20
311.279954366346
 10
-77.3220596043934
 20
311.053267499451
 10
-76.977914933312
 20
310.818260395198
 10
-76.6424189165098
 20
310.574452356046
 10
-76.3161139506666
 20
310.321291437454
 10
-75.9996269484224
 20
310.058139687944
 10
-75.6936880734168
 20
309.784254081315
 10
-75.39915530971
 20
309.498761535747
 10
-75.1170472201618
 20
309.20062554836
 10
-74.8485875970918
 20
308.888600777475
 10
-74.5952676618006
 20
308.561169753432
 10
-74.3589351372872
 20
308.216452210751
 10
-74.1419259624918
 20
307.852071087892
 10
-73.9472666667934
 20
307.464946561196
 10
-73.7790003231324
 20
307.050964371683
 10
-73.6427433617278
 20
306.604409199313
 10
-73.5467122456988
 20
306.116919905108
 10
-73.5038221232038
 20
305.575353947409
  0
LWPOLYLINE
  5
4C7
330
1F
100
AcDbEntity
  8
3
  6
Continuous
 62
     3
100
AcDbPolyline
 90
        3
 70
     0
 43
0.0
 10
-110.063960570924
 20
313.609280596424
 10
-110.497730010676
 20
313.46547631966
 10
-110.926222638528
 20
313.316302322877
  0
LWPOLYLINE
  5
4C8
330
1F
100
AcDbEntity
  8
3
  6
Continuous
 62
     3
100
AcDbPolyline
 90
        6
 70
     0
 43
0.0
 10
-110.926222638528
 20
313.316302322877
 10
-111.34933674018
 20
313.161655095994
 10
-111.766957670193
 20
313.001417976812
 10
-112.178956663266
 20
312.835459931811
 10
-112.585189414381
 20
312.66363411597
 10
-112.985494422715
 20
312.48577618875
  0
LWPOLYLINE
  5
4C9
330
1F
100
AcDbEntity
  8
3
  6
Continuous
 62
     3
100
AcDbPolyline
 90
        4
 70
     0
 43
0.0
 10
-112.985494422715
 20
312.48577618875
 10
-113.379691033311
 20
312.301702307491
 10
-113.767577095187
 20
312.111206767752
 10
-114.148926210524
 20
311.914059183915
  0
LWPOLYLINE
  5
4CA
330
1F
100
AcDbEntity
  8
3
  6
Continuous
 62
     3
100
AcDbPolyline
 90
        5
 70
     0
 43
0.0
 10
-118.978163549201
 20
307.464946561196
 10
-119.146429892862
 20
307.050964371683
 10
-119.282686856806
 20
306.604409199313
 10
-119.378717970295
 20
306.116919905108
 10
-119.42160809279
 20
305.575353947409
  0
LWPOLYLINE
  5
4CB
330
1F
100
AcDbEntity
  8
3
  6
Continuous
 62
     3
100
AcDbPolyline
 90
       17
 70
     0
 43
0.0
 10
-114.148926210524
 20
311.914059183915
 10
-114.523484419962
 20
311.710001121138
 10
-114.890966207181
 20
311.498742038981
 10
-115.25104966782
 20
311.279954366346
 10
-115.603370614141
 20
311.053267499451
 10
-115.947515285222
 20
310.818260395198
 10
-116.283011299484
 20
310.574452356046
 10
-116.609316265327
 20
310.321291437454
 10
-116.925803270112
 20
310.058139687944
 10
-117.231742142577
 20
309.784254081315
 10
-117.526274908824
 20
309.498761535747
 10
-117.808382998372
 20
309.20062554836
 10
-118.076842618902
 20
308.888600777475
 10
-118.330162554193
 20
308.561169753432
 10
-118.566495078707
 20
308.216452210751
 10
-118.783504256042
 20
307.852071087892
 10
-118.978163549201
 20
307.464946561196
  0
LWPOLYLINE
  5
4CC
330
1F
100
AcDbEntity
  8
3
  6
Continuous
 62
     1
100
AcDbPolyline
 90
       20
 70
     0
 43
0.0
 10
-75.462715107997
 20
61.8584513172555
 10
-78.8276566205404
 20
60.1692218635315
 10
-81.8794788071596
 20
59.2258848239375
 10
-83.3811811754522
 20
59.0037347671135
 10
-84.854725953141
 20
58.9534151429495
 10
-86.2999178882334
 20
59.0749364331615
 10
-87.715887397289
 20
59.3682387400175
 10
-90.8269984707072
 20
60.5754671014835
 10
-95.2182406740878
 20
62.9881134665835
 10
-98.3450968500518
 20
64.7585116173215
 10
-100.624274338504
 20
65.8772511624475
 10
-102.66246202396
 20
66.6421461116475
 10
-104.49775476563
 20
67.0554166958375
 10
-105.965849642499
 20
67.1504992029355
 10
-107.473463387799
 20
67.0346458857535
 10
-109.019688172801
 20
66.7079422838755
 10
-110.604318917289
 20
66.1704362533035
 10
-112.204996205638
 20
65.4339054412635
 10
-113.850175278846
 20
64.4892355416495
 10
-117.462715107997
 20
61.8584513172555
  0
LWPOLYLINE
  5
4CD
330
1F
100
AcDbEntity
  8
3
  6
Continuous
 62
     1
100
AcDbPolyline
 90
       20
 70
     0
 43
0.0
 10
-75.462715107997
 20
56.8584513172555
 10
-78.8276566205404
 20
55.1692218635315
 10
-81.8794788071596
 20
54.2258848239375
 10
-83.3811811754522
 20
54.0037347671135
 10
-84.854725953141
 20
53.9534151429495
 10
-86.2999178882334
 20
54.0749364331615
 10
-87.715887397289
 20
54.3682387400175
 10
-90.8269984707072
 20
55.5754671014835
 10
-95.2182406740878
 20
57.9881134665835
 10
-98.3450968500518
 20
59.7585116173215
 10
-100.624274338504
 20
60.8772511624475
 10
-102.66246202396
 20
61.6421461116475
 10
-104.49775476563
 20
62.0554166958375
 10
-105.965849642499
 20
62.1504992029355
 10
-107.473463387799
 20
62.0346458857535
 10
-109.019688172801
 20
61.7079422838755
 10
-110.604318917289
 20
61.1704362533035
 10
-112.204996205638
 20
60.4339054412635
 10
-113.850175278846
 20
59.4892355416495
 10
-117.462715107997
 20
56.8584513172555
  0
LWPOLYLINE
  5
4CE
330
1F
100
AcDbEntity
  8
1
  6
Continuous
 62
     3
100
AcDbPolyline
 90
        3
 70
     0
 43
0.0
 10
-96.462715107997
 20
-93.2000486827445
 42
1.0
 10
-96.462715107997
 20
-69.0830486827445
 42
1.0
 10
-96.462715107997
 20
-93.2000486827445
  0
LWPOLYLINE
  5
4CF
330
1F
100
AcDbEntity
  8
1
  6
Continuous
 62
     3
100
AcDbPolyline
 90
        3
 70
     0
 43
0.0
 10
-96.462715107997
 20
-67.9210486827445
 42
1.0
 10
-96.462715107997
 20
-94.3620486827445
 42
1.0
 10
-96.462715107997
 20
-67.9210486827445
  0
LWPOLYLINE
  5
4D0
330
1F
100
AcDbEntity
  8
2
  6
Continuous
 62
     2
100
AcDbPolyline
 90
        3
 70
     0
 43
0.0
 10
138.511749267578
 20
308.858450265244
 10
139.761749267578
 20
313.858450265244
 10
141.011749267578
 20
308.858450265244
  0
LWPOLYLINE
  5
4D1
330
1F
100
AcDbEntity
  8
2
  6
Continuous
 62
     2
100
AcDbPolyline
 90
        3
 70
     0
 43
0.0
 10
129.261749267578
 20
110.891548682745
 10
136.261749267578
 20
110.891548682745
 10
136.261749267578
 20
114.391548682745
  0
LWPOLYLINE
  5
4D2
330
1F
100
AcDbEntity
  8
2
  6
Continuous
 62
     2
100
AcDbPolyline
 90
        3
 70
     0
 43
0.0
 10
141.011749267578
 20
-76.1415486827445
 10
139.761749267578
 20
-81.1415486827445
 10
138.511749267578
 20
-76.1415486827445
  0
LEADER
  5
4D3
330
1F
100
AcDbEntity
  8
1
  6
Continuous
 62
     4
100
AcDbLeader
  3
Standard
 71
     0
 76
     3
 10
24.0
 20
-81.1415486827445
 30
0.0
 10
3.10403609534731
 20
-103.716106915056
 30
0.0
 10
-32.3291682556185
 20
-103.716106915056
 30
0.0
  0
LEADER
  5
4D4
330
1F
100
AcDbEntity
  8
1
  6
Continuous
 62
     4
100
AcDbLeader
  3
Standard
 71
     0
 76
     3
 10
104.0
 20
-81.1415486827445
 30
0.0
 10
127.73051016066
 20
-103.716106915056
 30
0.0
 10
164.590577448742
 20
-103.716106915056
 30
0.0
  0
ENDSEC
  0
SECTION
  2
OBJECTS
  0
DICTIONARY
  5
C
330
0
100
AcDbDictionary
281
     1
  3
ACAD_GROUP
350
D
  3
ACAD_LAYOUT
350
1A
  3
ACAD_MATERIAL
350
3B
  3
ACAD_MLEADERSTYLE
350
4D7
  3
ACAD_MLINESTYLE
350
17
  3
ACAD_PLOTSETTINGS
350
19
  3
ACAD_PLOTSTYLENAME
350
E
  3
ACAD_VISUALSTYLE
350
2A
  3
AcDbVariableDictionary
350
4D5
  0
DICTIONARY
  5
D
102
{ACAD_REACTORS
330
C
102
}
330
C
100
AcDbDictionary
281
     1
  0
DICTIONARY
  5
1A
102
{ACAD_REACTORS
330
C
102
}
330
C
100
AcDbDictionary
281
     1
  3
Layout1
350
1E
  3
Layout2
350
26
  3
Model
350
22
  0
DICTIONARY
  5
3B
102
{ACAD_REACTORS
330
C
102
}
330
C
100
AcDbDictionary
281
     1
  3
ByBlock
350
3D
  3
ByLayer
350
3C
  3
Global
350
3E
  0
DICTIONARY
  5
4D7
102
{ACAD_REACTORS
330
C
102
}
330
C
100
AcDbDictionary
281
     1
  0
DICTIONARY
  5
17
102
{ACAD_REACTORS
330
C
102
}
330
C
100
AcDbDictionary
281
     1
  3
Standard
350
18
  0
DICTIONARY
  5
19
102
{ACAD_REACTORS
330
C
102
}
330
C
100
AcDbDictionary
281
     1
  0
ACDBDICTIONARYWDFLT
  5
E
102
{ACAD_REACTORS
330
C
102
}
330
C
100
AcDbDictionary
281
     1
  3
Normal
350
F
100
AcDbDictionaryWithDefault
340
F
  0
DICTIONARY
  5
2A
102
{ACAD_REACTORS
330
C
102
}
330
C
100
AcDbDictionary
281
     1
  3
2dWireframe
350
2F
  3
3D Hidden
350
31
  3
3dWireframe
350
30
  3
Basic
350
32
  3
Brighten
350
36
  3
ColorChange
350
3A
  3
Conceptual
350
34
  3
Dim
350
35
  3
Facepattern
350
39
  3
Flat
350
2B
  3
FlatWithEdges
350
2C
  3
Gouraud
350
2D
  3
GouraudWithEdges
350
2E
  3
Linepattern
350
38
  3
Realistic
350
33
  3
Thicken
350
37
  0
DICTIONARY
  5
4D5
102
{ACAD_REACTORS
330
C
102
}
330
C
100
AcDbDictionary
281
     1
  3
DIMASSOC
350
4D8
  3
HIDETEXT
350
4D9
  0
LAYOUT
  5
1E
102
{ACAD_REACTORS
330
1A
102
}
330
1A
100
AcDbPlotSettings
  1

  2
none_device
  4

  6

 40
0.0
 41
0.0
 42
0.0
 43
0.0
 44
0.0
 45
0.0
 46
0.0
 47
0.0
 48
0.0
 49
0.0
140
0.0
141
0.0
142
1.0
143
1.0
 70
   688
 72
     0
 73
     0
 74
     5
  7

 75
    16
147
1.0
148
0.0
149
0.0
100
AcDbLayout
  1
Layout1
 70
     1
 71
     1
 10
0.0
 20
0.0
 11
12.0
 21
9.0
 12
0.0
 22
0.0
 32
0.0
 14
1.00000000000000E+20
 24
1.00000000000000E+20
 34
1.00000000000000E+20
 15
-1.00000000000000E+20
 25
-1.00000000000000E+20
 35
-1.00000000000000E+20
146
0.0
 13
0.0
 23
0.0
 33
0.0
 16
1.0
 26
0.0
 36
0.0
 17
0.0
 27
1.0
 37
0.0
 76
     0
330
1B
  0
LAYOUT
  5
26
102
{ACAD_REACTORS
330
1A
102
}
330
1A
100
AcDbPlotSettings
  1

  2
none_device
  4

  6

 40
0.0
 41
0.0
 42
0.0
 43
0.0
 44
0.0
 45
0.0
 46
0.0
 47
0.0
 48
0.0
 49
0.0
140
0.0
141
0.0
142
1.0
143
1.0
 70
   688
 72
     0
 73
     0
 74
     5
  7

 75
    16
147
1.0
148
0.0
149
0.0
100
AcDbLayout
  1
Layout2
 70
     1
 71
     2
 10
0.0
 20
0.0
 11
0.0
 21
0.0
 12
0.0
 22
0.0
 32
0.0
 14
0.0
 24
0.0
 34
0.0
 15
0.0
 25
0.0
 35
0.0
146
0.0
 13
0.0
 23
0.0
 33
0.0
 16
1.0
 26
0.0
 36
0.0
 17
0.0
 27
1.0
 37
0.0
 76
     0
330
23
  0
LAYOUT
  5
22
102
{ACAD_REACTORS
330
1A
102
}
330
1A
100
AcDbPlotSettings
  1

  2
none_device
  4

  6

 40
0.0
 41
0.0
 42
0.0
 43
0.0
 44
0.0
 45
0.0
 46
0.0
 47
0.0
 48
0.0
 49
0.0
140
0.0
141
0.0
142
1.0
143
1.0
 70
  1712
 72
     0
 73
     0
 74
     0
  7

 75
     0
147
1.0
148
0.0
149
0.0
100
AcDbLayout
  1
Model
 70
     1
 71
     0
 10
0.0
 20
0.0
 11
12.0
 21
9.0
 12
0.0
 22
0.0
 32
0.0
 14
-120.462715107997
 24
-128.014394416247
 34
0.0
 15
228.468844875981
 25
398.575353951767
 35
0.0
146
0.0
 13
0.0
 23
0.0
 33
0.0
 16
1.0
 26
0.0
 36
0.0
 17
0.0
 27
1.0
 37
0.0
 76
     0
330
1F
331
29
  0
MATERIAL
  5
3D
102
{ACAD_REACTORS
330
3B
102
}
102
{ACAD_XDICTIONARY
360
4FC
102
}
330
3B
100
AcDbMaterial
  1
ByBlock
  0
MATERIAL
  5
3C
102
{ACAD_REACTORS
330
3B
102
}
102
{ACAD_XDICTIONARY
360
4FA
102
}
330
3B
100
AcDbMaterial
  1
ByLayer
  0
MATERIAL
  5
3E
102
{ACAD_REACTORS
330
3B
102
}
102
{ACAD_XDICTIONARY
360
4FE
102
}
330
3B
100
AcDbMaterial
  1
Global
  0
MLINESTYLE
  5
18
102
{ACAD_REACTORS
330
17
102
}
330
17
100
AcDbMlineStyle
  2
Standard
 70
     0
  3

 62
   256
 51
90.0
 52
90.0
 71
     2
 49
0.5
 62
   256
  6
BYLAYER
 49
-0.5
 62
   256
  6
BYLAYER
  0
ACDBPLACEHOLDER
  5
F
102
{ACAD_REACTORS
330
E
102
}
330
E
  0
VISUALSTYLE
  5
2F
102
{ACAD_REACTORS
330
2A
102
}
102
{ACAD_XDICTIONARY
360
4E2
102
}
330
2A
100
AcDbVisualStyle
  2
2dWireframe
 70
     4
 71
     0
 72
     2
 73
     0
 90
        0
 40
-0.6
 41
-30.0
 62
     5
 63
     7
 74
     1
 91
        4
 64
     7
 65
   257
 75
     1
175
     1
 42
1.0
 92
        0
 66
   257
 43
1.0
 76
     1
 77
     6
 78
     2
 67
     7
 79
     5
170
     0
171
     0
290
     0
174
     0
 93
        1
 44
0.0
173
     0
291
     0
 45
0.0
1001
ACAD
1000
AcDbSavedByObjectVersion
1070
     0
  0
VISUALSTYLE
  5
31
102
{ACAD_REACTORS
330
2A
102
}
102
{ACAD_XDICTIONARY
360
4E6
102
}
330
2A
100
AcDbVisualStyle
  2
3D Hidden
 70
     6
 71
     1
 72
     2
 73
     2
 90
        0
 40
-0.6
 41
-30.0
 62
     5
 63
     7
 74
     2
 91
        2
 64
     7
 65
   257
 75
     2
175
     1
 42
40.0
 92
        0
 66
   257
 43
1.0
 76
     1
 77
     6
 78
     2
 67
     7
 79
     3
170
     0
171
     0
290
     0
174
     0
 93
        1
 44
0.0
173
     0
291
     0
 45
0.0
1001
ACAD
1000
AcDbSavedByObjectVersion
1070
     0
  0
VISUALSTYLE
  5
30
102
{ACAD_REACTORS
330
2A
102
}
102
{ACAD_XDICTIONARY
360
4E4
102
}
330
2A
100
AcDbVisualStyle
  2
3dWireframe
 70
     5
 71
     0
 72
     2
 73
     0
 90
        0
 40
-0.6
 41
-30.0
 62
     5
 63
     7
 74
     1
 91
        4
 64
     7
 65
   257
 75
     1
175
     1
 42
1.0
 92
        0
 66
   257
 43
1.0
 76
     1
 77
     6
 78
     2
 67
     7
 79
     5
170
     0
171
     0
290
     0
174
     0
 93
        1
 44
0.0
173
     0
291
     0
 45
0.0
1001
ACAD
1000
AcDbSavedByObjectVersion
1070
     0
  0
VISUALSTYLE
  5
32
102
{ACAD_REACTORS
330
2A
102
}
102
{ACAD_XDICTIONARY
360
4E8
102
}
330
2A
100
AcDbVisualStyle
  2
Basic
 70
     7
 71
     1
 72
     0
 73
     1
 90
        0
 40
-0.6
 41
-30.0
 62
     5
 63
     7
 74
     0
 91
        4
 64
     7
 65
   257
 75
     1
175
     1
 42
1.0
 92
        8
 66
     7
 43
1.0
 76
     1
 77
     6
 78
     2
 67
     7
 79
     5
170
     0
171
     0
290
     0
174
     0
 93
        1
 44
0.0
173
     0
291
     1
 45
0.0
1001
ACAD
1000
AcDbSavedByObjectVersion
1070
     0
  0
VISUALSTYLE
  5
36
102
{ACAD_REACTORS
330
2A
102
}
102
{ACAD_XDICTIONARY
360
4F0
102
}
330
2A
100
AcDbVisualStyle
  2
Brighten
 70
    12
 71
     2
 72
     2
 73
     0
 90
        0
 40
-0.6
 41
-30.0
 62
     5
 63
     7
 74
     1
 91
        4
 64
     7
 65
   257
 75
     1
175
     1
 42
1.0
 92
        8
 66
     7
 43
1.0
 76
     1
 77
     6
 78
     2
 67
     7
 79
     5
170
     0
171
     0
290
     0
174
     0
 93
        1
 44
50.0
173
     0
291
     1
 45
0.0
1001
ACAD
1000
AcDbSavedByObjectVersion
1070
     0
  0
VISUALSTYLE
  5
3A
102
{ACAD_REACTORS
330
2A
102
}
102
{ACAD_XDICTIONARY
360
4F8
102
}
330
2A
100
AcDbVisualStyle
  2
ColorChange
 70
    16
 71
     2
 72
     2
 73
     3
 90
        0
 40
-0.6
 41
-30.0
 62
     5
 63
     8
 74
     1
 91
        4
 64
     7
 65
   257
 75
     1
175
     1
 42
1.0
 92
        8
 66
     8
 43
1.0
 76
     1
 77
     6
 78
     2
 67
     7
 79
     5
170
     0
171
     0
290
     0
174
     0
 93
        1
 44
0.0
173
     0
291
     1
 45
0.0
1001
ACAD
1000
AcDbSavedByObjectVersion
1070
     0
  0
VISUALSTYLE
  5
34
102
{ACAD_REACTORS
330
2A
102
}
102
{ACAD_XDICTIONARY
360
4EC
102
}
330
2A
100
AcDbVisualStyle
  2
Conceptual
 70
     9
 71
     3
 72
     2
 73
     0
 90
        0
 40
-0.6
 41
-30.0
 62
     5
 63
     7
 74
     2
 91
        2
 64
     7
 65
   257
 75
     1
175
     1
 42
40.0
 92
        8
 66
     7
 43
1.0
 76
     1
 77
     6
 78
     2
 67
     7
 79
     3
170
     0
171
     0
290
     0
174
     0
 93
        1
 44
0.0
173
     0
291
     0
 45
0.0
1001
ACAD
1000
AcDbSavedByObjectVersion
1070
     0
  0
VISUALSTYLE
  5
35
102
{ACAD_REACTORS
330
2A
102
}
102
{ACAD_XDICTIONARY
360
4EE
102
}
330
2A
100
AcDbVisualStyle
  2
Dim
 70
    11
 71
     2
 72
     2
 73
     0
 90
        0
 40
-0.6
 41
-30.0
 62
     5
 63
     7
 74
     1
 91
        4
 64
     7
 65
   257
 75
     1
175
     1
 42
1.0
 92
        8
 66
     7
 43
1.0
 76
     1
 77
     6
 78
     2
 67
     7
 79
     5
170
     0
171
     0
290
     0
174
     0
 93
        1
 44
-50.0
173
     0
291
     1
 45
0.0
1001
ACAD
1000
AcDbSavedByObjectVersion
1070
     0
  0
VISUALSTYLE
  5
39
102
{ACAD_REACTORS
330
2A
102
}
102
{ACAD_XDICTIONARY
360
4F6
102
}
330
2A
100
AcDbVisualStyle
  2
Facepattern
 70
    15
 71
     2
 72
     2
 73
     0
 90
        0
 40
-0.6
 41
-30.0
 62
     5
 63
     7
 74
     1
 91
        4
 64
     7
 65
   257
 75
     1
175
     1
 42
1.0
 92
        8
 66
     7
 43
1.0
 76
     1
 77
     6
 78
     2
 67
     7
 79
     5
170
     0
171
     0
290
     0
174
     0
 93
        1
 44
0.0
173
     0
291
     1
 45
0.0
1001
ACAD
1000
AcDbSavedByObjectVersion
1070
     0
  0
VISUALSTYLE
  5
2B
102
{ACAD_REACTORS
330
2A
102
}
102
{ACAD_XDICTIONARY
360
4DA
102
}
330
2A
100
AcDbVisualStyle
  2
Flat
 70
     0
 71
     2
 72
     1
 73
     1
 90
        2
 40
-0.6
 41
30.0
 62
     5
 63
     7
 74
     0
 91
        4
 64
     7
 65
   257
 75
     1
175
     1
 42
1.0
 92
        8
 66
     7
 43
1.0
 76
     1
 77
     6
 78
     2
 67
     7
 79
     5
170
     0
171
     0
290
     0
174
     0
 93
       13
 44
0.0
173
     0
291
     1
 45
0.0
1001
ACAD
1000
AcDbSavedByObjectVersion
1070
     0
  0
VISUALSTYLE
  5
2C
102
{ACAD_REACTORS
330
2A
102
}
102
{ACAD_XDICTIONARY
360
4DC
102
}
330
2A
100
AcDbVisualStyle
  2
FlatWithEdges
 70
     1
 71
     2
 72
     1
 73
     1
 90
        2
 40
-0.6
 41
30.0
 62
     5
 63
     7
 74
     1
 91
        4
 64
     7
 65
   257
 75
     1
175
     1
 42
1.0
 92
        0
 66
   257
 43
1.0
 76
     1
 77
     6
 78
     2
 67
     7
 79
     5
170
     0
171
     0
290
     0
174
     0
 93
       13
 44
0.0
173
     0
291
     1
 45
0.0
1001
ACAD
1000
AcDbSavedByObjectVersion
1070
     0
  0
VISUALSTYLE
  5
2D
102
{ACAD_REACTORS
330
2A
102
}
102
{ACAD_XDICTIONARY
360
4DE
102
}
330
2A
100
AcDbVisualStyle
  2
Gouraud
 70
     2
 71
     2
 72
     2
 73
     1
 90
        2
 40
-0.6
 41
30.0
 62
     5
 63
     7
 74
     0
 91
        4
 64
     7
 65
   257
 75
     1
175
     1
 42
1.0
 92
        0
 66
     7
 43
1.0
 76
     1
 77
     6
 78
     2
 67
     7
 79
     5
170
     0
171
     0
290
     0
174
     0
 93
       13
 44
0.0
173
     0
291
     1
 45
0.0
1001
ACAD
1000
AcDbSavedByObjectVersion
1070
     0
  0
VISUALSTYLE
  5
2E
102
{ACAD_REACTORS
330
2A
102
}
102
{ACAD_XDICTIONARY
360
4E0
102
}
330
2A
100
AcDbVisualStyle
  2
GouraudWithEdges
 70
     3
 71
     2
 72
     2
 73
     1
 90
        2
 40
-0.6
 41
30.0
 62
     5
 63
     7
 74
     1
 91
        4
 64
     7
 65
   257
 75
     1
175
     1
 42
1.0
 92
        0
 66
   257
 43
1.0
 76
     1
 77
     6
 78
     2
 67
     7
 79
     5
170
     0
171
     0
290
     0
174
     0
 93
       13
 44
0.0
173
     0
291
     1
 45
0.0
1001
ACAD
1000
AcDbSavedByObjectVersion
1070
     0
  0
VISUALSTYLE
  5
38
102
{ACAD_REACTORS
330
2A
102
}
102
{ACAD_XDICTIONARY
360
4F4
102
}
330
2A
100
AcDbVisualStyle
  2
Linepattern
 70
    14
 71
     2
 72
     2
 73
     0
 90
        0
 40
-0.6
 41
-30.0
 62
     5
 63
     7
 74
     1
 91
        4
 64
     7
 65
   257
 75
     7
175
     7
 42
1.0
 92
        8
 66
     7
 43
1.0
 76
     1
 77
     6
 78
     2
 67
     7
 79
     5
170
     0
171
     0
290
     0
174
     0
 93
        1
 44
0.0
173
     0
291
     1
 45
0.0
1001
ACAD
1000
AcDbSavedByObjectVersion
1070
     0
  0
VISUALSTYLE
  5
33
102
{ACAD_REACTORS
330
2A
102
}
102
{ACAD_XDICTIONARY
360
4EA
102
}
330
2A
100
AcDbVisualStyle
  2
Realistic
 70
     8
 71
     2
 72
     2
 73
     0
 90
        0
 40
-0.6
 41
-30.0
 62
     5
 63
     7
 74
     1
 91
        0
 64
     7
 65
   257
 75
     1
175
     1
 42
1.0
 92
        8
 66
     8
 43
1.0
 76
     1
 77
     6
 78
     2
 67
     7
 79
     5
170
     0
171
     0
290
     0
174
     0
 93
       13
 44
0.0
173
     0
291
     0
 45
0.0
1001
ACAD
1000
AcDbSavedByObjectVersion
1070
     0
  0
VISUALSTYLE
  5
37
102
{ACAD_REACTORS
330
2A
102
}
102
{ACAD_XDICTIONARY
360
4F2
102
}
330
2A
100
AcDbVisualStyle
  2
Thicken
 70
    13
 71
     2
 72
     2
 73
     0
 90
        0
 40
-0.6
 41
-30.0
 62
     5
 63
     7
 74
     1
 91
        4
 64
     7
 65
   257
 75
     1
175
     1
 42
1.0
 92
       12
 66
     7
 43
1.0
 76
     1
 77
     6
 78
     2
 67
     7
 79
     5
170
     0
171
     0
290
     0
174
     0
 93
        1
 44
0.0
173
     0
291
     1
 45
0.0
1001
ACAD
1000
AcDbSavedByObjectVersion
1070
     0
  0
DICTIONARYVAR
  5
4D8
102
{ACAD_REACTORS
330
4D5
102
}
330
4D5
100
DictionaryVariables
280
     0
  1
2
  0
DICTIONARYVAR
  5
4D9
102
{ACAD_REACTORS
330
4D5
102
}
330
4D5
100
DictionaryVariables
280
     0
  1
1
  0
DICTIONARY
  5
4FC
330
3D
100
AcDbDictionary
280
     1
281
     1
  3
ACAD_XREC_ROUNDTRIP
360
4FD
  0
DICTIONARY
  5
4FA
330
3C
100
AcDbDictionary
280
     1
281
     1
  3
ACAD_XREC_ROUNDTRIP
360
4FB
  0
DICTIONARY
  5
4FE
330
3E
100
AcDbDictionary
280
     1
281
     1
  3
ACAD_XREC_ROUNDTRIP
360
4FF
  0
DICTIONARY
  5
4E2
330
2F
100
AcDbDictionary
280
     1
281
     1
  3
ACAD_XREC_ROUNDTRIP
360
4E3
  0
DICTIONARY
  5
4E6
330
31
100
AcDbDictionary
280
     1
281
     1
  3
ACAD_XREC_ROUNDTRIP
360
4E7
  0
DICTIONARY
  5
4E4
330
30
100
AcDbDictionary
280
     1
281
     1
  3
ACAD_XREC_ROUNDTRIP
360
4E5
  0
DICTIONARY
  5
4E8
330
32
100
AcDbDictionary
280
     1
281
     1
  3
ACAD_XREC_ROUNDTRIP
360
4E9
  0
DICTIONARY
  5
4F0
330
36
100
AcDbDictionary
280
     1
281
     1
  3
ACAD_XREC_ROUNDTRIP
360
4F1
  0
DICTIONARY
  5
4F8
330
3A
100
AcDbDictionary
280
     1
281
     1
  3
ACAD_XREC_ROUNDTRIP
360
4F9
  0
DICTIONARY
  5
4EC
330
34
100
AcDbDictionary
280
     1
281
     1
  3
ACAD_XREC_ROUNDTRIP
360
4ED
  0
DICTIONARY
  5
4EE
330
35
100
AcDbDictionary
280
     1
281
     1
  3
ACAD_XREC_ROUNDTRIP
360
4EF
  0
DICTIONARY
  5
4F6
330
39
100
AcDbDictionary
280
     1
281
     1
  3
ACAD_XREC_ROUNDTRIP
360
4F7
  0
DICTIONARY
  5
4DA
330
2B
100
AcDbDictionary
280
     1
281
     1
  3
ACAD_XREC_ROUNDTRIP
360
4DB
  0
DICTIONARY
  5
4DC
330
2C
100
AcDbDictionary
280
     1
281
     1
  3
ACAD_XREC_ROUNDTRIP
360
4DD
  0
DICTIONARY
  5
4DE
330
2D
100
AcDbDictionary
280
     1
281
     1
  3
ACAD_XREC_ROUNDTRIP
360
4DF
  0
DICTIONARY
  5
4E0
330
2E
100
AcDbDictionary
280
     1
281
     1
  3
ACAD_XREC_ROUNDTRIP
360
4E1
  0
DICTIONARY
  5
4F4
330
38
100
AcDbDictionary
280
     1
281
     1
  3
ACAD_XREC_ROUNDTRIP
360
4F5
  0
DICTIONARY
  5
4EA
330
33
100
AcDbDictionary
280
     1
281
     1
  3
ACAD_XREC_ROUNDTRIP
360
4EB
  0
DICTIONARY
  5
4F2
330
37
100
AcDbDictionary
280
     1
281
     1
  3
ACAD_XREC_ROUNDTRIP
360
4F3
  0
XRECORD
  5
4FD
102
{ACAD_REACTORS
330
4FC
102
}
330
4FC
100
AcDbXrecord
280
     1
102
MATERIAL
148
0.0
149
0.0
149
0.0
 93
        0
 94
      127
282
     0
 72
     1
 77
     1
171
     1
175
     1
179
     1
273
     0
  0
XRECORD
  5
4FB
102
{ACAD_REACTORS
330
4FA
102
}
330
4FA
100
AcDbXrecord
280
     1
102
MATERIAL
148
0.0
149
0.0
149
0.0
 93
        0
 94
      127
282
     0
 72
     1
 77
     1
171
     1
175
     1
179
     1
273
     0
  0
XRECORD
  5
4FF
102
{ACAD_REACTORS
330
4FE
102
}
330
4FE
100
AcDbXrecord
280
     1
102
MATERIAL
148
0.0
149
0.0
149
0.0
 93
        0
 94
      127
282
     0
 72
     1
 77
     1
171
     1
175
     1
179
     1
273
     0
  0
XRECORD
  5
4E3
102
{ACAD_REACTORS
330
4E2
102
}
330
4E2
100
AcDbXrecord
280
     1
102
RTVSPropertyOp0
 70
     1
102
RTVSPropertyOp1
 70
     1
102
RTVSPropertyOp2
 70
     1
102
RTVSPropertyOp3
 70
     1
102
RTVSPropertyOp4
 70
     1
102
RTVSPropertyOp5
 70
     1
102
RTVSPropertyOp6
 70
     1
102
RTVSPropertyOp7
 70
     1
102
RTVSPropertyOp8
 70
     1
102
RTVSPropertyOp9
 70
     1
102
RTVSPropertyOp10
 70
     1
102
RTVSPropertyOp11
 70
     1
102
RTVSPropertyOp12
 70
     1
102
RTVSPropertyOp13
 70
     1
102
RTVSPropertyOp14
 70
     1
102
RTVSPropertyOp15
 70
     1
102
RTVSPropertyOp16
 70
     1
102
RTVSPropertyOp17
 70
     1
102
RTVSPropertyOp18
 70
     1
102
RTVSPropertyOp19
 70
     1
102
RTVSPropertyOp20
 70
     1
102
RTVSPropertyOp21
 70
     1
102
RTVSPropertyOp22
 70
     1
102
RTVSPropertyOp23
 70
     1
102
RTVSPropertyOp24
 70
     1
102
RTVSPropertyOp25
 70
     1
102
RTVSPropertyOp26
 70
     1
102
RTVSPropertyOp27
 70
     1
  0
XRECORD
  5
4E7
102
{ACAD_REACTORS
330
4E6
102
}
330
4E6
100
AcDbXrecord
280
     1
102
RTVSPropertyOp0
 70
     1
102
RTVSPropertyOp1
 70
     1
102
RTVSPropertyOp2
 70
     1
102
RTVSPropertyOp3
 70
     1
102
RTVSPropertyOp4
 70
     1
102
RTVSPropertyOp5
 70
     1
102
RTVSPropertyOp6
 70
     1
102
RTVSPropertyOp7
 70
     1
102
RTVSPropertyOp8
 70
     1
102
RTVSPropertyOp9
 70
     1
102
RTVSPropertyOp10
 70
     1
102
RTVSPropertyOp11
 70
     1
102
RTVSPropertyOp12
 70
     1
102
RTVSPropertyOp13
 70
     1
102
RTVSPropertyOp14
 70
     1
102
RTVSPropertyOp15
 70
     1
102
RTVSPropertyOp16
 70
     1
102
RTVSPropertyOp17
 70
     1
102
RTVSPropertyOp18
 70
     1
102
RTVSPropertyOp19
 70
     1
102
RTVSPropertyOp20
 70
     1
102
RTVSPropertyOp21
 70
     1
102
RTVSPropertyOp22
 70
     1
102
RTVSPropertyOp23
 70
     1
102
RTVSPropertyOp24
 70
     1
102
RTVSPropertyOp25
 70
     1
102
RTVSPropertyOp26
 70
     1
102
RTVSPropertyOp27
 70
     1
  0
XRECORD
  5
4E5
102
{ACAD_REACTORS
330
4E4
102
}
330
4E4
100
AcDbXrecord
280
     1
102
RTVSPropertyOp0
 70
     1
102
RTVSPropertyOp1
 70
     1
102
RTVSPropertyOp2
 70
     1
102
RTVSPropertyOp3
 70
     1
102
RTVSPropertyOp4
 70
     1
102
RTVSPropertyOp5
 70
     1
102
RTVSPropertyOp6
 70
     1
102
RTVSPropertyOp7
 70
     1
102
RTVSPropertyOp8
 70
     1
102
RTVSPropertyOp9
 70
     1
102
RTVSPropertyOp10
 70
     1
102
RTVSPropertyOp11
 70
     1
102
RTVSPropertyOp12
 70
     1
102
RTVSPropertyOp13
 70
     1
102
RTVSPropertyOp14
 70
     1
102
RTVSPropertyOp15
 70
     1
102
RTVSPropertyOp16
 70
     1
102
RTVSPropertyOp17
 70
     1
102
RTVSPropertyOp18
 70
     1
102
RTVSPropertyOp19
 70
     1
102
RTVSPropertyOp20
 70
     1
102
RTVSPropertyOp21
 70
     1
102
RTVSPropertyOp22
 70
     1
102
RTVSPropertyOp23
 70
     1
102
RTVSPropertyOp24
 70
     1
102
RTVSPropertyOp25
 70
     1
102
RTVSPropertyOp26
 70
     1
102
RTVSPropertyOp27
 70
     1
  0
XRECORD
  5
4E9
102
{ACAD_REACTORS
330
4E8
102
}
330
4E8
100
AcDbXrecord
280
     1
102
RTVSPropertyOp0
 70
     1
102
RTVSPropertyOp1
 70
     1
102
RTVSPropertyOp2
 70
     1
102
RTVSPropertyOp3
 70
     1
102
RTVSPropertyOp4
 70
     1
102
RTVSPropertyOp5
 70
     1
102
RTVSPropertyOp6
 70
     1
102
RTVSPropertyOp7
 70
     1
102
RTVSPropertyOp8
 70
     1
102
RTVSPropertyOp9
 70
     1
102
RTVSPropertyOp10
 70
     1
102
RTVSPropertyOp11
 70
     1
102
RTVSPropertyOp12
 70
     1
102
RTVSPropertyOp13
 70
     1
102
RTVSPropertyOp14
 70
     1
102
RTVSPropertyOp15
 70
     1
102
RTVSPropertyOp16
 70
     1
102
RTVSPropertyOp17
 70
     1
102
RTVSPropertyOp18
 70
     1
102
RTVSPropertyOp19
 70
     1
102
RTVSPropertyOp20
 70
     1
102
RTVSPropertyOp21
 70
     1
102
RTVSPropertyOp22
 70
     1
102
RTVSPropertyOp23
 70
     1
102
RTVSPropertyOp24
 70
     1
102
RTVSPropertyOp25
 70
     1
102
RTVSPropertyOp26
 70
     1
102
RTVSPropertyOp27
 70
     1
  0
XRECORD
  5
4F1
102
{ACAD_REACTORS
330
4F0
102
}
330
4F0
100
AcDbXrecord
280
     1
102
RTVSPropertyOp0
 70
     1
102
RTVSPropertyOp1
 70
     1
102
RTVSPropertyOp2
 70
     1
102
RTVSPropertyOp3
 70
     1
102
RTVSPropertyOp4
 70
     1
102
RTVSPropertyOp5
 70
     1
102
RTVSPropertyOp6
 70
     1
102
RTVSPropertyOp7
 70
     1
102
RTVSPropertyOp8
 70
     1
102
RTVSPropertyOp9
 70
     1
102
RTVSPropertyOp10
 70
     1
102
RTVSPropertyOp11
 70
     1
102
RTVSPropertyOp12
 70
     1
102
RTVSPropertyOp13
 70
     1
102
RTVSPropertyOp14
 70
     1
102
RTVSPropertyOp15
 70
     1
102
RTVSPropertyOp16
 70
     1
102
RTVSPropertyOp17
 70
     1
102
RTVSPropertyOp18
 70
     1
102
RTVSPropertyOp19
 70
     1
102
RTVSPropertyOp20
 70
     1
102
RTVSPropertyOp21
 70
     1
102
RTVSPropertyOp22
 70
     1
102
RTVSPropertyOp23
 70
     1
102
RTVSPropertyOp24
 70
     1
102
RTVSPropertyOp25
 70
     1
102
RTVSPropertyOp26
 70
     1
102
RTVSPropertyOp27
 70
     1
  0
XRECORD
  5
4F9
102
{ACAD_REACTORS
330
4F8
102
}
330
4F8
100
AcDbXrecord
280
     1
102
RTVSPropertyOp0
 70
     1
102
RTVSPropertyOp1
 70
     1
102
RTVSPropertyOp2
 70
     1
102
RTVSPropertyOp3
 70
     1
102
RTVSPropertyOp4
 70
     1
102
RTVSPropertyOp5
 70
     1
102
RTVSPropertyOp6
 70
     1
102
RTVSPropertyOp7
 70
     1
102
RTVSPropertyOp8
 70
     1
102
RTVSPropertyOp9
 70
     1
102
RTVSPropertyOp10
 70
     1
102
RTVSPropertyOp11
 70
     1
102
RTVSPropertyOp12
 70
     1
102
RTVSPropertyOp13
 70
     1
102
RTVSPropertyOp14
 70
     1
102
RTVSPropertyOp15
 70
     1
102
RTVSPropertyOp16
 70
     1
102
RTVSPropertyOp17
 70
     1
102
RTVSPropertyOp18
 70
     1
102
RTVSPropertyOp19
 70
     1
102
RTVSPropertyOp20
 70
     1
102
RTVSPropertyOp21
 70
     1
102
RTVSPropertyOp22
 70
     1
102
RTVSPropertyOp23
 70
     1
102
RTVSPropertyOp24
 70
     1
102
RTVSPropertyOp25
 70
     1
102
RTVSPropertyOp26
 70
     1
102
RTVSPropertyOp27
 70
     1
  0
XRECORD
  5
4ED
102
{ACAD_REACTORS
330
4EC
102
}
330
4EC
100
AcDbXrecord
280
     1
102
RTVSPropertyOp0
 70
     1
102
RTVSPropertyOp1
 70
     1
102
RTVSPropertyOp2
 70
     1
102
RTVSPropertyOp3
 70
     1
102
RTVSPropertyOp4
 70
     1
102
RTVSPropertyOp5
 70
     1
102
RTVSPropertyOp6
 70
     1
102
RTVSPropertyOp7
 70
     1
102
RTVSPropertyOp8
 70
     1
102
RTVSPropertyOp9
 70
     1
102
RTVSPropertyOp10
 70
     1
102
RTVSPropertyOp11
 70
     1
102
RTVSPropertyOp12
 70
     1
102
RTVSPropertyOp13
 70
     1
102
RTVSPropertyOp14
 70
     1
102
RTVSPropertyOp15
 70
     1
102
RTVSPropertyOp16
 70
     1
102
RTVSPropertyOp17
 70
     1
102
RTVSPropertyOp18
 70
     1
102
RTVSPropertyOp19
 70
     1
102
RTVSPropertyOp20
 70
     1
102
RTVSPropertyOp21
 70
     1
102
RTVSPropertyOp22
 70
     1
102
RTVSPropertyOp23
 70
     1
102
RTVSPropertyOp24
 70
     1
102
RTVSPropertyOp25
 70
     1
102
RTVSPropertyOp26
 70
     1
102
RTVSPropertyOp27
 70
     1
  0
XRECORD
  5
4EF
102
{ACAD_REACTORS
330
4EE
102
}
330
4EE
100
AcDbXrecord
280
     1
102
RTVSPropertyOp0
 70
     1
102
RTVSPropertyOp1
 70
     1
102
RTVSPropertyOp2
 70
     1
102
RTVSPropertyOp3
 70
     1
102
RTVSPropertyOp4
 70
     1
102
RTVSPropertyOp5
 70
     1
102
RTVSPropertyOp6
 70
     1
102
RTVSPropertyOp7
 70
     1
102
RTVSPropertyOp8
 70
     1
102
RTVSPropertyOp9
 70
     1
102
RTVSPropertyOp10
 70
     1
102
RTVSPropertyOp11
 70
     1
102
RTVSPropertyOp12
 70
     1
102
RTVSPropertyOp13
 70
     1
102
RTVSPropertyOp14
 70
     1
102
RTVSPropertyOp15
 70
     1
102
RTVSPropertyOp16
 70
     1
102
RTVSPropertyOp17
 70
     1
102
RTVSPropertyOp18
 70
     1
102
RTVSPropertyOp19
 70
     1
102
RTVSPropertyOp20
 70
     1
102
RTVSPropertyOp21
 70
     1
102
RTVSPropertyOp22
 70
     1
102
RTVSPropertyOp23
 70
     1
102
RTVSPropertyOp24
 70
     1
102
RTVSPropertyOp25
 70
     1
102
RTVSPropertyOp26
 70
     1
102
RTVSPropertyOp27
 70
     1
  0
XRECORD
  5
4F7
102
{ACAD_REACTORS
330
4F6
102
}
330
4F6
100
AcDbXrecord
280
     1
102
RTVSPropertyOp0
 70
     1
102
RTVSPropertyOp1
 70
     1
102
RTVSPropertyOp2
 70
     1
102
RTVSPropertyOp3
 70
     1
102
RTVSPropertyOp4
 70
     1
102
RTVSPropertyOp5
 70
     1
102
RTVSPropertyOp6
 70
     1
102
RTVSPropertyOp7
 70
     1
102
RTVSPropertyOp8
 70
     1
102
RTVSPropertyOp9
 70
     1
102
RTVSPropertyOp10
 70
     1
102
RTVSPropertyOp11
 70
     1
102
RTVSPropertyOp12
 70
     1
102
RTVSPropertyOp13
 70
     1
102
RTVSPropertyOp14
 70
     1
102
RTVSPropertyOp15
 70
     1
102
RTVSPropertyOp16
 70
     1
102
RTVSPropertyOp17
 70
     1
102
RTVSPropertyOp18
 70
     1
102
RTVSPropertyOp19
 70
     1
102
RTVSPropertyOp20
 70
     1
102
RTVSPropertyOp21
 70
     1
102
RTVSPropertyOp22
 70
     1
102
RTVSPropertyOp23
 70
     1
102
RTVSPropertyOp24
 70
     1
102
RTVSPropertyOp25
 70
     1
102
RTVSPropertyOp26
 70
     1
102
RTVSPropertyOp27
 70
     1
  0
XRECORD
  5
4DB
102
{ACAD_REACTORS
330
4DA
102
}
330
4DA
100
AcDbXrecord
280
     1
102
RTVSPropertyOp0
 70
     1
102
RTVSPropertyOp1
 70
     1
102
RTVSPropertyOp2
 70
     1
102
RTVSPropertyOp3
 70
     1
102
RTVSPropertyOp4
 70
     1
102
RTVSPropertyOp5
 70
     1
102
RTVSPropertyOp6
 70
     1
102
RTVSPropertyOp7
 70
     1
102
RTVSPropertyOp8
 70
     1
102
RTVSPropertyOp9
 70
     1
102
RTVSPropertyOp10
 70
     1
102
RTVSPropertyOp11
 70
     1
102
RTVSPropertyOp12
 70
     1
102
RTVSPropertyOp13
 70
     1
102
RTVSPropertyOp14
 70
     1
102
RTVSPropertyOp15
 70
     1
102
RTVSPropertyOp16
 70
     1
102
RTVSPropertyOp17
 70
     1
102
RTVSPropertyOp18
 70
     1
102
RTVSPropertyOp19
 70
     1
102
RTVSPropertyOp20
 70
     1
102
RTVSPropertyOp21
 70
     1
102
RTVSPropertyOp22
 70
     1
102
RTVSPropertyOp23
 70
     1
102
RTVSPropertyOp24
 70
     1
102
RTVSPropertyOp25
 70
     1
102
RTVSPropertyOp26
 70
     1
102
RTVSPropertyOp27
 70
     1
  0
XRECORD
  5
4DD
102
{ACAD_REACTORS
330
4DC
102
}
330
4DC
100
AcDbXrecord
280
     1
102
RTVSPropertyOp0
 70
     1
102
RTVSPropertyOp1
 70
     1
102
RTVSPropertyOp2
 70
     1
102
RTVSPropertyOp3
 70
     1
102
RTVSPropertyOp4
 70
     1
102
RTVSPropertyOp5
 70
     1
102
RTVSPropertyOp6
 70
     1
102
RTVSPropertyOp7
 70
     1
102
RTVSPropertyOp8
 70
     1
102
RTVSPropertyOp9
 70
     1
102
RTVSPropertyOp10
 70
     1
102
RTVSPropertyOp11
 70
     1
102
RTVSPropertyOp12
 70
     1
102
RTVSPropertyOp13
 70
     1
102
RTVSPropertyOp14
 70
     1
102
RTVSPropertyOp15
 70
     1
102
RTVSPropertyOp16
 70
     1
102
RTVSPropertyOp17
 70
     1
102
RTVSPropertyOp18
 70
     1
102
RTVSPropertyOp19
 70
     1
102
RTVSPropertyOp20
 70
     1
102
RTVSPropertyOp21
 70
     1
102
RTVSPropertyOp22
 70
     1
102
RTVSPropertyOp23
 70
     1
102
RTVSPropertyOp24
 70
     1
102
RTVSPropertyOp25
 70
     1
102
RTVSPropertyOp26
 70
     1
102
RTVSPropertyOp27
 70
     1
  0
XRECORD
  5
4DF
102
{ACAD_REACTORS
330
4DE
102
}
330
4DE
100
AcDbXrecord
280
     1
102
RTVSPropertyOp0
 70
     1
102
RTVSPropertyOp1
 70
     1
102
RTVSPropertyOp2
 70
     1
102
RTVSPropertyOp3
 70
     1
102
RTVSPropertyOp4
 70
     1
102
RTVSPropertyOp5
 70
     1
102
RTVSPropertyOp6
 70
     1
102
RTVSPropertyOp7
 70
     1
102
RTVSPropertyOp8
 70
     1
102
RTVSPropertyOp9
 70
     1
102
RTVSPropertyOp10
 70
     1
102
RTVSPropertyOp11
 70
     1
102
RTVSPropertyOp12
 70
     1
102
RTVSPropertyOp13
 70
     1
102
RTVSPropertyOp14
 70
     1
102
RTVSPropertyOp15
 70
     1
102
RTVSPropertyOp16
 70
     1
102
RTVSPropertyOp17
 70
     1
102
RTVSPropertyOp18
 70
     1
102
RTVSPropertyOp19
 70
     1
102
RTVSPropertyOp20
 70
     1
102
RTVSPropertyOp21
 70
     1
102
RTVSPropertyOp22
 70
     1
102
RTVSPropertyOp23
 70
     1
102
RTVSPropertyOp24
 70
     1
102
RTVSPropertyOp25
 70
     1
102
RTVSPropertyOp26
 70
     1
102
RTVSPropertyOp27
 70
     1
  0
XRECORD
  5
4E1
102
{ACAD_REACTORS
330
4E0
102
}
330
4E0
100
AcDbXrecord
280
     1
102
RTVSPropertyOp0
 70
     1
102
RTVSPropertyOp1
 70
     1
102
RTVSPropertyOp2
 70
     1
102
RTVSPropertyOp3
 70
     1
102
RTVSPropertyOp4
 70
     1
102
RTVSPropertyOp5
 70
     1
102
RTVSPropertyOp6
 70
     1
102
RTVSPropertyOp7
 70
     1
102
RTVSPropertyOp8
 70
     1
102
RTVSPropertyOp9
 70
     1
102
RTVSPropertyOp10
 70
     1
102
RTVSPropertyOp11
 70
     1
102
RTVSPropertyOp12
 70
     1
102
RTVSPropertyOp13
 70
     1
102
RTVSPropertyOp14
 70
     1
102
RTVSPropertyOp15
 70
     1
102
RTVSPropertyOp16
 70
     1
102
RTVSPropertyOp17
 70
     1
102
RTVSPropertyOp18
 70
     1
102
RTVSPropertyOp19
 70
     1
102
RTVSPropertyOp20
 70
     1
102
RTVSPropertyOp21
 70
     1
102
RTVSPropertyOp22
 70
     1
102
RTVSPropertyOp23
 70
     1
102
RTVSPropertyOp24
 70
     1
102
RTVSPropertyOp25
 70
     1
102
RTVSPropertyOp26
 70
     1
102
RTVSPropertyOp27
 70
     1
  0
XRECORD
  5
4F5
102
{ACAD_REACTORS
330
4F4
102
}
330
4F4
100
AcDbXrecord
280
     1
102
RTVSPropertyOp0
 70
     1
102
RTVSPropertyOp1
 70
     1
102
RTVSPropertyOp2
 70
     1
102
RTVSPropertyOp3
 70
     1
102
RTVSPropertyOp4
 70
     1
102
RTVSPropertyOp5
 70
     1
102
RTVSPropertyOp6
 70
     1
102
RTVSPropertyOp7
 70
     1
102
RTVSPropertyOp8
 70
     1
102
RTVSPropertyOp9
 70
     1
102
RTVSPropertyOp10
 70
     1
102
RTVSPropertyOp11
 70
     1
102
RTVSPropertyOp12
 70
     1
102
RTVSPropertyOp13
 70
     1
102
RTVSPropertyOp14
 70
     1
102
RTVSPropertyOp15
 70
     1
102
RTVSPropertyOp16
 70
     1
102
RTVSPropertyOp17
 70
     1
102
RTVSPropertyOp18
 70
     1
102
RTVSPropertyOp19
 70
     1
102
RTVSPropertyOp20
 70
     1
102
RTVSPropertyOp21
 70
     1
102
RTVSPropertyOp22
 70
     1
102
RTVSPropertyOp23
 70
     1
102
RTVSPropertyOp24
 70
     1
102
RTVSPropertyOp25
 70
     1
102
RTVSPropertyOp26
 70
     1
102
RTVSPropertyOp27
 70
     1
  0
XRECORD
  5
4EB
102
{ACAD_REACTORS
330
4EA
102
}
330
4EA
100
AcDbXrecord
280
     1
102
RTVSPropertyOp0
 70
     1
102
RTVSPropertyOp1
 70
     1
102
RTVSPropertyOp2
 70
     1
102
RTVSPropertyOp3
 70
     1
102
RTVSPropertyOp4
 70
     1
102
RTVSPropertyOp5
 70
     1
102
RTVSPropertyOp6
 70
     1
102
RTVSPropertyOp7
 70
     1
102
RTVSPropertyOp8
 70
     1
102
RTVSPropertyOp9
 70
     1
102
RTVSPropertyOp10
 70
     1
102
RTVSPropertyOp11
 70
     1
102
RTVSPropertyOp12
 70
     1
102
RTVSPropertyOp13
 70
     1
102
RTVSPropertyOp14
 70
     1
102
RTVSPropertyOp15
 70
     1
102
RTVSPropertyOp16
 70
     1
102
RTVSPropertyOp17
 70
     1
102
RTVSPropertyOp18
 70
     1
102
RTVSPropertyOp19
 70
     1
102
RTVSPropertyOp20
 70
     1
102
RTVSPropertyOp21
 70
     1
102
RTVSPropertyOp22
 70
     1
102
RTVSPropertyOp23
 70
     1
102
RTVSPropertyOp24
 70
     1
102
RTVSPropertyOp25
 70
     1
102
RTVSPropertyOp26
 70
     1
102
RTVSPropertyOp27
 70
     1
  0
XRECORD
  5
4F3
102
{ACAD_REACTORS
330
4F2
102
}
330
4F2
100
AcDbXrecord
280
     1
102
RTVSPropertyOp0
 70
     1
102
RTVSPropertyOp1
 70
     1
102
RTVSPropertyOp2
 70
     1
102
RTVSPropertyOp3
 70
     1
102
RTVSPropertyOp4
 70
     1
102
RTVSPropertyOp5
 70
     1
102
RTVSPropertyOp6
 70
     1
102
RTVSPropertyOp7
 70
     1
102
RTVSPropertyOp8
 70
     1
102
RTVSPropertyOp9
 70
     1
102
RTVSPropertyOp10
 70
     1
102
RTVSPropertyOp11
 70
     1
102
RTVSPropertyOp12
 70
     1
102
RTVSPropertyOp13
 70
     1
102
RTVSPropertyOp14
 70
     1
102
RTVSPropertyOp15
 70
     1
102
RTVSPropertyOp16
 70
     1
102
RTVSPropertyOp17
 70
     1
102
RTVSPropertyOp18
 70
     1
102
RTVSPropertyOp19
 70
     1
102
RTVSPropertyOp20
 70
     1
102
RTVSPropertyOp21
 70
     1
102
RTVSPropertyOp22
 70
     1
102
RTVSPropertyOp23
 70
     1
102
RTVSPropertyOp24
 70
     1
102
RTVSPropertyOp25
 70
     1
102
RTVSPropertyOp26
 70
     1
102
RTVSPropertyOp27
 70
     1
  0
ENDSEC
  0
EOF
