  0
SECTION
  2
HEADER
  9
$ACADVER
  1
AC1015
  9
$ACADMAINTVER
 70
     6
  9
$DWGCODEPAGE
  3
ANSI_932
  9
$INSBASE
 10
0.0
 20
0.0
 30
0.0
  9
$EXTMIN
 10
-84.9698578937958
 20
-113.354977852461
 30
0.0
  9
$EXTMAX
 10
220.711702090182
 20
394.841327892601
 30
0.0
  9
$LIMMIN
 10
0.0
 20
0.0
  9
$LIMMAX
 10
12.0
 20
9.0
  9
$ORTHOMODE
 70
     0
  9
$REGENMODE
 70
     1
  9
$FILLMODE
 70
     1
  9
$QTEXTMODE
 70
     0
  9
$MIRRTEXT
 70
     1
  9
$LTSCALE
 40
1.0
  9
$ATTMODE
 70
     1
  9
$TEXTSIZE
 40
0.2
  9
$TRACEWID
 40
0.05
  9
$TEXTSTYLE
  7
Standard
  9
$CLAYER
  8
0
  9
$CELTYPE
  6
ByLayer
  9
$CECOLOR
 62
   256
  9
$CELTSCALE
 40
1.0
  9
$DISPSILH
 70
     0
  9
$DIMSCALE
 40
1.0
  9
$DIMASZ
 40
0.18
  9
$DIMEXO
 40
0.0625
  9
$DIMDLI
 40
0.38
  9
$DIMRND
 40
0.0
  9
$DIMDLE
 40
0.0
  9
$DIMEXE
 40
0.18
  9
$DIMTP
 40
0.0
  9
$DIMTM
 40
0.0
  9
$DIMTXT
 40
0.18
  9
$DIMCEN
 40
0.09
  9
$DIMTSZ
 40
0.0
  9
$DIMTOL
 70
     0
  9
$DIMLIM
 70
     0
  9
$DIMTIH
 70
     1
  9
$DIMTOH
 70
     1
  9
$DIMSE1
 70
     0
  9
$DIMSE2
 70
     0
  9
$DIMTAD
 70
     0
  9
$DIMZIN
 70
     0
  9
$DIMBLK
  1

  9
$DIMASO
 70
     1
  9
$DIMSHO
 70
     1
  9
$DIMPOST
  1

  9
$DIMAPOST
  1

  9
$DIMALT
 70
     0
  9
$DIMALTD
 70
     2
  9
$DIMALTF
 40
25.4
  9
$DIMLFAC
 40
1.0
  9
$DIMTOFL
 70
     0
  9
$DIMTVP
 40
0.0
  9
$DIMTIX
 70
     0
  9
$DIMSOXD
 70
     0
  9
$DIMSAH
 70
     0
  9
$DIMBLK1
  1

  9
$DIMBLK2
  1

  9
$DIMSTYLE
  2
Standard
  9
$DIMCLRD
 70
     0
  9
$DIMCLRE
 70
     0
  9
$DIMCLRT
 70
     0
  9
$DIMTFAC
 40
1.0
  9
$DIMGAP
 40
0.09
  9
$DIMJUST
 70
     0
  9
$DIMSD1
 70
     0
  9
$DIMSD2
 70
     0
  9
$DIMTOLJ
 70
     1
  9
$DIMTZIN
 70
     0
  9
$DIMALTZ
 70
     0
  9
$DIMALTTZ
 70
     0
  9
$DIMUPT
 70
     0
  9
$DIMDEC
 70
     4
  9
$DIMTDEC
 70
     4
  9
$DIMALTU
 70
     2
  9
$DIMALTTD
 70
     2
  9
$DIMTXSTY
  7
Standard
  9
$DIMAUNIT
 70
     0
  9
$DIMADEC
 70
     0
  9
$DIMALTRND
 40
0.0
  9
$DIMAZIN
 70
     0
  9
$DIMDSEP
 70
    46
  9
$DIMATFIT
 70
     3
  9
$DIMFRAC
 70
     0
  9
$DIMLDRBLK
  1

  9
$DIMLUNIT
 70
     2
  9
$DIMLWD
 70
    -2
  9
$DIMLWE
 70
    -2
  9
$DIMTMOVE
 70
     0
  9
$LUNITS
 70
     2
  9
$LUPREC
 70
     4
  9
$SKETCHINC
 40
0.1
  9
$FILLETRAD
 40
0.5
  9
$AUNITS
 70
     0
  9
$AUPREC
 70
     0
  9
$MENU
  1
.
  9
$ELEVATION
 40
0.0
  9
$PELEVATION
 40
0.0
  9
$THICKNESS
 40
0.0
  9
$LIMCHECK
 70
     0
  9
$CHAMFERA
 40
0.5
  9
$CHAMFERB
 40
0.5
  9
$CHAMFERC
 40
1.0
  9
$CHAMFERD
 40
0.0
  9
$SKPOLY
 70
     0
  9
$TDCREATE
 40
2457624.562235174
  9
$TDUCREATE
 40
2457624.187235174
  9
$TDUPDATE
 40
2457624.562235185
  9
$TDUUPDATE
 40
2457624.187235185
  9
$TDINDWG
 40
0.0000000116
  9
$TDUSRTIMER
 40
0.0000000116
  9
$USRTIMER
 70
     1
  9
$ANGBASE
 50
0.0
  9
$ANGDIR
 70
     0
  9
$PDMODE
 70
     0
  9
$PDSIZE
 40
0.0
  9
$PLINEWID
 40
0.0
  9
$SPLFRAME
 70
     0
  9
$SPLINETYPE
 70
     6
  9
$SPLINESEGS
 70
     8
  9
$HANDSEED
  5
4AB
  9
$SURFTAB1
 70
     6
  9
$SURFTAB2
 70
     6
  9
$SURFTYPE
 70
     6
  9
$SURFU
 70
     6
  9
$SURFV
 70
     6
  9
$UCSBASE
  2

  9
$UCSNAME
  2

  9
$UCSORG
 10
0.0
 20
0.0
 30
0.0
  9
$UCSXDIR
 10
1.0
 20
0.0
 30
0.0
  9
$UCSYDIR
 10
0.0
 20
1.0
 30
0.0
  9
$UCSORTHOREF
  2

  9
$UCSORTHOVIEW
 70
     0
  9
$UCSORGTOP
 10
0.0
 20
0.0
 30
0.0
  9
$UCSORGBOTTOM
 10
0.0
 20
0.0
 30
0.0
  9
$UCSORGLEFT
 10
0.0
 20
0.0
 30
0.0
  9
$UCSORGRIGHT
 10
0.0
 20
0.0
 30
0.0
  9
$UCSORGFRONT
 10
0.0
 20
0.0
 30
0.0
  9
$UCSORGBACK
 10
0.0
 20
0.0
 30
0.0
  9
$PUCSBASE
  2

  9
$PUCSNAME
  2

  9
$PUCSORG
 10
0.0
 20
0.0
 30
0.0
  9
$PUCSXDIR
 10
1.0
 20
0.0
 30
0.0
  9
$PUCSYDIR
 10
0.0
 20
1.0
 30
0.0
  9
$PUCSORTHOREF
  2

  9
$PUCSORTHOVIEW
 70
     0
  9
$PUCSORGTOP
 10
0.0
 20
0.0
 30
0.0
  9
$PUCSORGBOTTOM
 10
0.0
 20
0.0
 30
0.0
  9
$PUCSORGLEFT
 10
0.0
 20
0.0
 30
0.0
  9
$PUCSORGRIGHT
 10
0.0
 20
0.0
 30
0.0
  9
$PUCSORGFRONT
 10
0.0
 20
0.0
 30
0.0
  9
$PUCSORGBACK
 10
0.0
 20
0.0
 30
0.0
  9
$USERI1
 70
     0
  9
$USERI2
 70
     0
  9
$USERI3
 70
     0
  9
$USERI4
 70
     0
  9
$USERI5
 70
     0
  9
$USERR1
 40
18.0
  9
$USERR2
 40
0.0
  9
$USERR3
 40
0.0
  9
$USERR4
 40
0.0
  9
$USERR5
 40
0.0
  9
$WORLDVIEW
 70
     1
  9
$SHADEDGE
 70
     3
  9
$SHADEDIF
 70
    70
  9
$TILEMODE
 70
     1
  9
$MAXACTVP
 70
    64
  9
$PINSBASE
 10
0.0
 20
0.0
 30
0.0
  9
$PLIMCHECK
 70
     0
  9
$PEXTMIN
 10
1.00000000000000E+20
 20
1.00000000000000E+20
 30
1.00000000000000E+20
  9
$PEXTMAX
 10
-1.00000000000000E+20
 20
-1.00000000000000E+20
 30
-1.00000000000000E+20
  9
$PLIMMIN
 10
0.0
 20
0.0
  9
$PLIMMAX
 10
12.0
 20
9.0
  9
$UNITMODE
 70
     0
  9
$VISRETAIN
 70
     1
  9
$PLINEGEN
 70
     0
  9
$PSLTSCALE
 70
     1
  9
$TREEDEPTH
 70
  3020
  9
$CMLSTYLE
  2
Standard
  9
$CMLJUST
 70
     0
  9
$CMLSCALE
 40
1.0
  9
$PROXYGRAPHICS
 70
     1
  9
$MEASUREMENT
 70
     1
  9
$CELWEIGHT
370
    -1
  9
$ENDCAPS
280
     0
  9
$JOINSTYLE
280
     0
  9
$LWDISPLAY
290
     0
  9
$INSUNITS
 70
     1
  9
$HYPERLINKBASE
  1

  9
$STYLESHEET
  1

  9
$XEDIT
290
     1
  9
$CEPSNTYPE
380
     0
  9
$PSTYLEMODE
290
     1
  9
$FINGERPRINTGUID
  2
{7B0A0150-B679-4EA5-8417-3D7CB2416D92}
  9
$VERSIONGUID
  2
{FAEB1C32-E019-11D5-929B-00C0DF256EC4}
  9
$EXTNAMES
290
     1
  9
$PSVPSCALE
 40
0.0
  9
$OLESTARTUP
290
     0
  0
ENDSEC
  0
SECTION
  2
CLASSES
  0
CLASS
  1
ACDBDICTIONARYWDFLT
  2
AcDbDictionaryWithDefault
  3
ObjectDBX Classes
 90
        0
280
     0
281
     0
  0
CLASS
  1
VISUALSTYLE
  2
AcDbVisualStyle
  3
ObjectDBX Classes
 90
     4095
280
     0
281
     0
  0
CLASS
  1
MATERIAL
  2
AcDbMaterial
  3
ObjectDBX Classes
 90
     1153
280
     0
281
     0
  0
CLASS
  1

  2
exOdDbPolyline
  3

 90
        0
280
     0
281
     1
  0
CLASS
  1
DICTIONARYVAR
  2
AcDbDictionaryVar
  3
ObjectDBX Classes
 90
        0
280
     0
281
     0
  0
CLASS
  1
ACDBPLACEHOLDER
  2
AcDbPlaceHolder
  3
ObjectDBX Classes
 90
        0
280
     0
281
     0
  0
CLASS
  1
LAYOUT
  2
AcDbLayout
  3
ObjectDBX Classes
 90
        0
280
     0
281
     0
  0
ENDSEC
  0
SECTION
  2
TABLES
  0
TABLE
  2
VPORT
  5
8
330
0
100
AcDbSymbolTable
 70
     1
  0
VPORT
  5
29
330
8
100
AcDbSymbolTableRecord
100
AcDbViewportTableRecord
  2
*Active
 70
     0
 10
0.0
 20
0.0
 11
1.0
 21
1.0
 12
67.87092209819309
 22
140.74317502007
 13
0.0
 23
0.0
 14
0.5
 24
0.5
 15
0.5
 25
0.5
 16
0.0
 26
0.0
 36
1.0
 17
0.0
 27
0.0
 37
0.0
 40
559.0159363195683
 41
1.60267857142857
 42
50.0
 43
0.0
 44
0.0
 50
0.0
 51
0.0
 71
     0
 72
   100
 73
     1
 74
     3
 75
     0
 76
     0
 77
     0
 78
     0
281
     0
 65
     1
110
0.0
120
0.0
130
0.0
111
1.0
121
0.0
131
0.0
112
0.0
122
1.0
132
0.0
 79
     0
146
0.0
  0
ENDTAB
  0
TABLE
  2
LTYPE
  5
5
330
0
100
AcDbSymbolTable
 70
     8
  0
LTYPE
  5
14
330
5
100
AcDbSymbolTableRecord
100
AcDbLinetypeTableRecord
  2
ByBlock
 70
     0
  3

 72
    65
 73
     0
 40
0.0
  0
LTYPE
  5
15
330
5
100
AcDbSymbolTableRecord
100
AcDbLinetypeTableRecord
  2
ByLayer
 70
     0
  3

 72
    65
 73
     0
 40
0.0
  0
LTYPE
  5
16
330
5
100
AcDbSymbolTableRecord
100
AcDbLinetypeTableRecord
  2
Continuous
 70
     0
  3
Solid line
 72
    65
 73
     0
 40
0.0
  0
LTYPE
  5
3F
330
5
100
AcDbSymbolTableRecord
100
AcDbLinetypeTableRecord
  2
DASHED
 70
     0
  3
Dashed
 72
    65
 73
     2
 40
15.0
 49
7.0
 74
     0
 49
-8.0
 74
     0
  0
LTYPE
  5
40
330
5
100
AcDbSymbolTableRecord
100
AcDbLinetypeTableRecord
  2
DOTTED
 70
     0
  3
Dotted
 72
    65
 73
     2
 40
1.0
 49
0.0
 74
     0
 49
-1.0
 74
     0
  0
LTYPE
  5
41
330
5
100
AcDbSymbolTableRecord
100
AcDbLinetypeTableRecord
  2
DOT_CENTER
 70
     0
  3
Dot_Center
 72
    65
 73
     4
 40
14.0
 49
12.0
 74
     0
 49
-1.0
 74
     0
 49
0.0
 74
     0
 49
-1.0
 74
     0
  0
LTYPE
  5
42
330
5
100
AcDbSymbolTableRecord
100
AcDbLinetypeTableRecord
  2
LONG_DASHED
 70
     0
  3
Long_Dashed
 72
    65
 73
     2
 40
15.0
 49
10.0
 74
     0
 49
-5.0
 74
     0
  0
LTYPE
  5
43
330
5
100
AcDbSymbolTableRecord
100
AcDbLinetypeTableRecord
  2
DASH_CENTER
 70
     0
  3
Dash_Center
 72
    65
 73
     4
 40
14.0
 49
11.0
 74
     0
 49
-1.0
 74
     0
 49
1.0
 74
     0
 49
-1.0
 74
     0
  0
LTYPE
  5
44
330
5
100
AcDbSymbolTableRecord
100
AcDbLinetypeTableRecord
  2
PHANTOM
 70
     0
  3
Phantom
 72
    65
 73
     6
 40
13.0
 49
10.0
 74
     0
 49
-1.0
 74
     0
 49
0.0
 74
     0
 49
-1.0
 74
     0
 49
0.0
 74
     0
 49
-1.0
 74
     0
  0
LTYPE
  5
45
330
5
100
AcDbSymbolTableRecord
100
AcDbLinetypeTableRecord
  2
CENTER_DASH_DASH
 70
     0
  3
Center_Dash_Dash
 72
    65
 73
     6
 40
14.0
 49
9.0
 74
     0
 49
-1.0
 74
     0
 49
1.0
 74
     0
 49
-1.0
 74
     0
 49
1.0
 74
     0
 49
-1.0
 74
     0
  0
ENDTAB
  0
TABLE
  2
LAYER
  5
2
330
0
100
AcDbSymbolTable
 70
     4
  0
LAYER
  5
10
330
2
100
AcDbSymbolTableRecord
100
AcDbLayerTableRecord
  2
0
 70
     0
 62
     7
  6
Continuous
370
    -3
390
F
  0
LAYER
  5
46
330
2
100
AcDbSymbolTableRecord
100
AcDbLayerTableRecord
  2
1
 70
     0
 62
     7
  6
Continuous
370
    -3
390
F
  0
LAYER
  5
47
330
2
100
AcDbSymbolTableRecord
100
AcDbLayerTableRecord
  2
2
 70
     0
 62
     7
  6
Continuous
370
    -3
390
F
  0
LAYER
  5
48
330
2
100
AcDbSymbolTableRecord
100
AcDbLayerTableRecord
  2
3
 70
     0
 62
     7
  6
Continuous
370
    -3
390
F
  0
ENDTAB
  0
TABLE
  2
STYLE
  5
3
330
0
100
AcDbSymbolTable
 70
     1
  0
STYLE
  5
11
330
3
100
AcDbSymbolTableRecord
100
AcDbTextStyleTableRecord
  2
Standard
 70
     0
 40
0.0
 41
1.0
 50
0.0
 71
     0
 42
0.2
  3
txt
  4

  0
ENDTAB
  0
TABLE
  2
VIEW
  5
6
330
0
100
AcDbSymbolTable
 70
     0
  0
ENDTAB
  0
TABLE
  2
UCS
  5
7
330
0
100
AcDbSymbolTable
 70
     0
  0
ENDTAB
  0
TABLE
  2
APPID
  5
9
330
0
100
AcDbSymbolTable
 70
     1
  0
APPID
  5
12
330
9
100
AcDbSymbolTableRecord
100
AcDbRegAppTableRecord
  2
ACAD
 70
     0
  0
ENDTAB
  0
TABLE
  2
DIMSTYLE
  5
A
330
0
100
AcDbSymbolTable
 70
     1
100
AcDbDimStyleTable
  0
DIMSTYLE
105
27
330
A
100
AcDbSymbolTableRecord
100
AcDbDimStyleTableRecord
  2
Standard
 70
     0
340
11
  0
ENDTAB
  0
TABLE
  2
BLOCK_RECORD
  5
1
330
0
100
AcDbSymbolTable
 70
     1
  0
BLOCK_RECORD
  5
1F
330
1
100
AcDbSymbolTableRecord
100
AcDbBlockTableRecord
  2
*Model_Space
340
22
  0
BLOCK_RECORD
  5
1B
330
1
100
AcDbSymbolTableRecord
100
AcDbBlockTableRecord
  2
*Paper_Space
340
1E
  0
BLOCK_RECORD
  5
23
330
1
100
AcDbSymbolTableRecord
100
AcDbBlockTableRecord
  2
*Paper_Space0
340
26
  0
ENDTAB
  0
ENDSEC
  0
SECTION
  2
BLOCKS
  0
BLOCK
  5
20
330
1F
100
AcDbEntity
  8
0
100
AcDbBlockBegin
  2
*Model_Space
 70
     0
 10
0.0
 20
0.0
 30
0.0
  3
*Model_Space
  1

  0
ENDBLK
  5
21
330
1F
100
AcDbEntity
  8
0
100
AcDbBlockEnd
  0
BLOCK
  5
1C
330
1B
100
AcDbEntity
 67
     1
  8
0
100
AcDbBlockBegin
  2
*Paper_Space
 70
     0
 10
0.0
 20
0.0
 30
0.0
  3
*Paper_Space
  1

  0
ENDBLK
  5
1D
330
1B
100
AcDbEntity
 67
     1
  8
0
100
AcDbBlockEnd
  0
BLOCK
  5
24
330
23
100
AcDbEntity
  8
0
100
AcDbBlockBegin
  2
*Paper_Space0
 70
     0
 10
0.0
 20
0.0
 30
0.0
  3
*Paper_Space0
  1

  0
ENDBLK
  5
25
330
23
100
AcDbEntity
  8
0
100
AcDbBlockEnd
  0
ENDSEC
  0
SECTION
  2
ENTITIES
  0
POINT
  5
49
330
1F
100
AcDbEntity
  8
1
 62
     7
100
AcDbPoint
 10
104.242857214201
 20
-84.875574741909
 30
0.0
  0
POINT
  5
4A
330
1F
100
AcDbEntity
  8
1
 62
     7
100
AcDbPoint
 10
78.6696317242012
 20
310.124425258091
 30
0.0
  0
POINT
  5
4B
330
1F
100
AcDbEntity
  8
1
 62
     7
100
AcDbPoint
 10
104.242857214201
 20
-84.875574741909
 30
0.0
  0
POINT
  5
4C
330
1F
100
AcDbEntity
  8
1
 62
     7
100
AcDbPoint
 10
78.6696317242012
 20
310.124425258091
 30
0.0
  0
POINT
  5
4D
330
1F
100
AcDbEntity
  8
1
 62
     7
100
AcDbPoint
 10
104.242857214201
 20
-84.875574741909
 30
0.0
  0
POINT
  5
4E
330
1F
100
AcDbEntity
  8
1
 62
     7
100
AcDbPoint
 10
104.242857214201
 20
-84.875574741909
 30
0.0
  0
POINT
  5
4F
330
1F
100
AcDbEntity
  8
1
 62
     7
100
AcDbPoint
 10
78.6696317242012
 20
310.124425258091
 30
0.0
  0
POINT
  5
50
330
1F
100
AcDbEntity
  8
1
 62
     7
100
AcDbPoint
 10
78.6696317242012
 20
310.124425258091
 30
0.0
  0
POINT
  5
51
330
1F
100
AcDbEntity
  8
1
 62
     7
100
AcDbPoint
 10
104.242857214201
 20
-84.875574741909
 30
0.0
  0
POINT
  5
52
330
1F
100
AcDbEntity
  8
1
 62
     7
100
AcDbPoint
 10
78.6696317242012
 20
310.124425258091
 30
0.0
  0
POINT
  5
53
330
1F
100
AcDbEntity
  8
1
 62
     7
100
AcDbPoint
 10
104.242857214201
 20
-84.875574741909
 30
0.0
  0
POINT
  5
54
330
1F
100
AcDbEntity
  8
1
 62
     7
100
AcDbPoint
 10
78.6696317242012
 20
310.124425258091
 30
0.0
  0
POINT
  5
55
330
1F
100
AcDbEntity
  8
1
 62
     7
100
AcDbPoint
 10
104.242857214201
 20
-84.875574741909
 30
0.0
  0
POINT
  5
56
330
1F
100
AcDbEntity
  8
1
 62
     7
100
AcDbPoint
 10
78.6696317242012
 20
310.124425258091
 30
0.0
  0
LINE
  5
57
330
1F
100
AcDbEntity
  8
1
  6
Continuous
 62
     4
100
AcDbLine
 10
18.2231728491942
 20
-95.135874985972
 30
0.0
 11
19.2231728491942
 21
-95.760874985972
 31
0.0
  0
LINE
  5
58
330
1F
100
AcDbEntity
  8
1
  6
Continuous
 62
     4
100
AcDbLine
 10
19.5981728491942
 20
-94.823374985972
 30
0.0
 11
18.7856728491942
 21
-94.198374985972
 31
0.0
  0
LINE
  5
59
330
1F
100
AcDbEntity
  8
1
  6
Continuous
 62
     4
100
AcDbLine
 10
20.2856728491942
 20
-94.073374985972
 30
0.0
 11
20.7231728491942
 21
-94.510874985972
 31
0.0
  0
LINE
  5
5A
330
1F
100
AcDbEntity
  8
1
  6
Continuous
 62
     4
100
AcDbLine
 10
21.0356728491942
 20
-94.198374985972
 30
0.0
 11
20.5981728491942
 21
-93.760874985972
 31
0.0
  0
LINE
  5
5B
330
1F
100
AcDbEntity
  8
1
  6
Continuous
 62
     4
100
AcDbLine
 10
20.7231728491942
 20
-96.073374985972
 30
0.0
 11
21.4106728491942
 21
-95.135874985972
 31
0.0
  0
LINE
  5
5C
330
1F
100
AcDbEntity
  8
1
  6
Continuous
 62
     4
100
AcDbLine
 10
19.5981728491942
 20
-97.010874985972
 30
0.0
 11
20.7231728491942
 21
-96.073374985972
 31
0.0
  0
LINE
  5
5D
330
1F
100
AcDbEntity
  8
1
  6
Continuous
 62
     4
100
AcDbLine
 10
18.5356728491942
 20
-97.635874985972
 30
0.0
 11
19.5981728491942
 21
-97.010874985972
 31
0.0
  0
LINE
  5
5E
330
1F
100
AcDbEntity
  8
1
  6
Continuous
 62
     4
100
AcDbLine
 10
15.8481728491942
 20
-96.260874985972
 30
0.0
 11
16.2856728491942
 21
-96.885874985972
 31
0.0
  0
LINE
  5
5F
330
1F
100
AcDbEntity
  8
1
  6
Continuous
 62
     4
100
AcDbLine
 10
15.2856728491942
 20
-95.760874985972
 30
0.0
 11
15.8481728491942
 21
-96.260874985972
 31
0.0
  0
LINE
  5
60
330
1F
100
AcDbEntity
  8
1
  6
Continuous
 62
     4
100
AcDbLine
 10
14.9106728491942
 20
-93.760874985972
 30
0.0
 11
15.1606728491942
 21
-94.073374985972
 31
0.0
  0
LINE
  5
61
330
1F
100
AcDbEntity
  8
1
  6
Continuous
 62
     4
100
AcDbLine
 10
14.3481728491942
 20
-93.448374985972
 30
0.0
 11
14.9106728491942
 21
-93.760874985972
 31
0.0
  0
LINE
  5
62
330
1F
100
AcDbEntity
  8
1
  6
Continuous
 62
     4
100
AcDbLine
 10
15.5981728491942
 20
-94.698374985972
 30
0.0
 11
13.6606728491942
 21
-94.698374985972
 31
0.0
  0
LINE
  5
63
330
1F
100
AcDbEntity
  8
1
  6
Continuous
 62
     4
100
AcDbLine
 10
14.5981728491942
 20
-95.760874985972
 30
0.0
 11
15.5981728491942
 21
-94.698374985972
 31
0.0
  0
LINE
  5
64
330
1F
100
AcDbEntity
  8
1
  6
Continuous
 62
     4
100
AcDbLine
 10
13.2231728491942
 20
-96.698374985972
 30
0.0
 11
14.5981728491942
 21
-95.760874985972
 31
0.0
  0
LINE
  5
65
330
1F
100
AcDbEntity
  8
1
  6
Continuous
 62
     4
100
AcDbLine
 10
14.7856728491942
 20
-97.635874985972
 30
0.0
 11
14.7856728491942
 21
-95.635874985972
 31
0.0
  0
LINE
  5
66
330
1F
100
AcDbEntity
  8
1
  6
Continuous
 62
     4
100
AcDbLine
 10
8.0356728491942
 20
-98.135874985972
 30
0.0
 11
11.0356728491942
 21
-98.135874985972
 31
0.0
  0
LINE
  5
67
330
1F
100
AcDbEntity
  8
1
  6
Continuous
 62
     4
100
AcDbLine
 10
10.7856728491942
 20
-94.885874985972
 30
0.0
 11
8.0356728491942
 21
-98.135874985972
 31
0.0
  0
LINE
  5
68
330
1F
100
AcDbEntity
  8
1
  6
Continuous
 62
     4
100
AcDbLine
 10
11.0356728491942
 20
-94.385874985972
 30
0.0
 11
10.7856728491942
 21
-94.885874985972
 31
0.0
  0
LINE
  5
69
330
1F
100
AcDbEntity
  8
1
  6
Continuous
 62
     4
100
AcDbLine
 10
11.0356728491942
 20
-93.885874985972
 30
0.0
 11
11.0356728491942
 21
-94.385874985972
 31
0.0
  0
LINE
  5
6A
330
1F
100
AcDbEntity
  8
1
  6
Continuous
 62
     4
100
AcDbLine
 10
10.7856728491942
 20
-93.510874985972
 30
0.0
 11
11.0356728491942
 21
-93.885874985972
 31
0.0
  0
LINE
  5
6B
330
1F
100
AcDbEntity
  8
1
  6
Continuous
 62
     4
100
AcDbLine
 10
10.4106728491942
 20
-93.260874985972
 30
0.0
 11
10.7856728491942
 21
-93.510874985972
 31
0.0
  0
LINE
  5
6C
330
1F
100
AcDbEntity
  8
1
  6
Continuous
 62
     4
100
AcDbLine
 10
9.9106728491942
 20
-93.135874985972
 30
0.0
 11
10.4106728491942
 21
-93.260874985972
 31
0.0
  0
LINE
  5
6D
330
1F
100
AcDbEntity
  8
1
  6
Continuous
 62
     4
100
AcDbLine
 10
9.1606728491942
 20
-93.135874985972
 30
0.0
 11
9.9106728491942
 21
-93.135874985972
 31
0.0
  0
LINE
  5
6E
330
1F
100
AcDbEntity
  8
1
  6
Continuous
 62
     4
100
AcDbLine
 10
8.6606728491942
 20
-93.260874985972
 30
0.0
 11
9.1606728491942
 21
-93.135874985972
 31
0.0
  0
LINE
  5
6F
330
1F
100
AcDbEntity
  8
1
  6
Continuous
 62
     4
100
AcDbLine
 10
8.2856728491942
 20
-93.510874985972
 30
0.0
 11
8.6606728491942
 21
-93.260874985972
 31
0.0
  0
LINE
  5
70
330
1F
100
AcDbEntity
  8
1
  6
Continuous
 62
     4
100
AcDbLine
 10
8.0356728491942
 20
-93.885874985972
 30
0.0
 11
8.2856728491942
 21
-93.510874985972
 31
0.0
  0
LINE
  5
71
330
1F
100
AcDbEntity
  8
1
  6
Continuous
 62
     4
100
AcDbLine
 10
4.5356728491942
 20
-98.135874985972
 30
0.0
 11
6.5356728491942
 21
-93.135874985972
 31
0.0
  0
LINE
  5
72
330
1F
100
AcDbEntity
  8
1
  6
Continuous
 62
     4
100
AcDbLine
 10
3.0356728491942
 20
-93.135874985972
 30
0.0
 11
3.0356728491942
 21
-98.135874985972
 31
0.0
  0
LINE
  5
73
330
1F
100
AcDbEntity
  8
1
  6
Continuous
 62
     4
100
AcDbLine
 10
1.5356728491942
 20
-94.635874985972
 30
0.0
 11
3.0356728491942
 21
-93.135874985972
 31
0.0
  0
LINE
  5
74
330
1F
100
AcDbEntity
  8
1
  6
Continuous
 62
     4
100
AcDbLine
 10
-1.8393271508058
 20
-98.135874985972
 30
0.0
 11
0.0356728491942
 21
-98.135874985972
 31
0.0
  0
LINE
  5
75
330
1F
100
AcDbEntity
  8
1
  6
Continuous
 62
     4
100
AcDbLine
 10
-2.3393271508058
 20
-98.010874985972
 30
0.0
 11
-1.8393271508058
 21
-98.135874985972
 31
0.0
  0
LINE
  5
76
330
1F
100
AcDbEntity
  8
1
  6
Continuous
 62
     4
100
AcDbLine
 10
-2.5893271508058
 20
-97.885874985972
 30
0.0
 11
-2.3393271508058
 21
-98.010874985972
 31
0.0
  0
LINE
  5
77
330
1F
100
AcDbEntity
  8
1
  6
Continuous
 62
     4
100
AcDbLine
 10
-2.8393271508058
 20
-97.635874985972
 30
0.0
 11
-2.5893271508058
 21
-97.885874985972
 31
0.0
  0
LINE
  5
78
330
1F
100
AcDbEntity
  8
1
  6
Continuous
 62
     4
100
AcDbLine
 10
-2.9643271508058
 20
-97.135874985972
 30
0.0
 11
-2.8393271508058
 21
-97.635874985972
 31
0.0
  0
LINE
  5
79
330
1F
100
AcDbEntity
  8
1
  6
Continuous
 62
     4
100
AcDbLine
 10
-2.9643271508058
 20
-95.635874985972
 30
0.0
 11
-2.9643271508058
 21
-97.135874985972
 31
0.0
  0
LINE
  5
7A
330
1F
100
AcDbEntity
  8
1
  6
Continuous
 62
     4
100
AcDbLine
 10
-2.8393271508058
 20
-95.135874985972
 30
0.0
 11
-2.9643271508058
 21
-95.635874985972
 31
0.0
  0
LINE
  5
7B
330
1F
100
AcDbEntity
  8
1
  6
Continuous
 62
     4
100
AcDbLine
 10
-2.5893271508058
 20
-94.885874985972
 30
0.0
 11
-2.8393271508058
 21
-95.135874985972
 31
0.0
  0
LINE
  5
7C
330
1F
100
AcDbEntity
  8
1
  6
Continuous
 62
     4
100
AcDbLine
 10
-2.3393271508058
 20
-94.760874985972
 30
0.0
 11
-2.5893271508058
 21
-94.885874985972
 31
0.0
  0
LINE
  5
7D
330
1F
100
AcDbEntity
  8
1
  6
Continuous
 62
     4
100
AcDbLine
 10
-1.8393271508058
 20
-94.635874985972
 30
0.0
 11
-2.3393271508058
 21
-94.760874985972
 31
0.0
  0
LINE
  5
7E
330
1F
100
AcDbEntity
  8
1
  6
Continuous
 62
     4
100
AcDbLine
 10
0.0356728491942
 20
-94.635874985972
 30
0.0
 11
-1.8393271508058
 21
-94.635874985972
 31
0.0
  0
LINE
  5
7F
330
1F
100
AcDbEntity
  8
1
  6
Continuous
 62
     4
100
AcDbLine
 10
-7.9643271508058
 20
-98.135874985972
 30
0.0
 11
-7.9643271508058
 21
-95.635874985972
 31
0.0
  0
LINE
  5
80
330
1F
100
AcDbEntity
  8
1
  6
Continuous
 62
     4
100
AcDbLine
 10
-5.9643271508058
 20
-95.635874985972
 30
0.0
 11
-4.4643271508058
 21
-98.135874985972
 31
0.0
  0
LINE
  5
81
330
1F
100
AcDbEntity
  8
1
  6
Continuous
 62
     4
100
AcDbLine
 10
-5.5893271508058
 20
-95.635874985972
 30
0.0
 11
-5.9643271508058
 21
-95.635874985972
 31
0.0
  0
LINE
  5
82
330
1F
100
AcDbEntity
  8
1
  6
Continuous
 62
     4
100
AcDbLine
 10
-5.0893271508058
 20
-95.510874985972
 30
0.0
 11
-5.5893271508058
 21
-95.635874985972
 31
0.0
  0
LINE
  5
83
330
1F
100
AcDbEntity
  8
1
  6
Continuous
 62
     4
100
AcDbLine
 10
-4.7143271508058
 20
-95.260874985972
 30
0.0
 11
-5.0893271508058
 21
-95.510874985972
 31
0.0
  0
LINE
  5
84
330
1F
100
AcDbEntity
  8
1
  6
Continuous
 62
     4
100
AcDbLine
 10
-4.5893271508058
 20
-95.010874985972
 30
0.0
 11
-4.7143271508058
 21
-95.260874985972
 31
0.0
  0
LINE
  5
85
330
1F
100
AcDbEntity
  8
1
  6
Continuous
 62
     4
100
AcDbLine
 10
-4.4643271508058
 20
-94.635874985972
 30
0.0
 11
-4.5893271508058
 21
-95.010874985972
 31
0.0
  0
LINE
  5
86
330
1F
100
AcDbEntity
  8
1
  6
Continuous
 62
     4
100
AcDbLine
 10
-4.4643271508058
 20
-94.135874985972
 30
0.0
 11
-4.4643271508058
 21
-94.635874985972
 31
0.0
  0
LINE
  5
87
330
1F
100
AcDbEntity
  8
1
  6
Continuous
 62
     4
100
AcDbLine
 10
-4.5893271508058
 20
-93.760874985972
 30
0.0
 11
-4.4643271508058
 21
-94.135874985972
 31
0.0
  0
LINE
  5
88
330
1F
100
AcDbEntity
  8
1
  6
Continuous
 62
     4
100
AcDbLine
 10
-4.7143271508058
 20
-93.510874985972
 30
0.0
 11
-4.5893271508058
 21
-93.760874985972
 31
0.0
  0
LINE
  5
89
330
1F
100
AcDbEntity
  8
1
  6
Continuous
 62
     4
100
AcDbLine
 10
-5.0893271508058
 20
-93.260874985972
 30
0.0
 11
-4.7143271508058
 21
-93.510874985972
 31
0.0
  0
LINE
  5
8A
330
1F
100
AcDbEntity
  8
1
  6
Continuous
 62
     4
100
AcDbLine
 10
-5.5893271508058
 20
-93.135874985972
 30
0.0
 11
-5.0893271508058
 21
-93.260874985972
 31
0.0
  0
LINE
  5
8B
330
1F
100
AcDbEntity
  8
1
  6
Continuous
 62
     4
100
AcDbLine
 10
-7.9643271508058
 20
-93.135874985972
 30
0.0
 11
-5.5893271508058
 21
-93.135874985972
 31
0.0
  0
LINE
  5
8C
330
1F
100
AcDbEntity
  8
1
  6
Continuous
 62
     4
100
AcDbLine
 10
-7.9643271508058
 20
-95.635874985972
 30
0.0
 11
-7.9643271508058
 21
-93.135874985972
 31
0.0
  0
LINE
  5
8D
330
1F
100
AcDbEntity
  8
1
  6
Continuous
 62
     4
100
AcDbLine
 10
-5.9643271508058
 20
-95.635874985972
 30
0.0
 11
-7.9643271508058
 21
-95.635874985972
 31
0.0
  0
LINE
  5
8E
330
1F
100
AcDbEntity
  8
1
  6
Continuous
 62
     4
100
AcDbLine
 10
219.586702090182
 20
-7.66671181662772
 30
0.0
 11
217.711702090182
 21
-7.66671181662772
 31
0.0
  0
LINE
  5
8F
330
1F
100
AcDbEntity
  8
1
  6
Continuous
 62
     4
100
AcDbLine
 10
219.961702090182
 20
-7.54171181662772
 30
0.0
 11
219.586702090182
 21
-7.66671181662772
 31
0.0
  0
LINE
  5
90
330
1F
100
AcDbEntity
  8
1
  6
Continuous
 62
     4
100
AcDbLine
 10
220.336702090182
 20
-7.29171181662772
 30
0.0
 11
219.961702090182
 21
-7.54171181662772
 31
0.0
  0
LINE
  5
91
330
1F
100
AcDbEntity
  8
1
  6
Continuous
 62
     4
100
AcDbLine
 10
220.586702090182
 20
-6.91671181662772
 30
0.0
 11
220.336702090182
 21
-7.29171181662772
 31
0.0
  0
LINE
  5
92
330
1F
100
AcDbEntity
  8
1
  6
Continuous
 62
     4
100
AcDbLine
 10
220.711702090182
 20
-6.41671181662772
 30
0.0
 11
220.586702090182
 21
-6.91671181662772
 31
0.0
  0
LINE
  5
93
330
1F
100
AcDbEntity
  8
1
  6
Continuous
 62
     4
100
AcDbLine
 10
220.711702090182
 20
-5.66671181662772
 30
0.0
 11
220.711702090182
 21
-6.41671181662772
 31
0.0
  0
LINE
  5
94
330
1F
100
AcDbEntity
  8
1
  6
Continuous
 62
     4
100
AcDbLine
 10
220.586702090182
 20
-5.16671181662772
 30
0.0
 11
220.711702090182
 21
-5.66671181662772
 31
0.0
  0
LINE
  5
95
330
1F
100
AcDbEntity
  8
1
  6
Continuous
 62
     4
100
AcDbLine
 10
220.211702090182
 20
-4.79171181662772
 30
0.0
 11
220.586702090182
 21
-5.16671181662772
 31
0.0
  0
LINE
  5
96
330
1F
100
AcDbEntity
  8
1
  6
Continuous
 62
     4
100
AcDbLine
 10
219.586702090182
 20
-4.66671181662772
 30
0.0
 11
220.211702090182
 21
-4.79171181662772
 31
0.0
  0
LINE
  5
97
330
1F
100
AcDbEntity
  8
1
  6
Continuous
 62
     4
100
AcDbLine
 10
217.711702090182
 20
-4.66671181662772
 30
0.0
 11
219.586702090182
 21
-4.66671181662772
 31
0.0
  0
LINE
  5
98
330
1F
100
AcDbEntity
  8
1
  6
Continuous
 62
     4
100
AcDbLine
 10
217.711702090182
 20
-2.66671181662772
 30
0.0
 11
217.711702090182
 21
-4.66671181662772
 31
0.0
  0
LINE
  5
99
330
1F
100
AcDbEntity
  8
1
  6
Continuous
 62
     4
100
AcDbLine
 10
220.461702090182
 20
-2.66671181662772
 30
0.0
 11
217.711702090182
 21
-2.66671181662772
 31
0.0
  0
LINE
  5
9A
330
1F
100
AcDbEntity
  8
1
  6
Continuous
 62
     4
100
AcDbLine
 10
214.711702090182
 20
-7.16671181662772
 30
0.0
 11
213.586702090182
 21
-7.66671181662772
 31
0.0
  0
LINE
  5
9B
330
1F
100
AcDbEntity
  8
1
  6
Continuous
 62
     4
100
AcDbLine
 10
215.586702090182
 20
-6.41671181662772
 30
0.0
 11
214.711702090182
 21
-7.16671181662772
 31
0.0
  0
LINE
  5
9C
330
1F
100
AcDbEntity
  8
1
  6
Continuous
 62
     4
100
AcDbLine
 10
215.961702090182
 20
-5.91671181662772
 30
0.0
 11
215.586702090182
 21
-6.41671181662772
 31
0.0
  0
LINE
  5
9D
330
1F
100
AcDbEntity
  8
1
  6
Continuous
 62
     4
100
AcDbLine
 10
216.086702090182
 20
-5.41671181662772
 30
0.0
 11
215.961702090182
 21
-5.91671181662772
 31
0.0
  0
LINE
  5
9E
330
1F
100
AcDbEntity
  8
1
  6
Continuous
 62
     4
100
AcDbLine
 10
216.211702090182
 20
-4.79171181662772
 30
0.0
 11
216.086702090182
 21
-5.41671181662772
 31
0.0
  0
LINE
  5
9F
330
1F
100
AcDbEntity
  8
1
  6
Continuous
 62
     4
100
AcDbLine
 10
216.211702090182
 20
-3.91671181662772
 30
0.0
 11
216.211702090182
 21
-4.79171181662772
 31
0.0
  0
LINE
  5
A0
330
1F
100
AcDbEntity
  8
1
  6
Continuous
 62
     4
100
AcDbLine
 10
216.086702090182
 20
-3.41671181662772
 30
0.0
 11
216.211702090182
 21
-3.91671181662772
 31
0.0
  0
LINE
  5
A1
330
1F
100
AcDbEntity
  8
1
  6
Continuous
 62
     4
100
AcDbLine
 10
215.836702090182
 20
-3.04171181662772
 30
0.0
 11
216.086702090182
 21
-3.41671181662772
 31
0.0
  0
LINE
  5
A2
330
1F
100
AcDbEntity
  8
1
  6
Continuous
 62
     4
100
AcDbLine
 10
215.461702090182
 20
-2.79171181662772
 30
0.0
 11
215.836702090182
 21
-3.04171181662772
 31
0.0
  0
LINE
  5
A3
330
1F
100
AcDbEntity
  8
1
  6
Continuous
 62
     4
100
AcDbLine
 10
215.086702090182
 20
-2.66671181662772
 30
0.0
 11
215.461702090182
 21
-2.79171181662772
 31
0.0
  0
LINE
  5
A4
330
1F
100
AcDbEntity
  8
1
  6
Continuous
 62
     4
100
AcDbLine
 10
214.336702090182
 20
-2.66671181662772
 30
0.0
 11
215.086702090182
 21
-2.66671181662772
 31
0.0
  0
LINE
  5
A5
330
1F
100
AcDbEntity
  8
1
  6
Continuous
 62
     4
100
AcDbLine
 10
213.961702090182
 20
-2.79171181662772
 30
0.0
 11
214.336702090182
 21
-2.66671181662772
 31
0.0
  0
LINE
  5
A6
330
1F
100
AcDbEntity
  8
1
  6
Continuous
 62
     4
100
AcDbLine
 10
213.586702090182
 20
-3.04171181662772
 30
0.0
 11
213.961702090182
 21
-2.79171181662772
 31
0.0
  0
LINE
  5
A7
330
1F
100
AcDbEntity
  8
1
  6
Continuous
 62
     4
100
AcDbLine
 10
213.336702090182
 20
-3.41671181662772
 30
0.0
 11
213.586702090182
 21
-3.04171181662772
 31
0.0
  0
LINE
  5
A8
330
1F
100
AcDbEntity
  8
1
  6
Continuous
 62
     4
100
AcDbLine
 10
213.211702090182
 20
-3.91671181662772
 30
0.0
 11
213.336702090182
 21
-3.41671181662772
 31
0.0
  0
LINE
  5
A9
330
1F
100
AcDbEntity
  8
1
  6
Continuous
 62
     4
100
AcDbLine
 10
213.211702090182
 20
-4.16671181662772
 30
0.0
 11
213.211702090182
 21
-3.91671181662772
 31
0.0
  0
LINE
  5
AA
330
1F
100
AcDbEntity
  8
1
  6
Continuous
 62
     4
100
AcDbLine
 10
213.336702090182
 20
-4.66671181662772
 30
0.0
 11
213.211702090182
 21
-4.16671181662772
 31
0.0
  0
LINE
  5
AB
330
1F
100
AcDbEntity
  8
1
  6
Continuous
 62
     4
100
AcDbLine
 10
213.586702090182
 20
-5.04171181662772
 30
0.0
 11
213.336702090182
 21
-4.66671181662772
 31
0.0
  0
LINE
  5
AC
330
1F
100
AcDbEntity
  8
1
  6
Continuous
 62
     4
100
AcDbLine
 10
213.961702090182
 20
-5.29171181662772
 30
0.0
 11
213.586702090182
 21
-5.04171181662772
 31
0.0
  0
LINE
  5
AD
330
1F
100
AcDbEntity
  8
1
  6
Continuous
 62
     4
100
AcDbLine
 10
214.336702090182
 20
-5.41671181662772
 30
0.0
 11
213.961702090182
 21
-5.29171181662772
 31
0.0
  0
LINE
  5
AE
330
1F
100
AcDbEntity
  8
1
  6
Continuous
 62
     4
100
AcDbLine
 10
216.086702090182
 20
-5.41671181662772
 30
0.0
 11
214.336702090182
 21
-5.41671181662772
 31
0.0
  0
LINE
  5
AF
330
1F
100
AcDbEntity
  8
1
  6
Continuous
 62
     4
100
AcDbLine
 10
211.711702090182
 20
-2.66671181662772
 30
0.0
 11
209.211702090182
 21
-7.66671181662772
 31
0.0
  0
LINE
  5
B0
330
1F
100
AcDbEntity
  8
1
  6
Continuous
 62
     4
100
AcDbLine
 10
208.711702090182
 20
-2.66671181662772
 30
0.0
 11
211.711702090182
 21
-2.66671181662772
 31
0.0
  0
LINE
  5
B1
330
1F
100
AcDbEntity
  8
1
  6
Continuous
 62
     4
100
AcDbLine
 10
208.711702090182
 20
-3.16671181662772
 30
0.0
 11
208.711702090182
 21
-2.66671181662772
 31
0.0
  0
LINE
  5
B2
330
1F
100
AcDbEntity
  8
1
  6
Continuous
 62
     4
100
AcDbLine
 10
189.711702090182
 20
-3.04171181662772
 30
0.0
 11
190.086702090182
 21
-2.79171181662772
 31
0.0
  0
LINE
  5
B3
330
1F
100
AcDbEntity
  8
1
  6
Continuous
 62
     4
100
AcDbLine
 10
189.461702090182
 20
-3.41671181662772
 30
0.0
 11
189.711702090182
 21
-3.04171181662772
 31
0.0
  0
LINE
  5
B4
330
1F
100
AcDbEntity
  8
1
  6
Continuous
 62
     4
100
AcDbLine
 10
189.461702090182
 20
-3.91671181662772
 30
0.0
 11
189.461702090182
 21
-3.41671181662772
 31
0.0
  0
LINE
  5
B5
330
1F
100
AcDbEntity
  8
1
  6
Continuous
 62
     4
100
AcDbLine
 10
189.711702090182
 20
-4.29171181662772
 30
0.0
 11
189.461702090182
 21
-3.91671181662772
 31
0.0
  0
LINE
  5
B6
330
1F
100
AcDbEntity
  8
1
  6
Continuous
 62
     4
100
AcDbLine
 10
190.086702090182
 20
-4.54171181662772
 30
0.0
 11
189.711702090182
 21
-4.29171181662772
 31
0.0
  0
LINE
  5
B7
330
1F
100
AcDbEntity
  8
1
  6
Continuous
 62
     4
100
AcDbLine
 10
190.461702090182
 20
-4.66671181662772
 30
0.0
 11
190.086702090182
 21
-4.54171181662772
 31
0.0
  0
LINE
  5
B8
330
1F
100
AcDbEntity
  8
1
  6
Continuous
 62
     4
100
AcDbLine
 10
190.961702090182
 20
-4.66671181662772
 30
0.0
 11
190.461702090182
 21
-4.66671181662772
 31
0.0
  0
LINE
  5
B9
330
1F
100
AcDbEntity
  8
1
  6
Continuous
 62
     4
100
AcDbLine
 10
191.336702090182
 20
-4.54171181662772
 30
0.0
 11
190.961702090182
 21
-4.66671181662772
 31
0.0
  0
LINE
  5
BA
330
1F
100
AcDbEntity
  8
1
  6
Continuous
 62
     4
100
AcDbLine
 10
191.711702090182
 20
-4.29171181662772
 30
0.0
 11
191.336702090182
 21
-4.54171181662772
 31
0.0
  0
LINE
  5
BB
330
1F
100
AcDbEntity
  8
1
  6
Continuous
 62
     4
100
AcDbLine
 10
191.961702090182
 20
-3.91671181662772
 30
0.0
 11
191.711702090182
 21
-4.29171181662772
 31
0.0
  0
LINE
  5
BC
330
1F
100
AcDbEntity
  8
1
  6
Continuous
 62
     4
100
AcDbLine
 10
191.961702090182
 20
-3.41671181662772
 30
0.0
 11
191.961702090182
 21
-3.91671181662772
 31
0.0
  0
LINE
  5
BD
330
1F
100
AcDbEntity
  8
1
  6
Continuous
 62
     4
100
AcDbLine
 10
191.711702090182
 20
-3.04171181662772
 30
0.0
 11
191.961702090182
 21
-3.41671181662772
 31
0.0
  0
LINE
  5
BE
330
1F
100
AcDbEntity
  8
1
  6
Continuous
 62
     4
100
AcDbLine
 10
191.336702090182
 20
-2.79171181662772
 30
0.0
 11
191.711702090182
 21
-3.04171181662772
 31
0.0
  0
LINE
  5
BF
330
1F
100
AcDbEntity
  8
1
  6
Continuous
 62
     4
100
AcDbLine
 10
190.961702090182
 20
-2.66671181662772
 30
0.0
 11
191.336702090182
 21
-2.79171181662772
 31
0.0
  0
LINE
  5
C0
330
1F
100
AcDbEntity
  8
1
  6
Continuous
 62
     4
100
AcDbLine
 10
190.461702090182
 20
-2.66671181662772
 30
0.0
 11
190.961702090182
 21
-2.66671181662772
 31
0.0
  0
LINE
  5
C1
330
1F
100
AcDbEntity
  8
1
  6
Continuous
 62
     4
100
AcDbLine
 10
190.086702090182
 20
-2.79171181662772
 30
0.0
 11
190.461702090182
 21
-2.66671181662772
 31
0.0
  0
LINE
  5
C2
330
1F
100
AcDbEntity
  8
1
  6
Continuous
 62
     4
100
AcDbLine
 10
191.586702090182
 20
-4.91671181662772
 30
0.0
 11
190.961702090182
 21
-4.66671181662772
 31
0.0
  0
LINE
  5
C3
330
1F
100
AcDbEntity
  8
1
  6
Continuous
 62
     4
100
AcDbLine
 10
191.961702090182
 20
-5.29171181662772
 30
0.0
 11
191.586702090182
 21
-4.91671181662772
 31
0.0
  0
LINE
  5
C4
330
1F
100
AcDbEntity
  8
1
  6
Continuous
 62
     4
100
AcDbLine
 10
192.211702090182
 20
-5.79171181662772
 30
0.0
 11
191.961702090182
 21
-5.29171181662772
 31
0.0
  0
LINE
  5
C5
330
1F
100
AcDbEntity
  8
1
  6
Continuous
 62
     4
100
AcDbLine
 10
192.211702090182
 20
-6.54171181662772
 30
0.0
 11
192.211702090182
 21
-5.79171181662772
 31
0.0
  0
LINE
  5
C6
330
1F
100
AcDbEntity
  8
1
  6
Continuous
 62
     4
100
AcDbLine
 10
191.961702090182
 20
-7.04171181662772
 30
0.0
 11
192.211702090182
 21
-6.54171181662772
 31
0.0
  0
LINE
  5
C7
330
1F
100
AcDbEntity
  8
1
  6
Continuous
 62
     4
100
AcDbLine
 10
191.586702090182
 20
-7.41671181662772
 30
0.0
 11
191.961702090182
 21
-7.04171181662772
 31
0.0
  0
LINE
  5
C8
330
1F
100
AcDbEntity
  8
1
  6
Continuous
 62
     4
100
AcDbLine
 10
191.086702090182
 20
-7.66671181662772
 30
0.0
 11
191.586702090182
 21
-7.41671181662772
 31
0.0
  0
LINE
  5
C9
330
1F
100
AcDbEntity
  8
1
  6
Continuous
 62
     4
100
AcDbLine
 10
190.336702090182
 20
-7.66671181662772
 30
0.0
 11
191.086702090182
 21
-7.66671181662772
 31
0.0
  0
LINE
  5
CA
330
1F
100
AcDbEntity
  8
1
  6
Continuous
 62
     4
100
AcDbLine
 10
189.836702090182
 20
-7.41671181662772
 30
0.0
 11
190.336702090182
 21
-7.66671181662772
 31
0.0
  0
LINE
  5
CB
330
1F
100
AcDbEntity
  8
1
  6
Continuous
 62
     4
100
AcDbLine
 10
189.461702090182
 20
-7.04171181662772
 30
0.0
 11
189.836702090182
 21
-7.41671181662772
 31
0.0
  0
LINE
  5
CC
330
1F
100
AcDbEntity
  8
1
  6
Continuous
 62
     4
100
AcDbLine
 10
189.211702090182
 20
-6.54171181662772
 30
0.0
 11
189.461702090182
 21
-7.04171181662772
 31
0.0
  0
LINE
  5
CD
330
1F
100
AcDbEntity
  8
1
  6
Continuous
 62
     4
100
AcDbLine
 10
189.211702090182
 20
-5.79171181662772
 30
0.0
 11
189.211702090182
 21
-6.54171181662772
 31
0.0
  0
LINE
  5
CE
330
1F
100
AcDbEntity
  8
1
  6
Continuous
 62
     4
100
AcDbLine
 10
189.461702090182
 20
-5.29171181662772
 30
0.0
 11
189.211702090182
 21
-5.79171181662772
 31
0.0
  0
LINE
  5
CF
330
1F
100
AcDbEntity
  8
1
  6
Continuous
 62
     4
100
AcDbLine
 10
189.836702090182
 20
-4.91671181662772
 30
0.0
 11
189.461702090182
 21
-5.29171181662772
 31
0.0
  0
LINE
  5
D0
330
1F
100
AcDbEntity
  8
1
  6
Continuous
 62
     4
100
AcDbLine
 10
190.461702090182
 20
-4.66671181662772
 30
0.0
 11
189.836702090182
 21
-4.91671181662772
 31
0.0
  0
LINE
  5
D1
330
1F
100
AcDbEntity
  8
1
  6
Continuous
 62
     4
100
AcDbLine
 10
187.836702090182
 20
-7.41671181662772
 30
0.0
 11
187.836702090182
 21
-7.54171181662772
 31
0.0
  0
LINE
  5
D2
330
1F
100
AcDbEntity
  8
1
  6
Continuous
 62
     4
100
AcDbLine
 10
187.711702090182
 20
-7.41671181662772
 30
0.0
 11
187.836702090182
 21
-7.41671181662772
 31
0.0
  0
LINE
  5
D3
330
1F
100
AcDbEntity
  8
1
  6
Continuous
 62
     4
100
AcDbLine
 10
187.711702090182
 20
-7.54171181662772
 30
0.0
 11
187.711702090182
 21
-7.41671181662772
 31
0.0
  0
LINE
  5
D4
330
1F
100
AcDbEntity
  8
1
  6
Continuous
 62
     4
100
AcDbLine
 10
187.836702090182
 20
-7.54171181662772
 30
0.0
 11
187.711702090182
 21
-7.54171181662772
 31
0.0
  0
LINE
  5
D5
330
1F
100
AcDbEntity
  8
1
  6
Continuous
 62
     4
100
AcDbLine
 10
187.961702090182
 20
-7.29171181662772
 30
0.0
 11
187.961702090182
 21
-7.66671181662772
 31
0.0
  0
LINE
  5
D6
330
1F
100
AcDbEntity
  8
1
  6
Continuous
 62
     4
100
AcDbLine
 10
187.586702090182
 20
-7.29171181662772
 30
0.0
 11
187.961702090182
 21
-7.29171181662772
 31
0.0
  0
LINE
  5
D7
330
1F
100
AcDbEntity
  8
1
  6
Continuous
 62
     4
100
AcDbLine
 10
187.586702090182
 20
-7.66671181662772
 30
0.0
 11
187.586702090182
 21
-7.29171181662772
 31
0.0
  0
LINE
  5
D8
330
1F
100
AcDbEntity
  8
1
  6
Continuous
 62
     4
100
AcDbLine
 10
187.961702090182
 20
-7.66671181662772
 30
0.0
 11
187.586702090182
 21
-7.66671181662772
 31
0.0
  0
LINE
  5
D9
330
1F
100
AcDbEntity
  8
1
  6
Continuous
 62
     4
100
AcDbLine
 10
186.086702090182
 20
-4.54171181662772
 30
0.0
 11
186.086702090182
 21
-5.79171181662772
 31
0.0
  0
LINE
  5
DA
330
1F
100
AcDbEntity
  8
1
  6
Continuous
 62
     4
100
AcDbLine
 10
185.961702090182
 20
-3.79171181662772
 30
0.0
 11
186.086702090182
 21
-4.54171181662772
 31
0.0
  0
LINE
  5
DB
330
1F
100
AcDbEntity
  8
1
  6
Continuous
 62
     4
100
AcDbLine
 10
185.711702090182
 20
-3.29171181662772
 30
0.0
 11
185.961702090182
 21
-3.79171181662772
 31
0.0
  0
LINE
  5
DC
330
1F
100
AcDbEntity
  8
1
  6
Continuous
 62
     4
100
AcDbLine
 10
185.461702090182
 20
-3.04171181662772
 30
0.0
 11
185.711702090182
 21
-3.29171181662772
 31
0.0
  0
LINE
  5
DD
330
1F
100
AcDbEntity
  8
1
  6
Continuous
 62
     4
100
AcDbLine
 10
185.086702090182
 20
-2.79171181662772
 30
0.0
 11
185.461702090182
 21
-3.04171181662772
 31
0.0
  0
LINE
  5
DE
330
1F
100
AcDbEntity
  8
1
  6
Continuous
 62
     4
100
AcDbLine
 10
184.711702090182
 20
-2.66671181662772
 30
0.0
 11
185.086702090182
 21
-2.79171181662772
 31
0.0
  0
LINE
  5
DF
330
1F
100
AcDbEntity
  8
1
  6
Continuous
 62
     4
100
AcDbLine
 10
184.461702090182
 20
-2.66671181662772
 30
0.0
 11
184.711702090182
 21
-2.66671181662772
 31
0.0
  0
LINE
  5
E0
330
1F
100
AcDbEntity
  8
1
  6
Continuous
 62
     4
100
AcDbLine
 10
184.086702090182
 20
-2.79171181662772
 30
0.0
 11
184.461702090182
 21
-2.66671181662772
 31
0.0
  0
LINE
  5
E1
330
1F
100
AcDbEntity
  8
1
  6
Continuous
 62
     4
100
AcDbLine
 10
183.711702090182
 20
-3.04171181662772
 30
0.0
 11
184.086702090182
 21
-2.79171181662772
 31
0.0
  0
LINE
  5
E2
330
1F
100
AcDbEntity
  8
1
  6
Continuous
 62
     4
100
AcDbLine
 10
183.461702090182
 20
-3.29171181662772
 30
0.0
 11
183.711702090182
 21
-3.04171181662772
 31
0.0
  0
LINE
  5
E3
330
1F
100
AcDbEntity
  8
1
  6
Continuous
 62
     4
100
AcDbLine
 10
183.211702090182
 20
-3.79171181662772
 30
0.0
 11
183.461702090182
 21
-3.29171181662772
 31
0.0
  0
LINE
  5
E4
330
1F
100
AcDbEntity
  8
1
  6
Continuous
 62
     4
100
AcDbLine
 10
183.086702090182
 20
-4.54171181662772
 30
0.0
 11
183.211702090182
 21
-3.79171181662772
 31
0.0
  0
LINE
  5
E5
330
1F
100
AcDbEntity
  8
1
  6
Continuous
 62
     4
100
AcDbLine
 10
183.086702090182
 20
-5.79171181662772
 30
0.0
 11
183.086702090182
 21
-4.54171181662772
 31
0.0
  0
LINE
  5
E6
330
1F
100
AcDbEntity
  8
1
  6
Continuous
 62
     4
100
AcDbLine
 10
183.211702090182
 20
-6.54171181662772
 30
0.0
 11
183.086702090182
 21
-5.79171181662772
 31
0.0
  0
LINE
  5
E7
330
1F
100
AcDbEntity
  8
1
  6
Continuous
 62
     4
100
AcDbLine
 10
183.461702090182
 20
-7.04171181662772
 30
0.0
 11
183.211702090182
 21
-6.54171181662772
 31
0.0
  0
LINE
  5
E8
330
1F
100
AcDbEntity
  8
1
  6
Continuous
 62
     4
100
AcDbLine
 10
183.711702090182
 20
-7.29171181662772
 30
0.0
 11
183.461702090182
 21
-7.04171181662772
 31
0.0
  0
LINE
  5
E9
330
1F
100
AcDbEntity
  8
1
  6
Continuous
 62
     4
100
AcDbLine
 10
184.086702090182
 20
-7.54171181662772
 30
0.0
 11
183.711702090182
 21
-7.29171181662772
 31
0.0
  0
LINE
  5
EA
330
1F
100
AcDbEntity
  8
1
  6
Continuous
 62
     4
100
AcDbLine
 10
184.461702090182
 20
-7.66671181662772
 30
0.0
 11
184.086702090182
 21
-7.54171181662772
 31
0.0
  0
LINE
  5
EB
330
1F
100
AcDbEntity
  8
1
  6
Continuous
 62
     4
100
AcDbLine
 10
184.711702090182
 20
-7.66671181662772
 30
0.0
 11
184.461702090182
 21
-7.66671181662772
 31
0.0
  0
LINE
  5
EC
330
1F
100
AcDbEntity
  8
1
  6
Continuous
 62
     4
100
AcDbLine
 10
185.086702090182
 20
-7.54171181662772
 30
0.0
 11
184.711702090182
 21
-7.66671181662772
 31
0.0
  0
LINE
  5
ED
330
1F
100
AcDbEntity
  8
1
  6
Continuous
 62
     4
100
AcDbLine
 10
185.461702090182
 20
-7.29171181662772
 30
0.0
 11
185.086702090182
 21
-7.54171181662772
 31
0.0
  0
LINE
  5
EE
330
1F
100
AcDbEntity
  8
1
  6
Continuous
 62
     4
100
AcDbLine
 10
185.711702090182
 20
-7.04171181662772
 30
0.0
 11
185.461702090182
 21
-7.29171181662772
 31
0.0
  0
LINE
  5
EF
330
1F
100
AcDbEntity
  8
1
  6
Continuous
 62
     4
100
AcDbLine
 10
185.961702090182
 20
-6.54171181662772
 30
0.0
 11
185.711702090182
 21
-7.04171181662772
 31
0.0
  0
LINE
  5
F0
330
1F
100
AcDbEntity
  8
1
  6
Continuous
 62
     4
100
AcDbLine
 10
186.086702090182
 20
-5.79171181662772
 30
0.0
 11
185.961702090182
 21
-6.54171181662772
 31
0.0
  0
LINE
  5
F1
330
1F
100
AcDbEntity
  8
1
  6
Continuous
 62
     4
100
AcDbLine
 10
219.586702090182
 20
0.66328818337228
 30
0.0
 11
217.711702090182
 21
0.66328818337228
 31
0.0
  0
LINE
  5
F2
330
1F
100
AcDbEntity
  8
1
  6
Continuous
 62
     4
100
AcDbLine
 10
219.961702090182
 20
0.78828818337228
 30
0.0
 11
219.586702090182
 21
0.66328818337228
 31
0.0
  0
LINE
  5
F3
330
1F
100
AcDbEntity
  8
1
  6
Continuous
 62
     4
100
AcDbLine
 10
220.336702090182
 20
1.03828818337228
 30
0.0
 11
219.961702090182
 21
0.78828818337228
 31
0.0
  0
LINE
  5
F4
330
1F
100
AcDbEntity
  8
1
  6
Continuous
 62
     4
100
AcDbLine
 10
220.586702090182
 20
1.41328818337228
 30
0.0
 11
220.336702090182
 21
1.03828818337228
 31
0.0
  0
LINE
  5
F5
330
1F
100
AcDbEntity
  8
1
  6
Continuous
 62
     4
100
AcDbLine
 10
220.711702090182
 20
1.91328818337228
 30
0.0
 11
220.586702090182
 21
1.41328818337228
 31
0.0
  0
LINE
  5
F6
330
1F
100
AcDbEntity
  8
1
  6
Continuous
 62
     4
100
AcDbLine
 10
220.711702090182
 20
2.66328818337228
 30
0.0
 11
220.711702090182
 21
1.91328818337228
 31
0.0
  0
LINE
  5
F7
330
1F
100
AcDbEntity
  8
1
  6
Continuous
 62
     4
100
AcDbLine
 10
220.586702090182
 20
3.16328818337228
 30
0.0
 11
220.711702090182
 21
2.66328818337228
 31
0.0
  0
LINE
  5
F8
330
1F
100
AcDbEntity
  8
1
  6
Continuous
 62
     4
100
AcDbLine
 10
220.211702090182
 20
3.53828818337228
 30
0.0
 11
220.586702090182
 21
3.16328818337228
 31
0.0
  0
LINE
  5
F9
330
1F
100
AcDbEntity
  8
1
  6
Continuous
 62
     4
100
AcDbLine
 10
219.586702090182
 20
3.66328818337228
 30
0.0
 11
220.211702090182
 21
3.53828818337228
 31
0.0
  0
LINE
  5
FA
330
1F
100
AcDbEntity
  8
1
  6
Continuous
 62
     4
100
AcDbLine
 10
217.711702090182
 20
3.66328818337228
 30
0.0
 11
219.586702090182
 21
3.66328818337228
 31
0.0
  0
LINE
  5
FB
330
1F
100
AcDbEntity
  8
1
  6
Continuous
 62
     4
100
AcDbLine
 10
217.711702090182
 20
5.66328818337228
 30
0.0
 11
217.711702090182
 21
3.66328818337228
 31
0.0
  0
LINE
  5
FC
330
1F
100
AcDbEntity
  8
1
  6
Continuous
 62
     4
100
AcDbLine
 10
220.461702090182
 20
5.66328818337228
 30
0.0
 11
217.711702090182
 21
5.66328818337228
 31
0.0
  0
LINE
  5
FD
330
1F
100
AcDbEntity
  8
1
  6
Continuous
 62
     4
100
AcDbLine
 10
214.711702090182
 20
1.16328818337228
 30
0.0
 11
213.586702090182
 21
0.66328818337228
 31
0.0
  0
LINE
  5
FE
330
1F
100
AcDbEntity
  8
1
  6
Continuous
 62
     4
100
AcDbLine
 10
215.586702090182
 20
1.91328818337228
 30
0.0
 11
214.711702090182
 21
1.16328818337228
 31
0.0
  0
LINE
  5
FF
330
1F
100
AcDbEntity
  8
1
  6
Continuous
 62
     4
100
AcDbLine
 10
215.961702090182
 20
2.41328818337228
 30
0.0
 11
215.586702090182
 21
1.91328818337228
 31
0.0
  0
LINE
  5
100
330
1F
100
AcDbEntity
  8
1
  6
Continuous
 62
     4
100
AcDbLine
 10
216.086702090182
 20
2.91328818337228
 30
0.0
 11
215.961702090182
 21
2.41328818337228
 31
0.0
  0
LINE
  5
101
330
1F
100
AcDbEntity
  8
1
  6
Continuous
 62
     4
100
AcDbLine
 10
216.211702090182
 20
3.53828818337228
 30
0.0
 11
216.086702090182
 21
2.91328818337228
 31
0.0
  0
LINE
  5
102
330
1F
100
AcDbEntity
  8
1
  6
Continuous
 62
     4
100
AcDbLine
 10
216.211702090182
 20
4.41328818337228
 30
0.0
 11
216.211702090182
 21
3.53828818337228
 31
0.0
  0
LINE
  5
103
330
1F
100
AcDbEntity
  8
1
  6
Continuous
 62
     4
100
AcDbLine
 10
216.086702090182
 20
4.91328818337228
 30
0.0
 11
216.211702090182
 21
4.41328818337228
 31
0.0
  0
LINE
  5
104
330
1F
100
AcDbEntity
  8
1
  6
Continuous
 62
     4
100
AcDbLine
 10
215.836702090182
 20
5.28828818337228
 30
0.0
 11
216.086702090182
 21
4.91328818337228
 31
0.0
  0
LINE
  5
105
330
1F
100
AcDbEntity
  8
1
  6
Continuous
 62
     4
100
AcDbLine
 10
215.461702090182
 20
5.53828818337228
 30
0.0
 11
215.836702090182
 21
5.28828818337228
 31
0.0
  0
LINE
  5
106
330
1F
100
AcDbEntity
  8
1
  6
Continuous
 62
     4
100
AcDbLine
 10
215.086702090182
 20
5.66328818337228
 30
0.0
 11
215.461702090182
 21
5.53828818337228
 31
0.0
  0
LINE
  5
107
330
1F
100
AcDbEntity
  8
1
  6
Continuous
 62
     4
100
AcDbLine
 10
214.336702090182
 20
5.66328818337228
 30
0.0
 11
215.086702090182
 21
5.66328818337228
 31
0.0
  0
LINE
  5
108
330
1F
100
AcDbEntity
  8
1
  6
Continuous
 62
     4
100
AcDbLine
 10
213.961702090182
 20
5.53828818337228
 30
0.0
 11
214.336702090182
 21
5.66328818337228
 31
0.0
  0
LINE
  5
109
330
1F
100
AcDbEntity
  8
1
  6
Continuous
 62
     4
100
AcDbLine
 10
213.586702090182
 20
5.28828818337228
 30
0.0
 11
213.961702090182
 21
5.53828818337228
 31
0.0
  0
LINE
  5
10A
330
1F
100
AcDbEntity
  8
1
  6
Continuous
 62
     4
100
AcDbLine
 10
213.336702090182
 20
4.91328818337228
 30
0.0
 11
213.586702090182
 21
5.28828818337228
 31
0.0
  0
LINE
  5
10B
330
1F
100
AcDbEntity
  8
1
  6
Continuous
 62
     4
100
AcDbLine
 10
213.211702090182
 20
4.41328818337228
 30
0.0
 11
213.336702090182
 21
4.91328818337228
 31
0.0
  0
LINE
  5
10C
330
1F
100
AcDbEntity
  8
1
  6
Continuous
 62
     4
100
AcDbLine
 10
213.211702090182
 20
4.16328818337228
 30
0.0
 11
213.211702090182
 21
4.41328818337228
 31
0.0
  0
LINE
  5
10D
330
1F
100
AcDbEntity
  8
1
  6
Continuous
 62
     4
100
AcDbLine
 10
213.336702090182
 20
3.66328818337228
 30
0.0
 11
213.211702090182
 21
4.16328818337228
 31
0.0
  0
LINE
  5
10E
330
1F
100
AcDbEntity
  8
1
  6
Continuous
 62
     4
100
AcDbLine
 10
213.586702090182
 20
3.28828818337228
 30
0.0
 11
213.336702090182
 21
3.66328818337228
 31
0.0
  0
LINE
  5
10F
330
1F
100
AcDbEntity
  8
1
  6
Continuous
 62
     4
100
AcDbLine
 10
213.961702090182
 20
3.03828818337228
 30
0.0
 11
213.586702090182
 21
3.28828818337228
 31
0.0
  0
LINE
  5
110
330
1F
100
AcDbEntity
  8
1
  6
Continuous
 62
     4
100
AcDbLine
 10
214.336702090182
 20
2.91328818337228
 30
0.0
 11
213.961702090182
 21
3.03828818337228
 31
0.0
  0
LINE
  5
111
330
1F
100
AcDbEntity
  8
1
  6
Continuous
 62
     4
100
AcDbLine
 10
216.086702090182
 20
2.91328818337228
 30
0.0
 11
214.336702090182
 21
2.91328818337228
 31
0.0
  0
LINE
  5
112
330
1F
100
AcDbEntity
  8
1
  6
Continuous
 62
     4
100
AcDbLine
 10
210.586702090182
 20
0.66328818337228
 30
0.0
 11
208.711702090182
 21
0.66328818337228
 31
0.0
  0
LINE
  5
113
330
1F
100
AcDbEntity
  8
1
  6
Continuous
 62
     4
100
AcDbLine
 10
210.961702090182
 20
0.78828818337228
 30
0.0
 11
210.586702090182
 21
0.66328818337228
 31
0.0
  0
LINE
  5
114
330
1F
100
AcDbEntity
  8
1
  6
Continuous
 62
     4
100
AcDbLine
 10
211.336702090182
 20
1.03828818337228
 30
0.0
 11
210.961702090182
 21
0.78828818337228
 31
0.0
  0
LINE
  5
115
330
1F
100
AcDbEntity
  8
1
  6
Continuous
 62
     4
100
AcDbLine
 10
211.586702090182
 20
1.41328818337228
 30
0.0
 11
211.336702090182
 21
1.03828818337228
 31
0.0
  0
LINE
  5
116
330
1F
100
AcDbEntity
  8
1
  6
Continuous
 62
     4
100
AcDbLine
 10
211.711702090182
 20
1.91328818337228
 30
0.0
 11
211.586702090182
 21
1.41328818337228
 31
0.0
  0
LINE
  5
117
330
1F
100
AcDbEntity
  8
1
  6
Continuous
 62
     4
100
AcDbLine
 10
211.711702090182
 20
2.66328818337228
 30
0.0
 11
211.711702090182
 21
1.91328818337228
 31
0.0
  0
LINE
  5
118
330
1F
100
AcDbEntity
  8
1
  6
Continuous
 62
     4
100
AcDbLine
 10
211.586702090182
 20
3.16328818337228
 30
0.0
 11
211.711702090182
 21
2.66328818337228
 31
0.0
  0
LINE
  5
119
330
1F
100
AcDbEntity
  8
1
  6
Continuous
 62
     4
100
AcDbLine
 10
211.211702090182
 20
3.53828818337228
 30
0.0
 11
211.586702090182
 21
3.16328818337228
 31
0.0
  0
LINE
  5
11A
330
1F
100
AcDbEntity
  8
1
  6
Continuous
 62
     4
100
AcDbLine
 10
210.586702090182
 20
3.66328818337228
 30
0.0
 11
211.211702090182
 21
3.53828818337228
 31
0.0
  0
LINE
  5
11B
330
1F
100
AcDbEntity
  8
1
  6
Continuous
 62
     4
100
AcDbLine
 10
208.711702090182
 20
3.66328818337228
 30
0.0
 11
210.586702090182
 21
3.66328818337228
 31
0.0
  0
LINE
  5
11C
330
1F
100
AcDbEntity
  8
1
  6
Continuous
 62
     4
100
AcDbLine
 10
208.711702090182
 20
5.66328818337228
 30
0.0
 11
208.711702090182
 21
3.66328818337228
 31
0.0
  0
LINE
  5
11D
330
1F
100
AcDbEntity
  8
1
  6
Continuous
 62
     4
100
AcDbLine
 10
211.461702090182
 20
5.66328818337228
 30
0.0
 11
208.711702090182
 21
5.66328818337228
 31
0.0
  0
LINE
  5
11E
330
1F
100
AcDbEntity
  8
1
  6
Continuous
 62
     4
100
AcDbLine
 10
190.086702090182
 20
4.53828818337228
 30
0.0
 11
191.461702090182
 21
5.66328818337228
 31
0.0
  0
LINE
  5
11F
330
1F
100
AcDbEntity
  8
1
  6
Continuous
 62
     4
100
AcDbLine
 10
189.586702090182
 20
3.91328818337228
 30
0.0
 11
190.086702090182
 21
4.53828818337228
 31
0.0
  0
LINE
  5
120
330
1F
100
AcDbEntity
  8
1
  6
Continuous
 62
     4
100
AcDbLine
 10
189.336702090182
 20
3.41328818337228
 30
0.0
 11
189.586702090182
 21
3.91328818337228
 31
0.0
  0
LINE
  5
121
330
1F
100
AcDbEntity
  8
1
  6
Continuous
 62
     4
100
AcDbLine
 10
189.211702090182
 20
2.41328818337228
 30
0.0
 11
189.336702090182
 21
3.41328818337228
 31
0.0
  0
LINE
  5
122
330
1F
100
AcDbEntity
  8
1
  6
Continuous
 62
     4
100
AcDbLine
 10
189.211702090182
 20
1.91328818337228
 30
0.0
 11
189.211702090182
 21
2.41328818337228
 31
0.0
  0
LINE
  5
123
330
1F
100
AcDbEntity
  8
1
  6
Continuous
 62
     4
100
AcDbLine
 10
189.336702090182
 20
1.41328818337228
 30
0.0
 11
189.211702090182
 21
1.91328818337228
 31
0.0
  0
LINE
  5
124
330
1F
100
AcDbEntity
  8
1
  6
Continuous
 62
     4
100
AcDbLine
 10
189.586702090182
 20
1.03828818337228
 30
0.0
 11
189.336702090182
 21
1.41328818337228
 31
0.0
  0
LINE
  5
125
330
1F
100
AcDbEntity
  8
1
  6
Continuous
 62
     4
100
AcDbLine
 10
189.961702090182
 20
0.78828818337228
 30
0.0
 11
189.586702090182
 21
1.03828818337228
 31
0.0
  0
LINE
  5
126
330
1F
100
AcDbEntity
  8
1
  6
Continuous
 62
     4
100
AcDbLine
 10
190.336702090182
 20
0.66328818337228
 30
0.0
 11
189.961702090182
 21
0.78828818337228
 31
0.0
  0
LINE
  5
127
330
1F
100
AcDbEntity
  8
1
  6
Continuous
 62
     4
100
AcDbLine
 10
191.086702090182
 20
0.66328818337228
 30
0.0
 11
190.336702090182
 21
0.66328818337228
 31
0.0
  0
LINE
  5
128
330
1F
100
AcDbEntity
  8
1
  6
Continuous
 62
     4
100
AcDbLine
 10
191.461702090182
 20
0.78828818337228
 30
0.0
 11
191.086702090182
 21
0.66328818337228
 31
0.0
  0
LINE
  5
129
330
1F
100
AcDbEntity
  8
1
  6
Continuous
 62
     4
100
AcDbLine
 10
191.836702090182
 20
1.03828818337228
 30
0.0
 11
191.461702090182
 21
0.78828818337228
 31
0.0
  0
LINE
  5
12A
330
1F
100
AcDbEntity
  8
1
  6
Continuous
 62
     4
100
AcDbLine
 10
192.086702090182
 20
1.41328818337228
 30
0.0
 11
191.836702090182
 21
1.03828818337228
 31
0.0
  0
LINE
  5
12B
330
1F
100
AcDbEntity
  8
1
  6
Continuous
 62
     4
100
AcDbLine
 10
192.211702090182
 20
1.91328818337228
 30
0.0
 11
192.086702090182
 21
1.41328818337228
 31
0.0
  0
LINE
  5
12C
330
1F
100
AcDbEntity
  8
1
  6
Continuous
 62
     4
100
AcDbLine
 10
192.211702090182
 20
2.41328818337228
 30
0.0
 11
192.211702090182
 21
1.91328818337228
 31
0.0
  0
LINE
  5
12D
330
1F
100
AcDbEntity
  8
1
  6
Continuous
 62
     4
100
AcDbLine
 10
192.086702090182
 20
2.91328818337228
 30
0.0
 11
192.211702090182
 21
2.41328818337228
 31
0.0
  0
LINE
  5
12E
330
1F
100
AcDbEntity
  8
1
  6
Continuous
 62
     4
100
AcDbLine
 10
191.836702090182
 20
3.28828818337228
 30
0.0
 11
192.086702090182
 21
2.91328818337228
 31
0.0
  0
LINE
  5
12F
330
1F
100
AcDbEntity
  8
1
  6
Continuous
 62
     4
100
AcDbLine
 10
191.461702090182
 20
3.53828818337228
 30
0.0
 11
191.836702090182
 21
3.28828818337228
 31
0.0
  0
LINE
  5
130
330
1F
100
AcDbEntity
  8
1
  6
Continuous
 62
     4
100
AcDbLine
 10
191.086702090182
 20
3.66328818337228
 30
0.0
 11
191.461702090182
 21
3.53828818337228
 31
0.0
  0
LINE
  5
131
330
1F
100
AcDbEntity
  8
1
  6
Continuous
 62
     4
100
AcDbLine
 10
190.336702090182
 20
3.66328818337228
 30
0.0
 11
191.086702090182
 21
3.66328818337228
 31
0.0
  0
LINE
  5
132
330
1F
100
AcDbEntity
  8
1
  6
Continuous
 62
     4
100
AcDbLine
 10
189.961702090182
 20
3.53828818337228
 30
0.0
 11
190.336702090182
 21
3.66328818337228
 31
0.0
  0
LINE
  5
133
330
1F
100
AcDbEntity
  8
1
  6
Continuous
 62
     4
100
AcDbLine
 10
189.586702090182
 20
3.28828818337228
 30
0.0
 11
189.961702090182
 21
3.53828818337228
 31
0.0
  0
LINE
  5
134
330
1F
100
AcDbEntity
  8
1
  6
Continuous
 62
     4
100
AcDbLine
 10
189.336702090182
 20
2.91328818337228
 30
0.0
 11
189.586702090182
 21
3.28828818337228
 31
0.0
  0
LINE
  5
135
330
1F
100
AcDbEntity
  8
1
  6
Continuous
 62
     4
100
AcDbLine
 10
189.211702090182
 20
2.41328818337228
 30
0.0
 11
189.336702090182
 21
2.91328818337228
 31
0.0
  0
LINE
  5
136
330
1F
100
AcDbEntity
  8
1
  6
Continuous
 62
     4
100
AcDbLine
 10
187.836702090182
 20
0.91328818337228
 30
0.0
 11
187.836702090182
 21
0.78828818337228
 31
0.0
  0
LINE
  5
137
330
1F
100
AcDbEntity
  8
1
  6
Continuous
 62
     4
100
AcDbLine
 10
187.711702090182
 20
0.91328818337228
 30
0.0
 11
187.836702090182
 21
0.91328818337228
 31
0.0
  0
LINE
  5
138
330
1F
100
AcDbEntity
  8
1
  6
Continuous
 62
     4
100
AcDbLine
 10
187.711702090182
 20
0.78828818337228
 30
0.0
 11
187.711702090182
 21
0.91328818337228
 31
0.0
  0
LINE
  5
139
330
1F
100
AcDbEntity
  8
1
  6
Continuous
 62
     4
100
AcDbLine
 10
187.836702090182
 20
0.78828818337228
 30
0.0
 11
187.711702090182
 21
0.78828818337228
 31
0.0
  0
LINE
  5
13A
330
1F
100
AcDbEntity
  8
1
  6
Continuous
 62
     4
100
AcDbLine
 10
187.961702090182
 20
1.03828818337228
 30
0.0
 11
187.961702090182
 21
0.66328818337228
 31
0.0
  0
LINE
  5
13B
330
1F
100
AcDbEntity
  8
1
  6
Continuous
 62
     4
100
AcDbLine
 10
187.586702090182
 20
1.03828818337228
 30
0.0
 11
187.961702090182
 21
1.03828818337228
 31
0.0
  0
LINE
  5
13C
330
1F
100
AcDbEntity
  8
1
  6
Continuous
 62
     4
100
AcDbLine
 10
187.586702090182
 20
0.66328818337228
 30
0.0
 11
187.586702090182
 21
1.03828818337228
 31
0.0
  0
LINE
  5
13D
330
1F
100
AcDbEntity
  8
1
  6
Continuous
 62
     4
100
AcDbLine
 10
187.961702090182
 20
0.66328818337228
 30
0.0
 11
187.586702090182
 21
0.66328818337228
 31
0.0
  0
LINE
  5
13E
330
1F
100
AcDbEntity
  8
1
  6
Continuous
 62
     4
100
AcDbLine
 10
186.086702090182
 20
3.78828818337228
 30
0.0
 11
186.086702090182
 21
2.53828818337228
 31
0.0
  0
LINE
  5
13F
330
1F
100
AcDbEntity
  8
1
  6
Continuous
 62
     4
100
AcDbLine
 10
185.961702090182
 20
4.53828818337228
 30
0.0
 11
186.086702090182
 21
3.78828818337228
 31
0.0
  0
LINE
  5
140
330
1F
100
AcDbEntity
  8
1
  6
Continuous
 62
     4
100
AcDbLine
 10
185.711702090182
 20
5.03828818337228
 30
0.0
 11
185.961702090182
 21
4.53828818337228
 31
0.0
  0
LINE
  5
141
330
1F
100
AcDbEntity
  8
1
  6
Continuous
 62
     4
100
AcDbLine
 10
185.461702090182
 20
5.28828818337228
 30
0.0
 11
185.711702090182
 21
5.03828818337228
 31
0.0
  0
LINE
  5
142
330
1F
100
AcDbEntity
  8
1
  6
Continuous
 62
     4
100
AcDbLine
 10
185.086702090182
 20
5.53828818337228
 30
0.0
 11
185.461702090182
 21
5.28828818337228
 31
0.0
  0
LINE
  5
143
330
1F
100
AcDbEntity
  8
1
  6
Continuous
 62
     4
100
AcDbLine
 10
184.711702090182
 20
5.66328818337228
 30
0.0
 11
185.086702090182
 21
5.53828818337228
 31
0.0
  0
LINE
  5
144
330
1F
100
AcDbEntity
  8
1
  6
Continuous
 62
     4
100
AcDbLine
 10
184.461702090182
 20
5.66328818337228
 30
0.0
 11
184.711702090182
 21
5.66328818337228
 31
0.0
  0
LINE
  5
145
330
1F
100
AcDbEntity
  8
1
  6
Continuous
 62
     4
100
AcDbLine
 10
184.086702090182
 20
5.53828818337228
 30
0.0
 11
184.461702090182
 21
5.66328818337228
 31
0.0
  0
LINE
  5
146
330
1F
100
AcDbEntity
  8
1
  6
Continuous
 62
     4
100
AcDbLine
 10
183.711702090182
 20
5.28828818337228
 30
0.0
 11
184.086702090182
 21
5.53828818337228
 31
0.0
  0
LINE
  5
147
330
1F
100
AcDbEntity
  8
1
  6
Continuous
 62
     4
100
AcDbLine
 10
183.461702090182
 20
5.03828818337228
 30
0.0
 11
183.711702090182
 21
5.28828818337228
 31
0.0
  0
LINE
  5
148
330
1F
100
AcDbEntity
  8
1
  6
Continuous
 62
     4
100
AcDbLine
 10
183.211702090182
 20
4.53828818337228
 30
0.0
 11
183.461702090182
 21
5.03828818337228
 31
0.0
  0
LINE
  5
149
330
1F
100
AcDbEntity
  8
1
  6
Continuous
 62
     4
100
AcDbLine
 10
183.086702090182
 20
3.78828818337228
 30
0.0
 11
183.211702090182
 21
4.53828818337228
 31
0.0
  0
LINE
  5
14A
330
1F
100
AcDbEntity
  8
1
  6
Continuous
 62
     4
100
AcDbLine
 10
183.086702090182
 20
2.53828818337228
 30
0.0
 11
183.086702090182
 21
3.78828818337228
 31
0.0
  0
LINE
  5
14B
330
1F
100
AcDbEntity
  8
1
  6
Continuous
 62
     4
100
AcDbLine
 10
183.211702090182
 20
1.78828818337228
 30
0.0
 11
183.086702090182
 21
2.53828818337228
 31
0.0
  0
LINE
  5
14C
330
1F
100
AcDbEntity
  8
1
  6
Continuous
 62
     4
100
AcDbLine
 10
183.461702090182
 20
1.28828818337228
 30
0.0
 11
183.211702090182
 21
1.78828818337228
 31
0.0
  0
LINE
  5
14D
330
1F
100
AcDbEntity
  8
1
  6
Continuous
 62
     4
100
AcDbLine
 10
183.711702090182
 20
1.03828818337228
 30
0.0
 11
183.461702090182
 21
1.28828818337228
 31
0.0
  0
LINE
  5
14E
330
1F
100
AcDbEntity
  8
1
  6
Continuous
 62
     4
100
AcDbLine
 10
184.086702090182
 20
0.78828818337228
 30
0.0
 11
183.711702090182
 21
1.03828818337228
 31
0.0
  0
LINE
  5
14F
330
1F
100
AcDbEntity
  8
1
  6
Continuous
 62
     4
100
AcDbLine
 10
184.461702090182
 20
0.66328818337228
 30
0.0
 11
184.086702090182
 21
0.78828818337228
 31
0.0
  0
LINE
  5
150
330
1F
100
AcDbEntity
  8
1
  6
Continuous
 62
     4
100
AcDbLine
 10
184.711702090182
 20
0.66328818337228
 30
0.0
 11
184.461702090182
 21
0.66328818337228
 31
0.0
  0
LINE
  5
151
330
1F
100
AcDbEntity
  8
1
  6
Continuous
 62
     4
100
AcDbLine
 10
185.086702090182
 20
0.78828818337228
 30
0.0
 11
184.711702090182
 21
0.66328818337228
 31
0.0
  0
LINE
  5
152
330
1F
100
AcDbEntity
  8
1
  6
Continuous
 62
     4
100
AcDbLine
 10
185.461702090182
 20
1.03828818337228
 30
0.0
 11
185.086702090182
 21
0.78828818337228
 31
0.0
  0
LINE
  5
153
330
1F
100
AcDbEntity
  8
1
  6
Continuous
 62
     4
100
AcDbLine
 10
185.711702090182
 20
1.28828818337228
 30
0.0
 11
185.461702090182
 21
1.03828818337228
 31
0.0
  0
LINE
  5
154
330
1F
100
AcDbEntity
  8
1
  6
Continuous
 62
     4
100
AcDbLine
 10
185.961702090182
 20
1.78828818337228
 30
0.0
 11
185.711702090182
 21
1.28828818337228
 31
0.0
  0
LINE
  5
155
330
1F
100
AcDbEntity
  8
1
  6
Continuous
 62
     4
100
AcDbLine
 10
186.086702090182
 20
2.53828818337228
 30
0.0
 11
185.961702090182
 21
1.78828818337228
 31
0.0
  0
LINE
  5
156
330
1F
100
AcDbEntity
  8
1
  6
Continuous
 62
     4
100
AcDbLine
 10
219.586702090182
 20
8.99328818337228
 30
0.0
 11
217.711702090182
 21
8.99328818337228
 31
0.0
  0
LINE
  5
157
330
1F
100
AcDbEntity
  8
1
  6
Continuous
 62
     4
100
AcDbLine
 10
219.961702090182
 20
9.11828818337228
 30
0.0
 11
219.586702090182
 21
8.99328818337228
 31
0.0
  0
LINE
  5
158
330
1F
100
AcDbEntity
  8
1
  6
Continuous
 62
     4
100
AcDbLine
 10
220.336702090182
 20
9.36828818337228
 30
0.0
 11
219.961702090182
 21
9.11828818337228
 31
0.0
  0
LINE
  5
159
330
1F
100
AcDbEntity
  8
1
  6
Continuous
 62
     4
100
AcDbLine
 10
220.586702090182
 20
9.74328818337228
 30
0.0
 11
220.336702090182
 21
9.36828818337228
 31
0.0
  0
LINE
  5
15A
330
1F
100
AcDbEntity
  8
1
  6
Continuous
 62
     4
100
AcDbLine
 10
220.711702090182
 20
10.24328818337228
 30
0.0
 11
220.586702090182
 21
9.74328818337228
 31
0.0
  0
LINE
  5
15B
330
1F
100
AcDbEntity
  8
1
  6
Continuous
 62
     4
100
AcDbLine
 10
220.711702090182
 20
10.99328818337228
 30
0.0
 11
220.711702090182
 21
10.24328818337228
 31
0.0
  0
LINE
  5
15C
330
1F
100
AcDbEntity
  8
1
  6
Continuous
 62
     4
100
AcDbLine
 10
220.586702090182
 20
11.49328818337228
 30
0.0
 11
220.711702090182
 21
10.99328818337228
 31
0.0
  0
LINE
  5
15D
330
1F
100
AcDbEntity
  8
1
  6
Continuous
 62
     4
100
AcDbLine
 10
220.211702090182
 20
11.86828818337228
 30
0.0
 11
220.586702090182
 21
11.49328818337228
 31
0.0
  0
LINE
  5
15E
330
1F
100
AcDbEntity
  8
1
  6
Continuous
 62
     4
100
AcDbLine
 10
219.586702090182
 20
11.99328818337228
 30
0.0
 11
220.211702090182
 21
11.86828818337228
 31
0.0
  0
LINE
  5
15F
330
1F
100
AcDbEntity
  8
1
  6
Continuous
 62
     4
100
AcDbLine
 10
217.711702090182
 20
11.99328818337228
 30
0.0
 11
219.586702090182
 21
11.99328818337228
 31
0.0
  0
LINE
  5
160
330
1F
100
AcDbEntity
  8
1
  6
Continuous
 62
     4
100
AcDbLine
 10
217.711702090182
 20
13.99328818337228
 30
0.0
 11
217.711702090182
 21
11.99328818337228
 31
0.0
  0
LINE
  5
161
330
1F
100
AcDbEntity
  8
1
  6
Continuous
 62
     4
100
AcDbLine
 10
220.461702090182
 20
13.99328818337228
 30
0.0
 11
217.711702090182
 21
13.99328818337228
 31
0.0
  0
LINE
  5
162
330
1F
100
AcDbEntity
  8
1
  6
Continuous
 62
     4
100
AcDbLine
 10
214.711702090182
 20
9.49328818337228
 30
0.0
 11
213.586702090182
 21
8.99328818337228
 31
0.0
  0
LINE
  5
163
330
1F
100
AcDbEntity
  8
1
  6
Continuous
 62
     4
100
AcDbLine
 10
215.586702090182
 20
10.24328818337228
 30
0.0
 11
214.711702090182
 21
9.49328818337228
 31
0.0
  0
LINE
  5
164
330
1F
100
AcDbEntity
  8
1
  6
Continuous
 62
     4
100
AcDbLine
 10
215.961702090182
 20
10.74328818337228
 30
0.0
 11
215.586702090182
 21
10.24328818337228
 31
0.0
  0
LINE
  5
165
330
1F
100
AcDbEntity
  8
1
  6
Continuous
 62
     4
100
AcDbLine
 10
216.086702090182
 20
11.24328818337228
 30
0.0
 11
215.961702090182
 21
10.74328818337228
 31
0.0
  0
LINE
  5
166
330
1F
100
AcDbEntity
  8
1
  6
Continuous
 62
     4
100
AcDbLine
 10
216.211702090182
 20
11.86828818337228
 30
0.0
 11
216.086702090182
 21
11.24328818337228
 31
0.0
  0
LINE
  5
167
330
1F
100
AcDbEntity
  8
1
  6
Continuous
 62
     4
100
AcDbLine
 10
216.211702090182
 20
12.74328818337228
 30
0.0
 11
216.211702090182
 21
11.86828818337228
 31
0.0
  0
LINE
  5
168
330
1F
100
AcDbEntity
  8
1
  6
Continuous
 62
     4
100
AcDbLine
 10
216.086702090182
 20
13.24328818337228
 30
0.0
 11
216.211702090182
 21
12.74328818337228
 31
0.0
  0
LINE
  5
169
330
1F
100
AcDbEntity
  8
1
  6
Continuous
 62
     4
100
AcDbLine
 10
215.836702090182
 20
13.61828818337228
 30
0.0
 11
216.086702090182
 21
13.24328818337228
 31
0.0
  0
LINE
  5
16A
330
1F
100
AcDbEntity
  8
1
  6
Continuous
 62
     4
100
AcDbLine
 10
215.461702090182
 20
13.86828818337228
 30
0.0
 11
215.836702090182
 21
13.61828818337228
 31
0.0
  0
LINE
  5
16B
330
1F
100
AcDbEntity
  8
1
  6
Continuous
 62
     4
100
AcDbLine
 10
215.086702090182
 20
13.99328818337228
 30
0.0
 11
215.461702090182
 21
13.86828818337228
 31
0.0
  0
LINE
  5
16C
330
1F
100
AcDbEntity
  8
1
  6
Continuous
 62
     4
100
AcDbLine
 10
214.336702090182
 20
13.99328818337228
 30
0.0
 11
215.086702090182
 21
13.99328818337228
 31
0.0
  0
LINE
  5
16D
330
1F
100
AcDbEntity
  8
1
  6
Continuous
 62
     4
100
AcDbLine
 10
213.961702090182
 20
13.86828818337228
 30
0.0
 11
214.336702090182
 21
13.99328818337228
 31
0.0
  0
LINE
  5
16E
330
1F
100
AcDbEntity
  8
1
  6
Continuous
 62
     4
100
AcDbLine
 10
213.586702090182
 20
13.61828818337228
 30
0.0
 11
213.961702090182
 21
13.86828818337228
 31
0.0
  0
LINE
  5
16F
330
1F
100
AcDbEntity
  8
1
  6
Continuous
 62
     4
100
AcDbLine
 10
213.336702090182
 20
13.24328818337228
 30
0.0
 11
213.586702090182
 21
13.61828818337228
 31
0.0
  0
LINE
  5
170
330
1F
100
AcDbEntity
  8
1
  6
Continuous
 62
     4
100
AcDbLine
 10
213.211702090182
 20
12.74328818337228
 30
0.0
 11
213.336702090182
 21
13.24328818337228
 31
0.0
  0
LINE
  5
171
330
1F
100
AcDbEntity
  8
1
  6
Continuous
 62
     4
100
AcDbLine
 10
213.211702090182
 20
12.49328818337228
 30
0.0
 11
213.211702090182
 21
12.74328818337228
 31
0.0
  0
LINE
  5
172
330
1F
100
AcDbEntity
  8
1
  6
Continuous
 62
     4
100
AcDbLine
 10
213.336702090182
 20
11.99328818337228
 30
0.0
 11
213.211702090182
 21
12.49328818337228
 31
0.0
  0
LINE
  5
173
330
1F
100
AcDbEntity
  8
1
  6
Continuous
 62
     4
100
AcDbLine
 10
213.586702090182
 20
11.61828818337228
 30
0.0
 11
213.336702090182
 21
11.99328818337228
 31
0.0
  0
LINE
  5
174
330
1F
100
AcDbEntity
  8
1
  6
Continuous
 62
     4
100
AcDbLine
 10
213.961702090182
 20
11.36828818337228
 30
0.0
 11
213.586702090182
 21
11.61828818337228
 31
0.0
  0
LINE
  5
175
330
1F
100
AcDbEntity
  8
1
  6
Continuous
 62
     4
100
AcDbLine
 10
214.336702090182
 20
11.24328818337228
 30
0.0
 11
213.961702090182
 21
11.36828818337228
 31
0.0
  0
LINE
  5
176
330
1F
100
AcDbEntity
  8
1
  6
Continuous
 62
     4
100
AcDbLine
 10
216.086702090182
 20
11.24328818337228
 30
0.0
 11
214.336702090182
 21
11.24328818337228
 31
0.0
  0
LINE
  5
177
330
1F
100
AcDbEntity
  8
1
  6
Continuous
 62
     4
100
AcDbLine
 10
210.586702090182
 20
8.99328818337228
 30
0.0
 11
208.711702090182
 21
8.99328818337228
 31
0.0
  0
LINE
  5
178
330
1F
100
AcDbEntity
  8
1
  6
Continuous
 62
     4
100
AcDbLine
 10
210.961702090182
 20
9.11828818337228
 30
0.0
 11
210.586702090182
 21
8.99328818337228
 31
0.0
  0
LINE
  5
179
330
1F
100
AcDbEntity
  8
1
  6
Continuous
 62
     4
100
AcDbLine
 10
211.336702090182
 20
9.36828818337228
 30
0.0
 11
210.961702090182
 21
9.11828818337228
 31
0.0
  0
LINE
  5
17A
330
1F
100
AcDbEntity
  8
1
  6
Continuous
 62
     4
100
AcDbLine
 10
211.586702090182
 20
9.74328818337228
 30
0.0
 11
211.336702090182
 21
9.36828818337228
 31
0.0
  0
LINE
  5
17B
330
1F
100
AcDbEntity
  8
1
  6
Continuous
 62
     4
100
AcDbLine
 10
211.711702090182
 20
10.24328818337228
 30
0.0
 11
211.586702090182
 21
9.74328818337228
 31
0.0
  0
LINE
  5
17C
330
1F
100
AcDbEntity
  8
1
  6
Continuous
 62
     4
100
AcDbLine
 10
211.711702090182
 20
10.86828818337228
 30
0.0
 11
211.711702090182
 21
10.24328818337228
 31
0.0
  0
LINE
  5
17D
330
1F
100
AcDbEntity
  8
1
  6
Continuous
 62
     4
100
AcDbLine
 10
211.586702090182
 20
11.36828818337228
 30
0.0
 11
211.711702090182
 21
10.86828818337228
 31
0.0
  0
LINE
  5
17E
330
1F
100
AcDbEntity
  8
1
  6
Continuous
 62
     4
100
AcDbLine
 10
211.461702090182
 20
11.61828818337228
 30
0.0
 11
211.586702090182
 21
11.36828818337228
 31
0.0
  0
LINE
  5
17F
330
1F
100
AcDbEntity
  8
1
  6
Continuous
 62
     4
100
AcDbLine
 10
211.211702090182
 20
11.86828818337228
 30
0.0
 11
211.461702090182
 21
11.61828818337228
 31
0.0
  0
LINE
  5
180
330
1F
100
AcDbEntity
  8
1
  6
Continuous
 62
     4
100
AcDbLine
 10
210.711702090182
 20
11.99328818337228
 30
0.0
 11
211.211702090182
 21
11.86828818337228
 31
0.0
  0
LINE
  5
181
330
1F
100
AcDbEntity
  8
1
  6
Continuous
 62
     4
100
AcDbLine
 10
211.086702090182
 20
12.11828818337228
 30
0.0
 11
210.711702090182
 21
11.99328818337228
 31
0.0
  0
LINE
  5
182
330
1F
100
AcDbEntity
  8
1
  6
Continuous
 62
     4
100
AcDbLine
 10
211.336702090182
 20
12.24328818337228
 30
0.0
 11
211.086702090182
 21
12.11828818337228
 31
0.0
  0
LINE
  5
183
330
1F
100
AcDbEntity
  8
1
  6
Continuous
 62
     4
100
AcDbLine
 10
211.586702090182
 20
12.49328818337228
 30
0.0
 11
211.336702090182
 21
12.24328818337228
 31
0.0
  0
LINE
  5
184
330
1F
100
AcDbEntity
  8
1
  6
Continuous
 62
     4
100
AcDbLine
 10
211.711702090182
 20
12.86828818337228
 30
0.0
 11
211.586702090182
 21
12.49328818337228
 31
0.0
  0
LINE
  5
185
330
1F
100
AcDbEntity
  8
1
  6
Continuous
 62
     4
100
AcDbLine
 10
211.711702090182
 20
13.24328818337228
 30
0.0
 11
211.711702090182
 21
12.86828818337228
 31
0.0
  0
LINE
  5
186
330
1F
100
AcDbEntity
  8
1
  6
Continuous
 62
     4
100
AcDbLine
 10
211.586702090182
 20
13.61828818337228
 30
0.0
 11
211.711702090182
 21
13.24328818337228
 31
0.0
  0
LINE
  5
187
330
1F
100
AcDbEntity
  8
1
  6
Continuous
 62
     4
100
AcDbLine
 10
211.211702090182
 20
13.86828818337228
 30
0.0
 11
211.586702090182
 21
13.61828818337228
 31
0.0
  0
LINE
  5
188
330
1F
100
AcDbEntity
  8
1
  6
Continuous
 62
     4
100
AcDbLine
 10
210.586702090182
 20
13.99328818337228
 30
0.0
 11
211.211702090182
 21
13.86828818337228
 31
0.0
  0
LINE
  5
189
330
1F
100
AcDbEntity
  8
1
  6
Continuous
 62
     4
100
AcDbLine
 10
208.711702090182
 20
13.99328818337228
 30
0.0
 11
210.586702090182
 21
13.99328818337228
 31
0.0
  0
LINE
  5
18A
330
1F
100
AcDbEntity
  8
1
  6
Continuous
 62
     4
100
AcDbLine
 10
209.461702090182
 20
11.99328818337228
 30
0.0
 11
210.711702090182
 21
11.99328818337228
 31
0.0
  0
LINE
  5
18B
330
1F
100
AcDbEntity
  8
1
  6
Continuous
 62
     4
100
AcDbLine
 10
191.461702090182
 20
10.99328818337228
 30
0.0
 11
191.461702090182
 21
8.99328818337228
 31
0.0
  0
LINE
  5
18C
330
1F
100
AcDbEntity
  8
1
  6
Continuous
 62
     4
100
AcDbLine
 10
189.211702090182
 20
9.99328818337228
 30
0.0
 11
192.211702090182
 21
9.99328818337228
 31
0.0
  0
LINE
  5
18D
330
1F
100
AcDbEntity
  8
1
  6
Continuous
 62
     4
100
AcDbLine
 10
191.461702090182
 20
13.99328818337228
 30
0.0
 11
189.211702090182
 21
9.99328818337228
 31
0.0
  0
LINE
  5
18E
330
1F
100
AcDbEntity
  8
1
  6
Continuous
 62
     4
100
AcDbLine
 10
187.836702090182
 20
9.24328818337228
 30
0.0
 11
187.836702090182
 21
9.11828818337228
 31
0.0
  0
LINE
  5
18F
330
1F
100
AcDbEntity
  8
1
  6
Continuous
 62
     4
100
AcDbLine
 10
187.711702090182
 20
9.24328818337228
 30
0.0
 11
187.836702090182
 21
9.24328818337228
 31
0.0
  0
LINE
  5
190
330
1F
100
AcDbEntity
  8
1
  6
Continuous
 62
     4
100
AcDbLine
 10
187.711702090182
 20
9.11828818337228
 30
0.0
 11
187.711702090182
 21
9.24328818337228
 31
0.0
  0
LINE
  5
191
330
1F
100
AcDbEntity
  8
1
  6
Continuous
 62
     4
100
AcDbLine
 10
187.836702090182
 20
9.11828818337228
 30
0.0
 11
187.711702090182
 21
9.11828818337228
 31
0.0
  0
LINE
  5
192
330
1F
100
AcDbEntity
  8
1
  6
Continuous
 62
     4
100
AcDbLine
 10
187.961702090182
 20
9.36828818337228
 30
0.0
 11
187.961702090182
 21
8.99328818337228
 31
0.0
  0
LINE
  5
193
330
1F
100
AcDbEntity
  8
1
  6
Continuous
 62
     4
100
AcDbLine
 10
187.586702090182
 20
9.36828818337228
 30
0.0
 11
187.961702090182
 21
9.36828818337228
 31
0.0
  0
LINE
  5
194
330
1F
100
AcDbEntity
  8
1
  6
Continuous
 62
     4
100
AcDbLine
 10
187.586702090182
 20
8.99328818337228
 30
0.0
 11
187.586702090182
 21
9.36828818337228
 31
0.0
  0
LINE
  5
195
330
1F
100
AcDbEntity
  8
1
  6
Continuous
 62
     4
100
AcDbLine
 10
187.961702090182
 20
8.99328818337228
 30
0.0
 11
187.586702090182
 21
8.99328818337228
 31
0.0
  0
LINE
  5
196
330
1F
100
AcDbEntity
  8
1
  6
Continuous
 62
     4
100
AcDbLine
 10
186.086702090182
 20
12.11828818337228
 30
0.0
 11
186.086702090182
 21
10.86828818337228
 31
0.0
  0
LINE
  5
197
330
1F
100
AcDbEntity
  8
1
  6
Continuous
 62
     4
100
AcDbLine
 10
185.961702090182
 20
12.86828818337228
 30
0.0
 11
186.086702090182
 21
12.11828818337228
 31
0.0
  0
LINE
  5
198
330
1F
100
AcDbEntity
  8
1
  6
Continuous
 62
     4
100
AcDbLine
 10
185.711702090182
 20
13.36828818337228
 30
0.0
 11
185.961702090182
 21
12.86828818337228
 31
0.0
  0
LINE
  5
199
330
1F
100
AcDbEntity
  8
1
  6
Continuous
 62
     4
100
AcDbLine
 10
185.461702090182
 20
13.61828818337228
 30
0.0
 11
185.711702090182
 21
13.36828818337228
 31
0.0
  0
LINE
  5
19A
330
1F
100
AcDbEntity
  8
1
  6
Continuous
 62
     4
100
AcDbLine
 10
185.086702090182
 20
13.86828818337228
 30
0.0
 11
185.461702090182
 21
13.61828818337228
 31
0.0
  0
LINE
  5
19B
330
1F
100
AcDbEntity
  8
1
  6
Continuous
 62
     4
100
AcDbLine
 10
184.711702090182
 20
13.99328818337228
 30
0.0
 11
185.086702090182
 21
13.86828818337228
 31
0.0
  0
LINE
  5
19C
330
1F
100
AcDbEntity
  8
1
  6
Continuous
 62
     4
100
AcDbLine
 10
184.461702090182
 20
13.99328818337228
 30
0.0
 11
184.711702090182
 21
13.99328818337228
 31
0.0
  0
LINE
  5
19D
330
1F
100
AcDbEntity
  8
1
  6
Continuous
 62
     4
100
AcDbLine
 10
184.086702090182
 20
13.86828818337228
 30
0.0
 11
184.461702090182
 21
13.99328818337228
 31
0.0
  0
LINE
  5
19E
330
1F
100
AcDbEntity
  8
1
  6
Continuous
 62
     4
100
AcDbLine
 10
183.711702090182
 20
13.61828818337228
 30
0.0
 11
184.086702090182
 21
13.86828818337228
 31
0.0
  0
LINE
  5
19F
330
1F
100
AcDbEntity
  8
1
  6
Continuous
 62
     4
100
AcDbLine
 10
183.461702090182
 20
13.36828818337228
 30
0.0
 11
183.711702090182
 21
13.61828818337228
 31
0.0
  0
LINE
  5
1A0
330
1F
100
AcDbEntity
  8
1
  6
Continuous
 62
     4
100
AcDbLine
 10
183.211702090182
 20
12.86828818337228
 30
0.0
 11
183.461702090182
 21
13.36828818337228
 31
0.0
  0
LINE
  5
1A1
330
1F
100
AcDbEntity
  8
1
  6
Continuous
 62
     4
100
AcDbLine
 10
183.086702090182
 20
12.11828818337228
 30
0.0
 11
183.211702090182
 21
12.86828818337228
 31
0.0
  0
LINE
  5
1A2
330
1F
100
AcDbEntity
  8
1
  6
Continuous
 62
     4
100
AcDbLine
 10
183.086702090182
 20
10.86828818337228
 30
0.0
 11
183.086702090182
 21
12.11828818337228
 31
0.0
  0
LINE
  5
1A3
330
1F
100
AcDbEntity
  8
1
  6
Continuous
 62
     4
100
AcDbLine
 10
183.211702090182
 20
10.11828818337228
 30
0.0
 11
183.086702090182
 21
10.86828818337228
 31
0.0
  0
LINE
  5
1A4
330
1F
100
AcDbEntity
  8
1
  6
Continuous
 62
     4
100
AcDbLine
 10
183.461702090182
 20
9.61828818337228
 30
0.0
 11
183.211702090182
 21
10.11828818337228
 31
0.0
  0
LINE
  5
1A5
330
1F
100
AcDbEntity
  8
1
  6
Continuous
 62
     4
100
AcDbLine
 10
183.711702090182
 20
9.36828818337228
 30
0.0
 11
183.461702090182
 21
9.61828818337228
 31
0.0
  0
LINE
  5
1A6
330
1F
100
AcDbEntity
  8
1
  6
Continuous
 62
     4
100
AcDbLine
 10
184.086702090182
 20
9.11828818337228
 30
0.0
 11
183.711702090182
 21
9.36828818337228
 31
0.0
  0
LINE
  5
1A7
330
1F
100
AcDbEntity
  8
1
  6
Continuous
 62
     4
100
AcDbLine
 10
184.461702090182
 20
8.99328818337228
 30
0.0
 11
184.086702090182
 21
9.11828818337228
 31
0.0
  0
LINE
  5
1A8
330
1F
100
AcDbEntity
  8
1
  6
Continuous
 62
     4
100
AcDbLine
 10
184.711702090182
 20
8.99328818337228
 30
0.0
 11
184.461702090182
 21
8.99328818337228
 31
0.0
  0
LINE
  5
1A9
330
1F
100
AcDbEntity
  8
1
  6
Continuous
 62
     4
100
AcDbLine
 10
185.086702090182
 20
9.11828818337228
 30
0.0
 11
184.711702090182
 21
8.99328818337228
 31
0.0
  0
LINE
  5
1AA
330
1F
100
AcDbEntity
  8
1
  6
Continuous
 62
     4
100
AcDbLine
 10
185.461702090182
 20
9.36828818337228
 30
0.0
 11
185.086702090182
 21
9.11828818337228
 31
0.0
  0
LINE
  5
1AB
330
1F
100
AcDbEntity
  8
1
  6
Continuous
 62
     4
100
AcDbLine
 10
185.711702090182
 20
9.61828818337228
 30
0.0
 11
185.461702090182
 21
9.36828818337228
 31
0.0
  0
LINE
  5
1AC
330
1F
100
AcDbEntity
  8
1
  6
Continuous
 62
     4
100
AcDbLine
 10
185.961702090182
 20
10.11828818337228
 30
0.0
 11
185.711702090182
 21
9.61828818337228
 31
0.0
  0
LINE
  5
1AD
330
1F
100
AcDbEntity
  8
1
  6
Continuous
 62
     4
100
AcDbLine
 10
186.086702090182
 20
10.86828818337228
 30
0.0
 11
185.961702090182
 21
10.11828818337228
 31
0.0
  0
LINE
  5
1AE
330
1F
100
AcDbEntity
  8
1
  6
Continuous
 62
     4
100
AcDbLine
 10
212.586702090182
 20
17.32328818337228
 30
0.0
 11
212.586702090182
 21
22.32328818337228
 31
0.0
  0
LINE
  5
1AF
330
1F
100
AcDbEntity
  8
1
  6
Continuous
 62
     4
100
AcDbLine
 10
215.586702090182
 20
17.32328818337228
 30
0.0
 11
212.586702090182
 21
17.32328818337228
 31
0.0
  0
LINE
  5
1B0
330
1F
100
AcDbEntity
  8
1
  6
Continuous
 62
     4
100
AcDbLine
 10
200.836702090182
 20
18.32328818337228
 30
0.0
 11
200.336702090182
 21
17.32328818337228
 31
0.0
  0
LINE
  5
1B1
330
1F
100
AcDbEntity
  8
1
  6
Continuous
 62
     4
100
AcDbLine
 10
201.086702090182
 20
19.32328818337228
 30
0.0
 11
200.836702090182
 21
18.32328818337228
 31
0.0
  0
LINE
  5
1B2
330
1F
100
AcDbEntity
  8
1
  6
Continuous
 62
     4
100
AcDbLine
 10
201.086702090182
 20
20.32328818337228
 30
0.0
 11
201.086702090182
 21
19.32328818337228
 31
0.0
  0
LINE
  5
1B3
330
1F
100
AcDbEntity
  8
1
  6
Continuous
 62
     4
100
AcDbLine
 10
200.836702090182
 20
21.32328818337228
 30
0.0
 11
201.086702090182
 21
20.32328818337228
 31
0.0
  0
LINE
  5
1B4
330
1F
100
AcDbEntity
  8
1
  6
Continuous
 62
     4
100
AcDbLine
 10
200.336702090182
 20
22.32328818337228
 30
0.0
 11
200.836702090182
 21
21.32328818337228
 31
0.0
  0
LINE
  5
1B5
330
1F
100
AcDbEntity
  8
1
  6
Continuous
 62
     4
100
AcDbLine
 10
197.086702090182
 20
20.82328818337228
 30
0.0
 11
198.086702090182
 21
20.82328818337228
 31
0.0
  0
LINE
  5
1B6
330
1F
100
AcDbEntity
  8
1
  6
Continuous
 62
     4
100
AcDbLine
 10
197.086702090182
 20
20.82328818337228
 30
0.0
 11
197.086702090182
 21
17.32328818337228
 31
0.0
  0
LINE
  5
1B7
330
1F
100
AcDbEntity
  8
1
  6
Continuous
 62
     4
100
AcDbLine
 10
198.836702090182
 20
20.19828818337228
 30
0.0
 11
198.836702090182
 21
17.32328818337228
 31
0.0
  0
LINE
  5
1B8
330
1F
100
AcDbEntity
  8
1
  6
Continuous
 62
     4
100
AcDbLine
 10
198.711702090182
 20
20.44828818337228
 30
0.0
 11
198.836702090182
 21
20.19828818337228
 31
0.0
  0
LINE
  5
1B9
330
1F
100
AcDbEntity
  8
1
  6
Continuous
 62
     4
100
AcDbLine
 10
198.461702090182
 20
20.69828818337228
 30
0.0
 11
198.711702090182
 21
20.44828818337228
 31
0.0
  0
LINE
  5
1BA
330
1F
100
AcDbEntity
  8
1
  6
Continuous
 62
     4
100
AcDbLine
 10
198.086702090182
 20
20.82328818337228
 30
0.0
 11
198.461702090182
 21
20.69828818337228
 31
0.0
  0
LINE
  5
1BB
330
1F
100
AcDbEntity
  8
1
  6
Continuous
 62
     4
100
AcDbLine
 10
195.336702090182
 20
20.82328818337228
 30
0.0
 11
197.086702090182
 21
20.82328818337228
 31
0.0
  0
LINE
  5
1BC
330
1F
100
AcDbEntity
  8
1
  6
Continuous
 62
     4
100
AcDbLine
 10
195.336702090182
 20
17.32328818337228
 30
0.0
 11
195.336702090182
 21
20.82328818337228
 31
0.0
  0
LINE
  5
1BD
330
1F
100
AcDbEntity
  8
1
  6
Continuous
 62
     4
100
AcDbLine
 10
193.336702090182
 20
18.32328818337228
 30
0.0
 11
193.836702090182
 21
17.32328818337228
 31
0.0
  0
LINE
  5
1BE
330
1F
100
AcDbEntity
  8
1
  6
Continuous
 62
     4
100
AcDbLine
 10
193.086702090182
 20
19.32328818337228
 30
0.0
 11
193.336702090182
 21
18.32328818337228
 31
0.0
  0
LINE
  5
1BF
330
1F
100
AcDbEntity
  8
1
  6
Continuous
 62
     4
100
AcDbLine
 10
193.086702090182
 20
20.32328818337228
 30
0.0
 11
193.086702090182
 21
19.32328818337228
 31
0.0
  0
LINE
  5
1C0
330
1F
100
AcDbEntity
  8
1
  6
Continuous
 62
     4
100
AcDbLine
 10
193.336702090182
 20
21.32328818337228
 30
0.0
 11
193.086702090182
 21
20.32328818337228
 31
0.0
  0
LINE
  5
1C1
330
1F
100
AcDbEntity
  8
1
  6
Continuous
 62
     4
100
AcDbLine
 10
193.836702090182
 20
22.32328818337228
 30
0.0
 11
193.336702090182
 21
21.32328818337228
 31
0.0
  0
LINE
  5
1C2
330
1F
100
AcDbEntity
  8
1
  6
Continuous
 62
     4
100
AcDbLine
 10
190.149202090182
 20
17.94828818337228
 30
0.0
 11
191.024202090182
 21
17.82328818337228
 31
0.0
  0
LINE
  5
1C3
330
1F
100
AcDbEntity
  8
1
  6
Continuous
 62
     4
100
AcDbLine
 10
189.586702090182
 20
18.26078818337228
 30
0.0
 11
190.149202090182
 21
17.94828818337228
 31
0.0
  0
LINE
  5
1C4
330
1F
100
AcDbEntity
  8
1
  6
Continuous
 62
     4
100
AcDbLine
 10
189.336702090182
 20
18.76078818337228
 30
0.0
 11
189.586702090182
 21
18.26078818337228
 31
0.0
  0
LINE
  5
1C5
330
1F
100
AcDbEntity
  8
1
  6
Continuous
 62
     4
100
AcDbLine
 10
189.586702090182
 20
19.19828818337228
 30
0.0
 11
189.336702090182
 21
18.76078818337228
 31
0.0
  0
LINE
  5
1C6
330
1F
100
AcDbEntity
  8
1
  6
Continuous
 62
     4
100
AcDbLine
 10
190.461702090182
 20
19.51078818337228
 30
0.0
 11
189.586702090182
 21
19.19828818337228
 31
0.0
  0
LINE
  5
1C7
330
1F
100
AcDbEntity
  8
1
  6
Continuous
 62
     4
100
AcDbLine
 10
191.399202090182
 20
19.38578818337228
 30
0.0
 11
190.461702090182
 21
19.51078818337228
 31
0.0
  0
LINE
  5
1C8
330
1F
100
AcDbEntity
  8
1
  6
Continuous
 62
     4
100
AcDbLine
 10
190.836702090182
 20
20.44828818337228
 30
0.0
 11
191.399202090182
 21
19.38578818337228
 31
0.0
  0
LINE
  5
1C9
330
1F
100
AcDbEntity
  8
1
  6
Continuous
 62
     4
100
AcDbLine
 10
189.899202090182
 20
21.88578818337228
 30
0.0
 11
190.836702090182
 21
20.44828818337228
 31
0.0
  0
LINE
  5
1CA
330
1F
100
AcDbEntity
  8
1
  6
Continuous
 62
     4
100
AcDbLine
 10
190.336702090182
 20
20.94828818337228
 30
0.0
 11
191.274202090182
 21
21.38578818337228
 31
0.0
  0
LINE
  5
1CB
330
1F
100
AcDbEntity
  8
1
  6
Continuous
 62
     4
100
AcDbLine
 10
189.211702090182
 20
20.63578818337228
 30
0.0
 11
190.336702090182
 21
20.94828818337228
 31
0.0
  0
LINE
  5
1CC
330
1F
100
AcDbEntity
  8
1
  6
Continuous
 62
     4
100
AcDbLine
 10
184.336702090182
 20
21.38578818337228
 30
0.0
 11
184.336702090182
 21
17.82328818337228
 31
0.0
  0
LINE
  5
1CD
330
1F
100
AcDbEntity
  8
1
  6
Continuous
 62
     4
100
AcDbLine
 10
186.274202090182
 20
17.94828818337228
 30
0.0
 11
187.399202090182
 21
17.51078818337228
 31
0.0
  0
LINE
  5
1CE
330
1F
100
AcDbEntity
  8
1
  6
Continuous
 62
     4
100
AcDbLine
 10
185.711702090182
 20
18.57328818337228
 30
0.0
 11
186.274202090182
 21
17.94828818337228
 31
0.0
  0
LINE
  5
1CF
330
1F
100
AcDbEntity
  8
1
  6
Continuous
 62
     4
100
AcDbLine
 10
185.149202090182
 20
19.51078818337228
 30
0.0
 11
185.711702090182
 21
18.57328818337228
 31
0.0
  0
LINE
  5
1D0
330
1F
100
AcDbEntity
  8
1
  6
Continuous
 62
     4
100
AcDbLine
 10
184.336702090182
 20
22.19828818337228
 30
0.0
 11
184.336702090182
 21
21.38578818337228
 31
0.0
  0
LINE
  5
1D1
330
1F
100
AcDbEntity
  8
1
  6
Continuous
 62
     4
100
AcDbLine
 10
186.586702090182
 20
22.19828818337228
 30
0.0
 11
184.336702090182
 21
22.19828818337228
 31
0.0
  0
LINE
  5
1D2
330
1F
100
AcDbEntity
  8
1
  6
Continuous
 62
     4
100
AcDbLine
 10
186.399202090182
 20
21.38578818337228
 30
0.0
 11
184.336702090182
 21
21.38578818337228
 31
0.0
  0
LINE
  5
1D3
330
1F
100
AcDbEntity
  8
1
  6
Continuous
 62
     4
100
AcDbLine
 10
184.336702090182
 20
20.63578818337228
 30
0.0
 11
186.399202090182
 21
20.63578818337228
 31
0.0
  0
LINE
  5
1D4
330
1F
100
AcDbEntity
  8
1
  6
Continuous
 62
     4
100
AcDbLine
 10
187.399202090182
 20
19.82328818337228
 30
0.0
 11
183.211702090182
 21
19.82328818337228
 31
0.0
  0
LINE
  5
1D5
330
1F
100
AcDbEntity
  8
1
  6
Continuous
 62
     4
100
AcDbLine
 10
185.711702090182
 20
18.76078818337228
 30
0.0
 11
186.711702090182
 21
19.38578818337228
 31
0.0
  0
LINE
  5
1D6
330
1F
100
AcDbEntity
  8
1
  6
Continuous
 62
     4
100
AcDbLine
 10
183.524202090182
 20
17.51078818337228
 30
0.0
 11
185.336702090182
 21
18.26078818337228
 31
0.0
  0
LINE
  5
1D7
330
1F
100
AcDbEntity
  8
1
  6
Continuous
 62
     4
100
AcDbLine
 10
182.086702090182
 20
21.57328818337228
 30
0.0
 11
182.524202090182
 21
21.07328818337228
 31
0.0
  0
LINE
  5
1D8
330
1F
100
AcDbEntity
  8
1
  6
Continuous
 62
     4
100
AcDbLine
 10
181.711702090182
 20
21.26078818337228
 30
0.0
 11
182.086702090182
 21
20.76078818337228
 31
0.0
  0
LINE
  5
1D9
330
1F
100
AcDbEntity
  8
1
  6
Continuous
 62
     4
100
AcDbLine
 10
181.149202090182
 20
20.01078818337228
 30
0.0
 11
181.711702090182
 21
18.76078818337228
 31
0.0
  0
LINE
  5
1DA
330
1F
100
AcDbEntity
  8
1
  6
Continuous
 62
     4
100
AcDbLine
 10
181.024202090182
 20
21.07328818337228
 30
0.0
 11
181.149202090182
 21
20.01078818337228
 31
0.0
  0
LINE
  5
1DB
330
1F
100
AcDbEntity
  8
1
  6
Continuous
 62
     4
100
AcDbLine
 10
181.024202090182
 20
20.13578818337228
 30
0.0
 11
181.024202090182
 21
21.07328818337228
 31
0.0
  0
LINE
  5
1DC
330
1F
100
AcDbEntity
  8
1
  6
Continuous
 62
     4
100
AcDbLine
 10
180.836702090182
 20
19.19828818337228
 30
0.0
 11
181.024202090182
 21
20.13578818337228
 31
0.0
  0
LINE
  5
1DD
330
1F
100
AcDbEntity
  8
1
  6
Continuous
 62
     4
100
AcDbLine
 10
180.461702090182
 20
18.26078818337228
 30
0.0
 11
180.836702090182
 21
19.19828818337228
 31
0.0
  0
LINE
  5
1DE
330
1F
100
AcDbEntity
  8
1
  6
Continuous
 62
     4
100
AcDbLine
 10
179.899202090182
 20
17.82328818337228
 30
0.0
 11
180.461702090182
 21
18.26078818337228
 31
0.0
  0
LINE
  5
1DF
330
1F
100
AcDbEntity
  8
1
  6
Continuous
 62
     4
100
AcDbLine
 10
179.336702090182
 20
17.63578818337228
 30
0.0
 11
179.899202090182
 21
17.82328818337228
 31
0.0
  0
LINE
  5
1E0
330
1F
100
AcDbEntity
  8
1
  6
Continuous
 62
     4
100
AcDbLine
 10
178.774202090182
 20
17.82328818337228
 30
0.0
 11
179.336702090182
 21
17.63578818337228
 31
0.0
  0
LINE
  5
1E1
330
1F
100
AcDbEntity
  8
1
  6
Continuous
 62
     4
100
AcDbLine
 10
178.524202090182
 20
18.26078818337228
 30
0.0
 11
178.774202090182
 21
17.82328818337228
 31
0.0
  0
LINE
  5
1E2
330
1F
100
AcDbEntity
  8
1
  6
Continuous
 62
     4
100
AcDbLine
 10
178.524202090182
 20
18.88578818337228
 30
0.0
 11
178.524202090182
 21
18.26078818337228
 31
0.0
  0
LINE
  5
1E3
330
1F
100
AcDbEntity
  8
1
  6
Continuous
 62
     4
100
AcDbLine
 10
178.774202090182
 20
19.69828818337228
 30
0.0
 11
178.524202090182
 21
18.88578818337228
 31
0.0
  0
LINE
  5
1E4
330
1F
100
AcDbEntity
  8
1
  6
Continuous
 62
     4
100
AcDbLine
 10
179.211702090182
 20
20.32328818337228
 30
0.0
 11
178.774202090182
 21
19.69828818337228
 31
0.0
  0
LINE
  5
1E5
330
1F
100
AcDbEntity
  8
1
  6
Continuous
 62
     4
100
AcDbLine
 10
179.774202090182
 20
20.94828818337228
 30
0.0
 11
179.211702090182
 21
20.32328818337228
 31
0.0
  0
LINE
  5
1E6
330
1F
100
AcDbEntity
  8
1
  6
Continuous
 62
     4
100
AcDbLine
 10
179.211702090182
 20
20.76078818337228
 30
0.0
 11
179.774202090182
 21
20.94828818337228
 31
0.0
  0
LINE
  5
1E7
330
1F
100
AcDbEntity
  8
1
  6
Continuous
 62
     4
100
AcDbLine
 10
178.524202090182
 20
20.63578818337228
 30
0.0
 11
179.211702090182
 21
20.76078818337228
 31
0.0
  0
LINE
  5
1E8
330
1F
100
AcDbEntity
  8
1
  6
Continuous
 62
     4
100
AcDbLine
 10
176.149202090182
 20
17.51078818337228
 30
0.0
 11
175.586702090182
 21
17.51078818337228
 31
0.0
  0
LINE
  5
1E9
330
1F
100
AcDbEntity
  8
1
  6
Continuous
 62
     4
100
AcDbLine
 10
176.149202090182
 20
21.57328818337228
 30
0.0
 11
176.149202090182
 21
17.51078818337228
 31
0.0
  0
LINE
  5
1EA
330
1F
100
AcDbEntity
  8
1
  6
Continuous
 62
     4
100
AcDbLine
 10
175.024202090182
 20
21.07328818337228
 30
0.0
 11
175.461702090182
 21
20.13578818337228
 31
0.0
  0
LINE
  5
1EB
330
1F
100
AcDbEntity
  8
1
  6
Continuous
 62
     4
100
AcDbLine
 10
175.836702090182
 20
21.88578818337228
 30
0.0
 11
175.149202090182
 21
21.69828818337228
 31
0.0
  0
LINE
  5
1EC
330
1F
100
AcDbEntity
  8
1
  6
Continuous
 62
     4
100
AcDbLine
 10
176.836702090182
 20
22.19828818337228
 30
0.0
 11
175.836702090182
 21
21.88578818337228
 31
0.0
  0
LINE
  5
1ED
330
1F
100
AcDbEntity
  8
1
  6
Continuous
 62
     4
100
AcDbLine
 10
176.711702090182
 20
20.13578818337228
 30
0.0
 11
177.086702090182
 21
21.07328818337228
 31
0.0
  0
LINE
  5
1EE
330
1F
100
AcDbEntity
  8
1
  6
Continuous
 62
     4
100
AcDbLine
 10
174.774202090182
 20
19.51078818337228
 30
0.0
 11
177.524202090182
 21
19.51078818337228
 31
0.0
  0
LINE
  5
1EF
330
1F
100
AcDbEntity
  8
1
  6
Continuous
 62
     4
100
AcDbLine
 10
173.336702090182
 20
21.57328818337228
 30
0.0
 11
173.336702090182
 21
18.88578818337228
 31
0.0
  0
LINE
  5
1F0
330
1F
100
AcDbEntity
  8
1
  6
Continuous
 62
     4
100
AcDbLine
 10
174.336702090182
 20
21.57328818337228
 30
0.0
 11
173.336702090182
 21
21.57328818337228
 31
0.0
  0
LINE
  5
1F1
330
1F
100
AcDbEntity
  8
1
  6
Continuous
 62
     4
100
AcDbLine
 10
174.336702090182
 20
18.88578818337228
 30
0.0
 11
174.336702090182
 21
21.57328818337228
 31
0.0
  0
LINE
  5
1F2
330
1F
100
AcDbEntity
  8
1
  6
Continuous
 62
     4
100
AcDbLine
 10
173.336702090182
 20
18.88578818337228
 30
0.0
 11
174.336702090182
 21
18.88578818337228
 31
0.0
  0
LINE
  5
1F3
330
1F
100
AcDbEntity
  8
1
  6
Continuous
 62
     4
100
AcDbLine
 10
200.711702090182
 20
33.98328818337228
 30
0.0
 11
198.836702090182
 21
33.98328818337228
 31
0.0
  0
LINE
  5
1F4
330
1F
100
AcDbEntity
  8
1
  6
Continuous
 62
     4
100
AcDbLine
 10
201.086702090182
 20
34.10828818337228
 30
0.0
 11
200.711702090182
 21
33.98328818337228
 31
0.0
  0
LINE
  5
1F5
330
1F
100
AcDbEntity
  8
1
  6
Continuous
 62
     4
100
AcDbLine
 10
201.461702090182
 20
34.35828818337228
 30
0.0
 11
201.086702090182
 21
34.10828818337228
 31
0.0
  0
LINE
  5
1F6
330
1F
100
AcDbEntity
  8
1
  6
Continuous
 62
     4
100
AcDbLine
 10
201.711702090182
 20
34.73328818337228
 30
0.0
 11
201.461702090182
 21
34.35828818337228
 31
0.0
  0
LINE
  5
1F7
330
1F
100
AcDbEntity
  8
1
  6
Continuous
 62
     4
100
AcDbLine
 10
201.836702090182
 20
35.23328818337228
 30
0.0
 11
201.711702090182
 21
34.73328818337228
 31
0.0
  0
LINE
  5
1F8
330
1F
100
AcDbEntity
  8
1
  6
Continuous
 62
     4
100
AcDbLine
 10
201.836702090182
 20
35.85828818337228
 30
0.0
 11
201.836702090182
 21
35.23328818337228
 31
0.0
  0
LINE
  5
1F9
330
1F
100
AcDbEntity
  8
1
  6
Continuous
 62
     4
100
AcDbLine
 10
201.711702090182
 20
36.35828818337228
 30
0.0
 11
201.836702090182
 21
35.85828818337228
 31
0.0
  0
LINE
  5
1FA
330
1F
100
AcDbEntity
  8
1
  6
Continuous
 62
     4
100
AcDbLine
 10
201.586702090182
 20
36.60828818337228
 30
0.0
 11
201.711702090182
 21
36.35828818337228
 31
0.0
  0
LINE
  5
1FB
330
1F
100
AcDbEntity
  8
1
  6
Continuous
 62
     4
100
AcDbLine
 10
201.336702090182
 20
36.85828818337228
 30
0.0
 11
201.586702090182
 21
36.60828818337228
 31
0.0
  0
LINE
  5
1FC
330
1F
100
AcDbEntity
  8
1
  6
Continuous
 62
     4
100
AcDbLine
 10
200.836702090182
 20
36.98328818337228
 30
0.0
 11
201.336702090182
 21
36.85828818337228
 31
0.0
  0
LINE
  5
1FD
330
1F
100
AcDbEntity
  8
1
  6
Continuous
 62
     4
100
AcDbLine
 10
201.211702090182
 20
37.10828818337228
 30
0.0
 11
200.836702090182
 21
36.98328818337228
 31
0.0
  0
LINE
  5
1FE
330
1F
100
AcDbEntity
  8
1
  6
Continuous
 62
     4
100
AcDbLine
 10
201.461702090182
 20
37.23328818337228
 30
0.0
 11
201.211702090182
 21
37.10828818337228
 31
0.0
  0
LINE
  5
1FF
330
1F
100
AcDbEntity
  8
1
  6
Continuous
 62
     4
100
AcDbLine
 10
201.711702090182
 20
37.48328818337228
 30
0.0
 11
201.461702090182
 21
37.23328818337228
 31
0.0
  0
LINE
  5
200
330
1F
100
AcDbEntity
  8
1
  6
Continuous
 62
     4
100
AcDbLine
 10
201.836702090182
 20
37.85828818337228
 30
0.0
 11
201.711702090182
 21
37.48328818337228
 31
0.0
  0
LINE
  5
201
330
1F
100
AcDbEntity
  8
1
  6
Continuous
 62
     4
100
AcDbLine
 10
201.836702090182
 20
38.23328818337228
 30
0.0
 11
201.836702090182
 21
37.85828818337228
 31
0.0
  0
LINE
  5
202
330
1F
100
AcDbEntity
  8
1
  6
Continuous
 62
     4
100
AcDbLine
 10
201.711702090182
 20
38.60828818337228
 30
0.0
 11
201.836702090182
 21
38.23328818337228
 31
0.0
  0
LINE
  5
203
330
1F
100
AcDbEntity
  8
1
  6
Continuous
 62
     4
100
AcDbLine
 10
201.336702090182
 20
38.85828818337228
 30
0.0
 11
201.711702090182
 21
38.60828818337228
 31
0.0
  0
LINE
  5
204
330
1F
100
AcDbEntity
  8
1
  6
Continuous
 62
     4
100
AcDbLine
 10
200.711702090182
 20
38.98328818337228
 30
0.0
 11
201.336702090182
 21
38.85828818337228
 31
0.0
  0
LINE
  5
205
330
1F
100
AcDbEntity
  8
1
  6
Continuous
 62
     4
100
AcDbLine
 10
198.836702090182
 20
38.98328818337228
 30
0.0
 11
200.711702090182
 21
38.98328818337228
 31
0.0
  0
LINE
  5
206
330
1F
100
AcDbEntity
  8
1
  6
Continuous
 62
     4
100
AcDbLine
 10
199.586702090182
 20
36.98328818337228
 30
0.0
 11
200.836702090182
 21
36.98328818337228
 31
0.0
  0
LINE
  5
207
330
1F
100
AcDbEntity
  8
1
  6
Continuous
 62
     4
100
AcDbLine
 10
197.336702090182
 20
38.98328818337228
 30
0.0
 11
197.336702090182
 21
33.98328818337228
 31
0.0
  0
LINE
  5
208
330
1F
100
AcDbEntity
  8
1
  6
Continuous
 62
     4
100
AcDbLine
 10
195.836702090182
 20
37.48328818337228
 30
0.0
 11
197.336702090182
 21
38.98328818337228
 31
0.0
  0
LINE
  5
209
330
1F
100
AcDbEntity
  8
1
  6
Continuous
 62
     4
100
AcDbLine
 10
191.836702090182
 20
35.73328818337228
 30
0.0
 11
194.336702090182
 21
35.73328818337228
 31
0.0
  0
LINE
  5
20A
330
1F
100
AcDbEntity
  8
1
  6
Continuous
 62
     4
100
AcDbLine
 10
187.086702090182
 20
36.73328818337228
 30
0.0
 11
187.086702090182
 21
38.98328818337228
 31
0.0
  0
LINE
  5
20B
330
1F
100
AcDbEntity
  8
1
  6
Continuous
 62
     4
100
AcDbLine
 10
189.461702090182
 20
36.85828818337228
 30
0.0
 11
189.086702090182
 21
36.73328818337228
 31
0.0
  0
LINE
  5
20C
330
1F
100
AcDbEntity
  8
1
  6
Continuous
 62
     4
100
AcDbLine
 10
189.836702090182
 20
37.10828818337228
 30
0.0
 11
189.461702090182
 21
36.85828818337228
 31
0.0
  0
LINE
  5
20D
330
1F
100
AcDbEntity
  8
1
  6
Continuous
 62
     4
100
AcDbLine
 10
190.086702090182
 20
37.60828818337228
 30
0.0
 11
189.836702090182
 21
37.10828818337228
 31
0.0
  0
LINE
  5
20E
330
1F
100
AcDbEntity
  8
1
  6
Continuous
 62
     4
100
AcDbLine
 10
190.086702090182
 20
37.98328818337228
 30
0.0
 11
190.086702090182
 21
37.60828818337228
 31
0.0
  0
LINE
  5
20F
330
1F
100
AcDbEntity
  8
1
  6
Continuous
 62
     4
100
AcDbLine
 10
189.961702090182
 20
38.48328818337228
 30
0.0
 11
190.086702090182
 21
37.98328818337228
 31
0.0
  0
LINE
  5
210
330
1F
100
AcDbEntity
  8
1
  6
Continuous
 62
     4
100
AcDbLine
 10
189.586702090182
 20
38.85828818337228
 30
0.0
 11
189.961702090182
 21
38.48328818337228
 31
0.0
  0
LINE
  5
211
330
1F
100
AcDbEntity
  8
1
  6
Continuous
 62
     4
100
AcDbLine
 10
188.961702090182
 20
38.98328818337228
 30
0.0
 11
189.586702090182
 21
38.85828818337228
 31
0.0
  0
LINE
  5
212
330
1F
100
AcDbEntity
  8
1
  6
Continuous
 62
     4
100
AcDbLine
 10
187.086702090182
 20
38.98328818337228
 30
0.0
 11
188.961702090182
 21
38.98328818337228
 31
0.0
  0
LINE
  5
213
330
1F
100
AcDbEntity
  8
1
  6
Continuous
 62
     4
100
AcDbLine
 10
187.086702090182
 20
33.98328818337228
 30
0.0
 11
187.086702090182
 21
36.73328818337228
 31
0.0
  0
LINE
  5
214
330
1F
100
AcDbEntity
  8
1
  6
Continuous
 62
     4
100
AcDbLine
 10
189.336702090182
 20
33.98328818337228
 30
0.0
 11
187.086702090182
 21
33.98328818337228
 31
0.0
  0
LINE
  5
215
330
1F
100
AcDbEntity
  8
1
  6
Continuous
 62
     4
100
AcDbLine
 10
189.836702090182
 20
34.23328818337228
 30
0.0
 11
189.336702090182
 21
33.98328818337228
 31
0.0
  0
LINE
  5
216
330
1F
100
AcDbEntity
  8
1
  6
Continuous
 62
     4
100
AcDbLine
 10
190.086702090182
 20
34.48328818337228
 30
0.0
 11
189.836702090182
 21
34.23328818337228
 31
0.0
  0
LINE
  5
217
330
1F
100
AcDbEntity
  8
1
  6
Continuous
 62
     4
100
AcDbLine
 10
190.336702090182
 20
34.98328818337228
 30
0.0
 11
190.086702090182
 21
34.48328818337228
 31
0.0
  0
LINE
  5
218
330
1F
100
AcDbEntity
  8
1
  6
Continuous
 62
     4
100
AcDbLine
 10
190.336702090182
 20
35.60828818337228
 30
0.0
 11
190.336702090182
 21
34.98328818337228
 31
0.0
  0
LINE
  5
219
330
1F
100
AcDbEntity
  8
1
  6
Continuous
 62
     4
100
AcDbLine
 10
190.086702090182
 20
36.23328818337228
 30
0.0
 11
190.336702090182
 21
35.60828818337228
 31
0.0
  0
LINE
  5
21A
330
1F
100
AcDbEntity
  8
1
  6
Continuous
 62
     4
100
AcDbLine
 10
189.836702090182
 20
36.48328818337228
 30
0.0
 11
190.086702090182
 21
36.23328818337228
 31
0.0
  0
LINE
  5
21B
330
1F
100
AcDbEntity
  8
1
  6
Continuous
 62
     4
100
AcDbLine
 10
189.336702090182
 20
36.73328818337228
 30
0.0
 11
189.836702090182
 21
36.48328818337228
 31
0.0
  0
LINE
  5
21C
330
1F
100
AcDbEntity
  8
1
  6
Continuous
 62
     4
100
AcDbLine
 10
189.086702090182
 20
36.73328818337228
 30
0.0
 11
189.336702090182
 21
36.73328818337228
 31
0.0
  0
LINE
  5
21D
330
1F
100
AcDbEntity
  8
1
  6
Continuous
 62
     4
100
AcDbLine
 10
187.086702090182
 20
36.73328818337228
 30
0.0
 11
189.086702090182
 21
36.73328818337228
 31
0.0
  0
LINE
  5
21E
330
1F
100
AcDbEntity
  8
1
  6
Continuous
 62
     4
100
AcDbLine
 10
183.086702090182
 20
35.73328818337228
 30
0.0
 11
185.586702090182
 21
35.73328818337228
 31
0.0
  0
LINE
  5
21F
330
1F
100
AcDbEntity
  8
1
  6
Continuous
 62
     4
100
AcDbLine
 10
179.836702090182
 20
33.98328818337228
 30
0.0
 11
181.586702090182
 21
38.98328818337228
 31
0.0
  0
LINE
  5
220
330
1F
100
AcDbEntity
  8
1
  6
Continuous
 62
     4
100
AcDbLine
 10
178.086702090182
 20
38.98328818337228
 30
0.0
 11
179.836702090182
 21
33.98328818337228
 31
0.0
  0
LINE
  5
221
330
1F
100
AcDbEntity
  8
1
  6
Continuous
 62
     4
100
AcDbLine
 10
176.586702090182
 20
38.98328818337228
 30
0.0
 11
176.586702090182
 21
33.98328818337228
 31
0.0
  0
LINE
  5
222
330
1F
100
AcDbEntity
  8
1
  6
Continuous
 62
     4
100
AcDbLine
 10
174.836702090182
 20
36.23328818337228
 30
0.0
 11
176.586702090182
 21
38.98328818337228
 31
0.0
  0
LINE
  5
223
330
1F
100
AcDbEntity
  8
1
  6
Continuous
 62
     4
100
AcDbLine
 10
173.086702090182
 20
38.98328818337228
 30
0.0
 11
174.836702090182
 21
36.23328818337228
 31
0.0
  0
LINE
  5
224
330
1F
100
AcDbEntity
  8
1
  6
Continuous
 62
     4
100
AcDbLine
 10
173.086702090182
 20
33.98328818337228
 30
0.0
 11
173.086702090182
 21
38.98328818337228
 31
0.0
  0
LINE
  5
225
330
1F
100
AcDbEntity
  8
1
  6
Continuous
 62
     4
100
AcDbLine
 10
78.5589727901869
 20
-110.854977852461
 30
0.0
 11
78.0589727901869
 21
-111.479977852461
 31
0.0
  0
LINE
  5
226
330
1F
100
AcDbEntity
  8
1
  6
Continuous
 62
     4
100
AcDbLine
 10
78.0589727901869
 20
-110.229977852461
 30
0.0
 11
78.5589727901869
 21
-110.854977852461
 31
0.0
  0
LINE
  5
227
330
1F
100
AcDbEntity
  8
1
  6
Continuous
 62
     4
100
AcDbLine
 10
74.8089727901869
 20
-110.854977852461
 30
0.0
 11
78.5589727901869
 21
-110.854977852461
 31
0.0
  0
LINE
  5
228
330
1F
100
AcDbEntity
  8
1
  6
Continuous
 62
     4
100
AcDbLine
 10
70.6839727901869
 20
-109.417477852461
 30
0.0
 11
73.5589727901869
 21
-109.417477852461
 31
0.0
  0
LINE
  5
229
330
1F
100
AcDbEntity
  8
1
  6
Continuous
 62
     4
100
AcDbLine
 10
70.6839727901869
 20
-109.417477852461
 30
0.0
 11
71.3714727901869
 21
-108.479977852461
 31
0.0
  0
LINE
  5
22A
330
1F
100
AcDbEntity
  8
1
  6
Continuous
 62
     4
100
AcDbLine
 10
72.3089727901869
 20
-111.792477852461
 30
0.0
 11
71.2464727901869
 21
-111.792477852461
 31
0.0
  0
LINE
  5
22B
330
1F
100
AcDbEntity
  8
1
  6
Continuous
 62
     4
100
AcDbLine
 10
72.3089727901869
 20
-110.542477852461
 30
0.0
 11
72.3089727901869
 21
-111.792477852461
 31
0.0
  0
LINE
  5
22C
330
1F
100
AcDbEntity
  8
1
  6
Continuous
 62
     4
100
AcDbLine
 10
71.2464727901869
 20
-110.542477852461
 30
0.0
 11
72.3089727901869
 21
-110.542477852461
 31
0.0
  0
LINE
  5
22D
330
1F
100
AcDbEntity
  8
1
  6
Continuous
 62
     4
100
AcDbLine
 10
71.2464727901869
 20
-111.792477852461
 30
0.0
 11
71.2464727901869
 21
-110.542477852461
 31
0.0
  0
LINE
  5
22E
330
1F
100
AcDbEntity
  8
1
  6
Continuous
 62
     4
100
AcDbLine
 10
73.5589727901869
 20
-113.167477852461
 30
0.0
 11
72.8714727901869
 21
-113.167477852461
 31
0.0
  0
LINE
  5
22F
330
1F
100
AcDbEntity
  8
1
  6
Continuous
 62
     4
100
AcDbLine
 10
73.5589727901869
 20
-109.417477852461
 30
0.0
 11
73.5589727901869
 21
-113.167477852461
 31
0.0
  0
LINE
  5
230
330
1F
100
AcDbEntity
  8
1
  6
Continuous
 62
     4
100
AcDbLine
 10
69.9964727901869
 20
-109.417477852461
 30
0.0
 11
70.6839727901869
 21
-109.417477852461
 31
0.0
  0
LINE
  5
231
330
1F
100
AcDbEntity
  8
1
  6
Continuous
 62
     4
100
AcDbLine
 10
69.9964727901869
 20
-113.167477852461
 30
0.0
 11
69.9964727901869
 21
-109.417477852461
 31
0.0
  0
LINE
  5
232
330
1F
100
AcDbEntity
  8
1
  6
Continuous
 62
     4
100
AcDbLine
 10
67.3089727901869
 20
-113.354977852461
 30
0.0
 11
66.8089727901869
 21
-113.042477852461
 31
0.0
  0
LINE
  5
233
330
1F
100
AcDbEntity
  8
1
  6
Continuous
 62
     4
100
AcDbLine
 10
67.6214727901869
 20
-112.854977852461
 30
0.0
 11
67.3089727901869
 21
-113.354977852461
 31
0.0
  0
LINE
  5
234
330
1F
100
AcDbEntity
  8
1
  6
Continuous
 62
     4
100
AcDbLine
 10
67.8714727901869
 20
-112.104977852461
 30
0.0
 11
67.6214727901869
 21
-112.854977852461
 31
0.0
  0
LINE
  5
235
330
1F
100
AcDbEntity
  8
1
  6
Continuous
 62
     4
100
AcDbLine
 10
68.1839727901869
 20
-110.979977852461
 30
0.0
 11
67.8714727901869
 21
-112.104977852461
 31
0.0
  0
LINE
  5
236
330
1F
100
AcDbEntity
  8
1
  6
Continuous
 62
     4
100
AcDbLine
 10
68.1839727901869
 20
-110.542477852461
 30
0.0
 11
68.1839727901869
 21
-110.979977852461
 31
0.0
  0
LINE
  5
237
330
1F
100
AcDbEntity
  8
1
  6
Continuous
 62
     4
100
AcDbLine
 10
66.3714727901869
 20
-110.542477852461
 30
0.0
 11
68.1839727901869
 21
-110.542477852461
 31
0.0
  0
LINE
  5
238
330
1F
100
AcDbEntity
  8
1
  6
Continuous
 62
     4
100
AcDbLine
 10
64.6839727901869
 20
-109.292477852461
 30
0.0
 11
68.8714727901869
 21
-109.292477852461
 31
0.0
  0
LINE
  5
239
330
1F
100
AcDbEntity
  8
1
  6
Continuous
 62
     4
100
AcDbLine
 10
66.4964727901869
 20
-109.729977852461
 30
0.0
 11
66.6214727901869
 21
-108.479977852461
 31
0.0
  0
LINE
  5
23A
330
1F
100
AcDbEntity
  8
1
  6
Continuous
 62
     4
100
AcDbLine
 10
66.2464727901869
 20
-110.979977852461
 30
0.0
 11
66.4964727901869
 21
-109.729977852461
 31
0.0
  0
LINE
  5
23B
330
1F
100
AcDbEntity
  8
1
  6
Continuous
 62
     4
100
AcDbLine
 10
65.9339727901869
 20
-111.792477852461
 30
0.0
 11
66.2464727901869
 21
-110.979977852461
 31
0.0
  0
LINE
  5
23C
330
1F
100
AcDbEntity
  8
1
  6
Continuous
 62
     4
100
AcDbLine
 10
65.5589727901869
 20
-112.542477852461
 30
0.0
 11
65.9339727901869
 21
-111.792477852461
 31
0.0
  0
LINE
  5
23D
330
1F
100
AcDbEntity
  8
1
  6
Continuous
 62
     4
100
AcDbLine
 10
64.9964727901869
 20
-113.167477852461
 30
0.0
 11
65.5589727901869
 21
-112.542477852461
 31
0.0
  0
LINE
  5
23E
330
1F
100
AcDbEntity
  8
1
  6
Continuous
 62
     4
100
AcDbLine
 10
63.3089727901869
 20
-111.792477852461
 30
0.0
 11
63.9964727901869
 21
-112.542477852461
 31
0.0
  0
LINE
  5
23F
330
1F
100
AcDbEntity
  8
1
  6
Continuous
 62
     4
100
AcDbLine
 10
62.7464727901869
 20
-110.854977852461
 30
0.0
 11
63.3089727901869
 21
-111.792477852461
 31
0.0
  0
LINE
  5
240
330
1F
100
AcDbEntity
  8
1
  6
Continuous
 62
     4
100
AcDbLine
 10
62.3089727901869
 20
-109.729977852461
 30
0.0
 11
62.7464727901869
 21
-110.854977852461
 31
0.0
  0
LINE
  5
241
330
1F
100
AcDbEntity
  8
1
  6
Continuous
 62
     4
100
AcDbLine
 10
63.5589727901869
 20
-109.604977852461
 30
0.0
 11
62.6214727901869
 21
-110.354977852461
 31
0.0
  0
LINE
  5
242
330
1F
100
AcDbEntity
  8
1
  6
Continuous
 62
     4
100
AcDbLine
 10
61.9339727901869
 20
-113.354977852461
 30
0.0
 11
61.4964727901869
 21
-113.167477852461
 31
0.0
  0
LINE
  5
243
330
1F
100
AcDbEntity
  8
1
  6
Continuous
 62
     4
100
AcDbLine
 10
61.9339727901869
 20
-108.479977852461
 30
0.0
 11
61.9339727901869
 21
-113.354977852461
 31
0.0
  0
LINE
  5
244
330
1F
100
AcDbEntity
  8
1
  6
Continuous
 62
     4
100
AcDbLine
 10
61.2464727901869
 20
-110.042477852461
 30
0.0
 11
59.8089727901869
 21
-110.042477852461
 31
0.0
  0
LINE
  5
245
330
1F
100
AcDbEntity
  8
1
  6
Continuous
 62
     4
100
AcDbLine
 10
60.9339727901869
 20
-110.979977852461
 30
0.0
 11
61.2464727901869
 21
-110.042477852461
 31
0.0
  0
LINE
  5
246
330
1F
100
AcDbEntity
  8
1
  6
Continuous
 62
     4
100
AcDbLine
 10
60.3714727901869
 20
-111.917477852461
 30
0.0
 11
60.9339727901869
 21
-110.979977852461
 31
0.0
  0
LINE
  5
247
330
1F
100
AcDbEntity
  8
1
  6
Continuous
 62
     4
100
AcDbLine
 10
59.8089727901869
 20
-112.542477852461
 30
0.0
 11
60.3714727901869
 21
-111.917477852461
 31
0.0
  0
LINE
  5
248
330
1F
100
AcDbEntity
  8
1
  6
Continuous
 62
     4
100
AcDbLine
 10
57.0589727901869
 20
-109.104977852461
 30
0.0
 11
58.7464727901869
 21
-109.104977852461
 31
0.0
  0
LINE
  5
249
330
1F
100
AcDbEntity
  8
1
  6
Continuous
 62
     4
100
AcDbLine
 10
58.9964727901869
 20
-112.854977852461
 30
0.0
 11
58.9964727901869
 21
-112.542477852461
 31
0.0
  0
LINE
  5
24A
330
1F
100
AcDbEntity
  8
1
  6
Continuous
 62
     4
100
AcDbLine
 10
58.7464727901869
 20
-113.167477852461
 30
0.0
 11
58.9964727901869
 21
-112.854977852461
 31
0.0
  0
LINE
  5
24B
330
1F
100
AcDbEntity
  8
1
  6
Continuous
 62
     4
100
AcDbLine
 10
58.1839727901869
 20
-113.167477852461
 30
0.0
 11
58.7464727901869
 21
-113.167477852461
 31
0.0
  0
LINE
  5
24C
330
1F
100
AcDbEntity
  8
1
  6
Continuous
 62
     4
100
AcDbLine
 10
57.8714727901869
 20
-112.729977852461
 30
0.0
 11
58.1839727901869
 21
-113.167477852461
 31
0.0
  0
LINE
  5
24D
330
1F
100
AcDbEntity
  8
1
  6
Continuous
 62
     4
100
AcDbLine
 10
57.8714727901869
 20
-111.167477852461
 30
0.0
 11
57.8714727901869
 21
-112.729977852461
 31
0.0
  0
LINE
  5
24E
330
1F
100
AcDbEntity
  8
1
  6
Continuous
 62
     4
100
AcDbLine
 10
57.0589727901869
 20
-113.167477852461
 30
0.0
 11
57.0589727901869
 21
-111.167477852461
 31
0.0
  0
LINE
  5
24F
330
1F
100
AcDbEntity
  8
1
  6
Continuous
 62
     4
100
AcDbLine
 10
55.8089727901869
 20
-113.042477852461
 30
0.0
 11
55.3714727901869
 21
-113.354977852461
 31
0.0
  0
LINE
  5
250
330
1F
100
AcDbEntity
  8
1
  6
Continuous
 62
     4
100
AcDbLine
 10
56.0589727901869
 20
-112.729977852461
 30
0.0
 11
55.8089727901869
 21
-113.042477852461
 31
0.0
  0
LINE
  5
251
330
1F
100
AcDbEntity
  8
1
  6
Continuous
 62
     4
100
AcDbLine
 10
56.2464727901869
 20
-112.229977852461
 30
0.0
 11
56.0589727901869
 21
-112.729977852461
 31
0.0
  0
LINE
  5
252
330
1F
100
AcDbEntity
  8
1
  6
Continuous
 62
     4
100
AcDbLine
 10
56.3714727901869
 20
-111.167477852461
 30
0.0
 11
56.2464727901869
 21
-112.229977852461
 31
0.0
  0
LINE
  5
253
330
1F
100
AcDbEntity
  8
1
  6
Continuous
 62
     4
100
AcDbLine
 10
57.7464727901869
 20
-109.604977852461
 30
0.0
 11
58.3089727901869
 21
-110.667477852461
 31
0.0
  0
LINE
  5
254
330
1F
100
AcDbEntity
  8
1
  6
Continuous
 62
     4
100
AcDbLine
 10
55.9339727901869
 20
-110.354977852461
 30
0.0
 11
58.0589727901869
 21
-110.229977852461
 31
0.0
  0
LINE
  5
255
330
1F
100
AcDbEntity
  8
1
  6
Continuous
 62
     4
100
AcDbLine
 10
57.0589727901869
 20
-109.104977852461
 30
0.0
 11
56.4964727901869
 21
-110.354977852461
 31
0.0
  0
LINE
  5
256
330
1F
100
AcDbEntity
  8
1
  6
Continuous
 62
     4
100
AcDbLine
 10
57.1839727901869
 20
-108.354977852461
 30
0.0
 11
57.1839727901869
 21
-109.104977852461
 31
0.0
  0
LINE
  5
257
330
1F
100
AcDbEntity
  8
1
  6
Continuous
 62
     4
100
AcDbLine
 10
55.6839727901869
 20
-109.104977852461
 30
0.0
 11
57.0589727901869
 21
-109.104977852461
 31
0.0
  0
LINE
  5
258
330
1F
100
AcDbEntity
  8
1
  6
Continuous
 62
     4
100
AcDbLine
 10
54.6839727901869
 20
-113.167477852461
 30
0.0
 11
55.2464727901869
 21
-111.167477852461
 31
0.0
  0
LINE
  5
259
330
1F
100
AcDbEntity
  8
1
  6
Continuous
 62
     4
100
AcDbLine
 10
54.5589727901869
 20
-109.917477852461
 30
0.0
 11
54.9964727901869
 21
-110.354977852461
 31
0.0
  0
LINE
  5
25A
330
1F
100
AcDbEntity
  8
1
  6
Continuous
 62
     4
100
AcDbLine
 10
54.9964727901869
 20
-108.479977852461
 30
0.0
 11
55.2464727901869
 21
-108.979977852461
 31
0.0
  0
LINE
  5
25B
330
1F
100
AcDbEntity
  8
1
  6
Continuous
 62
     4
100
AcDbLine
 10
137.262541579208
 20
-95.135874985972
 30
0.0
 11
138.262541579208
 21
-95.760874985972
 31
0.0
  0
LINE
  5
25C
330
1F
100
AcDbEntity
  8
1
  6
Continuous
 62
     4
100
AcDbLine
 10
138.637541579208
 20
-94.823374985972
 30
0.0
 11
137.825041579208
 21
-94.198374985972
 31
0.0
  0
LINE
  5
25D
330
1F
100
AcDbEntity
  8
1
  6
Continuous
 62
     4
100
AcDbLine
 10
139.325041579208
 20
-94.073374985972
 30
0.0
 11
139.762541579208
 21
-94.510874985972
 31
0.0
  0
LINE
  5
25E
330
1F
100
AcDbEntity
  8
1
  6
Continuous
 62
     4
100
AcDbLine
 10
140.075041579208
 20
-94.198374985972
 30
0.0
 11
139.637541579208
 21
-93.760874985972
 31
0.0
  0
LINE
  5
25F
330
1F
100
AcDbEntity
  8
1
  6
Continuous
 62
     4
100
AcDbLine
 10
139.762541579208
 20
-96.073374985972
 30
0.0
 11
140.450041579208
 21
-95.135874985972
 31
0.0
  0
LINE
  5
260
330
1F
100
AcDbEntity
  8
1
  6
Continuous
 62
     4
100
AcDbLine
 10
138.637541579208
 20
-97.010874985972
 30
0.0
 11
139.762541579208
 21
-96.073374985972
 31
0.0
  0
LINE
  5
261
330
1F
100
AcDbEntity
  8
1
  6
Continuous
 62
     4
100
AcDbLine
 10
137.575041579208
 20
-97.635874985972
 30
0.0
 11
138.637541579208
 21
-97.010874985972
 31
0.0
  0
LINE
  5
262
330
1F
100
AcDbEntity
  8
1
  6
Continuous
 62
     4
100
AcDbLine
 10
134.887541579208
 20
-96.260874985972
 30
0.0
 11
135.325041579208
 21
-96.885874985972
 31
0.0
  0
LINE
  5
263
330
1F
100
AcDbEntity
  8
1
  6
Continuous
 62
     4
100
AcDbLine
 10
134.325041579208
 20
-95.760874985972
 30
0.0
 11
134.887541579208
 21
-96.260874985972
 31
0.0
  0
LINE
  5
264
330
1F
100
AcDbEntity
  8
1
  6
Continuous
 62
     4
100
AcDbLine
 10
133.950041579208
 20
-93.760874985972
 30
0.0
 11
134.200041579208
 21
-94.073374985972
 31
0.0
  0
LINE
  5
265
330
1F
100
AcDbEntity
  8
1
  6
Continuous
 62
     4
100
AcDbLine
 10
133.387541579208
 20
-93.448374985972
 30
0.0
 11
133.950041579208
 21
-93.760874985972
 31
0.0
  0
LINE
  5
266
330
1F
100
AcDbEntity
  8
1
  6
Continuous
 62
     4
100
AcDbLine
 10
134.637541579208
 20
-94.698374985972
 30
0.0
 11
132.700041579208
 21
-94.698374985972
 31
0.0
  0
LINE
  5
267
330
1F
100
AcDbEntity
  8
1
  6
Continuous
 62
     4
100
AcDbLine
 10
133.637541579208
 20
-95.760874985972
 30
0.0
 11
134.637541579208
 21
-94.698374985972
 31
0.0
  0
LINE
  5
268
330
1F
100
AcDbEntity
  8
1
  6
Continuous
 62
     4
100
AcDbLine
 10
132.262541579208
 20
-96.698374985972
 30
0.0
 11
133.637541579208
 21
-95.760874985972
 31
0.0
  0
LINE
  5
269
330
1F
100
AcDbEntity
  8
1
  6
Continuous
 62
     4
100
AcDbLine
 10
133.825041579208
 20
-97.635874985972
 30
0.0
 11
133.825041579208
 21
-95.635874985972
 31
0.0
  0
LINE
  5
26A
330
1F
100
AcDbEntity
  8
1
  6
Continuous
 62
     4
100
AcDbLine
 10
127.075041579208
 20
-98.135874985972
 30
0.0
 11
130.075041579208
 21
-98.135874985972
 31
0.0
  0
LINE
  5
26B
330
1F
100
AcDbEntity
  8
1
  6
Continuous
 62
     4
100
AcDbLine
 10
129.825041579208
 20
-94.885874985972
 30
0.0
 11
127.075041579208
 21
-98.135874985972
 31
0.0
  0
LINE
  5
26C
330
1F
100
AcDbEntity
  8
1
  6
Continuous
 62
     4
100
AcDbLine
 10
130.075041579208
 20
-94.385874985972
 30
0.0
 11
129.825041579208
 21
-94.885874985972
 31
0.0
  0
LINE
  5
26D
330
1F
100
AcDbEntity
  8
1
  6
Continuous
 62
     4
100
AcDbLine
 10
130.075041579208
 20
-93.885874985972
 30
0.0
 11
130.075041579208
 21
-94.385874985972
 31
0.0
  0
LINE
  5
26E
330
1F
100
AcDbEntity
  8
1
  6
Continuous
 62
     4
100
AcDbLine
 10
129.825041579208
 20
-93.510874985972
 30
0.0
 11
130.075041579208
 21
-93.885874985972
 31
0.0
  0
LINE
  5
26F
330
1F
100
AcDbEntity
  8
1
  6
Continuous
 62
     4
100
AcDbLine
 10
129.450041579208
 20
-93.260874985972
 30
0.0
 11
129.825041579208
 21
-93.510874985972
 31
0.0
  0
LINE
  5
270
330
1F
100
AcDbEntity
  8
1
  6
Continuous
 62
     4
100
AcDbLine
 10
128.950041579208
 20
-93.135874985972
 30
0.0
 11
129.450041579208
 21
-93.260874985972
 31
0.0
  0
LINE
  5
271
330
1F
100
AcDbEntity
  8
1
  6
Continuous
 62
     4
100
AcDbLine
 10
128.200041579208
 20
-93.135874985972
 30
0.0
 11
128.950041579208
 21
-93.135874985972
 31
0.0
  0
LINE
  5
272
330
1F
100
AcDbEntity
  8
1
  6
Continuous
 62
     4
100
AcDbLine
 10
127.700041579208
 20
-93.260874985972
 30
0.0
 11
128.200041579208
 21
-93.135874985972
 31
0.0
  0
LINE
  5
273
330
1F
100
AcDbEntity
  8
1
  6
Continuous
 62
     4
100
AcDbLine
 10
127.325041579208
 20
-93.510874985972
 30
0.0
 11
127.700041579208
 21
-93.260874985972
 31
0.0
  0
LINE
  5
274
330
1F
100
AcDbEntity
  8
1
  6
Continuous
 62
     4
100
AcDbLine
 10
127.075041579208
 20
-93.885874985972
 30
0.0
 11
127.325041579208
 21
-93.510874985972
 31
0.0
  0
LINE
  5
275
330
1F
100
AcDbEntity
  8
1
  6
Continuous
 62
     4
100
AcDbLine
 10
123.575041579208
 20
-98.135874985972
 30
0.0
 11
125.575041579208
 21
-93.135874985972
 31
0.0
  0
LINE
  5
276
330
1F
100
AcDbEntity
  8
1
  6
Continuous
 62
     4
100
AcDbLine
 10
122.075041579208
 20
-93.135874985972
 30
0.0
 11
122.075041579208
 21
-98.135874985972
 31
0.0
  0
LINE
  5
277
330
1F
100
AcDbEntity
  8
1
  6
Continuous
 62
     4
100
AcDbLine
 10
120.575041579208
 20
-94.635874985972
 30
0.0
 11
122.075041579208
 21
-93.135874985972
 31
0.0
  0
LINE
  5
278
330
1F
100
AcDbEntity
  8
1
  6
Continuous
 62
     4
100
AcDbLine
 10
117.200041579208
 20
-98.135874985972
 30
0.0
 11
119.075041579208
 21
-98.135874985972
 31
0.0
  0
LINE
  5
279
330
1F
100
AcDbEntity
  8
1
  6
Continuous
 62
     4
100
AcDbLine
 10
116.700041579208
 20
-98.010874985972
 30
0.0
 11
117.200041579208
 21
-98.135874985972
 31
0.0
  0
LINE
  5
27A
330
1F
100
AcDbEntity
  8
1
  6
Continuous
 62
     4
100
AcDbLine
 10
116.450041579208
 20
-97.885874985972
 30
0.0
 11
116.700041579208
 21
-98.010874985972
 31
0.0
  0
LINE
  5
27B
330
1F
100
AcDbEntity
  8
1
  6
Continuous
 62
     4
100
AcDbLine
 10
116.200041579208
 20
-97.635874985972
 30
0.0
 11
116.450041579208
 21
-97.885874985972
 31
0.0
  0
LINE
  5
27C
330
1F
100
AcDbEntity
  8
1
  6
Continuous
 62
     4
100
AcDbLine
 10
116.075041579208
 20
-97.135874985972
 30
0.0
 11
116.200041579208
 21
-97.635874985972
 31
0.0
  0
LINE
  5
27D
330
1F
100
AcDbEntity
  8
1
  6
Continuous
 62
     4
100
AcDbLine
 10
116.075041579208
 20
-95.635874985972
 30
0.0
 11
116.075041579208
 21
-97.135874985972
 31
0.0
  0
LINE
  5
27E
330
1F
100
AcDbEntity
  8
1
  6
Continuous
 62
     4
100
AcDbLine
 10
116.200041579208
 20
-95.135874985972
 30
0.0
 11
116.075041579208
 21
-95.635874985972
 31
0.0
  0
LINE
  5
27F
330
1F
100
AcDbEntity
  8
1
  6
Continuous
 62
     4
100
AcDbLine
 10
116.450041579208
 20
-94.885874985972
 30
0.0
 11
116.200041579208
 21
-95.135874985972
 31
0.0
  0
LINE
  5
280
330
1F
100
AcDbEntity
  8
1
  6
Continuous
 62
     4
100
AcDbLine
 10
116.700041579208
 20
-94.760874985972
 30
0.0
 11
116.450041579208
 21
-94.885874985972
 31
0.0
  0
LINE
  5
281
330
1F
100
AcDbEntity
  8
1
  6
Continuous
 62
     4
100
AcDbLine
 10
117.200041579208
 20
-94.635874985972
 30
0.0
 11
116.700041579208
 21
-94.760874985972
 31
0.0
  0
LINE
  5
282
330
1F
100
AcDbEntity
  8
1
  6
Continuous
 62
     4
100
AcDbLine
 10
119.075041579208
 20
-94.635874985972
 30
0.0
 11
117.200041579208
 21
-94.635874985972
 31
0.0
  0
LINE
  5
283
330
1F
100
AcDbEntity
  8
1
  6
Continuous
 62
     4
100
AcDbLine
 10
111.075041579208
 20
-98.135874985972
 30
0.0
 11
111.075041579208
 21
-95.635874985972
 31
0.0
  0
LINE
  5
284
330
1F
100
AcDbEntity
  8
1
  6
Continuous
 62
     4
100
AcDbLine
 10
113.075041579208
 20
-95.635874985972
 30
0.0
 11
114.575041579208
 21
-98.135874985972
 31
0.0
  0
LINE
  5
285
330
1F
100
AcDbEntity
  8
1
  6
Continuous
 62
     4
100
AcDbLine
 10
113.450041579208
 20
-95.635874985972
 30
0.0
 11
113.075041579208
 21
-95.635874985972
 31
0.0
  0
LINE
  5
286
330
1F
100
AcDbEntity
  8
1
  6
Continuous
 62
     4
100
AcDbLine
 10
113.950041579208
 20
-95.510874985972
 30
0.0
 11
113.450041579208
 21
-95.635874985972
 31
0.0
  0
LINE
  5
287
330
1F
100
AcDbEntity
  8
1
  6
Continuous
 62
     4
100
AcDbLine
 10
114.325041579208
 20
-95.260874985972
 30
0.0
 11
113.950041579208
 21
-95.510874985972
 31
0.0
  0
LINE
  5
288
330
1F
100
AcDbEntity
  8
1
  6
Continuous
 62
     4
100
AcDbLine
 10
114.450041579208
 20
-95.010874985972
 30
0.0
 11
114.325041579208
 21
-95.260874985972
 31
0.0
  0
LINE
  5
289
330
1F
100
AcDbEntity
  8
1
  6
Continuous
 62
     4
100
AcDbLine
 10
114.575041579208
 20
-94.635874985972
 30
0.0
 11
114.450041579208
 21
-95.010874985972
 31
0.0
  0
LINE
  5
28A
330
1F
100
AcDbEntity
  8
1
  6
Continuous
 62
     4
100
AcDbLine
 10
114.575041579208
 20
-94.135874985972
 30
0.0
 11
114.575041579208
 21
-94.635874985972
 31
0.0
  0
LINE
  5
28B
330
1F
100
AcDbEntity
  8
1
  6
Continuous
 62
     4
100
AcDbLine
 10
114.450041579208
 20
-93.760874985972
 30
0.0
 11
114.575041579208
 21
-94.135874985972
 31
0.0
  0
LINE
  5
28C
330
1F
100
AcDbEntity
  8
1
  6
Continuous
 62
     4
100
AcDbLine
 10
114.325041579208
 20
-93.510874985972
 30
0.0
 11
114.450041579208
 21
-93.760874985972
 31
0.0
  0
LINE
  5
28D
330
1F
100
AcDbEntity
  8
1
  6
Continuous
 62
     4
100
AcDbLine
 10
113.950041579208
 20
-93.260874985972
 30
0.0
 11
114.325041579208
 21
-93.510874985972
 31
0.0
  0
LINE
  5
28E
330
1F
100
AcDbEntity
  8
1
  6
Continuous
 62
     4
100
AcDbLine
 10
113.450041579208
 20
-93.135874985972
 30
0.0
 11
113.950041579208
 21
-93.260874985972
 31
0.0
  0
LINE
  5
28F
330
1F
100
AcDbEntity
  8
1
  6
Continuous
 62
     4
100
AcDbLine
 10
111.075041579208
 20
-93.135874985972
 30
0.0
 11
113.450041579208
 21
-93.135874985972
 31
0.0
  0
LINE
  5
290
330
1F
100
AcDbEntity
  8
1
  6
Continuous
 62
     4
100
AcDbLine
 10
111.075041579208
 20
-95.635874985972
 30
0.0
 11
111.075041579208
 21
-93.135874985972
 31
0.0
  0
LINE
  5
291
330
1F
100
AcDbEntity
  8
1
  6
Continuous
 62
     4
100
AcDbLine
 10
113.075041579208
 20
-95.635874985972
 30
0.0
 11
111.075041579208
 21
-95.635874985972
 31
0.0
  0
LINE
  5
3A1
330
1F
100
AcDbEntity
  8
1
  6
Continuous
 62
     4
100
AcDbLine
 10
31.2428572142012
 20
-84.875574741909
 30
0.0
 11
29.4859352760359
 21
-86.6324966800743
 31
0.0
  0
LINE
  5
3A2
330
1F
100
AcDbEntity
  8
1
  6
Continuous
 62
     4
100
AcDbLine
 10
31.2428572142012
 20
-84.875574741909
 30
0.0
 11
30.5997791523665
 21
-87.275574741909
 31
0.0
  0
LINE
  5
3A3
330
1F
100
AcDbEntity
  8
1
  6
Continuous
 62
     4
100
AcDbLine
 10
101.242857214201
 20
-84.875574741909
 30
0.0
 11
101.885935276036
 21
-87.275574741909
 31
0.0
  0
LINE
  5
3A4
330
1F
100
AcDbEntity
  8
1
  6
Continuous
 62
     4
100
AcDbLine
 10
101.242857214201
 20
-84.875574741909
 30
0.0
 11
102.999779152367
 21
-86.6324966800743
 31
0.0
  0
LINE
  5
3A5
330
1F
100
AcDbEntity
  8
1
  6
Continuous
 62
     3
100
AcDbLine
 10
101.242857214201
 20
357.341327892601
 30
0.0
 11
89.8409334255545
 21
357.341327892601
 31
0.0
  0
LINE
  5
3A6
330
1F
100
AcDbEntity
  8
1
  6
Continuous
 62
     3
100
AcDbLine
 10
101.242857214201
 20
384.341327892601
 30
0.0
 11
101.242857214201
 21
357.341327892601
 31
0.0
  0
LINE
  5
3A7
330
1F
100
AcDbEntity
  8
1
  6
Continuous
 62
     3
100
AcDbLine
 10
89.8409334255545
 20
384.341327892601
 30
0.0
 11
101.242857214201
 21
384.341327892601
 31
0.0
  0
LINE
  5
3A8
330
1F
100
AcDbEntity
  8
1
  6
Continuous
 62
     3
100
AcDbLine
 10
90.2428572142012
 20
370.841327892601
 30
0.0
 11
101.242857214201
 21
370.841327892601
 31
0.0
  0
LINE
  5
3A9
330
1F
100
AcDbEntity
  8
1
  6
Continuous
 62
     3
100
AcDbLine
 10
31.2428572142012
 20
370.841327892601
 30
0.0
 11
42.2428572142012
 21
370.841327892601
 31
0.0
  0
LINE
  5
3AA
330
1F
100
AcDbEntity
  8
1
  6
Continuous
 62
     3
100
AcDbLine
 10
31.2428572142012
 20
384.341327892601
 30
0.0
 11
42.6447810028479
 21
384.341327892601
 31
0.0
  0
LINE
  5
3AB
330
1F
100
AcDbEntity
  8
1
  6
Continuous
 62
     3
100
AcDbLine
 10
31.2428572142012
 20
357.341327892601
 30
0.0
 11
31.2428572142012
 21
384.341327892601
 31
0.0
  0
LINE
  5
3AC
330
1F
100
AcDbEntity
  8
1
  6
Continuous
 62
     3
100
AcDbLine
 10
42.6447810028479
 20
357.341327892601
 30
0.0
 11
31.2428572142012
 21
357.341327892601
 31
0.0
  0
LINE
  5
3AD
330
1F
100
AcDbEntity
  8
2
  6
Continuous
 62
     3
100
AcDbLine
 10
-79.2198578937958
 20
-84.875574741909
 30
0.0
 11
-79.2198578937958
 21
-68.339676357047
 31
0.0
  0
LINE
  5
3AE
330
1F
100
AcDbEntity
  8
2
  6
Continuous
 62
     3
100
AcDbLine
 10
-81.7198578937955
 20
-65.1642498765036
 30
0.0
 11
-80.7198578937961
 21
-65.7416001456935
 31
0.0
  0
LINE
  5
3AF
330
1F
100
AcDbEntity
  8
2
  6
Continuous
 62
     3
100
AcDbLine
 10
-82.2198578937958
 20
-64.298224472719
 30
0.0
 11
-82.2198578937958
 21
-61.875574741909
 31
0.0
  0
LINE
  5
3B0
330
1F
100
AcDbEntity
  8
2
  6
Continuous
 62
     3
100
AcDbLine
 10
-52.1215866156903
 20
-86.875574741909
 30
0.0
 11
-70.3181291719013
 21
-86.875574741909
 31
0.0
  0
LINE
  5
3B1
330
1F
100
AcDbEntity
  8
2
  6
DOT_CENTER
 62
     1
100
AcDbLine
 10
-82.2198578937958
 20
-84.875574741909
 30
0.0
 11
-40.2198578937958
 21
-84.875574741909
 31
0.0
  0
LINE
  5
3B2
330
1F
100
AcDbEntity
  8
2
  6
Continuous
 62
     3
100
AcDbLine
 10
87.3144300894552
 20
382.841327892601
 30
0.0
 11
87.0274669050282
 21
382.841327892602
 31
0.0
  0
LINE
  5
3B3
330
1F
100
AcDbEntity
  8
2
  6
Continuous
 62
     3
100
AcDbLine
 10
45.1712843389472
 20
382.841327892601
 30
0.0
 11
45.4582475233752
 21
382.841327892601
 31
0.0
  0
LINE
  5
3B4
330
1F
100
AcDbEntity
  8
2
  6
DOT_CENTER
 62
     1
100
AcDbLine
 10
66.2428572142012
 20
346.841327892601
 30
0.0
 11
66.2428572142012
 21
394.841327892601
 31
0.0
  0
LINE
  5
3B5
330
1F
100
AcDbEntity
  8
2
  6
DOT_CENTER
 62
     1
100
AcDbLine
 10
28.2428572142012
 20
370.841327892601
 30
0.0
 11
104.242857214201
 21
370.841327892601
 31
0.0
  0
LINE
  5
3B6
330
1F
100
AcDbEntity
  8
2
  6
Continuous
 62
     3
100
AcDbLine
 10
87.3144300894552
 20
358.841327892601
 30
0.0
 11
87.0274669050282
 21
358.841327892601
 31
0.0
  0
LINE
  5
3B7
330
1F
100
AcDbEntity
  8
2
  6
Continuous
 62
     3
100
AcDbLine
 10
45.1712843389472
 20
358.841327892601
 30
0.0
 11
45.4582475233752
 21
358.841327892601
 31
0.0
  0
LINE
  5
3B8
330
1F
100
AcDbEntity
  8
2
  6
Continuous
 62
     3
100
AcDbLine
 10
-40.2198578937958
 20
-61.875574741909
 30
0.0
 11
-40.2198578937953
 21
-64.298224472719
 31
0.0
  0
LINE
  5
3B9
330
1F
100
AcDbEntity
  8
2
  6
Continuous
 62
     3
100
AcDbLine
 10
-41.7198578937958
 20
-65.741600145693
 30
0.0
 11
-40.7198578937958
 21
-65.164249876504
 31
0.0
  0
LINE
  5
3BA
330
1F
100
AcDbEntity
  8
2
  6
Continuous
 62
     3
100
AcDbLine
 10
-43.2198578937964
 20
-68.339676357047
 30
0.0
 11
-43.2198578937958
 21
-84.875574741909
 31
0.0
  0
LINE
  5
3BB
330
1F
100
AcDbEntity
  8
3
  6
Continuous
 62
     3
100
AcDbLine
 10
-38.2609649090026
 20
301.841327888244
 30
0.0
 11
-37.6849477664675
 21
268.841327892601
 31
0.0
  0
LINE
  5
3BC
330
1F
100
AcDbEntity
  8
3
  6
Continuous
 62
     3
100
AcDbLine
 10
-73.6466324037958
 20
310.12442525809
 30
0.0
 11
-48.7930833837958
 21
310.12442525809
 31
0.0
  0
LINE
  5
3BD
330
1F
100
AcDbEntity
  8
3
  6
Continuous
 62
     3
100
AcDbLine
 10
-42.4778890260337
 20
268.841327892601
 30
0.0
 11
-42.7254980317392
 21
303.785314602024
 31
0.0
  0
LINE
  5
3BE
330
1F
100
AcDbEntity
  8
3
  6
Continuous
 62
     3
100
AcDbLine
 10
-44.7665291675518
 20
268.841327892601
 30
0.0
 11
-45.372748924381
 21
303.571634424889
 31
0.0
  0
LINE
  5
3BF
330
1F
100
AcDbEntity
  8
3
  6
Continuous
 62
     3
100
AcDbLine
 10
-84.1494187909524
 20
301.841327888244
 30
0.0
 11
-84.1787508785892
 21
301.841327888244
 31
0.0
  0
LINE
  5
3C0
330
1F
100
AcDbEntity
  8
3
  6
Continuous
 62
     3
100
AcDbLine
 10
-38.2609649090026
 20
301.841327888244
 30
0.0
 11
-38.2902969966392
 21
301.841327888244
 31
0.0
  0
LINE
  5
3C1
330
1F
100
AcDbEntity
  8
3
  6
Continuous
 62
     3
100
AcDbLine
 10
-58.527531551559
 20
303.785314602024
 30
0.0
 11
-58.8864756170009
 21
268.841327892601
 31
0.0
  0
LINE
  5
3C2
330
1F
100
AcDbEntity
  8
3
  6
Continuous
 62
     3
100
AcDbLine
 10
-63.9121842385722
 20
303.785314602024
 30
0.0
 11
-63.5532401704365
 21
268.841327892601
 31
0.0
  0
LINE
  5
3C3
330
1F
100
AcDbEntity
  8
3
  6
Continuous
 62
     3
100
AcDbLine
 10
-77.6731866198675
 20
268.841327892601
 30
0.0
 11
-77.0669670435504
 21
303.571624254729
 31
0.0
  0
LINE
  5
3C4
330
1F
100
AcDbEntity
  8
3
  6
Continuous
 62
     3
100
AcDbLine
 10
-79.9618267615575
 20
268.841327892601
 30
0.0
 11
-79.714217755852
 21
303.785314602024
 31
0.0
  0
LINE
  5
3C5
330
1F
100
AcDbEntity
  8
3
  6
Continuous
 62
     3
100
AcDbLine
 10
-37.6849477664675
 20
268.841327892601
 30
0.0
 11
-84.7547680211236
 21
268.841327892601
 31
0.0
  0
LINE
  5
3C6
330
1F
100
AcDbEntity
  8
3
  6
Continuous
 62
     3
100
AcDbLine
 10
-74.8211033567232
 20
309.875254537259
 30
0.0
 11
-74.3821499598528
 21
310.013779548483
 31
0.0
  0
LINE
  5
3C7
330
1F
100
AcDbEntity
  8
3
  6
Continuous
 62
     3
100
AcDbLine
 10
-84.1787508785892
 20
301.841327888244
 30
0.0
 11
-84.7547680211236
 21
268.841327892601
 31
0.0
  0
LINE
  5
3C8
330
1F
100
AcDbEntity
  8
3
  6
Continuous
 62
     3
100
AcDbLine
 10
-66.6046342046458
 20
257.341327892601
 30
0.0
 11
-66.6046342046458
 21
267.934253690774
 31
0.0
  0
LINE
  5
3C9
330
1F
100
AcDbEntity
  8
3
  6
Continuous
 62
     3
100
AcDbLine
 10
-55.8350815829458
 20
257.341327892601
 30
0.0
 11
-55.8350815829458
 21
267.934253690774
 31
0.0
  0
LINE
  5
3CA
330
1F
100
AcDbEntity
  8
3
  6
Continuous
 62
     3
100
AcDbLine
 10
-74.2198578937958
 20
268.552652758006
 30
0.0
 11
-74.2198578937958
 21
257.341327892601
 31
0.0
  0
LINE
  5
3CB
330
1F
100
AcDbEntity
  8
3
  6
Continuous
 62
     3
100
AcDbLine
 10
-84.9698578937958
 20
243.841327892601
 30
0.0
 11
-84.9698578937958
 21
257.341327892601
 31
0.0
  0
LINE
  5
3CC
330
1F
100
AcDbEntity
  8
3
  6
Continuous
 62
     3
100
AcDbLine
 10
-84.9698578937958
 20
243.841327892601
 30
0.0
 11
-37.4698578937958
 21
243.841327892601
 31
0.0
  0
LINE
  5
3CD
330
1F
100
AcDbEntity
  8
3
  6
Continuous
 62
     3
100
AcDbLine
 10
-37.4698578937958
 20
257.341327892601
 30
0.0
 11
-84.9698578937958
 21
257.341327892601
 31
0.0
  0
LINE
  5
3CE
330
1F
100
AcDbEntity
  8
3
  6
Continuous
 62
     3
100
AcDbLine
 10
-37.4698578937958
 20
243.841327892601
 30
0.0
 11
-37.4698578937958
 21
257.341327892601
 31
0.0
  0
LINE
  5
3CF
330
1F
100
AcDbEntity
  8
3
  6
Continuous
 62
     3
100
AcDbLine
 10
-48.2198578937958
 20
268.552652758006
 30
0.0
 11
-48.2198578937958
 21
257.341327892601
 31
0.0
  0
LINE
  5
3D0
330
1F
100
AcDbEntity
  8
3
  6
Continuous
 62
     3
100
AcDbLine
 10
-82.2198578937958
 20
58.124425258091
 30
0.0
 11
-82.2198578937958
 21
243.841327892601
 31
0.0
  0
LINE
  5
3D1
330
1F
100
AcDbEntity
  8
3
  6
Continuous
 62
     3
100
AcDbLine
 10
-40.2198578937958
 20
58.124425258091
 30
0.0
 11
-40.2198578937958
 21
243.841327892601
 31
0.0
  0
LINE
  5
3D2
330
1F
100
AcDbEntity
  8
3
  6
Continuous
 62
     3
100
AcDbLine
 10
-40.2198578937958
 20
-61.875574741909
 30
0.0
 11
-40.2198578937958
 21
53.124425258091
 31
0.0
  0
LINE
  5
3D3
330
1F
100
AcDbEntity
  8
3
  6
Continuous
 62
     3
100
AcDbLine
 10
-82.2198578937958
 20
-61.875574741909
 30
0.0
 11
-82.2198578937958
 21
53.124425258091
 31
0.0
  0
LINE
  5
3D4
330
1F
100
AcDbEntity
  8
3
  6
Continuous
 62
     3
100
AcDbLine
 10
-82.2198578937958
 20
-61.875574741909
 30
0.0
 11
-40.2198578937958
 21
-61.875574741909
 31
0.0
  0
LINE
  5
3D5
330
1F
100
AcDbEntity
  8
3
  6
DOT_CENTER
 62
     1
100
AcDbLine
 10
-61.2198578937958
 20
-109.87557474191
 30
0.0
 11
-61.2198578937958
 21
316.12442525809
 31
0.0
  0
LINE
  5
3D6
330
1F
100
AcDbEntity
  8
0
  6
Continuous
 62
     3
100
AcDbLine
 10
76.9494249711012
 20
391.7606827313
 30
0.0
 11
79.0062660570012
 21
390.573164976701
 31
0.0
  0
LINE
  5
3D7
330
1F
100
AcDbEntity
  8
0
  6
Continuous
 62
     3
100
AcDbLine
 10
53.4794483711012
 20
390.5731649764
 30
0.0
 11
55.5362894572012
 21
391.760682731201
 31
0.0
  0
LINE
  5
3D8
330
1F
100
AcDbEntity
  8
1
  6
Continuous
 62
     3
100
AcDbLine
 10
31.2428572142012
 20
-76.9916001456934
 30
0.0
 11
32.5553572142012
 21
-76.125574741909
 31
0.0
  0
LINE
  5
3D9
330
1F
100
AcDbEntity
  8
1
  6
Continuous
 62
     3
100
AcDbLine
 10
31.2428572142012
 20
-92.7595493381246
 30
0.0
 11
32.5553572142012
 21
-93.625574741909
 31
0.0
  0
LINE
  5
3DA
330
1F
100
AcDbEntity
  8
1
  6
Continuous
 62
     3
100
AcDbLine
 10
32.5553572142012
 20
-76.125574741909
 30
0.0
 11
42.2428572142012
 21
-76.125574741909
 31
0.0
  0
LINE
  5
3DB
330
1F
100
AcDbEntity
  8
1
  6
Continuous
 62
     3
100
AcDbLine
 10
32.5553572142012
 20
-93.625574741909
 30
0.0
 11
42.2428572142012
 21
-93.625574741909
 31
0.0
  0
LINE
  5
3DC
330
1F
100
AcDbEntity
  8
1
  6
Continuous
 62
     3
100
AcDbLine
 10
90.2428572142012
 20
-93.625574741909
 30
0.0
 11
99.9303572142012
 21
-93.625574741909
 31
0.0
  0
LINE
  5
3DD
330
1F
100
AcDbEntity
  8
1
  6
Continuous
 62
     3
100
AcDbLine
 10
90.2428572142012
 20
-76.125574741909
 30
0.0
 11
99.9303572142012
 21
-76.125574741909
 31
0.0
  0
LINE
  5
3DE
330
1F
100
AcDbEntity
  8
1
  6
Continuous
 62
     3
100
AcDbLine
 10
99.9303572142012
 20
-93.625574741909
 30
0.0
 11
101.242857214201
 21
-92.7595493381246
 31
0.0
  0
LINE
  5
3DF
330
1F
100
AcDbEntity
  8
1
  6
Continuous
 62
     3
100
AcDbLine
 10
99.9303572142012
 20
-76.125574741909
 30
0.0
 11
101.242857214201
 21
-76.9916001456934
 31
0.0
  0
LINE
  5
3E0
330
1F
100
AcDbEntity
  8
3
  6
DOT_CENTER
 62
     1
100
AcDbLine
 10
28.2428572142012
 20
-84.875574741909
 30
0.0
 11
104.242857214201
 21
-84.875574741909
 31
0.0
  0
LINE
  5
3E1
330
1F
100
AcDbEntity
  8
1
  6
Continuous
 62
     3
100
AcDbLine
 10
99.9303572142012
 20
-67.375574741909
 30
0.0
 11
101.242857214201
 21
-68.688074741909
 31
0.0
  0
LINE
  5
3E2
330
1F
100
AcDbEntity
  8
1
  6
Continuous
 62
     3
100
AcDbLine
 10
32.5553572142012
 20
-67.375574741909
 30
0.0
 11
31.2428572142012
 21
-68.688074741909
 31
0.0
  0
LINE
  5
3E3
330
1F
100
AcDbEntity
  8
1
  6
Continuous
 62
     3
100
AcDbLine
 10
32.5553572142012
 20
-102.375574741909
 30
0.0
 11
31.2428572142012
 21
-101.063074741909
 31
0.0
  0
LINE
  5
3E4
330
1F
100
AcDbEntity
  8
1
  6
Continuous
 62
     3
100
AcDbLine
 10
99.9303572142012
 20
-102.375574741909
 30
0.0
 11
101.242857214201
 21
-101.063074741909
 31
0.0
  0
LINE
  5
3E5
330
1F
100
AcDbEntity
  8
1
  6
Continuous
 62
     3
100
AcDbLine
 10
89.8678572142016
 20
-67.375574741909
 30
0.0
 11
99.9303572142012
 21
-67.375574741909
 31
0.0
  0
LINE
  5
3E6
330
1F
100
AcDbEntity
  8
1
  6
Continuous
 62
     3
100
AcDbLine
 10
32.5553572142012
 20
-67.375574741909
 30
0.0
 11
42.6178572142008
 21
-67.375574741909
 31
0.0
  0
LINE
  5
3E7
330
1F
100
AcDbEntity
  8
1
  6
Continuous
 62
     3
100
AcDbLine
 10
89.8678572142016
 20
-102.375574741909
 30
0.0
 11
99.9303572142012
 21
-102.375574741909
 31
0.0
  0
LINE
  5
3E8
330
1F
100
AcDbEntity
  8
1
  6
Continuous
 62
     3
100
AcDbLine
 10
32.5553572142012
 20
-102.375574741909
 30
0.0
 11
42.6178572142008
 21
-102.375574741909
 31
0.0
  0
LINE
  5
3E9
330
1F
100
AcDbEntity
  8
1
  6
Continuous
 62
     3
100
AcDbLine
 10
101.242857214201
 20
-101.063074741909
 30
0.0
 11
101.242857214201
 21
-68.688074741909
 31
0.0
  0
LINE
  5
3EA
330
1F
100
AcDbEntity
  8
1
  6
Continuous
 62
     3
100
AcDbLine
 10
31.2428572142012
 20
-68.688074741909
 30
0.0
 11
31.2428572142012
 21
-101.063074741909
 31
0.0
  0
LINE
  5
3EB
330
1F
100
AcDbEntity
  8
1
  6
Continuous
 62
     3
100
AcDbLine
 10
46.366678003901
 20
-98.000574741909
 30
0.0
 11
46.0482717769164
 21
-98.000574741909
 31
0.0
  0
LINE
  5
3EC
330
1F
100
AcDbEntity
  8
1
  6
Continuous
 62
     3
100
AcDbLine
 10
43.5815786473535
 20
-99.7277718656788
 30
0.0
 11
42.6178572142008
 21
-102.375574741909
 31
0.0
  0
LINE
  5
3ED
330
1F
100
AcDbEntity
  8
1
  6
Continuous
 62
     3
100
AcDbLine
 10
42.6178572142008
 20
-67.375574741909
 30
0.0
 11
43.5815786473536
 21
-70.0233776181394
 31
0.0
  0
LINE
  5
3EE
330
1F
100
AcDbEntity
  8
1
  6
Continuous
 62
     3
100
AcDbLine
 10
46.0482717769164
 20
-71.750574741909
 30
0.0
 11
46.3666780039
 21
-71.750574741909
 31
0.0
  0
LINE
  5
3EF
330
1F
100
AcDbEntity
  8
1
  6
Continuous
 62
     3
100
AcDbLine
 10
86.1190364245024
 20
-71.750574741909
 30
0.0
 11
86.437442651486
 21
-71.750574741909
 31
0.0
  0
LINE
  5
3F0
330
1F
100
AcDbEntity
  8
1
  6
Continuous
 62
     3
100
AcDbLine
 10
88.9041357810488
 20
-70.0233776181394
 30
0.0
 11
89.8678572142016
 21
-67.375574741909
 31
0.0
  0
LINE
  5
3F1
330
1F
100
AcDbEntity
  8
1
  6
Continuous
 62
     3
100
AcDbLine
 10
89.8678572142016
 20
-102.375574741909
 30
0.0
 11
88.9041357810488
 21
-99.7277718656788
 31
0.0
  0
LINE
  5
3F2
330
1F
100
AcDbEntity
  8
1
  6
Continuous
 62
     3
100
AcDbLine
 10
86.437442651486
 20
-98.0005747419091
 30
0.0
 11
86.1190364245014
 21
-98.000574741909
 31
0.0
  0
LINE
  5
3F3
330
1F
100
AcDbEntity
  8
3
  6
PHANTOM
 62
     6
100
AcDbLine
 10
42.9036917989368
 20
273.055534936541
 30
0.0
 11
42.7079470868732
 21
261.841327892601
 31
0.0
  0
LINE
  5
3F4
330
1F
100
AcDbEntity
  8
3
  6
DOT_CENTER
 62
     6
100
AcDbLine
 10
89.7777673415294
 20
261.841327892601
 30
0.0
 11
42.7079470868732
 21
261.841327892601
 31
0.0
  0
LINE
  5
3F5
330
1F
100
AcDbEntity
  8
3
  6
DOT_CENTER
 62
     6
100
AcDbLine
 10
89.5820226294658
 20
273.055534936541
 30
0.0
 11
89.7777673415294
 21
261.841327892601
 31
0.0
  0
LINE
  5
3F6
330
1F
100
AcDbEntity
  8
3
  6
PHANTOM
 62
     6
100
AcDbLine
 10
52.6416117512738
 20
302.875254537259
 30
0.0
 11
53.0805651481442
 21
303.013779548483
 31
0.0
  0
LINE
  5
3F7
330
1F
100
AcDbEntity
  8
3
  6
DOT_CENTER
 62
     6
100
AcDbLine
 10
53.8160827042012
 20
303.124425258091
 30
0.0
 11
78.6696317242012
 21
303.12442525809
 31
0.0
  0
LINE
  5
3F8
330
1F
100
AcDbEntity
  8
3
  6
Continuous
 62
     3
100
AcDbLine
 10
89.2017501989944
 20
301.841327888243
 30
0.0
 11
89.7777673415294
 21
268.841327892601
 31
0.0
  0
LINE
  5
3F9
330
1F
100
AcDbEntity
  8
3
  6
Continuous
 62
     3
100
AcDbLine
 10
53.8160827042012
 20
310.124425258091
 30
0.0
 11
78.6696317242012
 21
310.124425258091
 31
0.0
  0
LINE
  5
3FA
330
1F
100
AcDbEntity
  8
3
  6
Continuous
 62
     3
100
AcDbLine
 10
84.9848260819634
 20
268.841327892601
 30
0.0
 11
84.7372170762578
 21
303.785314602025
 31
0.0
  0
LINE
  5
3FB
330
1F
100
AcDbEntity
  8
3
  6
Continuous
 62
     3
100
AcDbLine
 10
82.6961859404452
 20
268.841327892601
 30
0.0
 11
82.089966183616
 21
303.571634424889
 31
0.0
  0
LINE
  5
3FC
330
1F
100
AcDbEntity
  8
3
  6
Continuous
 62
     3
100
AcDbLine
 10
43.3132963170446
 20
301.841327888243
 30
0.0
 11
43.2839642294078
 21
301.841327888243
 31
0.0
  0
LINE
  5
3FD
330
1F
100
AcDbEntity
  8
3
  6
Continuous
 62
     3
100
AcDbLine
 10
89.2017501989944
 20
301.841327888243
 30
0.0
 11
89.1724181113578
 21
301.841327888243
 31
0.0
  0
LINE
  5
3FE
330
1F
100
AcDbEntity
  8
3
  6
Continuous
 62
     3
100
AcDbLine
 10
68.935183556438
 20
303.785314602025
 30
0.0
 11
68.5762394909962
 21
268.841327892601
 31
0.0
  0
LINE
  5
3FF
330
1F
100
AcDbEntity
  8
3
  6
Continuous
 62
     3
100
AcDbLine
 10
63.5505308694248
 20
303.785314602025
 30
0.0
 11
63.9094749375604
 21
268.841327892601
 31
0.0
  0
LINE
  5
400
330
1F
100
AcDbEntity
  8
3
  6
Continuous
 62
     3
100
AcDbLine
 10
49.7895284881294
 20
268.841327892601
 30
0.0
 11
50.3957480644466
 21
303.571624254729
 31
0.0
  0
LINE
  5
401
330
1F
100
AcDbEntity
  8
3
  6
Continuous
 62
     3
100
AcDbLine
 10
47.5008883464394
 20
268.841327892601
 30
0.0
 11
47.748497352145
 21
303.785314602025
 31
0.0
  0
LINE
  5
402
330
1F
100
AcDbEntity
  8
3
  6
Continuous
 62
     3
100
AcDbLine
 10
89.7777673415294
 20
268.841327892601
 30
0.0
 11
42.7079470868734
 21
268.841327892601
 31
0.0
  0
LINE
  5
403
330
1F
100
AcDbEntity
  8
3
  6
Continuous
 62
     3
100
AcDbLine
 10
52.6416117512738
 20
309.875254537259
 30
0.0
 11
53.0805651481442
 21
310.013779548483
 31
0.0
  0
LINE
  5
404
330
1F
100
AcDbEntity
  8
3
  6
Continuous
 62
     3
100
AcDbLine
 10
43.2839642294078
 20
301.841327888243
 30
0.0
 11
42.7079470868734
 21
268.841327892601
 31
0.0
  0
LINE
  5
405
330
1F
100
AcDbEntity
  8
3
  6
Continuous
 62
     3
100
AcDbLine
 10
60.8580809033512
 20
257.341327892601
 30
0.0
 11
60.8580809033512
 21
267.934253690773
 31
0.0
  0
LINE
  5
406
330
1F
100
AcDbEntity
  8
3
  6
Continuous
 62
     3
100
AcDbLine
 10
71.6276335250512
 20
257.341327892601
 30
0.0
 11
71.6276335250512
 21
267.934253690773
 31
0.0
  0
LINE
  5
407
330
1F
100
AcDbEntity
  8
3
  6
Continuous
 62
     3
100
AcDbLine
 10
53.2428572142012
 20
268.552652758007
 30
0.0
 11
53.2428572142012
 21
257.341327892601
 31
0.0
  0
LINE
  5
408
330
1F
100
AcDbEntity
  8
3
  6
Continuous
 62
     3
100
AcDbLine
 10
53.2428724729902
 20
-92.875574741909
 30
0.0
 11
56.3678724729902
 21
-87.875574741909
 31
0.0
  0
LINE
  5
409
330
1F
100
AcDbEntity
  8
3
  6
Continuous
 62
     3
100
AcDbLine
 10
79.2428724729902
 20
-87.875574741909
 30
0.0
 11
74.2428724729902
 21
-92.875574741909
 31
0.0
  0
LINE
  5
40A
330
1F
100
AcDbEntity
  8
3
  6
Continuous
 62
     3
100
AcDbLine
 10
75.2428724729902
 20
-88.875574741909
 30
0.0
 11
74.2428724729902
 21
-92.875574741909
 31
0.0
  0
LINE
  5
40B
330
1F
100
AcDbEntity
  8
3
  6
Continuous
 62
     3
100
AcDbLine
 10
64.2428724729902
 20
-88.875574741909
 30
0.0
 11
75.2428724729902
 21
-88.875574741909
 31
0.0
  0
LINE
  5
40C
330
1F
100
AcDbEntity
  8
3
  6
Continuous
 62
     3
100
AcDbLine
 10
53.2428724729902
 20
-92.875574741909
 30
0.0
 11
61.7428724729902
 21
-92.875574741909
 31
0.0
  0
LINE
  5
40D
330
1F
100
AcDbEntity
  8
3
  6
Continuous
 62
     3
100
AcDbLine
 10
79.2428724729902
 20
-87.875574741909
 30
0.0
 11
56.3678724729902
 21
-87.875574741909
 31
0.0
  0
LINE
  5
40E
330
1F
100
AcDbEntity
  8
3
  6
Continuous
 62
     3
100
AcDbLine
 10
61.7428724729902
 20
-92.875574741909
 30
0.0
 11
64.2428724729902
 21
-88.875574741909
 31
0.0
  0
LINE
  5
40F
330
1F
100
AcDbEntity
  8
3
  6
Continuous
 62
     3
100
AcDbLine
 10
55.2446568736994
 20
-65.164249876503
 30
0.0
 11
77.2407756130526
 21
-65.164249876503
 31
0.0
  0
LINE
  5
410
330
1F
100
AcDbEntity
  8
3
  6
Continuous
 62
     3
100
AcDbLine
 10
81.2428572142012
 20
-67.5136062705182
 30
0.0
 11
81.2428572142012
 21
-61.875574741909
 31
0.0
  0
LINE
  5
411
330
1F
100
AcDbEntity
  8
3
  6
Continuous
 62
     3
100
AcDbLine
 10
51.2428572142012
 20
-67.5136062705178
 30
0.0
 11
51.2428572142012
 21
-61.875574741909
 31
0.0
  0
LINE
  5
412
330
1F
100
AcDbEntity
  8
3
  6
DOT_CENTER
 62
     1
100
AcDbLine
 10
66.2428572142012
 20
-105.875574741909
 30
0.0
 11
66.2428572142012
 21
316.124425258091
 31
0.0
  0
LINE
  5
413
330
1F
100
AcDbEntity
  8
3
  6
Continuous
 62
     3
100
AcDbLine
 10
42.4928572142012
 20
243.841327892601
 30
0.0
 11
42.4928572142012
 21
257.341327892601
 31
0.0
  0
LINE
  5
414
330
1F
100
AcDbEntity
  8
3
  6
Continuous
 62
     3
100
AcDbLine
 10
42.4928572142012
 20
243.841327892601
 30
0.0
 11
89.9928572142012
 21
243.841327892601
 31
0.0
  0
LINE
  5
415
330
1F
100
AcDbEntity
  8
3
  6
Continuous
 62
     3
100
AcDbLine
 10
89.9928572142012
 20
257.341327892601
 30
0.0
 11
42.4928572142012
 21
257.341327892601
 31
0.0
  0
LINE
  5
416
330
1F
100
AcDbEntity
  8
3
  6
Continuous
 62
     3
100
AcDbLine
 10
89.9928572142012
 20
243.841327892601
 30
0.0
 11
89.9928572142012
 21
257.341327892601
 31
0.0
  0
LINE
  5
417
330
1F
100
AcDbEntity
  8
3
  6
Continuous
 62
     3
100
AcDbLine
 10
79.2428572142012
 20
268.552652758007
 30
0.0
 11
79.2428572142012
 21
257.341327892601
 31
0.0
  0
LINE
  5
418
330
1F
100
AcDbEntity
  8
3
  6
Continuous
 62
     3
100
AcDbLine
 10
45.2428572142012
 20
58.124425258091
 30
0.0
 11
45.2428572142012
 21
243.841327892601
 31
0.0
  0
LINE
  5
419
330
1F
100
AcDbEntity
  8
3
  6
Continuous
 62
     3
100
AcDbLine
 10
87.2428572142012
 20
58.124425258091
 30
0.0
 11
87.2428572142012
 21
243.841327892601
 31
0.0
  0
LINE
  5
41A
330
1F
100
AcDbEntity
  8
3
  6
Continuous
 62
     3
100
AcDbLine
 10
87.2428572142012
 20
-61.875574741909
 30
0.0
 11
87.2428572142012
 21
53.124425258091
 31
0.0
  0
LINE
  5
41B
330
1F
100
AcDbEntity
  8
3
  6
Continuous
 62
     3
100
AcDbLine
 10
45.2428572142012
 20
-61.875574741909
 30
0.0
 11
45.2428572142012
 21
53.124425258091
 31
0.0
  0
LINE
  5
41C
330
1F
100
AcDbEntity
  8
3
  6
Continuous
 62
     3
100
AcDbLine
 10
45.2428572142012
 20
-61.875574741909
 30
0.0
 11
87.2428572142012
 21
-61.875574741909
 31
0.0
  0
LINE
  5
41D
330
1F
100
AcDbEntity
  8
2
  6
Continuous
 62
     2
100
AcDbLine
 10
76.2428572142012
 20
310.124424206079
 30
0.0
 11
143.004606481779
 21
310.124424206079
 31
0.0
  0
LINE
  5
41E
330
1F
100
AcDbEntity
  8
2
  6
Continuous
 62
     2
100
AcDbLine
 10
142.004606481779
 20
310.124424206079
 30
0.0
 11
142.004606481779
 21
66.907522623581
 31
0.0
  0
LINE
  5
41F
330
1F
100
AcDbEntity
  8
2
  6
Continuous
 62
     2
100
AcDbLine
 10
142.004606481779
 20
-84.875574741909
 30
0.0
 11
142.004606481779
 21
66.907522623581
 31
0.0
  0
LINE
  5
420
330
1F
100
AcDbEntity
  8
2
  6
Continuous
 62
     2
100
AcDbLine
 10
105.242857214201
 20
-84.875574741909
 30
0.0
 11
143.004606481779
 21
-84.875574741909
 31
0.0
  0
ARC
  5
425
330
1F
100
AcDbEntity
  8
2
  6
Continuous
 62
     3
100
AcDbCircle
 10
66.2428572142012
 20
353.841327892601
 30
0.0
 40
35.00000000000049
100
AcDbArc
 50
57.79577249602801
 51
62.12343057280624
  0
ARC
  5
426
330
1F
100
AcDbEntity
  8
2
  6
Continuous
 62
     3
100
AcDbCircle
 10
66.2428572142012
 20
387.841327892601
 30
0.0
 40
34.99999999999957
100
AcDbArc
 50
237.795772496027
 51
242.1234305726966
  0
ARC
  5
427
330
1F
100
AcDbEntity
  8
1
  6
Continuous
 62
     3
100
AcDbCircle
 10
146.72241695983
 20
364.091327892601
 30
0.0
 40
56.8814835342755
100
AcDbArc
 50
173.1847767454405
 51
186.8152232545595
  0
ARC
  5
428
330
1F
100
AcDbEntity
  8
1
  6
Continuous
 62
     3
100
AcDbCircle
 10
146.72241695983
 20
377.591327892601
 30
0.0
 40
56.8814835342755
100
AcDbArc
 50
173.1847767454405
 51
186.8152232545595
  0
ARC
  5
429
330
1F
100
AcDbEntity
  8
1
  6
Continuous
 62
     3
100
AcDbCircle
 10
-14.2367025314277
 20
377.591327892601
 30
0.0
 40
56.88148353427559
100
AcDbArc
 50
353.1847767454405
 51
6.81522325455951
  0
ARC
  5
42A
330
1F
100
AcDbEntity
  8
1
  6
Continuous
 62
     3
100
AcDbCircle
 10
-14.2367025314277
 20
364.091327892601
 30
0.0
 40
56.88148353427559
100
AcDbArc
 50
353.1847767454405
 51
6.81522325455951
  0
ARC
  5
42B
330
1F
100
AcDbEntity
  8
2
  6
Continuous
 62
     3
100
AcDbCircle
 10
-61.2198578937958
 20
-84.875574741909
 30
0.0
 40
18.00000000000001
100
AcDbArc
 50
180.0
 51
0.0
  0
ARC
  5
42C
330
1F
100
AcDbEntity
  8
2
  6
Continuous
 62
     3
100
AcDbCircle
 10
66.2428572142012
 20
353.841327892601
 30
0.0
 40
35.00000000000119
100
AcDbArc
 50
117.8765694273014
 51
122.2042275039705
  0
ARC
  5
42D
330
1F
100
AcDbEntity
  8
2
  6
Continuous
 62
     3
100
AcDbCircle
 10
-81.2198578937958
 20
-64.298224472719
 30
0.0
 40
1.0
100
AcDbArc
 50
180.0
 51
240.0000000000196
  0
ARC
  5
42E
330
1F
100
AcDbEntity
  8
2
  6
Continuous
 62
     3
100
AcDbCircle
 10
-82.2198578937958
 20
-68.339676357047
 30
0.0
 40
3.0
100
AcDbArc
 50
0.0
 51
60.0000000000067
  0
ARC
  5
42F
330
1F
100
AcDbEntity
  8
2
  6
Continuous
 62
     3
100
AcDbCircle
 10
87.0274669050282
 20
386.841327892601
 30
0.0
 40
3.999999999999767
100
AcDbArc
 50
237.7957724960218
 51
270.0
  0
ARC
  5
430
330
1F
100
AcDbEntity
  8
2
  6
Continuous
 62
     3
100
AcDbCircle
 10
45.4582475233752
 20
386.841327892601
 30
0.0
 40
4.0
100
AcDbArc
 50
270.0
 51
302.2042275039793
  0
ARC
  5
431
330
1F
100
AcDbEntity
  8
2
  6
Continuous
 62
     3
100
AcDbCircle
 10
87.0274669050282
 20
354.841327892601
 30
0.0
 40
4.0
100
AcDbArc
 50
90.0
 51
122.2042275039747
  0
ARC
  5
432
330
1F
100
AcDbEntity
  8
2
  6
Continuous
 62
     3
100
AcDbCircle
 10
66.2428572142012
 20
387.841327892601
 30
0.0
 40
34.99999999999953
100
AcDbArc
 50
297.8765694272612
 51
302.2042275039724
  0
ARC
  5
433
330
1F
100
AcDbEntity
  8
2
  6
Continuous
 62
     3
100
AcDbCircle
 10
45.4582475233752
 20
354.841327892601
 30
0.0
 40
4.000000000000143
100
AcDbArc
 50
57.79577249604235
 51
90.0
  0
ARC
  5
434
330
1F
100
AcDbEntity
  8
2
  6
Continuous
 62
     3
100
AcDbCircle
 10
-40.2198578937958
 20
-68.339676357047
 30
0.0
 40
3.000000000000591
100
AcDbArc
 50
119.9999999999935
 51
180.0
  0
ARC
  5
435
330
1F
100
AcDbEntity
  8
2
  6
Continuous
 62
     3
100
AcDbCircle
 10
-41.2198578937958
 20
-64.298224472719
 30
0.0
 40
1.000000000000488
100
AcDbArc
 50
299.9999999999838
 51
0.0
  0
ARC
  5
436
330
1F
100
AcDbEntity
  8
3
  6
Continuous
 62
     3
100
AcDbCircle
 10
-73.6466324037958
 20
307.624425257113
 30
0.0
 40
2.500000000977025
100
AcDbArc
 50
90.0
 51
107.1099930416192
  0
ARC
  5
437
330
1F
100
AcDbEntity
  8
3
  6
Continuous
 62
     3
100
AcDbCircle
 10
-48.7930833837958
 20
307.624425257112
 30
0.0
 40
2.500000000978474
100
AcDbArc
 50
72.89000695840241
 51
90.0
  0
ARC
  5
438
330
1F
100
AcDbEntity
  8
0
  6
Continuous
 62
     3
100
AcDbCircle
 10
66.2428572142012
 20
370.841327892601
 30
0.0
 40
23.49999999995251
100
AcDbArc
 50
297.103457620479
 51
302.8965423797189
  0
ARC
  5
439
330
1F
100
AcDbEntity
  8
0
  6
Continuous
 62
     3
100
AcDbCircle
 10
50.7626598826012
 20
370.0580715013
 30
0.0
 40
8.000000000030047
100
AcDbArc
 50
174.3813382596749
 51
246.0493290538576
  0
ARC
  5
43A
330
1F
100
AcDbEntity
  8
0
  6
Continuous
 62
     3
100
AcDbCircle
 10
73.3046359474012
 20
357.0434555522
 30
0.0
 40
7.999999999995036
100
AcDbArc
 50
233.9506709466229
 51
297.1034576208913
  0
ARC
  5
43B
330
1F
100
AcDbEntity
  8
0
  6
Continuous
 62
     3
100
AcDbCircle
 10
57.8244386158012
 20
383.855943841701
 30
0.0
 40
7.999999999972044
100
AcDbArc
 50
122.8965423796265
 51
186.0493290536038
  0
ARC
  5
43C
330
1F
100
AcDbEntity
  8
0
  6
Continuous
 62
     3
100
AcDbCircle
 10
86.5944542031012
 20
382.591327892601
 30
0.0
 40
4.000000000008347
100
AcDbArc
 50
173.9506709464306
 51
246.0493290546533
  0
ARC
  5
43D
330
1F
100
AcDbEntity
  8
0
  6
Continuous
 62
     3
100
AcDbCircle
 10
66.2428572142012
 20
347.341327892601
 30
0.0
 40
3.999999999997955
100
AcDbArc
 50
53.95067094662739
 51
126.0493290533749
  0
ARC
  5
43E
330
1F
100
AcDbEntity
  8
0
  6
Continuous
 62
     3
100
AcDbCircle
 10
66.2428572142012
 20
370.841327892601
 30
0.0
 40
23.50000000001447
100
AcDbArc
 50
237.1034576202813
 51
242.8965423797362
  0
ARC
  5
43F
330
1F
100
AcDbEntity
  8
0
  6
Continuous
 62
     3
100
AcDbCircle
 10
45.8912602253012
 20
359.091327892601
 30
0.0
 40
3.999999999925694
100
AcDbArc
 50
353.9506709463346
 51
66.04932905361301
  0
ARC
  5
440
330
1F
100
AcDbEntity
  8
0
  6
Continuous
 62
     3
100
AcDbCircle
 10
45.8912602253012
 20
382.591327892601
 30
0.0
 40
3.9999999999744
100
AcDbArc
 50
293.9506709453491
 51
6.0493290536498
  0
ARC
  5
441
330
1F
100
AcDbEntity
  8
0
  6
Continuous
 62
     3
100
AcDbCircle
 10
73.3046359474012
 20
384.639200233001
 30
0.0
 40
8.000000000053912
100
AcDbArc
 50
62.89654237910374
 51
126.0493290533723
  0
ARC
  5
442
330
1F
100
AcDbEntity
  8
0
  6
Continuous
 62
     3
100
AcDbCircle
 10
74.6612758126012
 20
383.855943841701
 30
0.0
 40
7.999999999917237
100
AcDbArc
 50
353.950670946356
 51
57.10345762037452
  0
ARC
  5
443
330
1F
100
AcDbEntity
  8
0
  6
Continuous
 62
     3
100
AcDbCircle
 10
81.7230545458012
 20
371.624584283901
 30
0.0
 40
8.000000000027764
100
AcDbArc
 50
354.3813382597236
 51
66.04932905334036
  0
ARC
  5
444
330
1F
100
AcDbEntity
  8
0
  6
Continuous
 62
     3
100
AcDbCircle
 10
81.7230545458012
 20
370.0580715013
 30
0.0
 40
8.000000000029056
100
AcDbArc
 50
293.9506709466612
 51
5.61866174036919
  0
ARC
  5
445
330
1F
100
AcDbEntity
  8
0
  6
Continuous
 62
     3
100
AcDbCircle
 10
86.5944542031012
 20
359.091327892601
 30
0.0
 40
3.9999999999744
100
AcDbArc
 50
113.9506709453492
 51
186.0493290535713
  0
ARC
  5
446
330
1F
100
AcDbEntity
  8
0
  6
Continuous
 62
     3
100
AcDbCircle
 10
74.6612758126012
 20
357.826711943501
 30
0.0
 40
7.999999999937873
100
AcDbArc
 50
302.8965423796304
 51
6.04932905364307
  0
ARC
  5
447
330
1F
100
AcDbEntity
  8
0
  6
Continuous
 62
     3
100
AcDbCircle
 10
59.1810784810012
 20
357.0434555522
 30
0.0
 40
8.000000000056726
100
AcDbArc
 50
242.8965423797408
 51
306.049329053376
  0
ARC
  5
448
330
1F
100
AcDbEntity
  8
0
  6
Continuous
 62
     3
100
AcDbCircle
 10
57.8244386158012
 20
357.826711943501
 30
0.0
 40
7.999999999999897
100
AcDbArc
 50
173.950670946404
 51
237.1034576203699
  0
ARC
  5
449
330
1F
100
AcDbEntity
  8
0
  6
Continuous
 62
     3
100
AcDbCircle
 10
50.7626598826012
 20
371.624584283901
 30
0.0
 40
8.000000000029942
100
AcDbArc
 50
113.9506709466585
 51
185.6186617403182
  0
ARC
  5
44A
330
1F
100
AcDbEntity
  8
0
  6
Continuous
 62
     3
100
AcDbCircle
 10
59.1810784810012
 20
384.639200233001
 30
0.0
 40
7.999999999995864
100
AcDbArc
 50
53.95067094662715
 51
117.1034576203986
  0
ARC
  5
44B
330
1F
100
AcDbEntity
  8
0
  6
Continuous
 62
     3
100
AcDbCircle
 10
66.2428572142012
 20
394.341327892601
 30
0.0
 40
3.999999999997904
100
AcDbArc
 50
233.950670946627
 51
306.0493290533743
  0
ARC
  5
44C
330
1F
100
AcDbEntity
  8
1
  6
Continuous
 62
     3
100
AcDbCircle
 10
66.2428572142012
 20
-105.875574741909
 30
0.0
 40
39.37500000000015
100
AcDbArc
 50
60.40815420604889
 51
64.86333948564013
  0
ARC
  5
44D
330
1F
100
AcDbEntity
  8
1
  6
Continuous
 62
     3
100
AcDbCircle
 10
66.2428572142012
 20
-63.875574741909
 30
0.0
 40
39.37499999999964
100
AcDbArc
 50
240.4081542060501
 51
299.5918457939499
  0
ARC
  5
44E
330
1F
100
AcDbEntity
  8
1
  6
Continuous
 62
     3
100
AcDbCircle
 10
66.2428572142012
 20
-105.875574741909
 30
0.0
 40
39.37500000000018
100
AcDbArc
 50
115.1366605143597
 51
119.591845793951
  0
ARC
  5
44F
330
1F
100
AcDbEntity
  8
3
  6
PHANTOM
 62
     6
100
AcDbCircle
 10
78.6696317242012
 20
300.624425257111
 30
0.0
 40
2.500000000979454
100
AcDbArc
 50
72.89000695840916
 51
90.0
  0
ARC
  5
450
330
1F
100
AcDbEntity
  8
3
  6
PHANTOM
 62
     6
100
AcDbCircle
 10
53.8160827042012
 20
300.624425257113
 30
0.0
 40
2.500000000977991
100
AcDbArc
 50
90.0
 51
107.1099930416194
  0
ARC
  5
451
330
1F
100
AcDbEntity
  8
3
  6
Continuous
 62
     3
100
AcDbCircle
 10
53.8160827042012
 20
307.624425257113
 30
0.0
 40
2.500000000977991
100
AcDbArc
 50
90.0
 51
107.1099930416194
  0
ARC
  5
452
330
1F
100
AcDbEntity
  8
3
  6
Continuous
 62
     3
100
AcDbCircle
 10
78.6696317242012
 20
307.624425257111
 30
0.0
 40
2.500000000979454
100
AcDbArc
 50
72.89000695840916
 51
90.0
  0
ARC
  5
453
330
1F
100
AcDbEntity
  8
1
  6
Continuous
 62
     3
100
AcDbCircle
 10
48.2428572142012
 20
-67.5136062705178
 30
0.0
 40
2.999999999999962
100
AcDbArc
 50
295.1366605143592
 51
0.0
  0
ARC
  5
454
330
1F
100
AcDbEntity
  8
1
  6
Continuous
 62
     3
100
AcDbCircle
 10
84.2428572142012
 20
-67.5136062705182
 30
0.0
 40
3.0
100
AcDbArc
 50
180.0
 51
244.8633394856392
  0
ARC
  5
455
330
1F
100
AcDbEntity
  8
1
  6
Continuous
 62
     3
100
AcDbCircle
 10
46.366678003901
 20
-98.875574741909
 30
0.0
 40
0.8749999999999882
100
AcDbArc
 50
60.40815420605243
 51
90.0
  0
ARC
  5
456
330
1F
100
AcDbEntity
  8
1
  6
Continuous
 62
     3
100
AcDbCircle
 10
46.0482717769164
 20
-100.625574741909
 30
0.0
 40
2.625
100
AcDbArc
 50
90.0
 51
159.9999999999926
  0
ARC
  5
457
330
1F
100
AcDbEntity
  8
1
  6
Continuous
 62
     3
100
AcDbCircle
 10
46.3666780039
 20
-70.875574741909
 30
0.0
 40
0.875
100
AcDbArc
 50
270.0
 51
299.5918457939537
  0
ARC
  5
458
330
1F
100
AcDbEntity
  8
1
  6
Continuous
 62
     3
100
AcDbCircle
 10
46.0482717769164
 20
-69.125574741909
 30
0.0
 40
2.62499999999998
100
AcDbArc
 50
200.0000000000122
 51
270.0
  0
ARC
  5
459
330
1F
100
AcDbEntity
  8
1
  6
Continuous
 62
     3
100
AcDbCircle
 10
86.437442651486
 20
-69.125574741909
 30
0.0
 40
2.625
100
AcDbArc
 50
270.0
 51
339.9999999999878
  0
ARC
  5
45A
330
1F
100
AcDbEntity
  8
1
  6
Continuous
 62
     3
100
AcDbCircle
 10
86.1190364245024
 20
-70.875574741909
 30
0.0
 40
0.8749999999999724
100
AcDbArc
 50
240.4081542060524
 51
270.0
  0
ARC
  5
45B
330
1F
100
AcDbEntity
  8
1
  6
Continuous
 62
     3
100
AcDbCircle
 10
86.437442651486
 20
-100.625574741909
 30
0.0
 40
2.624999999999912
100
AcDbArc
 50
20.00000000000816
 51
90.0
  0
ARC
  5
45C
330
1F
100
AcDbEntity
  8
1
  6
Continuous
 62
     3
100
AcDbCircle
 10
86.1190364245014
 20
-98.875574741909
 30
0.0
 40
0.875
100
AcDbArc
 50
90.0
 51
119.591845793948
  0
ARC
  5
45D
330
1F
100
AcDbEntity
  8
1
  6
Continuous
 62
     3
100
AcDbCircle
 10
87.2428572142012
 20
355.841327892601
 30
0.0
 40
2.999999999999988
100
AcDbArc
 50
30.00000000000014
 51
90.0
  0
ARC
  5
45E
330
1F
100
AcDbEntity
  8
1
  6
Continuous
 62
     3
100
AcDbCircle
 10
87.2428572142012
 20
385.841327892601
 30
0.0
 40
3.0
100
AcDbArc
 50
270.0
 51
329.9999999999999
  0
ARC
  5
45F
330
1F
100
AcDbEntity
  8
1
  6
Continuous
 62
     3
100
AcDbCircle
 10
45.2428572142012
 20
355.841327892601
 30
0.0
 40
3.0
100
AcDbArc
 50
90.0
 51
149.9999999999999
  0
ARC
  5
460
330
1F
100
AcDbEntity
  8
1
  6
Continuous
 62
     3
100
AcDbCircle
 10
45.2428572142012
 20
385.841327892601
 30
0.0
 40
2.999999999999988
100
AcDbArc
 50
210.0000000000001
 51
270.0
  0
LWPOLYLINE
  5
461
330
1F
100
AcDbEntity
  8
2
  6
Continuous
 62
     3
100
AcDbPolyline
 90
        3
 70
     0
 43
0.0
 10
-61.2198578937958
 20
-94.191074741909
 42
1.0
 10
-61.2198578937958
 20
-75.560074741909
 42
1.0
 10
-61.2198578937958
 20
-94.191074741909
  0
LWPOLYLINE
  5
462
330
1F
100
AcDbEntity
  8
2
  6
Continuous
 62
     3
100
AcDbPolyline
 90
        3
 70
     0
 43
0.0
 10
-61.2198578937958
 20
-74.398074741909
 42
1.0
 10
-61.2198578937958
 20
-95.35307474190901
 42
1.0
 10
-61.2198578937958
 20
-74.39807474190901
  0
LWPOLYLINE
  5
463
330
1F
100
AcDbEntity
  8
2
  6
Continuous
 62
     3
100
AcDbPolyline
 90
        4
 70
     0
 43
0.0
 10
-61.2198578937958
 20
-100.464032010029
 10
-74.7198578937958
 20
-92.6698033759689
 10
-74.7198578937958
 20
-77.0813461078491
 10
-61.2198578937958
 20
-69.287117473789
  0
LWPOLYLINE
  5
464
330
1F
100
AcDbEntity
  8
2
  6
Continuous
 62
     3
100
AcDbPolyline
 90
        4
 70
     0
 43
0.0
 10
-61.2198578937958
 20
-100.464032010029
 10
-47.7198578937958
 20
-92.6698033759689
 10
-47.7198578937958
 20
-77.0813461078491
 10
-61.2198578937958
 20
-69.287117473789
  0
LWPOLYLINE
  5
465
330
1F
100
AcDbEntity
  8
3
  6
Continuous
 62
     3
100
AcDbPolyline
 90
       32
 70
     0
 43
0.0
 10
-38.2609649090026
 20
301.841327888244
 10
-38.3038550314976
 20
302.382893845943
 10
-38.3998861475266
 20
302.870383140148
 10
-38.5361431089312
 20
303.316938312517
 10
-38.7044094525922
 20
303.73092050203
 10
-38.8990687482906
 20
304.118045028726
 10
-39.116077923086
 20
304.482426151586
 10
-39.3524104475994
 20
304.827143694267
 10
-39.6057303828906
 20
305.15457471831
 10
-39.8741900059606
 20
305.466599489194
 10
-40.1562980955088
 20
305.764735476582
 10
-40.4508308592156
 20
306.050228022149
 10
-40.7567697342212
 20
306.324113628779
 10
-41.0732567364654
 20
306.587265378288
 10
-41.3995617023086
 20
306.840426296881
 10
-41.7350577191108
 20
307.084234336032
 10
-42.0792023901922
 20
307.319241440286
 10
-42.4315233339726
 20
307.545928307181
 10
-42.791606794612
 20
307.764715979816
 10
-43.1590885818306
 20
307.975975061973
 10
-43.5336467912684
 20
308.18003312475
 10
-43.9149959091452
 20
308.377180708587
 10
-44.3028819710216
 20
308.567676248326
 10
-44.697078579077
 20
308.751750129585
 10
-45.097383589952
 20
308.929608056805
 10
-45.5036163410662
 20
309.101433872646
 10
-45.9156153316002
 20
309.267391917647
 10
-46.333236261613
 20
309.427629036829
 10
-46.7563503632652
 20
309.582276263712
 10
-47.1848429936568
 20
309.731450260495
 10
-47.618612433408
 20
309.875254537259
 10
-48.0575658302784
 20
310.013779548483
  0
LWPOLYLINE
  5
466
330
1F
100
AcDbEntity
  8
3
  6
Continuous
 62
     3
100
AcDbPolyline
 90
        3
 70
     0
 43
0.0
 10
-75.6833654243264
 20
309.582276263712
 10
-75.2548727964746
 20
309.731450260495
 10
-74.8211033567232
 20
309.875254537259
  0
LWPOLYLINE
  5
467
330
1F
100
AcDbEntity
  8
3
  6
Continuous
 62
     3
100
AcDbPolyline
 90
        6
 70
     0
 43
0.0
 10
-77.7426372085142
 20
308.751750129585
 10
-77.3423322001794
 20
308.929608056805
 10
-76.936099449065
 20
309.101433872646
 10
-76.5241004559914
 20
309.267391917647
 10
-76.1064795259786
 20
309.427629036829
 10
-75.6833654243264
 20
309.582276263712
  0
LWPOLYLINE
  5
468
330
1F
100
AcDbEntity
  8
3
  6
Continuous
 62
     3
100
AcDbPolyline
 90
        4
 70
     0
 43
0.0
 10
-78.9060689963232
 20
308.18003312475
 10
-78.5247198809862
 20
308.377180708587
 10
-78.13683381911
 20
308.567676248326
 10
-77.7426372085142
 20
308.751750129585
  0
LWPOLYLINE
  5
469
330
1F
100
AcDbEntity
  8
3
  6
Continuous
 62
     3
100
AcDbPolyline
 90
        5
 70
     0
 43
0.0
 10
-84.1787508785892
 20
301.841327888244
 10
-84.135860756094
 20
302.382893845943
 10
-84.039829642605
 20
302.870383140148
 10
-83.9035726786604
 20
303.316938312517
 10
-83.7353063349994
 20
303.73092050203
  0
LWPOLYLINE
  5
46A
330
1F
100
AcDbEntity
  8
3
  6
Continuous
 62
     3
100
AcDbPolyline
 90
       17
 70
     0
 43
0.0
 10
-83.7353063349994
 20
303.73092050203
 10
-83.540647041841
 20
304.118045028726
 10
-83.3236378645056
 20
304.482426151586
 10
-83.0873053399922
 20
304.827143694267
 10
-82.8339854047006
 20
305.15457471831
 10
-82.565525784171
 20
305.466599489194
 10
-82.2834176946226
 20
305.764735476582
 10
-81.988884928376
 20
306.050228022149
 10
-81.6829460559106
 20
306.324113628779
 10
-81.3664590511262
 20
306.587265378288
 10
-81.0401540852826
 20
306.840426296881
 10
-80.7046580710204
 20
307.084234336032
 10
-80.3605133999394
 20
307.319241440286
 10
-80.008192453619
 20
307.545928307181
 10
-79.6481089929796
 20
307.764715979816
 10
-79.280627205761
 20
307.975975061973
 10
-78.9060689963232
 20
308.18003312475
  0
LWPOLYLINE
  5
46B
330
1F
100
AcDbEntity
  8
3
  6
Continuous
 62
     1
100
AcDbPolyline
 90
       20
 70
     0
 43
0.0
 10
-82.2198578937958
 20
58.124425258091
 10
-78.6073180646444
 20
60.755209482485
 10
-76.9621389914368
 20
61.699879382099
 10
-75.3614617030882
 20
62.436410194139
 10
-73.7768309586
 20
62.973916224711
 10
-72.2306061735978
 20
63.300619826589
 10
-70.7229924282976
 20
63.416473143771
 10
-69.2548975514286
 20
63.321390636673
 10
-67.419604809759
 20
62.908120052483
 10
-65.3814171243032
 20
62.143225103283
 10
-63.1022396358506
 20
61.024485558157
 10
-59.9753834598866
 20
59.254087407419
 10
-55.584141256506
 20
56.841441042319
 10
-52.4730301830878
 20
55.634212680853
 10
-51.0570606740322
 20
55.340910373997
 10
-49.6118687389398
 20
55.219389083785
 10
-48.138323961251
 20
55.269708707949
 10
-46.6366215929584
 20
55.491858764773
 10
-43.5847994063392
 20
56.435195804367
 10
-40.2198578937958
 20
58.124425258091
  0
LWPOLYLINE
  5
46C
330
1F
100
AcDbEntity
  8
3
  6
Continuous
 62
     1
100
AcDbPolyline
 90
       20
 70
     0
 43
0.0
 10
-82.2198578937958
 20
53.124425258091
 10
-78.6073180646444
 20
55.755209482485
 10
-76.9621389914368
 20
56.699879382099
 10
-75.3614617030882
 20
57.436410194139
 10
-73.7768309586
 20
57.973916224711
 10
-72.2306061735978
 20
58.300619826589
 10
-70.7229924282976
 20
58.416473143771
 10
-69.2548975514286
 20
58.321390636673
 10
-67.419604809759
 20
57.908120052483
 10
-65.3814171243032
 20
57.143225103283
 10
-63.1022396358506
 20
56.024485558157
 10
-59.9753834598866
 20
54.254087407419
 10
-55.584141256506
 20
51.841441042319
 10
-52.4730301830878
 20
50.634212680853
 10
-51.0570606740322
 20
50.340910373997
 10
-49.6118687389398
 20
50.219389083785
 10
-48.138323961251
 20
50.269708707949
 10
-46.6366215929584
 20
50.491858764773
 10
-43.5847994063392
 20
51.435195804367
 10
-40.2198578937958
 20
53.124425258091
  0
LWPOLYLINE
  5
46D
330
1F
100
AcDbEntity
  8
3
  6
PHANTOM
 62
     6
100
AcDbPolyline
 90
        5
 70
     0
 43
0.0
 10
43.2839642294078
 20
294.841327888243
 10
43.326854351903
 20
295.382893845943
 10
43.422885465392
 20
295.870383140147
 10
43.5591424293366
 20
296.316938312517
 10
43.7274087729976
 20
296.730920502031
  0
LWPOLYLINE
  5
46E
330
1F
100
AcDbEntity
  8
3
  6
DOT_CENTER
 62
     6
100
AcDbPolyline
 90
       32
 70
     0
 43
0.0
 10
89.2017501989944
 20
294.841327888243
 10
89.1588600764994
 20
295.382893845943
 10
89.0628289604704
 20
295.870383140147
 10
88.9265719990658
 20
296.316938312517
 10
88.7583056554048
 20
296.730920502031
 10
88.5636463597064
 20
297.118045028727
 10
88.346637184911
 20
297.482426151585
 10
88.1103046603976
 20
297.827143694267
 10
87.8569847251064
 20
298.154574718309
 10
87.5885251020364
 20
298.466599489195
 10
87.3064170124882
 20
298.764735476581
 10
87.0118842487814
 20
299.050228022149
 10
86.7059453737758
 20
299.324113628779
 10
86.3894583715316
 20
299.587265378289
 10
86.0631534056884
 20
299.840426296879
 10
85.7276573888862
 20
300.084234336033
 10
85.3835127178048
 20
300.319241440285
 10
85.0311917740244
 20
300.545928307181
 10
84.671108313385
 20
300.764715979815
 10
84.3036265261664
 20
300.975975061973
 10
83.9290683167286
 20
301.180033124749
 10
83.5477191988518
 20
301.377180708587
 10
83.1598331369754
 20
301.567676248325
 10
82.76563652892
 20
301.751750129585
 10
82.365331518045
 20
301.929608056805
 10
81.9590987669308
 20
302.101433872645
 10
81.5470997763968
 20
302.267391917647
 10
81.129478846384
 20
302.427629036829
 10
80.7063647447318
 20
302.582276263711
 10
80.2778721143402
 20
302.731450260495
 10
79.844102674589
 20
302.875254537259
 10
79.4051492777186
 20
303.013779548483
  0
LWPOLYLINE
  5
46F
330
1F
100
AcDbEntity
  8
3
  6
DOT_CENTER
 62
     6
100
AcDbPolyline
 90
        3
 70
     0
 43
0.0
 10
51.7793496836706
 20
302.582276263711
 10
52.2078423115224
 20
302.731450260495
 10
52.6416117512738
 20
302.875254537259
  0
LWPOLYLINE
  5
470
330
1F
100
AcDbEntity
  8
3
  6
PHANTOM
 62
     6
100
AcDbPolyline
 90
        4
 70
     0
 43
0.0
 10
48.5566461116738
 20
301.180033124749
 10
48.9379952270108
 20
301.377180708587
 10
49.325881288887
 20
301.567676248325
 10
49.7200778994828
 20
301.751750129585
  0
LWPOLYLINE
  5
471
330
1F
100
AcDbEntity
  8
3
  6
DOT_CENTER
 62
     6
100
AcDbPolyline
 90
        6
 70
     0
 43
0.0
 10
49.7200778994828
 20
301.751750129585
 10
50.1203829078176
 20
301.929608056805
 10
50.526615658932
 20
302.101433872645
 10
50.9386146520056
 20
302.267391917647
 10
51.3562355820184
 20
302.427629036829
 10
51.7793496836706
 20
302.582276263711
  0
LWPOLYLINE
  5
472
330
1F
100
AcDbEntity
  8
3
  6
PHANTOM
 62
     6
100
AcDbPolyline
 90
       17
 70
     0
 43
0.0
 10
43.7274087729976
 20
296.730920502031
 10
43.922068066156
 20
297.118045028727
 10
44.1390772434914
 20
297.482426151585
 10
44.3754097680048
 20
297.827143694267
 10
44.6287297032964
 20
298.154574718309
 10
44.897189323826
 20
298.466599489195
 10
45.1792974133744
 20
298.764735476581
 10
45.473830179621
 20
299.050228022149
 10
45.7797690520864
 20
299.324113628779
 10
46.0962560568708
 20
299.587265378289
 10
46.4225610227144
 20
299.840426296879
 10
46.7580570369766
 20
300.084234336033
 10
47.1022017080576
 20
300.319241440285
 10
47.454522654378
 20
300.545928307181
 10
47.8146061150174
 20
300.764715979815
 10
48.182087902236
 20
300.975975061973
 10
48.5566461116738
 20
301.180033124749
  0
LWPOLYLINE
  5
473
330
1F
100
AcDbEntity
  8
3
  6
Continuous
 62
     3
100
AcDbPolyline
 90
       32
 70
     0
 43
0.0
 10
89.2017501989944
 20
301.841327888243
 10
89.1588600764994
 20
302.382893845943
 10
89.0628289604704
 20
302.870383140147
 10
88.9265719990658
 20
303.316938312517
 10
88.7583056554048
 20
303.730920502031
 10
88.5636463597064
 20
304.118045028727
 10
88.346637184911
 20
304.482426151585
 10
88.1103046603976
 20
304.827143694267
 10
87.8569847251064
 20
305.154574718309
 10
87.5885251020364
 20
305.466599489195
 10
87.3064170124882
 20
305.764735476581
 10
87.0118842487814
 20
306.050228022149
 10
86.7059453737758
 20
306.324113628779
 10
86.3894583715316
 20
306.587265378289
 10
86.0631534056884
 20
306.840426296879
 10
85.7276573888862
 20
307.084234336033
 10
85.3835127178048
 20
307.319241440285
 10
85.0311917740244
 20
307.545928307181
 10
84.671108313385
 20
307.764715979815
 10
84.3036265261664
 20
307.975975061973
 10
83.9290683167286
 20
308.180033124749
 10
83.5477191988518
 20
308.377180708587
 10
83.1598331369754
 20
308.567676248325
 10
82.76563652892
 20
308.751750129585
 10
82.365331518045
 20
308.929608056805
 10
81.9590987669308
 20
309.101433872645
 10
81.5470997763968
 20
309.267391917647
 10
81.129478846384
 20
309.427629036829
 10
80.7063647447318
 20
309.582276263711
 10
80.2778721143402
 20
309.731450260495
 10
79.844102674589
 20
309.875254537259
 10
79.4051492777186
 20
310.013779548483
  0
LWPOLYLINE
  5
474
330
1F
100
AcDbEntity
  8
3
  6
Continuous
 62
     3
100
AcDbPolyline
 90
        3
 70
     0
 43
0.0
 10
51.7793496836706
 20
309.582276263711
 10
52.2078423115224
 20
309.731450260495
 10
52.6416117512738
 20
309.875254537259
  0
LWPOLYLINE
  5
475
330
1F
100
AcDbEntity
  8
3
  6
Continuous
 62
     3
100
AcDbPolyline
 90
        6
 70
     0
 43
0.0
 10
49.7200778994828
 20
308.751750129585
 10
50.1203829078176
 20
308.929608056805
 10
50.526615658932
 20
309.101433872645
 10
50.9386146520056
 20
309.267391917647
 10
51.3562355820184
 20
309.427629036829
 10
51.7793496836706
 20
309.582276263711
  0
LWPOLYLINE
  5
476
330
1F
100
AcDbEntity
  8
3
  6
Continuous
 62
     3
100
AcDbPolyline
 90
        4
 70
     0
 43
0.0
 10
48.5566461116738
 20
308.180033124749
 10
48.9379952270108
 20
308.377180708587
 10
49.325881288887
 20
308.567676248325
 10
49.7200778994828
 20
308.751750129585
  0
LWPOLYLINE
  5
477
330
1F
100
AcDbEntity
  8
3
  6
Continuous
 62
     3
100
AcDbPolyline
 90
        5
 70
     0
 43
0.0
 10
43.2839642294078
 20
301.841327888243
 10
43.326854351903
 20
302.382893845943
 10
43.422885465392
 20
302.870383140147
 10
43.5591424293366
 20
303.316938312517
 10
43.7274087729976
 20
303.730920502031
  0
LWPOLYLINE
  5
478
330
1F
100
AcDbEntity
  8
3
  6
Continuous
 62
     3
100
AcDbPolyline
 90
       17
 70
     0
 43
0.0
 10
43.7274087729976
 20
303.730920502031
 10
43.922068066156
 20
304.118045028727
 10
44.1390772434914
 20
304.482426151585
 10
44.3754097680048
 20
304.827143694267
 10
44.6287297032964
 20
305.154574718309
 10
44.897189323826
 20
305.466599489195
 10
45.1792974133744
 20
305.764735476581
 10
45.473830179621
 20
306.050228022149
 10
45.7797690520864
 20
306.324113628779
 10
46.0962560568708
 20
306.587265378289
 10
46.4225610227144
 20
306.840426296879
 10
46.7580570369766
 20
307.084234336033
 10
47.1022017080576
 20
307.319241440285
 10
47.454522654378
 20
307.545928307181
 10
47.8146061150174
 20
307.764715979815
 10
48.182087902236
 20
307.975975061973
 10
48.5566461116738
 20
308.180033124749
  0
LWPOLYLINE
  5
479
330
1F
100
AcDbEntity
  8
3
  6
Continuous
 62
     1
100
AcDbPolyline
 90
       20
 70
     0
 43
0.0
 10
45.2428572142012
 20
58.124425258091
 10
48.8553970433526
 20
60.755209482485
 10
50.5005761165602
 20
61.699879382099
 10
52.1012534049088
 20
62.436410194139
 10
53.685884149397
 20
62.973916224711
 10
55.2321089343992
 20
63.300619826589
 10
56.7397226796994
 20
63.416473143771
 10
58.2078175565684
 20
63.321390636673
 10
60.043110298238
 20
62.908120052483
 10
62.0812979836938
 20
62.143225103283
 10
64.3604754721464
 20
61.024485558157
 10
67.4873316481104
 20
59.254087407419
 10
71.878573851491
 20
56.841441042319
 10
74.9896849249092
 20
55.634212680853
 10
76.4056544339648
 20
55.340910373997
 10
77.8508463690572
 20
55.219389083785
 10
79.324391146746
 20
55.269708707949
 10
80.8260935150386
 20
55.491858764773
 10
83.8779157016578
 20
56.435195804367
 10
87.2428572142012
 20
58.124425258091
  0
LWPOLYLINE
  5
47A
330
1F
100
AcDbEntity
  8
3
  6
Continuous
 62
     1
100
AcDbPolyline
 90
       20
 70
     0
 43
0.0
 10
45.2428572142012
 20
53.124425258091
 10
48.8553970433526
 20
55.755209482485
 10
50.5005761165602
 20
56.699879382099
 10
52.1012534049088
 20
57.436410194139
 10
53.685884149397
 20
57.973916224711
 10
55.2321089343992
 20
58.300619826589
 10
56.7397226796994
 20
58.416473143771
 10
58.2078175565684
 20
58.321390636673
 10
60.043110298238
 20
57.908120052483
 10
62.0812979836938
 20
57.143225103283
 10
64.3604754721464
 20
56.024485558157
 10
67.4873316481104
 20
54.254087407419
 10
71.878573851491
 20
51.841441042319
 10
74.9896849249092
 20
50.634212680853
 10
76.4056544339648
 20
50.340910373997
 10
77.8508463690572
 20
50.219389083785
 10
79.324391146746
 20
50.269708707949
 10
80.8260935150386
 20
50.491858764773
 10
83.8779157016578
 20
51.435195804367
 10
87.2428572142012
 20
53.124425258091
  0
LWPOLYLINE
  5
47B
330
1F
100
AcDbEntity
  8
2
  6
Continuous
 62
     2
100
AcDbPolyline
 90
        3
 70
     0
 43
0.0
 10
140.754606481779
 20
305.124424206079
 10
142.004606481779
 20
310.124424206079
 10
143.254606481779
 20
305.124424206079
  0
LWPOLYLINE
  5
47C
330
1F
100
AcDbEntity
  8
2
  6
Continuous
 62
     2
100
AcDbPolyline
 90
        3
 70
     0
 43
0.0
 10
131.504606481779
 20
107.157522623581
 10
138.504606481779
 20
107.157522623581
 10
138.504606481779
 20
110.657522623581
  0
LWPOLYLINE
  5
47D
330
1F
100
AcDbEntity
  8
2
  6
Continuous
 62
     2
100
AcDbPolyline
 90
        3
 70
     0
 43
0.0
 10
143.254606481779
 20
-79.875574741909
 10
142.004606481779
 20
-84.875574741909
 10
140.754606481779
 20
-79.875574741909
  0
LEADER
  5
47E
330
1F
100
AcDbEntity
  8
1
  6
Continuous
 62
     4
100
AcDbLeader
  3
Standard
 71
     0
 76
     3
 10
31.2428572142012
 20
-84.875574741909
 30
0.0
 10
23.1774248414787
 20
-98.8453133964752
 30
0.0
 10
-9.54406140924101
 20
-98.8453133964752
 30
0.0
  0
LEADER
  5
47F
330
1F
100
AcDbEntity
  8
1
  6
Continuous
 62
     4
100
AcDbLeader
  3
Standard
 71
     0
 76
     3
 10
101.242857214201
 20
-84.875574741909
 30
0.0
 10
109.308289586924
 20
-98.8453133964752
 30
0.0
 10
142.029775837643
 20
-98.8453133964752
 30
0.0
  0
ENDSEC
  0
SECTION
  2
OBJECTS
  0
DICTIONARY
  5
C
330
0
100
AcDbDictionary
281
     1
  3
ACAD_GROUP
350
D
  3
ACAD_LAYOUT
350
1A
  3
ACAD_MATERIAL
350
3B
  3
ACAD_MLEADERSTYLE
350
482
  3
ACAD_MLINESTYLE
350
17
  3
ACAD_PLOTSETTINGS
350
19
  3
ACAD_PLOTSTYLENAME
350
E
  3
ACAD_VISUALSTYLE
350
2A
  3
AcDbVariableDictionary
350
480
  0
DICTIONARY
  5
D
102
{ACAD_REACTORS
330
C
102
}
330
C
100
AcDbDictionary
281
     1
  0
DICTIONARY
  5
1A
102
{ACAD_REACTORS
330
C
102
}
330
C
100
AcDbDictionary
281
     1
  3
Layout1
350
1E
  3
Layout2
350
26
  3
Model
350
22
  0
DICTIONARY
  5
3B
102
{ACAD_REACTORS
330
C
102
}
330
C
100
AcDbDictionary
281
     1
  3
ByBlock
350
3D
  3
ByLayer
350
3C
  3
Global
350
3E
  0
DICTIONARY
  5
482
102
{ACAD_REACTORS
330
C
102
}
330
C
100
AcDbDictionary
281
     1
  0
DICTIONARY
  5
17
102
{ACAD_REACTORS
330
C
102
}
330
C
100
AcDbDictionary
281
     1
  3
Standard
350
18
  0
DICTIONARY
  5
19
102
{ACAD_REACTORS
330
C
102
}
330
C
100
AcDbDictionary
281
     1
  0
ACDBDICTIONARYWDFLT
  5
E
102
{ACAD_REACTORS
330
C
102
}
330
C
100
AcDbDictionary
281
     1
  3
Normal
350
F
100
AcDbDictionaryWithDefault
340
F
  0
DICTIONARY
  5
2A
102
{ACAD_REACTORS
330
C
102
}
330
C
100
AcDbDictionary
281
     1
  3
2dWireframe
350
2F
  3
3D Hidden
350
31
  3
3dWireframe
350
30
  3
Basic
350
32
  3
Brighten
350
36
  3
ColorChange
350
3A
  3
Conceptual
350
34
  3
Dim
350
35
  3
Facepattern
350
39
  3
Flat
350
2B
  3
FlatWithEdges
350
2C
  3
Gouraud
350
2D
  3
GouraudWithEdges
350
2E
  3
Linepattern
350
38
  3
Realistic
350
33
  3
Thicken
350
37
  0
DICTIONARY
  5
480
102
{ACAD_REACTORS
330
C
102
}
330
C
100
AcDbDictionary
281
     1
  3
DIMASSOC
350
483
  3
HIDETEXT
350
484
  0
LAYOUT
  5
1E
102
{ACAD_REACTORS
330
1A
102
}
330
1A
100
AcDbPlotSettings
  1

  2
none_device
  4

  6

 40
0.0
 41
0.0
 42
0.0
 43
0.0
 44
0.0
 45
0.0
 46
0.0
 47
0.0
 48
0.0
 49
0.0
140
0.0
141
0.0
142
1.0
143
1.0
 70
   688
 72
     0
 73
     0
 74
     5
  7

 75
    16
147
1.0
148
0.0
149
0.0
100
AcDbLayout
  1
Layout1
 70
     1
 71
     1
 10
0.0
 20
0.0
 11
12.0
 21
9.0
 12
0.0
 22
0.0
 32
0.0
 14
1.00000000000000E+20
 24
1.00000000000000E+20
 34
1.00000000000000E+20
 15
-1.00000000000000E+20
 25
-1.00000000000000E+20
 35
-1.00000000000000E+20
146
0.0
 13
0.0
 23
0.0
 33
0.0
 16
1.0
 26
0.0
 36
0.0
 17
0.0
 27
1.0
 37
0.0
 76
     0
330
1B
  0
LAYOUT
  5
26
102
{ACAD_REACTORS
330
1A
102
}
330
1A
100
AcDbPlotSettings
  1

  2
none_device
  4

  6

 40
0.0
 41
0.0
 42
0.0
 43
0.0
 44
0.0
 45
0.0
 46
0.0
 47
0.0
 48
0.0
 49
0.0
140
0.0
141
0.0
142
1.0
143
1.0
 70
   688
 72
     0
 73
     0
 74
     5
  7

 75
    16
147
1.0
148
0.0
149
0.0
100
AcDbLayout
  1
Layout2
 70
     1
 71
     2
 10
0.0
 20
0.0
 11
0.0
 21
0.0
 12
0.0
 22
0.0
 32
0.0
 14
0.0
 24
0.0
 34
0.0
 15
0.0
 25
0.0
 35
0.0
146
0.0
 13
0.0
 23
0.0
 33
0.0
 16
1.0
 26
0.0
 36
0.0
 17
0.0
 27
1.0
 37
0.0
 76
     0
330
23
  0
LAYOUT
  5
22
102
{ACAD_REACTORS
330
1A
102
}
330
1A
100
AcDbPlotSettings
  1

  2
none_device
  4

  6

 40
0.0
 41
0.0
 42
0.0
 43
0.0
 44
0.0
 45
0.0
 46
0.0
 47
0.0
 48
0.0
 49
0.0
140
0.0
141
0.0
142
1.0
143
1.0
 70
  1712
 72
     0
 73
     0
 74
     0
  7

 75
     0
147
1.0
148
0.0
149
0.0
100
AcDbLayout
  1
Model
 70
     1
 71
     0
 10
0.0
 20
0.0
 11
12.0
 21
9.0
 12
0.0
 22
0.0
 32
0.0
 14
-84.9698578937958
 24
-113.354977852461
 34
0.0
 15
220.711702090182
 25
394.841327892601
 35
0.0
146
0.0
 13
0.0
 23
0.0
 33
0.0
 16
1.0
 26
0.0
 36
0.0
 17
0.0
 27
1.0
 37
0.0
 76
     0
330
1F
331
29
  0
MATERIAL
  5
3D
102
{ACAD_REACTORS
330
3B
102
}
102
{ACAD_XDICTIONARY
360
4A7
102
}
330
3B
100
AcDbMaterial
  1
ByBlock
  0
MATERIAL
  5
3C
102
{ACAD_REACTORS
330
3B
102
}
102
{ACAD_XDICTIONARY
360
4A5
102
}
330
3B
100
AcDbMaterial
  1
ByLayer
  0
MATERIAL
  5
3E
102
{ACAD_REACTORS
330
3B
102
}
102
{ACAD_XDICTIONARY
360
4A9
102
}
330
3B
100
AcDbMaterial
  1
Global
  0
MLINESTYLE
  5
18
102
{ACAD_REACTORS
330
17
102
}
330
17
100
AcDbMlineStyle
  2
Standard
 70
     0
  3

 62
   256
 51
90.0
 52
90.0
 71
     2
 49
0.5
 62
   256
  6
BYLAYER
 49
-0.5
 62
   256
  6
BYLAYER
  0
ACDBPLACEHOLDER
  5
F
102
{ACAD_REACTORS
330
E
102
}
330
E
  0
VISUALSTYLE
  5
2F
102
{ACAD_REACTORS
330
2A
102
}
102
{ACAD_XDICTIONARY
360
48D
102
}
330
2A
100
AcDbVisualStyle
  2
2dWireframe
 70
     4
 71
     0
 72
     2
 73
     0
 90
        0
 40
-0.6
 41
-30.0
 62
     5
 63
     7
 74
     1
 91
        4
 64
     7
 65
   257
 75
     1
175
     1
 42
1.0
 92
        0
 66
   257
 43
1.0
 76
     1
 77
     6
 78
     2
 67
     7
 79
     5
170
     0
171
     0
290
     0
174
     0
 93
        1
 44
0.0
173
     0
291
     0
 45
0.0
1001
ACAD
1000
AcDbSavedByObjectVersion
1070
     0
  0
VISUALSTYLE
  5
31
102
{ACAD_REACTORS
330
2A
102
}
102
{ACAD_XDICTIONARY
360
491
102
}
330
2A
100
AcDbVisualStyle
  2
3D Hidden
 70
     6
 71
     1
 72
     2
 73
     2
 90
        0
 40
-0.6
 41
-30.0
 62
     5
 63
     7
 74
     2
 91
        2
 64
     7
 65
   257
 75
     2
175
     1
 42
40.0
 92
        0
 66
   257
 43
1.0
 76
     1
 77
     6
 78
     2
 67
     7
 79
     3
170
     0
171
     0
290
     0
174
     0
 93
        1
 44
0.0
173
     0
291
     0
 45
0.0
1001
ACAD
1000
AcDbSavedByObjectVersion
1070
     0
  0
VISUALSTYLE
  5
30
102
{ACAD_REACTORS
330
2A
102
}
102
{ACAD_XDICTIONARY
360
48F
102
}
330
2A
100
AcDbVisualStyle
  2
3dWireframe
 70
     5
 71
     0
 72
     2
 73
     0
 90
        0
 40
-0.6
 41
-30.0
 62
     5
 63
     7
 74
     1
 91
        4
 64
     7
 65
   257
 75
     1
175
     1
 42
1.0
 92
        0
 66
   257
 43
1.0
 76
     1
 77
     6
 78
     2
 67
     7
 79
     5
170
     0
171
     0
290
     0
174
     0
 93
        1
 44
0.0
173
     0
291
     0
 45
0.0
1001
ACAD
1000
AcDbSavedByObjectVersion
1070
     0
  0
VISUALSTYLE
  5
32
102
{ACAD_REACTORS
330
2A
102
}
102
{ACAD_XDICTIONARY
360
493
102
}
330
2A
100
AcDbVisualStyle
  2
Basic
 70
     7
 71
     1
 72
     0
 73
     1
 90
        0
 40
-0.6
 41
-30.0
 62
     5
 63
     7
 74
     0
 91
        4
 64
     7
 65
   257
 75
     1
175
     1
 42
1.0
 92
        8
 66
     7
 43
1.0
 76
     1
 77
     6
 78
     2
 67
     7
 79
     5
170
     0
171
     0
290
     0
174
     0
 93
        1
 44
0.0
173
     0
291
     1
 45
0.0
1001
ACAD
1000
AcDbSavedByObjectVersion
1070
     0
  0
VISUALSTYLE
  5
36
102
{ACAD_REACTORS
330
2A
102
}
102
{ACAD_XDICTIONARY
360
49B
102
}
330
2A
100
AcDbVisualStyle
  2
Brighten
 70
    12
 71
     2
 72
     2
 73
     0
 90
        0
 40
-0.6
 41
-30.0
 62
     5
 63
     7
 74
     1
 91
        4
 64
     7
 65
   257
 75
     1
175
     1
 42
1.0
 92
        8
 66
     7
 43
1.0
 76
     1
 77
     6
 78
     2
 67
     7
 79
     5
170
     0
171
     0
290
     0
174
     0
 93
        1
 44
50.0
173
     0
291
     1
 45
0.0
1001
ACAD
1000
AcDbSavedByObjectVersion
1070
     0
  0
VISUALSTYLE
  5
3A
102
{ACAD_REACTORS
330
2A
102
}
102
{ACAD_XDICTIONARY
360
4A3
102
}
330
2A
100
AcDbVisualStyle
  2
ColorChange
 70
    16
 71
     2
 72
     2
 73
     3
 90
        0
 40
-0.6
 41
-30.0
 62
     5
 63
     8
 74
     1
 91
        4
 64
     7
 65
   257
 75
     1
175
     1
 42
1.0
 92
        8
 66
     8
 43
1.0
 76
     1
 77
     6
 78
     2
 67
     7
 79
     5
170
     0
171
     0
290
     0
174
     0
 93
        1
 44
0.0
173
     0
291
     1
 45
0.0
1001
ACAD
1000
AcDbSavedByObjectVersion
1070
     0
  0
VISUALSTYLE
  5
34
102
{ACAD_REACTORS
330
2A
102
}
102
{ACAD_XDICTIONARY
360
497
102
}
330
2A
100
AcDbVisualStyle
  2
Conceptual
 70
     9
 71
     3
 72
     2
 73
     0
 90
        0
 40
-0.6
 41
-30.0
 62
     5
 63
     7
 74
     2
 91
        2
 64
     7
 65
   257
 75
     1
175
     1
 42
40.0
 92
        8
 66
     7
 43
1.0
 76
     1
 77
     6
 78
     2
 67
     7
 79
     3
170
     0
171
     0
290
     0
174
     0
 93
        1
 44
0.0
173
     0
291
     0
 45
0.0
1001
ACAD
1000
AcDbSavedByObjectVersion
1070
     0
  0
VISUALSTYLE
  5
35
102
{ACAD_REACTORS
330
2A
102
}
102
{ACAD_XDICTIONARY
360
499
102
}
330
2A
100
AcDbVisualStyle
  2
Dim
 70
    11
 71
     2
 72
     2
 73
     0
 90
        0
 40
-0.6
 41
-30.0
 62
     5
 63
     7
 74
     1
 91
        4
 64
     7
 65
   257
 75
     1
175
     1
 42
1.0
 92
        8
 66
     7
 43
1.0
 76
     1
 77
     6
 78
     2
 67
     7
 79
     5
170
     0
171
     0
290
     0
174
     0
 93
        1
 44
-50.0
173
     0
291
     1
 45
0.0
1001
ACAD
1000
AcDbSavedByObjectVersion
1070
     0
  0
VISUALSTYLE
  5
39
102
{ACAD_REACTORS
330
2A
102
}
102
{ACAD_XDICTIONARY
360
4A1
102
}
330
2A
100
AcDbVisualStyle
  2
Facepattern
 70
    15
 71
     2
 72
     2
 73
     0
 90
        0
 40
-0.6
 41
-30.0
 62
     5
 63
     7
 74
     1
 91
        4
 64
     7
 65
   257
 75
     1
175
     1
 42
1.0
 92
        8
 66
     7
 43
1.0
 76
     1
 77
     6
 78
     2
 67
     7
 79
     5
170
     0
171
     0
290
     0
174
     0
 93
        1
 44
0.0
173
     0
291
     1
 45
0.0
1001
ACAD
1000
AcDbSavedByObjectVersion
1070
     0
  0
VISUALSTYLE
  5
2B
102
{ACAD_REACTORS
330
2A
102
}
102
{ACAD_XDICTIONARY
360
485
102
}
330
2A
100
AcDbVisualStyle
  2
Flat
 70
     0
 71
     2
 72
     1
 73
     1
 90
        2
 40
-0.6
 41
30.0
 62
     5
 63
     7
 74
     0
 91
        4
 64
     7
 65
   257
 75
     1
175
     1
 42
1.0
 92
        8
 66
     7
 43
1.0
 76
     1
 77
     6
 78
     2
 67
     7
 79
     5
170
     0
171
     0
290
     0
174
     0
 93
       13
 44
0.0
173
     0
291
     1
 45
0.0
1001
ACAD
1000
AcDbSavedByObjectVersion
1070
     0
  0
VISUALSTYLE
  5
2C
102
{ACAD_REACTORS
330
2A
102
}
102
{ACAD_XDICTIONARY
360
487
102
}
330
2A
100
AcDbVisualStyle
  2
FlatWithEdges
 70
     1
 71
     2
 72
     1
 73
     1
 90
        2
 40
-0.6
 41
30.0
 62
     5
 63
     7
 74
     1
 91
        4
 64
     7
 65
   257
 75
     1
175
     1
 42
1.0
 92
        0
 66
   257
 43
1.0
 76
     1
 77
     6
 78
     2
 67
     7
 79
     5
170
     0
171
     0
290
     0
174
     0
 93
       13
 44
0.0
173
     0
291
     1
 45
0.0
1001
ACAD
1000
AcDbSavedByObjectVersion
1070
     0
  0
VISUALSTYLE
  5
2D
102
{ACAD_REACTORS
330
2A
102
}
102
{ACAD_XDICTIONARY
360
489
102
}
330
2A
100
AcDbVisualStyle
  2
Gouraud
 70
     2
 71
     2
 72
     2
 73
     1
 90
        2
 40
-0.6
 41
30.0
 62
     5
 63
     7
 74
     0
 91
        4
 64
     7
 65
   257
 75
     1
175
     1
 42
1.0
 92
        0
 66
     7
 43
1.0
 76
     1
 77
     6
 78
     2
 67
     7
 79
     5
170
     0
171
     0
290
     0
174
     0
 93
       13
 44
0.0
173
     0
291
     1
 45
0.0
1001
ACAD
1000
AcDbSavedByObjectVersion
1070
     0
  0
VISUALSTYLE
  5
2E
102
{ACAD_REACTORS
330
2A
102
}
102
{ACAD_XDICTIONARY
360
48B
102
}
330
2A
100
AcDbVisualStyle
  2
GouraudWithEdges
 70
     3
 71
     2
 72
     2
 73
     1
 90
        2
 40
-0.6
 41
30.0
 62
     5
 63
     7
 74
     1
 91
        4
 64
     7
 65
   257
 75
     1
175
     1
 42
1.0
 92
        0
 66
   257
 43
1.0
 76
     1
 77
     6
 78
     2
 67
     7
 79
     5
170
     0
171
     0
290
     0
174
     0
 93
       13
 44
0.0
173
     0
291
     1
 45
0.0
1001
ACAD
1000
AcDbSavedByObjectVersion
1070
     0
  0
VISUALSTYLE
  5
38
102
{ACAD_REACTORS
330
2A
102
}
102
{ACAD_XDICTIONARY
360
49F
102
}
330
2A
100
AcDbVisualStyle
  2
Linepattern
 70
    14
 71
     2
 72
     2
 73
     0
 90
        0
 40
-0.6
 41
-30.0
 62
     5
 63
     7
 74
     1
 91
        4
 64
     7
 65
   257
 75
     7
175
     7
 42
1.0
 92
        8
 66
     7
 43
1.0
 76
     1
 77
     6
 78
     2
 67
     7
 79
     5
170
     0
171
     0
290
     0
174
     0
 93
        1
 44
0.0
173
     0
291
     1
 45
0.0
1001
ACAD
1000
AcDbSavedByObjectVersion
1070
     0
  0
VISUALSTYLE
  5
33
102
{ACAD_REACTORS
330
2A
102
}
102
{ACAD_XDICTIONARY
360
495
102
}
330
2A
100
AcDbVisualStyle
  2
Realistic
 70
     8
 71
     2
 72
     2
 73
     0
 90
        0
 40
-0.6
 41
-30.0
 62
     5
 63
     7
 74
     1
 91
        0
 64
     7
 65
   257
 75
     1
175
     1
 42
1.0
 92
        8
 66
     8
 43
1.0
 76
     1
 77
     6
 78
     2
 67
     7
 79
     5
170
     0
171
     0
290
     0
174
     0
 93
       13
 44
0.0
173
     0
291
     0
 45
0.0
1001
ACAD
1000
AcDbSavedByObjectVersion
1070
     0
  0
VISUALSTYLE
  5
37
102
{ACAD_REACTORS
330
2A
102
}
102
{ACAD_XDICTIONARY
360
49D
102
}
330
2A
100
AcDbVisualStyle
  2
Thicken
 70
    13
 71
     2
 72
     2
 73
     0
 90
        0
 40
-0.6
 41
-30.0
 62
     5
 63
     7
 74
     1
 91
        4
 64
     7
 65
   257
 75
     1
175
     1
 42
1.0
 92
       12
 66
     7
 43
1.0
 76
     1
 77
     6
 78
     2
 67
     7
 79
     5
170
     0
171
     0
290
     0
174
     0
 93
        1
 44
0.0
173
     0
291
     1
 45
0.0
1001
ACAD
1000
AcDbSavedByObjectVersion
1070
     0
  0
DICTIONARYVAR
  5
483
102
{ACAD_REACTORS
330
480
102
}
330
480
100
DictionaryVariables
280
     0
  1
2
  0
DICTIONARYVAR
  5
484
102
{ACAD_REACTORS
330
480
102
}
330
480
100
DictionaryVariables
280
     0
  1
1
  0
DICTIONARY
  5
4A7
330
3D
100
AcDbDictionary
280
     1
281
     1
  3
ACAD_XREC_ROUNDTRIP
360
4A8
  0
DICTIONARY
  5
4A5
330
3C
100
AcDbDictionary
280
     1
281
     1
  3
ACAD_XREC_ROUNDTRIP
360
4A6
  0
DICTIONARY
  5
4A9
330
3E
100
AcDbDictionary
280
     1
281
     1
  3
ACAD_XREC_ROUNDTRIP
360
4AA
  0
DICTIONARY
  5
48D
330
2F
100
AcDbDictionary
280
     1
281
     1
  3
ACAD_XREC_ROUNDTRIP
360
48E
  0
DICTIONARY
  5
491
330
31
100
AcDbDictionary
280
     1
281
     1
  3
ACAD_XREC_ROUNDTRIP
360
492
  0
DICTIONARY
  5
48F
330
30
100
AcDbDictionary
280
     1
281
     1
  3
ACAD_XREC_ROUNDTRIP
360
490
  0
DICTIONARY
  5
493
330
32
100
AcDbDictionary
280
     1
281
     1
  3
ACAD_XREC_ROUNDTRIP
360
494
  0
DICTIONARY
  5
49B
330
36
100
AcDbDictionary
280
     1
281
     1
  3
ACAD_XREC_ROUNDTRIP
360
49C
  0
DICTIONARY
  5
4A3
330
3A
100
AcDbDictionary
280
     1
281
     1
  3
ACAD_XREC_ROUNDTRIP
360
4A4
  0
DICTIONARY
  5
497
330
34
100
AcDbDictionary
280
     1
281
     1
  3
ACAD_XREC_ROUNDTRIP
360
498
  0
DICTIONARY
  5
499
330
35
100
AcDbDictionary
280
     1
281
     1
  3
ACAD_XREC_ROUNDTRIP
360
49A
  0
DICTIONARY
  5
4A1
330
39
100
AcDbDictionary
280
     1
281
     1
  3
ACAD_XREC_ROUNDTRIP
360
4A2
  0
DICTIONARY
  5
485
330
2B
100
AcDbDictionary
280
     1
281
     1
  3
ACAD_XREC_ROUNDTRIP
360
486
  0
DICTIONARY
  5
487
330
2C
100
AcDbDictionary
280
     1
281
     1
  3
ACAD_XREC_ROUNDTRIP
360
488
  0
DICTIONARY
  5
489
330
2D
100
AcDbDictionary
280
     1
281
     1
  3
ACAD_XREC_ROUNDTRIP
360
48A
  0
DICTIONARY
  5
48B
330
2E
100
AcDbDictionary
280
     1
281
     1
  3
ACAD_XREC_ROUNDTRIP
360
48C
  0
DICTIONARY
  5
49F
330
38
100
AcDbDictionary
280
     1
281
     1
  3
ACAD_XREC_ROUNDTRIP
360
4A0
  0
DICTIONARY
  5
495
330
33
100
AcDbDictionary
280
     1
281
     1
  3
ACAD_XREC_ROUNDTRIP
360
496
  0
DICTIONARY
  5
49D
330
37
100
AcDbDictionary
280
     1
281
     1
  3
ACAD_XREC_ROUNDTRIP
360
49E
  0
XRECORD
  5
4A8
102
{ACAD_REACTORS
330
4A7
102
}
330
4A7
100
AcDbXrecord
280
     1
102
MATERIAL
148
0.0
149
0.0
149
0.0
 93
        0
 94
      127
282
     0
 72
     1
 77
     1
171
     1
175
     1
179
     1
273
     0
  0
XRECORD
  5
4A6
102
{ACAD_REACTORS
330
4A5
102
}
330
4A5
100
AcDbXrecord
280
     1
102
MATERIAL
148
0.0
149
0.0
149
0.0
 93
        0
 94
      127
282
     0
 72
     1
 77
     1
171
     1
175
     1
179
     1
273
     0
  0
XRECORD
  5
4AA
102
{ACAD_REACTORS
330
4A9
102
}
330
4A9
100
AcDbXrecord
280
     1
102
MATERIAL
148
0.0
149
0.0
149
0.0
 93
        0
 94
      127
282
     0
 72
     1
 77
     1
171
     1
175
     1
179
     1
273
     0
  0
XRECORD
  5
48E
102
{ACAD_REACTORS
330
48D
102
}
330
48D
100
AcDbXrecord
280
     1
102
RTVSPropertyOp0
 70
     1
102
RTVSPropertyOp1
 70
     1
102
RTVSPropertyOp2
 70
     1
102
RTVSPropertyOp3
 70
     1
102
RTVSPropertyOp4
 70
     1
102
RTVSPropertyOp5
 70
     1
102
RTVSPropertyOp6
 70
     1
102
RTVSPropertyOp7
 70
     1
102
RTVSPropertyOp8
 70
     1
102
RTVSPropertyOp9
 70
     1
102
RTVSPropertyOp10
 70
     1
102
RTVSPropertyOp11
 70
     1
102
RTVSPropertyOp12
 70
     1
102
RTVSPropertyOp13
 70
     1
102
RTVSPropertyOp14
 70
     1
102
RTVSPropertyOp15
 70
     1
102
RTVSPropertyOp16
 70
     1
102
RTVSPropertyOp17
 70
     1
102
RTVSPropertyOp18
 70
     1
102
RTVSPropertyOp19
 70
     1
102
RTVSPropertyOp20
 70
     1
102
RTVSPropertyOp21
 70
     1
102
RTVSPropertyOp22
 70
     1
102
RTVSPropertyOp23
 70
     1
102
RTVSPropertyOp24
 70
     1
102
RTVSPropertyOp25
 70
     1
102
RTVSPropertyOp26
 70
     1
102
RTVSPropertyOp27
 70
     1
  0
XRECORD
  5
492
102
{ACAD_REACTORS
330
491
102
}
330
491
100
AcDbXrecord
280
     1
102
RTVSPropertyOp0
 70
     1
102
RTVSPropertyOp1
 70
     1
102
RTVSPropertyOp2
 70
     1
102
RTVSPropertyOp3
 70
     1
102
RTVSPropertyOp4
 70
     1
102
RTVSPropertyOp5
 70
     1
102
RTVSPropertyOp6
 70
     1
102
RTVSPropertyOp7
 70
     1
102
RTVSPropertyOp8
 70
     1
102
RTVSPropertyOp9
 70
     1
102
RTVSPropertyOp10
 70
     1
102
RTVSPropertyOp11
 70
     1
102
RTVSPropertyOp12
 70
     1
102
RTVSPropertyOp13
 70
     1
102
RTVSPropertyOp14
 70
     1
102
RTVSPropertyOp15
 70
     1
102
RTVSPropertyOp16
 70
     1
102
RTVSPropertyOp17
 70
     1
102
RTVSPropertyOp18
 70
     1
102
RTVSPropertyOp19
 70
     1
102
RTVSPropertyOp20
 70
     1
102
RTVSPropertyOp21
 70
     1
102
RTVSPropertyOp22
 70
     1
102
RTVSPropertyOp23
 70
     1
102
RTVSPropertyOp24
 70
     1
102
RTVSPropertyOp25
 70
     1
102
RTVSPropertyOp26
 70
     1
102
RTVSPropertyOp27
 70
     1
  0
XRECORD
  5
490
102
{ACAD_REACTORS
330
48F
102
}
330
48F
100
AcDbXrecord
280
     1
102
RTVSPropertyOp0
 70
     1
102
RTVSPropertyOp1
 70
     1
102
RTVSPropertyOp2
 70
     1
102
RTVSPropertyOp3
 70
     1
102
RTVSPropertyOp4
 70
     1
102
RTVSPropertyOp5
 70
     1
102
RTVSPropertyOp6
 70
     1
102
RTVSPropertyOp7
 70
     1
102
RTVSPropertyOp8
 70
     1
102
RTVSPropertyOp9
 70
     1
102
RTVSPropertyOp10
 70
     1
102
RTVSPropertyOp11
 70
     1
102
RTVSPropertyOp12
 70
     1
102
RTVSPropertyOp13
 70
     1
102
RTVSPropertyOp14
 70
     1
102
RTVSPropertyOp15
 70
     1
102
RTVSPropertyOp16
 70
     1
102
RTVSPropertyOp17
 70
     1
102
RTVSPropertyOp18
 70
     1
102
RTVSPropertyOp19
 70
     1
102
RTVSPropertyOp20
 70
     1
102
RTVSPropertyOp21
 70
     1
102
RTVSPropertyOp22
 70
     1
102
RTVSPropertyOp23
 70
     1
102
RTVSPropertyOp24
 70
     1
102
RTVSPropertyOp25
 70
     1
102
RTVSPropertyOp26
 70
     1
102
RTVSPropertyOp27
 70
     1
  0
XRECORD
  5
494
102
{ACAD_REACTORS
330
493
102
}
330
493
100
AcDbXrecord
280
     1
102
RTVSPropertyOp0
 70
     1
102
RTVSPropertyOp1
 70
     1
102
RTVSPropertyOp2
 70
     1
102
RTVSPropertyOp3
 70
     1
102
RTVSPropertyOp4
 70
     1
102
RTVSPropertyOp5
 70
     1
102
RTVSPropertyOp6
 70
     1
102
RTVSPropertyOp7
 70
     1
102
RTVSPropertyOp8
 70
     1
102
RTVSPropertyOp9
 70
     1
102
RTVSPropertyOp10
 70
     1
102
RTVSPropertyOp11
 70
     1
102
RTVSPropertyOp12
 70
     1
102
RTVSPropertyOp13
 70
     1
102
RTVSPropertyOp14
 70
     1
102
RTVSPropertyOp15
 70
     1
102
RTVSPropertyOp16
 70
     1
102
RTVSPropertyOp17
 70
     1
102
RTVSPropertyOp18
 70
     1
102
RTVSPropertyOp19
 70
     1
102
RTVSPropertyOp20
 70
     1
102
RTVSPropertyOp21
 70
     1
102
RTVSPropertyOp22
 70
     1
102
RTVSPropertyOp23
 70
     1
102
RTVSPropertyOp24
 70
     1
102
RTVSPropertyOp25
 70
     1
102
RTVSPropertyOp26
 70
     1
102
RTVSPropertyOp27
 70
     1
  0
XRECORD
  5
49C
102
{ACAD_REACTORS
330
49B
102
}
330
49B
100
AcDbXrecord
280
     1
102
RTVSPropertyOp0
 70
     1
102
RTVSPropertyOp1
 70
     1
102
RTVSPropertyOp2
 70
     1
102
RTVSPropertyOp3
 70
     1
102
RTVSPropertyOp4
 70
     1
102
RTVSPropertyOp5
 70
     1
102
RTVSPropertyOp6
 70
     1
102
RTVSPropertyOp7
 70
     1
102
RTVSPropertyOp8
 70
     1
102
RTVSPropertyOp9
 70
     1
102
RTVSPropertyOp10
 70
     1
102
RTVSPropertyOp11
 70
     1
102
RTVSPropertyOp12
 70
     1
102
RTVSPropertyOp13
 70
     1
102
RTVSPropertyOp14
 70
     1
102
RTVSPropertyOp15
 70
     1
102
RTVSPropertyOp16
 70
     1
102
RTVSPropertyOp17
 70
     1
102
RTVSPropertyOp18
 70
     1
102
RTVSPropertyOp19
 70
     1
102
RTVSPropertyOp20
 70
     1
102
RTVSPropertyOp21
 70
     1
102
RTVSPropertyOp22
 70
     1
102
RTVSPropertyOp23
 70
     1
102
RTVSPropertyOp24
 70
     1
102
RTVSPropertyOp25
 70
     1
102
RTVSPropertyOp26
 70
     1
102
RTVSPropertyOp27
 70
     1
  0
XRECORD
  5
4A4
102
{ACAD_REACTORS
330
4A3
102
}
330
4A3
100
AcDbXrecord
280
     1
102
RTVSPropertyOp0
 70
     1
102
RTVSPropertyOp1
 70
     1
102
RTVSPropertyOp2
 70
     1
102
RTVSPropertyOp3
 70
     1
102
RTVSPropertyOp4
 70
     1
102
RTVSPropertyOp5
 70
     1
102
RTVSPropertyOp6
 70
     1
102
RTVSPropertyOp7
 70
     1
102
RTVSPropertyOp8
 70
     1
102
RTVSPropertyOp9
 70
     1
102
RTVSPropertyOp10
 70
     1
102
RTVSPropertyOp11
 70
     1
102
RTVSPropertyOp12
 70
     1
102
RTVSPropertyOp13
 70
     1
102
RTVSPropertyOp14
 70
     1
102
RTVSPropertyOp15
 70
     1
102
RTVSPropertyOp16
 70
     1
102
RTVSPropertyOp17
 70
     1
102
RTVSPropertyOp18
 70
     1
102
RTVSPropertyOp19
 70
     1
102
RTVSPropertyOp20
 70
     1
102
RTVSPropertyOp21
 70
     1
102
RTVSPropertyOp22
 70
     1
102
RTVSPropertyOp23
 70
     1
102
RTVSPropertyOp24
 70
     1
102
RTVSPropertyOp25
 70
     1
102
RTVSPropertyOp26
 70
     1
102
RTVSPropertyOp27
 70
     1
  0
XRECORD
  5
498
102
{ACAD_REACTORS
330
497
102
}
330
497
100
AcDbXrecord
280
     1
102
RTVSPropertyOp0
 70
     1
102
RTVSPropertyOp1
 70
     1
102
RTVSPropertyOp2
 70
     1
102
RTVSPropertyOp3
 70
     1
102
RTVSPropertyOp4
 70
     1
102
RTVSPropertyOp5
 70
     1
102
RTVSPropertyOp6
 70
     1
102
RTVSPropertyOp7
 70
     1
102
RTVSPropertyOp8
 70
     1
102
RTVSPropertyOp9
 70
     1
102
RTVSPropertyOp10
 70
     1
102
RTVSPropertyOp11
 70
     1
102
RTVSPropertyOp12
 70
     1
102
RTVSPropertyOp13
 70
     1
102
RTVSPropertyOp14
 70
     1
102
RTVSPropertyOp15
 70
     1
102
RTVSPropertyOp16
 70
     1
102
RTVSPropertyOp17
 70
     1
102
RTVSPropertyOp18
 70
     1
102
RTVSPropertyOp19
 70
     1
102
RTVSPropertyOp20
 70
     1
102
RTVSPropertyOp21
 70
     1
102
RTVSPropertyOp22
 70
     1
102
RTVSPropertyOp23
 70
     1
102
RTVSPropertyOp24
 70
     1
102
RTVSPropertyOp25
 70
     1
102
RTVSPropertyOp26
 70
     1
102
RTVSPropertyOp27
 70
     1
  0
XRECORD
  5
49A
102
{ACAD_REACTORS
330
499
102
}
330
499
100
AcDbXrecord
280
     1
102
RTVSPropertyOp0
 70
     1
102
RTVSPropertyOp1
 70
     1
102
RTVSPropertyOp2
 70
     1
102
RTVSPropertyOp3
 70
     1
102
RTVSPropertyOp4
 70
     1
102
RTVSPropertyOp5
 70
     1
102
RTVSPropertyOp6
 70
     1
102
RTVSPropertyOp7
 70
     1
102
RTVSPropertyOp8
 70
     1
102
RTVSPropertyOp9
 70
     1
102
RTVSPropertyOp10
 70
     1
102
RTVSPropertyOp11
 70
     1
102
RTVSPropertyOp12
 70
     1
102
RTVSPropertyOp13
 70
     1
102
RTVSPropertyOp14
 70
     1
102
RTVSPropertyOp15
 70
     1
102
RTVSPropertyOp16
 70
     1
102
RTVSPropertyOp17
 70
     1
102
RTVSPropertyOp18
 70
     1
102
RTVSPropertyOp19
 70
     1
102
RTVSPropertyOp20
 70
     1
102
RTVSPropertyOp21
 70
     1
102
RTVSPropertyOp22
 70
     1
102
RTVSPropertyOp23
 70
     1
102
RTVSPropertyOp24
 70
     1
102
RTVSPropertyOp25
 70
     1
102
RTVSPropertyOp26
 70
     1
102
RTVSPropertyOp27
 70
     1
  0
XRECORD
  5
4A2
102
{ACAD_REACTORS
330
4A1
102
}
330
4A1
100
AcDbXrecord
280
     1
102
RTVSPropertyOp0
 70
     1
102
RTVSPropertyOp1
 70
     1
102
RTVSPropertyOp2
 70
     1
102
RTVSPropertyOp3
 70
     1
102
RTVSPropertyOp4
 70
     1
102
RTVSPropertyOp5
 70
     1
102
RTVSPropertyOp6
 70
     1
102
RTVSPropertyOp7
 70
     1
102
RTVSPropertyOp8
 70
     1
102
RTVSPropertyOp9
 70
     1
102
RTVSPropertyOp10
 70
     1
102
RTVSPropertyOp11
 70
     1
102
RTVSPropertyOp12
 70
     1
102
RTVSPropertyOp13
 70
     1
102
RTVSPropertyOp14
 70
     1
102
RTVSPropertyOp15
 70
     1
102
RTVSPropertyOp16
 70
     1
102
RTVSPropertyOp17
 70
     1
102
RTVSPropertyOp18
 70
     1
102
RTVSPropertyOp19
 70
     1
102
RTVSPropertyOp20
 70
     1
102
RTVSPropertyOp21
 70
     1
102
RTVSPropertyOp22
 70
     1
102
RTVSPropertyOp23
 70
     1
102
RTVSPropertyOp24
 70
     1
102
RTVSPropertyOp25
 70
     1
102
RTVSPropertyOp26
 70
     1
102
RTVSPropertyOp27
 70
     1
  0
XRECORD
  5
486
102
{ACAD_REACTORS
330
485
102
}
330
485
100
AcDbXrecord
280
     1
102
RTVSPropertyOp0
 70
     1
102
RTVSPropertyOp1
 70
     1
102
RTVSPropertyOp2
 70
     1
102
RTVSPropertyOp3
 70
     1
102
RTVSPropertyOp4
 70
     1
102
RTVSPropertyOp5
 70
     1
102
RTVSPropertyOp6
 70
     1
102
RTVSPropertyOp7
 70
     1
102
RTVSPropertyOp8
 70
     1
102
RTVSPropertyOp9
 70
     1
102
RTVSPropertyOp10
 70
     1
102
RTVSPropertyOp11
 70
     1
102
RTVSPropertyOp12
 70
     1
102
RTVSPropertyOp13
 70
     1
102
RTVSPropertyOp14
 70
     1
102
RTVSPropertyOp15
 70
     1
102
RTVSPropertyOp16
 70
     1
102
RTVSPropertyOp17
 70
     1
102
RTVSPropertyOp18
 70
     1
102
RTVSPropertyOp19
 70
     1
102
RTVSPropertyOp20
 70
     1
102
RTVSPropertyOp21
 70
     1
102
RTVSPropertyOp22
 70
     1
102
RTVSPropertyOp23
 70
     1
102
RTVSPropertyOp24
 70
     1
102
RTVSPropertyOp25
 70
     1
102
RTVSPropertyOp26
 70
     1
102
RTVSPropertyOp27
 70
     1
  0
XRECORD
  5
488
102
{ACAD_REACTORS
330
487
102
}
330
487
100
AcDbXrecord
280
     1
102
RTVSPropertyOp0
 70
     1
102
RTVSPropertyOp1
 70
     1
102
RTVSPropertyOp2
 70
     1
102
RTVSPropertyOp3
 70
     1
102
RTVSPropertyOp4
 70
     1
102
RTVSPropertyOp5
 70
     1
102
RTVSPropertyOp6
 70
     1
102
RTVSPropertyOp7
 70
     1
102
RTVSPropertyOp8
 70
     1
102
RTVSPropertyOp9
 70
     1
102
RTVSPropertyOp10
 70
     1
102
RTVSPropertyOp11
 70
     1
102
RTVSPropertyOp12
 70
     1
102
RTVSPropertyOp13
 70
     1
102
RTVSPropertyOp14
 70
     1
102
RTVSPropertyOp15
 70
     1
102
RTVSPropertyOp16
 70
     1
102
RTVSPropertyOp17
 70
     1
102
RTVSPropertyOp18
 70
     1
102
RTVSPropertyOp19
 70
     1
102
RTVSPropertyOp20
 70
     1
102
RTVSPropertyOp21
 70
     1
102
RTVSPropertyOp22
 70
     1
102
RTVSPropertyOp23
 70
     1
102
RTVSPropertyOp24
 70
     1
102
RTVSPropertyOp25
 70
     1
102
RTVSPropertyOp26
 70
     1
102
RTVSPropertyOp27
 70
     1
  0
XRECORD
  5
48A
102
{ACAD_REACTORS
330
489
102
}
330
489
100
AcDbXrecord
280
     1
102
RTVSPropertyOp0
 70
     1
102
RTVSPropertyOp1
 70
     1
102
RTVSPropertyOp2
 70
     1
102
RTVSPropertyOp3
 70
     1
102
RTVSPropertyOp4
 70
     1
102
RTVSPropertyOp5
 70
     1
102
RTVSPropertyOp6
 70
     1
102
RTVSPropertyOp7
 70
     1
102
RTVSPropertyOp8
 70
     1
102
RTVSPropertyOp9
 70
     1
102
RTVSPropertyOp10
 70
     1
102
RTVSPropertyOp11
 70
     1
102
RTVSPropertyOp12
 70
     1
102
RTVSPropertyOp13
 70
     1
102
RTVSPropertyOp14
 70
     1
102
RTVSPropertyOp15
 70
     1
102
RTVSPropertyOp16
 70
     1
102
RTVSPropertyOp17
 70
     1
102
RTVSPropertyOp18
 70
     1
102
RTVSPropertyOp19
 70
     1
102
RTVSPropertyOp20
 70
     1
102
RTVSPropertyOp21
 70
     1
102
RTVSPropertyOp22
 70
     1
102
RTVSPropertyOp23
 70
     1
102
RTVSPropertyOp24
 70
     1
102
RTVSPropertyOp25
 70
     1
102
RTVSPropertyOp26
 70
     1
102
RTVSPropertyOp27
 70
     1
  0
XRECORD
  5
48C
102
{ACAD_REACTORS
330
48B
102
}
330
48B
100
AcDbXrecord
280
     1
102
RTVSPropertyOp0
 70
     1
102
RTVSPropertyOp1
 70
     1
102
RTVSPropertyOp2
 70
     1
102
RTVSPropertyOp3
 70
     1
102
RTVSPropertyOp4
 70
     1
102
RTVSPropertyOp5
 70
     1
102
RTVSPropertyOp6
 70
     1
102
RTVSPropertyOp7
 70
     1
102
RTVSPropertyOp8
 70
     1
102
RTVSPropertyOp9
 70
     1
102
RTVSPropertyOp10
 70
     1
102
RTVSPropertyOp11
 70
     1
102
RTVSPropertyOp12
 70
     1
102
RTVSPropertyOp13
 70
     1
102
RTVSPropertyOp14
 70
     1
102
RTVSPropertyOp15
 70
     1
102
RTVSPropertyOp16
 70
     1
102
RTVSPropertyOp17
 70
     1
102
RTVSPropertyOp18
 70
     1
102
RTVSPropertyOp19
 70
     1
102
RTVSPropertyOp20
 70
     1
102
RTVSPropertyOp21
 70
     1
102
RTVSPropertyOp22
 70
     1
102
RTVSPropertyOp23
 70
     1
102
RTVSPropertyOp24
 70
     1
102
RTVSPropertyOp25
 70
     1
102
RTVSPropertyOp26
 70
     1
102
RTVSPropertyOp27
 70
     1
  0
XRECORD
  5
4A0
102
{ACAD_REACTORS
330
49F
102
}
330
49F
100
AcDbXrecord
280
     1
102
RTVSPropertyOp0
 70
     1
102
RTVSPropertyOp1
 70
     1
102
RTVSPropertyOp2
 70
     1
102
RTVSPropertyOp3
 70
     1
102
RTVSPropertyOp4
 70
     1
102
RTVSPropertyOp5
 70
     1
102
RTVSPropertyOp6
 70
     1
102
RTVSPropertyOp7
 70
     1
102
RTVSPropertyOp8
 70
     1
102
RTVSPropertyOp9
 70
     1
102
RTVSPropertyOp10
 70
     1
102
RTVSPropertyOp11
 70
     1
102
RTVSPropertyOp12
 70
     1
102
RTVSPropertyOp13
 70
     1
102
RTVSPropertyOp14
 70
     1
102
RTVSPropertyOp15
 70
     1
102
RTVSPropertyOp16
 70
     1
102
RTVSPropertyOp17
 70
     1
102
RTVSPropertyOp18
 70
     1
102
RTVSPropertyOp19
 70
     1
102
RTVSPropertyOp20
 70
     1
102
RTVSPropertyOp21
 70
     1
102
RTVSPropertyOp22
 70
     1
102
RTVSPropertyOp23
 70
     1
102
RTVSPropertyOp24
 70
     1
102
RTVSPropertyOp25
 70
     1
102
RTVSPropertyOp26
 70
     1
102
RTVSPropertyOp27
 70
     1
  0
XRECORD
  5
496
102
{ACAD_REACTORS
330
495
102
}
330
495
100
AcDbXrecord
280
     1
102
RTVSPropertyOp0
 70
     1
102
RTVSPropertyOp1
 70
     1
102
RTVSPropertyOp2
 70
     1
102
RTVSPropertyOp3
 70
     1
102
RTVSPropertyOp4
 70
     1
102
RTVSPropertyOp5
 70
     1
102
RTVSPropertyOp6
 70
     1
102
RTVSPropertyOp7
 70
     1
102
RTVSPropertyOp8
 70
     1
102
RTVSPropertyOp9
 70
     1
102
RTVSPropertyOp10
 70
     1
102
RTVSPropertyOp11
 70
     1
102
RTVSPropertyOp12
 70
     1
102
RTVSPropertyOp13
 70
     1
102
RTVSPropertyOp14
 70
     1
102
RTVSPropertyOp15
 70
     1
102
RTVSPropertyOp16
 70
     1
102
RTVSPropertyOp17
 70
     1
102
RTVSPropertyOp18
 70
     1
102
RTVSPropertyOp19
 70
     1
102
RTVSPropertyOp20
 70
     1
102
RTVSPropertyOp21
 70
     1
102
RTVSPropertyOp22
 70
     1
102
RTVSPropertyOp23
 70
     1
102
RTVSPropertyOp24
 70
     1
102
RTVSPropertyOp25
 70
     1
102
RTVSPropertyOp26
 70
     1
102
RTVSPropertyOp27
 70
     1
  0
XRECORD
  5
49E
102
{ACAD_REACTORS
330
49D
102
}
330
49D
100
AcDbXrecord
280
     1
102
RTVSPropertyOp0
 70
     1
102
RTVSPropertyOp1
 70
     1
102
RTVSPropertyOp2
 70
     1
102
RTVSPropertyOp3
 70
     1
102
RTVSPropertyOp4
 70
     1
102
RTVSPropertyOp5
 70
     1
102
RTVSPropertyOp6
 70
     1
102
RTVSPropertyOp7
 70
     1
102
RTVSPropertyOp8
 70
     1
102
RTVSPropertyOp9
 70
     1
102
RTVSPropertyOp10
 70
     1
102
RTVSPropertyOp11
 70
     1
102
RTVSPropertyOp12
 70
     1
102
RTVSPropertyOp13
 70
     1
102
RTVSPropertyOp14
 70
     1
102
RTVSPropertyOp15
 70
     1
102
RTVSPropertyOp16
 70
     1
102
RTVSPropertyOp17
 70
     1
102
RTVSPropertyOp18
 70
     1
102
RTVSPropertyOp19
 70
     1
102
RTVSPropertyOp20
 70
     1
102
RTVSPropertyOp21
 70
     1
102
RTVSPropertyOp22
 70
     1
102
RTVSPropertyOp23
 70
     1
102
RTVSPropertyOp24
 70
     1
102
RTVSPropertyOp25
 70
     1
102
RTVSPropertyOp26
 70
     1
102
RTVSPropertyOp27
 70
     1
  0
ENDSEC
  0
EOF
