  0
SECTION
  2
HEADER
  9
$ACADVER
  1
AC1015
  9
$ACADMAINTVER
 70
     6
  9
$DWGCODEPAGE
  3
ANSI_932
  9
$INSBASE
 10
0.0
 20
0.0
 30
0.0
  9
$EXTMIN
 10
7.75797136846327
 20
-420.289308924954
 30
0.0
  9
$EXTMAX
 10
339.259981545061
 20
-10.5364573784651
 30
0.0
  9
$LIMMIN
 10
0.0
 20
0.0
  9
$LIMMAX
 10
12.0
 20
9.0
  9
$ORTHOMODE
 70
     0
  9
$REGENMODE
 70
     1
  9
$FILLMODE
 70
     1
  9
$QTEXTMODE
 70
     0
  9
$MIRRTEXT
 70
     1
  9
$LTSCALE
 40
1.0
  9
$ATTMODE
 70
     1
  9
$TEXTSIZE
 40
0.2
  9
$TRACEWID
 40
0.05
  9
$TEXTSTYLE
  7
Standard
  9
$CLAYER
  8
0
  9
$CELTYPE
  6
ByLayer
  9
$CECOLOR
 62
   256
  9
$CELTSCALE
 40
1.0
  9
$DISPSILH
 70
     0
  9
$DIMSCALE
 40
1.0
  9
$DIMASZ
 40
0.18
  9
$DIMEXO
 40
0.0625
  9
$DIMDLI
 40
0.38
  9
$DIMRND
 40
0.0
  9
$DIMDLE
 40
0.0
  9
$DIMEXE
 40
0.18
  9
$DIMTP
 40
0.0
  9
$DIMTM
 40
0.0
  9
$DIMTXT
 40
0.18
  9
$DIMCEN
 40
0.09
  9
$DIMTSZ
 40
0.0
  9
$DIMTOL
 70
     0
  9
$DIMLIM
 70
     0
  9
$DIMTIH
 70
     1
  9
$DIMTOH
 70
     1
  9
$DIMSE1
 70
     0
  9
$DIMSE2
 70
     0
  9
$DIMTAD
 70
     0
  9
$DIMZIN
 70
     0
  9
$DIMBLK
  1

  9
$DIMASO
 70
     1
  9
$DIMSHO
 70
     1
  9
$DIMPOST
  1

  9
$DIMAPOST
  1

  9
$DIMALT
 70
     0
  9
$DIMALTD
 70
     2
  9
$DIMALTF
 40
25.4
  9
$DIMLFAC
 40
1.0
  9
$DIMTOFL
 70
     0
  9
$DIMTVP
 40
0.0
  9
$DIMTIX
 70
     0
  9
$DIMSOXD
 70
     0
  9
$DIMSAH
 70
     0
  9
$DIMBLK1
  1

  9
$DIMBLK2
  1

  9
$DIMSTYLE
  2
Standard
  9
$DIMCLRD
 70
     0
  9
$DIMCLRE
 70
     0
  9
$DIMCLRT
 70
     0
  9
$DIMTFAC
 40
1.0
  9
$DIMGAP
 40
0.09
  9
$DIMJUST
 70
     0
  9
$DIMSD1
 70
     0
  9
$DIMSD2
 70
     0
  9
$DIMTOLJ
 70
     1
  9
$DIMTZIN
 70
     0
  9
$DIMALTZ
 70
     0
  9
$DIMALTTZ
 70
     0
  9
$DIMUPT
 70
     0
  9
$DIMDEC
 70
     4
  9
$DIMTDEC
 70
     4
  9
$DIMALTU
 70
     2
  9
$DIMALTTD
 70
     2
  9
$DIMTXSTY
  7
Standard
  9
$DIMAUNIT
 70
     0
  9
$DIMADEC
 70
     0
  9
$DIMALTRND
 40
0.0
  9
$DIMAZIN
 70
     0
  9
$DIMDSEP
 70
    46
  9
$DIMATFIT
 70
     3
  9
$DIMFRAC
 70
     0
  9
$DIMLDRBLK
  1

  9
$DIMLUNIT
 70
     2
  9
$DIMLWD
 70
    -2
  9
$DIMLWE
 70
    -2
  9
$DIMTMOVE
 70
     0
  9
$LUNITS
 70
     2
  9
$LUPREC
 70
     4
  9
$SKETCHINC
 40
0.1
  9
$FILLETRAD
 40
0.5
  9
$AUNITS
 70
     0
  9
$AUPREC
 70
     0
  9
$MENU
  1
.
  9
$ELEVATION
 40
0.0
  9
$PELEVATION
 40
0.0
  9
$THICKNESS
 40
0.0
  9
$LIMCHECK
 70
     0
  9
$CHAMFERA
 40
0.5
  9
$CHAMFERB
 40
0.5
  9
$CHAMFERC
 40
1.0
  9
$CHAMFERD
 40
0.0
  9
$SKPOLY
 70
     0
  9
$TDCREATE
 40
2457624.561539942
  9
$TDUCREATE
 40
2457624.186539942
  9
$TDUPDATE
 40
2457624.561539954
  9
$TDUUPDATE
 40
2457624.186539954
  9
$TDINDWG
 40
0.0000000116
  9
$TDUSRTIMER
 40
0.0000000116
  9
$USRTIMER
 70
     1
  9
$ANGBASE
 50
0.0
  9
$ANGDIR
 70
     0
  9
$PDMODE
 70
     0
  9
$PDSIZE
 40
0.0
  9
$PLINEWID
 40
0.0
  9
$SPLFRAME
 70
     0
  9
$SPLINETYPE
 70
     6
  9
$SPLINESEGS
 70
     8
  9
$HANDSEED
  5
712
  9
$SURFTAB1
 70
     6
  9
$SURFTAB2
 70
     6
  9
$SURFTYPE
 70
     6
  9
$SURFU
 70
     6
  9
$SURFV
 70
     6
  9
$UCSBASE
  2

  9
$UCSNAME
  2

  9
$UCSORG
 10
0.0
 20
0.0
 30
0.0
  9
$UCSXDIR
 10
1.0
 20
0.0
 30
0.0
  9
$UCSYDIR
 10
0.0
 20
1.0
 30
0.0
  9
$UCSORTHOREF
  2

  9
$UCSORTHOVIEW
 70
     0
  9
$UCSORGTOP
 10
0.0
 20
0.0
 30
0.0
  9
$UCSORGBOTTOM
 10
0.0
 20
0.0
 30
0.0
  9
$UCSORGLEFT
 10
0.0
 20
0.0
 30
0.0
  9
$UCSORGRIGHT
 10
0.0
 20
0.0
 30
0.0
  9
$UCSORGFRONT
 10
0.0
 20
0.0
 30
0.0
  9
$UCSORGBACK
 10
0.0
 20
0.0
 30
0.0
  9
$PUCSBASE
  2

  9
$PUCSNAME
  2

  9
$PUCSORG
 10
0.0
 20
0.0
 30
0.0
  9
$PUCSXDIR
 10
1.0
 20
0.0
 30
0.0
  9
$PUCSYDIR
 10
0.0
 20
1.0
 30
0.0
  9
$PUCSORTHOREF
  2

  9
$PUCSORTHOVIEW
 70
     0
  9
$PUCSORGTOP
 10
0.0
 20
0.0
 30
0.0
  9
$PUCSORGBOTTOM
 10
0.0
 20
0.0
 30
0.0
  9
$PUCSORGLEFT
 10
0.0
 20
0.0
 30
0.0
  9
$PUCSORGRIGHT
 10
0.0
 20
0.0
 30
0.0
  9
$PUCSORGFRONT
 10
0.0
 20
0.0
 30
0.0
  9
$PUCSORGBACK
 10
0.0
 20
0.0
 30
0.0
  9
$USERI1
 70
     0
  9
$USERI2
 70
     0
  9
$USERI3
 70
     0
  9
$USERI4
 70
     0
  9
$USERI5
 70
     0
  9
$USERR1
 40
18.0
  9
$USERR2
 40
0.0
  9
$USERR3
 40
0.0
  9
$USERR4
 40
0.0
  9
$USERR5
 40
0.0
  9
$WORLDVIEW
 70
     1
  9
$SHADEDGE
 70
     3
  9
$SHADEDIF
 70
    70
  9
$TILEMODE
 70
     1
  9
$MAXACTVP
 70
    64
  9
$PINSBASE
 10
0.0
 20
0.0
 30
0.0
  9
$PLIMCHECK
 70
     0
  9
$PEXTMIN
 10
1.00000000000000E+20
 20
1.00000000000000E+20
 30
1.00000000000000E+20
  9
$PEXTMAX
 10
-1.00000000000000E+20
 20
-1.00000000000000E+20
 30
-1.00000000000000E+20
  9
$PLIMMIN
 10
0.0
 20
0.0
  9
$PLIMMAX
 10
12.0
 20
9.0
  9
$UNITMODE
 70
     0
  9
$VISRETAIN
 70
     1
  9
$PLINEGEN
 70
     0
  9
$PSLTSCALE
 70
     1
  9
$TREEDEPTH
 70
  3020
  9
$CMLSTYLE
  2
Standard
  9
$CMLJUST
 70
     0
  9
$CMLSCALE
 40
1.0
  9
$PROXYGRAPHICS
 70
     1
  9
$MEASUREMENT
 70
     1
  9
$CELWEIGHT
370
    -1
  9
$ENDCAPS
280
     0
  9
$JOINSTYLE
280
     0
  9
$LWDISPLAY
290
     0
  9
$INSUNITS
 70
     1
  9
$HYPERLINKBASE
  1

  9
$STYLESHEET
  1

  9
$XEDIT
290
     1
  9
$CEPSNTYPE
380
     0
  9
$PSTYLEMODE
290
     1
  9
$FINGERPRINTGUID
  2
{C6C3B64E-023F-46D4-839A-90CD27F07D34}
  9
$VERSIONGUID
  2
{FAEB1C32-E019-11D5-929B-00C0DF256EC4}
  9
$EXTNAMES
290
     1
  9
$PSVPSCALE
 40
0.0
  9
$OLESTARTUP
290
     0
  0
ENDSEC
  0
SECTION
  2
CLASSES
  0
CLASS
  1
ACDBDICTIONARYWDFLT
  2
AcDbDictionaryWithDefault
  3
ObjectDBX Classes
 90
        0
280
     0
281
     0
  0
CLASS
  1
VISUALSTYLE
  2
AcDbVisualStyle
  3
ObjectDBX Classes
 90
     4095
280
     0
281
     0
  0
CLASS
  1
MATERIAL
  2
AcDbMaterial
  3
ObjectDBX Classes
 90
     1153
280
     0
281
     0
  0
CLASS
  1

  2
exOdDbCircle
  3

 90
        0
280
     0
281
     1
  0
CLASS
  1

  2
exOdDbPolyline
  3

 90
        0
280
     0
281
     1
  0
CLASS
  1
DICTIONARYVAR
  2
AcDbDictionaryVar
  3
ObjectDBX Classes
 90
        0
280
     0
281
     0
  0
CLASS
  1
ACDBPLACEHOLDER
  2
AcDbPlaceHolder
  3
ObjectDBX Classes
 90
        0
280
     0
281
     0
  0
CLASS
  1
LAYOUT
  2
AcDbLayout
  3
ObjectDBX Classes
 90
        0
280
     0
281
     0
  0
ENDSEC
  0
SECTION
  2
TABLES
  0
TABLE
  2
VPORT
  5
8
330
0
100
AcDbSymbolTable
 70
     1
  0
VPORT
  5
29
330
8
100
AcDbSymbolTableRecord
100
AcDbViewportTableRecord
  2
*Active
 70
     0
 10
0.0
 20
0.0
 11
1.0
 21
1.0
 12
173.5089764567621
 22
-215.4128831517096
 13
0.0
 23
0.0
 14
0.5
 24
0.5
 15
0.5
 25
0.5
 16
0.0
 26
0.0
 36
1.0
 17
0.0
 27
0.0
 37
0.0
 40
450.7281367011378
 41
1.60267857142857
 42
50.0
 43
0.0
 44
0.0
 50
0.0
 51
0.0
 71
     0
 72
   100
 73
     1
 74
     3
 75
     0
 76
     0
 77
     0
 78
     0
281
     0
 65
     1
110
0.0
120
0.0
130
0.0
111
1.0
121
0.0
131
0.0
112
0.0
122
1.0
132
0.0
 79
     0
146
0.0
  0
ENDTAB
  0
TABLE
  2
LTYPE
  5
5
330
0
100
AcDbSymbolTable
 70
     8
  0
LTYPE
  5
14
330
5
100
AcDbSymbolTableRecord
100
AcDbLinetypeTableRecord
  2
ByBlock
 70
     0
  3

 72
    65
 73
     0
 40
0.0
  0
LTYPE
  5
15
330
5
100
AcDbSymbolTableRecord
100
AcDbLinetypeTableRecord
  2
ByLayer
 70
     0
  3

 72
    65
 73
     0
 40
0.0
  0
LTYPE
  5
16
330
5
100
AcDbSymbolTableRecord
100
AcDbLinetypeTableRecord
  2
Continuous
 70
     0
  3
Solid line
 72
    65
 73
     0
 40
0.0
  0
LTYPE
  5
3F
330
5
100
AcDbSymbolTableRecord
100
AcDbLinetypeTableRecord
  2
DASHED
 70
     0
  3
Dashed
 72
    65
 73
     2
 40
15.0
 49
7.0
 74
     0
 49
-8.0
 74
     0
  0
LTYPE
  5
40
330
5
100
AcDbSymbolTableRecord
100
AcDbLinetypeTableRecord
  2
DOTTED
 70
     0
  3
Dotted
 72
    65
 73
     2
 40
1.0
 49
0.0
 74
     0
 49
-1.0
 74
     0
  0
LTYPE
  5
41
330
5
100
AcDbSymbolTableRecord
100
AcDbLinetypeTableRecord
  2
DOT_CENTER
 70
     0
  3
Dot_Center
 72
    65
 73
     4
 40
14.0
 49
12.0
 74
     0
 49
-1.0
 74
     0
 49
0.0
 74
     0
 49
-1.0
 74
     0
  0
LTYPE
  5
42
330
5
100
AcDbSymbolTableRecord
100
AcDbLinetypeTableRecord
  2
LONG_DASHED
 70
     0
  3
Long_Dashed
 72
    65
 73
     2
 40
15.0
 49
10.0
 74
     0
 49
-5.0
 74
     0
  0
LTYPE
  5
43
330
5
100
AcDbSymbolTableRecord
100
AcDbLinetypeTableRecord
  2
DASH_CENTER
 70
     0
  3
Dash_Center
 72
    65
 73
     4
 40
14.0
 49
11.0
 74
     0
 49
-1.0
 74
     0
 49
1.0
 74
     0
 49
-1.0
 74
     0
  0
LTYPE
  5
44
330
5
100
AcDbSymbolTableRecord
100
AcDbLinetypeTableRecord
  2
PHANTOM
 70
     0
  3
Phantom
 72
    65
 73
     6
 40
13.0
 49
10.0
 74
     0
 49
-1.0
 74
     0
 49
0.0
 74
     0
 49
-1.0
 74
     0
 49
0.0
 74
     0
 49
-1.0
 74
     0
  0
LTYPE
  5
45
330
5
100
AcDbSymbolTableRecord
100
AcDbLinetypeTableRecord
  2
CENTER_DASH_DASH
 70
     0
  3
Center_Dash_Dash
 72
    65
 73
     6
 40
14.0
 49
9.0
 74
     0
 49
-1.0
 74
     0
 49
1.0
 74
     0
 49
-1.0
 74
     0
 49
1.0
 74
     0
 49
-1.0
 74
     0
  0
ENDTAB
  0
TABLE
  2
LAYER
  5
2
330
0
100
AcDbSymbolTable
 70
     5
  0
LAYER
  5
10
330
2
100
AcDbSymbolTableRecord
100
AcDbLayerTableRecord
  2
0
 70
     0
 62
     7
  6
Continuous
370
    -3
390
F
  0
LAYER
  5
46
330
2
100
AcDbSymbolTableRecord
100
AcDbLayerTableRecord
  2
1
 70
     0
 62
     7
  6
Continuous
370
    -3
390
F
  0
LAYER
  5
47
330
2
100
AcDbSymbolTableRecord
100
AcDbLayerTableRecord
  2
100
 70
     0
 62
     7
  6
Continuous
370
    -3
390
F
  0
LAYER
  5
48
330
2
100
AcDbSymbolTableRecord
100
AcDbLayerTableRecord
  2
2
 70
     0
 62
     7
  6
Continuous
370
    -3
390
F
  0
LAYER
  5
49
330
2
100
AcDbSymbolTableRecord
100
AcDbLayerTableRecord
  2
3
 70
     0
 62
     7
  6
Continuous
370
    -3
390
F
  0
ENDTAB
  0
TABLE
  2
STYLE
  5
3
330
0
100
AcDbSymbolTable
 70
     1
  0
STYLE
  5
11
330
3
100
AcDbSymbolTableRecord
100
AcDbTextStyleTableRecord
  2
Standard
 70
     0
 40
0.0
 41
1.0
 50
0.0
 71
     0
 42
0.2
  3
txt
  4

  0
ENDTAB
  0
TABLE
  2
VIEW
  5
6
330
0
100
AcDbSymbolTable
 70
     0
  0
ENDTAB
  0
TABLE
  2
UCS
  5
7
330
0
100
AcDbSymbolTable
 70
     0
  0
ENDTAB
  0
TABLE
  2
APPID
  5
9
330
0
100
AcDbSymbolTable
 70
     1
  0
APPID
  5
12
330
9
100
AcDbSymbolTableRecord
100
AcDbRegAppTableRecord
  2
ACAD
 70
     0
  0
ENDTAB
  0
TABLE
  2
DIMSTYLE
  5
A
330
0
100
AcDbSymbolTable
 70
     1
100
AcDbDimStyleTable
  0
DIMSTYLE
105
27
330
A
100
AcDbSymbolTableRecord
100
AcDbDimStyleTableRecord
  2
Standard
 70
     0
340
11
  0
ENDTAB
  0
TABLE
  2
BLOCK_RECORD
  5
1
330
0
100
AcDbSymbolTable
 70
     1
  0
BLOCK_RECORD
  5
1F
330
1
100
AcDbSymbolTableRecord
100
AcDbBlockTableRecord
  2
*Model_Space
340
22
  0
BLOCK_RECORD
  5
1B
330
1
100
AcDbSymbolTableRecord
100
AcDbBlockTableRecord
  2
*Paper_Space
340
1E
  0
BLOCK_RECORD
  5
23
330
1
100
AcDbSymbolTableRecord
100
AcDbBlockTableRecord
  2
*Paper_Space0
340
26
  0
ENDTAB
  0
ENDSEC
  0
SECTION
  2
BLOCKS
  0
BLOCK
  5
20
330
1F
100
AcDbEntity
  8
0
100
AcDbBlockBegin
  2
*Model_Space
 70
     0
 10
0.0
 20
0.0
 30
0.0
  3
*Model_Space
  1

  0
ENDBLK
  5
21
330
1F
100
AcDbEntity
  8
0
100
AcDbBlockEnd
  0
BLOCK
  5
1C
330
1B
100
AcDbEntity
 67
     1
  8
0
100
AcDbBlockBegin
  2
*Paper_Space
 70
     0
 10
0.0
 20
0.0
 30
0.0
  3
*Paper_Space
  1

  0
ENDBLK
  5
1D
330
1B
100
AcDbEntity
 67
     1
  8
0
100
AcDbBlockEnd
  0
BLOCK
  5
24
330
23
100
AcDbEntity
  8
0
100
AcDbBlockBegin
  2
*Paper_Space0
 70
     0
 10
0.0
 20
0.0
 30
0.0
  3
*Paper_Space0
  1

  0
ENDBLK
  5
25
330
23
100
AcDbEntity
  8
0
100
AcDbBlockEnd
  0
ENDSEC
  0
SECTION
  2
ENTITIES
  0
LINE
  5
4A
330
1F
100
AcDbEntity
  8
1
  6
Continuous
 62
     4
100
AcDbLine
 10
39.7457150923853
 20
-412.816847735373
 30
0.0
 11
40.7457150923853
 21
-413.441847735373
 31
0.0
  0
LINE
  5
4B
330
1F
100
AcDbEntity
  8
1
  6
Continuous
 62
     4
100
AcDbLine
 10
41.1207150923853
 20
-412.504347735373
 30
0.0
 11
40.3082150923853
 21
-411.879347735373
 31
0.0
  0
LINE
  5
4C
330
1F
100
AcDbEntity
  8
1
  6
Continuous
 62
     4
100
AcDbLine
 10
41.8082150923853
 20
-411.754347735373
 30
0.0
 11
42.2457150923853
 21
-412.191847735373
 31
0.0
  0
LINE
  5
4D
330
1F
100
AcDbEntity
  8
1
  6
Continuous
 62
     4
100
AcDbLine
 10
42.5582150923853
 20
-411.879347735373
 30
0.0
 11
42.1207150923853
 21
-411.441847735373
 31
0.0
  0
LINE
  5
4E
330
1F
100
AcDbEntity
  8
1
  6
Continuous
 62
     4
100
AcDbLine
 10
42.2457150923853
 20
-413.754347735373
 30
0.0
 11
42.9332150923853
 21
-412.816847735373
 31
0.0
  0
LINE
  5
4F
330
1F
100
AcDbEntity
  8
1
  6
Continuous
 62
     4
100
AcDbLine
 10
41.1207150923853
 20
-414.691847735373
 30
0.0
 11
42.2457150923853
 21
-413.754347735373
 31
0.0
  0
LINE
  5
50
330
1F
100
AcDbEntity
  8
1
  6
Continuous
 62
     4
100
AcDbLine
 10
40.0582150923853
 20
-415.316847735373
 30
0.0
 11
41.1207150923853
 21
-414.691847735373
 31
0.0
  0
LINE
  5
51
330
1F
100
AcDbEntity
  8
1
  6
Continuous
 62
     4
100
AcDbLine
 10
37.3707150923853
 20
-413.941847735373
 30
0.0
 11
37.8082150923853
 21
-414.566847735373
 31
0.0
  0
LINE
  5
52
330
1F
100
AcDbEntity
  8
1
  6
Continuous
 62
     4
100
AcDbLine
 10
36.8082150923853
 20
-413.441847735373
 30
0.0
 11
37.3707150923853
 21
-413.941847735373
 31
0.0
  0
LINE
  5
53
330
1F
100
AcDbEntity
  8
1
  6
Continuous
 62
     4
100
AcDbLine
 10
36.4332150923853
 20
-411.441847735373
 30
0.0
 11
36.6832150923853
 21
-411.754347735373
 31
0.0
  0
LINE
  5
54
330
1F
100
AcDbEntity
  8
1
  6
Continuous
 62
     4
100
AcDbLine
 10
35.8707150923853
 20
-411.129347735373
 30
0.0
 11
36.4332150923853
 21
-411.441847735373
 31
0.0
  0
LINE
  5
55
330
1F
100
AcDbEntity
  8
1
  6
Continuous
 62
     4
100
AcDbLine
 10
37.1207150923853
 20
-412.379347735373
 30
0.0
 11
35.1832150923853
 21
-412.379347735373
 31
0.0
  0
LINE
  5
56
330
1F
100
AcDbEntity
  8
1
  6
Continuous
 62
     4
100
AcDbLine
 10
36.1207150923853
 20
-413.441847735373
 30
0.0
 11
37.1207150923853
 21
-412.379347735373
 31
0.0
  0
LINE
  5
57
330
1F
100
AcDbEntity
  8
1
  6
Continuous
 62
     4
100
AcDbLine
 10
34.7457150923853
 20
-414.379347735373
 30
0.0
 11
36.1207150923853
 21
-413.441847735373
 31
0.0
  0
LINE
  5
58
330
1F
100
AcDbEntity
  8
1
  6
Continuous
 62
     4
100
AcDbLine
 10
36.3082150923853
 20
-415.316847735373
 30
0.0
 11
36.3082150923853
 21
-413.316847735373
 31
0.0
  0
LINE
  5
59
330
1F
100
AcDbEntity
  8
1
  6
Continuous
 62
     4
100
AcDbLine
 10
31.8082150923853
 20
-413.816847735373
 30
0.0
 11
31.8082150923853
 21
-415.816847735373
 31
0.0
  0
LINE
  5
5A
330
1F
100
AcDbEntity
  8
1
  6
Continuous
 62
     4
100
AcDbLine
 10
29.5582150923853
 20
-414.816847735373
 30
0.0
 11
32.5582150923853
 21
-414.816847735373
 31
0.0
  0
LINE
  5
5B
330
1F
100
AcDbEntity
  8
1
  6
Continuous
 62
     4
100
AcDbLine
 10
31.8082150923853
 20
-410.816847735373
 30
0.0
 11
29.5582150923853
 21
-414.816847735373
 31
0.0
  0
LINE
  5
5C
330
1F
100
AcDbEntity
  8
1
  6
Continuous
 62
     4
100
AcDbLine
 10
26.0582150923853
 20
-415.816847735373
 30
0.0
 11
28.0582150923853
 21
-410.816847735373
 31
0.0
  0
LINE
  5
5D
330
1F
100
AcDbEntity
  8
1
  6
Continuous
 62
     4
100
AcDbLine
 10
24.5582150923853
 20
-410.816847735373
 30
0.0
 11
24.5582150923853
 21
-415.816847735373
 31
0.0
  0
LINE
  5
5E
330
1F
100
AcDbEntity
  8
1
  6
Continuous
 62
     4
100
AcDbLine
 10
23.0582150923853
 20
-412.316847735373
 30
0.0
 11
24.5582150923853
 21
-410.816847735373
 31
0.0
  0
LINE
  5
5F
330
1F
100
AcDbEntity
  8
1
  6
Continuous
 62
     4
100
AcDbLine
 10
17.5582150923853
 20
-410.816847735373
 30
0.0
 11
17.5582150923853
 21
-415.816847735373
 31
0.0
  0
LINE
  5
60
330
1F
100
AcDbEntity
  8
1
  6
Continuous
 62
     4
100
AcDbLine
 10
16.0582150923853
 20
-412.316847735373
 30
0.0
 11
17.5582150923853
 21
-410.816847735373
 31
0.0
  0
LINE
  5
61
330
1F
100
AcDbEntity
  8
1
  6
Continuous
 62
     4
100
AcDbLine
 10
14.5582150923853
 20
-413.066847735373
 30
0.0
 11
13.3082150923853
 21
-413.066847735373
 31
0.0
  0
LINE
  5
62
330
1F
100
AcDbEntity
  8
1
  6
Continuous
 62
     4
100
AcDbLine
 10
14.5582150923853
 20
-415.816847735373
 30
0.0
 11
14.5582150923853
 21
-413.066847735373
 31
0.0
  0
LINE
  5
63
330
1F
100
AcDbEntity
  8
1
  6
Continuous
 62
     4
100
AcDbLine
 10
12.4332150923853
 20
-415.816847735373
 30
0.0
 11
14.5582150923853
 21
-415.816847735373
 31
0.0
  0
LINE
  5
64
330
1F
100
AcDbEntity
  8
1
  6
Continuous
 62
     4
100
AcDbLine
 10
12.0582150923853
 20
-415.691847735373
 30
0.0
 11
12.4332150923853
 21
-415.816847735373
 31
0.0
  0
LINE
  5
65
330
1F
100
AcDbEntity
  8
1
  6
Continuous
 62
     4
100
AcDbLine
 10
11.5582150923853
 20
-415.441847735373
 30
0.0
 11
12.0582150923853
 21
-415.691847735373
 31
0.0
  0
LINE
  5
66
330
1F
100
AcDbEntity
  8
1
  6
Continuous
 62
     4
100
AcDbLine
 10
11.3082150923853
 20
-415.191847735373
 30
0.0
 11
11.5582150923853
 21
-415.441847735373
 31
0.0
  0
LINE
  5
67
330
1F
100
AcDbEntity
  8
1
  6
Continuous
 62
     4
100
AcDbLine
 10
11.1832150923853
 20
-414.816847735373
 30
0.0
 11
11.3082150923853
 21
-415.191847735373
 31
0.0
  0
LINE
  5
68
330
1F
100
AcDbEntity
  8
1
  6
Continuous
 62
     4
100
AcDbLine
 10
11.0582150923853
 20
-414.316847735373
 30
0.0
 11
11.1832150923853
 21
-414.816847735373
 31
0.0
  0
LINE
  5
69
330
1F
100
AcDbEntity
  8
1
  6
Continuous
 62
     4
100
AcDbLine
 10
11.0582150923853
 20
-412.316847735373
 30
0.0
 11
11.0582150923853
 21
-414.316847735373
 31
0.0
  0
LINE
  5
6A
330
1F
100
AcDbEntity
  8
1
  6
Continuous
 62
     4
100
AcDbLine
 10
11.1832150923853
 20
-411.816847735373
 30
0.0
 11
11.0582150923853
 21
-412.316847735373
 31
0.0
  0
LINE
  5
6B
330
1F
100
AcDbEntity
  8
1
  6
Continuous
 62
     4
100
AcDbLine
 10
11.3082150923853
 20
-411.441847735373
 30
0.0
 11
11.1832150923853
 21
-411.816847735373
 31
0.0
  0
LINE
  5
6C
330
1F
100
AcDbEntity
  8
1
  6
Continuous
 62
     4
100
AcDbLine
 10
11.5582150923853
 20
-411.191847735373
 30
0.0
 11
11.3082150923853
 21
-411.441847735373
 31
0.0
  0
LINE
  5
6D
330
1F
100
AcDbEntity
  8
1
  6
Continuous
 62
     4
100
AcDbLine
 10
11.9332150923853
 20
-410.941847735373
 30
0.0
 11
11.5582150923853
 21
-411.191847735373
 31
0.0
  0
LINE
  5
6E
330
1F
100
AcDbEntity
  8
1
  6
Continuous
 62
     4
100
AcDbLine
 10
12.4332150923853
 20
-410.816847735373
 30
0.0
 11
11.9332150923853
 21
-410.941847735373
 31
0.0
  0
LINE
  5
6F
330
1F
100
AcDbEntity
  8
1
  6
Continuous
 62
     4
100
AcDbLine
 10
14.5582150923853
 20
-410.816847735373
 30
0.0
 11
12.4332150923853
 21
-410.816847735373
 31
0.0
  0
LINE
  5
70
330
1F
100
AcDbEntity
  8
1
  6
Continuous
 62
     4
100
AcDbLine
 10
338.134981545061
 20
-194.601042889121
 30
0.0
 11
336.259981545061
 21
-194.601042889121
 31
0.0
  0
LINE
  5
71
330
1F
100
AcDbEntity
  8
1
  6
Continuous
 62
     4
100
AcDbLine
 10
338.509981545061
 20
-194.476042889121
 30
0.0
 11
338.134981545061
 21
-194.601042889121
 31
0.0
  0
LINE
  5
72
330
1F
100
AcDbEntity
  8
1
  6
Continuous
 62
     4
100
AcDbLine
 10
338.884981545061
 20
-194.226042889121
 30
0.0
 11
338.509981545061
 21
-194.476042889121
 31
0.0
  0
LINE
  5
73
330
1F
100
AcDbEntity
  8
1
  6
Continuous
 62
     4
100
AcDbLine
 10
339.134981545061
 20
-193.851042889121
 30
0.0
 11
338.884981545061
 21
-194.226042889121
 31
0.0
  0
LINE
  5
74
330
1F
100
AcDbEntity
  8
1
  6
Continuous
 62
     4
100
AcDbLine
 10
339.259981545061
 20
-193.351042889121
 30
0.0
 11
339.134981545061
 21
-193.851042889121
 31
0.0
  0
LINE
  5
75
330
1F
100
AcDbEntity
  8
1
  6
Continuous
 62
     4
100
AcDbLine
 10
339.259981545061
 20
-192.601042889121
 30
0.0
 11
339.259981545061
 21
-193.351042889121
 31
0.0
  0
LINE
  5
76
330
1F
100
AcDbEntity
  8
1
  6
Continuous
 62
     4
100
AcDbLine
 10
339.134981545061
 20
-192.101042889121
 30
0.0
 11
339.259981545061
 21
-192.601042889121
 31
0.0
  0
LINE
  5
77
330
1F
100
AcDbEntity
  8
1
  6
Continuous
 62
     4
100
AcDbLine
 10
338.759981545061
 20
-191.726042889121
 30
0.0
 11
339.134981545061
 21
-192.101042889121
 31
0.0
  0
LINE
  5
78
330
1F
100
AcDbEntity
  8
1
  6
Continuous
 62
     4
100
AcDbLine
 10
338.134981545061
 20
-191.601042889121
 30
0.0
 11
338.759981545061
 21
-191.726042889121
 31
0.0
  0
LINE
  5
79
330
1F
100
AcDbEntity
  8
1
  6
Continuous
 62
     4
100
AcDbLine
 10
336.259981545061
 20
-191.601042889121
 30
0.0
 11
338.134981545061
 21
-191.601042889121
 31
0.0
  0
LINE
  5
7A
330
1F
100
AcDbEntity
  8
1
  6
Continuous
 62
     4
100
AcDbLine
 10
336.259981545061
 20
-189.601042889121
 30
0.0
 11
336.259981545061
 21
-191.601042889121
 31
0.0
  0
LINE
  5
7B
330
1F
100
AcDbEntity
  8
1
  6
Continuous
 62
     4
100
AcDbLine
 10
339.009981545061
 20
-189.601042889121
 30
0.0
 11
336.259981545061
 21
-189.601042889121
 31
0.0
  0
LINE
  5
7C
330
1F
100
AcDbEntity
  8
1
  6
Continuous
 62
     4
100
AcDbLine
 10
333.259981545061
 20
-194.101042889121
 30
0.0
 11
332.134981545061
 21
-194.601042889121
 31
0.0
  0
LINE
  5
7D
330
1F
100
AcDbEntity
  8
1
  6
Continuous
 62
     4
100
AcDbLine
 10
334.134981545061
 20
-193.351042889121
 30
0.0
 11
333.259981545061
 21
-194.101042889121
 31
0.0
  0
LINE
  5
7E
330
1F
100
AcDbEntity
  8
1
  6
Continuous
 62
     4
100
AcDbLine
 10
334.509981545061
 20
-192.851042889121
 30
0.0
 11
334.134981545061
 21
-193.351042889121
 31
0.0
  0
LINE
  5
7F
330
1F
100
AcDbEntity
  8
1
  6
Continuous
 62
     4
100
AcDbLine
 10
334.634981545061
 20
-192.351042889121
 30
0.0
 11
334.509981545061
 21
-192.851042889121
 31
0.0
  0
LINE
  5
80
330
1F
100
AcDbEntity
  8
1
  6
Continuous
 62
     4
100
AcDbLine
 10
334.759981545061
 20
-191.726042889121
 30
0.0
 11
334.634981545061
 21
-192.351042889121
 31
0.0
  0
LINE
  5
81
330
1F
100
AcDbEntity
  8
1
  6
Continuous
 62
     4
100
AcDbLine
 10
334.759981545061
 20
-190.851042889121
 30
0.0
 11
334.759981545061
 21
-191.726042889121
 31
0.0
  0
LINE
  5
82
330
1F
100
AcDbEntity
  8
1
  6
Continuous
 62
     4
100
AcDbLine
 10
334.634981545061
 20
-190.351042889121
 30
0.0
 11
334.759981545061
 21
-190.851042889121
 31
0.0
  0
LINE
  5
83
330
1F
100
AcDbEntity
  8
1
  6
Continuous
 62
     4
100
AcDbLine
 10
334.384981545061
 20
-189.976042889121
 30
0.0
 11
334.634981545061
 21
-190.351042889121
 31
0.0
  0
LINE
  5
84
330
1F
100
AcDbEntity
  8
1
  6
Continuous
 62
     4
100
AcDbLine
 10
334.009981545061
 20
-189.726042889121
 30
0.0
 11
334.384981545061
 21
-189.976042889121
 31
0.0
  0
LINE
  5
85
330
1F
100
AcDbEntity
  8
1
  6
Continuous
 62
     4
100
AcDbLine
 10
333.634981545061
 20
-189.601042889121
 30
0.0
 11
334.009981545061
 21
-189.726042889121
 31
0.0
  0
LINE
  5
86
330
1F
100
AcDbEntity
  8
1
  6
Continuous
 62
     4
100
AcDbLine
 10
332.884981545061
 20
-189.601042889121
 30
0.0
 11
333.634981545061
 21
-189.601042889121
 31
0.0
  0
LINE
  5
87
330
1F
100
AcDbEntity
  8
1
  6
Continuous
 62
     4
100
AcDbLine
 10
332.509981545061
 20
-189.726042889121
 30
0.0
 11
332.884981545061
 21
-189.601042889121
 31
0.0
  0
LINE
  5
88
330
1F
100
AcDbEntity
  8
1
  6
Continuous
 62
     4
100
AcDbLine
 10
332.134981545061
 20
-189.976042889121
 30
0.0
 11
332.509981545061
 21
-189.726042889121
 31
0.0
  0
LINE
  5
89
330
1F
100
AcDbEntity
  8
1
  6
Continuous
 62
     4
100
AcDbLine
 10
331.884981545061
 20
-190.351042889121
 30
0.0
 11
332.134981545061
 21
-189.976042889121
 31
0.0
  0
LINE
  5
8A
330
1F
100
AcDbEntity
  8
1
  6
Continuous
 62
     4
100
AcDbLine
 10
331.759981545061
 20
-190.851042889121
 30
0.0
 11
331.884981545061
 21
-190.351042889121
 31
0.0
  0
LINE
  5
8B
330
1F
100
AcDbEntity
  8
1
  6
Continuous
 62
     4
100
AcDbLine
 10
331.759981545061
 20
-191.101042889121
 30
0.0
 11
331.759981545061
 21
-190.851042889121
 31
0.0
  0
LINE
  5
8C
330
1F
100
AcDbEntity
  8
1
  6
Continuous
 62
     4
100
AcDbLine
 10
331.884981545061
 20
-191.601042889121
 30
0.0
 11
331.759981545061
 21
-191.101042889121
 31
0.0
  0
LINE
  5
8D
330
1F
100
AcDbEntity
  8
1
  6
Continuous
 62
     4
100
AcDbLine
 10
332.134981545061
 20
-191.976042889121
 30
0.0
 11
331.884981545061
 21
-191.601042889121
 31
0.0
  0
LINE
  5
8E
330
1F
100
AcDbEntity
  8
1
  6
Continuous
 62
     4
100
AcDbLine
 10
332.509981545061
 20
-192.226042889121
 30
0.0
 11
332.134981545061
 21
-191.976042889121
 31
0.0
  0
LINE
  5
8F
330
1F
100
AcDbEntity
  8
1
  6
Continuous
 62
     4
100
AcDbLine
 10
332.884981545061
 20
-192.351042889121
 30
0.0
 11
332.509981545061
 21
-192.226042889121
 31
0.0
  0
LINE
  5
90
330
1F
100
AcDbEntity
  8
1
  6
Continuous
 62
     4
100
AcDbLine
 10
334.634981545061
 20
-192.351042889121
 30
0.0
 11
332.884981545061
 21
-192.351042889121
 31
0.0
  0
LINE
  5
91
330
1F
100
AcDbEntity
  8
1
  6
Continuous
 62
     4
100
AcDbLine
 10
328.759981545061
 20
-194.101042889121
 30
0.0
 11
327.634981545061
 21
-194.601042889121
 31
0.0
  0
LINE
  5
92
330
1F
100
AcDbEntity
  8
1
  6
Continuous
 62
     4
100
AcDbLine
 10
329.634981545061
 20
-193.351042889121
 30
0.0
 11
328.759981545061
 21
-194.101042889121
 31
0.0
  0
LINE
  5
93
330
1F
100
AcDbEntity
  8
1
  6
Continuous
 62
     4
100
AcDbLine
 10
330.009981545061
 20
-192.851042889121
 30
0.0
 11
329.634981545061
 21
-193.351042889121
 31
0.0
  0
LINE
  5
94
330
1F
100
AcDbEntity
  8
1
  6
Continuous
 62
     4
100
AcDbLine
 10
330.134981545061
 20
-192.351042889121
 30
0.0
 11
330.009981545061
 21
-192.851042889121
 31
0.0
  0
LINE
  5
95
330
1F
100
AcDbEntity
  8
1
  6
Continuous
 62
     4
100
AcDbLine
 10
330.259981545061
 20
-191.726042889121
 30
0.0
 11
330.134981545061
 21
-192.351042889121
 31
0.0
  0
LINE
  5
96
330
1F
100
AcDbEntity
  8
1
  6
Continuous
 62
     4
100
AcDbLine
 10
330.259981545061
 20
-190.851042889121
 30
0.0
 11
330.259981545061
 21
-191.726042889121
 31
0.0
  0
LINE
  5
97
330
1F
100
AcDbEntity
  8
1
  6
Continuous
 62
     4
100
AcDbLine
 10
330.134981545061
 20
-190.351042889121
 30
0.0
 11
330.259981545061
 21
-190.851042889121
 31
0.0
  0
LINE
  5
98
330
1F
100
AcDbEntity
  8
1
  6
Continuous
 62
     4
100
AcDbLine
 10
329.884981545061
 20
-189.976042889121
 30
0.0
 11
330.134981545061
 21
-190.351042889121
 31
0.0
  0
LINE
  5
99
330
1F
100
AcDbEntity
  8
1
  6
Continuous
 62
     4
100
AcDbLine
 10
329.509981545061
 20
-189.726042889121
 30
0.0
 11
329.884981545061
 21
-189.976042889121
 31
0.0
  0
LINE
  5
9A
330
1F
100
AcDbEntity
  8
1
  6
Continuous
 62
     4
100
AcDbLine
 10
329.134981545061
 20
-189.601042889121
 30
0.0
 11
329.509981545061
 21
-189.726042889121
 31
0.0
  0
LINE
  5
9B
330
1F
100
AcDbEntity
  8
1
  6
Continuous
 62
     4
100
AcDbLine
 10
328.384981545061
 20
-189.601042889121
 30
0.0
 11
329.134981545061
 21
-189.601042889121
 31
0.0
  0
LINE
  5
9C
330
1F
100
AcDbEntity
  8
1
  6
Continuous
 62
     4
100
AcDbLine
 10
328.009981545061
 20
-189.726042889121
 30
0.0
 11
328.384981545061
 21
-189.601042889121
 31
0.0
  0
LINE
  5
9D
330
1F
100
AcDbEntity
  8
1
  6
Continuous
 62
     4
100
AcDbLine
 10
327.634981545061
 20
-189.976042889121
 30
0.0
 11
328.009981545061
 21
-189.726042889121
 31
0.0
  0
LINE
  5
9E
330
1F
100
AcDbEntity
  8
1
  6
Continuous
 62
     4
100
AcDbLine
 10
327.384981545061
 20
-190.351042889121
 30
0.0
 11
327.634981545061
 21
-189.976042889121
 31
0.0
  0
LINE
  5
9F
330
1F
100
AcDbEntity
  8
1
  6
Continuous
 62
     4
100
AcDbLine
 10
327.259981545061
 20
-190.851042889121
 30
0.0
 11
327.384981545061
 21
-190.351042889121
 31
0.0
  0
LINE
  5
A0
330
1F
100
AcDbEntity
  8
1
  6
Continuous
 62
     4
100
AcDbLine
 10
327.259981545061
 20
-191.101042889121
 30
0.0
 11
327.259981545061
 21
-190.851042889121
 31
0.0
  0
LINE
  5
A1
330
1F
100
AcDbEntity
  8
1
  6
Continuous
 62
     4
100
AcDbLine
 10
327.384981545061
 20
-191.601042889121
 30
0.0
 11
327.259981545061
 21
-191.101042889121
 31
0.0
  0
LINE
  5
A2
330
1F
100
AcDbEntity
  8
1
  6
Continuous
 62
     4
100
AcDbLine
 10
327.634981545061
 20
-191.976042889121
 30
0.0
 11
327.384981545061
 21
-191.601042889121
 31
0.0
  0
LINE
  5
A3
330
1F
100
AcDbEntity
  8
1
  6
Continuous
 62
     4
100
AcDbLine
 10
328.009981545061
 20
-192.226042889121
 30
0.0
 11
327.634981545061
 21
-191.976042889121
 31
0.0
  0
LINE
  5
A4
330
1F
100
AcDbEntity
  8
1
  6
Continuous
 62
     4
100
AcDbLine
 10
328.384981545061
 20
-192.351042889121
 30
0.0
 11
328.009981545061
 21
-192.226042889121
 31
0.0
  0
LINE
  5
A5
330
1F
100
AcDbEntity
  8
1
  6
Continuous
 62
     4
100
AcDbLine
 10
330.134981545061
 20
-192.351042889121
 30
0.0
 11
328.384981545061
 21
-192.351042889121
 31
0.0
  0
LINE
  5
A6
330
1F
100
AcDbEntity
  8
1
  6
Continuous
 62
     4
100
AcDbLine
 10
306.759981545061
 20
-191.476042889121
 30
0.0
 11
306.759981545061
 21
-192.726042889121
 31
0.0
  0
LINE
  5
A7
330
1F
100
AcDbEntity
  8
1
  6
Continuous
 62
     4
100
AcDbLine
 10
306.634981545061
 20
-190.726042889121
 30
0.0
 11
306.759981545061
 21
-191.476042889121
 31
0.0
  0
LINE
  5
A8
330
1F
100
AcDbEntity
  8
1
  6
Continuous
 62
     4
100
AcDbLine
 10
306.384981545061
 20
-190.226042889121
 30
0.0
 11
306.634981545061
 21
-190.726042889121
 31
0.0
  0
LINE
  5
A9
330
1F
100
AcDbEntity
  8
1
  6
Continuous
 62
     4
100
AcDbLine
 10
306.134981545061
 20
-189.976042889121
 30
0.0
 11
306.384981545061
 21
-190.226042889121
 31
0.0
  0
LINE
  5
AA
330
1F
100
AcDbEntity
  8
1
  6
Continuous
 62
     4
100
AcDbLine
 10
305.759981545061
 20
-189.726042889121
 30
0.0
 11
306.134981545061
 21
-189.976042889121
 31
0.0
  0
LINE
  5
AB
330
1F
100
AcDbEntity
  8
1
  6
Continuous
 62
     4
100
AcDbLine
 10
305.384981545061
 20
-189.601042889121
 30
0.0
 11
305.759981545061
 21
-189.726042889121
 31
0.0
  0
LINE
  5
AC
330
1F
100
AcDbEntity
  8
1
  6
Continuous
 62
     4
100
AcDbLine
 10
305.134981545061
 20
-189.601042889121
 30
0.0
 11
305.384981545061
 21
-189.601042889121
 31
0.0
  0
LINE
  5
AD
330
1F
100
AcDbEntity
  8
1
  6
Continuous
 62
     4
100
AcDbLine
 10
304.759981545061
 20
-189.726042889121
 30
0.0
 11
305.134981545061
 21
-189.601042889121
 31
0.0
  0
LINE
  5
AE
330
1F
100
AcDbEntity
  8
1
  6
Continuous
 62
     4
100
AcDbLine
 10
304.384981545061
 20
-189.976042889121
 30
0.0
 11
304.759981545061
 21
-189.726042889121
 31
0.0
  0
LINE
  5
AF
330
1F
100
AcDbEntity
  8
1
  6
Continuous
 62
     4
100
AcDbLine
 10
304.134981545061
 20
-190.226042889121
 30
0.0
 11
304.384981545061
 21
-189.976042889121
 31
0.0
  0
LINE
  5
B0
330
1F
100
AcDbEntity
  8
1
  6
Continuous
 62
     4
100
AcDbLine
 10
303.884981545061
 20
-190.726042889121
 30
0.0
 11
304.134981545061
 21
-190.226042889121
 31
0.0
  0
LINE
  5
B1
330
1F
100
AcDbEntity
  8
1
  6
Continuous
 62
     4
100
AcDbLine
 10
303.759981545061
 20
-191.476042889121
 30
0.0
 11
303.884981545061
 21
-190.726042889121
 31
0.0
  0
LINE
  5
B2
330
1F
100
AcDbEntity
  8
1
  6
Continuous
 62
     4
100
AcDbLine
 10
303.759981545061
 20
-192.726042889121
 30
0.0
 11
303.759981545061
 21
-191.476042889121
 31
0.0
  0
LINE
  5
B3
330
1F
100
AcDbEntity
  8
1
  6
Continuous
 62
     4
100
AcDbLine
 10
303.884981545061
 20
-193.476042889121
 30
0.0
 11
303.759981545061
 21
-192.726042889121
 31
0.0
  0
LINE
  5
B4
330
1F
100
AcDbEntity
  8
1
  6
Continuous
 62
     4
100
AcDbLine
 10
304.134981545061
 20
-193.976042889121
 30
0.0
 11
303.884981545061
 21
-193.476042889121
 31
0.0
  0
LINE
  5
B5
330
1F
100
AcDbEntity
  8
1
  6
Continuous
 62
     4
100
AcDbLine
 10
304.384981545061
 20
-194.226042889121
 30
0.0
 11
304.134981545061
 21
-193.976042889121
 31
0.0
  0
LINE
  5
B6
330
1F
100
AcDbEntity
  8
1
  6
Continuous
 62
     4
100
AcDbLine
 10
304.759981545061
 20
-194.476042889121
 30
0.0
 11
304.384981545061
 21
-194.226042889121
 31
0.0
  0
LINE
  5
B7
330
1F
100
AcDbEntity
  8
1
  6
Continuous
 62
     4
100
AcDbLine
 10
305.134981545061
 20
-194.601042889121
 30
0.0
 11
304.759981545061
 21
-194.476042889121
 31
0.0
  0
LINE
  5
B8
330
1F
100
AcDbEntity
  8
1
  6
Continuous
 62
     4
100
AcDbLine
 10
305.384981545061
 20
-194.601042889121
 30
0.0
 11
305.134981545061
 21
-194.601042889121
 31
0.0
  0
LINE
  5
B9
330
1F
100
AcDbEntity
  8
1
  6
Continuous
 62
     4
100
AcDbLine
 10
305.759981545061
 20
-194.476042889121
 30
0.0
 11
305.384981545061
 21
-194.601042889121
 31
0.0
  0
LINE
  5
BA
330
1F
100
AcDbEntity
  8
1
  6
Continuous
 62
     4
100
AcDbLine
 10
306.134981545061
 20
-194.226042889121
 30
0.0
 11
305.759981545061
 21
-194.476042889121
 31
0.0
  0
LINE
  5
BB
330
1F
100
AcDbEntity
  8
1
  6
Continuous
 62
     4
100
AcDbLine
 10
306.384981545061
 20
-193.976042889121
 30
0.0
 11
306.134981545061
 21
-194.226042889121
 31
0.0
  0
LINE
  5
BC
330
1F
100
AcDbEntity
  8
1
  6
Continuous
 62
     4
100
AcDbLine
 10
306.634981545061
 20
-193.476042889121
 30
0.0
 11
306.384981545061
 21
-193.976042889121
 31
0.0
  0
LINE
  5
BD
330
1F
100
AcDbEntity
  8
1
  6
Continuous
 62
     4
100
AcDbLine
 10
306.759981545061
 20
-192.726042889121
 30
0.0
 11
306.634981545061
 21
-193.476042889121
 31
0.0
  0
LINE
  5
BE
330
1F
100
AcDbEntity
  8
1
  6
Continuous
 62
     4
100
AcDbLine
 10
302.384981545061
 20
-194.351042889121
 30
0.0
 11
302.384981545061
 21
-194.476042889121
 31
0.0
  0
LINE
  5
BF
330
1F
100
AcDbEntity
  8
1
  6
Continuous
 62
     4
100
AcDbLine
 10
302.259981545061
 20
-194.351042889121
 30
0.0
 11
302.384981545061
 21
-194.351042889121
 31
0.0
  0
LINE
  5
C0
330
1F
100
AcDbEntity
  8
1
  6
Continuous
 62
     4
100
AcDbLine
 10
302.259981545061
 20
-194.476042889121
 30
0.0
 11
302.259981545061
 21
-194.351042889121
 31
0.0
  0
LINE
  5
C1
330
1F
100
AcDbEntity
  8
1
  6
Continuous
 62
     4
100
AcDbLine
 10
302.384981545061
 20
-194.476042889121
 30
0.0
 11
302.259981545061
 21
-194.476042889121
 31
0.0
  0
LINE
  5
C2
330
1F
100
AcDbEntity
  8
1
  6
Continuous
 62
     4
100
AcDbLine
 10
302.509981545061
 20
-194.226042889121
 30
0.0
 11
302.509981545061
 21
-194.601042889121
 31
0.0
  0
LINE
  5
C3
330
1F
100
AcDbEntity
  8
1
  6
Continuous
 62
     4
100
AcDbLine
 10
302.134981545061
 20
-194.226042889121
 30
0.0
 11
302.509981545061
 21
-194.226042889121
 31
0.0
  0
LINE
  5
C4
330
1F
100
AcDbEntity
  8
1
  6
Continuous
 62
     4
100
AcDbLine
 10
302.134981545061
 20
-194.601042889121
 30
0.0
 11
302.134981545061
 21
-194.226042889121
 31
0.0
  0
LINE
  5
C5
330
1F
100
AcDbEntity
  8
1
  6
Continuous
 62
     4
100
AcDbLine
 10
302.509981545061
 20
-194.601042889121
 30
0.0
 11
302.134981545061
 21
-194.601042889121
 31
0.0
  0
LINE
  5
C6
330
1F
100
AcDbEntity
  8
1
  6
Continuous
 62
     4
100
AcDbLine
 10
300.634981545061
 20
-189.601042889121
 30
0.0
 11
300.634981545061
 21
-194.601042889121
 31
0.0
  0
LINE
  5
C7
330
1F
100
AcDbEntity
  8
1
  6
Continuous
 62
     4
100
AcDbLine
 10
299.134981545061
 20
-191.101042889121
 30
0.0
 11
300.634981545061
 21
-189.601042889121
 31
0.0
  0
LINE
  5
C8
330
1F
100
AcDbEntity
  8
1
  6
Continuous
 62
     4
100
AcDbLine
 10
335.634981545061
 20
-186.271042889121
 30
0.0
 11
333.759981545061
 21
-186.271042889121
 31
0.0
  0
LINE
  5
C9
330
1F
100
AcDbEntity
  8
1
  6
Continuous
 62
     4
100
AcDbLine
 10
336.009981545061
 20
-186.146042889121
 30
0.0
 11
335.634981545061
 21
-186.271042889121
 31
0.0
  0
LINE
  5
CA
330
1F
100
AcDbEntity
  8
1
  6
Continuous
 62
     4
100
AcDbLine
 10
336.384981545061
 20
-185.896042889121
 30
0.0
 11
336.009981545061
 21
-186.146042889121
 31
0.0
  0
LINE
  5
CB
330
1F
100
AcDbEntity
  8
1
  6
Continuous
 62
     4
100
AcDbLine
 10
336.634981545061
 20
-185.521042889121
 30
0.0
 11
336.384981545061
 21
-185.896042889121
 31
0.0
  0
LINE
  5
CC
330
1F
100
AcDbEntity
  8
1
  6
Continuous
 62
     4
100
AcDbLine
 10
336.759981545061
 20
-185.021042889121
 30
0.0
 11
336.634981545061
 21
-185.521042889121
 31
0.0
  0
LINE
  5
CD
330
1F
100
AcDbEntity
  8
1
  6
Continuous
 62
     4
100
AcDbLine
 10
336.759981545061
 20
-184.271042889121
 30
0.0
 11
336.759981545061
 21
-185.021042889121
 31
0.0
  0
LINE
  5
CE
330
1F
100
AcDbEntity
  8
1
  6
Continuous
 62
     4
100
AcDbLine
 10
336.634981545061
 20
-183.771042889121
 30
0.0
 11
336.759981545061
 21
-184.271042889121
 31
0.0
  0
LINE
  5
CF
330
1F
100
AcDbEntity
  8
1
  6
Continuous
 62
     4
100
AcDbLine
 10
336.259981545061
 20
-183.396042889121
 30
0.0
 11
336.634981545061
 21
-183.771042889121
 31
0.0
  0
LINE
  5
D0
330
1F
100
AcDbEntity
  8
1
  6
Continuous
 62
     4
100
AcDbLine
 10
335.634981545061
 20
-183.271042889121
 30
0.0
 11
336.259981545061
 21
-183.396042889121
 31
0.0
  0
LINE
  5
D1
330
1F
100
AcDbEntity
  8
1
  6
Continuous
 62
     4
100
AcDbLine
 10
333.759981545061
 20
-183.271042889121
 30
0.0
 11
335.634981545061
 21
-183.271042889121
 31
0.0
  0
LINE
  5
D2
330
1F
100
AcDbEntity
  8
1
  6
Continuous
 62
     4
100
AcDbLine
 10
333.759981545061
 20
-181.271042889121
 30
0.0
 11
333.759981545061
 21
-183.271042889121
 31
0.0
  0
LINE
  5
D3
330
1F
100
AcDbEntity
  8
1
  6
Continuous
 62
     4
100
AcDbLine
 10
336.509981545061
 20
-181.271042889121
 30
0.0
 11
333.759981545061
 21
-181.271042889121
 31
0.0
  0
LINE
  5
D4
330
1F
100
AcDbEntity
  8
1
  6
Continuous
 62
     4
100
AcDbLine
 10
330.759981545061
 20
-185.771042889121
 30
0.0
 11
329.634981545061
 21
-186.271042889121
 31
0.0
  0
LINE
  5
D5
330
1F
100
AcDbEntity
  8
1
  6
Continuous
 62
     4
100
AcDbLine
 10
331.634981545061
 20
-185.021042889121
 30
0.0
 11
330.759981545061
 21
-185.771042889121
 31
0.0
  0
LINE
  5
D6
330
1F
100
AcDbEntity
  8
1
  6
Continuous
 62
     4
100
AcDbLine
 10
332.009981545061
 20
-184.521042889121
 30
0.0
 11
331.634981545061
 21
-185.021042889121
 31
0.0
  0
LINE
  5
D7
330
1F
100
AcDbEntity
  8
1
  6
Continuous
 62
     4
100
AcDbLine
 10
332.134981545061
 20
-184.021042889121
 30
0.0
 11
332.009981545061
 21
-184.521042889121
 31
0.0
  0
LINE
  5
D8
330
1F
100
AcDbEntity
  8
1
  6
Continuous
 62
     4
100
AcDbLine
 10
332.259981545061
 20
-183.396042889121
 30
0.0
 11
332.134981545061
 21
-184.021042889121
 31
0.0
  0
LINE
  5
D9
330
1F
100
AcDbEntity
  8
1
  6
Continuous
 62
     4
100
AcDbLine
 10
332.259981545061
 20
-182.521042889121
 30
0.0
 11
332.259981545061
 21
-183.396042889121
 31
0.0
  0
LINE
  5
DA
330
1F
100
AcDbEntity
  8
1
  6
Continuous
 62
     4
100
AcDbLine
 10
332.134981545061
 20
-182.021042889121
 30
0.0
 11
332.259981545061
 21
-182.521042889121
 31
0.0
  0
LINE
  5
DB
330
1F
100
AcDbEntity
  8
1
  6
Continuous
 62
     4
100
AcDbLine
 10
331.884981545061
 20
-181.646042889121
 30
0.0
 11
332.134981545061
 21
-182.021042889121
 31
0.0
  0
LINE
  5
DC
330
1F
100
AcDbEntity
  8
1
  6
Continuous
 62
     4
100
AcDbLine
 10
331.509981545061
 20
-181.396042889121
 30
0.0
 11
331.884981545061
 21
-181.646042889121
 31
0.0
  0
LINE
  5
DD
330
1F
100
AcDbEntity
  8
1
  6
Continuous
 62
     4
100
AcDbLine
 10
331.134981545061
 20
-181.271042889121
 30
0.0
 11
331.509981545061
 21
-181.396042889121
 31
0.0
  0
LINE
  5
DE
330
1F
100
AcDbEntity
  8
1
  6
Continuous
 62
     4
100
AcDbLine
 10
330.384981545061
 20
-181.271042889121
 30
0.0
 11
331.134981545061
 21
-181.271042889121
 31
0.0
  0
LINE
  5
DF
330
1F
100
AcDbEntity
  8
1
  6
Continuous
 62
     4
100
AcDbLine
 10
330.009981545061
 20
-181.396042889121
 30
0.0
 11
330.384981545061
 21
-181.271042889121
 31
0.0
  0
LINE
  5
E0
330
1F
100
AcDbEntity
  8
1
  6
Continuous
 62
     4
100
AcDbLine
 10
329.634981545061
 20
-181.646042889121
 30
0.0
 11
330.009981545061
 21
-181.396042889121
 31
0.0
  0
LINE
  5
E1
330
1F
100
AcDbEntity
  8
1
  6
Continuous
 62
     4
100
AcDbLine
 10
329.384981545061
 20
-182.021042889121
 30
0.0
 11
329.634981545061
 21
-181.646042889121
 31
0.0
  0
LINE
  5
E2
330
1F
100
AcDbEntity
  8
1
  6
Continuous
 62
     4
100
AcDbLine
 10
329.259981545061
 20
-182.521042889121
 30
0.0
 11
329.384981545061
 21
-182.021042889121
 31
0.0
  0
LINE
  5
E3
330
1F
100
AcDbEntity
  8
1
  6
Continuous
 62
     4
100
AcDbLine
 10
329.259981545061
 20
-182.771042889121
 30
0.0
 11
329.259981545061
 21
-182.521042889121
 31
0.0
  0
LINE
  5
E4
330
1F
100
AcDbEntity
  8
1
  6
Continuous
 62
     4
100
AcDbLine
 10
329.384981545061
 20
-183.271042889121
 30
0.0
 11
329.259981545061
 21
-182.771042889121
 31
0.0
  0
LINE
  5
E5
330
1F
100
AcDbEntity
  8
1
  6
Continuous
 62
     4
100
AcDbLine
 10
329.634981545061
 20
-183.646042889121
 30
0.0
 11
329.384981545061
 21
-183.271042889121
 31
0.0
  0
LINE
  5
E6
330
1F
100
AcDbEntity
  8
1
  6
Continuous
 62
     4
100
AcDbLine
 10
330.009981545061
 20
-183.896042889121
 30
0.0
 11
329.634981545061
 21
-183.646042889121
 31
0.0
  0
LINE
  5
E7
330
1F
100
AcDbEntity
  8
1
  6
Continuous
 62
     4
100
AcDbLine
 10
330.384981545061
 20
-184.021042889121
 30
0.0
 11
330.009981545061
 21
-183.896042889121
 31
0.0
  0
LINE
  5
E8
330
1F
100
AcDbEntity
  8
1
  6
Continuous
 62
     4
100
AcDbLine
 10
332.134981545061
 20
-184.021042889121
 30
0.0
 11
330.384981545061
 21
-184.021042889121
 31
0.0
  0
LINE
  5
E9
330
1F
100
AcDbEntity
  8
1
  6
Continuous
 62
     4
100
AcDbLine
 10
327.759981545061
 20
-181.271042889121
 30
0.0
 11
325.259981545061
 21
-186.271042889121
 31
0.0
  0
LINE
  5
EA
330
1F
100
AcDbEntity
  8
1
  6
Continuous
 62
     4
100
AcDbLine
 10
324.759981545061
 20
-181.271042889121
 30
0.0
 11
327.759981545061
 21
-181.271042889121
 31
0.0
  0
LINE
  5
EB
330
1F
100
AcDbEntity
  8
1
  6
Continuous
 62
     4
100
AcDbLine
 10
324.759981545061
 20
-181.771042889121
 30
0.0
 11
324.759981545061
 21
-181.271042889121
 31
0.0
  0
LINE
  5
EC
330
1F
100
AcDbEntity
  8
1
  6
Continuous
 62
     4
100
AcDbLine
 10
305.759981545061
 20
-181.646042889121
 30
0.0
 11
306.134981545061
 21
-181.396042889121
 31
0.0
  0
LINE
  5
ED
330
1F
100
AcDbEntity
  8
1
  6
Continuous
 62
     4
100
AcDbLine
 10
305.509981545061
 20
-182.021042889121
 30
0.0
 11
305.759981545061
 21
-181.646042889121
 31
0.0
  0
LINE
  5
EE
330
1F
100
AcDbEntity
  8
1
  6
Continuous
 62
     4
100
AcDbLine
 10
305.509981545061
 20
-182.521042889121
 30
0.0
 11
305.509981545061
 21
-182.021042889121
 31
0.0
  0
LINE
  5
EF
330
1F
100
AcDbEntity
  8
1
  6
Continuous
 62
     4
100
AcDbLine
 10
305.759981545061
 20
-182.896042889121
 30
0.0
 11
305.509981545061
 21
-182.521042889121
 31
0.0
  0
LINE
  5
F0
330
1F
100
AcDbEntity
  8
1
  6
Continuous
 62
     4
100
AcDbLine
 10
306.134981545061
 20
-183.146042889121
 30
0.0
 11
305.759981545061
 21
-182.896042889121
 31
0.0
  0
LINE
  5
F1
330
1F
100
AcDbEntity
  8
1
  6
Continuous
 62
     4
100
AcDbLine
 10
306.509981545061
 20
-183.271042889121
 30
0.0
 11
306.134981545061
 21
-183.146042889121
 31
0.0
  0
LINE
  5
F2
330
1F
100
AcDbEntity
  8
1
  6
Continuous
 62
     4
100
AcDbLine
 10
307.009981545061
 20
-183.271042889121
 30
0.0
 11
306.509981545061
 21
-183.271042889121
 31
0.0
  0
LINE
  5
F3
330
1F
100
AcDbEntity
  8
1
  6
Continuous
 62
     4
100
AcDbLine
 10
307.384981545061
 20
-183.146042889121
 30
0.0
 11
307.009981545061
 21
-183.271042889121
 31
0.0
  0
LINE
  5
F4
330
1F
100
AcDbEntity
  8
1
  6
Continuous
 62
     4
100
AcDbLine
 10
307.759981545061
 20
-182.896042889121
 30
0.0
 11
307.384981545061
 21
-183.146042889121
 31
0.0
  0
LINE
  5
F5
330
1F
100
AcDbEntity
  8
1
  6
Continuous
 62
     4
100
AcDbLine
 10
308.009981545061
 20
-182.521042889121
 30
0.0
 11
307.759981545061
 21
-182.896042889121
 31
0.0
  0
LINE
  5
F6
330
1F
100
AcDbEntity
  8
1
  6
Continuous
 62
     4
100
AcDbLine
 10
308.009981545061
 20
-182.021042889121
 30
0.0
 11
308.009981545061
 21
-182.521042889121
 31
0.0
  0
LINE
  5
F7
330
1F
100
AcDbEntity
  8
1
  6
Continuous
 62
     4
100
AcDbLine
 10
307.759981545061
 20
-181.646042889121
 30
0.0
 11
308.009981545061
 21
-182.021042889121
 31
0.0
  0
LINE
  5
F8
330
1F
100
AcDbEntity
  8
1
  6
Continuous
 62
     4
100
AcDbLine
 10
307.384981545061
 20
-181.396042889121
 30
0.0
 11
307.759981545061
 21
-181.646042889121
 31
0.0
  0
LINE
  5
F9
330
1F
100
AcDbEntity
  8
1
  6
Continuous
 62
     4
100
AcDbLine
 10
307.009981545061
 20
-181.271042889121
 30
0.0
 11
307.384981545061
 21
-181.396042889121
 31
0.0
  0
LINE
  5
FA
330
1F
100
AcDbEntity
  8
1
  6
Continuous
 62
     4
100
AcDbLine
 10
306.509981545061
 20
-181.271042889121
 30
0.0
 11
307.009981545061
 21
-181.271042889121
 31
0.0
  0
LINE
  5
FB
330
1F
100
AcDbEntity
  8
1
  6
Continuous
 62
     4
100
AcDbLine
 10
306.134981545061
 20
-181.396042889121
 30
0.0
 11
306.509981545061
 21
-181.271042889121
 31
0.0
  0
LINE
  5
FC
330
1F
100
AcDbEntity
  8
1
  6
Continuous
 62
     4
100
AcDbLine
 10
307.634981545061
 20
-183.521042889121
 30
0.0
 11
307.009981545061
 21
-183.271042889121
 31
0.0
  0
LINE
  5
FD
330
1F
100
AcDbEntity
  8
1
  6
Continuous
 62
     4
100
AcDbLine
 10
308.009981545061
 20
-183.896042889121
 30
0.0
 11
307.634981545061
 21
-183.521042889121
 31
0.0
  0
LINE
  5
FE
330
1F
100
AcDbEntity
  8
1
  6
Continuous
 62
     4
100
AcDbLine
 10
308.259981545061
 20
-184.396042889121
 30
0.0
 11
308.009981545061
 21
-183.896042889121
 31
0.0
  0
LINE
  5
FF
330
1F
100
AcDbEntity
  8
1
  6
Continuous
 62
     4
100
AcDbLine
 10
308.259981545061
 20
-185.146042889121
 30
0.0
 11
308.259981545061
 21
-184.396042889121
 31
0.0
  0
LINE
  5
100
330
1F
100
AcDbEntity
  8
1
  6
Continuous
 62
     4
100
AcDbLine
 10
308.009981545061
 20
-185.646042889121
 30
0.0
 11
308.259981545061
 21
-185.146042889121
 31
0.0
  0
LINE
  5
101
330
1F
100
AcDbEntity
  8
1
  6
Continuous
 62
     4
100
AcDbLine
 10
307.634981545061
 20
-186.021042889121
 30
0.0
 11
308.009981545061
 21
-185.646042889121
 31
0.0
  0
LINE
  5
102
330
1F
100
AcDbEntity
  8
1
  6
Continuous
 62
     4
100
AcDbLine
 10
307.134981545061
 20
-186.271042889121
 30
0.0
 11
307.634981545061
 21
-186.021042889121
 31
0.0
  0
LINE
  5
103
330
1F
100
AcDbEntity
  8
1
  6
Continuous
 62
     4
100
AcDbLine
 10
306.384981545061
 20
-186.271042889121
 30
0.0
 11
307.134981545061
 21
-186.271042889121
 31
0.0
  0
LINE
  5
104
330
1F
100
AcDbEntity
  8
1
  6
Continuous
 62
     4
100
AcDbLine
 10
305.884981545061
 20
-186.021042889121
 30
0.0
 11
306.384981545061
 21
-186.271042889121
 31
0.0
  0
LINE
  5
105
330
1F
100
AcDbEntity
  8
1
  6
Continuous
 62
     4
100
AcDbLine
 10
305.509981545061
 20
-185.646042889121
 30
0.0
 11
305.884981545061
 21
-186.021042889121
 31
0.0
  0
LINE
  5
106
330
1F
100
AcDbEntity
  8
1
  6
Continuous
 62
     4
100
AcDbLine
 10
305.259981545061
 20
-185.146042889121
 30
0.0
 11
305.509981545061
 21
-185.646042889121
 31
0.0
  0
LINE
  5
107
330
1F
100
AcDbEntity
  8
1
  6
Continuous
 62
     4
100
AcDbLine
 10
305.259981545061
 20
-184.396042889121
 30
0.0
 11
305.259981545061
 21
-185.146042889121
 31
0.0
  0
LINE
  5
108
330
1F
100
AcDbEntity
  8
1
  6
Continuous
 62
     4
100
AcDbLine
 10
305.509981545061
 20
-183.896042889121
 30
0.0
 11
305.259981545061
 21
-184.396042889121
 31
0.0
  0
LINE
  5
109
330
1F
100
AcDbEntity
  8
1
  6
Continuous
 62
     4
100
AcDbLine
 10
305.884981545061
 20
-183.521042889121
 30
0.0
 11
305.509981545061
 21
-183.896042889121
 31
0.0
  0
LINE
  5
10A
330
1F
100
AcDbEntity
  8
1
  6
Continuous
 62
     4
100
AcDbLine
 10
306.509981545061
 20
-183.271042889121
 30
0.0
 11
305.884981545061
 21
-183.521042889121
 31
0.0
  0
LINE
  5
10B
330
1F
100
AcDbEntity
  8
1
  6
Continuous
 62
     4
100
AcDbLine
 10
303.884981545061
 20
-186.021042889121
 30
0.0
 11
303.884981545061
 21
-186.146042889121
 31
0.0
  0
LINE
  5
10C
330
1F
100
AcDbEntity
  8
1
  6
Continuous
 62
     4
100
AcDbLine
 10
303.759981545061
 20
-186.021042889121
 30
0.0
 11
303.884981545061
 21
-186.021042889121
 31
0.0
  0
LINE
  5
10D
330
1F
100
AcDbEntity
  8
1
  6
Continuous
 62
     4
100
AcDbLine
 10
303.759981545061
 20
-186.146042889121
 30
0.0
 11
303.759981545061
 21
-186.021042889121
 31
0.0
  0
LINE
  5
10E
330
1F
100
AcDbEntity
  8
1
  6
Continuous
 62
     4
100
AcDbLine
 10
303.884981545061
 20
-186.146042889121
 30
0.0
 11
303.759981545061
 21
-186.146042889121
 31
0.0
  0
LINE
  5
10F
330
1F
100
AcDbEntity
  8
1
  6
Continuous
 62
     4
100
AcDbLine
 10
304.009981545061
 20
-185.896042889121
 30
0.0
 11
304.009981545061
 21
-186.271042889121
 31
0.0
  0
LINE
  5
110
330
1F
100
AcDbEntity
  8
1
  6
Continuous
 62
     4
100
AcDbLine
 10
303.634981545061
 20
-185.896042889121
 30
0.0
 11
304.009981545061
 21
-185.896042889121
 31
0.0
  0
LINE
  5
111
330
1F
100
AcDbEntity
  8
1
  6
Continuous
 62
     4
100
AcDbLine
 10
303.634981545061
 20
-186.271042889121
 30
0.0
 11
303.634981545061
 21
-185.896042889121
 31
0.0
  0
LINE
  5
112
330
1F
100
AcDbEntity
  8
1
  6
Continuous
 62
     4
100
AcDbLine
 10
304.009981545061
 20
-186.271042889121
 30
0.0
 11
303.634981545061
 21
-186.271042889121
 31
0.0
  0
LINE
  5
113
330
1F
100
AcDbEntity
  8
1
  6
Continuous
 62
     4
100
AcDbLine
 10
302.134981545061
 20
-183.146042889121
 30
0.0
 11
302.134981545061
 21
-184.396042889121
 31
0.0
  0
LINE
  5
114
330
1F
100
AcDbEntity
  8
1
  6
Continuous
 62
     4
100
AcDbLine
 10
302.009981545061
 20
-182.396042889121
 30
0.0
 11
302.134981545061
 21
-183.146042889121
 31
0.0
  0
LINE
  5
115
330
1F
100
AcDbEntity
  8
1
  6
Continuous
 62
     4
100
AcDbLine
 10
301.759981545061
 20
-181.896042889121
 30
0.0
 11
302.009981545061
 21
-182.396042889121
 31
0.0
  0
LINE
  5
116
330
1F
100
AcDbEntity
  8
1
  6
Continuous
 62
     4
100
AcDbLine
 10
301.509981545061
 20
-181.646042889121
 30
0.0
 11
301.759981545061
 21
-181.896042889121
 31
0.0
  0
LINE
  5
117
330
1F
100
AcDbEntity
  8
1
  6
Continuous
 62
     4
100
AcDbLine
 10
301.134981545061
 20
-181.396042889121
 30
0.0
 11
301.509981545061
 21
-181.646042889121
 31
0.0
  0
LINE
  5
118
330
1F
100
AcDbEntity
  8
1
  6
Continuous
 62
     4
100
AcDbLine
 10
300.759981545061
 20
-181.271042889121
 30
0.0
 11
301.134981545061
 21
-181.396042889121
 31
0.0
  0
LINE
  5
119
330
1F
100
AcDbEntity
  8
1
  6
Continuous
 62
     4
100
AcDbLine
 10
300.509981545061
 20
-181.271042889121
 30
0.0
 11
300.759981545061
 21
-181.271042889121
 31
0.0
  0
LINE
  5
11A
330
1F
100
AcDbEntity
  8
1
  6
Continuous
 62
     4
100
AcDbLine
 10
300.134981545061
 20
-181.396042889121
 30
0.0
 11
300.509981545061
 21
-181.271042889121
 31
0.0
  0
LINE
  5
11B
330
1F
100
AcDbEntity
  8
1
  6
Continuous
 62
     4
100
AcDbLine
 10
299.759981545061
 20
-181.646042889121
 30
0.0
 11
300.134981545061
 21
-181.396042889121
 31
0.0
  0
LINE
  5
11C
330
1F
100
AcDbEntity
  8
1
  6
Continuous
 62
     4
100
AcDbLine
 10
299.509981545061
 20
-181.896042889121
 30
0.0
 11
299.759981545061
 21
-181.646042889121
 31
0.0
  0
LINE
  5
11D
330
1F
100
AcDbEntity
  8
1
  6
Continuous
 62
     4
100
AcDbLine
 10
299.259981545061
 20
-182.396042889121
 30
0.0
 11
299.509981545061
 21
-181.896042889121
 31
0.0
  0
LINE
  5
11E
330
1F
100
AcDbEntity
  8
1
  6
Continuous
 62
     4
100
AcDbLine
 10
299.134981545061
 20
-183.146042889121
 30
0.0
 11
299.259981545061
 21
-182.396042889121
 31
0.0
  0
LINE
  5
11F
330
1F
100
AcDbEntity
  8
1
  6
Continuous
 62
     4
100
AcDbLine
 10
299.134981545061
 20
-184.396042889121
 30
0.0
 11
299.134981545061
 21
-183.146042889121
 31
0.0
  0
LINE
  5
120
330
1F
100
AcDbEntity
  8
1
  6
Continuous
 62
     4
100
AcDbLine
 10
299.259981545061
 20
-185.146042889121
 30
0.0
 11
299.134981545061
 21
-184.396042889121
 31
0.0
  0
LINE
  5
121
330
1F
100
AcDbEntity
  8
1
  6
Continuous
 62
     4
100
AcDbLine
 10
299.509981545061
 20
-185.646042889121
 30
0.0
 11
299.259981545061
 21
-185.146042889121
 31
0.0
  0
LINE
  5
122
330
1F
100
AcDbEntity
  8
1
  6
Continuous
 62
     4
100
AcDbLine
 10
299.759981545061
 20
-185.896042889121
 30
0.0
 11
299.509981545061
 21
-185.646042889121
 31
0.0
  0
LINE
  5
123
330
1F
100
AcDbEntity
  8
1
  6
Continuous
 62
     4
100
AcDbLine
 10
300.134981545061
 20
-186.146042889121
 30
0.0
 11
299.759981545061
 21
-185.896042889121
 31
0.0
  0
LINE
  5
124
330
1F
100
AcDbEntity
  8
1
  6
Continuous
 62
     4
100
AcDbLine
 10
300.509981545061
 20
-186.271042889121
 30
0.0
 11
300.134981545061
 21
-186.146042889121
 31
0.0
  0
LINE
  5
125
330
1F
100
AcDbEntity
  8
1
  6
Continuous
 62
     4
100
AcDbLine
 10
300.759981545061
 20
-186.271042889121
 30
0.0
 11
300.509981545061
 21
-186.271042889121
 31
0.0
  0
LINE
  5
126
330
1F
100
AcDbEntity
  8
1
  6
Continuous
 62
     4
100
AcDbLine
 10
301.134981545061
 20
-186.146042889121
 30
0.0
 11
300.759981545061
 21
-186.271042889121
 31
0.0
  0
LINE
  5
127
330
1F
100
AcDbEntity
  8
1
  6
Continuous
 62
     4
100
AcDbLine
 10
301.509981545061
 20
-185.896042889121
 30
0.0
 11
301.134981545061
 21
-186.146042889121
 31
0.0
  0
LINE
  5
128
330
1F
100
AcDbEntity
  8
1
  6
Continuous
 62
     4
100
AcDbLine
 10
301.759981545061
 20
-185.646042889121
 30
0.0
 11
301.509981545061
 21
-185.896042889121
 31
0.0
  0
LINE
  5
129
330
1F
100
AcDbEntity
  8
1
  6
Continuous
 62
     4
100
AcDbLine
 10
302.009981545061
 20
-185.146042889121
 30
0.0
 11
301.759981545061
 21
-185.646042889121
 31
0.0
  0
LINE
  5
12A
330
1F
100
AcDbEntity
  8
1
  6
Continuous
 62
     4
100
AcDbLine
 10
302.134981545061
 20
-184.396042889121
 30
0.0
 11
302.009981545061
 21
-185.146042889121
 31
0.0
  0
LINE
  5
12B
330
1F
100
AcDbEntity
  8
1
  6
Continuous
 62
     4
100
AcDbLine
 10
335.634981545061
 20
-177.941042889121
 30
0.0
 11
333.759981545061
 21
-177.941042889121
 31
0.0
  0
LINE
  5
12C
330
1F
100
AcDbEntity
  8
1
  6
Continuous
 62
     4
100
AcDbLine
 10
336.009981545061
 20
-177.816042889121
 30
0.0
 11
335.634981545061
 21
-177.941042889121
 31
0.0
  0
LINE
  5
12D
330
1F
100
AcDbEntity
  8
1
  6
Continuous
 62
     4
100
AcDbLine
 10
336.384981545061
 20
-177.566042889121
 30
0.0
 11
336.009981545061
 21
-177.816042889121
 31
0.0
  0
LINE
  5
12E
330
1F
100
AcDbEntity
  8
1
  6
Continuous
 62
     4
100
AcDbLine
 10
336.634981545061
 20
-177.191042889121
 30
0.0
 11
336.384981545061
 21
-177.566042889121
 31
0.0
  0
LINE
  5
12F
330
1F
100
AcDbEntity
  8
1
  6
Continuous
 62
     4
100
AcDbLine
 10
336.759981545061
 20
-176.691042889121
 30
0.0
 11
336.634981545061
 21
-177.191042889121
 31
0.0
  0
LINE
  5
130
330
1F
100
AcDbEntity
  8
1
  6
Continuous
 62
     4
100
AcDbLine
 10
336.759981545061
 20
-175.941042889121
 30
0.0
 11
336.759981545061
 21
-176.691042889121
 31
0.0
  0
LINE
  5
131
330
1F
100
AcDbEntity
  8
1
  6
Continuous
 62
     4
100
AcDbLine
 10
336.634981545061
 20
-175.441042889121
 30
0.0
 11
336.759981545061
 21
-175.941042889121
 31
0.0
  0
LINE
  5
132
330
1F
100
AcDbEntity
  8
1
  6
Continuous
 62
     4
100
AcDbLine
 10
336.259981545061
 20
-175.066042889121
 30
0.0
 11
336.634981545061
 21
-175.441042889121
 31
0.0
  0
LINE
  5
133
330
1F
100
AcDbEntity
  8
1
  6
Continuous
 62
     4
100
AcDbLine
 10
335.634981545061
 20
-174.941042889121
 30
0.0
 11
336.259981545061
 21
-175.066042889121
 31
0.0
  0
LINE
  5
134
330
1F
100
AcDbEntity
  8
1
  6
Continuous
 62
     4
100
AcDbLine
 10
333.759981545061
 20
-174.941042889121
 30
0.0
 11
335.634981545061
 21
-174.941042889121
 31
0.0
  0
LINE
  5
135
330
1F
100
AcDbEntity
  8
1
  6
Continuous
 62
     4
100
AcDbLine
 10
333.759981545061
 20
-172.941042889121
 30
0.0
 11
333.759981545061
 21
-174.941042889121
 31
0.0
  0
LINE
  5
136
330
1F
100
AcDbEntity
  8
1
  6
Continuous
 62
     4
100
AcDbLine
 10
336.509981545061
 20
-172.941042889121
 30
0.0
 11
333.759981545061
 21
-172.941042889121
 31
0.0
  0
LINE
  5
137
330
1F
100
AcDbEntity
  8
1
  6
Continuous
 62
     4
100
AcDbLine
 10
330.759981545061
 20
-177.441042889121
 30
0.0
 11
329.634981545061
 21
-177.941042889121
 31
0.0
  0
LINE
  5
138
330
1F
100
AcDbEntity
  8
1
  6
Continuous
 62
     4
100
AcDbLine
 10
331.634981545061
 20
-176.691042889121
 30
0.0
 11
330.759981545061
 21
-177.441042889121
 31
0.0
  0
LINE
  5
139
330
1F
100
AcDbEntity
  8
1
  6
Continuous
 62
     4
100
AcDbLine
 10
332.009981545061
 20
-176.191042889121
 30
0.0
 11
331.634981545061
 21
-176.691042889121
 31
0.0
  0
LINE
  5
13A
330
1F
100
AcDbEntity
  8
1
  6
Continuous
 62
     4
100
AcDbLine
 10
332.134981545061
 20
-175.691042889121
 30
0.0
 11
332.009981545061
 21
-176.191042889121
 31
0.0
  0
LINE
  5
13B
330
1F
100
AcDbEntity
  8
1
  6
Continuous
 62
     4
100
AcDbLine
 10
332.259981545061
 20
-175.066042889121
 30
0.0
 11
332.134981545061
 21
-175.691042889121
 31
0.0
  0
LINE
  5
13C
330
1F
100
AcDbEntity
  8
1
  6
Continuous
 62
     4
100
AcDbLine
 10
332.259981545061
 20
-174.191042889121
 30
0.0
 11
332.259981545061
 21
-175.066042889121
 31
0.0
  0
LINE
  5
13D
330
1F
100
AcDbEntity
  8
1
  6
Continuous
 62
     4
100
AcDbLine
 10
332.134981545061
 20
-173.691042889121
 30
0.0
 11
332.259981545061
 21
-174.191042889121
 31
0.0
  0
LINE
  5
13E
330
1F
100
AcDbEntity
  8
1
  6
Continuous
 62
     4
100
AcDbLine
 10
331.884981545061
 20
-173.316042889121
 30
0.0
 11
332.134981545061
 21
-173.691042889121
 31
0.0
  0
LINE
  5
13F
330
1F
100
AcDbEntity
  8
1
  6
Continuous
 62
     4
100
AcDbLine
 10
331.509981545061
 20
-173.066042889121
 30
0.0
 11
331.884981545061
 21
-173.316042889121
 31
0.0
  0
LINE
  5
140
330
1F
100
AcDbEntity
  8
1
  6
Continuous
 62
     4
100
AcDbLine
 10
331.134981545061
 20
-172.941042889121
 30
0.0
 11
331.509981545061
 21
-173.066042889121
 31
0.0
  0
LINE
  5
141
330
1F
100
AcDbEntity
  8
1
  6
Continuous
 62
     4
100
AcDbLine
 10
330.384981545061
 20
-172.941042889121
 30
0.0
 11
331.134981545061
 21
-172.941042889121
 31
0.0
  0
LINE
  5
142
330
1F
100
AcDbEntity
  8
1
  6
Continuous
 62
     4
100
AcDbLine
 10
330.009981545061
 20
-173.066042889121
 30
0.0
 11
330.384981545061
 21
-172.941042889121
 31
0.0
  0
LINE
  5
143
330
1F
100
AcDbEntity
  8
1
  6
Continuous
 62
     4
100
AcDbLine
 10
329.634981545061
 20
-173.316042889121
 30
0.0
 11
330.009981545061
 21
-173.066042889121
 31
0.0
  0
LINE
  5
144
330
1F
100
AcDbEntity
  8
1
  6
Continuous
 62
     4
100
AcDbLine
 10
329.384981545061
 20
-173.691042889121
 30
0.0
 11
329.634981545061
 21
-173.316042889121
 31
0.0
  0
LINE
  5
145
330
1F
100
AcDbEntity
  8
1
  6
Continuous
 62
     4
100
AcDbLine
 10
329.259981545061
 20
-174.191042889121
 30
0.0
 11
329.384981545061
 21
-173.691042889121
 31
0.0
  0
LINE
  5
146
330
1F
100
AcDbEntity
  8
1
  6
Continuous
 62
     4
100
AcDbLine
 10
329.259981545061
 20
-174.441042889121
 30
0.0
 11
329.259981545061
 21
-174.191042889121
 31
0.0
  0
LINE
  5
147
330
1F
100
AcDbEntity
  8
1
  6
Continuous
 62
     4
100
AcDbLine
 10
329.384981545061
 20
-174.941042889121
 30
0.0
 11
329.259981545061
 21
-174.441042889121
 31
0.0
  0
LINE
  5
148
330
1F
100
AcDbEntity
  8
1
  6
Continuous
 62
     4
100
AcDbLine
 10
329.634981545061
 20
-175.316042889121
 30
0.0
 11
329.384981545061
 21
-174.941042889121
 31
0.0
  0
LINE
  5
149
330
1F
100
AcDbEntity
  8
1
  6
Continuous
 62
     4
100
AcDbLine
 10
330.009981545061
 20
-175.566042889121
 30
0.0
 11
329.634981545061
 21
-175.316042889121
 31
0.0
  0
LINE
  5
14A
330
1F
100
AcDbEntity
  8
1
  6
Continuous
 62
     4
100
AcDbLine
 10
330.384981545061
 20
-175.691042889121
 30
0.0
 11
330.009981545061
 21
-175.566042889121
 31
0.0
  0
LINE
  5
14B
330
1F
100
AcDbEntity
  8
1
  6
Continuous
 62
     4
100
AcDbLine
 10
332.134981545061
 20
-175.691042889121
 30
0.0
 11
330.384981545061
 21
-175.691042889121
 31
0.0
  0
LINE
  5
14C
330
1F
100
AcDbEntity
  8
1
  6
Continuous
 62
     4
100
AcDbLine
 10
325.634981545061
 20
-174.066042889121
 30
0.0
 11
327.009981545061
 21
-172.941042889121
 31
0.0
  0
LINE
  5
14D
330
1F
100
AcDbEntity
  8
1
  6
Continuous
 62
     4
100
AcDbLine
 10
325.134981545061
 20
-174.691042889121
 30
0.0
 11
325.634981545061
 21
-174.066042889121
 31
0.0
  0
LINE
  5
14E
330
1F
100
AcDbEntity
  8
1
  6
Continuous
 62
     4
100
AcDbLine
 10
324.884981545061
 20
-175.191042889121
 30
0.0
 11
325.134981545061
 21
-174.691042889121
 31
0.0
  0
LINE
  5
14F
330
1F
100
AcDbEntity
  8
1
  6
Continuous
 62
     4
100
AcDbLine
 10
324.759981545061
 20
-176.191042889121
 30
0.0
 11
324.884981545061
 21
-175.191042889121
 31
0.0
  0
LINE
  5
150
330
1F
100
AcDbEntity
  8
1
  6
Continuous
 62
     4
100
AcDbLine
 10
324.759981545061
 20
-176.691042889121
 30
0.0
 11
324.759981545061
 21
-176.191042889121
 31
0.0
  0
LINE
  5
151
330
1F
100
AcDbEntity
  8
1
  6
Continuous
 62
     4
100
AcDbLine
 10
324.884981545061
 20
-177.191042889121
 30
0.0
 11
324.759981545061
 21
-176.691042889121
 31
0.0
  0
LINE
  5
152
330
1F
100
AcDbEntity
  8
1
  6
Continuous
 62
     4
100
AcDbLine
 10
325.134981545061
 20
-177.566042889121
 30
0.0
 11
324.884981545061
 21
-177.191042889121
 31
0.0
  0
LINE
  5
153
330
1F
100
AcDbEntity
  8
1
  6
Continuous
 62
     4
100
AcDbLine
 10
325.509981545061
 20
-177.816042889121
 30
0.0
 11
325.134981545061
 21
-177.566042889121
 31
0.0
  0
LINE
  5
154
330
1F
100
AcDbEntity
  8
1
  6
Continuous
 62
     4
100
AcDbLine
 10
325.884981545061
 20
-177.941042889121
 30
0.0
 11
325.509981545061
 21
-177.816042889121
 31
0.0
  0
LINE
  5
155
330
1F
100
AcDbEntity
  8
1
  6
Continuous
 62
     4
100
AcDbLine
 10
326.634981545061
 20
-177.941042889121
 30
0.0
 11
325.884981545061
 21
-177.941042889121
 31
0.0
  0
LINE
  5
156
330
1F
100
AcDbEntity
  8
1
  6
Continuous
 62
     4
100
AcDbLine
 10
327.009981545061
 20
-177.816042889121
 30
0.0
 11
326.634981545061
 21
-177.941042889121
 31
0.0
  0
LINE
  5
157
330
1F
100
AcDbEntity
  8
1
  6
Continuous
 62
     4
100
AcDbLine
 10
327.384981545061
 20
-177.566042889121
 30
0.0
 11
327.009981545061
 21
-177.816042889121
 31
0.0
  0
LINE
  5
158
330
1F
100
AcDbEntity
  8
1
  6
Continuous
 62
     4
100
AcDbLine
 10
327.634981545061
 20
-177.191042889121
 30
0.0
 11
327.384981545061
 21
-177.566042889121
 31
0.0
  0
LINE
  5
159
330
1F
100
AcDbEntity
  8
1
  6
Continuous
 62
     4
100
AcDbLine
 10
327.759981545061
 20
-176.691042889121
 30
0.0
 11
327.634981545061
 21
-177.191042889121
 31
0.0
  0
LINE
  5
15A
330
1F
100
AcDbEntity
  8
1
  6
Continuous
 62
     4
100
AcDbLine
 10
327.759981545061
 20
-176.191042889121
 30
0.0
 11
327.759981545061
 21
-176.691042889121
 31
0.0
  0
LINE
  5
15B
330
1F
100
AcDbEntity
  8
1
  6
Continuous
 62
     4
100
AcDbLine
 10
327.634981545061
 20
-175.691042889121
 30
0.0
 11
327.759981545061
 21
-176.191042889121
 31
0.0
  0
LINE
  5
15C
330
1F
100
AcDbEntity
  8
1
  6
Continuous
 62
     4
100
AcDbLine
 10
327.384981545061
 20
-175.316042889121
 30
0.0
 11
327.634981545061
 21
-175.691042889121
 31
0.0
  0
LINE
  5
15D
330
1F
100
AcDbEntity
  8
1
  6
Continuous
 62
     4
100
AcDbLine
 10
327.009981545061
 20
-175.066042889121
 30
0.0
 11
327.384981545061
 21
-175.316042889121
 31
0.0
  0
LINE
  5
15E
330
1F
100
AcDbEntity
  8
1
  6
Continuous
 62
     4
100
AcDbLine
 10
326.634981545061
 20
-174.941042889121
 30
0.0
 11
327.009981545061
 21
-175.066042889121
 31
0.0
  0
LINE
  5
15F
330
1F
100
AcDbEntity
  8
1
  6
Continuous
 62
     4
100
AcDbLine
 10
325.884981545061
 20
-174.941042889121
 30
0.0
 11
326.634981545061
 21
-174.941042889121
 31
0.0
  0
LINE
  5
160
330
1F
100
AcDbEntity
  8
1
  6
Continuous
 62
     4
100
AcDbLine
 10
325.509981545061
 20
-175.066042889121
 30
0.0
 11
325.884981545061
 21
-174.941042889121
 31
0.0
  0
LINE
  5
161
330
1F
100
AcDbEntity
  8
1
  6
Continuous
 62
     4
100
AcDbLine
 10
325.134981545061
 20
-175.316042889121
 30
0.0
 11
325.509981545061
 21
-175.066042889121
 31
0.0
  0
LINE
  5
162
330
1F
100
AcDbEntity
  8
1
  6
Continuous
 62
     4
100
AcDbLine
 10
324.884981545061
 20
-175.691042889121
 30
0.0
 11
325.134981545061
 21
-175.316042889121
 31
0.0
  0
LINE
  5
163
330
1F
100
AcDbEntity
  8
1
  6
Continuous
 62
     4
100
AcDbLine
 10
324.759981545061
 20
-176.191042889121
 30
0.0
 11
324.884981545061
 21
-175.691042889121
 31
0.0
  0
LINE
  5
164
330
1F
100
AcDbEntity
  8
1
  6
Continuous
 62
     4
100
AcDbLine
 10
308.259981545061
 20
-172.941042889121
 30
0.0
 11
305.759981545061
 21
-177.941042889121
 31
0.0
  0
LINE
  5
165
330
1F
100
AcDbEntity
  8
1
  6
Continuous
 62
     4
100
AcDbLine
 10
305.259981545061
 20
-172.941042889121
 30
0.0
 11
308.259981545061
 21
-172.941042889121
 31
0.0
  0
LINE
  5
166
330
1F
100
AcDbEntity
  8
1
  6
Continuous
 62
     4
100
AcDbLine
 10
305.259981545061
 20
-173.441042889121
 30
0.0
 11
305.259981545061
 21
-172.941042889121
 31
0.0
  0
LINE
  5
167
330
1F
100
AcDbEntity
  8
1
  6
Continuous
 62
     4
100
AcDbLine
 10
303.884981545061
 20
-177.691042889121
 30
0.0
 11
303.884981545061
 21
-177.816042889121
 31
0.0
  0
LINE
  5
168
330
1F
100
AcDbEntity
  8
1
  6
Continuous
 62
     4
100
AcDbLine
 10
303.759981545061
 20
-177.691042889121
 30
0.0
 11
303.884981545061
 21
-177.691042889121
 31
0.0
  0
LINE
  5
169
330
1F
100
AcDbEntity
  8
1
  6
Continuous
 62
     4
100
AcDbLine
 10
303.759981545061
 20
-177.816042889121
 30
0.0
 11
303.759981545061
 21
-177.691042889121
 31
0.0
  0
LINE
  5
16A
330
1F
100
AcDbEntity
  8
1
  6
Continuous
 62
     4
100
AcDbLine
 10
303.884981545061
 20
-177.816042889121
 30
0.0
 11
303.759981545061
 21
-177.816042889121
 31
0.0
  0
LINE
  5
16B
330
1F
100
AcDbEntity
  8
1
  6
Continuous
 62
     4
100
AcDbLine
 10
304.009981545061
 20
-177.566042889121
 30
0.0
 11
304.009981545061
 21
-177.941042889121
 31
0.0
  0
LINE
  5
16C
330
1F
100
AcDbEntity
  8
1
  6
Continuous
 62
     4
100
AcDbLine
 10
303.634981545061
 20
-177.566042889121
 30
0.0
 11
304.009981545061
 21
-177.566042889121
 31
0.0
  0
LINE
  5
16D
330
1F
100
AcDbEntity
  8
1
  6
Continuous
 62
     4
100
AcDbLine
 10
303.634981545061
 20
-177.941042889121
 30
0.0
 11
303.634981545061
 21
-177.566042889121
 31
0.0
  0
LINE
  5
16E
330
1F
100
AcDbEntity
  8
1
  6
Continuous
 62
     4
100
AcDbLine
 10
304.009981545061
 20
-177.941042889121
 30
0.0
 11
303.634981545061
 21
-177.941042889121
 31
0.0
  0
LINE
  5
16F
330
1F
100
AcDbEntity
  8
1
  6
Continuous
 62
     4
100
AcDbLine
 10
302.134981545061
 20
-174.816042889121
 30
0.0
 11
302.134981545061
 21
-176.066042889121
 31
0.0
  0
LINE
  5
170
330
1F
100
AcDbEntity
  8
1
  6
Continuous
 62
     4
100
AcDbLine
 10
302.009981545061
 20
-174.066042889121
 30
0.0
 11
302.134981545061
 21
-174.816042889121
 31
0.0
  0
LINE
  5
171
330
1F
100
AcDbEntity
  8
1
  6
Continuous
 62
     4
100
AcDbLine
 10
301.759981545061
 20
-173.566042889121
 30
0.0
 11
302.009981545061
 21
-174.066042889121
 31
0.0
  0
LINE
  5
172
330
1F
100
AcDbEntity
  8
1
  6
Continuous
 62
     4
100
AcDbLine
 10
301.509981545061
 20
-173.316042889121
 30
0.0
 11
301.759981545061
 21
-173.566042889121
 31
0.0
  0
LINE
  5
173
330
1F
100
AcDbEntity
  8
1
  6
Continuous
 62
     4
100
AcDbLine
 10
301.134981545061
 20
-173.066042889121
 30
0.0
 11
301.509981545061
 21
-173.316042889121
 31
0.0
  0
LINE
  5
174
330
1F
100
AcDbEntity
  8
1
  6
Continuous
 62
     4
100
AcDbLine
 10
300.759981545061
 20
-172.941042889121
 30
0.0
 11
301.134981545061
 21
-173.066042889121
 31
0.0
  0
LINE
  5
175
330
1F
100
AcDbEntity
  8
1
  6
Continuous
 62
     4
100
AcDbLine
 10
300.509981545061
 20
-172.941042889121
 30
0.0
 11
300.759981545061
 21
-172.941042889121
 31
0.0
  0
LINE
  5
176
330
1F
100
AcDbEntity
  8
1
  6
Continuous
 62
     4
100
AcDbLine
 10
300.134981545061
 20
-173.066042889121
 30
0.0
 11
300.509981545061
 21
-172.941042889121
 31
0.0
  0
LINE
  5
177
330
1F
100
AcDbEntity
  8
1
  6
Continuous
 62
     4
100
AcDbLine
 10
299.759981545061
 20
-173.316042889121
 30
0.0
 11
300.134981545061
 21
-173.066042889121
 31
0.0
  0
LINE
  5
178
330
1F
100
AcDbEntity
  8
1
  6
Continuous
 62
     4
100
AcDbLine
 10
299.509981545061
 20
-173.566042889121
 30
0.0
 11
299.759981545061
 21
-173.316042889121
 31
0.0
  0
LINE
  5
179
330
1F
100
AcDbEntity
  8
1
  6
Continuous
 62
     4
100
AcDbLine
 10
299.259981545061
 20
-174.066042889121
 30
0.0
 11
299.509981545061
 21
-173.566042889121
 31
0.0
  0
LINE
  5
17A
330
1F
100
AcDbEntity
  8
1
  6
Continuous
 62
     4
100
AcDbLine
 10
299.134981545061
 20
-174.816042889121
 30
0.0
 11
299.259981545061
 21
-174.066042889121
 31
0.0
  0
LINE
  5
17B
330
1F
100
AcDbEntity
  8
1
  6
Continuous
 62
     4
100
AcDbLine
 10
299.134981545061
 20
-176.066042889121
 30
0.0
 11
299.134981545061
 21
-174.816042889121
 31
0.0
  0
LINE
  5
17C
330
1F
100
AcDbEntity
  8
1
  6
Continuous
 62
     4
100
AcDbLine
 10
299.259981545061
 20
-176.816042889121
 30
0.0
 11
299.134981545061
 21
-176.066042889121
 31
0.0
  0
LINE
  5
17D
330
1F
100
AcDbEntity
  8
1
  6
Continuous
 62
     4
100
AcDbLine
 10
299.509981545061
 20
-177.316042889121
 30
0.0
 11
299.259981545061
 21
-176.816042889121
 31
0.0
  0
LINE
  5
17E
330
1F
100
AcDbEntity
  8
1
  6
Continuous
 62
     4
100
AcDbLine
 10
299.759981545061
 20
-177.566042889121
 30
0.0
 11
299.509981545061
 21
-177.316042889121
 31
0.0
  0
LINE
  5
17F
330
1F
100
AcDbEntity
  8
1
  6
Continuous
 62
     4
100
AcDbLine
 10
300.134981545061
 20
-177.816042889121
 30
0.0
 11
299.759981545061
 21
-177.566042889121
 31
0.0
  0
LINE
  5
180
330
1F
100
AcDbEntity
  8
1
  6
Continuous
 62
     4
100
AcDbLine
 10
300.509981545061
 20
-177.941042889121
 30
0.0
 11
300.134981545061
 21
-177.816042889121
 31
0.0
  0
LINE
  5
181
330
1F
100
AcDbEntity
  8
1
  6
Continuous
 62
     4
100
AcDbLine
 10
300.759981545061
 20
-177.941042889121
 30
0.0
 11
300.509981545061
 21
-177.941042889121
 31
0.0
  0
LINE
  5
182
330
1F
100
AcDbEntity
  8
1
  6
Continuous
 62
     4
100
AcDbLine
 10
301.134981545061
 20
-177.816042889121
 30
0.0
 11
300.759981545061
 21
-177.941042889121
 31
0.0
  0
LINE
  5
183
330
1F
100
AcDbEntity
  8
1
  6
Continuous
 62
     4
100
AcDbLine
 10
301.509981545061
 20
-177.566042889121
 30
0.0
 11
301.134981545061
 21
-177.816042889121
 31
0.0
  0
LINE
  5
184
330
1F
100
AcDbEntity
  8
1
  6
Continuous
 62
     4
100
AcDbLine
 10
301.759981545061
 20
-177.316042889121
 30
0.0
 11
301.509981545061
 21
-177.566042889121
 31
0.0
  0
LINE
  5
185
330
1F
100
AcDbEntity
  8
1
  6
Continuous
 62
     4
100
AcDbLine
 10
302.009981545061
 20
-176.816042889121
 30
0.0
 11
301.759981545061
 21
-177.316042889121
 31
0.0
  0
LINE
  5
186
330
1F
100
AcDbEntity
  8
1
  6
Continuous
 62
     4
100
AcDbLine
 10
302.134981545061
 20
-176.066042889121
 30
0.0
 11
302.009981545061
 21
-176.816042889121
 31
0.0
  0
LINE
  5
187
330
1F
100
AcDbEntity
  8
1
  6
Continuous
 62
     4
100
AcDbLine
 10
335.634981545061
 20
-169.611042889121
 30
0.0
 11
333.759981545061
 21
-169.611042889121
 31
0.0
  0
LINE
  5
188
330
1F
100
AcDbEntity
  8
1
  6
Continuous
 62
     4
100
AcDbLine
 10
336.009981545061
 20
-169.486042889121
 30
0.0
 11
335.634981545061
 21
-169.611042889121
 31
0.0
  0
LINE
  5
189
330
1F
100
AcDbEntity
  8
1
  6
Continuous
 62
     4
100
AcDbLine
 10
336.384981545061
 20
-169.236042889121
 30
0.0
 11
336.009981545061
 21
-169.486042889121
 31
0.0
  0
LINE
  5
18A
330
1F
100
AcDbEntity
  8
1
  6
Continuous
 62
     4
100
AcDbLine
 10
336.634981545061
 20
-168.861042889121
 30
0.0
 11
336.384981545061
 21
-169.236042889121
 31
0.0
  0
LINE
  5
18B
330
1F
100
AcDbEntity
  8
1
  6
Continuous
 62
     4
100
AcDbLine
 10
336.759981545061
 20
-168.361042889121
 30
0.0
 11
336.634981545061
 21
-168.861042889121
 31
0.0
  0
LINE
  5
18C
330
1F
100
AcDbEntity
  8
1
  6
Continuous
 62
     4
100
AcDbLine
 10
336.759981545061
 20
-167.611042889121
 30
0.0
 11
336.759981545061
 21
-168.361042889121
 31
0.0
  0
LINE
  5
18D
330
1F
100
AcDbEntity
  8
1
  6
Continuous
 62
     4
100
AcDbLine
 10
336.634981545061
 20
-167.111042889121
 30
0.0
 11
336.759981545061
 21
-167.611042889121
 31
0.0
  0
LINE
  5
18E
330
1F
100
AcDbEntity
  8
1
  6
Continuous
 62
     4
100
AcDbLine
 10
336.259981545061
 20
-166.736042889121
 30
0.0
 11
336.634981545061
 21
-167.111042889121
 31
0.0
  0
LINE
  5
18F
330
1F
100
AcDbEntity
  8
1
  6
Continuous
 62
     4
100
AcDbLine
 10
335.634981545061
 20
-166.611042889121
 30
0.0
 11
336.259981545061
 21
-166.736042889121
 31
0.0
  0
LINE
  5
190
330
1F
100
AcDbEntity
  8
1
  6
Continuous
 62
     4
100
AcDbLine
 10
333.759981545061
 20
-166.611042889121
 30
0.0
 11
335.634981545061
 21
-166.611042889121
 31
0.0
  0
LINE
  5
191
330
1F
100
AcDbEntity
  8
1
  6
Continuous
 62
     4
100
AcDbLine
 10
333.759981545061
 20
-164.611042889121
 30
0.0
 11
333.759981545061
 21
-166.611042889121
 31
0.0
  0
LINE
  5
192
330
1F
100
AcDbEntity
  8
1
  6
Continuous
 62
     4
100
AcDbLine
 10
336.509981545061
 20
-164.611042889121
 30
0.0
 11
333.759981545061
 21
-164.611042889121
 31
0.0
  0
LINE
  5
193
330
1F
100
AcDbEntity
  8
1
  6
Continuous
 62
     4
100
AcDbLine
 10
330.759981545061
 20
-169.111042889121
 30
0.0
 11
329.634981545061
 21
-169.611042889121
 31
0.0
  0
LINE
  5
194
330
1F
100
AcDbEntity
  8
1
  6
Continuous
 62
     4
100
AcDbLine
 10
331.634981545061
 20
-168.361042889121
 30
0.0
 11
330.759981545061
 21
-169.111042889121
 31
0.0
  0
LINE
  5
195
330
1F
100
AcDbEntity
  8
1
  6
Continuous
 62
     4
100
AcDbLine
 10
332.009981545061
 20
-167.861042889121
 30
0.0
 11
331.634981545061
 21
-168.361042889121
 31
0.0
  0
LINE
  5
196
330
1F
100
AcDbEntity
  8
1
  6
Continuous
 62
     4
100
AcDbLine
 10
332.134981545061
 20
-167.361042889121
 30
0.0
 11
332.009981545061
 21
-167.861042889121
 31
0.0
  0
LINE
  5
197
330
1F
100
AcDbEntity
  8
1
  6
Continuous
 62
     4
100
AcDbLine
 10
332.259981545061
 20
-166.736042889121
 30
0.0
 11
332.134981545061
 21
-167.361042889121
 31
0.0
  0
LINE
  5
198
330
1F
100
AcDbEntity
  8
1
  6
Continuous
 62
     4
100
AcDbLine
 10
332.259981545061
 20
-165.861042889121
 30
0.0
 11
332.259981545061
 21
-166.736042889121
 31
0.0
  0
LINE
  5
199
330
1F
100
AcDbEntity
  8
1
  6
Continuous
 62
     4
100
AcDbLine
 10
332.134981545061
 20
-165.361042889121
 30
0.0
 11
332.259981545061
 21
-165.861042889121
 31
0.0
  0
LINE
  5
19A
330
1F
100
AcDbEntity
  8
1
  6
Continuous
 62
     4
100
AcDbLine
 10
331.884981545061
 20
-164.986042889121
 30
0.0
 11
332.134981545061
 21
-165.361042889121
 31
0.0
  0
LINE
  5
19B
330
1F
100
AcDbEntity
  8
1
  6
Continuous
 62
     4
100
AcDbLine
 10
331.509981545061
 20
-164.736042889121
 30
0.0
 11
331.884981545061
 21
-164.986042889121
 31
0.0
  0
LINE
  5
19C
330
1F
100
AcDbEntity
  8
1
  6
Continuous
 62
     4
100
AcDbLine
 10
331.134981545061
 20
-164.611042889121
 30
0.0
 11
331.509981545061
 21
-164.736042889121
 31
0.0
  0
LINE
  5
19D
330
1F
100
AcDbEntity
  8
1
  6
Continuous
 62
     4
100
AcDbLine
 10
330.384981545061
 20
-164.611042889121
 30
0.0
 11
331.134981545061
 21
-164.611042889121
 31
0.0
  0
LINE
  5
19E
330
1F
100
AcDbEntity
  8
1
  6
Continuous
 62
     4
100
AcDbLine
 10
330.009981545061
 20
-164.736042889121
 30
0.0
 11
330.384981545061
 21
-164.611042889121
 31
0.0
  0
LINE
  5
19F
330
1F
100
AcDbEntity
  8
1
  6
Continuous
 62
     4
100
AcDbLine
 10
329.634981545061
 20
-164.986042889121
 30
0.0
 11
330.009981545061
 21
-164.736042889121
 31
0.0
  0
LINE
  5
1A0
330
1F
100
AcDbEntity
  8
1
  6
Continuous
 62
     4
100
AcDbLine
 10
329.384981545061
 20
-165.361042889121
 30
0.0
 11
329.634981545061
 21
-164.986042889121
 31
0.0
  0
LINE
  5
1A1
330
1F
100
AcDbEntity
  8
1
  6
Continuous
 62
     4
100
AcDbLine
 10
329.259981545061
 20
-165.861042889121
 30
0.0
 11
329.384981545061
 21
-165.361042889121
 31
0.0
  0
LINE
  5
1A2
330
1F
100
AcDbEntity
  8
1
  6
Continuous
 62
     4
100
AcDbLine
 10
329.259981545061
 20
-166.111042889121
 30
0.0
 11
329.259981545061
 21
-165.861042889121
 31
0.0
  0
LINE
  5
1A3
330
1F
100
AcDbEntity
  8
1
  6
Continuous
 62
     4
100
AcDbLine
 10
329.384981545061
 20
-166.611042889121
 30
0.0
 11
329.259981545061
 21
-166.111042889121
 31
0.0
  0
LINE
  5
1A4
330
1F
100
AcDbEntity
  8
1
  6
Continuous
 62
     4
100
AcDbLine
 10
329.634981545061
 20
-166.986042889121
 30
0.0
 11
329.384981545061
 21
-166.611042889121
 31
0.0
  0
LINE
  5
1A5
330
1F
100
AcDbEntity
  8
1
  6
Continuous
 62
     4
100
AcDbLine
 10
330.009981545061
 20
-167.236042889121
 30
0.0
 11
329.634981545061
 21
-166.986042889121
 31
0.0
  0
LINE
  5
1A6
330
1F
100
AcDbEntity
  8
1
  6
Continuous
 62
     4
100
AcDbLine
 10
330.384981545061
 20
-167.361042889121
 30
0.0
 11
330.009981545061
 21
-167.236042889121
 31
0.0
  0
LINE
  5
1A7
330
1F
100
AcDbEntity
  8
1
  6
Continuous
 62
     4
100
AcDbLine
 10
332.134981545061
 20
-167.361042889121
 30
0.0
 11
330.384981545061
 21
-167.361042889121
 31
0.0
  0
LINE
  5
1A8
330
1F
100
AcDbEntity
  8
1
  6
Continuous
 62
     4
100
AcDbLine
 10
326.634981545061
 20
-169.611042889121
 30
0.0
 11
324.759981545061
 21
-169.611042889121
 31
0.0
  0
LINE
  5
1A9
330
1F
100
AcDbEntity
  8
1
  6
Continuous
 62
     4
100
AcDbLine
 10
327.009981545061
 20
-169.486042889121
 30
0.0
 11
326.634981545061
 21
-169.611042889121
 31
0.0
  0
LINE
  5
1AA
330
1F
100
AcDbEntity
  8
1
  6
Continuous
 62
     4
100
AcDbLine
 10
327.384981545061
 20
-169.236042889121
 30
0.0
 11
327.009981545061
 21
-169.486042889121
 31
0.0
  0
LINE
  5
1AB
330
1F
100
AcDbEntity
  8
1
  6
Continuous
 62
     4
100
AcDbLine
 10
327.634981545061
 20
-168.861042889121
 30
0.0
 11
327.384981545061
 21
-169.236042889121
 31
0.0
  0
LINE
  5
1AC
330
1F
100
AcDbEntity
  8
1
  6
Continuous
 62
     4
100
AcDbLine
 10
327.759981545061
 20
-168.361042889121
 30
0.0
 11
327.634981545061
 21
-168.861042889121
 31
0.0
  0
LINE
  5
1AD
330
1F
100
AcDbEntity
  8
1
  6
Continuous
 62
     4
100
AcDbLine
 10
327.759981545061
 20
-167.611042889121
 30
0.0
 11
327.759981545061
 21
-168.361042889121
 31
0.0
  0
LINE
  5
1AE
330
1F
100
AcDbEntity
  8
1
  6
Continuous
 62
     4
100
AcDbLine
 10
327.634981545061
 20
-167.111042889121
 30
0.0
 11
327.759981545061
 21
-167.611042889121
 31
0.0
  0
LINE
  5
1AF
330
1F
100
AcDbEntity
  8
1
  6
Continuous
 62
     4
100
AcDbLine
 10
327.259981545061
 20
-166.736042889121
 30
0.0
 11
327.634981545061
 21
-167.111042889121
 31
0.0
  0
LINE
  5
1B0
330
1F
100
AcDbEntity
  8
1
  6
Continuous
 62
     4
100
AcDbLine
 10
326.634981545061
 20
-166.611042889121
 30
0.0
 11
327.259981545061
 21
-166.736042889121
 31
0.0
  0
LINE
  5
1B1
330
1F
100
AcDbEntity
  8
1
  6
Continuous
 62
     4
100
AcDbLine
 10
324.759981545061
 20
-166.611042889121
 30
0.0
 11
326.634981545061
 21
-166.611042889121
 31
0.0
  0
LINE
  5
1B2
330
1F
100
AcDbEntity
  8
1
  6
Continuous
 62
     4
100
AcDbLine
 10
324.759981545061
 20
-164.611042889121
 30
0.0
 11
324.759981545061
 21
-166.611042889121
 31
0.0
  0
LINE
  5
1B3
330
1F
100
AcDbEntity
  8
1
  6
Continuous
 62
     4
100
AcDbLine
 10
327.509981545061
 20
-164.611042889121
 30
0.0
 11
324.759981545061
 21
-164.611042889121
 31
0.0
  0
LINE
  5
1B4
330
1F
100
AcDbEntity
  8
1
  6
Continuous
 62
     4
100
AcDbLine
 10
306.134981545061
 20
-165.736042889121
 30
0.0
 11
307.509981545061
 21
-164.611042889121
 31
0.0
  0
LINE
  5
1B5
330
1F
100
AcDbEntity
  8
1
  6
Continuous
 62
     4
100
AcDbLine
 10
305.634981545061
 20
-166.361042889121
 30
0.0
 11
306.134981545061
 21
-165.736042889121
 31
0.0
  0
LINE
  5
1B6
330
1F
100
AcDbEntity
  8
1
  6
Continuous
 62
     4
100
AcDbLine
 10
305.384981545061
 20
-166.861042889121
 30
0.0
 11
305.634981545061
 21
-166.361042889121
 31
0.0
  0
LINE
  5
1B7
330
1F
100
AcDbEntity
  8
1
  6
Continuous
 62
     4
100
AcDbLine
 10
305.259981545061
 20
-167.861042889121
 30
0.0
 11
305.384981545061
 21
-166.861042889121
 31
0.0
  0
LINE
  5
1B8
330
1F
100
AcDbEntity
  8
1
  6
Continuous
 62
     4
100
AcDbLine
 10
305.259981545061
 20
-168.361042889121
 30
0.0
 11
305.259981545061
 21
-167.861042889121
 31
0.0
  0
LINE
  5
1B9
330
1F
100
AcDbEntity
  8
1
  6
Continuous
 62
     4
100
AcDbLine
 10
305.384981545061
 20
-168.861042889121
 30
0.0
 11
305.259981545061
 21
-168.361042889121
 31
0.0
  0
LINE
  5
1BA
330
1F
100
AcDbEntity
  8
1
  6
Continuous
 62
     4
100
AcDbLine
 10
305.634981545061
 20
-169.236042889121
 30
0.0
 11
305.384981545061
 21
-168.861042889121
 31
0.0
  0
LINE
  5
1BB
330
1F
100
AcDbEntity
  8
1
  6
Continuous
 62
     4
100
AcDbLine
 10
306.009981545061
 20
-169.486042889121
 30
0.0
 11
305.634981545061
 21
-169.236042889121
 31
0.0
  0
LINE
  5
1BC
330
1F
100
AcDbEntity
  8
1
  6
Continuous
 62
     4
100
AcDbLine
 10
306.384981545061
 20
-169.611042889121
 30
0.0
 11
306.009981545061
 21
-169.486042889121
 31
0.0
  0
LINE
  5
1BD
330
1F
100
AcDbEntity
  8
1
  6
Continuous
 62
     4
100
AcDbLine
 10
307.134981545061
 20
-169.611042889121
 30
0.0
 11
306.384981545061
 21
-169.611042889121
 31
0.0
  0
LINE
  5
1BE
330
1F
100
AcDbEntity
  8
1
  6
Continuous
 62
     4
100
AcDbLine
 10
307.509981545061
 20
-169.486042889121
 30
0.0
 11
307.134981545061
 21
-169.611042889121
 31
0.0
  0
LINE
  5
1BF
330
1F
100
AcDbEntity
  8
1
  6
Continuous
 62
     4
100
AcDbLine
 10
307.884981545061
 20
-169.236042889121
 30
0.0
 11
307.509981545061
 21
-169.486042889121
 31
0.0
  0
LINE
  5
1C0
330
1F
100
AcDbEntity
  8
1
  6
Continuous
 62
     4
100
AcDbLine
 10
308.134981545061
 20
-168.861042889121
 30
0.0
 11
307.884981545061
 21
-169.236042889121
 31
0.0
  0
LINE
  5
1C1
330
1F
100
AcDbEntity
  8
1
  6
Continuous
 62
     4
100
AcDbLine
 10
308.259981545061
 20
-168.361042889121
 30
0.0
 11
308.134981545061
 21
-168.861042889121
 31
0.0
  0
LINE
  5
1C2
330
1F
100
AcDbEntity
  8
1
  6
Continuous
 62
     4
100
AcDbLine
 10
308.259981545061
 20
-167.861042889121
 30
0.0
 11
308.259981545061
 21
-168.361042889121
 31
0.0
  0
LINE
  5
1C3
330
1F
100
AcDbEntity
  8
1
  6
Continuous
 62
     4
100
AcDbLine
 10
308.134981545061
 20
-167.361042889121
 30
0.0
 11
308.259981545061
 21
-167.861042889121
 31
0.0
  0
LINE
  5
1C4
330
1F
100
AcDbEntity
  8
1
  6
Continuous
 62
     4
100
AcDbLine
 10
307.884981545061
 20
-166.986042889121
 30
0.0
 11
308.134981545061
 21
-167.361042889121
 31
0.0
  0
LINE
  5
1C5
330
1F
100
AcDbEntity
  8
1
  6
Continuous
 62
     4
100
AcDbLine
 10
307.509981545061
 20
-166.736042889121
 30
0.0
 11
307.884981545061
 21
-166.986042889121
 31
0.0
  0
LINE
  5
1C6
330
1F
100
AcDbEntity
  8
1
  6
Continuous
 62
     4
100
AcDbLine
 10
307.134981545061
 20
-166.611042889121
 30
0.0
 11
307.509981545061
 21
-166.736042889121
 31
0.0
  0
LINE
  5
1C7
330
1F
100
AcDbEntity
  8
1
  6
Continuous
 62
     4
100
AcDbLine
 10
306.384981545061
 20
-166.611042889121
 30
0.0
 11
307.134981545061
 21
-166.611042889121
 31
0.0
  0
LINE
  5
1C8
330
1F
100
AcDbEntity
  8
1
  6
Continuous
 62
     4
100
AcDbLine
 10
306.009981545061
 20
-166.736042889121
 30
0.0
 11
306.384981545061
 21
-166.611042889121
 31
0.0
  0
LINE
  5
1C9
330
1F
100
AcDbEntity
  8
1
  6
Continuous
 62
     4
100
AcDbLine
 10
305.634981545061
 20
-166.986042889121
 30
0.0
 11
306.009981545061
 21
-166.736042889121
 31
0.0
  0
LINE
  5
1CA
330
1F
100
AcDbEntity
  8
1
  6
Continuous
 62
     4
100
AcDbLine
 10
305.384981545061
 20
-167.361042889121
 30
0.0
 11
305.634981545061
 21
-166.986042889121
 31
0.0
  0
LINE
  5
1CB
330
1F
100
AcDbEntity
  8
1
  6
Continuous
 62
     4
100
AcDbLine
 10
305.259981545061
 20
-167.861042889121
 30
0.0
 11
305.384981545061
 21
-167.361042889121
 31
0.0
  0
LINE
  5
1CC
330
1F
100
AcDbEntity
  8
1
  6
Continuous
 62
     4
100
AcDbLine
 10
303.884981545061
 20
-169.361042889121
 30
0.0
 11
303.884981545061
 21
-169.486042889121
 31
0.0
  0
LINE
  5
1CD
330
1F
100
AcDbEntity
  8
1
  6
Continuous
 62
     4
100
AcDbLine
 10
303.759981545061
 20
-169.361042889121
 30
0.0
 11
303.884981545061
 21
-169.361042889121
 31
0.0
  0
LINE
  5
1CE
330
1F
100
AcDbEntity
  8
1
  6
Continuous
 62
     4
100
AcDbLine
 10
303.759981545061
 20
-169.486042889121
 30
0.0
 11
303.759981545061
 21
-169.361042889121
 31
0.0
  0
LINE
  5
1CF
330
1F
100
AcDbEntity
  8
1
  6
Continuous
 62
     4
100
AcDbLine
 10
303.884981545061
 20
-169.486042889121
 30
0.0
 11
303.759981545061
 21
-169.486042889121
 31
0.0
  0
LINE
  5
1D0
330
1F
100
AcDbEntity
  8
1
  6
Continuous
 62
     4
100
AcDbLine
 10
304.009981545061
 20
-169.236042889121
 30
0.0
 11
304.009981545061
 21
-169.611042889121
 31
0.0
  0
LINE
  5
1D1
330
1F
100
AcDbEntity
  8
1
  6
Continuous
 62
     4
100
AcDbLine
 10
303.634981545061
 20
-169.236042889121
 30
0.0
 11
304.009981545061
 21
-169.236042889121
 31
0.0
  0
LINE
  5
1D2
330
1F
100
AcDbEntity
  8
1
  6
Continuous
 62
     4
100
AcDbLine
 10
303.634981545061
 20
-169.611042889121
 30
0.0
 11
303.634981545061
 21
-169.236042889121
 31
0.0
  0
LINE
  5
1D3
330
1F
100
AcDbEntity
  8
1
  6
Continuous
 62
     4
100
AcDbLine
 10
304.009981545061
 20
-169.611042889121
 30
0.0
 11
303.634981545061
 21
-169.611042889121
 31
0.0
  0
LINE
  5
1D4
330
1F
100
AcDbEntity
  8
1
  6
Continuous
 62
     4
100
AcDbLine
 10
302.134981545061
 20
-166.486042889121
 30
0.0
 11
302.134981545061
 21
-167.736042889121
 31
0.0
  0
LINE
  5
1D5
330
1F
100
AcDbEntity
  8
1
  6
Continuous
 62
     4
100
AcDbLine
 10
302.009981545061
 20
-165.736042889121
 30
0.0
 11
302.134981545061
 21
-166.486042889121
 31
0.0
  0
LINE
  5
1D6
330
1F
100
AcDbEntity
  8
1
  6
Continuous
 62
     4
100
AcDbLine
 10
301.759981545061
 20
-165.236042889121
 30
0.0
 11
302.009981545061
 21
-165.736042889121
 31
0.0
  0
LINE
  5
1D7
330
1F
100
AcDbEntity
  8
1
  6
Continuous
 62
     4
100
AcDbLine
 10
301.509981545061
 20
-164.986042889121
 30
0.0
 11
301.759981545061
 21
-165.236042889121
 31
0.0
  0
LINE
  5
1D8
330
1F
100
AcDbEntity
  8
1
  6
Continuous
 62
     4
100
AcDbLine
 10
301.134981545061
 20
-164.736042889121
 30
0.0
 11
301.509981545061
 21
-164.986042889121
 31
0.0
  0
LINE
  5
1D9
330
1F
100
AcDbEntity
  8
1
  6
Continuous
 62
     4
100
AcDbLine
 10
300.759981545061
 20
-164.611042889121
 30
0.0
 11
301.134981545061
 21
-164.736042889121
 31
0.0
  0
LINE
  5
1DA
330
1F
100
AcDbEntity
  8
1
  6
Continuous
 62
     4
100
AcDbLine
 10
300.509981545061
 20
-164.611042889121
 30
0.0
 11
300.759981545061
 21
-164.611042889121
 31
0.0
  0
LINE
  5
1DB
330
1F
100
AcDbEntity
  8
1
  6
Continuous
 62
     4
100
AcDbLine
 10
300.134981545061
 20
-164.736042889121
 30
0.0
 11
300.509981545061
 21
-164.611042889121
 31
0.0
  0
LINE
  5
1DC
330
1F
100
AcDbEntity
  8
1
  6
Continuous
 62
     4
100
AcDbLine
 10
299.759981545061
 20
-164.986042889121
 30
0.0
 11
300.134981545061
 21
-164.736042889121
 31
0.0
  0
LINE
  5
1DD
330
1F
100
AcDbEntity
  8
1
  6
Continuous
 62
     4
100
AcDbLine
 10
299.509981545061
 20
-165.236042889121
 30
0.0
 11
299.759981545061
 21
-164.986042889121
 31
0.0
  0
LINE
  5
1DE
330
1F
100
AcDbEntity
  8
1
  6
Continuous
 62
     4
100
AcDbLine
 10
299.259981545061
 20
-165.736042889121
 30
0.0
 11
299.509981545061
 21
-165.236042889121
 31
0.0
  0
LINE
  5
1DF
330
1F
100
AcDbEntity
  8
1
  6
Continuous
 62
     4
100
AcDbLine
 10
299.134981545061
 20
-166.486042889121
 30
0.0
 11
299.259981545061
 21
-165.736042889121
 31
0.0
  0
LINE
  5
1E0
330
1F
100
AcDbEntity
  8
1
  6
Continuous
 62
     4
100
AcDbLine
 10
299.134981545061
 20
-167.736042889121
 30
0.0
 11
299.134981545061
 21
-166.486042889121
 31
0.0
  0
LINE
  5
1E1
330
1F
100
AcDbEntity
  8
1
  6
Continuous
 62
     4
100
AcDbLine
 10
299.259981545061
 20
-168.486042889121
 30
0.0
 11
299.134981545061
 21
-167.736042889121
 31
0.0
  0
LINE
  5
1E2
330
1F
100
AcDbEntity
  8
1
  6
Continuous
 62
     4
100
AcDbLine
 10
299.509981545061
 20
-168.986042889121
 30
0.0
 11
299.259981545061
 21
-168.486042889121
 31
0.0
  0
LINE
  5
1E3
330
1F
100
AcDbEntity
  8
1
  6
Continuous
 62
     4
100
AcDbLine
 10
299.759981545061
 20
-169.236042889121
 30
0.0
 11
299.509981545061
 21
-168.986042889121
 31
0.0
  0
LINE
  5
1E4
330
1F
100
AcDbEntity
  8
1
  6
Continuous
 62
     4
100
AcDbLine
 10
300.134981545061
 20
-169.486042889121
 30
0.0
 11
299.759981545061
 21
-169.236042889121
 31
0.0
  0
LINE
  5
1E5
330
1F
100
AcDbEntity
  8
1
  6
Continuous
 62
     4
100
AcDbLine
 10
300.509981545061
 20
-169.611042889121
 30
0.0
 11
300.134981545061
 21
-169.486042889121
 31
0.0
  0
LINE
  5
1E6
330
1F
100
AcDbEntity
  8
1
  6
Continuous
 62
     4
100
AcDbLine
 10
300.759981545061
 20
-169.611042889121
 30
0.0
 11
300.509981545061
 21
-169.611042889121
 31
0.0
  0
LINE
  5
1E7
330
1F
100
AcDbEntity
  8
1
  6
Continuous
 62
     4
100
AcDbLine
 10
301.134981545061
 20
-169.486042889121
 30
0.0
 11
300.759981545061
 21
-169.611042889121
 31
0.0
  0
LINE
  5
1E8
330
1F
100
AcDbEntity
  8
1
  6
Continuous
 62
     4
100
AcDbLine
 10
301.509981545061
 20
-169.236042889121
 30
0.0
 11
301.134981545061
 21
-169.486042889121
 31
0.0
  0
LINE
  5
1E9
330
1F
100
AcDbEntity
  8
1
  6
Continuous
 62
     4
100
AcDbLine
 10
301.759981545061
 20
-168.986042889121
 30
0.0
 11
301.509981545061
 21
-169.236042889121
 31
0.0
  0
LINE
  5
1EA
330
1F
100
AcDbEntity
  8
1
  6
Continuous
 62
     4
100
AcDbLine
 10
302.009981545061
 20
-168.486042889121
 30
0.0
 11
301.759981545061
 21
-168.986042889121
 31
0.0
  0
LINE
  5
1EB
330
1F
100
AcDbEntity
  8
1
  6
Continuous
 62
     4
100
AcDbLine
 10
302.134981545061
 20
-167.736042889121
 30
0.0
 11
302.009981545061
 21
-168.486042889121
 31
0.0
  0
LINE
  5
1EC
330
1F
100
AcDbEntity
  8
1
  6
Continuous
 62
     4
100
AcDbLine
 10
335.634981545061
 20
-161.281042889121
 30
0.0
 11
333.759981545061
 21
-161.281042889121
 31
0.0
  0
LINE
  5
1ED
330
1F
100
AcDbEntity
  8
1
  6
Continuous
 62
     4
100
AcDbLine
 10
336.009981545061
 20
-161.156042889121
 30
0.0
 11
335.634981545061
 21
-161.281042889121
 31
0.0
  0
LINE
  5
1EE
330
1F
100
AcDbEntity
  8
1
  6
Continuous
 62
     4
100
AcDbLine
 10
336.384981545061
 20
-160.906042889121
 30
0.0
 11
336.009981545061
 21
-161.156042889121
 31
0.0
  0
LINE
  5
1EF
330
1F
100
AcDbEntity
  8
1
  6
Continuous
 62
     4
100
AcDbLine
 10
336.634981545061
 20
-160.531042889121
 30
0.0
 11
336.384981545061
 21
-160.906042889121
 31
0.0
  0
LINE
  5
1F0
330
1F
100
AcDbEntity
  8
1
  6
Continuous
 62
     4
100
AcDbLine
 10
336.759981545061
 20
-160.031042889121
 30
0.0
 11
336.634981545061
 21
-160.531042889121
 31
0.0
  0
LINE
  5
1F1
330
1F
100
AcDbEntity
  8
1
  6
Continuous
 62
     4
100
AcDbLine
 10
336.759981545061
 20
-159.281042889121
 30
0.0
 11
336.759981545061
 21
-160.031042889121
 31
0.0
  0
LINE
  5
1F2
330
1F
100
AcDbEntity
  8
1
  6
Continuous
 62
     4
100
AcDbLine
 10
336.634981545061
 20
-158.781042889121
 30
0.0
 11
336.759981545061
 21
-159.281042889121
 31
0.0
  0
LINE
  5
1F3
330
1F
100
AcDbEntity
  8
1
  6
Continuous
 62
     4
100
AcDbLine
 10
336.259981545061
 20
-158.406042889121
 30
0.0
 11
336.634981545061
 21
-158.781042889121
 31
0.0
  0
LINE
  5
1F4
330
1F
100
AcDbEntity
  8
1
  6
Continuous
 62
     4
100
AcDbLine
 10
335.634981545061
 20
-158.281042889121
 30
0.0
 11
336.259981545061
 21
-158.406042889121
 31
0.0
  0
LINE
  5
1F5
330
1F
100
AcDbEntity
  8
1
  6
Continuous
 62
     4
100
AcDbLine
 10
333.759981545061
 20
-158.281042889121
 30
0.0
 11
335.634981545061
 21
-158.281042889121
 31
0.0
  0
LINE
  5
1F6
330
1F
100
AcDbEntity
  8
1
  6
Continuous
 62
     4
100
AcDbLine
 10
333.759981545061
 20
-156.281042889121
 30
0.0
 11
333.759981545061
 21
-158.281042889121
 31
0.0
  0
LINE
  5
1F7
330
1F
100
AcDbEntity
  8
1
  6
Continuous
 62
     4
100
AcDbLine
 10
336.509981545061
 20
-156.281042889121
 30
0.0
 11
333.759981545061
 21
-156.281042889121
 31
0.0
  0
LINE
  5
1F8
330
1F
100
AcDbEntity
  8
1
  6
Continuous
 62
     4
100
AcDbLine
 10
330.759981545061
 20
-160.781042889121
 30
0.0
 11
329.634981545061
 21
-161.281042889121
 31
0.0
  0
LINE
  5
1F9
330
1F
100
AcDbEntity
  8
1
  6
Continuous
 62
     4
100
AcDbLine
 10
331.634981545061
 20
-160.031042889121
 30
0.0
 11
330.759981545061
 21
-160.781042889121
 31
0.0
  0
LINE
  5
1FA
330
1F
100
AcDbEntity
  8
1
  6
Continuous
 62
     4
100
AcDbLine
 10
332.009981545061
 20
-159.531042889121
 30
0.0
 11
331.634981545061
 21
-160.031042889121
 31
0.0
  0
LINE
  5
1FB
330
1F
100
AcDbEntity
  8
1
  6
Continuous
 62
     4
100
AcDbLine
 10
332.134981545061
 20
-159.031042889121
 30
0.0
 11
332.009981545061
 21
-159.531042889121
 31
0.0
  0
LINE
  5
1FC
330
1F
100
AcDbEntity
  8
1
  6
Continuous
 62
     4
100
AcDbLine
 10
332.259981545061
 20
-158.406042889121
 30
0.0
 11
332.134981545061
 21
-159.031042889121
 31
0.0
  0
LINE
  5
1FD
330
1F
100
AcDbEntity
  8
1
  6
Continuous
 62
     4
100
AcDbLine
 10
332.259981545061
 20
-157.531042889121
 30
0.0
 11
332.259981545061
 21
-158.406042889121
 31
0.0
  0
LINE
  5
1FE
330
1F
100
AcDbEntity
  8
1
  6
Continuous
 62
     4
100
AcDbLine
 10
332.134981545061
 20
-157.031042889121
 30
0.0
 11
332.259981545061
 21
-157.531042889121
 31
0.0
  0
LINE
  5
1FF
330
1F
100
AcDbEntity
  8
1
  6
Continuous
 62
     4
100
AcDbLine
 10
331.884981545061
 20
-156.656042889121
 30
0.0
 11
332.134981545061
 21
-157.031042889121
 31
0.0
  0
LINE
  5
200
330
1F
100
AcDbEntity
  8
1
  6
Continuous
 62
     4
100
AcDbLine
 10
331.509981545061
 20
-156.406042889121
 30
0.0
 11
331.884981545061
 21
-156.656042889121
 31
0.0
  0
LINE
  5
201
330
1F
100
AcDbEntity
  8
1
  6
Continuous
 62
     4
100
AcDbLine
 10
331.134981545061
 20
-156.281042889121
 30
0.0
 11
331.509981545061
 21
-156.406042889121
 31
0.0
  0
LINE
  5
202
330
1F
100
AcDbEntity
  8
1
  6
Continuous
 62
     4
100
AcDbLine
 10
330.384981545061
 20
-156.281042889121
 30
0.0
 11
331.134981545061
 21
-156.281042889121
 31
0.0
  0
LINE
  5
203
330
1F
100
AcDbEntity
  8
1
  6
Continuous
 62
     4
100
AcDbLine
 10
330.009981545061
 20
-156.406042889121
 30
0.0
 11
330.384981545061
 21
-156.281042889121
 31
0.0
  0
LINE
  5
204
330
1F
100
AcDbEntity
  8
1
  6
Continuous
 62
     4
100
AcDbLine
 10
329.634981545061
 20
-156.656042889121
 30
0.0
 11
330.009981545061
 21
-156.406042889121
 31
0.0
  0
LINE
  5
205
330
1F
100
AcDbEntity
  8
1
  6
Continuous
 62
     4
100
AcDbLine
 10
329.384981545061
 20
-157.031042889121
 30
0.0
 11
329.634981545061
 21
-156.656042889121
 31
0.0
  0
LINE
  5
206
330
1F
100
AcDbEntity
  8
1
  6
Continuous
 62
     4
100
AcDbLine
 10
329.259981545061
 20
-157.531042889121
 30
0.0
 11
329.384981545061
 21
-157.031042889121
 31
0.0
  0
LINE
  5
207
330
1F
100
AcDbEntity
  8
1
  6
Continuous
 62
     4
100
AcDbLine
 10
329.259981545061
 20
-157.781042889121
 30
0.0
 11
329.259981545061
 21
-157.531042889121
 31
0.0
  0
LINE
  5
208
330
1F
100
AcDbEntity
  8
1
  6
Continuous
 62
     4
100
AcDbLine
 10
329.384981545061
 20
-158.281042889121
 30
0.0
 11
329.259981545061
 21
-157.781042889121
 31
0.0
  0
LINE
  5
209
330
1F
100
AcDbEntity
  8
1
  6
Continuous
 62
     4
100
AcDbLine
 10
329.634981545061
 20
-158.656042889121
 30
0.0
 11
329.384981545061
 21
-158.281042889121
 31
0.0
  0
LINE
  5
20A
330
1F
100
AcDbEntity
  8
1
  6
Continuous
 62
     4
100
AcDbLine
 10
330.009981545061
 20
-158.906042889121
 30
0.0
 11
329.634981545061
 21
-158.656042889121
 31
0.0
  0
LINE
  5
20B
330
1F
100
AcDbEntity
  8
1
  6
Continuous
 62
     4
100
AcDbLine
 10
330.384981545061
 20
-159.031042889121
 30
0.0
 11
330.009981545061
 21
-158.906042889121
 31
0.0
  0
LINE
  5
20C
330
1F
100
AcDbEntity
  8
1
  6
Continuous
 62
     4
100
AcDbLine
 10
332.134981545061
 20
-159.031042889121
 30
0.0
 11
330.384981545061
 21
-159.031042889121
 31
0.0
  0
LINE
  5
20D
330
1F
100
AcDbEntity
  8
1
  6
Continuous
 62
     4
100
AcDbLine
 10
327.009981545061
 20
-159.281042889121
 30
0.0
 11
327.009981545061
 21
-161.281042889121
 31
0.0
  0
LINE
  5
20E
330
1F
100
AcDbEntity
  8
1
  6
Continuous
 62
     4
100
AcDbLine
 10
324.759981545061
 20
-160.281042889121
 30
0.0
 11
327.759981545061
 21
-160.281042889121
 31
0.0
  0
LINE
  5
20F
330
1F
100
AcDbEntity
  8
1
  6
Continuous
 62
     4
100
AcDbLine
 10
327.009981545061
 20
-156.281042889121
 30
0.0
 11
324.759981545061
 21
-160.281042889121
 31
0.0
  0
LINE
  5
210
330
1F
100
AcDbEntity
  8
1
  6
Continuous
 62
     4
100
AcDbLine
 10
307.134981545061
 20
-161.281042889121
 30
0.0
 11
305.259981545061
 21
-161.281042889121
 31
0.0
  0
LINE
  5
211
330
1F
100
AcDbEntity
  8
1
  6
Continuous
 62
     4
100
AcDbLine
 10
307.509981545061
 20
-161.156042889121
 30
0.0
 11
307.134981545061
 21
-161.281042889121
 31
0.0
  0
LINE
  5
212
330
1F
100
AcDbEntity
  8
1
  6
Continuous
 62
     4
100
AcDbLine
 10
307.884981545061
 20
-160.906042889121
 30
0.0
 11
307.509981545061
 21
-161.156042889121
 31
0.0
  0
LINE
  5
213
330
1F
100
AcDbEntity
  8
1
  6
Continuous
 62
     4
100
AcDbLine
 10
308.134981545061
 20
-160.531042889121
 30
0.0
 11
307.884981545061
 21
-160.906042889121
 31
0.0
  0
LINE
  5
214
330
1F
100
AcDbEntity
  8
1
  6
Continuous
 62
     4
100
AcDbLine
 10
308.259981545061
 20
-160.031042889121
 30
0.0
 11
308.134981545061
 21
-160.531042889121
 31
0.0
  0
LINE
  5
215
330
1F
100
AcDbEntity
  8
1
  6
Continuous
 62
     4
100
AcDbLine
 10
308.259981545061
 20
-159.281042889121
 30
0.0
 11
308.259981545061
 21
-160.031042889121
 31
0.0
  0
LINE
  5
216
330
1F
100
AcDbEntity
  8
1
  6
Continuous
 62
     4
100
AcDbLine
 10
308.134981545061
 20
-158.781042889121
 30
0.0
 11
308.259981545061
 21
-159.281042889121
 31
0.0
  0
LINE
  5
217
330
1F
100
AcDbEntity
  8
1
  6
Continuous
 62
     4
100
AcDbLine
 10
307.759981545061
 20
-158.406042889121
 30
0.0
 11
308.134981545061
 21
-158.781042889121
 31
0.0
  0
LINE
  5
218
330
1F
100
AcDbEntity
  8
1
  6
Continuous
 62
     4
100
AcDbLine
 10
307.134981545061
 20
-158.281042889121
 30
0.0
 11
307.759981545061
 21
-158.406042889121
 31
0.0
  0
LINE
  5
219
330
1F
100
AcDbEntity
  8
1
  6
Continuous
 62
     4
100
AcDbLine
 10
305.259981545061
 20
-158.281042889121
 30
0.0
 11
307.134981545061
 21
-158.281042889121
 31
0.0
  0
LINE
  5
21A
330
1F
100
AcDbEntity
  8
1
  6
Continuous
 62
     4
100
AcDbLine
 10
305.259981545061
 20
-156.281042889121
 30
0.0
 11
305.259981545061
 21
-158.281042889121
 31
0.0
  0
LINE
  5
21B
330
1F
100
AcDbEntity
  8
1
  6
Continuous
 62
     4
100
AcDbLine
 10
308.009981545061
 20
-156.281042889121
 30
0.0
 11
305.259981545061
 21
-156.281042889121
 31
0.0
  0
LINE
  5
21C
330
1F
100
AcDbEntity
  8
1
  6
Continuous
 62
     4
100
AcDbLine
 10
303.884981545061
 20
-161.031042889121
 30
0.0
 11
303.884981545061
 21
-161.156042889121
 31
0.0
  0
LINE
  5
21D
330
1F
100
AcDbEntity
  8
1
  6
Continuous
 62
     4
100
AcDbLine
 10
303.759981545061
 20
-161.031042889121
 30
0.0
 11
303.884981545061
 21
-161.031042889121
 31
0.0
  0
LINE
  5
21E
330
1F
100
AcDbEntity
  8
1
  6
Continuous
 62
     4
100
AcDbLine
 10
303.759981545061
 20
-161.156042889121
 30
0.0
 11
303.759981545061
 21
-161.031042889121
 31
0.0
  0
LINE
  5
21F
330
1F
100
AcDbEntity
  8
1
  6
Continuous
 62
     4
100
AcDbLine
 10
303.884981545061
 20
-161.156042889121
 30
0.0
 11
303.759981545061
 21
-161.156042889121
 31
0.0
  0
LINE
  5
220
330
1F
100
AcDbEntity
  8
1
  6
Continuous
 62
     4
100
AcDbLine
 10
304.009981545061
 20
-160.906042889121
 30
0.0
 11
304.009981545061
 21
-161.281042889121
 31
0.0
  0
LINE
  5
221
330
1F
100
AcDbEntity
  8
1
  6
Continuous
 62
     4
100
AcDbLine
 10
303.634981545061
 20
-160.906042889121
 30
0.0
 11
304.009981545061
 21
-160.906042889121
 31
0.0
  0
LINE
  5
222
330
1F
100
AcDbEntity
  8
1
  6
Continuous
 62
     4
100
AcDbLine
 10
303.634981545061
 20
-161.281042889121
 30
0.0
 11
303.634981545061
 21
-160.906042889121
 31
0.0
  0
LINE
  5
223
330
1F
100
AcDbEntity
  8
1
  6
Continuous
 62
     4
100
AcDbLine
 10
304.009981545061
 20
-161.281042889121
 30
0.0
 11
303.634981545061
 21
-161.281042889121
 31
0.0
  0
LINE
  5
224
330
1F
100
AcDbEntity
  8
1
  6
Continuous
 62
     4
100
AcDbLine
 10
302.134981545061
 20
-158.156042889121
 30
0.0
 11
302.134981545061
 21
-159.406042889121
 31
0.0
  0
LINE
  5
225
330
1F
100
AcDbEntity
  8
1
  6
Continuous
 62
     4
100
AcDbLine
 10
302.009981545061
 20
-157.406042889121
 30
0.0
 11
302.134981545061
 21
-158.156042889121
 31
0.0
  0
LINE
  5
226
330
1F
100
AcDbEntity
  8
1
  6
Continuous
 62
     4
100
AcDbLine
 10
301.759981545061
 20
-156.906042889121
 30
0.0
 11
302.009981545061
 21
-157.406042889121
 31
0.0
  0
LINE
  5
227
330
1F
100
AcDbEntity
  8
1
  6
Continuous
 62
     4
100
AcDbLine
 10
301.509981545061
 20
-156.656042889121
 30
0.0
 11
301.759981545061
 21
-156.906042889121
 31
0.0
  0
LINE
  5
228
330
1F
100
AcDbEntity
  8
1
  6
Continuous
 62
     4
100
AcDbLine
 10
301.134981545061
 20
-156.406042889121
 30
0.0
 11
301.509981545061
 21
-156.656042889121
 31
0.0
  0
LINE
  5
229
330
1F
100
AcDbEntity
  8
1
  6
Continuous
 62
     4
100
AcDbLine
 10
300.759981545061
 20
-156.281042889121
 30
0.0
 11
301.134981545061
 21
-156.406042889121
 31
0.0
  0
LINE
  5
22A
330
1F
100
AcDbEntity
  8
1
  6
Continuous
 62
     4
100
AcDbLine
 10
300.509981545061
 20
-156.281042889121
 30
0.0
 11
300.759981545061
 21
-156.281042889121
 31
0.0
  0
LINE
  5
22B
330
1F
100
AcDbEntity
  8
1
  6
Continuous
 62
     4
100
AcDbLine
 10
300.134981545061
 20
-156.406042889121
 30
0.0
 11
300.509981545061
 21
-156.281042889121
 31
0.0
  0
LINE
  5
22C
330
1F
100
AcDbEntity
  8
1
  6
Continuous
 62
     4
100
AcDbLine
 10
299.759981545061
 20
-156.656042889121
 30
0.0
 11
300.134981545061
 21
-156.406042889121
 31
0.0
  0
LINE
  5
22D
330
1F
100
AcDbEntity
  8
1
  6
Continuous
 62
     4
100
AcDbLine
 10
299.509981545061
 20
-156.906042889121
 30
0.0
 11
299.759981545061
 21
-156.656042889121
 31
0.0
  0
LINE
  5
22E
330
1F
100
AcDbEntity
  8
1
  6
Continuous
 62
     4
100
AcDbLine
 10
299.259981545061
 20
-157.406042889121
 30
0.0
 11
299.509981545061
 21
-156.906042889121
 31
0.0
  0
LINE
  5
22F
330
1F
100
AcDbEntity
  8
1
  6
Continuous
 62
     4
100
AcDbLine
 10
299.134981545061
 20
-158.156042889121
 30
0.0
 11
299.259981545061
 21
-157.406042889121
 31
0.0
  0
LINE
  5
230
330
1F
100
AcDbEntity
  8
1
  6
Continuous
 62
     4
100
AcDbLine
 10
299.134981545061
 20
-159.406042889121
 30
0.0
 11
299.134981545061
 21
-158.156042889121
 31
0.0
  0
LINE
  5
231
330
1F
100
AcDbEntity
  8
1
  6
Continuous
 62
     4
100
AcDbLine
 10
299.259981545061
 20
-160.156042889121
 30
0.0
 11
299.134981545061
 21
-159.406042889121
 31
0.0
  0
LINE
  5
232
330
1F
100
AcDbEntity
  8
1
  6
Continuous
 62
     4
100
AcDbLine
 10
299.509981545061
 20
-160.656042889121
 30
0.0
 11
299.259981545061
 21
-160.156042889121
 31
0.0
  0
LINE
  5
233
330
1F
100
AcDbEntity
  8
1
  6
Continuous
 62
     4
100
AcDbLine
 10
299.759981545061
 20
-160.906042889121
 30
0.0
 11
299.509981545061
 21
-160.656042889121
 31
0.0
  0
LINE
  5
234
330
1F
100
AcDbEntity
  8
1
  6
Continuous
 62
     4
100
AcDbLine
 10
300.134981545061
 20
-161.156042889121
 30
0.0
 11
299.759981545061
 21
-160.906042889121
 31
0.0
  0
LINE
  5
235
330
1F
100
AcDbEntity
  8
1
  6
Continuous
 62
     4
100
AcDbLine
 10
300.509981545061
 20
-161.281042889121
 30
0.0
 11
300.134981545061
 21
-161.156042889121
 31
0.0
  0
LINE
  5
236
330
1F
100
AcDbEntity
  8
1
  6
Continuous
 62
     4
100
AcDbLine
 10
300.759981545061
 20
-161.281042889121
 30
0.0
 11
300.509981545061
 21
-161.281042889121
 31
0.0
  0
LINE
  5
237
330
1F
100
AcDbEntity
  8
1
  6
Continuous
 62
     4
100
AcDbLine
 10
301.134981545061
 20
-161.156042889121
 30
0.0
 11
300.759981545061
 21
-161.281042889121
 31
0.0
  0
LINE
  5
238
330
1F
100
AcDbEntity
  8
1
  6
Continuous
 62
     4
100
AcDbLine
 10
301.509981545061
 20
-160.906042889121
 30
0.0
 11
301.134981545061
 21
-161.156042889121
 31
0.0
  0
LINE
  5
239
330
1F
100
AcDbEntity
  8
1
  6
Continuous
 62
     4
100
AcDbLine
 10
301.759981545061
 20
-160.656042889121
 30
0.0
 11
301.509981545061
 21
-160.906042889121
 31
0.0
  0
LINE
  5
23A
330
1F
100
AcDbEntity
  8
1
  6
Continuous
 62
     4
100
AcDbLine
 10
302.009981545061
 20
-160.156042889121
 30
0.0
 11
301.759981545061
 21
-160.656042889121
 31
0.0
  0
LINE
  5
23B
330
1F
100
AcDbEntity
  8
1
  6
Continuous
 62
     4
100
AcDbLine
 10
302.134981545061
 20
-159.406042889121
 30
0.0
 11
302.009981545061
 21
-160.156042889121
 31
0.0
  0
LINE
  5
23C
330
1F
100
AcDbEntity
  8
1
  6
Continuous
 62
     4
100
AcDbLine
 10
335.634981545061
 20
-152.951042889121
 30
0.0
 11
333.759981545061
 21
-152.951042889121
 31
0.0
  0
LINE
  5
23D
330
1F
100
AcDbEntity
  8
1
  6
Continuous
 62
     4
100
AcDbLine
 10
336.009981545061
 20
-152.826042889121
 30
0.0
 11
335.634981545061
 21
-152.951042889121
 31
0.0
  0
LINE
  5
23E
330
1F
100
AcDbEntity
  8
1
  6
Continuous
 62
     4
100
AcDbLine
 10
336.384981545061
 20
-152.576042889121
 30
0.0
 11
336.009981545061
 21
-152.826042889121
 31
0.0
  0
LINE
  5
23F
330
1F
100
AcDbEntity
  8
1
  6
Continuous
 62
     4
100
AcDbLine
 10
336.634981545061
 20
-152.201042889121
 30
0.0
 11
336.384981545061
 21
-152.576042889121
 31
0.0
  0
LINE
  5
240
330
1F
100
AcDbEntity
  8
1
  6
Continuous
 62
     4
100
AcDbLine
 10
336.759981545061
 20
-151.701042889121
 30
0.0
 11
336.634981545061
 21
-152.201042889121
 31
0.0
  0
LINE
  5
241
330
1F
100
AcDbEntity
  8
1
  6
Continuous
 62
     4
100
AcDbLine
 10
336.759981545061
 20
-150.951042889121
 30
0.0
 11
336.759981545061
 21
-151.701042889121
 31
0.0
  0
LINE
  5
242
330
1F
100
AcDbEntity
  8
1
  6
Continuous
 62
     4
100
AcDbLine
 10
336.634981545061
 20
-150.451042889121
 30
0.0
 11
336.759981545061
 21
-150.951042889121
 31
0.0
  0
LINE
  5
243
330
1F
100
AcDbEntity
  8
1
  6
Continuous
 62
     4
100
AcDbLine
 10
336.259981545061
 20
-150.076042889121
 30
0.0
 11
336.634981545061
 21
-150.451042889121
 31
0.0
  0
LINE
  5
244
330
1F
100
AcDbEntity
  8
1
  6
Continuous
 62
     4
100
AcDbLine
 10
335.634981545061
 20
-149.951042889121
 30
0.0
 11
336.259981545061
 21
-150.076042889121
 31
0.0
  0
LINE
  5
245
330
1F
100
AcDbEntity
  8
1
  6
Continuous
 62
     4
100
AcDbLine
 10
333.759981545061
 20
-149.951042889121
 30
0.0
 11
335.634981545061
 21
-149.951042889121
 31
0.0
  0
LINE
  5
246
330
1F
100
AcDbEntity
  8
1
  6
Continuous
 62
     4
100
AcDbLine
 10
333.759981545061
 20
-147.951042889121
 30
0.0
 11
333.759981545061
 21
-149.951042889121
 31
0.0
  0
LINE
  5
247
330
1F
100
AcDbEntity
  8
1
  6
Continuous
 62
     4
100
AcDbLine
 10
336.509981545061
 20
-147.951042889121
 30
0.0
 11
333.759981545061
 21
-147.951042889121
 31
0.0
  0
LINE
  5
248
330
1F
100
AcDbEntity
  8
1
  6
Continuous
 62
     4
100
AcDbLine
 10
330.759981545061
 20
-152.451042889121
 30
0.0
 11
329.634981545061
 21
-152.951042889121
 31
0.0
  0
LINE
  5
249
330
1F
100
AcDbEntity
  8
1
  6
Continuous
 62
     4
100
AcDbLine
 10
331.634981545061
 20
-151.701042889121
 30
0.0
 11
330.759981545061
 21
-152.451042889121
 31
0.0
  0
LINE
  5
24A
330
1F
100
AcDbEntity
  8
1
  6
Continuous
 62
     4
100
AcDbLine
 10
332.009981545061
 20
-151.201042889121
 30
0.0
 11
331.634981545061
 21
-151.701042889121
 31
0.0
  0
LINE
  5
24B
330
1F
100
AcDbEntity
  8
1
  6
Continuous
 62
     4
100
AcDbLine
 10
332.134981545061
 20
-150.701042889121
 30
0.0
 11
332.009981545061
 21
-151.201042889121
 31
0.0
  0
LINE
  5
24C
330
1F
100
AcDbEntity
  8
1
  6
Continuous
 62
     4
100
AcDbLine
 10
332.259981545061
 20
-150.076042889121
 30
0.0
 11
332.134981545061
 21
-150.701042889121
 31
0.0
  0
LINE
  5
24D
330
1F
100
AcDbEntity
  8
1
  6
Continuous
 62
     4
100
AcDbLine
 10
332.259981545061
 20
-149.201042889121
 30
0.0
 11
332.259981545061
 21
-150.076042889121
 31
0.0
  0
LINE
  5
24E
330
1F
100
AcDbEntity
  8
1
  6
Continuous
 62
     4
100
AcDbLine
 10
332.134981545061
 20
-148.701042889121
 30
0.0
 11
332.259981545061
 21
-149.201042889121
 31
0.0
  0
LINE
  5
24F
330
1F
100
AcDbEntity
  8
1
  6
Continuous
 62
     4
100
AcDbLine
 10
331.884981545061
 20
-148.326042889121
 30
0.0
 11
332.134981545061
 21
-148.701042889121
 31
0.0
  0
LINE
  5
250
330
1F
100
AcDbEntity
  8
1
  6
Continuous
 62
     4
100
AcDbLine
 10
331.509981545061
 20
-148.076042889121
 30
0.0
 11
331.884981545061
 21
-148.326042889121
 31
0.0
  0
LINE
  5
251
330
1F
100
AcDbEntity
  8
1
  6
Continuous
 62
     4
100
AcDbLine
 10
331.134981545061
 20
-147.951042889121
 30
0.0
 11
331.509981545061
 21
-148.076042889121
 31
0.0
  0
LINE
  5
252
330
1F
100
AcDbEntity
  8
1
  6
Continuous
 62
     4
100
AcDbLine
 10
330.384981545061
 20
-147.951042889121
 30
0.0
 11
331.134981545061
 21
-147.951042889121
 31
0.0
  0
LINE
  5
253
330
1F
100
AcDbEntity
  8
1
  6
Continuous
 62
     4
100
AcDbLine
 10
330.009981545061
 20
-148.076042889121
 30
0.0
 11
330.384981545061
 21
-147.951042889121
 31
0.0
  0
LINE
  5
254
330
1F
100
AcDbEntity
  8
1
  6
Continuous
 62
     4
100
AcDbLine
 10
329.634981545061
 20
-148.326042889121
 30
0.0
 11
330.009981545061
 21
-148.076042889121
 31
0.0
  0
LINE
  5
255
330
1F
100
AcDbEntity
  8
1
  6
Continuous
 62
     4
100
AcDbLine
 10
329.384981545061
 20
-148.701042889121
 30
0.0
 11
329.634981545061
 21
-148.326042889121
 31
0.0
  0
LINE
  5
256
330
1F
100
AcDbEntity
  8
1
  6
Continuous
 62
     4
100
AcDbLine
 10
329.259981545061
 20
-149.201042889121
 30
0.0
 11
329.384981545061
 21
-148.701042889121
 31
0.0
  0
LINE
  5
257
330
1F
100
AcDbEntity
  8
1
  6
Continuous
 62
     4
100
AcDbLine
 10
329.259981545061
 20
-149.451042889121
 30
0.0
 11
329.259981545061
 21
-149.201042889121
 31
0.0
  0
LINE
  5
258
330
1F
100
AcDbEntity
  8
1
  6
Continuous
 62
     4
100
AcDbLine
 10
329.384981545061
 20
-149.951042889121
 30
0.0
 11
329.259981545061
 21
-149.451042889121
 31
0.0
  0
LINE
  5
259
330
1F
100
AcDbEntity
  8
1
  6
Continuous
 62
     4
100
AcDbLine
 10
329.634981545061
 20
-150.326042889121
 30
0.0
 11
329.384981545061
 21
-149.951042889121
 31
0.0
  0
LINE
  5
25A
330
1F
100
AcDbEntity
  8
1
  6
Continuous
 62
     4
100
AcDbLine
 10
330.009981545061
 20
-150.576042889121
 30
0.0
 11
329.634981545061
 21
-150.326042889121
 31
0.0
  0
LINE
  5
25B
330
1F
100
AcDbEntity
  8
1
  6
Continuous
 62
     4
100
AcDbLine
 10
330.384981545061
 20
-150.701042889121
 30
0.0
 11
330.009981545061
 21
-150.576042889121
 31
0.0
  0
LINE
  5
25C
330
1F
100
AcDbEntity
  8
1
  6
Continuous
 62
     4
100
AcDbLine
 10
332.134981545061
 20
-150.701042889121
 30
0.0
 11
330.384981545061
 21
-150.701042889121
 31
0.0
  0
LINE
  5
25D
330
1F
100
AcDbEntity
  8
1
  6
Continuous
 62
     4
100
AcDbLine
 10
326.634981545061
 20
-152.951042889121
 30
0.0
 11
324.759981545061
 21
-152.951042889121
 31
0.0
  0
LINE
  5
25E
330
1F
100
AcDbEntity
  8
1
  6
Continuous
 62
     4
100
AcDbLine
 10
327.009981545061
 20
-152.826042889121
 30
0.0
 11
326.634981545061
 21
-152.951042889121
 31
0.0
  0
LINE
  5
25F
330
1F
100
AcDbEntity
  8
1
  6
Continuous
 62
     4
100
AcDbLine
 10
327.384981545061
 20
-152.576042889121
 30
0.0
 11
327.009981545061
 21
-152.826042889121
 31
0.0
  0
LINE
  5
260
330
1F
100
AcDbEntity
  8
1
  6
Continuous
 62
     4
100
AcDbLine
 10
327.634981545061
 20
-152.201042889121
 30
0.0
 11
327.384981545061
 21
-152.576042889121
 31
0.0
  0
LINE
  5
261
330
1F
100
AcDbEntity
  8
1
  6
Continuous
 62
     4
100
AcDbLine
 10
327.759981545061
 20
-151.701042889121
 30
0.0
 11
327.634981545061
 21
-152.201042889121
 31
0.0
  0
LINE
  5
262
330
1F
100
AcDbEntity
  8
1
  6
Continuous
 62
     4
100
AcDbLine
 10
327.759981545061
 20
-151.076042889121
 30
0.0
 11
327.759981545061
 21
-151.701042889121
 31
0.0
  0
LINE
  5
263
330
1F
100
AcDbEntity
  8
1
  6
Continuous
 62
     4
100
AcDbLine
 10
327.634981545061
 20
-150.576042889121
 30
0.0
 11
327.759981545061
 21
-151.076042889121
 31
0.0
  0
LINE
  5
264
330
1F
100
AcDbEntity
  8
1
  6
Continuous
 62
     4
100
AcDbLine
 10
327.509981545061
 20
-150.326042889121
 30
0.0
 11
327.634981545061
 21
-150.576042889121
 31
0.0
  0
LINE
  5
265
330
1F
100
AcDbEntity
  8
1
  6
Continuous
 62
     4
100
AcDbLine
 10
327.259981545061
 20
-150.076042889121
 30
0.0
 11
327.509981545061
 21
-150.326042889121
 31
0.0
  0
LINE
  5
266
330
1F
100
AcDbEntity
  8
1
  6
Continuous
 62
     4
100
AcDbLine
 10
326.759981545061
 20
-149.951042889121
 30
0.0
 11
327.259981545061
 21
-150.076042889121
 31
0.0
  0
LINE
  5
267
330
1F
100
AcDbEntity
  8
1
  6
Continuous
 62
     4
100
AcDbLine
 10
327.134981545061
 20
-149.826042889121
 30
0.0
 11
326.759981545061
 21
-149.951042889121
 31
0.0
  0
LINE
  5
268
330
1F
100
AcDbEntity
  8
1
  6
Continuous
 62
     4
100
AcDbLine
 10
327.384981545061
 20
-149.701042889121
 30
0.0
 11
327.134981545061
 21
-149.826042889121
 31
0.0
  0
LINE
  5
269
330
1F
100
AcDbEntity
  8
1
  6
Continuous
 62
     4
100
AcDbLine
 10
327.634981545061
 20
-149.451042889121
 30
0.0
 11
327.384981545061
 21
-149.701042889121
 31
0.0
  0
LINE
  5
26A
330
1F
100
AcDbEntity
  8
1
  6
Continuous
 62
     4
100
AcDbLine
 10
327.759981545061
 20
-149.076042889121
 30
0.0
 11
327.634981545061
 21
-149.451042889121
 31
0.0
  0
LINE
  5
26B
330
1F
100
AcDbEntity
  8
1
  6
Continuous
 62
     4
100
AcDbLine
 10
327.759981545061
 20
-148.701042889121
 30
0.0
 11
327.759981545061
 21
-149.076042889121
 31
0.0
  0
LINE
  5
26C
330
1F
100
AcDbEntity
  8
1
  6
Continuous
 62
     4
100
AcDbLine
 10
327.634981545061
 20
-148.326042889121
 30
0.0
 11
327.759981545061
 21
-148.701042889121
 31
0.0
  0
LINE
  5
26D
330
1F
100
AcDbEntity
  8
1
  6
Continuous
 62
     4
100
AcDbLine
 10
327.259981545061
 20
-148.076042889121
 30
0.0
 11
327.634981545061
 21
-148.326042889121
 31
0.0
  0
LINE
  5
26E
330
1F
100
AcDbEntity
  8
1
  6
Continuous
 62
     4
100
AcDbLine
 10
326.634981545061
 20
-147.951042889121
 30
0.0
 11
327.259981545061
 21
-148.076042889121
 31
0.0
  0
LINE
  5
26F
330
1F
100
AcDbEntity
  8
1
  6
Continuous
 62
     4
100
AcDbLine
 10
324.759981545061
 20
-147.951042889121
 30
0.0
 11
326.634981545061
 21
-147.951042889121
 31
0.0
  0
LINE
  5
270
330
1F
100
AcDbEntity
  8
1
  6
Continuous
 62
     4
100
AcDbLine
 10
325.509981545061
 20
-149.951042889121
 30
0.0
 11
326.759981545061
 21
-149.951042889121
 31
0.0
  0
LINE
  5
271
330
1F
100
AcDbEntity
  8
1
  6
Continuous
 62
     4
100
AcDbLine
 10
307.509981545061
 20
-150.951042889121
 30
0.0
 11
307.509981545061
 21
-152.951042889121
 31
0.0
  0
LINE
  5
272
330
1F
100
AcDbEntity
  8
1
  6
Continuous
 62
     4
100
AcDbLine
 10
305.259981545061
 20
-151.951042889121
 30
0.0
 11
308.259981545061
 21
-151.951042889121
 31
0.0
  0
LINE
  5
273
330
1F
100
AcDbEntity
  8
1
  6
Continuous
 62
     4
100
AcDbLine
 10
307.509981545061
 20
-147.951042889121
 30
0.0
 11
305.259981545061
 21
-151.951042889121
 31
0.0
  0
LINE
  5
274
330
1F
100
AcDbEntity
  8
1
  6
Continuous
 62
     4
100
AcDbLine
 10
303.884981545061
 20
-152.701042889121
 30
0.0
 11
303.884981545061
 21
-152.826042889121
 31
0.0
  0
LINE
  5
275
330
1F
100
AcDbEntity
  8
1
  6
Continuous
 62
     4
100
AcDbLine
 10
303.759981545061
 20
-152.701042889121
 30
0.0
 11
303.884981545061
 21
-152.701042889121
 31
0.0
  0
LINE
  5
276
330
1F
100
AcDbEntity
  8
1
  6
Continuous
 62
     4
100
AcDbLine
 10
303.759981545061
 20
-152.826042889121
 30
0.0
 11
303.759981545061
 21
-152.701042889121
 31
0.0
  0
LINE
  5
277
330
1F
100
AcDbEntity
  8
1
  6
Continuous
 62
     4
100
AcDbLine
 10
303.884981545061
 20
-152.826042889121
 30
0.0
 11
303.759981545061
 21
-152.826042889121
 31
0.0
  0
LINE
  5
278
330
1F
100
AcDbEntity
  8
1
  6
Continuous
 62
     4
100
AcDbLine
 10
304.009981545061
 20
-152.576042889121
 30
0.0
 11
304.009981545061
 21
-152.951042889121
 31
0.0
  0
LINE
  5
279
330
1F
100
AcDbEntity
  8
1
  6
Continuous
 62
     4
100
AcDbLine
 10
303.634981545061
 20
-152.576042889121
 30
0.0
 11
304.009981545061
 21
-152.576042889121
 31
0.0
  0
LINE
  5
27A
330
1F
100
AcDbEntity
  8
1
  6
Continuous
 62
     4
100
AcDbLine
 10
303.634981545061
 20
-152.951042889121
 30
0.0
 11
303.634981545061
 21
-152.576042889121
 31
0.0
  0
LINE
  5
27B
330
1F
100
AcDbEntity
  8
1
  6
Continuous
 62
     4
100
AcDbLine
 10
304.009981545061
 20
-152.951042889121
 30
0.0
 11
303.634981545061
 21
-152.951042889121
 31
0.0
  0
LINE
  5
27C
330
1F
100
AcDbEntity
  8
1
  6
Continuous
 62
     4
100
AcDbLine
 10
302.134981545061
 20
-149.826042889121
 30
0.0
 11
302.134981545061
 21
-151.076042889121
 31
0.0
  0
LINE
  5
27D
330
1F
100
AcDbEntity
  8
1
  6
Continuous
 62
     4
100
AcDbLine
 10
302.009981545061
 20
-149.076042889121
 30
0.0
 11
302.134981545061
 21
-149.826042889121
 31
0.0
  0
LINE
  5
27E
330
1F
100
AcDbEntity
  8
1
  6
Continuous
 62
     4
100
AcDbLine
 10
301.759981545061
 20
-148.576042889121
 30
0.0
 11
302.009981545061
 21
-149.076042889121
 31
0.0
  0
LINE
  5
27F
330
1F
100
AcDbEntity
  8
1
  6
Continuous
 62
     4
100
AcDbLine
 10
301.509981545061
 20
-148.326042889121
 30
0.0
 11
301.759981545061
 21
-148.576042889121
 31
0.0
  0
LINE
  5
280
330
1F
100
AcDbEntity
  8
1
  6
Continuous
 62
     4
100
AcDbLine
 10
301.134981545061
 20
-148.076042889121
 30
0.0
 11
301.509981545061
 21
-148.326042889121
 31
0.0
  0
LINE
  5
281
330
1F
100
AcDbEntity
  8
1
  6
Continuous
 62
     4
100
AcDbLine
 10
300.759981545061
 20
-147.951042889121
 30
0.0
 11
301.134981545061
 21
-148.076042889121
 31
0.0
  0
LINE
  5
282
330
1F
100
AcDbEntity
  8
1
  6
Continuous
 62
     4
100
AcDbLine
 10
300.509981545061
 20
-147.951042889121
 30
0.0
 11
300.759981545061
 21
-147.951042889121
 31
0.0
  0
LINE
  5
283
330
1F
100
AcDbEntity
  8
1
  6
Continuous
 62
     4
100
AcDbLine
 10
300.134981545061
 20
-148.076042889121
 30
0.0
 11
300.509981545061
 21
-147.951042889121
 31
0.0
  0
LINE
  5
284
330
1F
100
AcDbEntity
  8
1
  6
Continuous
 62
     4
100
AcDbLine
 10
299.759981545061
 20
-148.326042889121
 30
0.0
 11
300.134981545061
 21
-148.076042889121
 31
0.0
  0
LINE
  5
285
330
1F
100
AcDbEntity
  8
1
  6
Continuous
 62
     4
100
AcDbLine
 10
299.509981545061
 20
-148.576042889121
 30
0.0
 11
299.759981545061
 21
-148.326042889121
 31
0.0
  0
LINE
  5
286
330
1F
100
AcDbEntity
  8
1
  6
Continuous
 62
     4
100
AcDbLine
 10
299.259981545061
 20
-149.076042889121
 30
0.0
 11
299.509981545061
 21
-148.576042889121
 31
0.0
  0
LINE
  5
287
330
1F
100
AcDbEntity
  8
1
  6
Continuous
 62
     4
100
AcDbLine
 10
299.134981545061
 20
-149.826042889121
 30
0.0
 11
299.259981545061
 21
-149.076042889121
 31
0.0
  0
LINE
  5
288
330
1F
100
AcDbEntity
  8
1
  6
Continuous
 62
     4
100
AcDbLine
 10
299.134981545061
 20
-151.076042889121
 30
0.0
 11
299.134981545061
 21
-149.826042889121
 31
0.0
  0
LINE
  5
289
330
1F
100
AcDbEntity
  8
1
  6
Continuous
 62
     4
100
AcDbLine
 10
299.259981545061
 20
-151.826042889121
 30
0.0
 11
299.134981545061
 21
-151.076042889121
 31
0.0
  0
LINE
  5
28A
330
1F
100
AcDbEntity
  8
1
  6
Continuous
 62
     4
100
AcDbLine
 10
299.509981545061
 20
-152.326042889121
 30
0.0
 11
299.259981545061
 21
-151.826042889121
 31
0.0
  0
LINE
  5
28B
330
1F
100
AcDbEntity
  8
1
  6
Continuous
 62
     4
100
AcDbLine
 10
299.759981545061
 20
-152.576042889121
 30
0.0
 11
299.509981545061
 21
-152.326042889121
 31
0.0
  0
LINE
  5
28C
330
1F
100
AcDbEntity
  8
1
  6
Continuous
 62
     4
100
AcDbLine
 10
300.134981545061
 20
-152.826042889121
 30
0.0
 11
299.759981545061
 21
-152.576042889121
 31
0.0
  0
LINE
  5
28D
330
1F
100
AcDbEntity
  8
1
  6
Continuous
 62
     4
100
AcDbLine
 10
300.509981545061
 20
-152.951042889121
 30
0.0
 11
300.134981545061
 21
-152.826042889121
 31
0.0
  0
LINE
  5
28E
330
1F
100
AcDbEntity
  8
1
  6
Continuous
 62
     4
100
AcDbLine
 10
300.759981545061
 20
-152.951042889121
 30
0.0
 11
300.509981545061
 21
-152.951042889121
 31
0.0
  0
LINE
  5
28F
330
1F
100
AcDbEntity
  8
1
  6
Continuous
 62
     4
100
AcDbLine
 10
301.134981545061
 20
-152.826042889121
 30
0.0
 11
300.759981545061
 21
-152.951042889121
 31
0.0
  0
LINE
  5
290
330
1F
100
AcDbEntity
  8
1
  6
Continuous
 62
     4
100
AcDbLine
 10
301.509981545061
 20
-152.576042889121
 30
0.0
 11
301.134981545061
 21
-152.826042889121
 31
0.0
  0
LINE
  5
291
330
1F
100
AcDbEntity
  8
1
  6
Continuous
 62
     4
100
AcDbLine
 10
301.759981545061
 20
-152.326042889121
 30
0.0
 11
301.509981545061
 21
-152.576042889121
 31
0.0
  0
LINE
  5
292
330
1F
100
AcDbEntity
  8
1
  6
Continuous
 62
     4
100
AcDbLine
 10
302.009981545061
 20
-151.826042889121
 30
0.0
 11
301.759981545061
 21
-152.326042889121
 31
0.0
  0
LINE
  5
293
330
1F
100
AcDbEntity
  8
1
  6
Continuous
 62
     4
100
AcDbLine
 10
302.134981545061
 20
-151.076042889121
 30
0.0
 11
302.009981545061
 21
-151.826042889121
 31
0.0
  0
LINE
  5
294
330
1F
100
AcDbEntity
  8
1
  6
Continuous
 62
     4
100
AcDbLine
 10
335.634981545061
 20
-144.621042889121
 30
0.0
 11
333.759981545061
 21
-144.621042889121
 31
0.0
  0
LINE
  5
295
330
1F
100
AcDbEntity
  8
1
  6
Continuous
 62
     4
100
AcDbLine
 10
336.009981545061
 20
-144.496042889121
 30
0.0
 11
335.634981545061
 21
-144.621042889121
 31
0.0
  0
LINE
  5
296
330
1F
100
AcDbEntity
  8
1
  6
Continuous
 62
     4
100
AcDbLine
 10
336.384981545061
 20
-144.246042889121
 30
0.0
 11
336.009981545061
 21
-144.496042889121
 31
0.0
  0
LINE
  5
297
330
1F
100
AcDbEntity
  8
1
  6
Continuous
 62
     4
100
AcDbLine
 10
336.634981545061
 20
-143.871042889121
 30
0.0
 11
336.384981545061
 21
-144.246042889121
 31
0.0
  0
LINE
  5
298
330
1F
100
AcDbEntity
  8
1
  6
Continuous
 62
     4
100
AcDbLine
 10
336.759981545061
 20
-143.371042889121
 30
0.0
 11
336.634981545061
 21
-143.871042889121
 31
0.0
  0
LINE
  5
299
330
1F
100
AcDbEntity
  8
1
  6
Continuous
 62
     4
100
AcDbLine
 10
336.759981545061
 20
-142.621042889121
 30
0.0
 11
336.759981545061
 21
-143.371042889121
 31
0.0
  0
LINE
  5
29A
330
1F
100
AcDbEntity
  8
1
  6
Continuous
 62
     4
100
AcDbLine
 10
336.634981545061
 20
-142.121042889121
 30
0.0
 11
336.759981545061
 21
-142.621042889121
 31
0.0
  0
LINE
  5
29B
330
1F
100
AcDbEntity
  8
1
  6
Continuous
 62
     4
100
AcDbLine
 10
336.259981545061
 20
-141.746042889121
 30
0.0
 11
336.634981545061
 21
-142.121042889121
 31
0.0
  0
LINE
  5
29C
330
1F
100
AcDbEntity
  8
1
  6
Continuous
 62
     4
100
AcDbLine
 10
335.634981545061
 20
-141.621042889121
 30
0.0
 11
336.259981545061
 21
-141.746042889121
 31
0.0
  0
LINE
  5
29D
330
1F
100
AcDbEntity
  8
1
  6
Continuous
 62
     4
100
AcDbLine
 10
333.759981545061
 20
-141.621042889121
 30
0.0
 11
335.634981545061
 21
-141.621042889121
 31
0.0
  0
LINE
  5
29E
330
1F
100
AcDbEntity
  8
1
  6
Continuous
 62
     4
100
AcDbLine
 10
333.759981545061
 20
-139.621042889121
 30
0.0
 11
333.759981545061
 21
-141.621042889121
 31
0.0
  0
LINE
  5
29F
330
1F
100
AcDbEntity
  8
1
  6
Continuous
 62
     4
100
AcDbLine
 10
336.509981545061
 20
-139.621042889121
 30
0.0
 11
333.759981545061
 21
-139.621042889121
 31
0.0
  0
LINE
  5
2A0
330
1F
100
AcDbEntity
  8
1
  6
Continuous
 62
     4
100
AcDbLine
 10
330.759981545061
 20
-144.121042889121
 30
0.0
 11
329.634981545061
 21
-144.621042889121
 31
0.0
  0
LINE
  5
2A1
330
1F
100
AcDbEntity
  8
1
  6
Continuous
 62
     4
100
AcDbLine
 10
331.634981545061
 20
-143.371042889121
 30
0.0
 11
330.759981545061
 21
-144.121042889121
 31
0.0
  0
LINE
  5
2A2
330
1F
100
AcDbEntity
  8
1
  6
Continuous
 62
     4
100
AcDbLine
 10
332.009981545061
 20
-142.871042889121
 30
0.0
 11
331.634981545061
 21
-143.371042889121
 31
0.0
  0
LINE
  5
2A3
330
1F
100
AcDbEntity
  8
1
  6
Continuous
 62
     4
100
AcDbLine
 10
332.134981545061
 20
-142.371042889121
 30
0.0
 11
332.009981545061
 21
-142.871042889121
 31
0.0
  0
LINE
  5
2A4
330
1F
100
AcDbEntity
  8
1
  6
Continuous
 62
     4
100
AcDbLine
 10
332.259981545061
 20
-141.746042889121
 30
0.0
 11
332.134981545061
 21
-142.371042889121
 31
0.0
  0
LINE
  5
2A5
330
1F
100
AcDbEntity
  8
1
  6
Continuous
 62
     4
100
AcDbLine
 10
332.259981545061
 20
-140.871042889121
 30
0.0
 11
332.259981545061
 21
-141.746042889121
 31
0.0
  0
LINE
  5
2A6
330
1F
100
AcDbEntity
  8
1
  6
Continuous
 62
     4
100
AcDbLine
 10
332.134981545061
 20
-140.371042889121
 30
0.0
 11
332.259981545061
 21
-140.871042889121
 31
0.0
  0
LINE
  5
2A7
330
1F
100
AcDbEntity
  8
1
  6
Continuous
 62
     4
100
AcDbLine
 10
331.884981545061
 20
-139.996042889121
 30
0.0
 11
332.134981545061
 21
-140.371042889121
 31
0.0
  0
LINE
  5
2A8
330
1F
100
AcDbEntity
  8
1
  6
Continuous
 62
     4
100
AcDbLine
 10
331.509981545061
 20
-139.746042889121
 30
0.0
 11
331.884981545061
 21
-139.996042889121
 31
0.0
  0
LINE
  5
2A9
330
1F
100
AcDbEntity
  8
1
  6
Continuous
 62
     4
100
AcDbLine
 10
331.134981545061
 20
-139.621042889121
 30
0.0
 11
331.509981545061
 21
-139.746042889121
 31
0.0
  0
LINE
  5
2AA
330
1F
100
AcDbEntity
  8
1
  6
Continuous
 62
     4
100
AcDbLine
 10
330.384981545061
 20
-139.621042889121
 30
0.0
 11
331.134981545061
 21
-139.621042889121
 31
0.0
  0
LINE
  5
2AB
330
1F
100
AcDbEntity
  8
1
  6
Continuous
 62
     4
100
AcDbLine
 10
330.009981545061
 20
-139.746042889121
 30
0.0
 11
330.384981545061
 21
-139.621042889121
 31
0.0
  0
LINE
  5
2AC
330
1F
100
AcDbEntity
  8
1
  6
Continuous
 62
     4
100
AcDbLine
 10
329.634981545061
 20
-139.996042889121
 30
0.0
 11
330.009981545061
 21
-139.746042889121
 31
0.0
  0
LINE
  5
2AD
330
1F
100
AcDbEntity
  8
1
  6
Continuous
 62
     4
100
AcDbLine
 10
329.384981545061
 20
-140.371042889121
 30
0.0
 11
329.634981545061
 21
-139.996042889121
 31
0.0
  0
LINE
  5
2AE
330
1F
100
AcDbEntity
  8
1
  6
Continuous
 62
     4
100
AcDbLine
 10
329.259981545061
 20
-140.871042889121
 30
0.0
 11
329.384981545061
 21
-140.371042889121
 31
0.0
  0
LINE
  5
2AF
330
1F
100
AcDbEntity
  8
1
  6
Continuous
 62
     4
100
AcDbLine
 10
329.259981545061
 20
-141.121042889121
 30
0.0
 11
329.259981545061
 21
-140.871042889121
 31
0.0
  0
LINE
  5
2B0
330
1F
100
AcDbEntity
  8
1
  6
Continuous
 62
     4
100
AcDbLine
 10
329.384981545061
 20
-141.621042889121
 30
0.0
 11
329.259981545061
 21
-141.121042889121
 31
0.0
  0
LINE
  5
2B1
330
1F
100
AcDbEntity
  8
1
  6
Continuous
 62
     4
100
AcDbLine
 10
329.634981545061
 20
-141.996042889121
 30
0.0
 11
329.384981545061
 21
-141.621042889121
 31
0.0
  0
LINE
  5
2B2
330
1F
100
AcDbEntity
  8
1
  6
Continuous
 62
     4
100
AcDbLine
 10
330.009981545061
 20
-142.246042889121
 30
0.0
 11
329.634981545061
 21
-141.996042889121
 31
0.0
  0
LINE
  5
2B3
330
1F
100
AcDbEntity
  8
1
  6
Continuous
 62
     4
100
AcDbLine
 10
330.384981545061
 20
-142.371042889121
 30
0.0
 11
330.009981545061
 21
-142.246042889121
 31
0.0
  0
LINE
  5
2B4
330
1F
100
AcDbEntity
  8
1
  6
Continuous
 62
     4
100
AcDbLine
 10
332.134981545061
 20
-142.371042889121
 30
0.0
 11
330.384981545061
 21
-142.371042889121
 31
0.0
  0
LINE
  5
2B5
330
1F
100
AcDbEntity
  8
1
  6
Continuous
 62
     4
100
AcDbLine
 10
324.759981545061
 20
-144.621042889121
 30
0.0
 11
327.759981545061
 21
-144.621042889121
 31
0.0
  0
LINE
  5
2B6
330
1F
100
AcDbEntity
  8
1
  6
Continuous
 62
     4
100
AcDbLine
 10
327.509981545061
 20
-141.371042889121
 30
0.0
 11
324.759981545061
 21
-144.621042889121
 31
0.0
  0
LINE
  5
2B7
330
1F
100
AcDbEntity
  8
1
  6
Continuous
 62
     4
100
AcDbLine
 10
327.759981545061
 20
-140.871042889121
 30
0.0
 11
327.509981545061
 21
-141.371042889121
 31
0.0
  0
LINE
  5
2B8
330
1F
100
AcDbEntity
  8
1
  6
Continuous
 62
     4
100
AcDbLine
 10
327.759981545061
 20
-140.371042889121
 30
0.0
 11
327.759981545061
 21
-140.871042889121
 31
0.0
  0
LINE
  5
2B9
330
1F
100
AcDbEntity
  8
1
  6
Continuous
 62
     4
100
AcDbLine
 10
327.509981545061
 20
-139.996042889121
 30
0.0
 11
327.759981545061
 21
-140.371042889121
 31
0.0
  0
LINE
  5
2BA
330
1F
100
AcDbEntity
  8
1
  6
Continuous
 62
     4
100
AcDbLine
 10
327.134981545061
 20
-139.746042889121
 30
0.0
 11
327.509981545061
 21
-139.996042889121
 31
0.0
  0
LINE
  5
2BB
330
1F
100
AcDbEntity
  8
1
  6
Continuous
 62
     4
100
AcDbLine
 10
326.634981545061
 20
-139.621042889121
 30
0.0
 11
327.134981545061
 21
-139.746042889121
 31
0.0
  0
LINE
  5
2BC
330
1F
100
AcDbEntity
  8
1
  6
Continuous
 62
     4
100
AcDbLine
 10
325.884981545061
 20
-139.621042889121
 30
0.0
 11
326.634981545061
 21
-139.621042889121
 31
0.0
  0
LINE
  5
2BD
330
1F
100
AcDbEntity
  8
1
  6
Continuous
 62
     4
100
AcDbLine
 10
325.384981545061
 20
-139.746042889121
 30
0.0
 11
325.884981545061
 21
-139.621042889121
 31
0.0
  0
LINE
  5
2BE
330
1F
100
AcDbEntity
  8
1
  6
Continuous
 62
     4
100
AcDbLine
 10
325.009981545061
 20
-139.996042889121
 30
0.0
 11
325.384981545061
 21
-139.746042889121
 31
0.0
  0
LINE
  5
2BF
330
1F
100
AcDbEntity
  8
1
  6
Continuous
 62
     4
100
AcDbLine
 10
324.759981545061
 20
-140.371042889121
 30
0.0
 11
325.009981545061
 21
-139.996042889121
 31
0.0
  0
LINE
  5
2C0
330
1F
100
AcDbEntity
  8
1
  6
Continuous
 62
     4
100
AcDbLine
 10
307.134981545061
 20
-144.621042889121
 30
0.0
 11
305.259981545061
 21
-144.621042889121
 31
0.0
  0
LINE
  5
2C1
330
1F
100
AcDbEntity
  8
1
  6
Continuous
 62
     4
100
AcDbLine
 10
307.509981545061
 20
-144.496042889121
 30
0.0
 11
307.134981545061
 21
-144.621042889121
 31
0.0
  0
LINE
  5
2C2
330
1F
100
AcDbEntity
  8
1
  6
Continuous
 62
     4
100
AcDbLine
 10
307.884981545061
 20
-144.246042889121
 30
0.0
 11
307.509981545061
 21
-144.496042889121
 31
0.0
  0
LINE
  5
2C3
330
1F
100
AcDbEntity
  8
1
  6
Continuous
 62
     4
100
AcDbLine
 10
308.134981545061
 20
-143.871042889121
 30
0.0
 11
307.884981545061
 21
-144.246042889121
 31
0.0
  0
LINE
  5
2C4
330
1F
100
AcDbEntity
  8
1
  6
Continuous
 62
     4
100
AcDbLine
 10
308.259981545061
 20
-143.371042889121
 30
0.0
 11
308.134981545061
 21
-143.871042889121
 31
0.0
  0
LINE
  5
2C5
330
1F
100
AcDbEntity
  8
1
  6
Continuous
 62
     4
100
AcDbLine
 10
308.259981545061
 20
-142.746042889121
 30
0.0
 11
308.259981545061
 21
-143.371042889121
 31
0.0
  0
LINE
  5
2C6
330
1F
100
AcDbEntity
  8
1
  6
Continuous
 62
     4
100
AcDbLine
 10
308.134981545061
 20
-142.246042889121
 30
0.0
 11
308.259981545061
 21
-142.746042889121
 31
0.0
  0
LINE
  5
2C7
330
1F
100
AcDbEntity
  8
1
  6
Continuous
 62
     4
100
AcDbLine
 10
308.009981545061
 20
-141.996042889121
 30
0.0
 11
308.134981545061
 21
-142.246042889121
 31
0.0
  0
LINE
  5
2C8
330
1F
100
AcDbEntity
  8
1
  6
Continuous
 62
     4
100
AcDbLine
 10
307.759981545061
 20
-141.746042889121
 30
0.0
 11
308.009981545061
 21
-141.996042889121
 31
0.0
  0
LINE
  5
2C9
330
1F
100
AcDbEntity
  8
1
  6
Continuous
 62
     4
100
AcDbLine
 10
307.259981545061
 20
-141.621042889121
 30
0.0
 11
307.759981545061
 21
-141.746042889121
 31
0.0
  0
LINE
  5
2CA
330
1F
100
AcDbEntity
  8
1
  6
Continuous
 62
     4
100
AcDbLine
 10
307.634981545061
 20
-141.496042889121
 30
0.0
 11
307.259981545061
 21
-141.621042889121
 31
0.0
  0
LINE
  5
2CB
330
1F
100
AcDbEntity
  8
1
  6
Continuous
 62
     4
100
AcDbLine
 10
307.884981545061
 20
-141.371042889121
 30
0.0
 11
307.634981545061
 21
-141.496042889121
 31
0.0
  0
LINE
  5
2CC
330
1F
100
AcDbEntity
  8
1
  6
Continuous
 62
     4
100
AcDbLine
 10
308.134981545061
 20
-141.121042889121
 30
0.0
 11
307.884981545061
 21
-141.371042889121
 31
0.0
  0
LINE
  5
2CD
330
1F
100
AcDbEntity
  8
1
  6
Continuous
 62
     4
100
AcDbLine
 10
308.259981545061
 20
-140.746042889121
 30
0.0
 11
308.134981545061
 21
-141.121042889121
 31
0.0
  0
LINE
  5
2CE
330
1F
100
AcDbEntity
  8
1
  6
Continuous
 62
     4
100
AcDbLine
 10
308.259981545061
 20
-140.371042889121
 30
0.0
 11
308.259981545061
 21
-140.746042889121
 31
0.0
  0
LINE
  5
2CF
330
1F
100
AcDbEntity
  8
1
  6
Continuous
 62
     4
100
AcDbLine
 10
308.134981545061
 20
-139.996042889121
 30
0.0
 11
308.259981545061
 21
-140.371042889121
 31
0.0
  0
LINE
  5
2D0
330
1F
100
AcDbEntity
  8
1
  6
Continuous
 62
     4
100
AcDbLine
 10
307.759981545061
 20
-139.746042889121
 30
0.0
 11
308.134981545061
 21
-139.996042889121
 31
0.0
  0
LINE
  5
2D1
330
1F
100
AcDbEntity
  8
1
  6
Continuous
 62
     4
100
AcDbLine
 10
307.134981545061
 20
-139.621042889121
 30
0.0
 11
307.759981545061
 21
-139.746042889121
 31
0.0
  0
LINE
  5
2D2
330
1F
100
AcDbEntity
  8
1
  6
Continuous
 62
     4
100
AcDbLine
 10
305.259981545061
 20
-139.621042889121
 30
0.0
 11
307.134981545061
 21
-139.621042889121
 31
0.0
  0
LINE
  5
2D3
330
1F
100
AcDbEntity
  8
1
  6
Continuous
 62
     4
100
AcDbLine
 10
306.009981545061
 20
-141.621042889121
 30
0.0
 11
307.259981545061
 21
-141.621042889121
 31
0.0
  0
LINE
  5
2D4
330
1F
100
AcDbEntity
  8
1
  6
Continuous
 62
     4
100
AcDbLine
 10
303.884981545061
 20
-144.371042889121
 30
0.0
 11
303.884981545061
 21
-144.496042889121
 31
0.0
  0
LINE
  5
2D5
330
1F
100
AcDbEntity
  8
1
  6
Continuous
 62
     4
100
AcDbLine
 10
303.759981545061
 20
-144.371042889121
 30
0.0
 11
303.884981545061
 21
-144.371042889121
 31
0.0
  0
LINE
  5
2D6
330
1F
100
AcDbEntity
  8
1
  6
Continuous
 62
     4
100
AcDbLine
 10
303.759981545061
 20
-144.496042889121
 30
0.0
 11
303.759981545061
 21
-144.371042889121
 31
0.0
  0
LINE
  5
2D7
330
1F
100
AcDbEntity
  8
1
  6
Continuous
 62
     4
100
AcDbLine
 10
303.884981545061
 20
-144.496042889121
 30
0.0
 11
303.759981545061
 21
-144.496042889121
 31
0.0
  0
LINE
  5
2D8
330
1F
100
AcDbEntity
  8
1
  6
Continuous
 62
     4
100
AcDbLine
 10
304.009981545061
 20
-144.246042889121
 30
0.0
 11
304.009981545061
 21
-144.621042889121
 31
0.0
  0
LINE
  5
2D9
330
1F
100
AcDbEntity
  8
1
  6
Continuous
 62
     4
100
AcDbLine
 10
303.634981545061
 20
-144.246042889121
 30
0.0
 11
304.009981545061
 21
-144.246042889121
 31
0.0
  0
LINE
  5
2DA
330
1F
100
AcDbEntity
  8
1
  6
Continuous
 62
     4
100
AcDbLine
 10
303.634981545061
 20
-144.621042889121
 30
0.0
 11
303.634981545061
 21
-144.246042889121
 31
0.0
  0
LINE
  5
2DB
330
1F
100
AcDbEntity
  8
1
  6
Continuous
 62
     4
100
AcDbLine
 10
304.009981545061
 20
-144.621042889121
 30
0.0
 11
303.634981545061
 21
-144.621042889121
 31
0.0
  0
LINE
  5
2DC
330
1F
100
AcDbEntity
  8
1
  6
Continuous
 62
     4
100
AcDbLine
 10
302.134981545061
 20
-141.496042889121
 30
0.0
 11
302.134981545061
 21
-142.746042889121
 31
0.0
  0
LINE
  5
2DD
330
1F
100
AcDbEntity
  8
1
  6
Continuous
 62
     4
100
AcDbLine
 10
302.009981545061
 20
-140.746042889121
 30
0.0
 11
302.134981545061
 21
-141.496042889121
 31
0.0
  0
LINE
  5
2DE
330
1F
100
AcDbEntity
  8
1
  6
Continuous
 62
     4
100
AcDbLine
 10
301.759981545061
 20
-140.246042889121
 30
0.0
 11
302.009981545061
 21
-140.746042889121
 31
0.0
  0
LINE
  5
2DF
330
1F
100
AcDbEntity
  8
1
  6
Continuous
 62
     4
100
AcDbLine
 10
301.509981545061
 20
-139.996042889121
 30
0.0
 11
301.759981545061
 21
-140.246042889121
 31
0.0
  0
LINE
  5
2E0
330
1F
100
AcDbEntity
  8
1
  6
Continuous
 62
     4
100
AcDbLine
 10
301.134981545061
 20
-139.746042889121
 30
0.0
 11
301.509981545061
 21
-139.996042889121
 31
0.0
  0
LINE
  5
2E1
330
1F
100
AcDbEntity
  8
1
  6
Continuous
 62
     4
100
AcDbLine
 10
300.759981545061
 20
-139.621042889121
 30
0.0
 11
301.134981545061
 21
-139.746042889121
 31
0.0
  0
LINE
  5
2E2
330
1F
100
AcDbEntity
  8
1
  6
Continuous
 62
     4
100
AcDbLine
 10
300.509981545061
 20
-139.621042889121
 30
0.0
 11
300.759981545061
 21
-139.621042889121
 31
0.0
  0
LINE
  5
2E3
330
1F
100
AcDbEntity
  8
1
  6
Continuous
 62
     4
100
AcDbLine
 10
300.134981545061
 20
-139.746042889121
 30
0.0
 11
300.509981545061
 21
-139.621042889121
 31
0.0
  0
LINE
  5
2E4
330
1F
100
AcDbEntity
  8
1
  6
Continuous
 62
     4
100
AcDbLine
 10
299.759981545061
 20
-139.996042889121
 30
0.0
 11
300.134981545061
 21
-139.746042889121
 31
0.0
  0
LINE
  5
2E5
330
1F
100
AcDbEntity
  8
1
  6
Continuous
 62
     4
100
AcDbLine
 10
299.509981545061
 20
-140.246042889121
 30
0.0
 11
299.759981545061
 21
-139.996042889121
 31
0.0
  0
LINE
  5
2E6
330
1F
100
AcDbEntity
  8
1
  6
Continuous
 62
     4
100
AcDbLine
 10
299.259981545061
 20
-140.746042889121
 30
0.0
 11
299.509981545061
 21
-140.246042889121
 31
0.0
  0
LINE
  5
2E7
330
1F
100
AcDbEntity
  8
1
  6
Continuous
 62
     4
100
AcDbLine
 10
299.134981545061
 20
-141.496042889121
 30
0.0
 11
299.259981545061
 21
-140.746042889121
 31
0.0
  0
LINE
  5
2E8
330
1F
100
AcDbEntity
  8
1
  6
Continuous
 62
     4
100
AcDbLine
 10
299.134981545061
 20
-142.746042889121
 30
0.0
 11
299.134981545061
 21
-141.496042889121
 31
0.0
  0
LINE
  5
2E9
330
1F
100
AcDbEntity
  8
1
  6
Continuous
 62
     4
100
AcDbLine
 10
299.259981545061
 20
-143.496042889121
 30
0.0
 11
299.134981545061
 21
-142.746042889121
 31
0.0
  0
LINE
  5
2EA
330
1F
100
AcDbEntity
  8
1
  6
Continuous
 62
     4
100
AcDbLine
 10
299.509981545061
 20
-143.996042889121
 30
0.0
 11
299.259981545061
 21
-143.496042889121
 31
0.0
  0
LINE
  5
2EB
330
1F
100
AcDbEntity
  8
1
  6
Continuous
 62
     4
100
AcDbLine
 10
299.759981545061
 20
-144.246042889121
 30
0.0
 11
299.509981545061
 21
-143.996042889121
 31
0.0
  0
LINE
  5
2EC
330
1F
100
AcDbEntity
  8
1
  6
Continuous
 62
     4
100
AcDbLine
 10
300.134981545061
 20
-144.496042889121
 30
0.0
 11
299.759981545061
 21
-144.246042889121
 31
0.0
  0
LINE
  5
2ED
330
1F
100
AcDbEntity
  8
1
  6
Continuous
 62
     4
100
AcDbLine
 10
300.509981545061
 20
-144.621042889121
 30
0.0
 11
300.134981545061
 21
-144.496042889121
 31
0.0
  0
LINE
  5
2EE
330
1F
100
AcDbEntity
  8
1
  6
Continuous
 62
     4
100
AcDbLine
 10
300.759981545061
 20
-144.621042889121
 30
0.0
 11
300.509981545061
 21
-144.621042889121
 31
0.0
  0
LINE
  5
2EF
330
1F
100
AcDbEntity
  8
1
  6
Continuous
 62
     4
100
AcDbLine
 10
301.134981545061
 20
-144.496042889121
 30
0.0
 11
300.759981545061
 21
-144.621042889121
 31
0.0
  0
LINE
  5
2F0
330
1F
100
AcDbEntity
  8
1
  6
Continuous
 62
     4
100
AcDbLine
 10
301.509981545061
 20
-144.246042889121
 30
0.0
 11
301.134981545061
 21
-144.496042889121
 31
0.0
  0
LINE
  5
2F1
330
1F
100
AcDbEntity
  8
1
  6
Continuous
 62
     4
100
AcDbLine
 10
301.759981545061
 20
-143.996042889121
 30
0.0
 11
301.509981545061
 21
-144.246042889121
 31
0.0
  0
LINE
  5
2F2
330
1F
100
AcDbEntity
  8
1
  6
Continuous
 62
     4
100
AcDbLine
 10
302.009981545061
 20
-143.496042889121
 30
0.0
 11
301.759981545061
 21
-143.996042889121
 31
0.0
  0
LINE
  5
2F3
330
1F
100
AcDbEntity
  8
1
  6
Continuous
 62
     4
100
AcDbLine
 10
302.134981545061
 20
-142.746042889121
 30
0.0
 11
302.009981545061
 21
-143.496042889121
 31
0.0
  0
LINE
  5
2F4
330
1F
100
AcDbEntity
  8
1
  6
Continuous
 62
     4
100
AcDbLine
 10
334.134981545061
 20
-136.291042889121
 30
0.0
 11
332.259981545061
 21
-136.291042889121
 31
0.0
  0
LINE
  5
2F5
330
1F
100
AcDbEntity
  8
1
  6
Continuous
 62
     4
100
AcDbLine
 10
334.509981545061
 20
-136.166042889121
 30
0.0
 11
334.134981545061
 21
-136.291042889121
 31
0.0
  0
LINE
  5
2F6
330
1F
100
AcDbEntity
  8
1
  6
Continuous
 62
     4
100
AcDbLine
 10
334.884981545061
 20
-135.916042889121
 30
0.0
 11
334.509981545061
 21
-136.166042889121
 31
0.0
  0
LINE
  5
2F7
330
1F
100
AcDbEntity
  8
1
  6
Continuous
 62
     4
100
AcDbLine
 10
335.134981545061
 20
-135.541042889121
 30
0.0
 11
334.884981545061
 21
-135.916042889121
 31
0.0
  0
LINE
  5
2F8
330
1F
100
AcDbEntity
  8
1
  6
Continuous
 62
     4
100
AcDbLine
 10
335.259981545061
 20
-135.041042889121
 30
0.0
 11
335.134981545061
 21
-135.541042889121
 31
0.0
  0
LINE
  5
2F9
330
1F
100
AcDbEntity
  8
1
  6
Continuous
 62
     4
100
AcDbLine
 10
335.259981545061
 20
-134.291042889121
 30
0.0
 11
335.259981545061
 21
-135.041042889121
 31
0.0
  0
LINE
  5
2FA
330
1F
100
AcDbEntity
  8
1
  6
Continuous
 62
     4
100
AcDbLine
 10
335.134981545061
 20
-133.791042889121
 30
0.0
 11
335.259981545061
 21
-134.291042889121
 31
0.0
  0
LINE
  5
2FB
330
1F
100
AcDbEntity
  8
1
  6
Continuous
 62
     4
100
AcDbLine
 10
334.759981545061
 20
-133.416042889121
 30
0.0
 11
335.134981545061
 21
-133.791042889121
 31
0.0
  0
LINE
  5
2FC
330
1F
100
AcDbEntity
  8
1
  6
Continuous
 62
     4
100
AcDbLine
 10
334.134981545061
 20
-133.291042889121
 30
0.0
 11
334.759981545061
 21
-133.416042889121
 31
0.0
  0
LINE
  5
2FD
330
1F
100
AcDbEntity
  8
1
  6
Continuous
 62
     4
100
AcDbLine
 10
332.259981545061
 20
-133.291042889121
 30
0.0
 11
334.134981545061
 21
-133.291042889121
 31
0.0
  0
LINE
  5
2FE
330
1F
100
AcDbEntity
  8
1
  6
Continuous
 62
     4
100
AcDbLine
 10
332.259981545061
 20
-131.291042889121
 30
0.0
 11
332.259981545061
 21
-133.291042889121
 31
0.0
  0
LINE
  5
2FF
330
1F
100
AcDbEntity
  8
1
  6
Continuous
 62
     4
100
AcDbLine
 10
335.009981545061
 20
-131.291042889121
 30
0.0
 11
332.259981545061
 21
-131.291042889121
 31
0.0
  0
LINE
  5
300
330
1F
100
AcDbEntity
  8
1
  6
Continuous
 62
     4
100
AcDbLine
 10
329.259981545061
 20
-135.791042889121
 30
0.0
 11
328.134981545061
 21
-136.291042889121
 31
0.0
  0
LINE
  5
301
330
1F
100
AcDbEntity
  8
1
  6
Continuous
 62
     4
100
AcDbLine
 10
330.134981545061
 20
-135.041042889121
 30
0.0
 11
329.259981545061
 21
-135.791042889121
 31
0.0
  0
LINE
  5
302
330
1F
100
AcDbEntity
  8
1
  6
Continuous
 62
     4
100
AcDbLine
 10
330.509981545061
 20
-134.541042889121
 30
0.0
 11
330.134981545061
 21
-135.041042889121
 31
0.0
  0
LINE
  5
303
330
1F
100
AcDbEntity
  8
1
  6
Continuous
 62
     4
100
AcDbLine
 10
330.634981545061
 20
-134.041042889121
 30
0.0
 11
330.509981545061
 21
-134.541042889121
 31
0.0
  0
LINE
  5
304
330
1F
100
AcDbEntity
  8
1
  6
Continuous
 62
     4
100
AcDbLine
 10
330.759981545061
 20
-133.416042889121
 30
0.0
 11
330.634981545061
 21
-134.041042889121
 31
0.0
  0
LINE
  5
305
330
1F
100
AcDbEntity
  8
1
  6
Continuous
 62
     4
100
AcDbLine
 10
330.759981545061
 20
-132.541042889121
 30
0.0
 11
330.759981545061
 21
-133.416042889121
 31
0.0
  0
LINE
  5
306
330
1F
100
AcDbEntity
  8
1
  6
Continuous
 62
     4
100
AcDbLine
 10
330.634981545061
 20
-132.041042889121
 30
0.0
 11
330.759981545061
 21
-132.541042889121
 31
0.0
  0
LINE
  5
307
330
1F
100
AcDbEntity
  8
1
  6
Continuous
 62
     4
100
AcDbLine
 10
330.384981545061
 20
-131.666042889121
 30
0.0
 11
330.634981545061
 21
-132.041042889121
 31
0.0
  0
LINE
  5
308
330
1F
100
AcDbEntity
  8
1
  6
Continuous
 62
     4
100
AcDbLine
 10
330.009981545061
 20
-131.416042889121
 30
0.0
 11
330.384981545061
 21
-131.666042889121
 31
0.0
  0
LINE
  5
309
330
1F
100
AcDbEntity
  8
1
  6
Continuous
 62
     4
100
AcDbLine
 10
329.634981545061
 20
-131.291042889121
 30
0.0
 11
330.009981545061
 21
-131.416042889121
 31
0.0
  0
LINE
  5
30A
330
1F
100
AcDbEntity
  8
1
  6
Continuous
 62
     4
100
AcDbLine
 10
328.884981545061
 20
-131.291042889121
 30
0.0
 11
329.634981545061
 21
-131.291042889121
 31
0.0
  0
LINE
  5
30B
330
1F
100
AcDbEntity
  8
1
  6
Continuous
 62
     4
100
AcDbLine
 10
328.509981545061
 20
-131.416042889121
 30
0.0
 11
328.884981545061
 21
-131.291042889121
 31
0.0
  0
LINE
  5
30C
330
1F
100
AcDbEntity
  8
1
  6
Continuous
 62
     4
100
AcDbLine
 10
328.134981545061
 20
-131.666042889121
 30
0.0
 11
328.509981545061
 21
-131.416042889121
 31
0.0
  0
LINE
  5
30D
330
1F
100
AcDbEntity
  8
1
  6
Continuous
 62
     4
100
AcDbLine
 10
327.884981545061
 20
-132.041042889121
 30
0.0
 11
328.134981545061
 21
-131.666042889121
 31
0.0
  0
LINE
  5
30E
330
1F
100
AcDbEntity
  8
1
  6
Continuous
 62
     4
100
AcDbLine
 10
327.759981545061
 20
-132.541042889121
 30
0.0
 11
327.884981545061
 21
-132.041042889121
 31
0.0
  0
LINE
  5
30F
330
1F
100
AcDbEntity
  8
1
  6
Continuous
 62
     4
100
AcDbLine
 10
327.759981545061
 20
-132.791042889121
 30
0.0
 11
327.759981545061
 21
-132.541042889121
 31
0.0
  0
LINE
  5
310
330
1F
100
AcDbEntity
  8
1
  6
Continuous
 62
     4
100
AcDbLine
 10
327.884981545061
 20
-133.291042889121
 30
0.0
 11
327.759981545061
 21
-132.791042889121
 31
0.0
  0
LINE
  5
311
330
1F
100
AcDbEntity
  8
1
  6
Continuous
 62
     4
100
AcDbLine
 10
328.134981545061
 20
-133.666042889121
 30
0.0
 11
327.884981545061
 21
-133.291042889121
 31
0.0
  0
LINE
  5
312
330
1F
100
AcDbEntity
  8
1
  6
Continuous
 62
     4
100
AcDbLine
 10
328.509981545061
 20
-133.916042889121
 30
0.0
 11
328.134981545061
 21
-133.666042889121
 31
0.0
  0
LINE
  5
313
330
1F
100
AcDbEntity
  8
1
  6
Continuous
 62
     4
100
AcDbLine
 10
328.884981545061
 20
-134.041042889121
 30
0.0
 11
328.509981545061
 21
-133.916042889121
 31
0.0
  0
LINE
  5
314
330
1F
100
AcDbEntity
  8
1
  6
Continuous
 62
     4
100
AcDbLine
 10
330.634981545061
 20
-134.041042889121
 30
0.0
 11
328.884981545061
 21
-134.041042889121
 31
0.0
  0
LINE
  5
315
330
1F
100
AcDbEntity
  8
1
  6
Continuous
 62
     4
100
AcDbLine
 10
326.259981545061
 20
-131.291042889121
 30
0.0
 11
326.259981545061
 21
-136.291042889121
 31
0.0
  0
LINE
  5
316
330
1F
100
AcDbEntity
  8
1
  6
Continuous
 62
     4
100
AcDbLine
 10
324.759981545061
 20
-132.791042889121
 30
0.0
 11
326.259981545061
 21
-131.291042889121
 31
0.0
  0
LINE
  5
317
330
1F
100
AcDbEntity
  8
1
  6
Continuous
 62
     4
100
AcDbLine
 10
305.259981545061
 20
-136.291042889121
 30
0.0
 11
308.259981545061
 21
-136.291042889121
 31
0.0
  0
LINE
  5
318
330
1F
100
AcDbEntity
  8
1
  6
Continuous
 62
     4
100
AcDbLine
 10
308.009981545061
 20
-133.041042889121
 30
0.0
 11
305.259981545061
 21
-136.291042889121
 31
0.0
  0
LINE
  5
319
330
1F
100
AcDbEntity
  8
1
  6
Continuous
 62
     4
100
AcDbLine
 10
308.259981545061
 20
-132.541042889121
 30
0.0
 11
308.009981545061
 21
-133.041042889121
 31
0.0
  0
LINE
  5
31A
330
1F
100
AcDbEntity
  8
1
  6
Continuous
 62
     4
100
AcDbLine
 10
308.259981545061
 20
-132.041042889121
 30
0.0
 11
308.259981545061
 21
-132.541042889121
 31
0.0
  0
LINE
  5
31B
330
1F
100
AcDbEntity
  8
1
  6
Continuous
 62
     4
100
AcDbLine
 10
308.009981545061
 20
-131.666042889121
 30
0.0
 11
308.259981545061
 21
-132.041042889121
 31
0.0
  0
LINE
  5
31C
330
1F
100
AcDbEntity
  8
1
  6
Continuous
 62
     4
100
AcDbLine
 10
307.634981545061
 20
-131.416042889121
 30
0.0
 11
308.009981545061
 21
-131.666042889121
 31
0.0
  0
LINE
  5
31D
330
1F
100
AcDbEntity
  8
1
  6
Continuous
 62
     4
100
AcDbLine
 10
307.134981545061
 20
-131.291042889121
 30
0.0
 11
307.634981545061
 21
-131.416042889121
 31
0.0
  0
LINE
  5
31E
330
1F
100
AcDbEntity
  8
1
  6
Continuous
 62
     4
100
AcDbLine
 10
306.384981545061
 20
-131.291042889121
 30
0.0
 11
307.134981545061
 21
-131.291042889121
 31
0.0
  0
LINE
  5
31F
330
1F
100
AcDbEntity
  8
1
  6
Continuous
 62
     4
100
AcDbLine
 10
305.884981545061
 20
-131.416042889121
 30
0.0
 11
306.384981545061
 21
-131.291042889121
 31
0.0
  0
LINE
  5
320
330
1F
100
AcDbEntity
  8
1
  6
Continuous
 62
     4
100
AcDbLine
 10
305.509981545061
 20
-131.666042889121
 30
0.0
 11
305.884981545061
 21
-131.416042889121
 31
0.0
  0
LINE
  5
321
330
1F
100
AcDbEntity
  8
1
  6
Continuous
 62
     4
100
AcDbLine
 10
305.259981545061
 20
-132.041042889121
 30
0.0
 11
305.509981545061
 21
-131.666042889121
 31
0.0
  0
LINE
  5
322
330
1F
100
AcDbEntity
  8
1
  6
Continuous
 62
     4
100
AcDbLine
 10
303.884981545061
 20
-136.041042889121
 30
0.0
 11
303.884981545061
 21
-136.166042889121
 31
0.0
  0
LINE
  5
323
330
1F
100
AcDbEntity
  8
1
  6
Continuous
 62
     4
100
AcDbLine
 10
303.759981545061
 20
-136.041042889121
 30
0.0
 11
303.884981545061
 21
-136.041042889121
 31
0.0
  0
LINE
  5
324
330
1F
100
AcDbEntity
  8
1
  6
Continuous
 62
     4
100
AcDbLine
 10
303.759981545061
 20
-136.166042889121
 30
0.0
 11
303.759981545061
 21
-136.041042889121
 31
0.0
  0
LINE
  5
325
330
1F
100
AcDbEntity
  8
1
  6
Continuous
 62
     4
100
AcDbLine
 10
303.884981545061
 20
-136.166042889121
 30
0.0
 11
303.759981545061
 21
-136.166042889121
 31
0.0
  0
LINE
  5
326
330
1F
100
AcDbEntity
  8
1
  6
Continuous
 62
     4
100
AcDbLine
 10
304.009981545061
 20
-135.916042889121
 30
0.0
 11
304.009981545061
 21
-136.291042889121
 31
0.0
  0
LINE
  5
327
330
1F
100
AcDbEntity
  8
1
  6
Continuous
 62
     4
100
AcDbLine
 10
303.634981545061
 20
-135.916042889121
 30
0.0
 11
304.009981545061
 21
-135.916042889121
 31
0.0
  0
LINE
  5
328
330
1F
100
AcDbEntity
  8
1
  6
Continuous
 62
     4
100
AcDbLine
 10
303.634981545061
 20
-136.291042889121
 30
0.0
 11
303.634981545061
 21
-135.916042889121
 31
0.0
  0
LINE
  5
329
330
1F
100
AcDbEntity
  8
1
  6
Continuous
 62
     4
100
AcDbLine
 10
304.009981545061
 20
-136.291042889121
 30
0.0
 11
303.634981545061
 21
-136.291042889121
 31
0.0
  0
LINE
  5
32A
330
1F
100
AcDbEntity
  8
1
  6
Continuous
 62
     4
100
AcDbLine
 10
302.134981545061
 20
-133.166042889121
 30
0.0
 11
302.134981545061
 21
-134.416042889121
 31
0.0
  0
LINE
  5
32B
330
1F
100
AcDbEntity
  8
1
  6
Continuous
 62
     4
100
AcDbLine
 10
302.009981545061
 20
-132.416042889121
 30
0.0
 11
302.134981545061
 21
-133.166042889121
 31
0.0
  0
LINE
  5
32C
330
1F
100
AcDbEntity
  8
1
  6
Continuous
 62
     4
100
AcDbLine
 10
301.759981545061
 20
-131.916042889121
 30
0.0
 11
302.009981545061
 21
-132.416042889121
 31
0.0
  0
LINE
  5
32D
330
1F
100
AcDbEntity
  8
1
  6
Continuous
 62
     4
100
AcDbLine
 10
301.509981545061
 20
-131.666042889121
 30
0.0
 11
301.759981545061
 21
-131.916042889121
 31
0.0
  0
LINE
  5
32E
330
1F
100
AcDbEntity
  8
1
  6
Continuous
 62
     4
100
AcDbLine
 10
301.134981545061
 20
-131.416042889121
 30
0.0
 11
301.509981545061
 21
-131.666042889121
 31
0.0
  0
LINE
  5
32F
330
1F
100
AcDbEntity
  8
1
  6
Continuous
 62
     4
100
AcDbLine
 10
300.759981545061
 20
-131.291042889121
 30
0.0
 11
301.134981545061
 21
-131.416042889121
 31
0.0
  0
LINE
  5
330
330
1F
100
AcDbEntity
  8
1
  6
Continuous
 62
     4
100
AcDbLine
 10
300.509981545061
 20
-131.291042889121
 30
0.0
 11
300.759981545061
 21
-131.291042889121
 31
0.0
  0
LINE
  5
331
330
1F
100
AcDbEntity
  8
1
  6
Continuous
 62
     4
100
AcDbLine
 10
300.134981545061
 20
-131.416042889121
 30
0.0
 11
300.509981545061
 21
-131.291042889121
 31
0.0
  0
LINE
  5
332
330
1F
100
AcDbEntity
  8
1
  6
Continuous
 62
     4
100
AcDbLine
 10
299.759981545061
 20
-131.666042889121
 30
0.0
 11
300.134981545061
 21
-131.416042889121
 31
0.0
  0
LINE
  5
333
330
1F
100
AcDbEntity
  8
1
  6
Continuous
 62
     4
100
AcDbLine
 10
299.509981545061
 20
-131.916042889121
 30
0.0
 11
299.759981545061
 21
-131.666042889121
 31
0.0
  0
LINE
  5
334
330
1F
100
AcDbEntity
  8
1
  6
Continuous
 62
     4
100
AcDbLine
 10
299.259981545061
 20
-132.416042889121
 30
0.0
 11
299.509981545061
 21
-131.916042889121
 31
0.0
  0
LINE
  5
335
330
1F
100
AcDbEntity
  8
1
  6
Continuous
 62
     4
100
AcDbLine
 10
299.134981545061
 20
-133.166042889121
 30
0.0
 11
299.259981545061
 21
-132.416042889121
 31
0.0
  0
LINE
  5
336
330
1F
100
AcDbEntity
  8
1
  6
Continuous
 62
     4
100
AcDbLine
 10
299.134981545061
 20
-134.416042889121
 30
0.0
 11
299.134981545061
 21
-133.166042889121
 31
0.0
  0
LINE
  5
337
330
1F
100
AcDbEntity
  8
1
  6
Continuous
 62
     4
100
AcDbLine
 10
299.259981545061
 20
-135.166042889121
 30
0.0
 11
299.134981545061
 21
-134.416042889121
 31
0.0
  0
LINE
  5
338
330
1F
100
AcDbEntity
  8
1
  6
Continuous
 62
     4
100
AcDbLine
 10
299.509981545061
 20
-135.666042889121
 30
0.0
 11
299.259981545061
 21
-135.166042889121
 31
0.0
  0
LINE
  5
339
330
1F
100
AcDbEntity
  8
1
  6
Continuous
 62
     4
100
AcDbLine
 10
299.759981545061
 20
-135.916042889121
 30
0.0
 11
299.509981545061
 21
-135.666042889121
 31
0.0
  0
LINE
  5
33A
330
1F
100
AcDbEntity
  8
1
  6
Continuous
 62
     4
100
AcDbLine
 10
300.134981545061
 20
-136.166042889121
 30
0.0
 11
299.759981545061
 21
-135.916042889121
 31
0.0
  0
LINE
  5
33B
330
1F
100
AcDbEntity
  8
1
  6
Continuous
 62
     4
100
AcDbLine
 10
300.509981545061
 20
-136.291042889121
 30
0.0
 11
300.134981545061
 21
-136.166042889121
 31
0.0
  0
LINE
  5
33C
330
1F
100
AcDbEntity
  8
1
  6
Continuous
 62
     4
100
AcDbLine
 10
300.759981545061
 20
-136.291042889121
 30
0.0
 11
300.509981545061
 21
-136.291042889121
 31
0.0
  0
LINE
  5
33D
330
1F
100
AcDbEntity
  8
1
  6
Continuous
 62
     4
100
AcDbLine
 10
301.134981545061
 20
-136.166042889121
 30
0.0
 11
300.759981545061
 21
-136.291042889121
 31
0.0
  0
LINE
  5
33E
330
1F
100
AcDbEntity
  8
1
  6
Continuous
 62
     4
100
AcDbLine
 10
301.509981545061
 20
-135.916042889121
 30
0.0
 11
301.134981545061
 21
-136.166042889121
 31
0.0
  0
LINE
  5
33F
330
1F
100
AcDbEntity
  8
1
  6
Continuous
 62
     4
100
AcDbLine
 10
301.759981545061
 20
-135.666042889121
 30
0.0
 11
301.509981545061
 21
-135.916042889121
 31
0.0
  0
LINE
  5
340
330
1F
100
AcDbEntity
  8
1
  6
Continuous
 62
     4
100
AcDbLine
 10
302.009981545061
 20
-135.166042889121
 30
0.0
 11
301.759981545061
 21
-135.666042889121
 31
0.0
  0
LINE
  5
341
330
1F
100
AcDbEntity
  8
1
  6
Continuous
 62
     4
100
AcDbLine
 10
302.134981545061
 20
-134.416042889121
 30
0.0
 11
302.009981545061
 21
-135.166042889121
 31
0.0
  0
LINE
  5
342
330
1F
100
AcDbEntity
  8
1
  6
Continuous
 62
     4
100
AcDbLine
 10
328.634981545061
 20
-127.961042889121
 30
0.0
 11
328.634981545061
 21
-122.961042889121
 31
0.0
  0
LINE
  5
343
330
1F
100
AcDbEntity
  8
1
  6
Continuous
 62
     4
100
AcDbLine
 10
331.634981545061
 20
-127.961042889121
 30
0.0
 11
328.634981545061
 21
-127.961042889121
 31
0.0
  0
LINE
  5
344
330
1F
100
AcDbEntity
  8
1
  6
Continuous
 62
     4
100
AcDbLine
 10
316.884981545061
 20
-126.961042889121
 30
0.0
 11
316.384981545061
 21
-127.961042889121
 31
0.0
  0
LINE
  5
345
330
1F
100
AcDbEntity
  8
1
  6
Continuous
 62
     4
100
AcDbLine
 10
317.134981545061
 20
-125.961042889121
 30
0.0
 11
316.884981545061
 21
-126.961042889121
 31
0.0
  0
LINE
  5
346
330
1F
100
AcDbEntity
  8
1
  6
Continuous
 62
     4
100
AcDbLine
 10
317.134981545061
 20
-124.961042889121
 30
0.0
 11
317.134981545061
 21
-125.961042889121
 31
0.0
  0
LINE
  5
347
330
1F
100
AcDbEntity
  8
1
  6
Continuous
 62
     4
100
AcDbLine
 10
316.884981545061
 20
-123.961042889121
 30
0.0
 11
317.134981545061
 21
-124.961042889121
 31
0.0
  0
LINE
  5
348
330
1F
100
AcDbEntity
  8
1
  6
Continuous
 62
     4
100
AcDbLine
 10
316.384981545061
 20
-122.961042889121
 30
0.0
 11
316.884981545061
 21
-123.961042889121
 31
0.0
  0
LINE
  5
349
330
1F
100
AcDbEntity
  8
1
  6
Continuous
 62
     4
100
AcDbLine
 10
313.134981545061
 20
-124.461042889121
 30
0.0
 11
314.134981545061
 21
-124.461042889121
 31
0.0
  0
LINE
  5
34A
330
1F
100
AcDbEntity
  8
1
  6
Continuous
 62
     4
100
AcDbLine
 10
313.134981545061
 20
-124.461042889121
 30
0.0
 11
313.134981545061
 21
-127.961042889121
 31
0.0
  0
LINE
  5
34B
330
1F
100
AcDbEntity
  8
1
  6
Continuous
 62
     4
100
AcDbLine
 10
314.884981545061
 20
-125.086042889121
 30
0.0
 11
314.884981545061
 21
-127.961042889121
 31
0.0
  0
LINE
  5
34C
330
1F
100
AcDbEntity
  8
1
  6
Continuous
 62
     4
100
AcDbLine
 10
314.759981545061
 20
-124.836042889121
 30
0.0
 11
314.884981545061
 21
-125.086042889121
 31
0.0
  0
LINE
  5
34D
330
1F
100
AcDbEntity
  8
1
  6
Continuous
 62
     4
100
AcDbLine
 10
314.509981545061
 20
-124.586042889121
 30
0.0
 11
314.759981545061
 21
-124.836042889121
 31
0.0
  0
LINE
  5
34E
330
1F
100
AcDbEntity
  8
1
  6
Continuous
 62
     4
100
AcDbLine
 10
314.134981545061
 20
-124.461042889121
 30
0.0
 11
314.509981545061
 21
-124.586042889121
 31
0.0
  0
LINE
  5
34F
330
1F
100
AcDbEntity
  8
1
  6
Continuous
 62
     4
100
AcDbLine
 10
311.384981545061
 20
-124.461042889121
 30
0.0
 11
313.134981545061
 21
-124.461042889121
 31
0.0
  0
LINE
  5
350
330
1F
100
AcDbEntity
  8
1
  6
Continuous
 62
     4
100
AcDbLine
 10
311.384981545061
 20
-127.961042889121
 30
0.0
 11
311.384981545061
 21
-124.461042889121
 31
0.0
  0
LINE
  5
351
330
1F
100
AcDbEntity
  8
1
  6
Continuous
 62
     4
100
AcDbLine
 10
309.384981545061
 20
-126.961042889121
 30
0.0
 11
309.884981545061
 21
-127.961042889121
 31
0.0
  0
LINE
  5
352
330
1F
100
AcDbEntity
  8
1
  6
Continuous
 62
     4
100
AcDbLine
 10
309.134981545061
 20
-125.961042889121
 30
0.0
 11
309.384981545061
 21
-126.961042889121
 31
0.0
  0
LINE
  5
353
330
1F
100
AcDbEntity
  8
1
  6
Continuous
 62
     4
100
AcDbLine
 10
309.134981545061
 20
-124.961042889121
 30
0.0
 11
309.134981545061
 21
-125.961042889121
 31
0.0
  0
LINE
  5
354
330
1F
100
AcDbEntity
  8
1
  6
Continuous
 62
     4
100
AcDbLine
 10
309.384981545061
 20
-123.961042889121
 30
0.0
 11
309.134981545061
 21
-124.961042889121
 31
0.0
  0
LINE
  5
355
330
1F
100
AcDbEntity
  8
1
  6
Continuous
 62
     4
100
AcDbLine
 10
309.884981545061
 20
-122.961042889121
 30
0.0
 11
309.384981545061
 21
-123.961042889121
 31
0.0
  0
LINE
  5
356
330
1F
100
AcDbEntity
  8
1
  6
Continuous
 62
     4
100
AcDbLine
 10
306.197481545061
 20
-127.336042889121
 30
0.0
 11
307.072481545061
 21
-127.461042889121
 31
0.0
  0
LINE
  5
357
330
1F
100
AcDbEntity
  8
1
  6
Continuous
 62
     4
100
AcDbLine
 10
305.634981545061
 20
-127.023542889121
 30
0.0
 11
306.197481545061
 21
-127.336042889121
 31
0.0
  0
LINE
  5
358
330
1F
100
AcDbEntity
  8
1
  6
Continuous
 62
     4
100
AcDbLine
 10
305.384981545061
 20
-126.523542889121
 30
0.0
 11
305.634981545061
 21
-127.023542889121
 31
0.0
  0
LINE
  5
359
330
1F
100
AcDbEntity
  8
1
  6
Continuous
 62
     4
100
AcDbLine
 10
305.634981545061
 20
-126.086042889121
 30
0.0
 11
305.384981545061
 21
-126.523542889121
 31
0.0
  0
LINE
  5
35A
330
1F
100
AcDbEntity
  8
1
  6
Continuous
 62
     4
100
AcDbLine
 10
306.509981545061
 20
-125.773542889121
 30
0.0
 11
305.634981545061
 21
-126.086042889121
 31
0.0
  0
LINE
  5
35B
330
1F
100
AcDbEntity
  8
1
  6
Continuous
 62
     4
100
AcDbLine
 10
307.447481545061
 20
-125.898542889121
 30
0.0
 11
306.509981545061
 21
-125.773542889121
 31
0.0
  0
LINE
  5
35C
330
1F
100
AcDbEntity
  8
1
  6
Continuous
 62
     4
100
AcDbLine
 10
306.884981545061
 20
-124.836042889121
 30
0.0
 11
307.447481545061
 21
-125.898542889121
 31
0.0
  0
LINE
  5
35D
330
1F
100
AcDbEntity
  8
1
  6
Continuous
 62
     4
100
AcDbLine
 10
305.947481545061
 20
-123.398542889121
 30
0.0
 11
306.884981545061
 21
-124.836042889121
 31
0.0
  0
LINE
  5
35E
330
1F
100
AcDbEntity
  8
1
  6
Continuous
 62
     4
100
AcDbLine
 10
306.384981545061
 20
-124.336042889121
 30
0.0
 11
307.322481545061
 21
-123.898542889121
 31
0.0
  0
LINE
  5
35F
330
1F
100
AcDbEntity
  8
1
  6
Continuous
 62
     4
100
AcDbLine
 10
305.259981545061
 20
-124.648542889121
 30
0.0
 11
306.384981545061
 21
-124.336042889121
 31
0.0
  0
LINE
  5
360
330
1F
100
AcDbEntity
  8
1
  6
Continuous
 62
     4
100
AcDbLine
 10
300.384981545061
 20
-123.898542889121
 30
0.0
 11
300.384981545061
 21
-127.461042889121
 31
0.0
  0
LINE
  5
361
330
1F
100
AcDbEntity
  8
1
  6
Continuous
 62
     4
100
AcDbLine
 10
302.322481545061
 20
-127.336042889121
 30
0.0
 11
303.447481545061
 21
-127.773542889121
 31
0.0
  0
LINE
  5
362
330
1F
100
AcDbEntity
  8
1
  6
Continuous
 62
     4
100
AcDbLine
 10
301.759981545061
 20
-126.711042889121
 30
0.0
 11
302.322481545061
 21
-127.336042889121
 31
0.0
  0
LINE
  5
363
330
1F
100
AcDbEntity
  8
1
  6
Continuous
 62
     4
100
AcDbLine
 10
301.197481545061
 20
-125.773542889121
 30
0.0
 11
301.759981545061
 21
-126.711042889121
 31
0.0
  0
LINE
  5
364
330
1F
100
AcDbEntity
  8
1
  6
Continuous
 62
     4
100
AcDbLine
 10
300.384981545061
 20
-123.086042889121
 30
0.0
 11
300.384981545061
 21
-123.898542889121
 31
0.0
  0
LINE
  5
365
330
1F
100
AcDbEntity
  8
1
  6
Continuous
 62
     4
100
AcDbLine
 10
302.634981545061
 20
-123.086042889121
 30
0.0
 11
300.384981545061
 21
-123.086042889121
 31
0.0
  0
LINE
  5
366
330
1F
100
AcDbEntity
  8
1
  6
Continuous
 62
     4
100
AcDbLine
 10
302.447481545061
 20
-123.898542889121
 30
0.0
 11
300.384981545061
 21
-123.898542889121
 31
0.0
  0
LINE
  5
367
330
1F
100
AcDbEntity
  8
1
  6
Continuous
 62
     4
100
AcDbLine
 10
300.384981545061
 20
-124.648542889121
 30
0.0
 11
302.447481545061
 21
-124.648542889121
 31
0.0
  0
LINE
  5
368
330
1F
100
AcDbEntity
  8
1
  6
Continuous
 62
     4
100
AcDbLine
 10
303.447481545061
 20
-125.461042889121
 30
0.0
 11
299.259981545061
 21
-125.461042889121
 31
0.0
  0
LINE
  5
369
330
1F
100
AcDbEntity
  8
1
  6
Continuous
 62
     4
100
AcDbLine
 10
301.759981545061
 20
-126.523542889121
 30
0.0
 11
302.759981545061
 21
-125.898542889121
 31
0.0
  0
LINE
  5
36A
330
1F
100
AcDbEntity
  8
1
  6
Continuous
 62
     4
100
AcDbLine
 10
299.572481545061
 20
-127.773542889121
 30
0.0
 11
301.384981545061
 21
-127.023542889121
 31
0.0
  0
LINE
  5
36B
330
1F
100
AcDbEntity
  8
1
  6
Continuous
 62
     4
100
AcDbLine
 10
298.134981545061
 20
-123.711042889121
 30
0.0
 11
298.572481545061
 21
-124.211042889121
 31
0.0
  0
LINE
  5
36C
330
1F
100
AcDbEntity
  8
1
  6
Continuous
 62
     4
100
AcDbLine
 10
297.759981545061
 20
-124.023542889121
 30
0.0
 11
298.134981545061
 21
-124.523542889121
 31
0.0
  0
LINE
  5
36D
330
1F
100
AcDbEntity
  8
1
  6
Continuous
 62
     4
100
AcDbLine
 10
297.197481545061
 20
-125.273542889121
 30
0.0
 11
297.759981545061
 21
-126.523542889121
 31
0.0
  0
LINE
  5
36E
330
1F
100
AcDbEntity
  8
1
  6
Continuous
 62
     4
100
AcDbLine
 10
297.072481545061
 20
-124.211042889121
 30
0.0
 11
297.197481545061
 21
-125.273542889121
 31
0.0
  0
LINE
  5
36F
330
1F
100
AcDbEntity
  8
1
  6
Continuous
 62
     4
100
AcDbLine
 10
297.072481545061
 20
-125.148542889121
 30
0.0
 11
297.072481545061
 21
-124.211042889121
 31
0.0
  0
LINE
  5
370
330
1F
100
AcDbEntity
  8
1
  6
Continuous
 62
     4
100
AcDbLine
 10
296.884981545061
 20
-126.086042889121
 30
0.0
 11
297.072481545061
 21
-125.148542889121
 31
0.0
  0
LINE
  5
371
330
1F
100
AcDbEntity
  8
1
  6
Continuous
 62
     4
100
AcDbLine
 10
296.509981545061
 20
-127.023542889121
 30
0.0
 11
296.884981545061
 21
-126.086042889121
 31
0.0
  0
LINE
  5
372
330
1F
100
AcDbEntity
  8
1
  6
Continuous
 62
     4
100
AcDbLine
 10
295.947481545061
 20
-127.461042889121
 30
0.0
 11
296.509981545061
 21
-127.023542889121
 31
0.0
  0
LINE
  5
373
330
1F
100
AcDbEntity
  8
1
  6
Continuous
 62
     4
100
AcDbLine
 10
295.384981545061
 20
-127.648542889121
 30
0.0
 11
295.947481545061
 21
-127.461042889121
 31
0.0
  0
LINE
  5
374
330
1F
100
AcDbEntity
  8
1
  6
Continuous
 62
     4
100
AcDbLine
 10
294.822481545061
 20
-127.461042889121
 30
0.0
 11
295.384981545061
 21
-127.648542889121
 31
0.0
  0
LINE
  5
375
330
1F
100
AcDbEntity
  8
1
  6
Continuous
 62
     4
100
AcDbLine
 10
294.572481545061
 20
-127.023542889121
 30
0.0
 11
294.822481545061
 21
-127.461042889121
 31
0.0
  0
LINE
  5
376
330
1F
100
AcDbEntity
  8
1
  6
Continuous
 62
     4
100
AcDbLine
 10
294.572481545061
 20
-126.398542889121
 30
0.0
 11
294.572481545061
 21
-127.023542889121
 31
0.0
  0
LINE
  5
377
330
1F
100
AcDbEntity
  8
1
  6
Continuous
 62
     4
100
AcDbLine
 10
294.822481545061
 20
-125.586042889121
 30
0.0
 11
294.572481545061
 21
-126.398542889121
 31
0.0
  0
LINE
  5
378
330
1F
100
AcDbEntity
  8
1
  6
Continuous
 62
     4
100
AcDbLine
 10
295.259981545061
 20
-124.961042889121
 30
0.0
 11
294.822481545061
 21
-125.586042889121
 31
0.0
  0
LINE
  5
379
330
1F
100
AcDbEntity
  8
1
  6
Continuous
 62
     4
100
AcDbLine
 10
295.822481545061
 20
-124.336042889121
 30
0.0
 11
295.259981545061
 21
-124.961042889121
 31
0.0
  0
LINE
  5
37A
330
1F
100
AcDbEntity
  8
1
  6
Continuous
 62
     4
100
AcDbLine
 10
295.259981545061
 20
-124.523542889121
 30
0.0
 11
295.822481545061
 21
-124.336042889121
 31
0.0
  0
LINE
  5
37B
330
1F
100
AcDbEntity
  8
1
  6
Continuous
 62
     4
100
AcDbLine
 10
294.572481545061
 20
-124.648542889121
 30
0.0
 11
295.259981545061
 21
-124.523542889121
 31
0.0
  0
LINE
  5
37C
330
1F
100
AcDbEntity
  8
1
  6
Continuous
 62
     4
100
AcDbLine
 10
292.197481545061
 20
-127.773542889121
 30
0.0
 11
291.634981545061
 21
-127.773542889121
 31
0.0
  0
LINE
  5
37D
330
1F
100
AcDbEntity
  8
1
  6
Continuous
 62
     4
100
AcDbLine
 10
292.197481545061
 20
-123.711042889121
 30
0.0
 11
292.197481545061
 21
-127.773542889121
 31
0.0
  0
LINE
  5
37E
330
1F
100
AcDbEntity
  8
1
  6
Continuous
 62
     4
100
AcDbLine
 10
291.072481545061
 20
-124.211042889121
 30
0.0
 11
291.509981545061
 21
-125.148542889121
 31
0.0
  0
LINE
  5
37F
330
1F
100
AcDbEntity
  8
1
  6
Continuous
 62
     4
100
AcDbLine
 10
291.884981545061
 20
-123.398542889121
 30
0.0
 11
291.197481545061
 21
-123.586042889121
 31
0.0
  0
LINE
  5
380
330
1F
100
AcDbEntity
  8
1
  6
Continuous
 62
     4
100
AcDbLine
 10
292.884981545061
 20
-123.086042889121
 30
0.0
 11
291.884981545061
 21
-123.398542889121
 31
0.0
  0
LINE
  5
381
330
1F
100
AcDbEntity
  8
1
  6
Continuous
 62
     4
100
AcDbLine
 10
292.759981545061
 20
-125.148542889121
 30
0.0
 11
293.134981545061
 21
-124.211042889121
 31
0.0
  0
LINE
  5
382
330
1F
100
AcDbEntity
  8
1
  6
Continuous
 62
     4
100
AcDbLine
 10
290.822481545061
 20
-125.773542889121
 30
0.0
 11
293.572481545061
 21
-125.773542889121
 31
0.0
  0
LINE
  5
383
330
1F
100
AcDbEntity
  8
1
  6
Continuous
 62
     4
100
AcDbLine
 10
289.384981545061
 20
-123.711042889121
 30
0.0
 11
289.384981545061
 21
-126.398542889121
 31
0.0
  0
LINE
  5
384
330
1F
100
AcDbEntity
  8
1
  6
Continuous
 62
     4
100
AcDbLine
 10
290.384981545061
 20
-123.711042889121
 30
0.0
 11
289.384981545061
 21
-123.711042889121
 31
0.0
  0
LINE
  5
385
330
1F
100
AcDbEntity
  8
1
  6
Continuous
 62
     4
100
AcDbLine
 10
290.384981545061
 20
-126.398542889121
 30
0.0
 11
290.384981545061
 21
-123.711042889121
 31
0.0
  0
LINE
  5
386
330
1F
100
AcDbEntity
  8
1
  6
Continuous
 62
     4
100
AcDbLine
 10
289.384981545061
 20
-126.398542889121
 30
0.0
 11
290.384981545061
 21
-126.398542889121
 31
0.0
  0
LINE
  5
387
330
1F
100
AcDbEntity
  8
1
  6
Continuous
 62
     4
100
AcDbLine
 10
319.009981545061
 20
-111.301042889121
 30
0.0
 11
317.134981545061
 21
-111.301042889121
 31
0.0
  0
LINE
  5
388
330
1F
100
AcDbEntity
  8
1
  6
Continuous
 62
     4
100
AcDbLine
 10
319.384981545061
 20
-111.176042889121
 30
0.0
 11
319.009981545061
 21
-111.301042889121
 31
0.0
  0
LINE
  5
389
330
1F
100
AcDbEntity
  8
1
  6
Continuous
 62
     4
100
AcDbLine
 10
319.759981545061
 20
-110.926042889121
 30
0.0
 11
319.384981545061
 21
-111.176042889121
 31
0.0
  0
LINE
  5
38A
330
1F
100
AcDbEntity
  8
1
  6
Continuous
 62
     4
100
AcDbLine
 10
320.009981545061
 20
-110.551042889121
 30
0.0
 11
319.759981545061
 21
-110.926042889121
 31
0.0
  0
LINE
  5
38B
330
1F
100
AcDbEntity
  8
1
  6
Continuous
 62
     4
100
AcDbLine
 10
320.134981545061
 20
-110.051042889121
 30
0.0
 11
320.009981545061
 21
-110.551042889121
 31
0.0
  0
LINE
  5
38C
330
1F
100
AcDbEntity
  8
1
  6
Continuous
 62
     4
100
AcDbLine
 10
320.134981545061
 20
-109.301042889121
 30
0.0
 11
320.134981545061
 21
-110.051042889121
 31
0.0
  0
LINE
  5
38D
330
1F
100
AcDbEntity
  8
1
  6
Continuous
 62
     4
100
AcDbLine
 10
320.009981545061
 20
-108.801042889121
 30
0.0
 11
320.134981545061
 21
-109.301042889121
 31
0.0
  0
LINE
  5
38E
330
1F
100
AcDbEntity
  8
1
  6
Continuous
 62
     4
100
AcDbLine
 10
319.634981545061
 20
-108.426042889121
 30
0.0
 11
320.009981545061
 21
-108.801042889121
 31
0.0
  0
LINE
  5
38F
330
1F
100
AcDbEntity
  8
1
  6
Continuous
 62
     4
100
AcDbLine
 10
319.009981545061
 20
-108.301042889121
 30
0.0
 11
319.634981545061
 21
-108.426042889121
 31
0.0
  0
LINE
  5
390
330
1F
100
AcDbEntity
  8
1
  6
Continuous
 62
     4
100
AcDbLine
 10
317.134981545061
 20
-108.301042889121
 30
0.0
 11
319.009981545061
 21
-108.301042889121
 31
0.0
  0
LINE
  5
391
330
1F
100
AcDbEntity
  8
1
  6
Continuous
 62
     4
100
AcDbLine
 10
317.134981545061
 20
-106.301042889121
 30
0.0
 11
317.134981545061
 21
-108.301042889121
 31
0.0
  0
LINE
  5
392
330
1F
100
AcDbEntity
  8
1
  6
Continuous
 62
     4
100
AcDbLine
 10
319.884981545061
 20
-106.301042889121
 30
0.0
 11
317.134981545061
 21
-106.301042889121
 31
0.0
  0
LINE
  5
393
330
1F
100
AcDbEntity
  8
1
  6
Continuous
 62
     4
100
AcDbLine
 10
312.634981545061
 20
-111.301042889121
 30
0.0
 11
315.634981545061
 21
-111.301042889121
 31
0.0
  0
LINE
  5
394
330
1F
100
AcDbEntity
  8
1
  6
Continuous
 62
     4
100
AcDbLine
 10
315.384981545061
 20
-108.051042889121
 30
0.0
 11
312.634981545061
 21
-111.301042889121
 31
0.0
  0
LINE
  5
395
330
1F
100
AcDbEntity
  8
1
  6
Continuous
 62
     4
100
AcDbLine
 10
315.634981545061
 20
-107.551042889121
 30
0.0
 11
315.384981545061
 21
-108.051042889121
 31
0.0
  0
LINE
  5
396
330
1F
100
AcDbEntity
  8
1
  6
Continuous
 62
     4
100
AcDbLine
 10
315.634981545061
 20
-107.051042889121
 30
0.0
 11
315.634981545061
 21
-107.551042889121
 31
0.0
  0
LINE
  5
397
330
1F
100
AcDbEntity
  8
1
  6
Continuous
 62
     4
100
AcDbLine
 10
315.384981545061
 20
-106.676042889121
 30
0.0
 11
315.634981545061
 21
-107.051042889121
 31
0.0
  0
LINE
  5
398
330
1F
100
AcDbEntity
  8
1
  6
Continuous
 62
     4
100
AcDbLine
 10
315.009981545061
 20
-106.426042889121
 30
0.0
 11
315.384981545061
 21
-106.676042889121
 31
0.0
  0
LINE
  5
399
330
1F
100
AcDbEntity
  8
1
  6
Continuous
 62
     4
100
AcDbLine
 10
314.509981545061
 20
-106.301042889121
 30
0.0
 11
315.009981545061
 21
-106.426042889121
 31
0.0
  0
LINE
  5
39A
330
1F
100
AcDbEntity
  8
1
  6
Continuous
 62
     4
100
AcDbLine
 10
313.759981545061
 20
-106.301042889121
 30
0.0
 11
314.509981545061
 21
-106.301042889121
 31
0.0
  0
LINE
  5
39B
330
1F
100
AcDbEntity
  8
1
  6
Continuous
 62
     4
100
AcDbLine
 10
313.259981545061
 20
-106.426042889121
 30
0.0
 11
313.759981545061
 21
-106.301042889121
 31
0.0
  0
LINE
  5
39C
330
1F
100
AcDbEntity
  8
1
  6
Continuous
 62
     4
100
AcDbLine
 10
312.884981545061
 20
-106.676042889121
 30
0.0
 11
313.259981545061
 21
-106.426042889121
 31
0.0
  0
LINE
  5
39D
330
1F
100
AcDbEntity
  8
1
  6
Continuous
 62
     4
100
AcDbLine
 10
312.634981545061
 20
-107.051042889121
 30
0.0
 11
312.884981545061
 21
-106.676042889121
 31
0.0
  0
LINE
  5
39E
330
1F
100
AcDbEntity
  8
1
  6
Continuous
 62
     4
100
AcDbLine
 10
308.634981545061
 20
-109.551042889121
 30
0.0
 11
311.134981545061
 21
-109.551042889121
 31
0.0
  0
LINE
  5
39F
330
1F
100
AcDbEntity
  8
1
  6
Continuous
 62
     4
100
AcDbLine
 10
305.134981545061
 20
-106.301042889121
 30
0.0
 11
307.134981545061
 21
-111.301042889121
 31
0.0
  0
LINE
  5
3A0
330
1F
100
AcDbEntity
  8
1
  6
Continuous
 62
     4
100
AcDbLine
 10
303.134981545061
 20
-111.301042889121
 30
0.0
 11
305.134981545061
 21
-106.301042889121
 31
0.0
  0
LINE
  5
3A1
330
1F
100
AcDbEntity
  8
1
  6
Continuous
 62
     4
100
AcDbLine
 10
303.759981545061
 20
-109.801042889121
 30
0.0
 11
306.509981545061
 21
-109.801042889121
 31
0.0
  0
LINE
  5
3A2
330
1F
100
AcDbEntity
  8
1
  6
Continuous
 62
     4
100
AcDbLine
 10
299.134981545061
 20
-109.551042889121
 30
0.0
 11
301.634981545061
 21
-109.551042889121
 31
0.0
  0
LINE
  5
3A3
330
1F
100
AcDbEntity
  8
1
  6
Continuous
 62
     4
100
AcDbLine
 10
295.884981545061
 20
-111.301042889121
 30
0.0
 11
297.634981545061
 21
-106.301042889121
 31
0.0
  0
LINE
  5
3A4
330
1F
100
AcDbEntity
  8
1
  6
Continuous
 62
     4
100
AcDbLine
 10
294.134981545061
 20
-106.301042889121
 30
0.0
 11
295.884981545061
 21
-111.301042889121
 31
0.0
  0
LINE
  5
3A5
330
1F
100
AcDbEntity
  8
1
  6
Continuous
 62
     4
100
AcDbLine
 10
292.634981545061
 20
-106.301042889121
 30
0.0
 11
292.634981545061
 21
-111.301042889121
 31
0.0
  0
LINE
  5
3A6
330
1F
100
AcDbEntity
  8
1
  6
Continuous
 62
     4
100
AcDbLine
 10
290.884981545061
 20
-109.051042889121
 30
0.0
 11
292.634981545061
 21
-106.301042889121
 31
0.0
  0
LINE
  5
3A7
330
1F
100
AcDbEntity
  8
1
  6
Continuous
 62
     4
100
AcDbLine
 10
289.134981545061
 20
-106.301042889121
 30
0.0
 11
290.884981545061
 21
-109.051042889121
 31
0.0
  0
LINE
  5
3A8
330
1F
100
AcDbEntity
  8
1
  6
Continuous
 62
     4
100
AcDbLine
 10
289.134981545061
 20
-111.301042889121
 30
0.0
 11
289.134981545061
 21
-106.301042889121
 31
0.0
  0
LINE
  5
3A9
330
1F
100
AcDbEntity
  8
1
  6
Continuous
 62
     4
100
AcDbLine
 10
153.754284907615
 20
-412.816847735373
 30
0.0
 11
154.754284907615
 21
-413.441847735373
 31
0.0
  0
LINE
  5
3AA
330
1F
100
AcDbEntity
  8
1
  6
Continuous
 62
     4
100
AcDbLine
 10
155.129284907615
 20
-412.504347735373
 30
0.0
 11
154.316784907615
 21
-411.879347735373
 31
0.0
  0
LINE
  5
3AB
330
1F
100
AcDbEntity
  8
1
  6
Continuous
 62
     4
100
AcDbLine
 10
155.816784907615
 20
-411.754347735373
 30
0.0
 11
156.254284907615
 21
-412.191847735373
 31
0.0
  0
LINE
  5
3AC
330
1F
100
AcDbEntity
  8
1
  6
Continuous
 62
     4
100
AcDbLine
 10
156.566784907615
 20
-411.879347735373
 30
0.0
 11
156.129284907615
 21
-411.441847735373
 31
0.0
  0
LINE
  5
3AD
330
1F
100
AcDbEntity
  8
1
  6
Continuous
 62
     4
100
AcDbLine
 10
156.254284907615
 20
-413.754347735373
 30
0.0
 11
156.941784907615
 21
-412.816847735373
 31
0.0
  0
LINE
  5
3AE
330
1F
100
AcDbEntity
  8
1
  6
Continuous
 62
     4
100
AcDbLine
 10
155.129284907615
 20
-414.691847735373
 30
0.0
 11
156.254284907615
 21
-413.754347735373
 31
0.0
  0
LINE
  5
3AF
330
1F
100
AcDbEntity
  8
1
  6
Continuous
 62
     4
100
AcDbLine
 10
154.066784907615
 20
-415.316847735373
 30
0.0
 11
155.129284907615
 21
-414.691847735373
 31
0.0
  0
LINE
  5
3B0
330
1F
100
AcDbEntity
  8
1
  6
Continuous
 62
     4
100
AcDbLine
 10
151.379284907615
 20
-413.941847735373
 30
0.0
 11
151.816784907615
 21
-414.566847735373
 31
0.0
  0
LINE
  5
3B1
330
1F
100
AcDbEntity
  8
1
  6
Continuous
 62
     4
100
AcDbLine
 10
150.816784907615
 20
-413.441847735373
 30
0.0
 11
151.379284907615
 21
-413.941847735373
 31
0.0
  0
LINE
  5
3B2
330
1F
100
AcDbEntity
  8
1
  6
Continuous
 62
     4
100
AcDbLine
 10
150.441784907615
 20
-411.441847735373
 30
0.0
 11
150.691784907615
 21
-411.754347735373
 31
0.0
  0
LINE
  5
3B3
330
1F
100
AcDbEntity
  8
1
  6
Continuous
 62
     4
100
AcDbLine
 10
149.879284907615
 20
-411.129347735373
 30
0.0
 11
150.441784907615
 21
-411.441847735373
 31
0.0
  0
LINE
  5
3B4
330
1F
100
AcDbEntity
  8
1
  6
Continuous
 62
     4
100
AcDbLine
 10
151.129284907615
 20
-412.379347735373
 30
0.0
 11
149.191784907615
 21
-412.379347735373
 31
0.0
  0
LINE
  5
3B5
330
1F
100
AcDbEntity
  8
1
  6
Continuous
 62
     4
100
AcDbLine
 10
150.129284907615
 20
-413.441847735373
 30
0.0
 11
151.129284907615
 21
-412.379347735373
 31
0.0
  0
LINE
  5
3B6
330
1F
100
AcDbEntity
  8
1
  6
Continuous
 62
     4
100
AcDbLine
 10
148.754284907615
 20
-414.379347735373
 30
0.0
 11
150.129284907615
 21
-413.441847735373
 31
0.0
  0
LINE
  5
3B7
330
1F
100
AcDbEntity
  8
1
  6
Continuous
 62
     4
100
AcDbLine
 10
150.316784907615
 20
-415.316847735373
 30
0.0
 11
150.316784907615
 21
-413.316847735373
 31
0.0
  0
LINE
  5
3B8
330
1F
100
AcDbEntity
  8
1
  6
Continuous
 62
     4
100
AcDbLine
 10
145.816784907615
 20
-413.816847735373
 30
0.0
 11
145.816784907615
 21
-415.816847735373
 31
0.0
  0
LINE
  5
3B9
330
1F
100
AcDbEntity
  8
1
  6
Continuous
 62
     4
100
AcDbLine
 10
143.566784907615
 20
-414.816847735373
 30
0.0
 11
146.566784907615
 21
-414.816847735373
 31
0.0
  0
LINE
  5
3BA
330
1F
100
AcDbEntity
  8
1
  6
Continuous
 62
     4
100
AcDbLine
 10
145.816784907615
 20
-410.816847735373
 30
0.0
 11
143.566784907615
 21
-414.816847735373
 31
0.0
  0
LINE
  5
3BB
330
1F
100
AcDbEntity
  8
1
  6
Continuous
 62
     4
100
AcDbLine
 10
140.066784907615
 20
-415.816847735373
 30
0.0
 11
142.066784907615
 21
-410.816847735373
 31
0.0
  0
LINE
  5
3BC
330
1F
100
AcDbEntity
  8
1
  6
Continuous
 62
     4
100
AcDbLine
 10
138.566784907615
 20
-410.816847735373
 30
0.0
 11
138.566784907615
 21
-415.816847735373
 31
0.0
  0
LINE
  5
3BD
330
1F
100
AcDbEntity
  8
1
  6
Continuous
 62
     4
100
AcDbLine
 10
137.066784907615
 20
-412.316847735373
 30
0.0
 11
138.566784907615
 21
-410.816847735373
 31
0.0
  0
LINE
  5
3BE
330
1F
100
AcDbEntity
  8
1
  6
Continuous
 62
     4
100
AcDbLine
 10
131.566784907615
 20
-410.816847735373
 30
0.0
 11
131.566784907615
 21
-415.816847735373
 31
0.0
  0
LINE
  5
3BF
330
1F
100
AcDbEntity
  8
1
  6
Continuous
 62
     4
100
AcDbLine
 10
130.066784907615
 20
-412.316847735373
 30
0.0
 11
131.566784907615
 21
-410.816847735373
 31
0.0
  0
LINE
  5
3C0
330
1F
100
AcDbEntity
  8
1
  6
Continuous
 62
     4
100
AcDbLine
 10
128.566784907615
 20
-413.066847735373
 30
0.0
 11
127.316784907615
 21
-413.066847735373
 31
0.0
  0
LINE
  5
3C1
330
1F
100
AcDbEntity
  8
1
  6
Continuous
 62
     4
100
AcDbLine
 10
128.566784907615
 20
-415.816847735373
 30
0.0
 11
128.566784907615
 21
-413.066847735373
 31
0.0
  0
LINE
  5
3C2
330
1F
100
AcDbEntity
  8
1
  6
Continuous
 62
     4
100
AcDbLine
 10
126.441784907615
 20
-415.816847735373
 30
0.0
 11
128.566784907615
 21
-415.816847735373
 31
0.0
  0
LINE
  5
3C3
330
1F
100
AcDbEntity
  8
1
  6
Continuous
 62
     4
100
AcDbLine
 10
126.066784907615
 20
-415.691847735373
 30
0.0
 11
126.441784907615
 21
-415.816847735373
 31
0.0
  0
LINE
  5
3C4
330
1F
100
AcDbEntity
  8
1
  6
Continuous
 62
     4
100
AcDbLine
 10
125.566784907615
 20
-415.441847735373
 30
0.0
 11
126.066784907615
 21
-415.691847735373
 31
0.0
  0
LINE
  5
3C5
330
1F
100
AcDbEntity
  8
1
  6
Continuous
 62
     4
100
AcDbLine
 10
125.316784907615
 20
-415.191847735373
 30
0.0
 11
125.566784907615
 21
-415.441847735373
 31
0.0
  0
LINE
  5
3C6
330
1F
100
AcDbEntity
  8
1
  6
Continuous
 62
     4
100
AcDbLine
 10
125.191784907615
 20
-414.816847735373
 30
0.0
 11
125.316784907615
 21
-415.191847735373
 31
0.0
  0
LINE
  5
3C7
330
1F
100
AcDbEntity
  8
1
  6
Continuous
 62
     4
100
AcDbLine
 10
125.066784907615
 20
-414.316847735373
 30
0.0
 11
125.191784907615
 21
-414.816847735373
 31
0.0
  0
LINE
  5
3C8
330
1F
100
AcDbEntity
  8
1
  6
Continuous
 62
     4
100
AcDbLine
 10
125.066784907615
 20
-412.316847735373
 30
0.0
 11
125.066784907615
 21
-414.316847735373
 31
0.0
  0
LINE
  5
3C9
330
1F
100
AcDbEntity
  8
1
  6
Continuous
 62
     4
100
AcDbLine
 10
125.191784907615
 20
-411.816847735373
 30
0.0
 11
125.066784907615
 21
-412.316847735373
 31
0.0
  0
LINE
  5
3CA
330
1F
100
AcDbEntity
  8
1
  6
Continuous
 62
     4
100
AcDbLine
 10
125.316784907615
 20
-411.441847735373
 30
0.0
 11
125.191784907615
 21
-411.816847735373
 31
0.0
  0
LINE
  5
3CB
330
1F
100
AcDbEntity
  8
1
  6
Continuous
 62
     4
100
AcDbLine
 10
125.566784907615
 20
-411.191847735373
 30
0.0
 11
125.316784907615
 21
-411.441847735373
 31
0.0
  0
LINE
  5
3CC
330
1F
100
AcDbEntity
  8
1
  6
Continuous
 62
     4
100
AcDbLine
 10
125.941784907615
 20
-410.941847735373
 30
0.0
 11
125.566784907615
 21
-411.191847735373
 31
0.0
  0
LINE
  5
3CD
330
1F
100
AcDbEntity
  8
1
  6
Continuous
 62
     4
100
AcDbLine
 10
126.441784907615
 20
-410.816847735373
 30
0.0
 11
125.941784907615
 21
-410.941847735373
 31
0.0
  0
LINE
  5
3CE
330
1F
100
AcDbEntity
  8
1
  6
Continuous
 62
     4
100
AcDbLine
 10
128.566784907615
 20
-410.816847735373
 30
0.0
 11
126.441784907615
 21
-410.816847735373
 31
0.0
  0
LINE
  5
3CF
330
1F
100
AcDbEntity
  8
1
  6
Continuous
 62
     4
100
AcDbLine
 10
94.6072522450662
 20
-417.789308924954
 30
0.0
 11
94.1072522450662
 21
-418.414308924954
 31
0.0
  0
LINE
  5
3D0
330
1F
100
AcDbEntity
  8
1
  6
Continuous
 62
     4
100
AcDbLine
 10
94.1072522450662
 20
-417.164308924954
 30
0.0
 11
94.6072522450662
 21
-417.789308924954
 31
0.0
  0
LINE
  5
3D1
330
1F
100
AcDbEntity
  8
1
  6
Continuous
 62
     4
100
AcDbLine
 10
90.8572522450662
 20
-417.789308924954
 30
0.0
 11
94.6072522450662
 21
-417.789308924954
 31
0.0
  0
LINE
  5
3D2
330
1F
100
AcDbEntity
  8
1
  6
Continuous
 62
     4
100
AcDbLine
 10
86.7322522450662
 20
-416.351808924954
 30
0.0
 11
89.6072522450662
 21
-416.351808924954
 31
0.0
  0
LINE
  5
3D3
330
1F
100
AcDbEntity
  8
1
  6
Continuous
 62
     4
100
AcDbLine
 10
86.7322522450662
 20
-416.351808924954
 30
0.0
 11
87.4197522450662
 21
-415.414308924954
 31
0.0
  0
LINE
  5
3D4
330
1F
100
AcDbEntity
  8
1
  6
Continuous
 62
     4
100
AcDbLine
 10
88.3572522450662
 20
-418.726808924954
 30
0.0
 11
87.2947522450662
 21
-418.726808924954
 31
0.0
  0
LINE
  5
3D5
330
1F
100
AcDbEntity
  8
1
  6
Continuous
 62
     4
100
AcDbLine
 10
88.3572522450662
 20
-417.476808924954
 30
0.0
 11
88.3572522450662
 21
-418.726808924954
 31
0.0
  0
LINE
  5
3D6
330
1F
100
AcDbEntity
  8
1
  6
Continuous
 62
     4
100
AcDbLine
 10
87.2947522450662
 20
-417.476808924954
 30
0.0
 11
88.3572522450662
 21
-417.476808924954
 31
0.0
  0
LINE
  5
3D7
330
1F
100
AcDbEntity
  8
1
  6
Continuous
 62
     4
100
AcDbLine
 10
87.2947522450662
 20
-418.726808924954
 30
0.0
 11
87.2947522450662
 21
-417.476808924954
 31
0.0
  0
LINE
  5
3D8
330
1F
100
AcDbEntity
  8
1
  6
Continuous
 62
     4
100
AcDbLine
 10
89.6072522450662
 20
-420.101808924954
 30
0.0
 11
88.9197522450662
 21
-420.101808924954
 31
0.0
  0
LINE
  5
3D9
330
1F
100
AcDbEntity
  8
1
  6
Continuous
 62
     4
100
AcDbLine
 10
89.6072522450662
 20
-416.351808924954
 30
0.0
 11
89.6072522450662
 21
-420.101808924954
 31
0.0
  0
LINE
  5
3DA
330
1F
100
AcDbEntity
  8
1
  6
Continuous
 62
     4
100
AcDbLine
 10
86.0447522450662
 20
-416.351808924954
 30
0.0
 11
86.7322522450662
 21
-416.351808924954
 31
0.0
  0
LINE
  5
3DB
330
1F
100
AcDbEntity
  8
1
  6
Continuous
 62
     4
100
AcDbLine
 10
86.0447522450662
 20
-420.101808924954
 30
0.0
 11
86.0447522450662
 21
-416.351808924954
 31
0.0
  0
LINE
  5
3DC
330
1F
100
AcDbEntity
  8
1
  6
Continuous
 62
     4
100
AcDbLine
 10
83.3572522450662
 20
-420.289308924954
 30
0.0
 11
82.8572522450662
 21
-419.976808924954
 31
0.0
  0
LINE
  5
3DD
330
1F
100
AcDbEntity
  8
1
  6
Continuous
 62
     4
100
AcDbLine
 10
83.6697522450662
 20
-419.789308924954
 30
0.0
 11
83.3572522450662
 21
-420.289308924954
 31
0.0
  0
LINE
  5
3DE
330
1F
100
AcDbEntity
  8
1
  6
Continuous
 62
     4
100
AcDbLine
 10
83.9197522450662
 20
-419.039308924954
 30
0.0
 11
83.6697522450662
 21
-419.789308924954
 31
0.0
  0
LINE
  5
3DF
330
1F
100
AcDbEntity
  8
1
  6
Continuous
 62
     4
100
AcDbLine
 10
84.2322522450662
 20
-417.914308924954
 30
0.0
 11
83.9197522450662
 21
-419.039308924954
 31
0.0
  0
LINE
  5
3E0
330
1F
100
AcDbEntity
  8
1
  6
Continuous
 62
     4
100
AcDbLine
 10
84.2322522450662
 20
-417.476808924954
 30
0.0
 11
84.2322522450662
 21
-417.914308924954
 31
0.0
  0
LINE
  5
3E1
330
1F
100
AcDbEntity
  8
1
  6
Continuous
 62
     4
100
AcDbLine
 10
82.4197522450662
 20
-417.476808924954
 30
0.0
 11
84.2322522450662
 21
-417.476808924954
 31
0.0
  0
LINE
  5
3E2
330
1F
100
AcDbEntity
  8
1
  6
Continuous
 62
     4
100
AcDbLine
 10
80.7322522450662
 20
-416.226808924954
 30
0.0
 11
84.9197522450662
 21
-416.226808924954
 31
0.0
  0
LINE
  5
3E3
330
1F
100
AcDbEntity
  8
1
  6
Continuous
 62
     4
100
AcDbLine
 10
82.5447522450662
 20
-416.664308924954
 30
0.0
 11
82.6697522450662
 21
-415.414308924954
 31
0.0
  0
LINE
  5
3E4
330
1F
100
AcDbEntity
  8
1
  6
Continuous
 62
     4
100
AcDbLine
 10
82.2947522450662
 20
-417.914308924954
 30
0.0
 11
82.5447522450662
 21
-416.664308924954
 31
0.0
  0
LINE
  5
3E5
330
1F
100
AcDbEntity
  8
1
  6
Continuous
 62
     4
100
AcDbLine
 10
81.9822522450662
 20
-418.726808924954
 30
0.0
 11
82.2947522450662
 21
-417.914308924954
 31
0.0
  0
LINE
  5
3E6
330
1F
100
AcDbEntity
  8
1
  6
Continuous
 62
     4
100
AcDbLine
 10
81.6072522450662
 20
-419.476808924954
 30
0.0
 11
81.9822522450662
 21
-418.726808924954
 31
0.0
  0
LINE
  5
3E7
330
1F
100
AcDbEntity
  8
1
  6
Continuous
 62
     4
100
AcDbLine
 10
81.0447522450662
 20
-420.101808924954
 30
0.0
 11
81.6072522450662
 21
-419.476808924954
 31
0.0
  0
LINE
  5
3E8
330
1F
100
AcDbEntity
  8
1
  6
Continuous
 62
     4
100
AcDbLine
 10
79.3572522450662
 20
-418.726808924954
 30
0.0
 11
80.0447522450662
 21
-419.476808924954
 31
0.0
  0
LINE
  5
3E9
330
1F
100
AcDbEntity
  8
1
  6
Continuous
 62
     4
100
AcDbLine
 10
78.7947522450662
 20
-417.789308924954
 30
0.0
 11
79.3572522450662
 21
-418.726808924954
 31
0.0
  0
LINE
  5
3EA
330
1F
100
AcDbEntity
  8
1
  6
Continuous
 62
     4
100
AcDbLine
 10
78.3572522450662
 20
-416.664308924954
 30
0.0
 11
78.7947522450662
 21
-417.789308924954
 31
0.0
  0
LINE
  5
3EB
330
1F
100
AcDbEntity
  8
1
  6
Continuous
 62
     4
100
AcDbLine
 10
79.6072522450662
 20
-416.539308924954
 30
0.0
 11
78.6697522450662
 21
-417.289308924954
 31
0.0
  0
LINE
  5
3EC
330
1F
100
AcDbEntity
  8
1
  6
Continuous
 62
     4
100
AcDbLine
 10
77.9822522450662
 20
-420.289308924954
 30
0.0
 11
77.5447522450662
 21
-420.101808924954
 31
0.0
  0
LINE
  5
3ED
330
1F
100
AcDbEntity
  8
1
  6
Continuous
 62
     4
100
AcDbLine
 10
77.9822522450662
 20
-415.414308924954
 30
0.0
 11
77.9822522450662
 21
-420.289308924954
 31
0.0
  0
LINE
  5
3EE
330
1F
100
AcDbEntity
  8
1
  6
Continuous
 62
     4
100
AcDbLine
 10
77.2947522450662
 20
-416.976808924954
 30
0.0
 11
75.8572522450662
 21
-416.976808924954
 31
0.0
  0
LINE
  5
3EF
330
1F
100
AcDbEntity
  8
1
  6
Continuous
 62
     4
100
AcDbLine
 10
76.9822522450662
 20
-417.914308924954
 30
0.0
 11
77.2947522450662
 21
-416.976808924954
 31
0.0
  0
LINE
  5
3F0
330
1F
100
AcDbEntity
  8
1
  6
Continuous
 62
     4
100
AcDbLine
 10
76.4197522450662
 20
-418.851808924954
 30
0.0
 11
76.9822522450662
 21
-417.914308924954
 31
0.0
  0
LINE
  5
3F1
330
1F
100
AcDbEntity
  8
1
  6
Continuous
 62
     4
100
AcDbLine
 10
75.8572522450662
 20
-419.476808924954
 30
0.0
 11
76.4197522450662
 21
-418.851808924954
 31
0.0
  0
LINE
  5
3F2
330
1F
100
AcDbEntity
  8
1
  6
Continuous
 62
     4
100
AcDbLine
 10
73.1072522450662
 20
-416.039308924954
 30
0.0
 11
74.7947522450662
 21
-416.039308924954
 31
0.0
  0
LINE
  5
3F3
330
1F
100
AcDbEntity
  8
1
  6
Continuous
 62
     4
100
AcDbLine
 10
75.0447522450662
 20
-419.789308924954
 30
0.0
 11
75.0447522450662
 21
-419.476808924954
 31
0.0
  0
LINE
  5
3F4
330
1F
100
AcDbEntity
  8
1
  6
Continuous
 62
     4
100
AcDbLine
 10
74.7947522450662
 20
-420.101808924954
 30
0.0
 11
75.0447522450662
 21
-419.789308924954
 31
0.0
  0
LINE
  5
3F5
330
1F
100
AcDbEntity
  8
1
  6
Continuous
 62
     4
100
AcDbLine
 10
74.2322522450662
 20
-420.101808924954
 30
0.0
 11
74.7947522450662
 21
-420.101808924954
 31
0.0
  0
LINE
  5
3F6
330
1F
100
AcDbEntity
  8
1
  6
Continuous
 62
     4
100
AcDbLine
 10
73.9197522450662
 20
-419.664308924954
 30
0.0
 11
74.2322522450662
 21
-420.101808924954
 31
0.0
  0
LINE
  5
3F7
330
1F
100
AcDbEntity
  8
1
  6
Continuous
 62
     4
100
AcDbLine
 10
73.9197522450662
 20
-418.101808924954
 30
0.0
 11
73.9197522450662
 21
-419.664308924954
 31
0.0
  0
LINE
  5
3F8
330
1F
100
AcDbEntity
  8
1
  6
Continuous
 62
     4
100
AcDbLine
 10
73.1072522450662
 20
-420.101808924954
 30
0.0
 11
73.1072522450662
 21
-418.101808924954
 31
0.0
  0
LINE
  5
3F9
330
1F
100
AcDbEntity
  8
1
  6
Continuous
 62
     4
100
AcDbLine
 10
71.8572522450662
 20
-419.976808924954
 30
0.0
 11
71.4197522450662
 21
-420.289308924954
 31
0.0
  0
LINE
  5
3FA
330
1F
100
AcDbEntity
  8
1
  6
Continuous
 62
     4
100
AcDbLine
 10
72.1072522450662
 20
-419.664308924954
 30
0.0
 11
71.8572522450662
 21
-419.976808924954
 31
0.0
  0
LINE
  5
3FB
330
1F
100
AcDbEntity
  8
1
  6
Continuous
 62
     4
100
AcDbLine
 10
72.2947522450662
 20
-419.164308924954
 30
0.0
 11
72.1072522450662
 21
-419.664308924954
 31
0.0
  0
LINE
  5
3FC
330
1F
100
AcDbEntity
  8
1
  6
Continuous
 62
     4
100
AcDbLine
 10
72.4197522450662
 20
-418.101808924954
 30
0.0
 11
72.2947522450662
 21
-419.164308924954
 31
0.0
  0
LINE
  5
3FD
330
1F
100
AcDbEntity
  8
1
  6
Continuous
 62
     4
100
AcDbLine
 10
73.7947522450662
 20
-416.539308924954
 30
0.0
 11
74.3572522450662
 21
-417.601808924954
 31
0.0
  0
LINE
  5
3FE
330
1F
100
AcDbEntity
  8
1
  6
Continuous
 62
     4
100
AcDbLine
 10
71.9822522450662
 20
-417.289308924954
 30
0.0
 11
74.1072522450662
 21
-417.164308924954
 31
0.0
  0
LINE
  5
3FF
330
1F
100
AcDbEntity
  8
1
  6
Continuous
 62
     4
100
AcDbLine
 10
73.1072522450662
 20
-416.039308924954
 30
0.0
 11
72.5447522450662
 21
-417.289308924954
 31
0.0
  0
LINE
  5
400
330
1F
100
AcDbEntity
  8
1
  6
Continuous
 62
     4
100
AcDbLine
 10
73.2322522450662
 20
-415.289308924954
 30
0.0
 11
73.2322522450662
 21
-416.039308924954
 31
0.0
  0
LINE
  5
401
330
1F
100
AcDbEntity
  8
1
  6
Continuous
 62
     4
100
AcDbLine
 10
71.7322522450662
 20
-416.039308924954
 30
0.0
 11
73.1072522450662
 21
-416.039308924954
 31
0.0
  0
LINE
  5
402
330
1F
100
AcDbEntity
  8
1
  6
Continuous
 62
     4
100
AcDbLine
 10
70.7322522450662
 20
-420.101808924954
 30
0.0
 11
71.2947522450662
 21
-418.101808924954
 31
0.0
  0
LINE
  5
403
330
1F
100
AcDbEntity
  8
1
  6
Continuous
 62
     4
100
AcDbLine
 10
70.6072522450662
 20
-416.851808924954
 30
0.0
 11
71.0447522450662
 21
-417.289308924954
 31
0.0
  0
LINE
  5
404
330
1F
100
AcDbEntity
  8
1
  6
Continuous
 62
     4
100
AcDbLine
 10
71.0447522450662
 20
-415.414308924954
 30
0.0
 11
71.2947522450662
 21
-415.914308924954
 31
0.0
  0
LINE
  5
5DC
330
1F
100
AcDbEntity
  8
100
  6
Continuous
 62
     3
100
AcDbLine
 10
253.590151892252
 20
-130.283097365489
 30
0.0
 11
206.520331637595
 21
-130.283097365489
 31
0.0
  0
LINE
  5
5DD
330
1F
100
AcDbEntity
  8
100
  6
Continuous
 62
     3
100
AcDbLine
 10
206.305241764923
 20
-155.283097365489
 30
0.0
 11
253.805241764923
 21
-155.283097365489
 31
0.0
  0
LINE
  5
5DE
330
1F
100
AcDbEntity
  8
100
  6
Continuous
 62
     3
100
AcDbLine
 10
97.0000000000001
 20
-136.783097365489
 30
0.0
 11
97.0000000000001
 21
-138.283097365489
 31
0.0
  0
LINE
  5
5DF
330
1F
100
AcDbEntity
  8
100
  6
Continuous
 62
     3
100
AcDbLine
 10
97.0000000000001
 20
-139.283097365489
 30
0.0
 11
97.0000000000001
 21
-140.783097365489
 31
0.0
  0
LINE
  5
5E0
330
1F
100
AcDbEntity
  8
100
  6
Continuous
 62
     3
100
AcDbLine
 10
97.0000000000001
 20
-130.571772500084
 30
0.0
 11
97.0000000000001
 21
-141.783097365489
 31
0.0
  0
LINE
  5
5E1
330
1F
100
AcDbEntity
  8
100
  6
Continuous
 62
     3
100
AcDbLine
 10
107.75
 20
-155.283097365489
 30
0.0
 11
107.75
 21
-141.783097365489
 31
0.0
  0
LINE
  5
5E2
330
1F
100
AcDbEntity
  8
100
  6
Continuous
 62
     3
100
AcDbLine
 10
107.75
 20
-141.783097365489
 30
0.0
 11
60.25
 21
-141.783097365489
 31
0.0
  0
LINE
  5
5E3
330
1F
100
AcDbEntity
  8
100
  6
Continuous
 62
     3
100
AcDbLine
 10
60.25
 20
-155.283097365489
 30
0.0
 11
107.75
 21
-155.283097365489
 31
0.0
  0
LINE
  5
5E4
330
1F
100
AcDbEntity
  8
100
  6
Continuous
 62
     3
100
AcDbLine
 10
60.25
 20
-155.283097365489
 30
0.0
 11
60.25
 21
-141.783097365489
 31
0.0
  0
LINE
  5
5E5
330
1F
100
AcDbEntity
  8
100
  6
Continuous
 62
     3
100
AcDbLine
 10
71.0
 20
-130.571772500084
 30
0.0
 11
71.0
 21
-141.783097365489
 31
0.0
  0
LINE
  5
5E6
330
1F
100
AcDbEntity
  8
100
  6
Continuous
 62
     3
100
AcDbLine
 10
89.38477631085
 20
-141.783097365489
 30
0.0
 11
89.38477631085
 21
-131.190171567317
 31
0.0
  0
LINE
  5
5E7
330
1F
100
AcDbEntity
  8
100
  6
Continuous
 62
     3
100
AcDbLine
 10
78.61522368915
 20
-141.783097365489
 30
0.0
 11
78.61522368915
 21
-131.190171567317
 31
0.0
  0
LINE
  5
5E8
330
1F
100
AcDbEntity
  8
100
  6
Continuous
 62
     3
100
AcDbLine
 10
61.0411070152067
 20
-97.2830973698468
 30
0.0
 11
60.4650898726721
 21
-130.283097365489
 31
0.0
  0
LINE
  5
5E9
330
1F
100
AcDbEntity
  8
100
  6
Continuous
 62
     3
100
AcDbLine
 10
70.3987545370725
 20
-89.2491707208319
 30
0.0
 11
70.837707933943
 21
-89.1106457096075
 31
0.0
  0
LINE
  5
5EA
330
1F
100
AcDbEntity
  8
100
  6
Continuous
 62
     3
100
AcDbLine
 10
107.534910127329
 20
-130.283097365489
 30
0.0
 11
60.4650898726721
 21
-130.283097365489
 31
0.0
  0
LINE
  5
5EB
330
1F
100
AcDbEntity
  8
100
  6
Continuous
 62
     3
100
AcDbLine
 10
65.27220289847
 20
-128.283097367754
 30
0.0
 11
65.5056401379437
 21
-95.3391106560658
 31
0.0
  0
LINE
  5
5EC
330
1F
100
AcDbEntity
  8
1
  6
Continuous
 62
     3
100
AcDbLine
 10
68.1528837788854
 20
-95.5532074567017
 30
0.0
 11
68.1528158872252
 21
-95.558830663641
 31
0.0
  0
LINE
  5
5ED
330
1F
100
AcDbEntity
  8
100
  6
Continuous
 62
     3
100
AcDbLine
 10
67.5815814036496
 20
-128.283097367754
 30
0.0
 11
68.1528908502453
 21
-95.5528010033617
 31
0.0
  0
LINE
  5
5EE
330
1F
100
AcDbEntity
  8
100
  6
Continuous
 62
     3
100
AcDbLine
 10
68.2018512399998
 20
-94.4707433479436
 30
0.0
 11
68.2308928557767
 21
-94.7499353041322
 31
0.0
  0
LINE
  5
5EF
330
1F
100
AcDbEntity
  8
100
  6
Continuous
 62
     3
100
AcDbLine
 10
81.3076736552235
 20
-95.3391106560658
 30
0.0
 11
81.6460737556251
 21
-128.283097367754
 31
0.0
  0
LINE
  5
5F0
330
1F
100
AcDbEntity
  8
100
  6
Continuous
 62
     3
100
AcDbLine
 10
86.6923263422368
 20
-95.3391106560658
 30
0.0
 11
86.3539262443749
 21
-128.283097367754
 31
0.0
  0
LINE
  5
5F1
330
1F
100
AcDbEntity
  8
1
  6
Continuous
 62
     3
100
AcDbLine
 10
106.958892984793
 20
-97.2830973698468
 30
0.0
 11
106.929560897157
 21
-97.2830973698468
 31
0.0
  0
LINE
  5
5F2
330
1F
100
AcDbEntity
  8
100
  6
Continuous
 62
     3
100
AcDbLine
 10
96.4695207541953
 20
-97.2830973698468
 30
0.0
 11
94.4600401429616
 21
-97.2830973698468
 31
0.0
  0
LINE
  5
5F3
330
1F
100
AcDbEntity
  8
100
  6
Continuous
 62
     3
100
AcDbLine
 10
73.5399598570384
 20
-97.2830973698468
 30
0.0
 11
71.5304792458047
 21
-97.2830973698468
 31
0.0
  0
LINE
  5
5F4
330
1F
100
AcDbEntity
  8
1
  6
Continuous
 62
     3
100
AcDbLine
 10
61.0704391028434
 20
-97.2830973698468
 30
0.0
 11
61.0411070152067
 21
-97.2830973698468
 31
0.0
  0
LINE
  5
5F5
330
1F
100
AcDbEntity
  8
100
  6
Continuous
 62
     3
100
AcDbLine
 10
100.41841859635
 20
-128.283097367754
 30
0.0
 11
99.8471089694147
 21
-95.5527908332017
 31
0.0
  0
LINE
  5
5F6
330
1F
100
AcDbEntity
  8
1
  6
Continuous
 62
     3
100
AcDbLine
 10
99.8471818623347
 20
-95.5585455511811
 30
0.0
 11
99.8471167570547
 21
-95.5532391178017
 31
0.0
  0
LINE
  5
5F7
330
1F
100
AcDbEntity
  8
100
  6
Continuous
 62
     3
100
AcDbLine
 10
102.72779710153
 20
-128.283097367754
 30
0.0
 11
102.494359862057
 21
-95.3391106560658
 31
0.0
  0
LINE
  5
5F8
330
1F
100
AcDbEntity
  8
100
  6
Continuous
 62
     3
100
AcDbLine
 10
71.57322549
 20
-89.0
 30
0.0
 11
96.42677451
 21
-89.0
 31
0.0
  0
LINE
  5
5F9
330
1F
100
AcDbEntity
  8
100
  6
Continuous
 62
     3
100
AcDbLine
 10
106.958892984793
 20
-97.2830973698468
 30
0.0
 11
107.534910127329
 21
-130.283097365489
 31
0.0
  0
LINE
  5
5FA
330
1F
100
AcDbEntity
  8
100
  6
Continuous
 62
     3
100
AcDbLine
 10
243.055241764923
 20
-136.783097365489
 30
0.0
 11
243.055241764923
 21
-138.283097365489
 31
0.0
  0
LINE
  5
5FB
330
1F
100
AcDbEntity
  8
100
  6
Continuous
 62
     3
100
AcDbLine
 10
243.055241764923
 20
-139.283097365489
 30
0.0
 11
243.055241764923
 21
-140.783097365489
 31
0.0
  0
LINE
  5
5FC
330
1F
100
AcDbEntity
  8
100
  6
Continuous
 62
     3
100
AcDbLine
 10
243.055241764923
 20
-130.571772500084
 30
0.0
 11
243.055241764923
 21
-141.783097365489
 31
0.0
  0
LINE
  5
5FD
330
1F
100
AcDbEntity
  8
100
  6
Continuous
 62
     3
100
AcDbLine
 10
253.805241764923
 20
-155.283097365489
 30
0.0
 11
253.805241764923
 21
-141.783097365489
 31
0.0
  0
LINE
  5
5FE
330
1F
100
AcDbEntity
  8
100
  6
Continuous
 62
     3
100
AcDbLine
 10
253.805241764923
 20
-141.783097365489
 30
0.0
 11
206.305241764923
 21
-141.783097365489
 31
0.0
  0
LINE
  5
5FF
330
1F
100
AcDbEntity
  8
100
  6
Continuous
 62
     3
100
AcDbLine
 10
206.305241764923
 20
-155.283097365489
 30
0.0
 11
206.305241764923
 21
-141.783097365489
 31
0.0
  0
LINE
  5
600
330
1F
100
AcDbEntity
  8
100
  6
Continuous
 62
     3
100
AcDbLine
 10
217.055241764923
 20
-130.571772500084
 30
0.0
 11
217.055241764923
 21
-141.783097365489
 31
0.0
  0
LINE
  5
601
330
1F
100
AcDbEntity
  8
100
  6
Continuous
 62
     3
100
AcDbLine
 10
235.440018075773
 20
-141.783097365489
 30
0.0
 11
235.440018075773
 21
-131.190171567317
 31
0.0
  0
LINE
  5
602
330
1F
100
AcDbEntity
  8
100
  6
Continuous
 62
     3
100
AcDbLine
 10
224.670465454074
 20
-141.783097365489
 30
0.0
 11
224.670465454074
 21
-131.190171567317
 31
0.0
  0
LINE
  5
603
330
1F
100
AcDbEntity
  8
100
  6
Continuous
 62
     3
100
AcDbLine
 10
207.09634878013
 20
-97.2830973698468
 30
0.0
 11
206.520331637595
 21
-130.283097365489
 31
0.0
  0
LINE
  5
604
330
1F
100
AcDbEntity
  8
100
  6
Continuous
 62
     3
100
AcDbLine
 10
216.453996301996
 20
-89.2491707208319
 30
0.0
 11
216.892949698866
 21
-89.1106457096075
 31
0.0
  0
LINE
  5
605
330
1F
100
AcDbEntity
  8
100
  6
Continuous
 62
     3
100
AcDbLine
 10
211.327444663393
 20
-128.283097367754
 30
0.0
 11
211.560881902867
 21
-95.3391106560658
 31
0.0
  0
LINE
  5
606
330
1F
100
AcDbEntity
  8
1
  6
Continuous
 62
     3
100
AcDbLine
 10
214.208125543809
 20
-95.5532074567017
 30
0.0
 11
214.208057652149
 21
-95.558830663641
 31
0.0
  0
LINE
  5
607
330
1F
100
AcDbEntity
  8
100
  6
Continuous
 62
     3
100
AcDbLine
 10
213.636823168573
 20
-128.283097367754
 30
0.0
 11
214.208132615169
 21
-95.5528010033617
 31
0.0
  0
LINE
  5
608
330
1F
100
AcDbEntity
  8
100
  6
Continuous
 62
     3
100
AcDbLine
 10
214.257093004923
 20
-94.4707433479436
 30
0.0
 11
214.2861346207
 21
-94.7499353041322
 31
0.0
  0
LINE
  5
609
330
1F
100
AcDbEntity
  8
100
  6
Continuous
 62
     3
100
AcDbLine
 10
227.362915420147
 20
-95.3391106560658
 30
0.0
 11
227.701315520549
 21
-128.283097367754
 31
0.0
  0
LINE
  5
60A
330
1F
100
AcDbEntity
  8
100
  6
Continuous
 62
     3
100
AcDbLine
 10
232.74756810716
 20
-95.3391106560658
 30
0.0
 11
232.409168009298
 21
-128.283097367754
 31
0.0
  0
LINE
  5
60B
330
1F
100
AcDbEntity
  8
1
  6
Continuous
 62
     3
100
AcDbLine
 10
253.014134749717
 20
-97.2830973698468
 30
0.0
 11
252.98480266208
 21
-97.2830973698468
 31
0.0
  0
LINE
  5
60C
330
1F
100
AcDbEntity
  8
100
  6
Continuous
 62
     3
100
AcDbLine
 10
242.524762519119
 20
-97.2830973698468
 30
0.0
 11
240.515281907885
 21
-97.2830973698468
 31
0.0
  0
LINE
  5
60D
330
1F
100
AcDbEntity
  8
100
  6
Continuous
 62
     3
100
AcDbLine
 10
219.595201621962
 20
-97.2830973698468
 30
0.0
 11
217.585721010728
 21
-97.2830973698468
 31
0.0
  0
LINE
  5
60E
330
1F
100
AcDbEntity
  8
1
  6
Continuous
 62
     3
100
AcDbLine
 10
207.125680867767
 20
-97.2830973698468
 30
0.0
 11
207.09634878013
 21
-97.2830973698468
 31
0.0
  0
LINE
  5
60F
330
1F
100
AcDbEntity
  8
100
  6
Continuous
 62
     3
100
AcDbLine
 10
246.473660361274
 20
-128.283097367754
 30
0.0
 11
245.902350734338
 21
-95.5527908332017
 31
0.0
  0
LINE
  5
610
330
1F
100
AcDbEntity
  8
1
  6
Continuous
 62
     3
100
AcDbLine
 10
245.902423627258
 20
-95.5585455511811
 30
0.0
 11
245.902358521978
 21
-95.5532391178017
 31
0.0
  0
LINE
  5
611
330
1F
100
AcDbEntity
  8
100
  6
Continuous
 62
     3
100
AcDbLine
 10
248.783038866454
 20
-128.283097367754
 30
0.0
 11
248.54960162698
 21
-95.3391106560658
 31
0.0
  0
LINE
  5
612
330
1F
100
AcDbEntity
  8
100
  6
Continuous
 62
     3
100
AcDbLine
 10
217.628467254923
 20
-89.0
 30
0.0
 11
242.482016274923
 21
-89.0
 31
0.0
  0
LINE
  5
613
330
1F
100
AcDbEntity
  8
100
  6
Continuous
 62
     3
100
AcDbLine
 10
253.014134749717
 20
-97.2830973698468
 30
0.0
 11
253.590151892252
 21
-130.283097365489
 31
0.0
  0
LINE
  5
614
330
1F
100
AcDbEntity
  8
2
  6
PHANTOM
 62
     6
100
AcDbLine
 10
217.628467254923
 20
-96.0
 30
0.0
 11
242.482016274923
 21
-96.0
 31
0.0
  0
LINE
  5
615
330
1F
100
AcDbEntity
  8
2
  6
PHANTOM
 62
     6
100
AcDbLine
 10
216.453996301996
 20
-96.2491707208319
 30
0.0
 11
216.892949698866
 21
-96.1106457096075
 31
0.0
  0
LINE
  5
616
330
1F
100
AcDbEntity
  8
2
  6
PHANTOM
 62
     6
100
AcDbLine
 10
253.394407180188
 20
-126.068890321549
 30
0.0
 11
253.590151892252
 21
-137.283097365489
 31
0.0
  0
LINE
  5
617
330
1F
100
AcDbEntity
  8
2
  6
PHANTOM
 62
     6
100
AcDbLine
 10
253.590151892252
 20
-137.283097365489
 30
0.0
 11
206.520331637595
 21
-137.283097365489
 31
0.0
  0
LINE
  5
618
330
1F
100
AcDbEntity
  8
2
  6
PHANTOM
 62
     6
100
AcDbLine
 10
206.716076349659
 20
-126.068890321549
 30
0.0
 11
206.520331637595
 21
-137.283097365489
 31
0.0
  0
LINE
  5
619
330
1F
100
AcDbEntity
  8
1
  6
Continuous
 62
     3
100
AcDbLine
 10
129.0
 20
-364.7
 30
0.0
 11
127.5
 21
-363.2
 31
0.0
  0
LINE
  5
61A
330
1F
100
AcDbEntity
  8
1
  6
Continuous
 62
     3
100
AcDbLine
 10
129.0
 20
-403.3
 30
0.0
 11
127.5
 21
-404.8
 31
0.0
  0
LINE
  5
61B
330
1F
100
AcDbEntity
  8
1
  6
Continuous
 62
     3
100
AcDbLine
 10
40.5
 20
-404.8
 30
0.0
 11
39.0
 21
-403.3
 31
0.0
  0
LINE
  5
61C
330
1F
100
AcDbEntity
  8
1
  6
Continuous
 62
     3
100
AcDbLine
 10
40.5
 20
-363.2
 30
0.0
 11
39.0
 21
-364.7
 31
0.0
  0
LINE
  5
61D
330
1F
100
AcDbEntity
  8
1
  6
Continuous
 62
     3
100
AcDbLine
 10
39.0
 20
-15.2364573784651
 30
0.0
 11
40.5
 21
-13.7364573784651
 31
0.0
  0
LINE
  5
61E
330
1F
100
AcDbEntity
  8
1
  6
Continuous
 62
     3
100
AcDbLine
 10
39.0
 20
-53.8364573784652
 30
0.0
 11
40.5
 21
-55.3364573784652
 31
0.0
  0
LINE
  5
61F
330
1F
100
AcDbEntity
  8
1
  6
Continuous
 62
     3
100
AcDbLine
 10
129.0
 20
-53.8364573784652
 30
0.0
 11
127.5
 21
-55.3364573784652
 31
0.0
  0
LINE
  5
620
330
1F
100
AcDbEntity
  8
1
  6
Continuous
 62
     3
100
AcDbLine
 10
129.0
 20
-15.2364573784651
 30
0.0
 11
127.5
 21
-13.7364573784651
 31
0.0
  0
LINE
  5
621
330
1F
100
AcDbEntity
  8
1
  6
Continuous
 62
     4
100
AcDbLine
 10
47.617404027264
 20
-407.905519377935
 30
0.0
 11
47.573582562256
 21
-404.8
 31
0.0
  0
LINE
  5
622
330
1F
100
AcDbEntity
  8
1
  6
Continuous
 62
     4
100
AcDbLine
 10
46.0587733752159
 20
-407.51136940574
 30
0.0
 11
47.573582562256
 21
-404.8
 31
0.0
  0
LINE
  5
623
330
1F
100
AcDbEntity
  8
100
  6
Continuous
 62
     3
100
AcDbLine
 10
63.0
 20
-361.0
 30
0.0
 11
105.0
 21
-361.0
 31
0.0
  0
LINE
  5
624
330
1F
100
AcDbEntity
  8
100
  6
Continuous
 62
     3
100
AcDbLine
 10
63.0
 20
-361.0
 30
0.0
 11
63.0
 21
-246.0
 31
0.0
  0
LINE
  5
625
330
1F
100
AcDbEntity
  8
100
  6
Continuous
 62
     3
100
AcDbLine
 10
105.0
 20
-361.0
 30
0.0
 11
105.0
 21
-246.0
 31
0.0
  0
LINE
  5
626
330
1F
100
AcDbEntity
  8
100
  6
Continuous
 62
     3
100
AcDbLine
 10
105.0
 20
-241.0
 30
0.0
 11
105.0
 21
-155.283097365489
 31
0.0
  0
LINE
  5
627
330
1F
100
AcDbEntity
  8
100
  6
Continuous
 62
     3
100
AcDbLine
 10
63.0
 20
-241.0
 30
0.0
 11
63.0
 21
-155.283097365489
 31
0.0
  0
LINE
  5
628
330
1F
100
AcDbEntity
  8
100
  6
Continuous
 62
     3
100
AcDbLine
 10
79.500015258789
 20
-392.0
 30
0.0
 11
82.000015258789
 21
-388.0
 31
0.0
  0
LINE
  5
629
330
1F
100
AcDbEntity
  8
100
  6
Continuous
 62
     3
100
AcDbLine
 10
97.0000152587891
 20
-387.0
 30
0.0
 11
74.125015258789
 21
-387.0
 31
0.0
  0
LINE
  5
62A
330
1F
100
AcDbEntity
  8
100
  6
Continuous
 62
     3
100
AcDbLine
 10
71.000015258789
 20
-392.0
 30
0.0
 11
79.500015258789
 21
-392.0
 31
0.0
  0
LINE
  5
62B
330
1F
100
AcDbEntity
  8
100
  6
Continuous
 62
     3
100
AcDbLine
 10
82.000015258789
 20
-388.0
 30
0.0
 11
93.000015258789
 21
-388.0
 31
0.0
  0
LINE
  5
62C
330
1F
100
AcDbEntity
  8
100
  6
Continuous
 62
     3
100
AcDbLine
 10
93.000015258789
 20
-388.0
 30
0.0
 11
92.000015258789
 21
-392.0
 31
0.0
  0
LINE
  5
62D
330
1F
100
AcDbEntity
  8
100
  6
Continuous
 62
     3
100
AcDbLine
 10
97.0000152587891
 20
-387.0
 30
0.0
 11
92.000015258789
 21
-392.0
 31
0.0
  0
LINE
  5
62E
330
1F
100
AcDbEntity
  8
100
  6
Continuous
 62
     3
100
AcDbLine
 10
71.000015258789
 20
-392.0
 30
0.0
 11
74.125015258789
 21
-387.0
 31
0.0
  0
LINE
  5
62F
330
1F
100
AcDbEntity
  8
1
  6
DOT_CENTER
 62
     1
100
AcDbLine
 10
84.0
 20
-58.5364573784651
 30
0.0
 11
84.0
 21
-10.5364573784651
 31
0.0
  0
LINE
  5
630
330
1F
100
AcDbEntity
  8
2
  6
Continuous
 62
     2
100
AcDbLine
 10
159.761749267578
 20
-384.0
 30
0.0
 11
159.761749267578
 21
-237.5
 31
0.0
  0
LINE
  5
631
330
1F
100
AcDbEntity
  8
2
  6
Continuous
 62
     2
100
AcDbLine
 10
135.977142333984
 20
-384.0
 30
0.0
 11
160.761749267578
 21
-384.0
 31
0.0
  0
LINE
  5
632
330
1F
100
AcDbEntity
  8
2
  6
Continuous
 62
     2
100
AcDbLine
 10
94.0
 20
-89.0000010520124
 30
0.0
 11
160.761749267578
 21
-89.0000010520124
 31
0.0
  0
LINE
  5
633
330
1F
100
AcDbEntity
  8
2
  6
Continuous
 62
     2
100
AcDbLine
 10
159.761749267578
 20
-89.0000010520124
 30
0.0
 11
159.761749267578
 21
-237.5
 31
0.0
  0
LINE
  5
634
330
1F
100
AcDbEntity
  8
1
  6
DOT_CENTER
 62
     1
100
AcDbLine
 10
35.3961639404297
 20
-34.5364573784651
 30
0.0
 11
134.0
 21
-34.5364573784651
 31
0.0
  0
LINE
  5
635
330
1F
100
AcDbEntity
  8
1
  6
DOT_CENTER
 62
     1
100
AcDbLine
 10
206.055241764923
 20
-384.0
 30
0.0
 11
254.055241764923
 21
-384.0
 31
0.0
  0
LINE
  5
636
330
1F
100
AcDbEntity
  8
100
  6
Continuous
 62
     3
100
AcDbLine
 10
212.055241764923
 20
-361.0
 30
0.0
 11
209.055241764923
 21
-361.0
 31
0.0
  0
LINE
  5
637
330
1F
100
AcDbEntity
  8
100
  6
Continuous
 62
     3
100
AcDbLine
 10
248.055241764923
 20
-361.0
 30
0.0
 11
251.055241764923
 21
-361.0
 31
0.0
  0
LINE
  5
638
330
1F
100
AcDbEntity
  8
100
  6
Continuous
 62
     3
100
AcDbLine
 10
209.055241764923
 20
-361.0
 30
0.0
 11
251.055241764923
 21
-361.0
 31
0.0
  0
LINE
  5
639
330
1F
100
AcDbEntity
  8
100
  6
Continuous
 62
     3
100
AcDbLine
 10
251.055241764923
 20
-361.0
 30
0.0
 11
251.055241764923
 21
-246.0
 31
0.0
  0
LINE
  5
63A
330
1F
100
AcDbEntity
  8
100
  6
Continuous
 62
     3
100
AcDbLine
 10
209.055241764923
 20
-361.0
 30
0.0
 11
209.055241764923
 21
-246.0
 31
0.0
  0
LINE
  5
63B
330
1F
100
AcDbEntity
  8
100
  6
Continuous
 62
     3
100
AcDbLine
 10
209.055241764923
 20
-361.0
 30
0.0
 11
209.055241764923
 21
-246.0
 31
0.0
  0
LINE
  5
63C
330
1F
100
AcDbEntity
  8
100
  6
Continuous
 62
     3
100
AcDbLine
 10
251.055241764923
 20
-361.0
 30
0.0
 11
251.055241764923
 21
-246.0
 31
0.0
  0
LINE
  5
63D
330
1F
100
AcDbEntity
  8
100
  6
Continuous
 62
     3
100
AcDbLine
 10
251.055241764923
 20
-241.0
 30
0.0
 11
251.055241764923
 21
-155.283097365489
 31
0.0
  0
LINE
  5
63E
330
1F
100
AcDbEntity
  8
100
  6
Continuous
 62
     3
100
AcDbLine
 10
209.055241764923
 20
-241.0
 30
0.0
 11
209.055241764923
 21
-155.283097365489
 31
0.0
  0
LINE
  5
63F
330
1F
100
AcDbEntity
  8
1
  6
DOT_CENTER
 62
     1
100
AcDbLine
 10
230.055241764923
 20
-410.0
 30
0.0
 11
230.055241764923
 21
-82.9999999999999
 31
0.0
  0
LINE
  5
640
330
1F
100
AcDbEntity
  8
1
  6
DOT_CENTER
 62
     1
100
AcDbLine
 10
84.0
 20
-412.047588584027
 30
0.0
 11
84.0
 21
-83.0000000000001
 31
0.0
  0
LINE
  5
641
330
1F
100
AcDbEntity
  8
100
  6
Continuous
 62
     3
100
AcDbLine
 10
55.0
 20
-363.2
 30
0.0
 11
57.2142135623737
 21
-365.414213562373
 31
0.0
  0
LINE
  5
642
330
1F
100
AcDbEntity
  8
100
  6
Continuous
 62
     3
100
AcDbLine
 10
55.0
 20
-363.2
 30
0.0
 11
40.5
 21
-363.2
 31
0.0
  0
LINE
  5
643
330
1F
100
AcDbEntity
  8
100
  6
Continuous
 62
     3
100
AcDbLine
 10
40.5
 20
-404.8
 30
0.0
 11
55.0
 21
-404.8
 31
0.0
  0
LINE
  5
644
330
1F
100
AcDbEntity
  8
1
  6
Continuous
 62
     1
100
AcDbLine
 10
39.176
 20
-364.524
 30
0.0
 11
56.3240000000003
 21
-364.524
 31
0.0
  0
LINE
  5
645
330
1F
100
AcDbEntity
  8
1
  6
Continuous
 62
     1
100
AcDbLine
 10
39.176
 20
-403.476
 30
0.0
 11
56.3240000000003
 21
-403.476
 31
0.0
  0
LINE
  5
646
330
1F
100
AcDbEntity
  8
100
  6
Continuous
 62
     3
100
AcDbLine
 10
39.0
 20
-403.3
 30
0.0
 11
39.0
 21
-364.7
 31
0.0
  0
LINE
  5
647
330
1F
100
AcDbEntity
  8
100
  6
Continuous
 62
     3
100
AcDbLine
 10
129.0
 20
-403.3
 30
0.0
 11
129.0
 21
-364.7
 31
0.0
  0
LINE
  5
648
330
1F
100
AcDbEntity
  8
100
  6
Continuous
 62
     3
100
AcDbLine
 10
127.5
 20
-404.8
 30
0.0
 11
113.0
 21
-404.8
 31
0.0
  0
LINE
  5
649
330
1F
100
AcDbEntity
  8
1
  6
Continuous
 62
     1
100
AcDbLine
 10
128.824
 20
-403.476
 30
0.0
 11
111.676
 21
-403.476
 31
0.0
  0
LINE
  5
64A
330
1F
100
AcDbEntity
  8
100
  6
Continuous
 62
     3
100
AcDbLine
 10
58.6284271247466
 20
-366.0
 30
0.0
 11
59.0
 21
-366.0
 31
0.0
  0
LINE
  5
64B
330
1F
100
AcDbEntity
  8
100
  6
Continuous
 62
     3
100
AcDbLine
 10
109.0
 20
-366.0
 30
0.0
 11
109.371572875253
 21
-366.0
 31
0.0
  0
LINE
  5
64C
330
1F
100
AcDbEntity
  8
100
  6
Continuous
 62
     3
100
AcDbLine
 10
113.0
 20
-363.2
 30
0.0
 11
110.785786437626
 21
-365.414213562373
 31
0.0
  0
LINE
  5
64D
330
1F
100
AcDbEntity
  8
1
  6
Continuous
 62
     1
100
AcDbLine
 10
128.824
 20
-364.524
 30
0.0
 11
111.676
 21
-364.524
 31
0.0
  0
LINE
  5
64E
330
1F
100
AcDbEntity
  8
100
  6
Continuous
 62
     3
100
AcDbLine
 10
113.0
 20
-363.2
 30
0.0
 11
127.5
 21
-363.2
 31
0.0
  0
LINE
  5
64F
330
1F
100
AcDbEntity
  8
100
  6
Continuous
 62
     3
100
AcDbLine
 10
58.6284271247466
 20
-402.0
 30
0.0
 11
59.0
 21
-402.0
 31
0.0
  0
LINE
  5
650
330
1F
100
AcDbEntity
  8
100
  6
Continuous
 62
     3
100
AcDbLine
 10
109.0
 20
-402.0
 30
0.0
 11
109.371572875253
 21
-402.0
 31
0.0
  0
LINE
  5
651
330
1F
100
AcDbEntity
  8
100
  6
Continuous
 62
     3
100
AcDbLine
 10
55.0
 20
-404.8
 30
0.0
 11
57.2142135623737
 21
-402.585786437627
 31
0.0
  0
LINE
  5
652
330
1F
100
AcDbEntity
  8
100
  6
Continuous
 62
     3
100
AcDbLine
 10
113.0
 20
-404.8
 30
0.0
 11
110.785786437626
 21
-402.585786437627
 31
0.0
  0
LINE
  5
653
330
1F
100
AcDbEntity
  8
100
  6
Continuous
 62
     3
100
AcDbLine
 10
39.0
 20
-53.8364573784652
 30
0.0
 11
39.0
 21
-15.2364573784651
 31
0.0
  0
LINE
  5
654
330
1F
100
AcDbEntity
  8
1
  6
Continuous
 62
     1
100
AcDbLine
 10
39.176
 20
-15.0604573784652
 30
0.0
 11
56.3240000000003
 21
-15.0604573784652
 31
0.0
  0
LINE
  5
655
330
1F
100
AcDbEntity
  8
100
  6
Continuous
 62
     3
100
AcDbLine
 10
55.0
 20
-13.7364573784651
 30
0.0
 11
40.5
 21
-13.7364573784651
 31
0.0
  0
LINE
  5
656
330
1F
100
AcDbEntity
  8
100
  6
Continuous
 62
     3
100
AcDbLine
 10
55.0
 20
-13.7364573784651
 30
0.0
 11
57.2142135623737
 21
-15.9506709408383
 31
0.0
  0
LINE
  5
657
330
1F
100
AcDbEntity
  8
100
  6
Continuous
 62
     3
100
AcDbLine
 10
58.6284271247466
 20
-16.5364573784651
 30
0.0
 11
59.0
 21
-16.5364573784651
 31
0.0
  0
LINE
  5
658
330
1F
100
AcDbEntity
  8
100
  6
Continuous
 62
     3
100
AcDbLine
 10
109.0
 20
-16.5364573784651
 30
0.0
 11
109.371572875253
 21
-16.5364573784651
 31
0.0
  0
LINE
  5
659
330
1F
100
AcDbEntity
  8
100
  6
Continuous
 62
     3
100
AcDbLine
 10
40.5
 20
-55.3364573784652
 30
0.0
 11
55.0
 21
-55.3364573784652
 31
0.0
  0
LINE
  5
65A
330
1F
100
AcDbEntity
  8
1
  6
Continuous
 62
     1
100
AcDbLine
 10
39.176
 20
-54.0124573784651
 30
0.0
 11
56.3240000000003
 21
-54.0124573784651
 31
0.0
  0
LINE
  5
65B
330
1F
100
AcDbEntity
  8
100
  6
Continuous
 62
     3
100
AcDbLine
 10
58.6284271247466
 20
-52.5364573784651
 30
0.0
 11
58.956905780006
 21
-52.5364573784651
 31
0.0
  0
LINE
  5
65C
330
1F
100
AcDbEntity
  8
100
  6
Continuous
 62
     3
100
AcDbLine
 10
55.0
 20
-55.3364573784652
 30
0.0
 11
57.2142135623737
 21
-53.122243816092
 31
0.0
  0
LINE
  5
65D
330
1F
100
AcDbEntity
  8
100
  6
Continuous
 62
     3
100
AcDbLine
 10
129.0
 20
-53.8364573784652
 30
0.0
 11
129.0
 21
-15.2364573784651
 31
0.0
  0
LINE
  5
65E
330
1F
100
AcDbEntity
  8
100
  6
Continuous
 62
     3
100
AcDbLine
 10
113.0
 20
-13.7364573784651
 30
0.0
 11
110.785786437626
 21
-15.9506709408384
 31
0.0
  0
LINE
  5
65F
330
1F
100
AcDbEntity
  8
1
  6
Continuous
 62
     1
100
AcDbLine
 10
128.824
 20
-15.0604573784652
 30
0.0
 11
111.676
 21
-15.0604573784652
 31
0.0
  0
LINE
  5
660
330
1F
100
AcDbEntity
  8
100
  6
Continuous
 62
     3
100
AcDbLine
 10
113.0
 20
-13.7364573784651
 30
0.0
 11
127.5
 21
-13.7364573784651
 31
0.0
  0
LINE
  5
661
330
1F
100
AcDbEntity
  8
100
  6
Continuous
 62
     3
100
AcDbLine
 10
127.5
 20
-55.3364573784652
 30
0.0
 11
113.0
 21
-55.3364573784652
 31
0.0
  0
LINE
  5
662
330
1F
100
AcDbEntity
  8
1
  6
Continuous
 62
     1
100
AcDbLine
 10
128.824
 20
-54.0124573784651
 30
0.0
 11
111.676
 21
-54.0124573784651
 31
0.0
  0
LINE
  5
663
330
1F
100
AcDbEntity
  8
100
  6
Continuous
 62
     3
100
AcDbLine
 10
113.0
 20
-55.3364573784652
 30
0.0
 11
110.785786437626
 21
-53.122243816092
 31
0.0
  0
LINE
  5
664
330
1F
100
AcDbEntity
  8
100
  6
Continuous
 62
     3
100
AcDbLine
 10
113.0
 20
-13.7364573784651
 30
0.0
 11
113.0
 21
-55.3364573784652
 31
0.0
  0
LINE
  5
665
330
1F
100
AcDbEntity
  8
100
  6
Continuous
 62
     3
100
AcDbLine
 10
55.0
 20
-13.7364573784651
 30
0.0
 11
55.0
 21
-55.3364573784652
 31
0.0
  0
LINE
  5
666
330
1F
100
AcDbEntity
  8
100
  6
Continuous
 62
     3
100
AcDbLine
 10
58.6284271247466
 20
-52.5364573784651
 30
0.0
 11
59.0
 21
-52.5364573784651
 31
0.0
  0
LINE
  5
667
330
1F
100
AcDbEntity
  8
100
  6
Continuous
 62
     3
100
AcDbLine
 10
109.0
 20
-52.5364573784651
 30
0.0
 11
109.371572875253
 21
-52.5364573784652
 31
0.0
  0
LINE
  5
668
330
1F
100
AcDbEntity
  8
100
  6
Continuous
 62
     3
100
AcDbLine
 10
251.055241764923
 20
-371.038518603184
 30
0.0
 11
251.055241764923
 21
-361.0
 31
0.0
  0
LINE
  5
669
330
1F
100
AcDbEntity
  8
100
  6
Continuous
 62
     3
100
AcDbLine
 10
209.055241764923
 20
-371.038518603184
 30
0.0
 11
209.055241764923
 21
-361.0
 31
0.0
  0
LINE
  5
66A
330
1F
100
AcDbEntity
  8
100
  6
Continuous
 62
     3
100
AcDbLine
 10
113.0
 20
-404.8
 30
0.0
 11
113.0
 21
-363.2
 31
0.0
  0
LINE
  5
66B
330
1F
100
AcDbEntity
  8
100
  6
Continuous
 62
     3
100
AcDbLine
 10
55.0
 20
-363.2
 30
0.0
 11
55.0
 21
-404.8
 31
0.0
  0
LINE
  5
66C
330
1F
100
AcDbEntity
  8
1
  6
DOT_CENTER
 62
     1
100
AcDbLine
 10
35.3961639404297
 20
-384.0
 30
0.0
 11
134.0
 21
-384.0
 31
0.0
  0
LINE
  5
66D
330
1F
100
AcDbEntity
  8
1
  6
Continuous
 62
     4
100
AcDbLine
 10
120.426417437744
 20
-404.8
 30
0.0
 11
121.941226624784
 21
-407.51136940574
 31
0.0
  0
LINE
  5
66E
330
1F
100
AcDbEntity
  8
1
  6
Continuous
 62
     4
100
AcDbLine
 10
120.426417437744
 20
-404.8
 30
0.0
 11
120.382595972736
 21
-407.905519377935
 31
0.0
  0
LINE
  5
66F
330
1F
100
AcDbEntity
  8
1
  6
Continuous
 62
     3
100
AcDbLine
 10
127.5
 20
-55.3364573784652
 30
0.0
 11
127.5
 21
-13.7364573784651
 31
0.0
  0
LINE
  5
670
330
1F
100
AcDbEntity
  8
1
  6
Continuous
 62
     3
100
AcDbLine
 10
40.5
 20
-55.3364573784652
 30
0.0
 11
40.5
 21
-13.7364573784651
 31
0.0
  0
LINE
  5
671
330
1F
100
AcDbEntity
  8
1
  6
Continuous
 62
     3
100
AcDbLine
 10
40.5
 20
-404.8
 30
0.0
 11
40.5
 21
-363.2
 31
0.0
  0
LINE
  5
672
330
1F
100
AcDbEntity
  8
1
  6
Continuous
 62
     3
100
AcDbLine
 10
127.5
 20
-404.8
 30
0.0
 11
127.5
 21
-363.2
 31
0.0
  0
ARC
  5
673
330
1F
100
AcDbEntity
  8
100
  6
Continuous
 62
     3
100
AcDbCircle
 10
96.42677451
 20
-91.5000000009783
 30
0.0
 40
2.500000000978227
100
AcDbArc
 50
72.89000695840083
 51
90.0
  0
ARC
  5
674
330
1F
100
AcDbEntity
  8
100
  6
Continuous
 62
     3
100
AcDbCircle
 10
71.57322549
 20
-91.5000000009778
 30
0.0
 40
2.500000000977806
100
AcDbArc
 50
90.0
 51
107.1099930416018
  0
ARC
  5
675
330
1F
100
AcDbEntity
  8
100
  6
Continuous
 62
     3
100
AcDbCircle
 10
242.482016274923
 20
-91.5000000009783
 30
0.0
 40
2.500000000978457
100
AcDbArc
 50
72.89000695838371
 51
90.0
  0
ARC
  5
676
330
1F
100
AcDbEntity
  8
100
  6
Continuous
 62
     3
100
AcDbCircle
 10
217.628467254923
 20
-91.5000000009778
 30
0.0
 40
2.500000000977806
100
AcDbArc
 50
90.0
 51
107.1099930415978
  0
ARC
  5
677
330
1F
100
AcDbEntity
  8
2
  6
PHANTOM
 62
     6
100
AcDbCircle
 10
217.628467254923
 20
-98.500000000978
 30
0.0
 40
2.500000000978005
100
AcDbArc
 50
90.0
 51
107.1099930415965
  0
ARC
  5
678
330
1F
100
AcDbEntity
  8
2
  6
PHANTOM
 62
     6
100
AcDbCircle
 10
242.482016274923
 20
-98.500000000978
 30
0.0
 40
2.500000000978172
100
AcDbArc
 50
72.8900069583817
 51
90.0
  0
ARC
  5
679
330
1F
100
AcDbEntity
  8
100
  6
Continuous
 62
     3
100
AcDbCircle
 10
96.42677451
 20
-91.5000000009783
 30
0.0
 40
2.500000000978227
100
AcDbArc
 50
72.89000695840083
 51
90.0
  0
ARC
  5
67A
330
1F
100
AcDbEntity
  8
100
  6
Continuous
 62
     3
100
AcDbCircle
 10
84.0
 20
-11.0364573784651
 30
0.0
 40
4.000000000000027
100
AcDbArc
 50
233.9506709464009
 51
306.0493290535993
  0
ARC
  5
67B
330
1F
100
AcDbEntity
  8
100
  6
Continuous
 62
     3
100
AcDbCircle
 10
76.9382212668
 20
-20.7385850380652
 30
0.0
 40
7.999999999993854
100
AcDbArc
 50
53.95067094674066
 51
117.1034576203996
  0
ARC
  5
67C
330
1F
100
AcDbEntity
  8
100
  6
Continuous
 62
     3
100
AcDbCircle
 10
75.5815814016
 20
-21.5218414293651
 30
0.0
 40
7.999999999935601
100
AcDbArc
 50
122.8965423795999
 51
186.0493290536002
  0
ARC
  5
67D
330
1F
100
AcDbEntity
  8
100
  6
Continuous
 62
     3
100
AcDbCircle
 10
68.5198026683999
 20
-33.7532009871651
 30
0.0
 40
7.999999999999931
100
AcDbArc
 50
113.9506709463997
 51
177.1034576204006
  0
ARC
  5
67E
330
1F
100
AcDbEntity
  8
100
  6
Continuous
 62
     3
100
AcDbCircle
 10
68.5198026684
 20
-35.3197137697651
 30
0.0
 40
7.999999999999968
100
AcDbArc
 50
182.8965423796001
 51
246.0493290535999
  0
ARC
  5
67F
330
1F
100
AcDbEntity
  8
100
  6
Continuous
 62
     3
100
AcDbCircle
 10
75.5815814016
 20
-47.5510733275651
 30
0.0
 40
8.000000000000048
100
AcDbArc
 50
173.9506709464005
 51
237.1034576204011
  0
ARC
  5
680
330
1F
100
AcDbEntity
  8
100
  6
Continuous
 62
     3
100
AcDbCircle
 10
76.9382212668
 20
-48.3343297188652
 30
0.0
 40
8.000000000058115
100
AcDbArc
 50
242.8965423796002
 51
306.0493290536004
  0
ARC
  5
681
330
1F
100
AcDbEntity
  8
100
  6
Continuous
 62
     3
100
AcDbCircle
 10
91.0617787332
 20
-48.3343297188652
 30
0.0
 40
7.999999999999948
100
AcDbArc
 50
233.9506709463996
 51
297.1034576204004
  0
ARC
  5
682
330
1F
100
AcDbEntity
  8
100
  6
Continuous
 62
     3
100
AcDbCircle
 10
83.9999999999996
 20
-34.5364573784645
 30
0.0
 40
23.49999999995727
100
AcDbArc
 50
297.1034576203131
 51
302.8965423796
  0
ARC
  5
683
330
1F
100
AcDbEntity
  8
100
  6
Continuous
 62
     3
100
AcDbCircle
 10
92.4184185984
 20
-47.5510733275652
 30
0.0
 40
7.999999999941741
100
AcDbArc
 50
302.8965423792816
 51
6.04932905360117
  0
ARC
  5
684
330
1F
100
AcDbEntity
  8
100
  6
Continuous
 62
     3
100
AcDbCircle
 10
92.4184185984
 20
-21.5218414293652
 30
0.0
 40
8.000000000000048
100
AcDbArc
 50
353.9506709464005
 51
57.10345762040003
  0
ARC
  5
685
330
1F
100
AcDbEntity
  8
100
  6
Continuous
 62
     3
100
AcDbCircle
 10
91.0617787332
 20
-20.7385850380652
 30
0.0
 40
8.000000000058291
100
AcDbArc
 50
62.89654237960091
 51
126.0493290532592
  0
ARC
  5
686
330
1F
100
AcDbEntity
  8
100
  6
Continuous
 62
     3
100
AcDbCircle
 10
83.9999999999996
 20
-34.5364573784645
 30
0.0
 40
23.49999999994953
100
AcDbArc
 50
117.1034576203126
 51
122.8965423797085
  0
ARC
  5
687
330
1F
100
AcDbEntity
  8
100
  6
Continuous
 62
     3
100
AcDbCircle
 10
63.6484030110666
 20
-22.7864573785231
 30
0.0
 40
3.999999999964954
100
AcDbArc
 50
293.9506709466398
 51
6.04932905443262
  0
ARC
  5
688
330
1F
100
AcDbEntity
  8
100
  6
Continuous
 62
     3
100
AcDbCircle
 10
83.9999999999996
 20
-34.5364573784645
 30
0.0
 40
23.4999999999928
100
AcDbArc
 50
177.1034576204267
 51
182.8965423795765
  0
ARC
  5
689
330
1F
100
AcDbEntity
  8
100
  6
Continuous
 62
     3
100
AcDbCircle
 10
63.6484030110666
 20
-46.2864573784071
 30
0.0
 40
3.999999999964879
100
AcDbArc
 50
353.9506709455658
 51
66.04932905335964
  0
ARC
  5
68A
330
1F
100
AcDbEntity
  8
100
  6
Continuous
 62
     3
100
AcDbCircle
 10
83.9999999999996
 20
-34.5364573784645
 30
0.0
 40
23.50000000001504
100
AcDbArc
 50
237.1034576202935
 51
242.8965423796889
  0
ARC
  5
68B
330
1F
100
AcDbEntity
  8
100
  6
Continuous
 62
     3
100
AcDbCircle
 10
84.0
 20
-58.0364573784651
 30
0.0
 40
3.999999999993773
100
AcDbArc
 50
53.95067094708153
 51
126.0493290529185
  0
ARC
  5
68C
330
1F
100
AcDbEntity
  8
100
  6
Continuous
 62
     3
100
AcDbCircle
 10
83.9999999999996
 20
-34.5364573784645
 30
0.0
 40
23.50000000001434
100
AcDbArc
 50
57.10345762028977
 51
62.89654237968583
  0
ARC
  5
68D
330
1F
100
AcDbEntity
  8
100
  6
Continuous
 62
     3
100
AcDbCircle
 10
104.3515969889
 20
-46.2864573784651
 30
0.0
 40
3.999999999999804
100
AcDbArc
 50
113.9506709463945
 51
186.0493290536564
  0
ARC
  5
68E
330
1F
100
AcDbEntity
  8
100
  6
Continuous
 62
     3
100
AcDbCircle
 10
99.4801973316001
 20
-35.3197137697651
 30
0.0
 40
8.000000000004524
100
AcDbArc
 50
293.9506709461351
 51
357.1034576203999
  0
ARC
  5
68F
330
1F
100
AcDbEntity
  8
100
  6
Continuous
 62
     3
100
AcDbCircle
 10
83.9999999999996
 20
-34.5364573784645
 30
0.0
 40
23.49999999999776
100
AcDbArc
 50
357.1034576204236
 51
2.89654237959854
  0
ARC
  5
690
330
1F
100
AcDbEntity
  8
100
  6
Continuous
 62
     3
100
AcDbCircle
 10
99.4801973316001
 20
-33.7532009871651
 30
0.0
 40
8.000000000004594
100
AcDbArc
 50
2.89654237967375
 51
66.04932905359979
  0
ARC
  5
691
330
1F
100
AcDbEntity
  8
100
  6
Continuous
 62
     3
100
AcDbCircle
 10
104.3515969889
 20
-22.7864573784651
 30
0.0
 40
3.99999999992554
100
AcDbArc
 50
173.950670946343
 51
246.0493290541357
  0
ARC
  5
692
330
1F
100
AcDbEntity
  8
100
  6
Continuous
 62
     3
100
AcDbCircle
 10
58.6284271247466
 20
-364.0
 30
0.0
 40
1.99999999999979
100
AcDbArc
 50
225.0000000000018
 51
270.0
  0
ARC
  5
693
330
1F
100
AcDbEntity
  8
100
  6
Continuous
 62
     3
100
AcDbCircle
 10
109.371572875253
 20
-364.0
 30
0.0
 40
2.0
100
AcDbArc
 50
270.0
 51
315.0000000000003
  0
ARC
  5
694
330
1F
100
AcDbEntity
  8
100
  6
Continuous
 62
     3
100
AcDbCircle
 10
58.6284271247466
 20
-404.0
 30
0.0
 40
2.0
100
AcDbArc
 50
90.0
 51
134.9999999999982
  0
ARC
  5
695
330
1F
100
AcDbEntity
  8
100
  6
Continuous
 62
     3
100
AcDbCircle
 10
109.371572875253
 20
-404.0
 30
0.0
 40
1.999999999999865
100
AcDbArc
 50
44.99999999999972
 51
90.0
  0
ARC
  5
696
330
1F
100
AcDbEntity
  8
100
  6
Continuous
 62
     3
100
AcDbCircle
 10
58.6284271247466
 20
-14.5364573784651
 30
0.0
 40
1.999999999999937
100
AcDbArc
 50
225.0000000000061
 51
270.0
  0
ARC
  5
697
330
1F
100
AcDbEntity
  8
100
  6
Continuous
 62
     3
100
AcDbCircle
 10
109.371572875253
 20
-14.5364573784651
 30
0.0
 40
2.000000000000002
100
AcDbArc
 50
270.0
 51
314.999999999994
  0
ARC
  5
698
330
1F
100
AcDbEntity
  8
100
  6
Continuous
 62
     3
100
AcDbCircle
 10
84.0
 20
-71.5364573784651
 30
0.0
 40
59.99999999999982
100
AcDbArc
 50
95.8660710764419
 51
112.6198649480403
  0
ARC
  5
699
330
1F
100
AcDbEntity
  8
100
  6
Continuous
 62
     3
100
AcDbCircle
 10
109.0
 20
-11.5364573784651
 30
0.0
 40
5.00000000000011
100
AcDbArc
 50
247.3801350519591
 51
270.0
  0
ARC
  5
69A
330
1F
100
AcDbEntity
  8
100
  6
Continuous
 62
     3
100
AcDbCircle
 10
59.0
 20
-11.5364573784651
 30
0.0
 40
5.000000000000002
100
AcDbArc
 50
270.0
 51
292.6198649480413
  0
ARC
  5
69B
330
1F
100
AcDbEntity
  8
100
  6
Continuous
 62
     3
100
AcDbCircle
 10
84.0
 20
2.46354262153486
 30
0.0
 40
60.00000000000004
100
AcDbArc
 50
275.8660710731872
 51
292.6198649480403
  0
ARC
  5
69C
330
1F
100
AcDbEntity
  8
100
  6
Continuous
 62
     3
100
AcDbCircle
 10
109.0
 20
-57.5364573784651
 30
0.0
 40
5.0
100
AcDbArc
 50
90.0
 51
112.6198649480414
  0
ARC
  5
69D
330
1F
100
AcDbEntity
  8
100
  6
Continuous
 62
     3
100
AcDbCircle
 10
109.371572875253
 20
-54.5364573784651
 30
0.0
 40
1.999999999999941
100
AcDbArc
 50
45.00000000000187
 51
90.0
  0
ARC
  5
69E
330
1F
100
AcDbEntity
  8
100
  6
Continuous
 62
     3
100
AcDbCircle
 10
58.6284271247466
 20
-54.5364573784651
 30
0.0
 40
2.0
100
AcDbArc
 50
90.0
 51
134.999999999996
  0
ARC
  5
69F
330
1F
100
AcDbEntity
  8
100
  6
Continuous
 62
     3
100
AcDbCircle
 10
59.0
 20
-57.5364573784651
 30
0.0
 40
4.999999999999937
100
AcDbArc
 50
67.38013505196082
 51
90.0
  0
ARC
  5
6A0
330
1F
100
AcDbEntity
  8
100
  6
Continuous
 62
     3
100
AcDbCircle
 10
84.0
 20
-347.0
 30
0.0
 40
59.99999999999974
100
AcDbArc
 50
247.3801350519593
 51
292.6198649480405
  0
ARC
  5
6A1
330
1F
100
AcDbEntity
  8
100
  6
Continuous
 62
     3
100
AcDbCircle
 10
109.0
 20
-407.0
 30
0.0
 40
5.0
100
AcDbArc
 50
90.0
 51
112.6198649480397
  0
ARC
  5
6A2
330
1F
100
AcDbEntity
  8
100
  6
Continuous
 62
     3
100
AcDbCircle
 10
59.0
 20
-407.0
 30
0.0
 40
5.000000000000253
100
AcDbArc
 50
67.38013505196356
 51
90.0
  0
ARC
  5
6A3
330
1F
100
AcDbEntity
  8
100
  6
Continuous
 62
     3
100
AcDbCircle
 10
59.0
 20
-361.0
 30
0.0
 40
5.0
100
AcDbArc
 50
270.0
 51
292.6198649480397
  0
ARC
  5
6A4
330
1F
100
AcDbEntity
  8
100
  6
Continuous
 62
     3
100
AcDbCircle
 10
109.0
 20
-361.0
 30
0.0
 40
5.00000000000037
100
AcDbArc
 50
247.3801350519603
 51
270.0
  0
ARC
  5
6A5
330
1F
100
AcDbEntity
  8
100
  6
Continuous
 62
     3
100
AcDbCircle
 10
66.0
 20
-360.626164607506
 30
0.0
 40
2.999999999999322
100
AcDbArc
 50
286.6015495990251
 51
352.8416618632494
  0
ARC
  5
6A6
330
1F
100
AcDbEntity
  8
100
  6
Continuous
 62
     3
100
AcDbCircle
 10
102.0
 20
-360.626164607506
 30
0.0
 40
2.999999999999904
100
AcDbArc
 50
187.1583381367491
 51
253.3984504009787
  0
ARC
  5
6A7
330
1F
100
AcDbEntity
  8
100
  6
Continuous
 62
     3
100
AcDbCircle
 10
84.0
 20
-421.0
 30
0.0
 40
59.99999999999963
100
AcDbArc
 50
67.38013505195951
 51
73.39845040097973
  0
ARC
  5
6A8
330
1F
100
AcDbEntity
  8
100
  6
Continuous
 62
     3
100
AcDbCircle
 10
84.0
 20
-421.0
 30
0.0
 40
60.00000000000038
100
AcDbArc
 50
106.6015495990201
 51
112.6198649480405
  0
ARC
  5
6A9
330
1F
100
AcDbEntity
  8
100
  6
Continuous
 62
     3
100
AcDbCircle
 10
230.055241764923
 20
-384.0
 30
0.0
 40
23.0
100
AcDbArc
 50
0.0
 51
17.54350047269518
  0
ARC
  5
6AA
330
1F
100
AcDbEntity
  8
100
  6
Continuous
 62
     3
100
AcDbCircle
 10
230.055241764923
 20
-384.0
 30
0.0
 40
22.99999999999957
100
AcDbArc
 50
162.4564995273041
 51
0.0
  0
ARC
  5
6AB
330
1F
100
AcDbEntity
  8
100
  6
Continuous
 62
     3
100
AcDbCircle
 10
189.055241764923
 20
-371.038518603184
 30
0.0
 40
20.00000000000052
100
AcDbArc
 50
342.4564995273053
 51
0.0
  0
ARC
  5
6AC
330
1F
100
AcDbEntity
  8
100
  6
Continuous
 62
     3
100
AcDbCircle
 10
271.055241764923
 20
-371.038518603184
 30
0.0
 40
19.99999999999997
100
AcDbArc
 50
180.0
 51
197.5435004726955
  0
ARC
  5
6AD
330
1F
100
AcDbEntity
  8
100
  6
Continuous
 62
     3
100
AcDbCircle
 10
84.0
 20
2.46354262153486
 30
0.0
 40
60.00000000000003
100
AcDbArc
 50
247.3801350519595
 51
264.1339289267354
  0
ARC
  5
6AE
330
1F
100
AcDbEntity
  8
100
  6
Continuous
 62
     3
100
AcDbCircle
 10
84.0
 20
-71.5364573784651
 30
0.0
 40
59.99999999999989
100
AcDbArc
 50
67.38013505195961
 51
84.13392892363551
  0
CIRCLE
  5
6AF
330
1F
100
AcDbEntity
  8
1
  6
Continuous
 62
     3
100
AcDbCircle
 10
83.999999999975
 20
-34.5364573781879
 30
0.0
 40
23.499999999853
  0
CIRCLE
  5
6B0
330
1F
100
AcDbEntity
  8
100
  6
Continuous
 62
     3
100
AcDbCircle
 10
230.055241764923
 20
-384.0
 30
0.0
 40
12.5
  0
CIRCLE
  5
6B1
330
1F
100
AcDbEntity
  8
1
  6
Continuous
 62
     3
100
AcDbCircle
 10
230.055241764923
 20
-384.0
 30
0.0
 40
19.476
  0
CIRCLE
  5
6B2
330
1F
100
AcDbEntity
  8
100
  6
Continuous
 62
     3
100
AcDbCircle
 10
230.055241764923
 20
-384.0
 30
0.0
 40
20.79999999999998
  0
LWPOLYLINE
  5
6B3
330
1F
100
AcDbEntity
  8
100
  6
Continuous
 62
     3
100
AcDbPolyline
 90
       17
 70
     0
 43
0.0
 10
61.4845515587964
 20
-95.3935047560597
 10
61.6792108519547
 20
-95.0063802293633
 10
61.8962200292901
 20
-94.6419991065043
 10
62.1325525538035
 20
-94.2972815638232
 10
62.3858724890953
 20
-93.9698505397801
 10
62.6543321096248
 20
-93.6578257688952
 10
62.9364401991732
 20
-93.3596897815088
 10
63.2309729654198
 20
-93.074197235941
 10
63.5369118378853
 20
-92.8003116293118
 10
63.8533988426696
 20
-92.5371598798015
 10
64.1797038085131
 20
-92.28399896121
 10
64.5151998227753
 20
-92.0401909220574
 10
64.8593444938563
 20
-91.8051838178039
 10
65.2116654401767
 20
-91.5784969509095
 10
65.5717489008162
 20
-91.3597092782741
 10
65.9392306880348
 20
-91.1484501961179
 10
66.3137888974727
 20
-90.9443921333409
  0
LWPOLYLINE
  5
6B4
330
1F
100
AcDbEntity
  8
100
  6
Continuous
 62
     3
100
AcDbPolyline
 90
       10
 70
     0
 43
0.0
 10
61.0704391028434
 20
-97.2830973698468
 10
61.1091876384987
 20
-97.2156068037944
 10
61.1969574121491
 20
-97.1208046743851
 10
61.3590547333506
 20
-96.9906602305997
 10
61.6212968758414
 20
-96.8220531637187
 10
62.0066002682578
 20
-96.615154169362
 10
62.5454876333973
 20
-96.36734181259
 10
63.2853912919338
 20
-96.0713121176633
 10
64.2725276081227
 20
-95.7242799771224
 10
65.5056401379437
 20
-95.3391106560658
  0
LWPOLYLINE
  5
6B5
330
1F
100
AcDbEntity
  8
100
  6
Continuous
 62
     3
100
AcDbPolyline
 90
        5
 70
     0
 43
0.0
 10
61.0411070152067
 20
-97.2830973698468
 10
61.0839971377018
 20
-96.7415314121478
 10
61.1800282511908
 20
-96.2540421179427
 10
61.3162852151354
 20
-95.807486945573
 10
61.4845515587964
 20
-95.3935047560597
  0
LWPOLYLINE
  5
6B6
330
1F
100
AcDbEntity
  8
100
  6
Continuous
 62
     3
100
AcDbPolyline
 90
       11
 70
     0
 43
0.0
 10
65.5056401379437
 20
-95.3391106560658
 10
65.8297904065471
 20
-94.9844589625658
 10
66.2151469941836
 20
-94.6344483469052
 10
66.5953750652809
 20
-94.3546201486567
 10
66.949986662341
 20
-94.1511631768796
 10
67.2723946052446
 20
-94.0208659597143
 10
67.5558260627328
 20
-93.9630241043608
 10
67.7952786826056
 20
-93.9782095705591
 10
67.9864802051841
 20
-94.0691946667089
 10
68.1229063559886
 20
-94.23685289627
 10
68.2018512399998
 20
-94.4707433479436
  0
LWPOLYLINE
  5
6B7
330
1F
100
AcDbEntity
  8
100
  6
Continuous
 62
     3
100
AcDbPolyline
 90
        4
 70
     0
 43
0.0
 10
66.3137888974727
 20
-90.9443921333409
 10
66.6951380128097
 20
-90.7472445495031
 10
67.0830240746858
 20
-90.5567490097646
 10
67.4772206852816
 20
-90.3726751285053
  0
LWPOLYLINE
  5
6B8
330
1F
100
AcDbEntity
  8
100
  6
Continuous
 62
     3
100
AcDbPolyline
 90
        6
 70
     0
 43
0.0
 10
67.4772206852816
 20
-90.3726751285053
 10
67.8775256936164
 20
-90.1948172012854
 10
68.2837584447308
 20
-90.0229913854447
 10
68.6957574378043
 20
-89.8570333404434
 10
69.1133783678171
 20
-89.6967962212615
 10
69.5364924694695
 20
-89.5421489943789
  0
LWPOLYLINE
  5
6B9
330
1F
100
AcDbEntity
  8
100
  6
Continuous
 62
     3
100
AcDbPolyline
 90
        3
 70
     0
 43
0.0
 10
69.5364924694695
 20
-89.5421489943789
 10
69.9649850973213
 20
-89.3929749975957
 10
70.3987545370725
 20
-89.2491707208319
  0
LWPOLYLINE
  5
6BA
330
1F
100
AcDbEntity
  8
100
  6
Continuous
 62
     3
100
AcDbPolyline
 90
        4
 70
     0
 43
0.0
 10
68.2307533343501
 20
-94.7485940130583
 10
68.2125963112185
 20
-94.8523501310406
 10
68.1645521375641
 20
-95.2845296933519
 10
68.1529481475653
 20
-95.5528676478817
  0
LWPOLYLINE
  5
6BB
330
1F
100
AcDbEntity
  8
100
  6
Continuous
 62
     3
100
AcDbPolyline
 90
       10
 70
     0
 43
0.0
 10
68.1528158872252
 20
-95.558830663641
 10
68.1800528965023
 20
-95.7357953465211
 10
68.4002074472774
 20
-96.0839521838219
 10
68.7686414093759
 20
-96.3793644098286
 10
69.2210147921051
 20
-96.6261352929408
 10
69.7187201491889
 20
-96.8310017284977
 10
70.2228539770322
 20
-96.9947150967593
 10
70.702438318798
 20
-97.1202119603051
 10
71.1401141769487
 20
-97.2134171307546
 10
71.5304792458047
 20
-97.2830973698468
  0
LWPOLYLINE
  5
6BC
330
1F
100
AcDbEntity
  8
100
  6
Continuous
 62
     3
100
AcDbPolyline
 90
       14
 70
     0
 43
0.0
 10
81.3076736552235
 20
-95.3391106560658
 10
81.540831763937
 20
-95.0504998617183
 10
81.8455522669828
 20
-94.7523365032919
 10
82.2206703203605
 20
-94.4736575890033
 10
82.661336571311
 20
-94.2385619759098
 10
83.1531821712555
 20
-94.067988545169
 10
83.6694283142174
 20
-93.9760379975594
 10
84.1857350691991
 20
-93.9649487030006
 10
84.7004762977213
 20
-94.0334216877129
 10
85.2021743849446
 20
-94.1824098936561
 10
85.6713536954518
 20
-94.4078518608307
 10
86.0871742353649
 20
-94.6960153357782
 10
86.4313532777261
 20
-95.0199575047218
 10
86.6923263422368
 20
-95.3391106560658
  0
LWPOLYLINE
  5
6BD
330
1F
100
AcDbEntity
  8
100
  6
Continuous
 62
     3
100
AcDbPolyline
 90
       10
 70
     0
 43
0.0
 10
96.4695207541953
 20
-97.2830973698468
 10
96.861505918871
 20
-97.2130989932147
 10
97.3004170958616
 20
-97.1195283980452
 10
97.7807567675874
 20
-96.9936579512994
 10
98.2852048188309
 20
-96.8295678959579
 10
98.7827908416347
 20
-96.624344808841
 10
99.2343423997436
 20
-96.3774313555288
 10
99.6017218808423
 20
-96.0819261248821
 10
99.8205961344577
 20
-95.7336971617413
 10
99.8471818623347
 20
-95.5585455511811
  0
LWPOLYLINE
  5
6BE
330
1F
100
AcDbEntity
  8
100
  6
Continuous
 62
     3
100
AcDbPolyline
 90
       12
 70
     0
 43
0.0
 10
99.7704245507832
 20
-94.7561724544715
 10
99.790845083981
 20
-94.5107323586391
 10
99.8587208130933
 20
-94.2745542254857
 10
99.9834959940595
 20
-94.094933540806
 10
100.164232449939
 20
-93.9896134009378
 10
100.395143179353
 20
-93.9602417223211
 10
100.671406680642
 20
-94.0045624185362
 10
100.987882572926
 20
-94.121707873843
 10
101.336074726387
 20
-94.3109140029016
 10
101.725643388403
 20
-94.5868102252706
 10
102.139718917837
 20
-94.9541638288492
 10
102.494359862057
 20
-95.3391106560658
  0
LWPOLYLINE
  5
6BF
330
1F
100
AcDbEntity
  8
100
  6
Continuous
 62
     3
100
AcDbPolyline
 90
       10
 70
     0
 43
0.0
 10
73.5399598570384
 20
-97.2830973698468
 10
73.962382852631
 20
-97.2148106103145
 10
74.4969222025907
 20
-97.1198706782852
 10
75.152362771237
 20
-96.9901840618798
 10
75.9265651064097
 20
-96.8221648043387
 10
76.8088377943903
 20
-96.615159287462
 10
77.7973974986387
 20
-96.36680278649
 10
78.895549762455
 20
-96.0717489341633
 10
80.0938651355601
 20
-95.7249126428623
 10
81.3076736552235
 20
-95.3391106560658
  0
LWPOLYLINE
  5
6C0
330
1F
100
AcDbEntity
  8
100
  6
Continuous
 62
     3
100
AcDbPolyline
 90
       10
 70
     0
 43
0.0
 10
86.6923263422368
 20
-95.3391106560658
 10
87.9088756793796
 20
-95.7257548433622
 10
89.1077628979246
 20
-96.0726731385632
 10
90.2098359794003
 20
-96.3686865495498
 10
91.1963281439692
 20
-96.6164190334819
 10
92.07700295097
 20
-96.8229780742386
 10
92.8515682267428
 20
-96.9910076746597
 10
93.507411507309
 20
-97.1206961300251
 10
94.0408997214488
 20
-97.2153674621344
 10
94.4600401429616
 20
-97.2830973698468
  0
LWPOLYLINE
  5
6C1
330
1F
100
AcDbEntity
  8
100
  6
Continuous
 62
     3
100
AcDbPolyline
 90
        4
 70
     0
 43
0.0
 10
99.8470576233149
 20
-95.5529970177017
 10
99.8358639220561
 20
-95.2906197903913
 10
99.7892256536413
 20
-94.8643542751793
 10
99.7497660094259
 20
-94.6373029157449
  0
LWPOLYLINE
  5
6C2
330
1F
100
AcDbEntity
  8
100
  6
Continuous
 62
     3
100
AcDbPolyline
 90
       10
 70
     0
 43
0.0
 10
102.494359862057
 20
-95.3391106560658
 10
103.731807011097
 20
-95.7257311197622
 10
104.718153999426
 20
-96.0726476877632
 10
105.457580638343
 20
-96.3686657393298
 10
105.995900503982
 20
-96.6164032245219
 10
106.380245696639
 20
-96.8229664816786
 10
106.64140215169
 20
-96.9909997701797
 10
106.802907370951
 20
-97.1206914716651
 10
106.890627543481
 20
-97.2153654656944
 10
106.929560897157
 20
-97.2830973698468
  0
LWPOLYLINE
  5
6C3
330
1F
100
AcDbEntity
  8
100
  6
Continuous
 62
     3
100
AcDbPolyline
 90
       32
 70
     0
 43
0.0
 10
106.958892984793
 20
-97.2830973698468
 10
106.916002862298
 20
-96.7415314121478
 10
106.819971746269
 20
-96.2540421179427
 10
106.683714784865
 20
-95.807486945573
 10
106.515448441204
 20
-95.3935047560597
 10
106.320789145505
 20
-95.0063802293633
 10
106.10377997071
 20
-94.6419991065043
 10
105.867447446196
 20
-94.2972815638232
 10
105.614127510905
 20
-93.9698505397801
 10
105.345667887835
 20
-93.6578257688952
 10
105.063559798287
 20
-93.3596897815088
 10
104.76902703458
 20
-93.074197235941
 10
104.463088159575
 20
-92.8003116293118
 10
104.14660115733
 20
-92.5371598798015
 10
103.820296191487
 20
-92.28399896121
 10
103.484800174685
 20
-92.0401909220574
 10
103.140655503604
 20
-91.8051838178039
 10
102.788334559823
 20
-91.5784969509095
 10
102.428251099184
 20
-91.3597092782741
 10
102.060769311965
 20
-91.1484501961179
 10
101.686211102527
 20
-90.9443921333409
 10
101.304861984651
 20
-90.7472445495031
 10
100.916975922774
 20
-90.5567490097646
 10
100.522779314719
 20
-90.3726751285053
 10
100.122474303844
 20
-90.1948172012854
 10
99.7162415527295
 20
-90.0229913854447
 10
99.3042425621957
 20
-89.8570333404434
 10
98.8866216321829
 20
-89.6967962212615
 10
98.4635075305305
 20
-89.5421489943789
 10
98.0350149001391
 20
-89.3929749975957
 10
97.6012454603878
 20
-89.2491707208319
 10
97.1622920635173
 20
-89.1106457096075
  0
LWPOLYLINE
  5
6C4
330
1F
100
AcDbEntity
  8
2
  6
Continuous
 62
     2
100
AcDbPolyline
 90
        3
 70
     0
 43
0.0
 10
158.511749267578
 20
-94.0000010520124
 10
159.761749267578
 20
-89.0000010520124
 10
161.011749267578
 20
-94.0000010520124
  0
LWPOLYLINE
  5
6C5
330
1F
100
AcDbEntity
  8
100
  6
Continuous
 62
     3
100
AcDbPolyline
 90
       17
 70
     0
 43
0.0
 10
207.53979332372
 20
-95.3935047560597
 10
207.734452616878
 20
-95.0063802293633
 10
207.951461794214
 20
-94.6419991065043
 10
208.187794318727
 20
-94.2972815638232
 10
208.441114254019
 20
-93.9698505397801
 10
208.709573874548
 20
-93.6578257688952
 10
208.991681964097
 20
-93.3596897815088
 10
209.286214730343
 20
-93.074197235941
 10
209.592153602809
 20
-92.8003116293118
 10
209.908640607593
 20
-92.5371598798015
 10
210.234945573437
 20
-92.28399896121
 10
210.570441587699
 20
-92.0401909220574
 10
210.91458625878
 20
-91.8051838178039
 10
211.2669072051
 20
-91.5784969509095
 10
211.62699066574
 20
-91.3597092782741
 10
211.994472452958
 20
-91.1484501961179
 10
212.369030662396
 20
-90.9443921333409
  0
LWPOLYLINE
  5
6C6
330
1F
100
AcDbEntity
  8
100
  6
Continuous
 62
     3
100
AcDbPolyline
 90
       10
 70
     0
 43
0.0
 10
207.125680867767
 20
-97.2830973698468
 10
207.164429403422
 20
-97.2156068037944
 10
207.252199177073
 20
-97.1208046743851
 10
207.414296498274
 20
-96.9906602305997
 10
207.676538640765
 20
-96.8220531637187
 10
208.061842033181
 20
-96.615154169362
 10
208.600729398321
 20
-96.36734181259
 10
209.340633056857
 20
-96.0713121176633
 10
210.327769373046
 20
-95.7242799771224
 10
211.560881902867
 20
-95.3391106560658
  0
LWPOLYLINE
  5
6C7
330
1F
100
AcDbEntity
  8
100
  6
Continuous
 62
     3
100
AcDbPolyline
 90
        5
 70
     0
 43
0.0
 10
207.09634878013
 20
-97.2830973698468
 10
207.139238902625
 20
-96.7415314121478
 10
207.235270016114
 20
-96.2540421179427
 10
207.371526980059
 20
-95.807486945573
 10
207.53979332372
 20
-95.3935047560597
  0
LWPOLYLINE
  5
6C8
330
1F
100
AcDbEntity
  8
100
  6
Continuous
 62
     3
100
AcDbPolyline
 90
       11
 70
     0
 43
0.0
 10
211.560881902867
 20
-95.3391106560658
 10
211.885032171471
 20
-94.9844589625658
 10
212.270388759107
 20
-94.6344483469052
 10
212.650616830204
 20
-94.3546201486567
 10
213.005228427265
 20
-94.1511631768796
 10
213.327636370168
 20
-94.0208659597143
 10
213.611067827656
 20
-93.9630241043608
 10
213.850520447529
 20
-93.9782095705591
 10
214.041721970108
 20
-94.0691946667089
 10
214.178148120912
 20
-94.23685289627
 10
214.257093004923
 20
-94.4707433479436
  0
LWPOLYLINE
  5
6C9
330
1F
100
AcDbEntity
  8
100
  6
Continuous
 62
     3
100
AcDbPolyline
 90
        4
 70
     0
 43
0.0
 10
212.369030662396
 20
-90.9443921333409
 10
212.750379777733
 20
-90.7472445495031
 10
213.138265839609
 20
-90.5567490097646
 10
213.532462450205
 20
-90.3726751285053
  0
LWPOLYLINE
  5
6CA
330
1F
100
AcDbEntity
  8
100
  6
Continuous
 62
     3
100
AcDbPolyline
 90
        6
 70
     0
 43
0.0
 10
213.532462450205
 20
-90.3726751285053
 10
213.93276745854
 20
-90.1948172012854
 10
214.339000209654
 20
-90.0229913854447
 10
214.750999202728
 20
-89.8570333404434
 10
215.168620132741
 20
-89.6967962212615
 10
215.591734234393
 20
-89.5421489943789
  0
LWPOLYLINE
  5
6CB
330
1F
100
AcDbEntity
  8
100
  6
Continuous
 62
     3
100
AcDbPolyline
 90
        3
 70
     0
 43
0.0
 10
215.591734234393
 20
-89.5421489943789
 10
216.020226862245
 20
-89.3929749975957
 10
216.453996301996
 20
-89.2491707208319
  0
LWPOLYLINE
  5
6CC
330
1F
100
AcDbEntity
  8
100
  6
Continuous
 62
     3
100
AcDbPolyline
 90
        4
 70
     0
 43
0.0
 10
214.285995099274
 20
-94.7485940130583
 10
214.267838076142
 20
-94.8523501310406
 10
214.219793902488
 20
-95.2845296933519
 10
214.208189912489
 20
-95.5528676478817
  0
LWPOLYLINE
  5
6CD
330
1F
100
AcDbEntity
  8
100
  6
Continuous
 62
     3
100
AcDbPolyline
 90
       10
 70
     0
 43
0.0
 10
214.208057652149
 20
-95.558830663641
 10
214.235294661426
 20
-95.7357953465211
 10
214.455449212201
 20
-96.0839521838219
 10
214.823883174299
 20
-96.3793644098286
 10
215.276256557028
 20
-96.6261352929408
 10
215.773961914112
 20
-96.8310017284977
 10
216.278095741956
 20
-96.9947150967593
 10
216.757680083722
 20
-97.1202119603051
 10
217.195355941872
 20
-97.2134171307546
 10
217.585721010728
 20
-97.2830973698468
  0
LWPOLYLINE
  5
6CE
330
1F
100
AcDbEntity
  8
100
  6
Continuous
 62
     3
100
AcDbPolyline
 90
       14
 70
     0
 43
0.0
 10
227.362915420147
 20
-95.3391106560658
 10
227.59607352886
 20
-95.0504998617183
 10
227.900794031906
 20
-94.7523365032919
 10
228.275912085284
 20
-94.4736575890033
 10
228.716578336234
 20
-94.2385619759098
 10
229.208423936179
 20
-94.067988545169
 10
229.724670079141
 20
-93.9760379975594
 10
230.240976834123
 20
-93.9649487030006
 10
230.755718062645
 20
-94.0334216877129
 10
231.257416149868
 20
-94.1824098936561
 10
231.726595460375
 20
-94.4078518608307
 10
232.142416000288
 20
-94.6960153357782
 10
232.48659504265
 20
-95.0199575047218
 10
232.74756810716
 20
-95.3391106560658
  0
LWPOLYLINE
  5
6CF
330
1F
100
AcDbEntity
  8
100
  6
Continuous
 62
     3
100
AcDbPolyline
 90
       10
 70
     0
 43
0.0
 10
242.524762519119
 20
-97.2830973698468
 10
242.916747683794
 20
-97.2130989932147
 10
243.355658860785
 20
-97.1195283980452
 10
243.835998532511
 20
-96.9936579512994
 10
244.340446583754
 20
-96.8295678959579
 10
244.838032606558
 20
-96.624344808841
 10
245.289584164667
 20
-96.3774313555288
 10
245.656963645766
 20
-96.0819261248821
 10
245.875837899381
 20
-95.7336971617413
 10
245.902423627258
 20
-95.5585455511811
  0
LWPOLYLINE
  5
6D0
330
1F
100
AcDbEntity
  8
100
  6
Continuous
 62
     3
100
AcDbPolyline
 90
       12
 70
     0
 43
0.0
 10
245.825666315707
 20
-94.7561724544715
 10
245.846086848904
 20
-94.5107323586391
 10
245.913962578017
 20
-94.2745542254857
 10
246.038737758983
 20
-94.094933540806
 10
246.219474214863
 20
-93.9896134009378
 10
246.450384944276
 20
-93.9602417223211
 10
246.726648445565
 20
-94.0045624185362
 10
247.04312433785
 20
-94.121707873843
 10
247.391316491311
 20
-94.3109140029016
 10
247.780885153326
 20
-94.5868102252706
 10
248.19496068276
 20
-94.9541638288492
 10
248.54960162698
 20
-95.3391106560658
  0
LWPOLYLINE
  5
6D1
330
1F
100
AcDbEntity
  8
100
  6
Continuous
 62
     3
100
AcDbPolyline
 90
       10
 70
     0
 43
0.0
 10
219.595201621962
 20
-97.2830973698468
 10
220.017624617555
 20
-97.2148106103145
 10
220.552163967514
 20
-97.1198706782852
 10
221.20760453616
 20
-96.9901840618798
 10
221.981806871333
 20
-96.8221648043387
 10
222.864079559314
 20
-96.615159287462
 10
223.852639263562
 20
-96.36680278649
 10
224.950791527379
 20
-96.0717489341633
 10
226.149106900484
 20
-95.7249126428623
 10
227.362915420147
 20
-95.3391106560658
  0
LWPOLYLINE
  5
6D2
330
1F
100
AcDbEntity
  8
100
  6
Continuous
 62
     3
100
AcDbPolyline
 90
       10
 70
     0
 43
0.0
 10
232.74756810716
 20
-95.3391106560658
 10
233.964117444303
 20
-95.7257548433622
 10
235.163004662848
 20
-96.0726731385632
 10
236.265077744324
 20
-96.3686865495498
 10
237.251569908893
 20
-96.6164190334819
 10
238.132244715894
 20
-96.8229780742386
 10
238.906809991666
 20
-96.9910076746597
 10
239.562653272233
 20
-97.1206961300251
 10
240.096141486372
 20
-97.2153674621344
 10
240.515281907885
 20
-97.2830973698468
  0
LWPOLYLINE
  5
6D3
330
1F
100
AcDbEntity
  8
100
  6
Continuous
 62
     3
100
AcDbPolyline
 90
        4
 70
     0
 43
0.0
 10
245.902299388238
 20
-95.5529970177017
 10
245.89110568698
 20
-95.2906197903913
 10
245.844467418565
 20
-94.8643542751793
 10
245.805007774349
 20
-94.6373029157449
  0
LWPOLYLINE
  5
6D4
330
1F
100
AcDbEntity
  8
100
  6
Continuous
 62
     3
100
AcDbPolyline
 90
       10
 70
     0
 43
0.0
 10
248.54960162698
 20
-95.3391106560658
 10
249.787048776021
 20
-95.7257311197622
 10
250.773395764349
 20
-96.0726476877632
 10
251.512822403266
 20
-96.3686657393298
 10
252.051142268905
 20
-96.6164032245219
 10
252.435487461562
 20
-96.8229664816786
 10
252.696643916613
 20
-96.9909997701797
 10
252.858149135875
 20
-97.1206914716651
 10
252.945869308405
 20
-97.2153654656944
 10
252.98480266208
 20
-97.2830973698468
  0
LWPOLYLINE
  5
6D5
330
1F
100
AcDbEntity
  8
100
  6
Continuous
 62
     3
100
AcDbPolyline
 90
       32
 70
     0
 43
0.0
 10
253.014134749717
 20
-97.2830973698468
 10
252.971244627222
 20
-96.7415314121478
 10
252.875213511193
 20
-96.2540421179427
 10
252.738956549788
 20
-95.807486945573
 10
252.570690206127
 20
-95.3935047560597
 10
252.376030910429
 20
-95.0063802293633
 10
252.159021735633
 20
-94.6419991065043
 10
251.92268921112
 20
-94.2972815638232
 10
251.669369275829
 20
-93.9698505397801
 10
251.400909652759
 20
-93.6578257688952
 10
251.118801563211
 20
-93.3596897815088
 10
250.824268799504
 20
-93.074197235941
 10
250.518329924498
 20
-92.8003116293118
 10
250.201842922254
 20
-92.5371598798015
 10
249.875537956411
 20
-92.28399896121
 10
249.540041939608
 20
-92.0401909220574
 10
249.195897268527
 20
-91.8051838178039
 10
248.843576324747
 20
-91.5784969509095
 10
248.483492864107
 20
-91.3597092782741
 10
248.116011076889
 20
-91.1484501961179
 10
247.741452867451
 20
-90.9443921333409
 10
247.360103749574
 20
-90.7472445495031
 10
246.972217687698
 20
-90.5567490097646
 10
246.578021079642
 20
-90.3726751285053
 10
246.177716068767
 20
-90.1948172012854
 10
245.771483317653
 20
-90.0229913854447
 10
245.359484327119
 20
-89.8570333404434
 10
244.941863397106
 20
-89.6967962212615
 10
244.518749295454
 20
-89.5421489943789
 10
244.090256665063
 20
-89.3929749975957
 10
243.656487225311
 20
-89.2491707208319
 10
243.217533828441
 20
-89.1106457096075
  0
LWPOLYLINE
  5
6D6
330
1F
100
AcDbEntity
  8
2
  6
PHANTOM
 62
     6
100
AcDbPolyline
 90
       17
 70
     0
 43
0.0
 10
207.53979332372
 20
-102.39350475606
 10
207.734452616878
 20
-102.006380229363
 10
207.951461794214
 20
-101.641999106504
 10
208.187794318727
 20
-101.297281563823
 10
208.441114254019
 20
-100.96985053978
 10
208.709573874548
 20
-100.657825768895
 10
208.991681964097
 20
-100.359689781509
 10
209.286214730343
 20
-100.074197235941
 10
209.592153602809
 20
-99.800311629312
 10
209.908640607593
 20
-99.537159879801
 10
210.234945573437
 20
-99.28399896121
 10
210.570441587699
 20
-99.040190922057
 10
210.91458625878
 20
-98.805183817804
 10
211.2669072051
 20
-98.57849695091
 10
211.62699066574
 20
-98.359709278274
 10
211.994472452958
 20
-98.148450196118
 10
212.369030662396
 20
-97.944392133341
  0
LWPOLYLINE
  5
6D7
330
1F
100
AcDbEntity
  8
2
  6
PHANTOM
 62
     6
100
AcDbPolyline
 90
        6
 70
     0
 43
0.0
 10
213.532462450205
 20
-97.372675128505
 10
213.93276745854
 20
-97.194817201285
 10
214.339000209654
 20
-97.022991385445
 10
214.750999202728
 20
-96.8570333404434
 10
215.168620132741
 20
-96.6967962212615
 10
215.591734234393
 20
-96.5421489943789
  0
LWPOLYLINE
  5
6D8
330
1F
100
AcDbEntity
  8
2
  6
PHANTOM
 62
     6
100
AcDbPolyline
 90
        4
 70
     0
 43
0.0
 10
212.369030662396
 20
-97.944392133341
 10
212.750379777733
 20
-97.747244549503
 10
213.138265839609
 20
-97.556749009765
 10
213.532462450205
 20
-97.372675128505
  0
LWPOLYLINE
  5
6D9
330
1F
100
AcDbEntity
  8
2
  6
PHANTOM
 62
     6
100
AcDbPolyline
 90
        3
 70
     0
 43
0.0
 10
215.591734234393
 20
-96.5421489943789
 10
216.020226862245
 20
-96.3929749975957
 10
216.453996301996
 20
-96.2491707208319
  0
LWPOLYLINE
  5
6DA
330
1F
100
AcDbEntity
  8
2
  6
PHANTOM
 62
     6
100
AcDbPolyline
 90
       32
 70
     0
 43
0.0
 10
253.014134749717
 20
-104.283097369847
 10
252.971244627222
 20
-103.741531412148
 10
252.875213511193
 20
-103.254042117943
 10
252.738956549788
 20
-102.807486945573
 10
252.570690206127
 20
-102.39350475606
 10
252.376030910429
 20
-102.006380229363
 10
252.159021735633
 20
-101.641999106504
 10
251.92268921112
 20
-101.297281563823
 10
251.669369275829
 20
-100.96985053978
 10
251.400909652759
 20
-100.657825768895
 10
251.118801563211
 20
-100.359689781509
 10
250.824268799504
 20
-100.074197235941
 10
250.518329924498
 20
-99.800311629312
 10
250.201842922254
 20
-99.537159879801
 10
249.875537956411
 20
-99.28399896121
 10
249.540041939608
 20
-99.040190922057
 10
249.195897268527
 20
-98.805183817804
 10
248.843576324747
 20
-98.57849695091
 10
248.483492864107
 20
-98.359709278274
 10
248.116011076889
 20
-98.148450196118
 10
247.741452867451
 20
-97.944392133341
 10
247.360103749574
 20
-97.747244549503
 10
246.972217687698
 20
-97.556749009765
 10
246.578021079642
 20
-97.372675128505
 10
246.177716068767
 20
-97.194817201285
 10
245.771483317653
 20
-97.022991385445
 10
245.359484327119
 20
-96.8570333404434
 10
244.941863397106
 20
-96.6967962212615
 10
244.518749295454
 20
-96.5421489943789
 10
244.090256665063
 20
-96.3929749975957
 10
243.656487225311
 20
-96.2491707208319
 10
243.217533828441
 20
-96.1106457096075
  0
LWPOLYLINE
  5
6DB
330
1F
100
AcDbEntity
  8
2
  6
PHANTOM
 62
     6
100
AcDbPolyline
 90
        5
 70
     0
 43
0.0
 10
207.09634878013
 20
-104.283097369847
 10
207.139238902625
 20
-103.741531412148
 10
207.235270016114
 20
-103.254042117943
 10
207.371526980059
 20
-102.807486945573
 10
207.53979332372
 20
-102.39350475606
  0
LWPOLYLINE
  5
6DC
330
1F
100
AcDbEntity
  8
1
  6
Continuous
 62
     1
100
AcDbPolyline
 90
       20
 70
     0
 43
0.0
 10
63.0
 20
-246.0
 10
66.6125398291514
 20
-243.369215775605
 10
68.257718902359
 20
-242.424545875992
 10
69.8583961907075
 20
-241.688015063952
 10
71.4430269351959
 20
-241.150509033381
 10
72.9892517201981
 20
-240.823805431501
 10
74.4968654654983
 20
-240.707952114321
 10
75.9649603423672
 20
-240.803034621417
 10
77.8002530840368
 20
-241.216305205608
 10
79.8384407694926
 20
-241.981200154809
 10
82.1176182579453
 20
-243.099939699935
 10
85.2444744339092
 20
-244.870337850673
 10
89.6357166372898
 20
-247.282984215771
 10
92.7468277107081
 20
-248.490212577238
 10
94.1627972197636
 20
-248.783514884093
 10
95.6079891548561
 20
-248.905036174307
 10
97.0815339325448
 20
-248.854716550142
 10
98.5832363008374
 20
-248.632566493319
 10
101.635058487457
 20
-247.689229453724
 10
105.0
 20
-246.0
  0
LWPOLYLINE
  5
6DD
330
1F
100
AcDbEntity
  8
1
  6
Continuous
 62
     1
100
AcDbPolyline
 90
       20
 70
     0
 43
0.0
 10
63.0
 20
-241.0
 10
66.6125398291514
 20
-238.369215775605
 10
68.257718902359
 20
-237.424545875992
 10
69.8583961907075
 20
-236.688015063952
 10
71.4430269351959
 20
-236.150509033381
 10
72.9892517201981
 20
-235.823805431501
 10
74.4968654654983
 20
-235.707952114321
 10
75.9649603423672
 20
-235.803034621417
 10
77.8002530840368
 20
-236.216305205608
 10
79.8384407694926
 20
-236.981200154809
 10
82.1176182579453
 20
-238.099939699935
 10
85.2444744339092
 20
-239.870337850673
 10
89.6357166372898
 20
-242.282984215771
 10
92.7468277107081
 20
-243.490212577238
 10
94.1627972197636
 20
-243.783514884093
 10
95.6079891548561
 20
-243.905036174307
 10
97.0815339325448
 20
-243.854716550142
 10
98.5832363008374
 20
-243.632566493319
 10
101.635058487457
 20
-242.689229453724
 10
105.0
 20
-241.0
  0
LWPOLYLINE
  5
6DE
330
1F
100
AcDbEntity
  8
2
  6
Continuous
 62
     2
100
AcDbPolyline
 90
        3
 70
     0
 43
0.0
 10
161.011749267578
 20
-379.0
 10
159.761749267578
 20
-384.0
 10
158.511749267578
 20
-379.0
  0
LWPOLYLINE
  5
6DF
330
1F
100
AcDbEntity
  8
2
  6
Continuous
 62
     2
100
AcDbPolyline
 90
        3
 70
     0
 43
0.0
 10
150.261749267578
 20
-238.25
 10
157.261749267578
 20
-238.25
 10
157.261749267578
 20
-234.75
  0
LWPOLYLINE
  5
6E0
330
1F
100
AcDbEntity
  8
2
  6
Continuous
 62
     2
100
AcDbPolyline
 90
        3
 70
     0
 43
0.0
 10
158.511749267578
 20
-94.0000010520124
 10
159.761749267578
 20
-89.0000010520124
 10
161.011749267578
 20
-94.0000010520124
  0
LWPOLYLINE
  5
6E1
330
1F
100
AcDbEntity
  8
1
  6
Continuous
 62
     1
100
AcDbPolyline
 90
       20
 70
     0
 43
0.0
 10
209.055241764923
 20
-246.0
 10
212.667781594075
 20
-243.369215775605
 10
214.312960667283
 20
-242.424545875992
 10
215.913637955631
 20
-241.688015063952
 10
217.498268700119
 20
-241.150509033381
 10
219.044493485122
 20
-240.823805431501
 10
220.552107230422
 20
-240.707952114321
 10
222.020202107291
 20
-240.803034621417
 10
223.85549484896
 20
-241.216305205608
 10
225.893682534416
 20
-241.981200154809
 10
228.172860022869
 20
-243.099939699935
 10
231.299716198833
 20
-244.870337850673
 10
235.690958402213
 20
-247.282984215771
 10
238.802069475632
 20
-248.490212577238
 10
240.218038984687
 20
-248.783514884093
 10
241.663230919779
 20
-248.905036174307
 10
243.136775697468
 20
-248.854716550142
 10
244.638478065761
 20
-248.632566493319
 10
247.69030025238
 20
-247.689229453724
 10
251.055241764923
 20
-246.0
  0
LWPOLYLINE
  5
6E2
330
1F
100
AcDbEntity
  8
1
  6
Continuous
 62
     1
100
AcDbPolyline
 90
       20
 70
     0
 43
0.0
 10
209.055241764923
 20
-241.0
 10
212.667781594075
 20
-238.369215775605
 10
214.312960667283
 20
-237.424545875992
 10
215.913637955631
 20
-236.688015063952
 10
217.498268700119
 20
-236.150509033381
 10
219.044493485122
 20
-235.823805431501
 10
220.552107230422
 20
-235.707952114321
 10
222.020202107291
 20
-235.803034621417
 10
223.85549484896
 20
-236.216305205608
 10
225.893682534416
 20
-236.981200154809
 10
228.172860022869
 20
-238.099939699935
 10
231.299716198833
 20
-239.870337850673
 10
235.690958402213
 20
-242.282984215771
 10
238.802069475632
 20
-243.490212577238
 10
240.218038984687
 20
-243.783514884093
 10
241.663230919779
 20
-243.905036174307
 10
243.136775697468
 20
-243.854716550142
 10
244.638478065761
 20
-243.632566493319
 10
247.69030025238
 20
-242.689229453724
 10
251.055241764923
 20
-241.0
  0
LWPOLYLINE
  5
6E3
330
1F
100
AcDbEntity
  8
3
  6
Continuous
 62
     3
100
AcDbPolyline
 90
        8
 70
     0
 43
0.0
 10
78.4300079345703
 20
-377.748199462891
 10
79.8362579345703
 20
-376.060699462891
 10
81.5237579345703
 20
-376.060699462891
 10
82.9300079345703
 20
-377.748199462891
 10
82.9300079345703
 20
-379.998199462891
 10
78.4300079345703
 20
-383.935699462891
 10
78.4300079345703
 20
-385.060699462891
 10
82.9300079345703
 20
-385.060699462891
  0
LWPOLYLINE
  5
6E4
330
1F
100
AcDbEntity
  8
3
  6
Continuous
 62
     3
100
AcDbPolyline
 90
       10
 70
     0
 43
0.0
 10
88.8362579345703
 20
-376.341949462891
 10
85.1800079345703
 20
-376.341949462891
 10
84.6175079345703
 20
-380.279449462891
 10
86.0237579345703
 20
-379.716949462891
 10
87.7112579345703
 20
-379.716949462891
 10
89.1175079345703
 20
-380.841949462891
 10
89.1175079345703
 20
-383.654449462891
 10
87.7112579345703
 20
-385.060699462891
 10
86.0237579345703
 20
-385.060699462891
 10
84.6175079345703
 20
-383.654449462891
  0
LEADER
  5
6E5
330
1F
100
AcDbEntity
  8
1
  6
Continuous
 62
     4
100
AcDbLeader
  3
Standard
 71
     0
 76
     3
 10
47.573582562256
 20
-404.8
 30
0.0
 10
44.6221254029183
 20
-416.63764810082
 30
0.0
 10
7.75797136846327
 20
-416.63764810082
 30
0.0
  0
LEADER
  5
6E6
330
1F
100
AcDbEntity
  8
1
  6
Continuous
 62
     4
100
AcDbLeader
  3
Standard
 71
     0
 76
     3
 10
120.426417437744
 20
-404.8
 30
0.0
 10
123.377874597082
 20
-416.63764810082
 30
0.0
 10
160.242028631537
 20
-416.63764810082
 30
0.0
  0
ENDSEC
  0
SECTION
  2
OBJECTS
  0
DICTIONARY
  5
C
330
0
100
AcDbDictionary
281
     1
  3
ACAD_GROUP
350
D
  3
ACAD_LAYOUT
350
1A
  3
ACAD_MATERIAL
350
3B
  3
ACAD_MLEADERSTYLE
350
6E9
  3
ACAD_MLINESTYLE
350
17
  3
ACAD_PLOTSETTINGS
350
19
  3
ACAD_PLOTSTYLENAME
350
E
  3
ACAD_VISUALSTYLE
350
2A
  3
AcDbVariableDictionary
350
6E7
  0
DICTIONARY
  5
D
102
{ACAD_REACTORS
330
C
102
}
330
C
100
AcDbDictionary
281
     1
  0
DICTIONARY
  5
1A
102
{ACAD_REACTORS
330
C
102
}
330
C
100
AcDbDictionary
281
     1
  3
Layout1
350
1E
  3
Layout2
350
26
  3
Model
350
22
  0
DICTIONARY
  5
3B
102
{ACAD_REACTORS
330
C
102
}
330
C
100
AcDbDictionary
281
     1
  3
ByBlock
350
3D
  3
ByLayer
350
3C
  3
Global
350
3E
  0
DICTIONARY
  5
6E9
102
{ACAD_REACTORS
330
C
102
}
330
C
100
AcDbDictionary
281
     1
  0
DICTIONARY
  5
17
102
{ACAD_REACTORS
330
C
102
}
330
C
100
AcDbDictionary
281
     1
  3
Standard
350
18
  0
DICTIONARY
  5
19
102
{ACAD_REACTORS
330
C
102
}
330
C
100
AcDbDictionary
281
     1
  0
ACDBDICTIONARYWDFLT
  5
E
102
{ACAD_REACTORS
330
C
102
}
330
C
100
AcDbDictionary
281
     1
  3
Normal
350
F
100
AcDbDictionaryWithDefault
340
F
  0
DICTIONARY
  5
2A
102
{ACAD_REACTORS
330
C
102
}
330
C
100
AcDbDictionary
281
     1
  3
2dWireframe
350
2F
  3
3D Hidden
350
31
  3
3dWireframe
350
30
  3
Basic
350
32
  3
Brighten
350
36
  3
ColorChange
350
3A
  3
Conceptual
350
34
  3
Dim
350
35
  3
Facepattern
350
39
  3
Flat
350
2B
  3
FlatWithEdges
350
2C
  3
Gouraud
350
2D
  3
GouraudWithEdges
350
2E
  3
Linepattern
350
38
  3
Realistic
350
33
  3
Thicken
350
37
  0
DICTIONARY
  5
6E7
102
{ACAD_REACTORS
330
C
102
}
330
C
100
AcDbDictionary
281
     1
  3
DIMASSOC
350
6EA
  3
HIDETEXT
350
6EB
  0
LAYOUT
  5
1E
102
{ACAD_REACTORS
330
1A
102
}
330
1A
100
AcDbPlotSettings
  1

  2
none_device
  4

  6

 40
0.0
 41
0.0
 42
0.0
 43
0.0
 44
0.0
 45
0.0
 46
0.0
 47
0.0
 48
0.0
 49
0.0
140
0.0
141
0.0
142
1.0
143
1.0
 70
   688
 72
     0
 73
     0
 74
     5
  7

 75
    16
147
1.0
148
0.0
149
0.0
100
AcDbLayout
  1
Layout1
 70
     1
 71
     1
 10
0.0
 20
0.0
 11
12.0
 21
9.0
 12
0.0
 22
0.0
 32
0.0
 14
1.00000000000000E+20
 24
1.00000000000000E+20
 34
1.00000000000000E+20
 15
-1.00000000000000E+20
 25
-1.00000000000000E+20
 35
-1.00000000000000E+20
146
0.0
 13
0.0
 23
0.0
 33
0.0
 16
1.0
 26
0.0
 36
0.0
 17
0.0
 27
1.0
 37
0.0
 76
     0
330
1B
  0
LAYOUT
  5
26
102
{ACAD_REACTORS
330
1A
102
}
330
1A
100
AcDbPlotSettings
  1

  2
none_device
  4

  6

 40
0.0
 41
0.0
 42
0.0
 43
0.0
 44
0.0
 45
0.0
 46
0.0
 47
0.0
 48
0.0
 49
0.0
140
0.0
141
0.0
142
1.0
143
1.0
 70
   688
 72
     0
 73
     0
 74
     5
  7

 75
    16
147
1.0
148
0.0
149
0.0
100
AcDbLayout
  1
Layout2
 70
     1
 71
     2
 10
0.0
 20
0.0
 11
0.0
 21
0.0
 12
0.0
 22
0.0
 32
0.0
 14
0.0
 24
0.0
 34
0.0
 15
0.0
 25
0.0
 35
0.0
146
0.0
 13
0.0
 23
0.0
 33
0.0
 16
1.0
 26
0.0
 36
0.0
 17
0.0
 27
1.0
 37
0.0
 76
     0
330
23
  0
LAYOUT
  5
22
102
{ACAD_REACTORS
330
1A
102
}
330
1A
100
AcDbPlotSettings
  1

  2
none_device
  4

  6

 40
0.0
 41
0.0
 42
0.0
 43
0.0
 44
0.0
 45
0.0
 46
0.0
 47
0.0
 48
0.0
 49
0.0
140
0.0
141
0.0
142
1.0
143
1.0
 70
  1712
 72
     0
 73
     0
 74
     0
  7

 75
     0
147
1.0
148
0.0
149
0.0
100
AcDbLayout
  1
Model
 70
     1
 71
     0
 10
0.0
 20
0.0
 11
12.0
 21
9.0
 12
0.0
 22
0.0
 32
0.0
 14
7.75797136846327
 24
-420.289308924954
 34
0.0
 15
339.259981545061
 25
-10.5364573784651
 35
0.0
146
0.0
 13
0.0
 23
0.0
 33
0.0
 16
1.0
 26
0.0
 36
0.0
 17
0.0
 27
1.0
 37
0.0
 76
     0
330
1F
331
29
  0
MATERIAL
  5
3D
102
{ACAD_REACTORS
330
3B
102
}
102
{ACAD_XDICTIONARY
360
70E
102
}
330
3B
100
AcDbMaterial
  1
ByBlock
  0
MATERIAL
  5
3C
102
{ACAD_REACTORS
330
3B
102
}
102
{ACAD_XDICTIONARY
360
70C
102
}
330
3B
100
AcDbMaterial
  1
ByLayer
  0
MATERIAL
  5
3E
102
{ACAD_REACTORS
330
3B
102
}
102
{ACAD_XDICTIONARY
360
710
102
}
330
3B
100
AcDbMaterial
  1
Global
  0
MLINESTYLE
  5
18
102
{ACAD_REACTORS
330
17
102
}
330
17
100
AcDbMlineStyle
  2
Standard
 70
     0
  3

 62
   256
 51
90.0
 52
90.0
 71
     2
 49
0.5
 62
   256
  6
BYLAYER
 49
-0.5
 62
   256
  6
BYLAYER
  0
ACDBPLACEHOLDER
  5
F
102
{ACAD_REACTORS
330
E
102
}
330
E
  0
VISUALSTYLE
  5
2F
102
{ACAD_REACTORS
330
2A
102
}
102
{ACAD_XDICTIONARY
360
6F4
102
}
330
2A
100
AcDbVisualStyle
  2
2dWireframe
 70
     4
 71
     0
 72
     2
 73
     0
 90
        0
 40
-0.6
 41
-30.0
 62
     5
 63
     7
 74
     1
 91
        4
 64
     7
 65
   257
 75
     1
175
     1
 42
1.0
 92
        0
 66
   257
 43
1.0
 76
     1
 77
     6
 78
     2
 67
     7
 79
     5
170
     0
171
     0
290
     0
174
     0
 93
        1
 44
0.0
173
     0
291
     0
 45
0.0
1001
ACAD
1000
AcDbSavedByObjectVersion
1070
     0
  0
VISUALSTYLE
  5
31
102
{ACAD_REACTORS
330
2A
102
}
102
{ACAD_XDICTIONARY
360
6F8
102
}
330
2A
100
AcDbVisualStyle
  2
3D Hidden
 70
     6
 71
     1
 72
     2
 73
     2
 90
        0
 40
-0.6
 41
-30.0
 62
     5
 63
     7
 74
     2
 91
        2
 64
     7
 65
   257
 75
     2
175
     1
 42
40.0
 92
        0
 66
   257
 43
1.0
 76
     1
 77
     6
 78
     2
 67
     7
 79
     3
170
     0
171
     0
290
     0
174
     0
 93
        1
 44
0.0
173
     0
291
     0
 45
0.0
1001
ACAD
1000
AcDbSavedByObjectVersion
1070
     0
  0
VISUALSTYLE
  5
30
102
{ACAD_REACTORS
330
2A
102
}
102
{ACAD_XDICTIONARY
360
6F6
102
}
330
2A
100
AcDbVisualStyle
  2
3dWireframe
 70
     5
 71
     0
 72
     2
 73
     0
 90
        0
 40
-0.6
 41
-30.0
 62
     5
 63
     7
 74
     1
 91
        4
 64
     7
 65
   257
 75
     1
175
     1
 42
1.0
 92
        0
 66
   257
 43
1.0
 76
     1
 77
     6
 78
     2
 67
     7
 79
     5
170
     0
171
     0
290
     0
174
     0
 93
        1
 44
0.0
173
     0
291
     0
 45
0.0
1001
ACAD
1000
AcDbSavedByObjectVersion
1070
     0
  0
VISUALSTYLE
  5
32
102
{ACAD_REACTORS
330
2A
102
}
102
{ACAD_XDICTIONARY
360
6FA
102
}
330
2A
100
AcDbVisualStyle
  2
Basic
 70
     7
 71
     1
 72
     0
 73
     1
 90
        0
 40
-0.6
 41
-30.0
 62
     5
 63
     7
 74
     0
 91
        4
 64
     7
 65
   257
 75
     1
175
     1
 42
1.0
 92
        8
 66
     7
 43
1.0
 76
     1
 77
     6
 78
     2
 67
     7
 79
     5
170
     0
171
     0
290
     0
174
     0
 93
        1
 44
0.0
173
     0
291
     1
 45
0.0
1001
ACAD
1000
AcDbSavedByObjectVersion
1070
     0
  0
VISUALSTYLE
  5
36
102
{ACAD_REACTORS
330
2A
102
}
102
{ACAD_XDICTIONARY
360
702
102
}
330
2A
100
AcDbVisualStyle
  2
Brighten
 70
    12
 71
     2
 72
     2
 73
     0
 90
        0
 40
-0.6
 41
-30.0
 62
     5
 63
     7
 74
     1
 91
        4
 64
     7
 65
   257
 75
     1
175
     1
 42
1.0
 92
        8
 66
     7
 43
1.0
 76
     1
 77
     6
 78
     2
 67
     7
 79
     5
170
     0
171
     0
290
     0
174
     0
 93
        1
 44
50.0
173
     0
291
     1
 45
0.0
1001
ACAD
1000
AcDbSavedByObjectVersion
1070
     0
  0
VISUALSTYLE
  5
3A
102
{ACAD_REACTORS
330
2A
102
}
102
{ACAD_XDICTIONARY
360
70A
102
}
330
2A
100
AcDbVisualStyle
  2
ColorChange
 70
    16
 71
     2
 72
     2
 73
     3
 90
        0
 40
-0.6
 41
-30.0
 62
     5
 63
     8
 74
     1
 91
        4
 64
     7
 65
   257
 75
     1
175
     1
 42
1.0
 92
        8
 66
     8
 43
1.0
 76
     1
 77
     6
 78
     2
 67
     7
 79
     5
170
     0
171
     0
290
     0
174
     0
 93
        1
 44
0.0
173
     0
291
     1
 45
0.0
1001
ACAD
1000
AcDbSavedByObjectVersion
1070
     0
  0
VISUALSTYLE
  5
34
102
{ACAD_REACTORS
330
2A
102
}
102
{ACAD_XDICTIONARY
360
6FE
102
}
330
2A
100
AcDbVisualStyle
  2
Conceptual
 70
     9
 71
     3
 72
     2
 73
     0
 90
        0
 40
-0.6
 41
-30.0
 62
     5
 63
     7
 74
     2
 91
        2
 64
     7
 65
   257
 75
     1
175
     1
 42
40.0
 92
        8
 66
     7
 43
1.0
 76
     1
 77
     6
 78
     2
 67
     7
 79
     3
170
     0
171
     0
290
     0
174
     0
 93
        1
 44
0.0
173
     0
291
     0
 45
0.0
1001
ACAD
1000
AcDbSavedByObjectVersion
1070
     0
  0
VISUALSTYLE
  5
35
102
{ACAD_REACTORS
330
2A
102
}
102
{ACAD_XDICTIONARY
360
700
102
}
330
2A
100
AcDbVisualStyle
  2
Dim
 70
    11
 71
     2
 72
     2
 73
     0
 90
        0
 40
-0.6
 41
-30.0
 62
     5
 63
     7
 74
     1
 91
        4
 64
     7
 65
   257
 75
     1
175
     1
 42
1.0
 92
        8
 66
     7
 43
1.0
 76
     1
 77
     6
 78
     2
 67
     7
 79
     5
170
     0
171
     0
290
     0
174
     0
 93
        1
 44
-50.0
173
     0
291
     1
 45
0.0
1001
ACAD
1000
AcDbSavedByObjectVersion
1070
     0
  0
VISUALSTYLE
  5
39
102
{ACAD_REACTORS
330
2A
102
}
102
{ACAD_XDICTIONARY
360
708
102
}
330
2A
100
AcDbVisualStyle
  2
Facepattern
 70
    15
 71
     2
 72
     2
 73
     0
 90
        0
 40
-0.6
 41
-30.0
 62
     5
 63
     7
 74
     1
 91
        4
 64
     7
 65
   257
 75
     1
175
     1
 42
1.0
 92
        8
 66
     7
 43
1.0
 76
     1
 77
     6
 78
     2
 67
     7
 79
     5
170
     0
171
     0
290
     0
174
     0
 93
        1
 44
0.0
173
     0
291
     1
 45
0.0
1001
ACAD
1000
AcDbSavedByObjectVersion
1070
     0
  0
VISUALSTYLE
  5
2B
102
{ACAD_REACTORS
330
2A
102
}
102
{ACAD_XDICTIONARY
360
6EC
102
}
330
2A
100
AcDbVisualStyle
  2
Flat
 70
     0
 71
     2
 72
     1
 73
     1
 90
        2
 40
-0.6
 41
30.0
 62
     5
 63
     7
 74
     0
 91
        4
 64
     7
 65
   257
 75
     1
175
     1
 42
1.0
 92
        8
 66
     7
 43
1.0
 76
     1
 77
     6
 78
     2
 67
     7
 79
     5
170
     0
171
     0
290
     0
174
     0
 93
       13
 44
0.0
173
     0
291
     1
 45
0.0
1001
ACAD
1000
AcDbSavedByObjectVersion
1070
     0
  0
VISUALSTYLE
  5
2C
102
{ACAD_REACTORS
330
2A
102
}
102
{ACAD_XDICTIONARY
360
6EE
102
}
330
2A
100
AcDbVisualStyle
  2
FlatWithEdges
 70
     1
 71
     2
 72
     1
 73
     1
 90
        2
 40
-0.6
 41
30.0
 62
     5
 63
     7
 74
     1
 91
        4
 64
     7
 65
   257
 75
     1
175
     1
 42
1.0
 92
        0
 66
   257
 43
1.0
 76
     1
 77
     6
 78
     2
 67
     7
 79
     5
170
     0
171
     0
290
     0
174
     0
 93
       13
 44
0.0
173
     0
291
     1
 45
0.0
1001
ACAD
1000
AcDbSavedByObjectVersion
1070
     0
  0
VISUALSTYLE
  5
2D
102
{ACAD_REACTORS
330
2A
102
}
102
{ACAD_XDICTIONARY
360
6F0
102
}
330
2A
100
AcDbVisualStyle
  2
Gouraud
 70
     2
 71
     2
 72
     2
 73
     1
 90
        2
 40
-0.6
 41
30.0
 62
     5
 63
     7
 74
     0
 91
        4
 64
     7
 65
   257
 75
     1
175
     1
 42
1.0
 92
        0
 66
     7
 43
1.0
 76
     1
 77
     6
 78
     2
 67
     7
 79
     5
170
     0
171
     0
290
     0
174
     0
 93
       13
 44
0.0
173
     0
291
     1
 45
0.0
1001
ACAD
1000
AcDbSavedByObjectVersion
1070
     0
  0
VISUALSTYLE
  5
2E
102
{ACAD_REACTORS
330
2A
102
}
102
{ACAD_XDICTIONARY
360
6F2
102
}
330
2A
100
AcDbVisualStyle
  2
GouraudWithEdges
 70
     3
 71
     2
 72
     2
 73
     1
 90
        2
 40
-0.6
 41
30.0
 62
     5
 63
     7
 74
     1
 91
        4
 64
     7
 65
   257
 75
     1
175
     1
 42
1.0
 92
        0
 66
   257
 43
1.0
 76
     1
 77
     6
 78
     2
 67
     7
 79
     5
170
     0
171
     0
290
     0
174
     0
 93
       13
 44
0.0
173
     0
291
     1
 45
0.0
1001
ACAD
1000
AcDbSavedByObjectVersion
1070
     0
  0
VISUALSTYLE
  5
38
102
{ACAD_REACTORS
330
2A
102
}
102
{ACAD_XDICTIONARY
360
706
102
}
330
2A
100
AcDbVisualStyle
  2
Linepattern
 70
    14
 71
     2
 72
     2
 73
     0
 90
        0
 40
-0.6
 41
-30.0
 62
     5
 63
     7
 74
     1
 91
        4
 64
     7
 65
   257
 75
     7
175
     7
 42
1.0
 92
        8
 66
     7
 43
1.0
 76
     1
 77
     6
 78
     2
 67
     7
 79
     5
170
     0
171
     0
290
     0
174
     0
 93
        1
 44
0.0
173
     0
291
     1
 45
0.0
1001
ACAD
1000
AcDbSavedByObjectVersion
1070
     0
  0
VISUALSTYLE
  5
33
102
{ACAD_REACTORS
330
2A
102
}
102
{ACAD_XDICTIONARY
360
6FC
102
}
330
2A
100
AcDbVisualStyle
  2
Realistic
 70
     8
 71
     2
 72
     2
 73
     0
 90
        0
 40
-0.6
 41
-30.0
 62
     5
 63
     7
 74
     1
 91
        0
 64
     7
 65
   257
 75
     1
175
     1
 42
1.0
 92
        8
 66
     8
 43
1.0
 76
     1
 77
     6
 78
     2
 67
     7
 79
     5
170
     0
171
     0
290
     0
174
     0
 93
       13
 44
0.0
173
     0
291
     0
 45
0.0
1001
ACAD
1000
AcDbSavedByObjectVersion
1070
     0
  0
VISUALSTYLE
  5
37
102
{ACAD_REACTORS
330
2A
102
}
102
{ACAD_XDICTIONARY
360
704
102
}
330
2A
100
AcDbVisualStyle
  2
Thicken
 70
    13
 71
     2
 72
     2
 73
     0
 90
        0
 40
-0.6
 41
-30.0
 62
     5
 63
     7
 74
     1
 91
        4
 64
     7
 65
   257
 75
     1
175
     1
 42
1.0
 92
       12
 66
     7
 43
1.0
 76
     1
 77
     6
 78
     2
 67
     7
 79
     5
170
     0
171
     0
290
     0
174
     0
 93
        1
 44
0.0
173
     0
291
     1
 45
0.0
1001
ACAD
1000
AcDbSavedByObjectVersion
1070
     0
  0
DICTIONARYVAR
  5
6EA
102
{ACAD_REACTORS
330
6E7
102
}
330
6E7
100
DictionaryVariables
280
     0
  1
2
  0
DICTIONARYVAR
  5
6EB
102
{ACAD_REACTORS
330
6E7
102
}
330
6E7
100
DictionaryVariables
280
     0
  1
1
  0
DICTIONARY
  5
70E
330
3D
100
AcDbDictionary
280
     1
281
     1
  3
ACAD_XREC_ROUNDTRIP
360
70F
  0
DICTIONARY
  5
70C
330
3C
100
AcDbDictionary
280
     1
281
     1
  3
ACAD_XREC_ROUNDTRIP
360
70D
  0
DICTIONARY
  5
710
330
3E
100
AcDbDictionary
280
     1
281
     1
  3
ACAD_XREC_ROUNDTRIP
360
711
  0
DICTIONARY
  5
6F4
330
2F
100
AcDbDictionary
280
     1
281
     1
  3
ACAD_XREC_ROUNDTRIP
360
6F5
  0
DICTIONARY
  5
6F8
330
31
100
AcDbDictionary
280
     1
281
     1
  3
ACAD_XREC_ROUNDTRIP
360
6F9
  0
DICTIONARY
  5
6F6
330
30
100
AcDbDictionary
280
     1
281
     1
  3
ACAD_XREC_ROUNDTRIP
360
6F7
  0
DICTIONARY
  5
6FA
330
32
100
AcDbDictionary
280
     1
281
     1
  3
ACAD_XREC_ROUNDTRIP
360
6FB
  0
DICTIONARY
  5
702
330
36
100
AcDbDictionary
280
     1
281
     1
  3
ACAD_XREC_ROUNDTRIP
360
703
  0
DICTIONARY
  5
70A
330
3A
100
AcDbDictionary
280
     1
281
     1
  3
ACAD_XREC_ROUNDTRIP
360
70B
  0
DICTIONARY
  5
6FE
330
34
100
AcDbDictionary
280
     1
281
     1
  3
ACAD_XREC_ROUNDTRIP
360
6FF
  0
DICTIONARY
  5
700
330
35
100
AcDbDictionary
280
     1
281
     1
  3
ACAD_XREC_ROUNDTRIP
360
701
  0
DICTIONARY
  5
708
330
39
100
AcDbDictionary
280
     1
281
     1
  3
ACAD_XREC_ROUNDTRIP
360
709
  0
DICTIONARY
  5
6EC
330
2B
100
AcDbDictionary
280
     1
281
     1
  3
ACAD_XREC_ROUNDTRIP
360
6ED
  0
DICTIONARY
  5
6EE
330
2C
100
AcDbDictionary
280
     1
281
     1
  3
ACAD_XREC_ROUNDTRIP
360
6EF
  0
DICTIONARY
  5
6F0
330
2D
100
AcDbDictionary
280
     1
281
     1
  3
ACAD_XREC_ROUNDTRIP
360
6F1
  0
DICTIONARY
  5
6F2
330
2E
100
AcDbDictionary
280
     1
281
     1
  3
ACAD_XREC_ROUNDTRIP
360
6F3
  0
DICTIONARY
  5
706
330
38
100
AcDbDictionary
280
     1
281
     1
  3
ACAD_XREC_ROUNDTRIP
360
707
  0
DICTIONARY
  5
6FC
330
33
100
AcDbDictionary
280
     1
281
     1
  3
ACAD_XREC_ROUNDTRIP
360
6FD
  0
DICTIONARY
  5
704
330
37
100
AcDbDictionary
280
     1
281
     1
  3
ACAD_XREC_ROUNDTRIP
360
705
  0
XRECORD
  5
70F
102
{ACAD_REACTORS
330
70E
102
}
330
70E
100
AcDbXrecord
280
     1
102
MATERIAL
148
0.0
149
0.0
149
0.0
 93
        0
 94
      127
282
     0
 72
     1
 77
     1
171
     1
175
     1
179
     1
273
     0
  0
XRECORD
  5
70D
102
{ACAD_REACTORS
330
70C
102
}
330
70C
100
AcDbXrecord
280
     1
102
MATERIAL
148
0.0
149
0.0
149
0.0
 93
        0
 94
      127
282
     0
 72
     1
 77
     1
171
     1
175
     1
179
     1
273
     0
  0
XRECORD
  5
711
102
{ACAD_REACTORS
330
710
102
}
330
710
100
AcDbXrecord
280
     1
102
MATERIAL
148
0.0
149
0.0
149
0.0
 93
        0
 94
      127
282
     0
 72
     1
 77
     1
171
     1
175
     1
179
     1
273
     0
  0
XRECORD
  5
6F5
102
{ACAD_REACTORS
330
6F4
102
}
330
6F4
100
AcDbXrecord
280
     1
102
RTVSPropertyOp0
 70
     1
102
RTVSPropertyOp1
 70
     1
102
RTVSPropertyOp2
 70
     1
102
RTVSPropertyOp3
 70
     1
102
RTVSPropertyOp4
 70
     1
102
RTVSPropertyOp5
 70
     1
102
RTVSPropertyOp6
 70
     1
102
RTVSPropertyOp7
 70
     1
102
RTVSPropertyOp8
 70
     1
102
RTVSPropertyOp9
 70
     1
102
RTVSPropertyOp10
 70
     1
102
RTVSPropertyOp11
 70
     1
102
RTVSPropertyOp12
 70
     1
102
RTVSPropertyOp13
 70
     1
102
RTVSPropertyOp14
 70
     1
102
RTVSPropertyOp15
 70
     1
102
RTVSPropertyOp16
 70
     1
102
RTVSPropertyOp17
 70
     1
102
RTVSPropertyOp18
 70
     1
102
RTVSPropertyOp19
 70
     1
102
RTVSPropertyOp20
 70
     1
102
RTVSPropertyOp21
 70
     1
102
RTVSPropertyOp22
 70
     1
102
RTVSPropertyOp23
 70
     1
102
RTVSPropertyOp24
 70
     1
102
RTVSPropertyOp25
 70
     1
102
RTVSPropertyOp26
 70
     1
102
RTVSPropertyOp27
 70
     1
  0
XRECORD
  5
6F9
102
{ACAD_REACTORS
330
6F8
102
}
330
6F8
100
AcDbXrecord
280
     1
102
RTVSPropertyOp0
 70
     1
102
RTVSPropertyOp1
 70
     1
102
RTVSPropertyOp2
 70
     1
102
RTVSPropertyOp3
 70
     1
102
RTVSPropertyOp4
 70
     1
102
RTVSPropertyOp5
 70
     1
102
RTVSPropertyOp6
 70
     1
102
RTVSPropertyOp7
 70
     1
102
RTVSPropertyOp8
 70
     1
102
RTVSPropertyOp9
 70
     1
102
RTVSPropertyOp10
 70
     1
102
RTVSPropertyOp11
 70
     1
102
RTVSPropertyOp12
 70
     1
102
RTVSPropertyOp13
 70
     1
102
RTVSPropertyOp14
 70
     1
102
RTVSPropertyOp15
 70
     1
102
RTVSPropertyOp16
 70
     1
102
RTVSPropertyOp17
 70
     1
102
RTVSPropertyOp18
 70
     1
102
RTVSPropertyOp19
 70
     1
102
RTVSPropertyOp20
 70
     1
102
RTVSPropertyOp21
 70
     1
102
RTVSPropertyOp22
 70
     1
102
RTVSPropertyOp23
 70
     1
102
RTVSPropertyOp24
 70
     1
102
RTVSPropertyOp25
 70
     1
102
RTVSPropertyOp26
 70
     1
102
RTVSPropertyOp27
 70
     1
  0
XRECORD
  5
6F7
102
{ACAD_REACTORS
330
6F6
102
}
330
6F6
100
AcDbXrecord
280
     1
102
RTVSPropertyOp0
 70
     1
102
RTVSPropertyOp1
 70
     1
102
RTVSPropertyOp2
 70
     1
102
RTVSPropertyOp3
 70
     1
102
RTVSPropertyOp4
 70
     1
102
RTVSPropertyOp5
 70
     1
102
RTVSPropertyOp6
 70
     1
102
RTVSPropertyOp7
 70
     1
102
RTVSPropertyOp8
 70
     1
102
RTVSPropertyOp9
 70
     1
102
RTVSPropertyOp10
 70
     1
102
RTVSPropertyOp11
 70
     1
102
RTVSPropertyOp12
 70
     1
102
RTVSPropertyOp13
 70
     1
102
RTVSPropertyOp14
 70
     1
102
RTVSPropertyOp15
 70
     1
102
RTVSPropertyOp16
 70
     1
102
RTVSPropertyOp17
 70
     1
102
RTVSPropertyOp18
 70
     1
102
RTVSPropertyOp19
 70
     1
102
RTVSPropertyOp20
 70
     1
102
RTVSPropertyOp21
 70
     1
102
RTVSPropertyOp22
 70
     1
102
RTVSPropertyOp23
 70
     1
102
RTVSPropertyOp24
 70
     1
102
RTVSPropertyOp25
 70
     1
102
RTVSPropertyOp26
 70
     1
102
RTVSPropertyOp27
 70
     1
  0
XRECORD
  5
6FB
102
{ACAD_REACTORS
330
6FA
102
}
330
6FA
100
AcDbXrecord
280
     1
102
RTVSPropertyOp0
 70
     1
102
RTVSPropertyOp1
 70
     1
102
RTVSPropertyOp2
 70
     1
102
RTVSPropertyOp3
 70
     1
102
RTVSPropertyOp4
 70
     1
102
RTVSPropertyOp5
 70
     1
102
RTVSPropertyOp6
 70
     1
102
RTVSPropertyOp7
 70
     1
102
RTVSPropertyOp8
 70
     1
102
RTVSPropertyOp9
 70
     1
102
RTVSPropertyOp10
 70
     1
102
RTVSPropertyOp11
 70
     1
102
RTVSPropertyOp12
 70
     1
102
RTVSPropertyOp13
 70
     1
102
RTVSPropertyOp14
 70
     1
102
RTVSPropertyOp15
 70
     1
102
RTVSPropertyOp16
 70
     1
102
RTVSPropertyOp17
 70
     1
102
RTVSPropertyOp18
 70
     1
102
RTVSPropertyOp19
 70
     1
102
RTVSPropertyOp20
 70
     1
102
RTVSPropertyOp21
 70
     1
102
RTVSPropertyOp22
 70
     1
102
RTVSPropertyOp23
 70
     1
102
RTVSPropertyOp24
 70
     1
102
RTVSPropertyOp25
 70
     1
102
RTVSPropertyOp26
 70
     1
102
RTVSPropertyOp27
 70
     1
  0
XRECORD
  5
703
102
{ACAD_REACTORS
330
702
102
}
330
702
100
AcDbXrecord
280
     1
102
RTVSPropertyOp0
 70
     1
102
RTVSPropertyOp1
 70
     1
102
RTVSPropertyOp2
 70
     1
102
RTVSPropertyOp3
 70
     1
102
RTVSPropertyOp4
 70
     1
102
RTVSPropertyOp5
 70
     1
102
RTVSPropertyOp6
 70
     1
102
RTVSPropertyOp7
 70
     1
102
RTVSPropertyOp8
 70
     1
102
RTVSPropertyOp9
 70
     1
102
RTVSPropertyOp10
 70
     1
102
RTVSPropertyOp11
 70
     1
102
RTVSPropertyOp12
 70
     1
102
RTVSPropertyOp13
 70
     1
102
RTVSPropertyOp14
 70
     1
102
RTVSPropertyOp15
 70
     1
102
RTVSPropertyOp16
 70
     1
102
RTVSPropertyOp17
 70
     1
102
RTVSPropertyOp18
 70
     1
102
RTVSPropertyOp19
 70
     1
102
RTVSPropertyOp20
 70
     1
102
RTVSPropertyOp21
 70
     1
102
RTVSPropertyOp22
 70
     1
102
RTVSPropertyOp23
 70
     1
102
RTVSPropertyOp24
 70
     1
102
RTVSPropertyOp25
 70
     1
102
RTVSPropertyOp26
 70
     1
102
RTVSPropertyOp27
 70
     1
  0
XRECORD
  5
70B
102
{ACAD_REACTORS
330
70A
102
}
330
70A
100
AcDbXrecord
280
     1
102
RTVSPropertyOp0
 70
     1
102
RTVSPropertyOp1
 70
     1
102
RTVSPropertyOp2
 70
     1
102
RTVSPropertyOp3
 70
     1
102
RTVSPropertyOp4
 70
     1
102
RTVSPropertyOp5
 70
     1
102
RTVSPropertyOp6
 70
     1
102
RTVSPropertyOp7
 70
     1
102
RTVSPropertyOp8
 70
     1
102
RTVSPropertyOp9
 70
     1
102
RTVSPropertyOp10
 70
     1
102
RTVSPropertyOp11
 70
     1
102
RTVSPropertyOp12
 70
     1
102
RTVSPropertyOp13
 70
     1
102
RTVSPropertyOp14
 70
     1
102
RTVSPropertyOp15
 70
     1
102
RTVSPropertyOp16
 70
     1
102
RTVSPropertyOp17
 70
     1
102
RTVSPropertyOp18
 70
     1
102
RTVSPropertyOp19
 70
     1
102
RTVSPropertyOp20
 70
     1
102
RTVSPropertyOp21
 70
     1
102
RTVSPropertyOp22
 70
     1
102
RTVSPropertyOp23
 70
     1
102
RTVSPropertyOp24
 70
     1
102
RTVSPropertyOp25
 70
     1
102
RTVSPropertyOp26
 70
     1
102
RTVSPropertyOp27
 70
     1
  0
XRECORD
  5
6FF
102
{ACAD_REACTORS
330
6FE
102
}
330
6FE
100
AcDbXrecord
280
     1
102
RTVSPropertyOp0
 70
     1
102
RTVSPropertyOp1
 70
     1
102
RTVSPropertyOp2
 70
     1
102
RTVSPropertyOp3
 70
     1
102
RTVSPropertyOp4
 70
     1
102
RTVSPropertyOp5
 70
     1
102
RTVSPropertyOp6
 70
     1
102
RTVSPropertyOp7
 70
     1
102
RTVSPropertyOp8
 70
     1
102
RTVSPropertyOp9
 70
     1
102
RTVSPropertyOp10
 70
     1
102
RTVSPropertyOp11
 70
     1
102
RTVSPropertyOp12
 70
     1
102
RTVSPropertyOp13
 70
     1
102
RTVSPropertyOp14
 70
     1
102
RTVSPropertyOp15
 70
     1
102
RTVSPropertyOp16
 70
     1
102
RTVSPropertyOp17
 70
     1
102
RTVSPropertyOp18
 70
     1
102
RTVSPropertyOp19
 70
     1
102
RTVSPropertyOp20
 70
     1
102
RTVSPropertyOp21
 70
     1
102
RTVSPropertyOp22
 70
     1
102
RTVSPropertyOp23
 70
     1
102
RTVSPropertyOp24
 70
     1
102
RTVSPropertyOp25
 70
     1
102
RTVSPropertyOp26
 70
     1
102
RTVSPropertyOp27
 70
     1
  0
XRECORD
  5
701
102
{ACAD_REACTORS
330
700
102
}
330
700
100
AcDbXrecord
280
     1
102
RTVSPropertyOp0
 70
     1
102
RTVSPropertyOp1
 70
     1
102
RTVSPropertyOp2
 70
     1
102
RTVSPropertyOp3
 70
     1
102
RTVSPropertyOp4
 70
     1
102
RTVSPropertyOp5
 70
     1
102
RTVSPropertyOp6
 70
     1
102
RTVSPropertyOp7
 70
     1
102
RTVSPropertyOp8
 70
     1
102
RTVSPropertyOp9
 70
     1
102
RTVSPropertyOp10
 70
     1
102
RTVSPropertyOp11
 70
     1
102
RTVSPropertyOp12
 70
     1
102
RTVSPropertyOp13
 70
     1
102
RTVSPropertyOp14
 70
     1
102
RTVSPropertyOp15
 70
     1
102
RTVSPropertyOp16
 70
     1
102
RTVSPropertyOp17
 70
     1
102
RTVSPropertyOp18
 70
     1
102
RTVSPropertyOp19
 70
     1
102
RTVSPropertyOp20
 70
     1
102
RTVSPropertyOp21
 70
     1
102
RTVSPropertyOp22
 70
     1
102
RTVSPropertyOp23
 70
     1
102
RTVSPropertyOp24
 70
     1
102
RTVSPropertyOp25
 70
     1
102
RTVSPropertyOp26
 70
     1
102
RTVSPropertyOp27
 70
     1
  0
XRECORD
  5
709
102
{ACAD_REACTORS
330
708
102
}
330
708
100
AcDbXrecord
280
     1
102
RTVSPropertyOp0
 70
     1
102
RTVSPropertyOp1
 70
     1
102
RTVSPropertyOp2
 70
     1
102
RTVSPropertyOp3
 70
     1
102
RTVSPropertyOp4
 70
     1
102
RTVSPropertyOp5
 70
     1
102
RTVSPropertyOp6
 70
     1
102
RTVSPropertyOp7
 70
     1
102
RTVSPropertyOp8
 70
     1
102
RTVSPropertyOp9
 70
     1
102
RTVSPropertyOp10
 70
     1
102
RTVSPropertyOp11
 70
     1
102
RTVSPropertyOp12
 70
     1
102
RTVSPropertyOp13
 70
     1
102
RTVSPropertyOp14
 70
     1
102
RTVSPropertyOp15
 70
     1
102
RTVSPropertyOp16
 70
     1
102
RTVSPropertyOp17
 70
     1
102
RTVSPropertyOp18
 70
     1
102
RTVSPropertyOp19
 70
     1
102
RTVSPropertyOp20
 70
     1
102
RTVSPropertyOp21
 70
     1
102
RTVSPropertyOp22
 70
     1
102
RTVSPropertyOp23
 70
     1
102
RTVSPropertyOp24
 70
     1
102
RTVSPropertyOp25
 70
     1
102
RTVSPropertyOp26
 70
     1
102
RTVSPropertyOp27
 70
     1
  0
XRECORD
  5
6ED
102
{ACAD_REACTORS
330
6EC
102
}
330
6EC
100
AcDbXrecord
280
     1
102
RTVSPropertyOp0
 70
     1
102
RTVSPropertyOp1
 70
     1
102
RTVSPropertyOp2
 70
     1
102
RTVSPropertyOp3
 70
     1
102
RTVSPropertyOp4
 70
     1
102
RTVSPropertyOp5
 70
     1
102
RTVSPropertyOp6
 70
     1
102
RTVSPropertyOp7
 70
     1
102
RTVSPropertyOp8
 70
     1
102
RTVSPropertyOp9
 70
     1
102
RTVSPropertyOp10
 70
     1
102
RTVSPropertyOp11
 70
     1
102
RTVSPropertyOp12
 70
     1
102
RTVSPropertyOp13
 70
     1
102
RTVSPropertyOp14
 70
     1
102
RTVSPropertyOp15
 70
     1
102
RTVSPropertyOp16
 70
     1
102
RTVSPropertyOp17
 70
     1
102
RTVSPropertyOp18
 70
     1
102
RTVSPropertyOp19
 70
     1
102
RTVSPropertyOp20
 70
     1
102
RTVSPropertyOp21
 70
     1
102
RTVSPropertyOp22
 70
     1
102
RTVSPropertyOp23
 70
     1
102
RTVSPropertyOp24
 70
     1
102
RTVSPropertyOp25
 70
     1
102
RTVSPropertyOp26
 70
     1
102
RTVSPropertyOp27
 70
     1
  0
XRECORD
  5
6EF
102
{ACAD_REACTORS
330
6EE
102
}
330
6EE
100
AcDbXrecord
280
     1
102
RTVSPropertyOp0
 70
     1
102
RTVSPropertyOp1
 70
     1
102
RTVSPropertyOp2
 70
     1
102
RTVSPropertyOp3
 70
     1
102
RTVSPropertyOp4
 70
     1
102
RTVSPropertyOp5
 70
     1
102
RTVSPropertyOp6
 70
     1
102
RTVSPropertyOp7
 70
     1
102
RTVSPropertyOp8
 70
     1
102
RTVSPropertyOp9
 70
     1
102
RTVSPropertyOp10
 70
     1
102
RTVSPropertyOp11
 70
     1
102
RTVSPropertyOp12
 70
     1
102
RTVSPropertyOp13
 70
     1
102
RTVSPropertyOp14
 70
     1
102
RTVSPropertyOp15
 70
     1
102
RTVSPropertyOp16
 70
     1
102
RTVSPropertyOp17
 70
     1
102
RTVSPropertyOp18
 70
     1
102
RTVSPropertyOp19
 70
     1
102
RTVSPropertyOp20
 70
     1
102
RTVSPropertyOp21
 70
     1
102
RTVSPropertyOp22
 70
     1
102
RTVSPropertyOp23
 70
     1
102
RTVSPropertyOp24
 70
     1
102
RTVSPropertyOp25
 70
     1
102
RTVSPropertyOp26
 70
     1
102
RTVSPropertyOp27
 70
     1
  0
XRECORD
  5
6F1
102
{ACAD_REACTORS
330
6F0
102
}
330
6F0
100
AcDbXrecord
280
     1
102
RTVSPropertyOp0
 70
     1
102
RTVSPropertyOp1
 70
     1
102
RTVSPropertyOp2
 70
     1
102
RTVSPropertyOp3
 70
     1
102
RTVSPropertyOp4
 70
     1
102
RTVSPropertyOp5
 70
     1
102
RTVSPropertyOp6
 70
     1
102
RTVSPropertyOp7
 70
     1
102
RTVSPropertyOp8
 70
     1
102
RTVSPropertyOp9
 70
     1
102
RTVSPropertyOp10
 70
     1
102
RTVSPropertyOp11
 70
     1
102
RTVSPropertyOp12
 70
     1
102
RTVSPropertyOp13
 70
     1
102
RTVSPropertyOp14
 70
     1
102
RTVSPropertyOp15
 70
     1
102
RTVSPropertyOp16
 70
     1
102
RTVSPropertyOp17
 70
     1
102
RTVSPropertyOp18
 70
     1
102
RTVSPropertyOp19
 70
     1
102
RTVSPropertyOp20
 70
     1
102
RTVSPropertyOp21
 70
     1
102
RTVSPropertyOp22
 70
     1
102
RTVSPropertyOp23
 70
     1
102
RTVSPropertyOp24
 70
     1
102
RTVSPropertyOp25
 70
     1
102
RTVSPropertyOp26
 70
     1
102
RTVSPropertyOp27
 70
     1
  0
XRECORD
  5
6F3
102
{ACAD_REACTORS
330
6F2
102
}
330
6F2
100
AcDbXrecord
280
     1
102
RTVSPropertyOp0
 70
     1
102
RTVSPropertyOp1
 70
     1
102
RTVSPropertyOp2
 70
     1
102
RTVSPropertyOp3
 70
     1
102
RTVSPropertyOp4
 70
     1
102
RTVSPropertyOp5
 70
     1
102
RTVSPropertyOp6
 70
     1
102
RTVSPropertyOp7
 70
     1
102
RTVSPropertyOp8
 70
     1
102
RTVSPropertyOp9
 70
     1
102
RTVSPropertyOp10
 70
     1
102
RTVSPropertyOp11
 70
     1
102
RTVSPropertyOp12
 70
     1
102
RTVSPropertyOp13
 70
     1
102
RTVSPropertyOp14
 70
     1
102
RTVSPropertyOp15
 70
     1
102
RTVSPropertyOp16
 70
     1
102
RTVSPropertyOp17
 70
     1
102
RTVSPropertyOp18
 70
     1
102
RTVSPropertyOp19
 70
     1
102
RTVSPropertyOp20
 70
     1
102
RTVSPropertyOp21
 70
     1
102
RTVSPropertyOp22
 70
     1
102
RTVSPropertyOp23
 70
     1
102
RTVSPropertyOp24
 70
     1
102
RTVSPropertyOp25
 70
     1
102
RTVSPropertyOp26
 70
     1
102
RTVSPropertyOp27
 70
     1
  0
XRECORD
  5
707
102
{ACAD_REACTORS
330
706
102
}
330
706
100
AcDbXrecord
280
     1
102
RTVSPropertyOp0
 70
     1
102
RTVSPropertyOp1
 70
     1
102
RTVSPropertyOp2
 70
     1
102
RTVSPropertyOp3
 70
     1
102
RTVSPropertyOp4
 70
     1
102
RTVSPropertyOp5
 70
     1
102
RTVSPropertyOp6
 70
     1
102
RTVSPropertyOp7
 70
     1
102
RTVSPropertyOp8
 70
     1
102
RTVSPropertyOp9
 70
     1
102
RTVSPropertyOp10
 70
     1
102
RTVSPropertyOp11
 70
     1
102
RTVSPropertyOp12
 70
     1
102
RTVSPropertyOp13
 70
     1
102
RTVSPropertyOp14
 70
     1
102
RTVSPropertyOp15
 70
     1
102
RTVSPropertyOp16
 70
     1
102
RTVSPropertyOp17
 70
     1
102
RTVSPropertyOp18
 70
     1
102
RTVSPropertyOp19
 70
     1
102
RTVSPropertyOp20
 70
     1
102
RTVSPropertyOp21
 70
     1
102
RTVSPropertyOp22
 70
     1
102
RTVSPropertyOp23
 70
     1
102
RTVSPropertyOp24
 70
     1
102
RTVSPropertyOp25
 70
     1
102
RTVSPropertyOp26
 70
     1
102
RTVSPropertyOp27
 70
     1
  0
XRECORD
  5
6FD
102
{ACAD_REACTORS
330
6FC
102
}
330
6FC
100
AcDbXrecord
280
     1
102
RTVSPropertyOp0
 70
     1
102
RTVSPropertyOp1
 70
     1
102
RTVSPropertyOp2
 70
     1
102
RTVSPropertyOp3
 70
     1
102
RTVSPropertyOp4
 70
     1
102
RTVSPropertyOp5
 70
     1
102
RTVSPropertyOp6
 70
     1
102
RTVSPropertyOp7
 70
     1
102
RTVSPropertyOp8
 70
     1
102
RTVSPropertyOp9
 70
     1
102
RTVSPropertyOp10
 70
     1
102
RTVSPropertyOp11
 70
     1
102
RTVSPropertyOp12
 70
     1
102
RTVSPropertyOp13
 70
     1
102
RTVSPropertyOp14
 70
     1
102
RTVSPropertyOp15
 70
     1
102
RTVSPropertyOp16
 70
     1
102
RTVSPropertyOp17
 70
     1
102
RTVSPropertyOp18
 70
     1
102
RTVSPropertyOp19
 70
     1
102
RTVSPropertyOp20
 70
     1
102
RTVSPropertyOp21
 70
     1
102
RTVSPropertyOp22
 70
     1
102
RTVSPropertyOp23
 70
     1
102
RTVSPropertyOp24
 70
     1
102
RTVSPropertyOp25
 70
     1
102
RTVSPropertyOp26
 70
     1
102
RTVSPropertyOp27
 70
     1
  0
XRECORD
  5
705
102
{ACAD_REACTORS
330
704
102
}
330
704
100
AcDbXrecord
280
     1
102
RTVSPropertyOp0
 70
     1
102
RTVSPropertyOp1
 70
     1
102
RTVSPropertyOp2
 70
     1
102
RTVSPropertyOp3
 70
     1
102
RTVSPropertyOp4
 70
     1
102
RTVSPropertyOp5
 70
     1
102
RTVSPropertyOp6
 70
     1
102
RTVSPropertyOp7
 70
     1
102
RTVSPropertyOp8
 70
     1
102
RTVSPropertyOp9
 70
     1
102
RTVSPropertyOp10
 70
     1
102
RTVSPropertyOp11
 70
     1
102
RTVSPropertyOp12
 70
     1
102
RTVSPropertyOp13
 70
     1
102
RTVSPropertyOp14
 70
     1
102
RTVSPropertyOp15
 70
     1
102
RTVSPropertyOp16
 70
     1
102
RTVSPropertyOp17
 70
     1
102
RTVSPropertyOp18
 70
     1
102
RTVSPropertyOp19
 70
     1
102
RTVSPropertyOp20
 70
     1
102
RTVSPropertyOp21
 70
     1
102
RTVSPropertyOp22
 70
     1
102
RTVSPropertyOp23
 70
     1
102
RTVSPropertyOp24
 70
     1
102
RTVSPropertyOp25
 70
     1
102
RTVSPropertyOp26
 70
     1
102
RTVSPropertyOp27
 70
     1
  0
ENDSEC
  0
EOF
