  0
SECTION
  2
HEADER
  9
$ACADVER
  1
AC1015
  9
$ACADMAINTVER
 70
     6
  9
$DWGCODEPAGE
  3
ANSI_932
  9
$INSBASE
 10
0.0
 20
0.0
 30
0.0
  9
$EXTMIN
 10
-191.0
 20
-60.9274982908581
 30
0.0
  9
$EXTMAX
 10
271.363185707288
 20
393.290389415599
 30
0.0
  9
$LIMMIN
 10
0.0
 20
0.0
  9
$LIMMAX
 10
12.0
 20
9.0
  9
$ORTHOMODE
 70
     0
  9
$REGENMODE
 70
     1
  9
$FILLMODE
 70
     1
  9
$QTEXTMODE
 70
     0
  9
$MIRRTEXT
 70
     1
  9
$LTSCALE
 40
1.0
  9
$ATTMODE
 70
     1
  9
$TEXTSIZE
 40
0.2
  9
$TRACEWID
 40
0.05
  9
$TEXTSTYLE
  7
Standard
  9
$CLAYER
  8
0
  9
$CELTYPE
  6
ByLayer
  9
$CECOLOR
 62
   256
  9
$CELTSCALE
 40
1.0
  9
$DISPSILH
 70
     0
  9
$DIMSCALE
 40
1.0
  9
$DIMASZ
 40
0.18
  9
$DIMEXO
 40
0.0625
  9
$DIMDLI
 40
0.38
  9
$DIMRND
 40
0.0
  9
$DIMDLE
 40
0.0
  9
$DIMEXE
 40
0.18
  9
$DIMTP
 40
0.0
  9
$DIMTM
 40
0.0
  9
$DIMTXT
 40
0.18
  9
$DIMCEN
 40
0.09
  9
$DIMTSZ
 40
0.0
  9
$DIMTOL
 70
     0
  9
$DIMLIM
 70
     0
  9
$DIMTIH
 70
     1
  9
$DIMTOH
 70
     1
  9
$DIMSE1
 70
     0
  9
$DIMSE2
 70
     0
  9
$DIMTAD
 70
     0
  9
$DIMZIN
 70
     0
  9
$DIMBLK
  1

  9
$DIMASO
 70
     1
  9
$DIMSHO
 70
     1
  9
$DIMPOST
  1

  9
$DIMAPOST
  1

  9
$DIMALT
 70
     0
  9
$DIMALTD
 70
     2
  9
$DIMALTF
 40
25.4
  9
$DIMLFAC
 40
1.0
  9
$DIMTOFL
 70
     0
  9
$DIMTVP
 40
0.0
  9
$DIMTIX
 70
     0
  9
$DIMSOXD
 70
     0
  9
$DIMSAH
 70
     0
  9
$DIMBLK1
  1

  9
$DIMBLK2
  1

  9
$DIMSTYLE
  2
Standard
  9
$DIMCLRD
 70
     0
  9
$DIMCLRE
 70
     0
  9
$DIMCLRT
 70
     0
  9
$DIMTFAC
 40
1.0
  9
$DIMGAP
 40
0.09
  9
$DIMJUST
 70
     0
  9
$DIMSD1
 70
     0
  9
$DIMSD2
 70
     0
  9
$DIMTOLJ
 70
     1
  9
$DIMTZIN
 70
     0
  9
$DIMALTZ
 70
     0
  9
$DIMALTTZ
 70
     0
  9
$DIMUPT
 70
     0
  9
$DIMDEC
 70
     4
  9
$DIMTDEC
 70
     4
  9
$DIMALTU
 70
     2
  9
$DIMALTTD
 70
     2
  9
$DIMTXSTY
  7
Standard
  9
$DIMAUNIT
 70
     0
  9
$DIMADEC
 70
     0
  9
$DIMALTRND
 40
0.0
  9
$DIMAZIN
 70
     0
  9
$DIMDSEP
 70
    46
  9
$DIMATFIT
 70
     3
  9
$DIMFRAC
 70
     0
  9
$DIMLDRBLK
  1

  9
$DIMLUNIT
 70
     2
  9
$DIMLWD
 70
    -2
  9
$DIMLWE
 70
    -2
  9
$DIMTMOVE
 70
     0
  9
$LUNITS
 70
     2
  9
$LUPREC
 70
     4
  9
$SKETCHINC
 40
0.1
  9
$FILLETRAD
 40
0.5
  9
$AUNITS
 70
     0
  9
$AUPREC
 70
     0
  9
$MENU
  1
.
  9
$ELEVATION
 40
0.0
  9
$PELEVATION
 40
0.0
  9
$THICKNESS
 40
0.0
  9
$LIMCHECK
 70
     0
  9
$CHAMFERA
 40
0.5
  9
$CHAMFERB
 40
0.5
  9
$CHAMFERC
 40
1.0
  9
$CHAMFERD
 40
0.0
  9
$SKPOLY
 70
     0
  9
$TDCREATE
 40
2457624.704742789
  9
$TDUCREATE
 40
2457624.329742789
  9
$TDUPDATE
 40
2457624.704742801
  9
$TDUUPDATE
 40
2457624.329742801
  9
$TDINDWG
 40
0.0000000116
  9
$TDUSRTIMER
 40
0.0000000116
  9
$USRTIMER
 70
     1
  9
$ANGBASE
 50
0.0
  9
$ANGDIR
 70
     0
  9
$PDMODE
 70
     0
  9
$PDSIZE
 40
0.0
  9
$PLINEWID
 40
0.0
  9
$SPLFRAME
 70
     0
  9
$SPLINETYPE
 70
     6
  9
$SPLINESEGS
 70
     8
  9
$HANDSEED
  5
5CE
  9
$SURFTAB1
 70
     6
  9
$SURFTAB2
 70
     6
  9
$SURFTYPE
 70
     6
  9
$SURFU
 70
     6
  9
$SURFV
 70
     6
  9
$UCSBASE
  2

  9
$UCSNAME
  2

  9
$UCSORG
 10
0.0
 20
0.0
 30
0.0
  9
$UCSXDIR
 10
1.0
 20
0.0
 30
0.0
  9
$UCSYDIR
 10
0.0
 20
1.0
 30
0.0
  9
$UCSORTHOREF
  2

  9
$UCSORTHOVIEW
 70
     0
  9
$UCSORGTOP
 10
0.0
 20
0.0
 30
0.0
  9
$UCSORGBOTTOM
 10
0.0
 20
0.0
 30
0.0
  9
$UCSORGLEFT
 10
0.0
 20
0.0
 30
0.0
  9
$UCSORGRIGHT
 10
0.0
 20
0.0
 30
0.0
  9
$UCSORGFRONT
 10
0.0
 20
0.0
 30
0.0
  9
$UCSORGBACK
 10
0.0
 20
0.0
 30
0.0
  9
$PUCSBASE
  2

  9
$PUCSNAME
  2

  9
$PUCSORG
 10
0.0
 20
0.0
 30
0.0
  9
$PUCSXDIR
 10
1.0
 20
0.0
 30
0.0
  9
$PUCSYDIR
 10
0.0
 20
1.0
 30
0.0
  9
$PUCSORTHOREF
  2

  9
$PUCSORTHOVIEW
 70
     0
  9
$PUCSORGTOP
 10
0.0
 20
0.0
 30
0.0
  9
$PUCSORGBOTTOM
 10
0.0
 20
0.0
 30
0.0
  9
$PUCSORGLEFT
 10
0.0
 20
0.0
 30
0.0
  9
$PUCSORGRIGHT
 10
0.0
 20
0.0
 30
0.0
  9
$PUCSORGFRONT
 10
0.0
 20
0.0
 30
0.0
  9
$PUCSORGBACK
 10
0.0
 20
0.0
 30
0.0
  9
$USERI1
 70
     0
  9
$USERI2
 70
     0
  9
$USERI3
 70
     0
  9
$USERI4
 70
     0
  9
$USERI5
 70
     0
  9
$USERR1
 40
18.0
  9
$USERR2
 40
0.0
  9
$USERR3
 40
0.0
  9
$USERR4
 40
0.0
  9
$USERR5
 40
0.0
  9
$WORLDVIEW
 70
     1
  9
$SHADEDGE
 70
     3
  9
$SHADEDIF
 70
    70
  9
$TILEMODE
 70
     1
  9
$MAXACTVP
 70
    64
  9
$PINSBASE
 10
0.0
 20
0.0
 30
0.0
  9
$PLIMCHECK
 70
     0
  9
$PEXTMIN
 10
1.00000000000000E+20
 20
1.00000000000000E+20
 30
1.00000000000000E+20
  9
$PEXTMAX
 10
-1.00000000000000E+20
 20
-1.00000000000000E+20
 30
-1.00000000000000E+20
  9
$PLIMMIN
 10
0.0
 20
0.0
  9
$PLIMMAX
 10
12.0
 20
9.0
  9
$UNITMODE
 70
     0
  9
$VISRETAIN
 70
     1
  9
$PLINEGEN
 70
     0
  9
$PSLTSCALE
 70
     1
  9
$TREEDEPTH
 70
  3020
  9
$CMLSTYLE
  2
Standard
  9
$CMLJUST
 70
     0
  9
$CMLSCALE
 40
1.0
  9
$PROXYGRAPHICS
 70
     1
  9
$MEASUREMENT
 70
     1
  9
$CELWEIGHT
370
    -1
  9
$ENDCAPS
280
     0
  9
$JOINSTYLE
280
     0
  9
$LWDISPLAY
290
     0
  9
$INSUNITS
 70
     1
  9
$HYPERLINKBASE
  1

  9
$STYLESHEET
  1

  9
$XEDIT
290
     1
  9
$CEPSNTYPE
380
     0
  9
$PSTYLEMODE
290
     1
  9
$FINGERPRINTGUID
  2
{EF2108C4-9B8A-40F6-BEE5-93911D7AF33B}
  9
$VERSIONGUID
  2
{FAEB1C32-E019-11D5-929B-00C0DF256EC4}
  9
$EXTNAMES
290
     1
  9
$PSVPSCALE
 40
0.0
  9
$OLESTARTUP
290
     0
  0
ENDSEC
  0
SECTION
  2
CLASSES
  0
CLASS
  1
ACDBDICTIONARYWDFLT
  2
AcDbDictionaryWithDefault
  3
ObjectDBX Classes
 90
        0
280
     0
281
     0
  0
CLASS
  1
VISUALSTYLE
  2
AcDbVisualStyle
  3
ObjectDBX Classes
 90
     4095
280
     0
281
     0
  0
CLASS
  1
MATERIAL
  2
AcDbMaterial
  3
ObjectDBX Classes
 90
     1153
280
     0
281
     0
  0
CLASS
  1

  2
exOdDbCircle
  3

 90
        0
280
     0
281
     1
  0
CLASS
  1

  2
exOdDbPolyline
  3

 90
        0
280
     0
281
     1
  0
CLASS
  1
DICTIONARYVAR
  2
AcDbDictionaryVar
  3
ObjectDBX Classes
 90
        0
280
     0
281
     0
  0
CLASS
  1
ACDBPLACEHOLDER
  2
AcDbPlaceHolder
  3
ObjectDBX Classes
 90
        0
280
     0
281
     0
  0
CLASS
  1
LAYOUT
  2
AcDbLayout
  3
ObjectDBX Classes
 90
        0
280
     0
281
     0
  0
ENDSEC
  0
SECTION
  2
TABLES
  0
TABLE
  2
VPORT
  5
8
330
0
100
AcDbSymbolTable
 70
     1
  0
VPORT
  5
29
330
8
100
AcDbSymbolTableRecord
100
AcDbViewportTableRecord
  2
*Active
 70
     0
 10
0.0
 20
0.0
 11
1.0
 21
1.0
 12
40.18159285364399
 22
166.1814455623705
 13
0.0
 23
0.0
 14
0.5
 24
0.5
 15
0.5
 25
0.5
 16
0.0
 26
0.0
 36
1.0
 17
0.0
 27
0.0
 37
0.0
 40
499.6396764771029
 41
1.60267857142857
 42
50.0
 43
0.0
 44
0.0
 50
0.0
 51
0.0
 71
     0
 72
   100
 73
     1
 74
     3
 75
     0
 76
     0
 77
     0
 78
     0
281
     0
 65
     1
110
0.0
120
0.0
130
0.0
111
1.0
121
0.0
131
0.0
112
0.0
122
1.0
132
0.0
 79
     0
146
0.0
  0
ENDTAB
  0
TABLE
  2
LTYPE
  5
5
330
0
100
AcDbSymbolTable
 70
     9
  0
LTYPE
  5
14
330
5
100
AcDbSymbolTableRecord
100
AcDbLinetypeTableRecord
  2
ByBlock
 70
     0
  3

 72
    65
 73
     0
 40
0.0
  0
LTYPE
  5
15
330
5
100
AcDbSymbolTableRecord
100
AcDbLinetypeTableRecord
  2
ByLayer
 70
     0
  3

 72
    65
 73
     0
 40
0.0
  0
LTYPE
  5
16
330
5
100
AcDbSymbolTableRecord
100
AcDbLinetypeTableRecord
  2
Continuous
 70
     0
  3
Solid line
 72
    65
 73
     0
 40
0.0
  0
LTYPE
  5
3F
330
5
100
AcDbSymbolTableRecord
100
AcDbLinetypeTableRecord
  2
DASHED
 70
     0
  3
Dashed
 72
    65
 73
     2
 40
15.0
 49
7.0
 74
     0
 49
-8.0
 74
     0
  0
LTYPE
  5
40
330
5
100
AcDbSymbolTableRecord
100
AcDbLinetypeTableRecord
  2
DOTTED
 70
     0
  3
Dotted
 72
    65
 73
     2
 40
1.0
 49
0.0
 74
     0
 49
-1.0
 74
     0
  0
LTYPE
  5
41
330
5
100
AcDbSymbolTableRecord
100
AcDbLinetypeTableRecord
  2
DOT_CENTER
 70
     0
  3
Dot_Center
 72
    65
 73
     4
 40
14.0
 49
12.0
 74
     0
 49
-1.0
 74
     0
 49
0.0
 74
     0
 49
-1.0
 74
     0
  0
LTYPE
  5
42
330
5
100
AcDbSymbolTableRecord
100
AcDbLinetypeTableRecord
  2
LONG_DASHED
 70
     0
  3
Long_Dashed
 72
    65
 73
     2
 40
15.0
 49
10.0
 74
     0
 49
-5.0
 74
     0
  0
LTYPE
  5
43
330
5
100
AcDbSymbolTableRecord
100
AcDbLinetypeTableRecord
  2
DASH_CENTER
 70
     0
  3
Dash_Center
 72
    65
 73
     4
 40
14.0
 49
11.0
 74
     0
 49
-1.0
 74
     0
 49
1.0
 74
     0
 49
-1.0
 74
     0
  0
LTYPE
  5
44
330
5
100
AcDbSymbolTableRecord
100
AcDbLinetypeTableRecord
  2
PHANTOM
 70
     0
  3
Phantom
 72
    65
 73
     6
 40
13.0
 49
10.0
 74
     0
 49
-1.0
 74
     0
 49
0.0
 74
     0
 49
-1.0
 74
     0
 49
0.0
 74
     0
 49
-1.0
 74
     0
  0
LTYPE
  5
45
330
5
100
AcDbSymbolTableRecord
100
AcDbLinetypeTableRecord
  2
CENTER_DASH_DASH
 70
     0
  3
Center_Dash_Dash
 72
    65
 73
     6
 40
14.0
 49
9.0
 74
     0
 49
-1.0
 74
     0
 49
1.0
 74
     0
 49
-1.0
 74
     0
 49
1.0
 74
     0
 49
-1.0
 74
     0
  0
LTYPE
  5
46
330
5
100
AcDbSymbolTableRecord
100
AcDbLinetypeTableRecord
  2
CENTER
 70
     0
  3
CENTER
 72
    65
 73
     4
 40
6.0
 49
3.0
 74
     0
 49
-1.0
 74
     0
 49
1.0
 74
     0
 49
-1.0
 74
     0
  0
ENDTAB
  0
TABLE
  2
LAYER
  5
2
330
0
100
AcDbSymbolTable
 70
     4
  0
LAYER
  5
10
330
2
100
AcDbSymbolTableRecord
100
AcDbLayerTableRecord
  2
0
 70
     0
 62
     7
  6
Continuous
370
    -3
390
F
  0
LAYER
  5
47
330
2
100
AcDbSymbolTableRecord
100
AcDbLayerTableRecord
  2
1
 70
     0
 62
     7
  6
Continuous
370
    -3
390
F
  0
LAYER
  5
48
330
2
100
AcDbSymbolTableRecord
100
AcDbLayerTableRecord
  2
100
 70
     0
 62
     7
  6
Continuous
370
    -3
390
F
  0
LAYER
  5
49
330
2
100
AcDbSymbolTableRecord
100
AcDbLayerTableRecord
  2
2
 70
     0
 62
     7
  6
Continuous
370
    -3
390
F
  0
ENDTAB
  0
TABLE
  2
STYLE
  5
3
330
0
100
AcDbSymbolTable
 70
     1
  0
STYLE
  5
11
330
3
100
AcDbSymbolTableRecord
100
AcDbTextStyleTableRecord
  2
Standard
 70
     0
 40
0.0
 41
1.0
 50
0.0
 71
     0
 42
0.2
  3
txt
  4

  0
ENDTAB
  0
TABLE
  2
VIEW
  5
6
330
0
100
AcDbSymbolTable
 70
     0
  0
ENDTAB
  0
TABLE
  2
UCS
  5
7
330
0
100
AcDbSymbolTable
 70
     0
  0
ENDTAB
  0
TABLE
  2
APPID
  5
9
330
0
100
AcDbSymbolTable
 70
     1
  0
APPID
  5
12
330
9
100
AcDbSymbolTableRecord
100
AcDbRegAppTableRecord
  2
ACAD
 70
     0
  0
ENDTAB
  0
TABLE
  2
DIMSTYLE
  5
A
330
0
100
AcDbSymbolTable
 70
     1
100
AcDbDimStyleTable
  0
DIMSTYLE
105
27
330
A
100
AcDbSymbolTableRecord
100
AcDbDimStyleTableRecord
  2
Standard
 70
     0
340
11
  0
ENDTAB
  0
TABLE
  2
BLOCK_RECORD
  5
1
330
0
100
AcDbSymbolTable
 70
     1
  0
BLOCK_RECORD
  5
1F
330
1
100
AcDbSymbolTableRecord
100
AcDbBlockTableRecord
  2
*Model_Space
340
22
  0
BLOCK_RECORD
  5
1B
330
1
100
AcDbSymbolTableRecord
100
AcDbBlockTableRecord
  2
*Paper_Space
340
1E
  0
BLOCK_RECORD
  5
23
330
1
100
AcDbSymbolTableRecord
100
AcDbBlockTableRecord
  2
*Paper_Space0
340
26
  0
ENDTAB
  0
ENDSEC
  0
SECTION
  2
BLOCKS
  0
BLOCK
  5
20
330
1F
100
AcDbEntity
  8
0
100
AcDbBlockBegin
  2
*Model_Space
 70
     0
 10
0.0
 20
0.0
 30
0.0
  3
*Model_Space
  1

  0
ENDBLK
  5
21
330
1F
100
AcDbEntity
  8
0
100
AcDbBlockEnd
  0
BLOCK
  5
1C
330
1B
100
AcDbEntity
 67
     1
  8
0
100
AcDbBlockBegin
  2
*Paper_Space
 70
     0
 10
0.0
 20
0.0
 30
0.0
  3
*Paper_Space
  1

  0
ENDBLK
  5
1D
330
1B
100
AcDbEntity
 67
     1
  8
0
100
AcDbBlockEnd
  0
BLOCK
  5
24
330
23
100
AcDbEntity
  8
0
100
AcDbBlockBegin
  2
*Paper_Space0
 70
     0
 10
0.0
 20
0.0
 30
0.0
  3
*Paper_Space0
  1

  0
ENDBLK
  5
25
330
23
100
AcDbEntity
  8
0
100
AcDbBlockEnd
  0
ENDSEC
  0
SECTION
  2
ENTITIES
  0
LINE
  5
4A
330
1F
100
AcDbEntity
  8
1
  6
Continuous
 62
     4
100
AcDbLine
 10
-6.6156912277579
 20
-58.4274982908581
 30
0.0
 11
-7.1156912277579
 21
-59.0524982908581
 31
0.0
  0
LINE
  5
4B
330
1F
100
AcDbEntity
  8
1
  6
Continuous
 62
     4
100
AcDbLine
 10
-7.1156912277579
 20
-57.8024982908581
 30
0.0
 11
-6.6156912277579
 21
-58.4274982908581
 31
0.0
  0
LINE
  5
4C
330
1F
100
AcDbEntity
  8
1
  6
Continuous
 62
     4
100
AcDbLine
 10
-10.3656912277579
 20
-58.4274982908581
 30
0.0
 11
-6.6156912277579
 21
-58.4274982908581
 31
0.0
  0
LINE
  5
4D
330
1F
100
AcDbEntity
  8
1
  6
Continuous
 62
     4
100
AcDbLine
 10
-14.4906912277579
 20
-56.9899982908581
 30
0.0
 11
-11.6156912277579
 21
-56.9899982908581
 31
0.0
  0
LINE
  5
4E
330
1F
100
AcDbEntity
  8
1
  6
Continuous
 62
     4
100
AcDbLine
 10
-14.4906912277579
 20
-56.9899982908581
 30
0.0
 11
-13.8031912277579
 21
-56.0524982908581
 31
0.0
  0
LINE
  5
4F
330
1F
100
AcDbEntity
  8
1
  6
Continuous
 62
     4
100
AcDbLine
 10
-12.8656912277579
 20
-59.3649982908581
 30
0.0
 11
-13.9281912277579
 21
-59.3649982908581
 31
0.0
  0
LINE
  5
50
330
1F
100
AcDbEntity
  8
1
  6
Continuous
 62
     4
100
AcDbLine
 10
-12.8656912277579
 20
-58.1149982908581
 30
0.0
 11
-12.8656912277579
 21
-59.3649982908581
 31
0.0
  0
LINE
  5
51
330
1F
100
AcDbEntity
  8
1
  6
Continuous
 62
     4
100
AcDbLine
 10
-13.9281912277579
 20
-58.1149982908581
 30
0.0
 11
-12.8656912277579
 21
-58.1149982908581
 31
0.0
  0
LINE
  5
52
330
1F
100
AcDbEntity
  8
1
  6
Continuous
 62
     4
100
AcDbLine
 10
-13.9281912277579
 20
-59.3649982908581
 30
0.0
 11
-13.9281912277579
 21
-58.1149982908581
 31
0.0
  0
LINE
  5
53
330
1F
100
AcDbEntity
  8
1
  6
Continuous
 62
     4
100
AcDbLine
 10
-11.6156912277579
 20
-60.7399982908581
 30
0.0
 11
-12.3031912277579
 21
-60.7399982908581
 31
0.0
  0
LINE
  5
54
330
1F
100
AcDbEntity
  8
1
  6
Continuous
 62
     4
100
AcDbLine
 10
-11.6156912277579
 20
-56.9899982908581
 30
0.0
 11
-11.6156912277579
 21
-60.7399982908581
 31
0.0
  0
LINE
  5
55
330
1F
100
AcDbEntity
  8
1
  6
Continuous
 62
     4
100
AcDbLine
 10
-15.1781912277579
 20
-56.9899982908581
 30
0.0
 11
-14.4906912277579
 21
-56.9899982908581
 31
0.0
  0
LINE
  5
56
330
1F
100
AcDbEntity
  8
1
  6
Continuous
 62
     4
100
AcDbLine
 10
-15.1781912277579
 20
-60.7399982908581
 30
0.0
 11
-15.1781912277579
 21
-56.9899982908581
 31
0.0
  0
LINE
  5
57
330
1F
100
AcDbEntity
  8
1
  6
Continuous
 62
     4
100
AcDbLine
 10
-17.8656912277579
 20
-60.9274982908581
 30
0.0
 11
-18.3656912277579
 21
-60.6149982908581
 31
0.0
  0
LINE
  5
58
330
1F
100
AcDbEntity
  8
1
  6
Continuous
 62
     4
100
AcDbLine
 10
-17.5531912277579
 20
-60.4274982908581
 30
0.0
 11
-17.8656912277579
 21
-60.9274982908581
 31
0.0
  0
LINE
  5
59
330
1F
100
AcDbEntity
  8
1
  6
Continuous
 62
     4
100
AcDbLine
 10
-17.3031912277579
 20
-59.6774982908581
 30
0.0
 11
-17.5531912277579
 21
-60.4274982908581
 31
0.0
  0
LINE
  5
5A
330
1F
100
AcDbEntity
  8
1
  6
Continuous
 62
     4
100
AcDbLine
 10
-16.9906912277579
 20
-58.5524982908581
 30
0.0
 11
-17.3031912277579
 21
-59.6774982908581
 31
0.0
  0
LINE
  5
5B
330
1F
100
AcDbEntity
  8
1
  6
Continuous
 62
     4
100
AcDbLine
 10
-16.9906912277579
 20
-58.1149982908581
 30
0.0
 11
-16.9906912277579
 21
-58.5524982908581
 31
0.0
  0
LINE
  5
5C
330
1F
100
AcDbEntity
  8
1
  6
Continuous
 62
     4
100
AcDbLine
 10
-18.8031912277579
 20
-58.1149982908581
 30
0.0
 11
-16.9906912277579
 21
-58.1149982908581
 31
0.0
  0
LINE
  5
5D
330
1F
100
AcDbEntity
  8
1
  6
Continuous
 62
     4
100
AcDbLine
 10
-20.4906912277579
 20
-56.8649982908581
 30
0.0
 11
-16.3031912277579
 21
-56.8649982908581
 31
0.0
  0
LINE
  5
5E
330
1F
100
AcDbEntity
  8
1
  6
Continuous
 62
     4
100
AcDbLine
 10
-18.6781912277579
 20
-57.3024982908581
 30
0.0
 11
-18.5531912277579
 21
-56.0524982908581
 31
0.0
  0
LINE
  5
5F
330
1F
100
AcDbEntity
  8
1
  6
Continuous
 62
     4
100
AcDbLine
 10
-18.9281912277579
 20
-58.5524982908581
 30
0.0
 11
-18.6781912277579
 21
-57.3024982908581
 31
0.0
  0
LINE
  5
60
330
1F
100
AcDbEntity
  8
1
  6
Continuous
 62
     4
100
AcDbLine
 10
-19.2406912277579
 20
-59.3649982908581
 30
0.0
 11
-18.9281912277579
 21
-58.5524982908581
 31
0.0
  0
LINE
  5
61
330
1F
100
AcDbEntity
  8
1
  6
Continuous
 62
     4
100
AcDbLine
 10
-19.6156912277579
 20
-60.1149982908581
 30
0.0
 11
-19.2406912277579
 21
-59.3649982908581
 31
0.0
  0
LINE
  5
62
330
1F
100
AcDbEntity
  8
1
  6
Continuous
 62
     4
100
AcDbLine
 10
-20.1781912277579
 20
-60.7399982908581
 30
0.0
 11
-19.6156912277579
 21
-60.1149982908581
 31
0.0
  0
LINE
  5
63
330
1F
100
AcDbEntity
  8
1
  6
Continuous
 62
     4
100
AcDbLine
 10
-21.8656912277579
 20
-59.3649982908581
 30
0.0
 11
-21.1781912277579
 21
-60.1149982908581
 31
0.0
  0
LINE
  5
64
330
1F
100
AcDbEntity
  8
1
  6
Continuous
 62
     4
100
AcDbLine
 10
-22.4281912277579
 20
-58.4274982908581
 30
0.0
 11
-21.8656912277579
 21
-59.3649982908581
 31
0.0
  0
LINE
  5
65
330
1F
100
AcDbEntity
  8
1
  6
Continuous
 62
     4
100
AcDbLine
 10
-22.8656912277579
 20
-57.3024982908581
 30
0.0
 11
-22.4281912277579
 21
-58.4274982908581
 31
0.0
  0
LINE
  5
66
330
1F
100
AcDbEntity
  8
1
  6
Continuous
 62
     4
100
AcDbLine
 10
-21.6156912277579
 20
-57.1774982908581
 30
0.0
 11
-22.5531912277579
 21
-57.9274982908581
 31
0.0
  0
LINE
  5
67
330
1F
100
AcDbEntity
  8
1
  6
Continuous
 62
     4
100
AcDbLine
 10
-23.2406912277579
 20
-60.9274982908581
 30
0.0
 11
-23.6781912277579
 21
-60.7399982908581
 31
0.0
  0
LINE
  5
68
330
1F
100
AcDbEntity
  8
1
  6
Continuous
 62
     4
100
AcDbLine
 10
-23.2406912277579
 20
-56.0524982908581
 30
0.0
 11
-23.2406912277579
 21
-60.9274982908581
 31
0.0
  0
LINE
  5
69
330
1F
100
AcDbEntity
  8
1
  6
Continuous
 62
     4
100
AcDbLine
 10
-23.9281912277579
 20
-57.6149982908581
 30
0.0
 11
-25.3656912277579
 21
-57.6149982908581
 31
0.0
  0
LINE
  5
6A
330
1F
100
AcDbEntity
  8
1
  6
Continuous
 62
     4
100
AcDbLine
 10
-24.2406912277579
 20
-58.5524982908581
 30
0.0
 11
-23.9281912277579
 21
-57.6149982908581
 31
0.0
  0
LINE
  5
6B
330
1F
100
AcDbEntity
  8
1
  6
Continuous
 62
     4
100
AcDbLine
 10
-24.8031912277579
 20
-59.4899982908581
 30
0.0
 11
-24.2406912277579
 21
-58.5524982908581
 31
0.0
  0
LINE
  5
6C
330
1F
100
AcDbEntity
  8
1
  6
Continuous
 62
     4
100
AcDbLine
 10
-25.3656912277579
 20
-60.1149982908581
 30
0.0
 11
-24.8031912277579
 21
-59.4899982908581
 31
0.0
  0
LINE
  5
6D
330
1F
100
AcDbEntity
  8
1
  6
Continuous
 62
     4
100
AcDbLine
 10
-28.1156912277579
 20
-56.6774982908581
 30
0.0
 11
-26.4281912277579
 21
-56.6774982908581
 31
0.0
  0
LINE
  5
6E
330
1F
100
AcDbEntity
  8
1
  6
Continuous
 62
     4
100
AcDbLine
 10
-26.1781912277579
 20
-60.4274982908581
 30
0.0
 11
-26.1781912277579
 21
-60.1149982908581
 31
0.0
  0
LINE
  5
6F
330
1F
100
AcDbEntity
  8
1
  6
Continuous
 62
     4
100
AcDbLine
 10
-26.4281912277579
 20
-60.7399982908581
 30
0.0
 11
-26.1781912277579
 21
-60.4274982908581
 31
0.0
  0
LINE
  5
70
330
1F
100
AcDbEntity
  8
1
  6
Continuous
 62
     4
100
AcDbLine
 10
-26.9906912277579
 20
-60.7399982908581
 30
0.0
 11
-26.4281912277579
 21
-60.7399982908581
 31
0.0
  0
LINE
  5
71
330
1F
100
AcDbEntity
  8
1
  6
Continuous
 62
     4
100
AcDbLine
 10
-27.3031912277579
 20
-60.3024982908581
 30
0.0
 11
-26.9906912277579
 21
-60.7399982908581
 31
0.0
  0
LINE
  5
72
330
1F
100
AcDbEntity
  8
1
  6
Continuous
 62
     4
100
AcDbLine
 10
-27.3031912277579
 20
-58.7399982908581
 30
0.0
 11
-27.3031912277579
 21
-60.3024982908581
 31
0.0
  0
LINE
  5
73
330
1F
100
AcDbEntity
  8
1
  6
Continuous
 62
     4
100
AcDbLine
 10
-28.1156912277579
 20
-60.7399982908581
 30
0.0
 11
-28.1156912277579
 21
-58.7399982908581
 31
0.0
  0
LINE
  5
74
330
1F
100
AcDbEntity
  8
1
  6
Continuous
 62
     4
100
AcDbLine
 10
-29.3656912277579
 20
-60.6149982908581
 30
0.0
 11
-29.8031912277579
 21
-60.9274982908581
 31
0.0
  0
LINE
  5
75
330
1F
100
AcDbEntity
  8
1
  6
Continuous
 62
     4
100
AcDbLine
 10
-29.1156912277579
 20
-60.3024982908581
 30
0.0
 11
-29.3656912277579
 21
-60.6149982908581
 31
0.0
  0
LINE
  5
76
330
1F
100
AcDbEntity
  8
1
  6
Continuous
 62
     4
100
AcDbLine
 10
-28.9281912277579
 20
-59.8024982908581
 30
0.0
 11
-29.1156912277579
 21
-60.3024982908581
 31
0.0
  0
LINE
  5
77
330
1F
100
AcDbEntity
  8
1
  6
Continuous
 62
     4
100
AcDbLine
 10
-28.8031912277579
 20
-58.7399982908581
 30
0.0
 11
-28.9281912277579
 21
-59.8024982908581
 31
0.0
  0
LINE
  5
78
330
1F
100
AcDbEntity
  8
1
  6
Continuous
 62
     4
100
AcDbLine
 10
-27.4281912277579
 20
-57.1774982908581
 30
0.0
 11
-26.8656912277579
 21
-58.2399982908581
 31
0.0
  0
LINE
  5
79
330
1F
100
AcDbEntity
  8
1
  6
Continuous
 62
     4
100
AcDbLine
 10
-29.2406912277579
 20
-57.9274982908581
 30
0.0
 11
-27.1156912277579
 21
-57.8024982908581
 31
0.0
  0
LINE
  5
7A
330
1F
100
AcDbEntity
  8
1
  6
Continuous
 62
     4
100
AcDbLine
 10
-28.1156912277579
 20
-56.6774982908581
 30
0.0
 11
-28.6781912277579
 21
-57.9274982908581
 31
0.0
  0
LINE
  5
7B
330
1F
100
AcDbEntity
  8
1
  6
Continuous
 62
     4
100
AcDbLine
 10
-27.9906912277579
 20
-55.9274982908581
 30
0.0
 11
-27.9906912277579
 21
-56.6774982908581
 31
0.0
  0
LINE
  5
7C
330
1F
100
AcDbEntity
  8
1
  6
Continuous
 62
     4
100
AcDbLine
 10
-29.4906912277579
 20
-56.6774982908581
 30
0.0
 11
-28.1156912277579
 21
-56.6774982908581
 31
0.0
  0
LINE
  5
7D
330
1F
100
AcDbEntity
  8
1
  6
Continuous
 62
     4
100
AcDbLine
 10
-30.4906912277579
 20
-60.7399982908581
 30
0.0
 11
-29.9281912277579
 21
-58.7399982908581
 31
0.0
  0
LINE
  5
7E
330
1F
100
AcDbEntity
  8
1
  6
Continuous
 62
     4
100
AcDbLine
 10
-30.6156912277579
 20
-57.4899982908581
 30
0.0
 11
-30.1781912277579
 21
-57.9274982908581
 31
0.0
  0
LINE
  5
7F
330
1F
100
AcDbEntity
  8
1
  6
Continuous
 62
     4
100
AcDbLine
 10
-30.1781912277579
 20
-56.0524982908581
 30
0.0
 11
-29.9281912277579
 21
-56.5524982908581
 31
0.0
  0
LINE
  5
80
330
1F
100
AcDbEntity
  8
1
  6
Continuous
 62
     4
100
AcDbLine
 10
-98.899025589302
 20
-20.39763974178
 30
0.0
 11
-97.899025589302
 21
-21.02263974178
 31
0.0
  0
LINE
  5
81
330
1F
100
AcDbEntity
  8
1
  6
Continuous
 62
     4
100
AcDbLine
 10
-97.524025589302
 20
-20.08513974178
 30
0.0
 11
-98.336525589302
 21
-19.46013974178
 31
0.0
  0
LINE
  5
82
330
1F
100
AcDbEntity
  8
1
  6
Continuous
 62
     4
100
AcDbLine
 10
-96.836525589302
 20
-19.33513974178
 30
0.0
 11
-96.399025589302
 21
-19.77263974178
 31
0.0
  0
LINE
  5
83
330
1F
100
AcDbEntity
  8
1
  6
Continuous
 62
     4
100
AcDbLine
 10
-96.086525589302
 20
-19.46013974178
 30
0.0
 11
-96.524025589302
 21
-19.02263974178
 31
0.0
  0
LINE
  5
84
330
1F
100
AcDbEntity
  8
1
  6
Continuous
 62
     4
100
AcDbLine
 10
-96.399025589302
 20
-21.33513974178
 30
0.0
 11
-95.711525589302
 21
-20.39763974178
 31
0.0
  0
LINE
  5
85
330
1F
100
AcDbEntity
  8
1
  6
Continuous
 62
     4
100
AcDbLine
 10
-97.524025589302
 20
-22.27263974178
 30
0.0
 11
-96.399025589302
 21
-21.33513974178
 31
0.0
  0
LINE
  5
86
330
1F
100
AcDbEntity
  8
1
  6
Continuous
 62
     4
100
AcDbLine
 10
-98.586525589302
 20
-22.89763974178
 30
0.0
 11
-97.524025589302
 21
-22.27263974178
 31
0.0
  0
LINE
  5
87
330
1F
100
AcDbEntity
  8
1
  6
Continuous
 62
     4
100
AcDbLine
 10
-101.274025589302
 20
-21.52263974178
 30
0.0
 11
-100.836525589302
 21
-22.14763974178
 31
0.0
  0
LINE
  5
88
330
1F
100
AcDbEntity
  8
1
  6
Continuous
 62
     4
100
AcDbLine
 10
-101.836525589302
 20
-21.02263974178
 30
0.0
 11
-101.274025589302
 21
-21.52263974178
 31
0.0
  0
LINE
  5
89
330
1F
100
AcDbEntity
  8
1
  6
Continuous
 62
     4
100
AcDbLine
 10
-102.211525589302
 20
-19.02263974178
 30
0.0
 11
-101.961525589302
 21
-19.33513974178
 31
0.0
  0
LINE
  5
8A
330
1F
100
AcDbEntity
  8
1
  6
Continuous
 62
     4
100
AcDbLine
 10
-102.774025589302
 20
-18.71013974178
 30
0.0
 11
-102.211525589302
 21
-19.02263974178
 31
0.0
  0
LINE
  5
8B
330
1F
100
AcDbEntity
  8
1
  6
Continuous
 62
     4
100
AcDbLine
 10
-101.524025589302
 20
-19.96013974178
 30
0.0
 11
-103.461525589302
 21
-19.96013974178
 31
0.0
  0
LINE
  5
8C
330
1F
100
AcDbEntity
  8
1
  6
Continuous
 62
     4
100
AcDbLine
 10
-102.524025589302
 20
-21.02263974178
 30
0.0
 11
-101.524025589302
 21
-19.96013974178
 31
0.0
  0
LINE
  5
8D
330
1F
100
AcDbEntity
  8
1
  6
Continuous
 62
     4
100
AcDbLine
 10
-103.899025589302
 20
-21.96013974178
 30
0.0
 11
-102.524025589302
 21
-21.02263974178
 31
0.0
  0
LINE
  5
8E
330
1F
100
AcDbEntity
  8
1
  6
Continuous
 62
     4
100
AcDbLine
 10
-102.336525589302
 20
-22.89763974178
 30
0.0
 11
-102.336525589302
 21
-20.89763974178
 31
0.0
  0
LINE
  5
8F
330
1F
100
AcDbEntity
  8
1
  6
Continuous
 62
     4
100
AcDbLine
 10
-106.836525589302
 20
-21.39763974178
 30
0.0
 11
-106.836525589302
 21
-23.39763974178
 31
0.0
  0
LINE
  5
90
330
1F
100
AcDbEntity
  8
1
  6
Continuous
 62
     4
100
AcDbLine
 10
-109.086525589302
 20
-22.39763974178
 30
0.0
 11
-106.086525589302
 21
-22.39763974178
 31
0.0
  0
LINE
  5
91
330
1F
100
AcDbEntity
  8
1
  6
Continuous
 62
     4
100
AcDbLine
 10
-106.836525589302
 20
-18.39763974178
 30
0.0
 11
-109.086525589302
 21
-22.39763974178
 31
0.0
  0
LINE
  5
92
330
1F
100
AcDbEntity
  8
1
  6
Continuous
 62
     4
100
AcDbLine
 10
-112.586525589302
 20
-23.39763974178
 30
0.0
 11
-110.586525589302
 21
-18.39763974178
 31
0.0
  0
LINE
  5
93
330
1F
100
AcDbEntity
  8
1
  6
Continuous
 62
     4
100
AcDbLine
 10
-115.211525589302
 20
-23.39763974178
 30
0.0
 11
-117.086525589302
 21
-23.39763974178
 31
0.0
  0
LINE
  5
94
330
1F
100
AcDbEntity
  8
1
  6
Continuous
 62
     4
100
AcDbLine
 10
-114.836525589302
 20
-23.27263974178
 30
0.0
 11
-115.211525589302
 21
-23.39763974178
 31
0.0
  0
LINE
  5
95
330
1F
100
AcDbEntity
  8
1
  6
Continuous
 62
     4
100
AcDbLine
 10
-114.461525589302
 20
-23.02263974178
 30
0.0
 11
-114.836525589302
 21
-23.27263974178
 31
0.0
  0
LINE
  5
96
330
1F
100
AcDbEntity
  8
1
  6
Continuous
 62
     4
100
AcDbLine
 10
-114.211525589302
 20
-22.64763974178
 30
0.0
 11
-114.461525589302
 21
-23.02263974178
 31
0.0
  0
LINE
  5
97
330
1F
100
AcDbEntity
  8
1
  6
Continuous
 62
     4
100
AcDbLine
 10
-114.086525589302
 20
-22.14763974178
 30
0.0
 11
-114.211525589302
 21
-22.64763974178
 31
0.0
  0
LINE
  5
98
330
1F
100
AcDbEntity
  8
1
  6
Continuous
 62
     4
100
AcDbLine
 10
-114.086525589302
 20
-21.52263974178
 30
0.0
 11
-114.086525589302
 21
-22.14763974178
 31
0.0
  0
LINE
  5
99
330
1F
100
AcDbEntity
  8
1
  6
Continuous
 62
     4
100
AcDbLine
 10
-114.211525589302
 20
-21.02263974178
 30
0.0
 11
-114.086525589302
 21
-21.52263974178
 31
0.0
  0
LINE
  5
9A
330
1F
100
AcDbEntity
  8
1
  6
Continuous
 62
     4
100
AcDbLine
 10
-114.336525589302
 20
-20.77263974178
 30
0.0
 11
-114.211525589302
 21
-21.02263974178
 31
0.0
  0
LINE
  5
9B
330
1F
100
AcDbEntity
  8
1
  6
Continuous
 62
     4
100
AcDbLine
 10
-114.586525589302
 20
-20.52263974178
 30
0.0
 11
-114.336525589302
 21
-20.77263974178
 31
0.0
  0
LINE
  5
9C
330
1F
100
AcDbEntity
  8
1
  6
Continuous
 62
     4
100
AcDbLine
 10
-115.086525589302
 20
-20.39763974178
 30
0.0
 11
-114.586525589302
 21
-20.52263974178
 31
0.0
  0
LINE
  5
9D
330
1F
100
AcDbEntity
  8
1
  6
Continuous
 62
     4
100
AcDbLine
 10
-114.711525589302
 20
-20.27263974178
 30
0.0
 11
-115.086525589302
 21
-20.39763974178
 31
0.0
  0
LINE
  5
9E
330
1F
100
AcDbEntity
  8
1
  6
Continuous
 62
     4
100
AcDbLine
 10
-114.461525589302
 20
-20.14763974178
 30
0.0
 11
-114.711525589302
 21
-20.27263974178
 31
0.0
  0
LINE
  5
9F
330
1F
100
AcDbEntity
  8
1
  6
Continuous
 62
     4
100
AcDbLine
 10
-114.211525589302
 20
-19.89763974178
 30
0.0
 11
-114.461525589302
 21
-20.14763974178
 31
0.0
  0
LINE
  5
A0
330
1F
100
AcDbEntity
  8
1
  6
Continuous
 62
     4
100
AcDbLine
 10
-114.086525589302
 20
-19.52263974178
 30
0.0
 11
-114.211525589302
 21
-19.89763974178
 31
0.0
  0
LINE
  5
A1
330
1F
100
AcDbEntity
  8
1
  6
Continuous
 62
     4
100
AcDbLine
 10
-114.086525589302
 20
-19.14763974178
 30
0.0
 11
-114.086525589302
 21
-19.52263974178
 31
0.0
  0
LINE
  5
A2
330
1F
100
AcDbEntity
  8
1
  6
Continuous
 62
     4
100
AcDbLine
 10
-114.211525589302
 20
-18.77263974178
 30
0.0
 11
-114.086525589302
 21
-19.14763974178
 31
0.0
  0
LINE
  5
A3
330
1F
100
AcDbEntity
  8
1
  6
Continuous
 62
     4
100
AcDbLine
 10
-114.586525589302
 20
-18.52263974178
 30
0.0
 11
-114.211525589302
 21
-18.77263974178
 31
0.0
  0
LINE
  5
A4
330
1F
100
AcDbEntity
  8
1
  6
Continuous
 62
     4
100
AcDbLine
 10
-115.211525589302
 20
-18.39763974178
 30
0.0
 11
-114.586525589302
 21
-18.52263974178
 31
0.0
  0
LINE
  5
A5
330
1F
100
AcDbEntity
  8
1
  6
Continuous
 62
     4
100
AcDbLine
 10
-117.086525589302
 20
-18.39763974178
 30
0.0
 11
-115.211525589302
 21
-18.39763974178
 31
0.0
  0
LINE
  5
A6
330
1F
100
AcDbEntity
  8
1
  6
Continuous
 62
     4
100
AcDbLine
 10
-116.336525589302
 20
-20.39763974178
 30
0.0
 11
-115.086525589302
 21
-20.39763974178
 31
0.0
  0
LINE
  5
A7
330
1F
100
AcDbEntity
  8
1
  6
Continuous
 62
     4
100
AcDbLine
 10
-122.086525589302
 20
-23.39763974178
 30
0.0
 11
-122.086525589302
 21
-20.89763974178
 31
0.0
  0
LINE
  5
A8
330
1F
100
AcDbEntity
  8
1
  6
Continuous
 62
     4
100
AcDbLine
 10
-120.086525589302
 20
-20.89763974178
 30
0.0
 11
-118.586525589302
 21
-23.39763974178
 31
0.0
  0
LINE
  5
A9
330
1F
100
AcDbEntity
  8
1
  6
Continuous
 62
     4
100
AcDbLine
 10
-119.711525589302
 20
-20.89763974178
 30
0.0
 11
-120.086525589302
 21
-20.89763974178
 31
0.0
  0
LINE
  5
AA
330
1F
100
AcDbEntity
  8
1
  6
Continuous
 62
     4
100
AcDbLine
 10
-119.211525589302
 20
-20.77263974178
 30
0.0
 11
-119.711525589302
 21
-20.89763974178
 31
0.0
  0
LINE
  5
AB
330
1F
100
AcDbEntity
  8
1
  6
Continuous
 62
     4
100
AcDbLine
 10
-118.836525589302
 20
-20.52263974178
 30
0.0
 11
-119.211525589302
 21
-20.77263974178
 31
0.0
  0
LINE
  5
AC
330
1F
100
AcDbEntity
  8
1
  6
Continuous
 62
     4
100
AcDbLine
 10
-118.711525589302
 20
-20.27263974178
 30
0.0
 11
-118.836525589302
 21
-20.52263974178
 31
0.0
  0
LINE
  5
AD
330
1F
100
AcDbEntity
  8
1
  6
Continuous
 62
     4
100
AcDbLine
 10
-118.586525589302
 20
-19.89763974178
 30
0.0
 11
-118.711525589302
 21
-20.27263974178
 31
0.0
  0
LINE
  5
AE
330
1F
100
AcDbEntity
  8
1
  6
Continuous
 62
     4
100
AcDbLine
 10
-118.586525589302
 20
-19.39763974178
 30
0.0
 11
-118.586525589302
 21
-19.89763974178
 31
0.0
  0
LINE
  5
AF
330
1F
100
AcDbEntity
  8
1
  6
Continuous
 62
     4
100
AcDbLine
 10
-118.711525589302
 20
-19.02263974178
 30
0.0
 11
-118.586525589302
 21
-19.39763974178
 31
0.0
  0
LINE
  5
B0
330
1F
100
AcDbEntity
  8
1
  6
Continuous
 62
     4
100
AcDbLine
 10
-118.836525589302
 20
-18.77263974178
 30
0.0
 11
-118.711525589302
 21
-19.02263974178
 31
0.0
  0
LINE
  5
B1
330
1F
100
AcDbEntity
  8
1
  6
Continuous
 62
     4
100
AcDbLine
 10
-119.211525589302
 20
-18.52263974178
 30
0.0
 11
-118.836525589302
 21
-18.77263974178
 31
0.0
  0
LINE
  5
B2
330
1F
100
AcDbEntity
  8
1
  6
Continuous
 62
     4
100
AcDbLine
 10
-119.711525589302
 20
-18.39763974178
 30
0.0
 11
-119.211525589302
 21
-18.52263974178
 31
0.0
  0
LINE
  5
B3
330
1F
100
AcDbEntity
  8
1
  6
Continuous
 62
     4
100
AcDbLine
 10
-122.086525589302
 20
-18.39763974178
 30
0.0
 11
-119.711525589302
 21
-18.39763974178
 31
0.0
  0
LINE
  5
B4
330
1F
100
AcDbEntity
  8
1
  6
Continuous
 62
     4
100
AcDbLine
 10
-122.086525589302
 20
-20.89763974178
 30
0.0
 11
-122.086525589302
 21
-18.39763974178
 31
0.0
  0
LINE
  5
B5
330
1F
100
AcDbEntity
  8
1
  6
Continuous
 62
     4
100
AcDbLine
 10
-120.086525589302
 20
-20.89763974178
 30
0.0
 11
-122.086525589302
 21
-20.89763974178
 31
0.0
  0
LINE
  5
B6
330
1F
100
AcDbEntity
  8
1
  6
Continuous
 62
     4
100
AcDbLine
 10
271.363185707288
 20
193.277002166136
 30
0.0
 11
271.363185707288
 21
192.027002166136
 31
0.0
  0
LINE
  5
B7
330
1F
100
AcDbEntity
  8
1
  6
Continuous
 62
     4
100
AcDbLine
 10
271.238185707288
 20
194.027002166136
 30
0.0
 11
271.363185707288
 21
193.277002166136
 31
0.0
  0
LINE
  5
B8
330
1F
100
AcDbEntity
  8
1
  6
Continuous
 62
     4
100
AcDbLine
 10
270.988185707288
 20
194.527002166136
 30
0.0
 11
271.238185707288
 21
194.027002166136
 31
0.0
  0
LINE
  5
B9
330
1F
100
AcDbEntity
  8
1
  6
Continuous
 62
     4
100
AcDbLine
 10
270.738185707288
 20
194.777002166136
 30
0.0
 11
270.988185707288
 21
194.527002166136
 31
0.0
  0
LINE
  5
BA
330
1F
100
AcDbEntity
  8
1
  6
Continuous
 62
     4
100
AcDbLine
 10
270.363185707288
 20
195.027002166136
 30
0.0
 11
270.738185707288
 21
194.777002166136
 31
0.0
  0
LINE
  5
BB
330
1F
100
AcDbEntity
  8
1
  6
Continuous
 62
     4
100
AcDbLine
 10
269.988185707288
 20
195.152002166136
 30
0.0
 11
270.363185707288
 21
195.027002166136
 31
0.0
  0
LINE
  5
BC
330
1F
100
AcDbEntity
  8
1
  6
Continuous
 62
     4
100
AcDbLine
 10
269.738185707288
 20
195.152002166136
 30
0.0
 11
269.988185707288
 21
195.152002166136
 31
0.0
  0
LINE
  5
BD
330
1F
100
AcDbEntity
  8
1
  6
Continuous
 62
     4
100
AcDbLine
 10
269.363185707288
 20
195.027002166136
 30
0.0
 11
269.738185707288
 21
195.152002166136
 31
0.0
  0
LINE
  5
BE
330
1F
100
AcDbEntity
  8
1
  6
Continuous
 62
     4
100
AcDbLine
 10
268.988185707288
 20
194.777002166136
 30
0.0
 11
269.363185707288
 21
195.027002166136
 31
0.0
  0
LINE
  5
BF
330
1F
100
AcDbEntity
  8
1
  6
Continuous
 62
     4
100
AcDbLine
 10
268.738185707288
 20
194.527002166136
 30
0.0
 11
268.988185707288
 21
194.777002166136
 31
0.0
  0
LINE
  5
C0
330
1F
100
AcDbEntity
  8
1
  6
Continuous
 62
     4
100
AcDbLine
 10
268.488185707288
 20
194.027002166136
 30
0.0
 11
268.738185707288
 21
194.527002166136
 31
0.0
  0
LINE
  5
C1
330
1F
100
AcDbEntity
  8
1
  6
Continuous
 62
     4
100
AcDbLine
 10
268.363185707288
 20
193.277002166136
 30
0.0
 11
268.488185707288
 21
194.027002166136
 31
0.0
  0
LINE
  5
C2
330
1F
100
AcDbEntity
  8
1
  6
Continuous
 62
     4
100
AcDbLine
 10
268.363185707288
 20
192.027002166136
 30
0.0
 11
268.363185707288
 21
193.277002166136
 31
0.0
  0
LINE
  5
C3
330
1F
100
AcDbEntity
  8
1
  6
Continuous
 62
     4
100
AcDbLine
 10
268.488185707288
 20
191.277002166136
 30
0.0
 11
268.363185707288
 21
192.027002166136
 31
0.0
  0
LINE
  5
C4
330
1F
100
AcDbEntity
  8
1
  6
Continuous
 62
     4
100
AcDbLine
 10
268.738185707288
 20
190.777002166136
 30
0.0
 11
268.488185707288
 21
191.277002166136
 31
0.0
  0
LINE
  5
C5
330
1F
100
AcDbEntity
  8
1
  6
Continuous
 62
     4
100
AcDbLine
 10
268.988185707288
 20
190.527002166136
 30
0.0
 11
268.738185707288
 21
190.777002166136
 31
0.0
  0
LINE
  5
C6
330
1F
100
AcDbEntity
  8
1
  6
Continuous
 62
     4
100
AcDbLine
 10
269.363185707288
 20
190.277002166136
 30
0.0
 11
268.988185707288
 21
190.527002166136
 31
0.0
  0
LINE
  5
C7
330
1F
100
AcDbEntity
  8
1
  6
Continuous
 62
     4
100
AcDbLine
 10
269.738185707288
 20
190.152002166136
 30
0.0
 11
269.363185707288
 21
190.277002166136
 31
0.0
  0
LINE
  5
C8
330
1F
100
AcDbEntity
  8
1
  6
Continuous
 62
     4
100
AcDbLine
 10
269.988185707288
 20
190.152002166136
 30
0.0
 11
269.738185707288
 21
190.152002166136
 31
0.0
  0
LINE
  5
C9
330
1F
100
AcDbEntity
  8
1
  6
Continuous
 62
     4
100
AcDbLine
 10
270.363185707288
 20
190.277002166136
 30
0.0
 11
269.988185707288
 21
190.152002166136
 31
0.0
  0
LINE
  5
CA
330
1F
100
AcDbEntity
  8
1
  6
Continuous
 62
     4
100
AcDbLine
 10
270.738185707288
 20
190.527002166136
 30
0.0
 11
270.363185707288
 21
190.277002166136
 31
0.0
  0
LINE
  5
CB
330
1F
100
AcDbEntity
  8
1
  6
Continuous
 62
     4
100
AcDbLine
 10
270.988185707288
 20
190.777002166136
 30
0.0
 11
270.738185707288
 21
190.527002166136
 31
0.0
  0
LINE
  5
CC
330
1F
100
AcDbEntity
  8
1
  6
Continuous
 62
     4
100
AcDbLine
 10
271.238185707288
 20
191.277002166136
 30
0.0
 11
270.988185707288
 21
190.777002166136
 31
0.0
  0
LINE
  5
CD
330
1F
100
AcDbEntity
  8
1
  6
Continuous
 62
     4
100
AcDbLine
 10
271.363185707288
 20
192.027002166136
 30
0.0
 11
271.238185707288
 21
191.277002166136
 31
0.0
  0
LINE
  5
CE
330
1F
100
AcDbEntity
  8
1
  6
Continuous
 62
     4
100
AcDbLine
 10
266.863185707288
 20
193.277002166136
 30
0.0
 11
266.863185707288
 21
192.027002166136
 31
0.0
  0
LINE
  5
CF
330
1F
100
AcDbEntity
  8
1
  6
Continuous
 62
     4
100
AcDbLine
 10
266.738185707288
 20
194.027002166136
 30
0.0
 11
266.863185707288
 21
193.277002166136
 31
0.0
  0
LINE
  5
D0
330
1F
100
AcDbEntity
  8
1
  6
Continuous
 62
     4
100
AcDbLine
 10
266.488185707288
 20
194.527002166136
 30
0.0
 11
266.738185707288
 21
194.027002166136
 31
0.0
  0
LINE
  5
D1
330
1F
100
AcDbEntity
  8
1
  6
Continuous
 62
     4
100
AcDbLine
 10
266.238185707288
 20
194.777002166136
 30
0.0
 11
266.488185707288
 21
194.527002166136
 31
0.0
  0
LINE
  5
D2
330
1F
100
AcDbEntity
  8
1
  6
Continuous
 62
     4
100
AcDbLine
 10
265.863185707288
 20
195.027002166136
 30
0.0
 11
266.238185707288
 21
194.777002166136
 31
0.0
  0
LINE
  5
D3
330
1F
100
AcDbEntity
  8
1
  6
Continuous
 62
     4
100
AcDbLine
 10
265.488185707288
 20
195.152002166136
 30
0.0
 11
265.863185707288
 21
195.027002166136
 31
0.0
  0
LINE
  5
D4
330
1F
100
AcDbEntity
  8
1
  6
Continuous
 62
     4
100
AcDbLine
 10
265.238185707288
 20
195.152002166136
 30
0.0
 11
265.488185707288
 21
195.152002166136
 31
0.0
  0
LINE
  5
D5
330
1F
100
AcDbEntity
  8
1
  6
Continuous
 62
     4
100
AcDbLine
 10
264.863185707288
 20
195.027002166136
 30
0.0
 11
265.238185707288
 21
195.152002166136
 31
0.0
  0
LINE
  5
D6
330
1F
100
AcDbEntity
  8
1
  6
Continuous
 62
     4
100
AcDbLine
 10
264.488185707288
 20
194.777002166136
 30
0.0
 11
264.863185707288
 21
195.027002166136
 31
0.0
  0
LINE
  5
D7
330
1F
100
AcDbEntity
  8
1
  6
Continuous
 62
     4
100
AcDbLine
 10
264.238185707288
 20
194.527002166136
 30
0.0
 11
264.488185707288
 21
194.777002166136
 31
0.0
  0
LINE
  5
D8
330
1F
100
AcDbEntity
  8
1
  6
Continuous
 62
     4
100
AcDbLine
 10
263.988185707288
 20
194.027002166136
 30
0.0
 11
264.238185707288
 21
194.527002166136
 31
0.0
  0
LINE
  5
D9
330
1F
100
AcDbEntity
  8
1
  6
Continuous
 62
     4
100
AcDbLine
 10
263.863185707288
 20
193.277002166136
 30
0.0
 11
263.988185707288
 21
194.027002166136
 31
0.0
  0
LINE
  5
DA
330
1F
100
AcDbEntity
  8
1
  6
Continuous
 62
     4
100
AcDbLine
 10
263.863185707288
 20
192.027002166136
 30
0.0
 11
263.863185707288
 21
193.277002166136
 31
0.0
  0
LINE
  5
DB
330
1F
100
AcDbEntity
  8
1
  6
Continuous
 62
     4
100
AcDbLine
 10
263.988185707288
 20
191.277002166136
 30
0.0
 11
263.863185707288
 21
192.027002166136
 31
0.0
  0
LINE
  5
DC
330
1F
100
AcDbEntity
  8
1
  6
Continuous
 62
     4
100
AcDbLine
 10
264.238185707288
 20
190.777002166136
 30
0.0
 11
263.988185707288
 21
191.277002166136
 31
0.0
  0
LINE
  5
DD
330
1F
100
AcDbEntity
  8
1
  6
Continuous
 62
     4
100
AcDbLine
 10
264.488185707288
 20
190.527002166136
 30
0.0
 11
264.238185707288
 21
190.777002166136
 31
0.0
  0
LINE
  5
DE
330
1F
100
AcDbEntity
  8
1
  6
Continuous
 62
     4
100
AcDbLine
 10
264.863185707288
 20
190.277002166136
 30
0.0
 11
264.488185707288
 21
190.527002166136
 31
0.0
  0
LINE
  5
DF
330
1F
100
AcDbEntity
  8
1
  6
Continuous
 62
     4
100
AcDbLine
 10
265.238185707288
 20
190.152002166136
 30
0.0
 11
264.863185707288
 21
190.277002166136
 31
0.0
  0
LINE
  5
E0
330
1F
100
AcDbEntity
  8
1
  6
Continuous
 62
     4
100
AcDbLine
 10
265.488185707288
 20
190.152002166136
 30
0.0
 11
265.238185707288
 21
190.152002166136
 31
0.0
  0
LINE
  5
E1
330
1F
100
AcDbEntity
  8
1
  6
Continuous
 62
     4
100
AcDbLine
 10
265.863185707288
 20
190.277002166136
 30
0.0
 11
265.488185707288
 21
190.152002166136
 31
0.0
  0
LINE
  5
E2
330
1F
100
AcDbEntity
  8
1
  6
Continuous
 62
     4
100
AcDbLine
 10
266.238185707288
 20
190.527002166136
 30
0.0
 11
265.863185707288
 21
190.277002166136
 31
0.0
  0
LINE
  5
E3
330
1F
100
AcDbEntity
  8
1
  6
Continuous
 62
     4
100
AcDbLine
 10
266.488185707288
 20
190.777002166136
 30
0.0
 11
266.238185707288
 21
190.527002166136
 31
0.0
  0
LINE
  5
E4
330
1F
100
AcDbEntity
  8
1
  6
Continuous
 62
     4
100
AcDbLine
 10
266.738185707288
 20
191.277002166136
 30
0.0
 11
266.488185707288
 21
190.777002166136
 31
0.0
  0
LINE
  5
E5
330
1F
100
AcDbEntity
  8
1
  6
Continuous
 62
     4
100
AcDbLine
 10
266.863185707288
 20
192.027002166136
 30
0.0
 11
266.738185707288
 21
191.277002166136
 31
0.0
  0
LINE
  5
E6
330
1F
100
AcDbEntity
  8
1
  6
Continuous
 62
     4
100
AcDbLine
 10
259.863185707288
 20
194.777002166136
 30
0.0
 11
260.238185707288
 21
195.027002166136
 31
0.0
  0
LINE
  5
E7
330
1F
100
AcDbEntity
  8
1
  6
Continuous
 62
     4
100
AcDbLine
 10
259.613185707288
 20
194.402002166136
 30
0.0
 11
259.863185707288
 21
194.777002166136
 31
0.0
  0
LINE
  5
E8
330
1F
100
AcDbEntity
  8
1
  6
Continuous
 62
     4
100
AcDbLine
 10
259.613185707288
 20
193.902002166136
 30
0.0
 11
259.613185707288
 21
194.402002166136
 31
0.0
  0
LINE
  5
E9
330
1F
100
AcDbEntity
  8
1
  6
Continuous
 62
     4
100
AcDbLine
 10
259.863185707288
 20
193.527002166136
 30
0.0
 11
259.613185707288
 21
193.902002166136
 31
0.0
  0
LINE
  5
EA
330
1F
100
AcDbEntity
  8
1
  6
Continuous
 62
     4
100
AcDbLine
 10
260.238185707288
 20
193.277002166136
 30
0.0
 11
259.863185707288
 21
193.527002166136
 31
0.0
  0
LINE
  5
EB
330
1F
100
AcDbEntity
  8
1
  6
Continuous
 62
     4
100
AcDbLine
 10
260.613185707288
 20
193.152002166136
 30
0.0
 11
260.238185707288
 21
193.277002166136
 31
0.0
  0
LINE
  5
EC
330
1F
100
AcDbEntity
  8
1
  6
Continuous
 62
     4
100
AcDbLine
 10
261.113185707288
 20
193.152002166136
 30
0.0
 11
260.613185707288
 21
193.152002166136
 31
0.0
  0
LINE
  5
ED
330
1F
100
AcDbEntity
  8
1
  6
Continuous
 62
     4
100
AcDbLine
 10
261.488185707288
 20
193.277002166136
 30
0.0
 11
261.113185707288
 21
193.152002166136
 31
0.0
  0
LINE
  5
EE
330
1F
100
AcDbEntity
  8
1
  6
Continuous
 62
     4
100
AcDbLine
 10
261.863185707288
 20
193.527002166136
 30
0.0
 11
261.488185707288
 21
193.277002166136
 31
0.0
  0
LINE
  5
EF
330
1F
100
AcDbEntity
  8
1
  6
Continuous
 62
     4
100
AcDbLine
 10
262.113185707288
 20
193.902002166136
 30
0.0
 11
261.863185707288
 21
193.527002166136
 31
0.0
  0
LINE
  5
F0
330
1F
100
AcDbEntity
  8
1
  6
Continuous
 62
     4
100
AcDbLine
 10
262.113185707288
 20
194.402002166136
 30
0.0
 11
262.113185707288
 21
193.902002166136
 31
0.0
  0
LINE
  5
F1
330
1F
100
AcDbEntity
  8
1
  6
Continuous
 62
     4
100
AcDbLine
 10
261.863185707288
 20
194.777002166136
 30
0.0
 11
262.113185707288
 21
194.402002166136
 31
0.0
  0
LINE
  5
F2
330
1F
100
AcDbEntity
  8
1
  6
Continuous
 62
     4
100
AcDbLine
 10
261.488185707288
 20
195.027002166136
 30
0.0
 11
261.863185707288
 21
194.777002166136
 31
0.0
  0
LINE
  5
F3
330
1F
100
AcDbEntity
  8
1
  6
Continuous
 62
     4
100
AcDbLine
 10
261.113185707288
 20
195.152002166136
 30
0.0
 11
261.488185707288
 21
195.027002166136
 31
0.0
  0
LINE
  5
F4
330
1F
100
AcDbEntity
  8
1
  6
Continuous
 62
     4
100
AcDbLine
 10
260.613185707288
 20
195.152002166136
 30
0.0
 11
261.113185707288
 21
195.152002166136
 31
0.0
  0
LINE
  5
F5
330
1F
100
AcDbEntity
  8
1
  6
Continuous
 62
     4
100
AcDbLine
 10
260.238185707288
 20
195.027002166136
 30
0.0
 11
260.613185707288
 21
195.152002166136
 31
0.0
  0
LINE
  5
F6
330
1F
100
AcDbEntity
  8
1
  6
Continuous
 62
     4
100
AcDbLine
 10
261.738185707288
 20
192.902002166136
 30
0.0
 11
261.113185707288
 21
193.152002166136
 31
0.0
  0
LINE
  5
F7
330
1F
100
AcDbEntity
  8
1
  6
Continuous
 62
     4
100
AcDbLine
 10
262.113185707288
 20
192.527002166136
 30
0.0
 11
261.738185707288
 21
192.902002166136
 31
0.0
  0
LINE
  5
F8
330
1F
100
AcDbEntity
  8
1
  6
Continuous
 62
     4
100
AcDbLine
 10
262.363185707288
 20
192.027002166136
 30
0.0
 11
262.113185707288
 21
192.527002166136
 31
0.0
  0
LINE
  5
F9
330
1F
100
AcDbEntity
  8
1
  6
Continuous
 62
     4
100
AcDbLine
 10
262.363185707288
 20
191.277002166136
 30
0.0
 11
262.363185707288
 21
192.027002166136
 31
0.0
  0
LINE
  5
FA
330
1F
100
AcDbEntity
  8
1
  6
Continuous
 62
     4
100
AcDbLine
 10
262.113185707288
 20
190.777002166136
 30
0.0
 11
262.363185707288
 21
191.277002166136
 31
0.0
  0
LINE
  5
FB
330
1F
100
AcDbEntity
  8
1
  6
Continuous
 62
     4
100
AcDbLine
 10
261.738185707288
 20
190.402002166136
 30
0.0
 11
262.113185707288
 21
190.777002166136
 31
0.0
  0
LINE
  5
FC
330
1F
100
AcDbEntity
  8
1
  6
Continuous
 62
     4
100
AcDbLine
 10
261.238185707288
 20
190.152002166136
 30
0.0
 11
261.738185707288
 21
190.402002166136
 31
0.0
  0
LINE
  5
FD
330
1F
100
AcDbEntity
  8
1
  6
Continuous
 62
     4
100
AcDbLine
 10
260.488185707288
 20
190.152002166136
 30
0.0
 11
261.238185707288
 21
190.152002166136
 31
0.0
  0
LINE
  5
FE
330
1F
100
AcDbEntity
  8
1
  6
Continuous
 62
     4
100
AcDbLine
 10
259.988185707288
 20
190.402002166136
 30
0.0
 11
260.488185707288
 21
190.152002166136
 31
0.0
  0
LINE
  5
FF
330
1F
100
AcDbEntity
  8
1
  6
Continuous
 62
     4
100
AcDbLine
 10
259.613185707288
 20
190.777002166136
 30
0.0
 11
259.988185707288
 21
190.402002166136
 31
0.0
  0
LINE
  5
100
330
1F
100
AcDbEntity
  8
1
  6
Continuous
 62
     4
100
AcDbLine
 10
259.363185707288
 20
191.277002166136
 30
0.0
 11
259.613185707288
 21
190.777002166136
 31
0.0
  0
LINE
  5
101
330
1F
100
AcDbEntity
  8
1
  6
Continuous
 62
     4
100
AcDbLine
 10
259.363185707288
 20
192.027002166136
 30
0.0
 11
259.363185707288
 21
191.277002166136
 31
0.0
  0
LINE
  5
102
330
1F
100
AcDbEntity
  8
1
  6
Continuous
 62
     4
100
AcDbLine
 10
259.613185707288
 20
192.527002166136
 30
0.0
 11
259.363185707288
 21
192.027002166136
 31
0.0
  0
LINE
  5
103
330
1F
100
AcDbEntity
  8
1
  6
Continuous
 62
     4
100
AcDbLine
 10
259.988185707288
 20
192.902002166136
 30
0.0
 11
259.613185707288
 21
192.527002166136
 31
0.0
  0
LINE
  5
104
330
1F
100
AcDbEntity
  8
1
  6
Continuous
 62
     4
100
AcDbLine
 10
260.613185707288
 20
193.152002166136
 30
0.0
 11
259.988185707288
 21
192.902002166136
 31
0.0
  0
LINE
  5
105
330
1F
100
AcDbEntity
  8
1
  6
Continuous
 62
     4
100
AcDbLine
 10
245.363185707288
 20
194.777002166136
 30
0.0
 11
245.738185707288
 21
195.027002166136
 31
0.0
  0
LINE
  5
106
330
1F
100
AcDbEntity
  8
1
  6
Continuous
 62
     4
100
AcDbLine
 10
245.113185707288
 20
194.402002166136
 30
0.0
 11
245.363185707288
 21
194.777002166136
 31
0.0
  0
LINE
  5
107
330
1F
100
AcDbEntity
  8
1
  6
Continuous
 62
     4
100
AcDbLine
 10
245.113185707288
 20
193.902002166136
 30
0.0
 11
245.113185707288
 21
194.402002166136
 31
0.0
  0
LINE
  5
108
330
1F
100
AcDbEntity
  8
1
  6
Continuous
 62
     4
100
AcDbLine
 10
245.363185707288
 20
193.527002166136
 30
0.0
 11
245.113185707288
 21
193.902002166136
 31
0.0
  0
LINE
  5
109
330
1F
100
AcDbEntity
  8
1
  6
Continuous
 62
     4
100
AcDbLine
 10
245.738185707288
 20
193.277002166136
 30
0.0
 11
245.363185707288
 21
193.527002166136
 31
0.0
  0
LINE
  5
10A
330
1F
100
AcDbEntity
  8
1
  6
Continuous
 62
     4
100
AcDbLine
 10
246.113185707288
 20
193.152002166136
 30
0.0
 11
245.738185707288
 21
193.277002166136
 31
0.0
  0
LINE
  5
10B
330
1F
100
AcDbEntity
  8
1
  6
Continuous
 62
     4
100
AcDbLine
 10
246.613185707288
 20
193.152002166136
 30
0.0
 11
246.113185707288
 21
193.152002166136
 31
0.0
  0
LINE
  5
10C
330
1F
100
AcDbEntity
  8
1
  6
Continuous
 62
     4
100
AcDbLine
 10
246.988185707288
 20
193.277002166136
 30
0.0
 11
246.613185707288
 21
193.152002166136
 31
0.0
  0
LINE
  5
10D
330
1F
100
AcDbEntity
  8
1
  6
Continuous
 62
     4
100
AcDbLine
 10
247.363185707288
 20
193.527002166136
 30
0.0
 11
246.988185707288
 21
193.277002166136
 31
0.0
  0
LINE
  5
10E
330
1F
100
AcDbEntity
  8
1
  6
Continuous
 62
     4
100
AcDbLine
 10
247.613185707288
 20
193.902002166136
 30
0.0
 11
247.363185707288
 21
193.527002166136
 31
0.0
  0
LINE
  5
10F
330
1F
100
AcDbEntity
  8
1
  6
Continuous
 62
     4
100
AcDbLine
 10
247.613185707288
 20
194.402002166136
 30
0.0
 11
247.613185707288
 21
193.902002166136
 31
0.0
  0
LINE
  5
110
330
1F
100
AcDbEntity
  8
1
  6
Continuous
 62
     4
100
AcDbLine
 10
247.363185707288
 20
194.777002166136
 30
0.0
 11
247.613185707288
 21
194.402002166136
 31
0.0
  0
LINE
  5
111
330
1F
100
AcDbEntity
  8
1
  6
Continuous
 62
     4
100
AcDbLine
 10
246.988185707288
 20
195.027002166136
 30
0.0
 11
247.363185707288
 21
194.777002166136
 31
0.0
  0
LINE
  5
112
330
1F
100
AcDbEntity
  8
1
  6
Continuous
 62
     4
100
AcDbLine
 10
246.613185707288
 20
195.152002166136
 30
0.0
 11
246.988185707288
 21
195.027002166136
 31
0.0
  0
LINE
  5
113
330
1F
100
AcDbEntity
  8
1
  6
Continuous
 62
     4
100
AcDbLine
 10
246.113185707288
 20
195.152002166136
 30
0.0
 11
246.613185707288
 21
195.152002166136
 31
0.0
  0
LINE
  5
114
330
1F
100
AcDbEntity
  8
1
  6
Continuous
 62
     4
100
AcDbLine
 10
245.738185707288
 20
195.027002166136
 30
0.0
 11
246.113185707288
 21
195.152002166136
 31
0.0
  0
LINE
  5
115
330
1F
100
AcDbEntity
  8
1
  6
Continuous
 62
     4
100
AcDbLine
 10
247.238185707288
 20
192.902002166136
 30
0.0
 11
246.613185707288
 21
193.152002166136
 31
0.0
  0
LINE
  5
116
330
1F
100
AcDbEntity
  8
1
  6
Continuous
 62
     4
100
AcDbLine
 10
247.613185707288
 20
192.527002166136
 30
0.0
 11
247.238185707288
 21
192.902002166136
 31
0.0
  0
LINE
  5
117
330
1F
100
AcDbEntity
  8
1
  6
Continuous
 62
     4
100
AcDbLine
 10
247.863185707288
 20
192.027002166136
 30
0.0
 11
247.613185707288
 21
192.527002166136
 31
0.0
  0
LINE
  5
118
330
1F
100
AcDbEntity
  8
1
  6
Continuous
 62
     4
100
AcDbLine
 10
247.863185707288
 20
191.277002166136
 30
0.0
 11
247.863185707288
 21
192.027002166136
 31
0.0
  0
LINE
  5
119
330
1F
100
AcDbEntity
  8
1
  6
Continuous
 62
     4
100
AcDbLine
 10
247.613185707288
 20
190.777002166136
 30
0.0
 11
247.863185707288
 21
191.277002166136
 31
0.0
  0
LINE
  5
11A
330
1F
100
AcDbEntity
  8
1
  6
Continuous
 62
     4
100
AcDbLine
 10
247.238185707288
 20
190.402002166136
 30
0.0
 11
247.613185707288
 21
190.777002166136
 31
0.0
  0
LINE
  5
11B
330
1F
100
AcDbEntity
  8
1
  6
Continuous
 62
     4
100
AcDbLine
 10
246.738185707288
 20
190.152002166136
 30
0.0
 11
247.238185707288
 21
190.402002166136
 31
0.0
  0
LINE
  5
11C
330
1F
100
AcDbEntity
  8
1
  6
Continuous
 62
     4
100
AcDbLine
 10
245.988185707288
 20
190.152002166136
 30
0.0
 11
246.738185707288
 21
190.152002166136
 31
0.0
  0
LINE
  5
11D
330
1F
100
AcDbEntity
  8
1
  6
Continuous
 62
     4
100
AcDbLine
 10
245.488185707288
 20
190.402002166136
 30
0.0
 11
245.988185707288
 21
190.152002166136
 31
0.0
  0
LINE
  5
11E
330
1F
100
AcDbEntity
  8
1
  6
Continuous
 62
     4
100
AcDbLine
 10
245.113185707288
 20
190.777002166136
 30
0.0
 11
245.488185707288
 21
190.402002166136
 31
0.0
  0
LINE
  5
11F
330
1F
100
AcDbEntity
  8
1
  6
Continuous
 62
     4
100
AcDbLine
 10
244.863185707288
 20
191.277002166136
 30
0.0
 11
245.113185707288
 21
190.777002166136
 31
0.0
  0
LINE
  5
120
330
1F
100
AcDbEntity
  8
1
  6
Continuous
 62
     4
100
AcDbLine
 10
244.863185707288
 20
192.027002166136
 30
0.0
 11
244.863185707288
 21
191.277002166136
 31
0.0
  0
LINE
  5
121
330
1F
100
AcDbEntity
  8
1
  6
Continuous
 62
     4
100
AcDbLine
 10
245.113185707288
 20
192.527002166136
 30
0.0
 11
244.863185707288
 21
192.027002166136
 31
0.0
  0
LINE
  5
122
330
1F
100
AcDbEntity
  8
1
  6
Continuous
 62
     4
100
AcDbLine
 10
245.488185707288
 20
192.902002166136
 30
0.0
 11
245.113185707288
 21
192.527002166136
 31
0.0
  0
LINE
  5
123
330
1F
100
AcDbEntity
  8
1
  6
Continuous
 62
     4
100
AcDbLine
 10
246.113185707288
 20
193.152002166136
 30
0.0
 11
245.488185707288
 21
192.902002166136
 31
0.0
  0
LINE
  5
124
330
1F
100
AcDbEntity
  8
1
  6
Continuous
 62
     4
100
AcDbLine
 10
243.488185707288
 20
190.402002166136
 30
0.0
 11
243.488185707288
 21
190.277002166136
 31
0.0
  0
LINE
  5
125
330
1F
100
AcDbEntity
  8
1
  6
Continuous
 62
     4
100
AcDbLine
 10
243.363185707288
 20
190.402002166136
 30
0.0
 11
243.488185707288
 21
190.402002166136
 31
0.0
  0
LINE
  5
126
330
1F
100
AcDbEntity
  8
1
  6
Continuous
 62
     4
100
AcDbLine
 10
243.363185707288
 20
190.277002166136
 30
0.0
 11
243.363185707288
 21
190.402002166136
 31
0.0
  0
LINE
  5
127
330
1F
100
AcDbEntity
  8
1
  6
Continuous
 62
     4
100
AcDbLine
 10
243.488185707288
 20
190.277002166136
 30
0.0
 11
243.363185707288
 21
190.277002166136
 31
0.0
  0
LINE
  5
128
330
1F
100
AcDbEntity
  8
1
  6
Continuous
 62
     4
100
AcDbLine
 10
243.613185707288
 20
190.527002166136
 30
0.0
 11
243.613185707288
 21
190.152002166136
 31
0.0
  0
LINE
  5
129
330
1F
100
AcDbEntity
  8
1
  6
Continuous
 62
     4
100
AcDbLine
 10
243.238185707288
 20
190.527002166136
 30
0.0
 11
243.613185707288
 21
190.527002166136
 31
0.0
  0
LINE
  5
12A
330
1F
100
AcDbEntity
  8
1
  6
Continuous
 62
     4
100
AcDbLine
 10
243.238185707288
 20
190.152002166136
 30
0.0
 11
243.238185707288
 21
190.527002166136
 31
0.0
  0
LINE
  5
12B
330
1F
100
AcDbEntity
  8
1
  6
Continuous
 62
     4
100
AcDbLine
 10
243.613185707288
 20
190.152002166136
 30
0.0
 11
243.238185707288
 21
190.152002166136
 31
0.0
  0
LINE
  5
12C
330
1F
100
AcDbEntity
  8
1
  6
Continuous
 62
     4
100
AcDbLine
 10
241.738185707288
 20
193.277002166136
 30
0.0
 11
241.738185707288
 21
192.027002166136
 31
0.0
  0
LINE
  5
12D
330
1F
100
AcDbEntity
  8
1
  6
Continuous
 62
     4
100
AcDbLine
 10
241.613185707288
 20
194.027002166136
 30
0.0
 11
241.738185707288
 21
193.277002166136
 31
0.0
  0
LINE
  5
12E
330
1F
100
AcDbEntity
  8
1
  6
Continuous
 62
     4
100
AcDbLine
 10
241.363185707288
 20
194.527002166136
 30
0.0
 11
241.613185707288
 21
194.027002166136
 31
0.0
  0
LINE
  5
12F
330
1F
100
AcDbEntity
  8
1
  6
Continuous
 62
     4
100
AcDbLine
 10
241.113185707288
 20
194.777002166136
 30
0.0
 11
241.363185707288
 21
194.527002166136
 31
0.0
  0
LINE
  5
130
330
1F
100
AcDbEntity
  8
1
  6
Continuous
 62
     4
100
AcDbLine
 10
240.738185707288
 20
195.027002166136
 30
0.0
 11
241.113185707288
 21
194.777002166136
 31
0.0
  0
LINE
  5
131
330
1F
100
AcDbEntity
  8
1
  6
Continuous
 62
     4
100
AcDbLine
 10
240.363185707288
 20
195.152002166136
 30
0.0
 11
240.738185707288
 21
195.027002166136
 31
0.0
  0
LINE
  5
132
330
1F
100
AcDbEntity
  8
1
  6
Continuous
 62
     4
100
AcDbLine
 10
240.113185707288
 20
195.152002166136
 30
0.0
 11
240.363185707288
 21
195.152002166136
 31
0.0
  0
LINE
  5
133
330
1F
100
AcDbEntity
  8
1
  6
Continuous
 62
     4
100
AcDbLine
 10
239.738185707288
 20
195.027002166136
 30
0.0
 11
240.113185707288
 21
195.152002166136
 31
0.0
  0
LINE
  5
134
330
1F
100
AcDbEntity
  8
1
  6
Continuous
 62
     4
100
AcDbLine
 10
239.363185707288
 20
194.777002166136
 30
0.0
 11
239.738185707288
 21
195.027002166136
 31
0.0
  0
LINE
  5
135
330
1F
100
AcDbEntity
  8
1
  6
Continuous
 62
     4
100
AcDbLine
 10
239.113185707288
 20
194.527002166136
 30
0.0
 11
239.363185707288
 21
194.777002166136
 31
0.0
  0
LINE
  5
136
330
1F
100
AcDbEntity
  8
1
  6
Continuous
 62
     4
100
AcDbLine
 10
238.863185707288
 20
194.027002166136
 30
0.0
 11
239.113185707288
 21
194.527002166136
 31
0.0
  0
LINE
  5
137
330
1F
100
AcDbEntity
  8
1
  6
Continuous
 62
     4
100
AcDbLine
 10
238.738185707288
 20
193.277002166136
 30
0.0
 11
238.863185707288
 21
194.027002166136
 31
0.0
  0
LINE
  5
138
330
1F
100
AcDbEntity
  8
1
  6
Continuous
 62
     4
100
AcDbLine
 10
238.738185707288
 20
192.027002166136
 30
0.0
 11
238.738185707288
 21
193.277002166136
 31
0.0
  0
LINE
  5
139
330
1F
100
AcDbEntity
  8
1
  6
Continuous
 62
     4
100
AcDbLine
 10
238.863185707288
 20
191.277002166136
 30
0.0
 11
238.738185707288
 21
192.027002166136
 31
0.0
  0
LINE
  5
13A
330
1F
100
AcDbEntity
  8
1
  6
Continuous
 62
     4
100
AcDbLine
 10
239.113185707288
 20
190.777002166136
 30
0.0
 11
238.863185707288
 21
191.277002166136
 31
0.0
  0
LINE
  5
13B
330
1F
100
AcDbEntity
  8
1
  6
Continuous
 62
     4
100
AcDbLine
 10
239.363185707288
 20
190.527002166136
 30
0.0
 11
239.113185707288
 21
190.777002166136
 31
0.0
  0
LINE
  5
13C
330
1F
100
AcDbEntity
  8
1
  6
Continuous
 62
     4
100
AcDbLine
 10
239.738185707288
 20
190.277002166136
 30
0.0
 11
239.363185707288
 21
190.527002166136
 31
0.0
  0
LINE
  5
13D
330
1F
100
AcDbEntity
  8
1
  6
Continuous
 62
     4
100
AcDbLine
 10
240.113185707288
 20
190.152002166136
 30
0.0
 11
239.738185707288
 21
190.277002166136
 31
0.0
  0
LINE
  5
13E
330
1F
100
AcDbEntity
  8
1
  6
Continuous
 62
     4
100
AcDbLine
 10
240.363185707288
 20
190.152002166136
 30
0.0
 11
240.113185707288
 21
190.152002166136
 31
0.0
  0
LINE
  5
13F
330
1F
100
AcDbEntity
  8
1
  6
Continuous
 62
     4
100
AcDbLine
 10
240.738185707288
 20
190.277002166136
 30
0.0
 11
240.363185707288
 21
190.152002166136
 31
0.0
  0
LINE
  5
140
330
1F
100
AcDbEntity
  8
1
  6
Continuous
 62
     4
100
AcDbLine
 10
241.113185707288
 20
190.527002166136
 30
0.0
 11
240.738185707288
 21
190.277002166136
 31
0.0
  0
LINE
  5
141
330
1F
100
AcDbEntity
  8
1
  6
Continuous
 62
     4
100
AcDbLine
 10
241.363185707288
 20
190.777002166136
 30
0.0
 11
241.113185707288
 21
190.527002166136
 31
0.0
  0
LINE
  5
142
330
1F
100
AcDbEntity
  8
1
  6
Continuous
 62
     4
100
AcDbLine
 10
241.613185707288
 20
191.277002166136
 30
0.0
 11
241.363185707288
 21
190.777002166136
 31
0.0
  0
LINE
  5
143
330
1F
100
AcDbEntity
  8
1
  6
Continuous
 62
     4
100
AcDbLine
 10
241.738185707288
 20
192.027002166136
 30
0.0
 11
241.613185707288
 21
191.277002166136
 31
0.0
  0
LINE
  5
144
330
1F
100
AcDbEntity
  8
1
  6
Continuous
 62
     4
100
AcDbLine
 10
271.363185707288
 20
201.607002166136
 30
0.0
 11
271.363185707288
 21
200.357002166136
 31
0.0
  0
LINE
  5
145
330
1F
100
AcDbEntity
  8
1
  6
Continuous
 62
     4
100
AcDbLine
 10
271.238185707288
 20
202.357002166136
 30
0.0
 11
271.363185707288
 21
201.607002166136
 31
0.0
  0
LINE
  5
146
330
1F
100
AcDbEntity
  8
1
  6
Continuous
 62
     4
100
AcDbLine
 10
270.988185707288
 20
202.857002166136
 30
0.0
 11
271.238185707288
 21
202.357002166136
 31
0.0
  0
LINE
  5
147
330
1F
100
AcDbEntity
  8
1
  6
Continuous
 62
     4
100
AcDbLine
 10
270.738185707288
 20
203.107002166136
 30
0.0
 11
270.988185707288
 21
202.857002166136
 31
0.0
  0
LINE
  5
148
330
1F
100
AcDbEntity
  8
1
  6
Continuous
 62
     4
100
AcDbLine
 10
270.363185707288
 20
203.357002166136
 30
0.0
 11
270.738185707288
 21
203.107002166136
 31
0.0
  0
LINE
  5
149
330
1F
100
AcDbEntity
  8
1
  6
Continuous
 62
     4
100
AcDbLine
 10
269.988185707288
 20
203.482002166136
 30
0.0
 11
270.363185707288
 21
203.357002166136
 31
0.0
  0
LINE
  5
14A
330
1F
100
AcDbEntity
  8
1
  6
Continuous
 62
     4
100
AcDbLine
 10
269.738185707288
 20
203.482002166136
 30
0.0
 11
269.988185707288
 21
203.482002166136
 31
0.0
  0
LINE
  5
14B
330
1F
100
AcDbEntity
  8
1
  6
Continuous
 62
     4
100
AcDbLine
 10
269.363185707288
 20
203.357002166136
 30
0.0
 11
269.738185707288
 21
203.482002166136
 31
0.0
  0
LINE
  5
14C
330
1F
100
AcDbEntity
  8
1
  6
Continuous
 62
     4
100
AcDbLine
 10
268.988185707288
 20
203.107002166136
 30
0.0
 11
269.363185707288
 21
203.357002166136
 31
0.0
  0
LINE
  5
14D
330
1F
100
AcDbEntity
  8
1
  6
Continuous
 62
     4
100
AcDbLine
 10
268.738185707288
 20
202.857002166136
 30
0.0
 11
268.988185707288
 21
203.107002166136
 31
0.0
  0
LINE
  5
14E
330
1F
100
AcDbEntity
  8
1
  6
Continuous
 62
     4
100
AcDbLine
 10
268.488185707288
 20
202.357002166136
 30
0.0
 11
268.738185707288
 21
202.857002166136
 31
0.0
  0
LINE
  5
14F
330
1F
100
AcDbEntity
  8
1
  6
Continuous
 62
     4
100
AcDbLine
 10
268.363185707288
 20
201.607002166136
 30
0.0
 11
268.488185707288
 21
202.357002166136
 31
0.0
  0
LINE
  5
150
330
1F
100
AcDbEntity
  8
1
  6
Continuous
 62
     4
100
AcDbLine
 10
268.363185707288
 20
200.357002166136
 30
0.0
 11
268.363185707288
 21
201.607002166136
 31
0.0
  0
LINE
  5
151
330
1F
100
AcDbEntity
  8
1
  6
Continuous
 62
     4
100
AcDbLine
 10
268.488185707288
 20
199.607002166136
 30
0.0
 11
268.363185707288
 21
200.357002166136
 31
0.0
  0
LINE
  5
152
330
1F
100
AcDbEntity
  8
1
  6
Continuous
 62
     4
100
AcDbLine
 10
268.738185707288
 20
199.107002166136
 30
0.0
 11
268.488185707288
 21
199.607002166136
 31
0.0
  0
LINE
  5
153
330
1F
100
AcDbEntity
  8
1
  6
Continuous
 62
     4
100
AcDbLine
 10
268.988185707288
 20
198.857002166136
 30
0.0
 11
268.738185707288
 21
199.107002166136
 31
0.0
  0
LINE
  5
154
330
1F
100
AcDbEntity
  8
1
  6
Continuous
 62
     4
100
AcDbLine
 10
269.363185707288
 20
198.607002166136
 30
0.0
 11
268.988185707288
 21
198.857002166136
 31
0.0
  0
LINE
  5
155
330
1F
100
AcDbEntity
  8
1
  6
Continuous
 62
     4
100
AcDbLine
 10
269.738185707288
 20
198.482002166136
 30
0.0
 11
269.363185707288
 21
198.607002166136
 31
0.0
  0
LINE
  5
156
330
1F
100
AcDbEntity
  8
1
  6
Continuous
 62
     4
100
AcDbLine
 10
269.988185707288
 20
198.482002166136
 30
0.0
 11
269.738185707288
 21
198.482002166136
 31
0.0
  0
LINE
  5
157
330
1F
100
AcDbEntity
  8
1
  6
Continuous
 62
     4
100
AcDbLine
 10
270.363185707288
 20
198.607002166136
 30
0.0
 11
269.988185707288
 21
198.482002166136
 31
0.0
  0
LINE
  5
158
330
1F
100
AcDbEntity
  8
1
  6
Continuous
 62
     4
100
AcDbLine
 10
270.738185707288
 20
198.857002166136
 30
0.0
 11
270.363185707288
 21
198.607002166136
 31
0.0
  0
LINE
  5
159
330
1F
100
AcDbEntity
  8
1
  6
Continuous
 62
     4
100
AcDbLine
 10
270.988185707288
 20
199.107002166136
 30
0.0
 11
270.738185707288
 21
198.857002166136
 31
0.0
  0
LINE
  5
15A
330
1F
100
AcDbEntity
  8
1
  6
Continuous
 62
     4
100
AcDbLine
 10
271.238185707288
 20
199.607002166136
 30
0.0
 11
270.988185707288
 21
199.107002166136
 31
0.0
  0
LINE
  5
15B
330
1F
100
AcDbEntity
  8
1
  6
Continuous
 62
     4
100
AcDbLine
 10
271.363185707288
 20
200.357002166136
 30
0.0
 11
271.238185707288
 21
199.607002166136
 31
0.0
  0
LINE
  5
15C
330
1F
100
AcDbEntity
  8
1
  6
Continuous
 62
     4
100
AcDbLine
 10
266.863185707288
 20
201.607002166136
 30
0.0
 11
266.863185707288
 21
200.357002166136
 31
0.0
  0
LINE
  5
15D
330
1F
100
AcDbEntity
  8
1
  6
Continuous
 62
     4
100
AcDbLine
 10
266.738185707288
 20
202.357002166136
 30
0.0
 11
266.863185707288
 21
201.607002166136
 31
0.0
  0
LINE
  5
15E
330
1F
100
AcDbEntity
  8
1
  6
Continuous
 62
     4
100
AcDbLine
 10
266.488185707288
 20
202.857002166136
 30
0.0
 11
266.738185707288
 21
202.357002166136
 31
0.0
  0
LINE
  5
15F
330
1F
100
AcDbEntity
  8
1
  6
Continuous
 62
     4
100
AcDbLine
 10
266.238185707288
 20
203.107002166136
 30
0.0
 11
266.488185707288
 21
202.857002166136
 31
0.0
  0
LINE
  5
160
330
1F
100
AcDbEntity
  8
1
  6
Continuous
 62
     4
100
AcDbLine
 10
265.863185707288
 20
203.357002166136
 30
0.0
 11
266.238185707288
 21
203.107002166136
 31
0.0
  0
LINE
  5
161
330
1F
100
AcDbEntity
  8
1
  6
Continuous
 62
     4
100
AcDbLine
 10
265.488185707288
 20
203.482002166136
 30
0.0
 11
265.863185707288
 21
203.357002166136
 31
0.0
  0
LINE
  5
162
330
1F
100
AcDbEntity
  8
1
  6
Continuous
 62
     4
100
AcDbLine
 10
265.238185707288
 20
203.482002166136
 30
0.0
 11
265.488185707288
 21
203.482002166136
 31
0.0
  0
LINE
  5
163
330
1F
100
AcDbEntity
  8
1
  6
Continuous
 62
     4
100
AcDbLine
 10
264.863185707288
 20
203.357002166136
 30
0.0
 11
265.238185707288
 21
203.482002166136
 31
0.0
  0
LINE
  5
164
330
1F
100
AcDbEntity
  8
1
  6
Continuous
 62
     4
100
AcDbLine
 10
264.488185707288
 20
203.107002166136
 30
0.0
 11
264.863185707288
 21
203.357002166136
 31
0.0
  0
LINE
  5
165
330
1F
100
AcDbEntity
  8
1
  6
Continuous
 62
     4
100
AcDbLine
 10
264.238185707288
 20
202.857002166136
 30
0.0
 11
264.488185707288
 21
203.107002166136
 31
0.0
  0
LINE
  5
166
330
1F
100
AcDbEntity
  8
1
  6
Continuous
 62
     4
100
AcDbLine
 10
263.988185707288
 20
202.357002166136
 30
0.0
 11
264.238185707288
 21
202.857002166136
 31
0.0
  0
LINE
  5
167
330
1F
100
AcDbEntity
  8
1
  6
Continuous
 62
     4
100
AcDbLine
 10
263.863185707288
 20
201.607002166136
 30
0.0
 11
263.988185707288
 21
202.357002166136
 31
0.0
  0
LINE
  5
168
330
1F
100
AcDbEntity
  8
1
  6
Continuous
 62
     4
100
AcDbLine
 10
263.863185707288
 20
200.357002166136
 30
0.0
 11
263.863185707288
 21
201.607002166136
 31
0.0
  0
LINE
  5
169
330
1F
100
AcDbEntity
  8
1
  6
Continuous
 62
     4
100
AcDbLine
 10
263.988185707288
 20
199.607002166136
 30
0.0
 11
263.863185707288
 21
200.357002166136
 31
0.0
  0
LINE
  5
16A
330
1F
100
AcDbEntity
  8
1
  6
Continuous
 62
     4
100
AcDbLine
 10
264.238185707288
 20
199.107002166136
 30
0.0
 11
263.988185707288
 21
199.607002166136
 31
0.0
  0
LINE
  5
16B
330
1F
100
AcDbEntity
  8
1
  6
Continuous
 62
     4
100
AcDbLine
 10
264.488185707288
 20
198.857002166136
 30
0.0
 11
264.238185707288
 21
199.107002166136
 31
0.0
  0
LINE
  5
16C
330
1F
100
AcDbEntity
  8
1
  6
Continuous
 62
     4
100
AcDbLine
 10
264.863185707288
 20
198.607002166136
 30
0.0
 11
264.488185707288
 21
198.857002166136
 31
0.0
  0
LINE
  5
16D
330
1F
100
AcDbEntity
  8
1
  6
Continuous
 62
     4
100
AcDbLine
 10
265.238185707288
 20
198.482002166136
 30
0.0
 11
264.863185707288
 21
198.607002166136
 31
0.0
  0
LINE
  5
16E
330
1F
100
AcDbEntity
  8
1
  6
Continuous
 62
     4
100
AcDbLine
 10
265.488185707288
 20
198.482002166136
 30
0.0
 11
265.238185707288
 21
198.482002166136
 31
0.0
  0
LINE
  5
16F
330
1F
100
AcDbEntity
  8
1
  6
Continuous
 62
     4
100
AcDbLine
 10
265.863185707288
 20
198.607002166136
 30
0.0
 11
265.488185707288
 21
198.482002166136
 31
0.0
  0
LINE
  5
170
330
1F
100
AcDbEntity
  8
1
  6
Continuous
 62
     4
100
AcDbLine
 10
266.238185707288
 20
198.857002166136
 30
0.0
 11
265.863185707288
 21
198.607002166136
 31
0.0
  0
LINE
  5
171
330
1F
100
AcDbEntity
  8
1
  6
Continuous
 62
     4
100
AcDbLine
 10
266.488185707288
 20
199.107002166136
 30
0.0
 11
266.238185707288
 21
198.857002166136
 31
0.0
  0
LINE
  5
172
330
1F
100
AcDbEntity
  8
1
  6
Continuous
 62
     4
100
AcDbLine
 10
266.738185707288
 20
199.607002166136
 30
0.0
 11
266.488185707288
 21
199.107002166136
 31
0.0
  0
LINE
  5
173
330
1F
100
AcDbEntity
  8
1
  6
Continuous
 62
     4
100
AcDbLine
 10
266.863185707288
 20
200.357002166136
 30
0.0
 11
266.738185707288
 21
199.607002166136
 31
0.0
  0
LINE
  5
174
330
1F
100
AcDbEntity
  8
1
  6
Continuous
 62
     4
100
AcDbLine
 10
260.238185707288
 20
202.357002166136
 30
0.0
 11
261.613185707288
 21
203.482002166136
 31
0.0
  0
LINE
  5
175
330
1F
100
AcDbEntity
  8
1
  6
Continuous
 62
     4
100
AcDbLine
 10
259.738185707288
 20
201.732002166136
 30
0.0
 11
260.238185707288
 21
202.357002166136
 31
0.0
  0
LINE
  5
176
330
1F
100
AcDbEntity
  8
1
  6
Continuous
 62
     4
100
AcDbLine
 10
259.488185707288
 20
201.232002166136
 30
0.0
 11
259.738185707288
 21
201.732002166136
 31
0.0
  0
LINE
  5
177
330
1F
100
AcDbEntity
  8
1
  6
Continuous
 62
     4
100
AcDbLine
 10
259.363185707288
 20
200.232002166136
 30
0.0
 11
259.488185707288
 21
201.232002166136
 31
0.0
  0
LINE
  5
178
330
1F
100
AcDbEntity
  8
1
  6
Continuous
 62
     4
100
AcDbLine
 10
259.363185707288
 20
199.732002166136
 30
0.0
 11
259.363185707288
 21
200.232002166136
 31
0.0
  0
LINE
  5
179
330
1F
100
AcDbEntity
  8
1
  6
Continuous
 62
     4
100
AcDbLine
 10
259.488185707288
 20
199.232002166136
 30
0.0
 11
259.363185707288
 21
199.732002166136
 31
0.0
  0
LINE
  5
17A
330
1F
100
AcDbEntity
  8
1
  6
Continuous
 62
     4
100
AcDbLine
 10
259.738185707288
 20
198.857002166136
 30
0.0
 11
259.488185707288
 21
199.232002166136
 31
0.0
  0
LINE
  5
17B
330
1F
100
AcDbEntity
  8
1
  6
Continuous
 62
     4
100
AcDbLine
 10
260.113185707288
 20
198.607002166136
 30
0.0
 11
259.738185707288
 21
198.857002166136
 31
0.0
  0
LINE
  5
17C
330
1F
100
AcDbEntity
  8
1
  6
Continuous
 62
     4
100
AcDbLine
 10
260.488185707288
 20
198.482002166136
 30
0.0
 11
260.113185707288
 21
198.607002166136
 31
0.0
  0
LINE
  5
17D
330
1F
100
AcDbEntity
  8
1
  6
Continuous
 62
     4
100
AcDbLine
 10
261.238185707288
 20
198.482002166136
 30
0.0
 11
260.488185707288
 21
198.482002166136
 31
0.0
  0
LINE
  5
17E
330
1F
100
AcDbEntity
  8
1
  6
Continuous
 62
     4
100
AcDbLine
 10
261.613185707288
 20
198.607002166136
 30
0.0
 11
261.238185707288
 21
198.482002166136
 31
0.0
  0
LINE
  5
17F
330
1F
100
AcDbEntity
  8
1
  6
Continuous
 62
     4
100
AcDbLine
 10
261.988185707288
 20
198.857002166136
 30
0.0
 11
261.613185707288
 21
198.607002166136
 31
0.0
  0
LINE
  5
180
330
1F
100
AcDbEntity
  8
1
  6
Continuous
 62
     4
100
AcDbLine
 10
262.238185707288
 20
199.232002166136
 30
0.0
 11
261.988185707288
 21
198.857002166136
 31
0.0
  0
LINE
  5
181
330
1F
100
AcDbEntity
  8
1
  6
Continuous
 62
     4
100
AcDbLine
 10
262.363185707288
 20
199.732002166136
 30
0.0
 11
262.238185707288
 21
199.232002166136
 31
0.0
  0
LINE
  5
182
330
1F
100
AcDbEntity
  8
1
  6
Continuous
 62
     4
100
AcDbLine
 10
262.363185707288
 20
200.232002166136
 30
0.0
 11
262.363185707288
 21
199.732002166136
 31
0.0
  0
LINE
  5
183
330
1F
100
AcDbEntity
  8
1
  6
Continuous
 62
     4
100
AcDbLine
 10
262.238185707288
 20
200.732002166136
 30
0.0
 11
262.363185707288
 21
200.232002166136
 31
0.0
  0
LINE
  5
184
330
1F
100
AcDbEntity
  8
1
  6
Continuous
 62
     4
100
AcDbLine
 10
261.988185707288
 20
201.107002166136
 30
0.0
 11
262.238185707288
 21
200.732002166136
 31
0.0
  0
LINE
  5
185
330
1F
100
AcDbEntity
  8
1
  6
Continuous
 62
     4
100
AcDbLine
 10
261.613185707288
 20
201.357002166136
 30
0.0
 11
261.988185707288
 21
201.107002166136
 31
0.0
  0
LINE
  5
186
330
1F
100
AcDbEntity
  8
1
  6
Continuous
 62
     4
100
AcDbLine
 10
261.238185707288
 20
201.482002166136
 30
0.0
 11
261.613185707288
 21
201.357002166136
 31
0.0
  0
LINE
  5
187
330
1F
100
AcDbEntity
  8
1
  6
Continuous
 62
     4
100
AcDbLine
 10
260.488185707288
 20
201.482002166136
 30
0.0
 11
261.238185707288
 21
201.482002166136
 31
0.0
  0
LINE
  5
188
330
1F
100
AcDbEntity
  8
1
  6
Continuous
 62
     4
100
AcDbLine
 10
260.113185707288
 20
201.357002166136
 30
0.0
 11
260.488185707288
 21
201.482002166136
 31
0.0
  0
LINE
  5
189
330
1F
100
AcDbEntity
  8
1
  6
Continuous
 62
     4
100
AcDbLine
 10
259.738185707288
 20
201.107002166136
 30
0.0
 11
260.113185707288
 21
201.357002166136
 31
0.0
  0
LINE
  5
18A
330
1F
100
AcDbEntity
  8
1
  6
Continuous
 62
     4
100
AcDbLine
 10
259.488185707288
 20
200.732002166136
 30
0.0
 11
259.738185707288
 21
201.107002166136
 31
0.0
  0
LINE
  5
18B
330
1F
100
AcDbEntity
  8
1
  6
Continuous
 62
     4
100
AcDbLine
 10
259.363185707288
 20
200.232002166136
 30
0.0
 11
259.488185707288
 21
200.732002166136
 31
0.0
  0
LINE
  5
18C
330
1F
100
AcDbEntity
  8
1
  6
Continuous
 62
     4
100
AcDbLine
 10
245.738185707288
 20
202.357002166136
 30
0.0
 11
247.113185707288
 21
203.482002166136
 31
0.0
  0
LINE
  5
18D
330
1F
100
AcDbEntity
  8
1
  6
Continuous
 62
     4
100
AcDbLine
 10
245.238185707288
 20
201.732002166136
 30
0.0
 11
245.738185707288
 21
202.357002166136
 31
0.0
  0
LINE
  5
18E
330
1F
100
AcDbEntity
  8
1
  6
Continuous
 62
     4
100
AcDbLine
 10
244.988185707288
 20
201.232002166136
 30
0.0
 11
245.238185707288
 21
201.732002166136
 31
0.0
  0
LINE
  5
18F
330
1F
100
AcDbEntity
  8
1
  6
Continuous
 62
     4
100
AcDbLine
 10
244.863185707288
 20
200.232002166136
 30
0.0
 11
244.988185707288
 21
201.232002166136
 31
0.0
  0
LINE
  5
190
330
1F
100
AcDbEntity
  8
1
  6
Continuous
 62
     4
100
AcDbLine
 10
244.863185707288
 20
199.732002166136
 30
0.0
 11
244.863185707288
 21
200.232002166136
 31
0.0
  0
LINE
  5
191
330
1F
100
AcDbEntity
  8
1
  6
Continuous
 62
     4
100
AcDbLine
 10
244.988185707288
 20
199.232002166136
 30
0.0
 11
244.863185707288
 21
199.732002166136
 31
0.0
  0
LINE
  5
192
330
1F
100
AcDbEntity
  8
1
  6
Continuous
 62
     4
100
AcDbLine
 10
245.238185707288
 20
198.857002166136
 30
0.0
 11
244.988185707288
 21
199.232002166136
 31
0.0
  0
LINE
  5
193
330
1F
100
AcDbEntity
  8
1
  6
Continuous
 62
     4
100
AcDbLine
 10
245.613185707288
 20
198.607002166136
 30
0.0
 11
245.238185707288
 21
198.857002166136
 31
0.0
  0
LINE
  5
194
330
1F
100
AcDbEntity
  8
1
  6
Continuous
 62
     4
100
AcDbLine
 10
245.988185707288
 20
198.482002166136
 30
0.0
 11
245.613185707288
 21
198.607002166136
 31
0.0
  0
LINE
  5
195
330
1F
100
AcDbEntity
  8
1
  6
Continuous
 62
     4
100
AcDbLine
 10
246.738185707288
 20
198.482002166136
 30
0.0
 11
245.988185707288
 21
198.482002166136
 31
0.0
  0
LINE
  5
196
330
1F
100
AcDbEntity
  8
1
  6
Continuous
 62
     4
100
AcDbLine
 10
247.113185707288
 20
198.607002166136
 30
0.0
 11
246.738185707288
 21
198.482002166136
 31
0.0
  0
LINE
  5
197
330
1F
100
AcDbEntity
  8
1
  6
Continuous
 62
     4
100
AcDbLine
 10
247.488185707288
 20
198.857002166136
 30
0.0
 11
247.113185707288
 21
198.607002166136
 31
0.0
  0
LINE
  5
198
330
1F
100
AcDbEntity
  8
1
  6
Continuous
 62
     4
100
AcDbLine
 10
247.738185707288
 20
199.232002166136
 30
0.0
 11
247.488185707288
 21
198.857002166136
 31
0.0
  0
LINE
  5
199
330
1F
100
AcDbEntity
  8
1
  6
Continuous
 62
     4
100
AcDbLine
 10
247.863185707288
 20
199.732002166136
 30
0.0
 11
247.738185707288
 21
199.232002166136
 31
0.0
  0
LINE
  5
19A
330
1F
100
AcDbEntity
  8
1
  6
Continuous
 62
     4
100
AcDbLine
 10
247.863185707288
 20
200.232002166136
 30
0.0
 11
247.863185707288
 21
199.732002166136
 31
0.0
  0
LINE
  5
19B
330
1F
100
AcDbEntity
  8
1
  6
Continuous
 62
     4
100
AcDbLine
 10
247.738185707288
 20
200.732002166136
 30
0.0
 11
247.863185707288
 21
200.232002166136
 31
0.0
  0
LINE
  5
19C
330
1F
100
AcDbEntity
  8
1
  6
Continuous
 62
     4
100
AcDbLine
 10
247.488185707288
 20
201.107002166136
 30
0.0
 11
247.738185707288
 21
200.732002166136
 31
0.0
  0
LINE
  5
19D
330
1F
100
AcDbEntity
  8
1
  6
Continuous
 62
     4
100
AcDbLine
 10
247.113185707288
 20
201.357002166136
 30
0.0
 11
247.488185707288
 21
201.107002166136
 31
0.0
  0
LINE
  5
19E
330
1F
100
AcDbEntity
  8
1
  6
Continuous
 62
     4
100
AcDbLine
 10
246.738185707288
 20
201.482002166136
 30
0.0
 11
247.113185707288
 21
201.357002166136
 31
0.0
  0
LINE
  5
19F
330
1F
100
AcDbEntity
  8
1
  6
Continuous
 62
     4
100
AcDbLine
 10
245.988185707288
 20
201.482002166136
 30
0.0
 11
246.738185707288
 21
201.482002166136
 31
0.0
  0
LINE
  5
1A0
330
1F
100
AcDbEntity
  8
1
  6
Continuous
 62
     4
100
AcDbLine
 10
245.613185707288
 20
201.357002166136
 30
0.0
 11
245.988185707288
 21
201.482002166136
 31
0.0
  0
LINE
  5
1A1
330
1F
100
AcDbEntity
  8
1
  6
Continuous
 62
     4
100
AcDbLine
 10
245.238185707288
 20
201.107002166136
 30
0.0
 11
245.613185707288
 21
201.357002166136
 31
0.0
  0
LINE
  5
1A2
330
1F
100
AcDbEntity
  8
1
  6
Continuous
 62
     4
100
AcDbLine
 10
244.988185707288
 20
200.732002166136
 30
0.0
 11
245.238185707288
 21
201.107002166136
 31
0.0
  0
LINE
  5
1A3
330
1F
100
AcDbEntity
  8
1
  6
Continuous
 62
     4
100
AcDbLine
 10
244.863185707288
 20
200.232002166136
 30
0.0
 11
244.988185707288
 21
200.732002166136
 31
0.0
  0
LINE
  5
1A4
330
1F
100
AcDbEntity
  8
1
  6
Continuous
 62
     4
100
AcDbLine
 10
243.488185707288
 20
198.732002166136
 30
0.0
 11
243.488185707288
 21
198.607002166136
 31
0.0
  0
LINE
  5
1A5
330
1F
100
AcDbEntity
  8
1
  6
Continuous
 62
     4
100
AcDbLine
 10
243.363185707288
 20
198.732002166136
 30
0.0
 11
243.488185707288
 21
198.732002166136
 31
0.0
  0
LINE
  5
1A6
330
1F
100
AcDbEntity
  8
1
  6
Continuous
 62
     4
100
AcDbLine
 10
243.363185707288
 20
198.607002166136
 30
0.0
 11
243.363185707288
 21
198.732002166136
 31
0.0
  0
LINE
  5
1A7
330
1F
100
AcDbEntity
  8
1
  6
Continuous
 62
     4
100
AcDbLine
 10
243.488185707288
 20
198.607002166136
 30
0.0
 11
243.363185707288
 21
198.607002166136
 31
0.0
  0
LINE
  5
1A8
330
1F
100
AcDbEntity
  8
1
  6
Continuous
 62
     4
100
AcDbLine
 10
243.613185707288
 20
198.857002166136
 30
0.0
 11
243.613185707288
 21
198.482002166136
 31
0.0
  0
LINE
  5
1A9
330
1F
100
AcDbEntity
  8
1
  6
Continuous
 62
     4
100
AcDbLine
 10
243.238185707288
 20
198.857002166136
 30
0.0
 11
243.613185707288
 21
198.857002166136
 31
0.0
  0
LINE
  5
1AA
330
1F
100
AcDbEntity
  8
1
  6
Continuous
 62
     4
100
AcDbLine
 10
243.238185707288
 20
198.482002166136
 30
0.0
 11
243.238185707288
 21
198.857002166136
 31
0.0
  0
LINE
  5
1AB
330
1F
100
AcDbEntity
  8
1
  6
Continuous
 62
     4
100
AcDbLine
 10
243.613185707288
 20
198.482002166136
 30
0.0
 11
243.238185707288
 21
198.482002166136
 31
0.0
  0
LINE
  5
1AC
330
1F
100
AcDbEntity
  8
1
  6
Continuous
 62
     4
100
AcDbLine
 10
241.738185707288
 20
201.607002166136
 30
0.0
 11
241.738185707288
 21
200.357002166136
 31
0.0
  0
LINE
  5
1AD
330
1F
100
AcDbEntity
  8
1
  6
Continuous
 62
     4
100
AcDbLine
 10
241.613185707288
 20
202.357002166136
 30
0.0
 11
241.738185707288
 21
201.607002166136
 31
0.0
  0
LINE
  5
1AE
330
1F
100
AcDbEntity
  8
1
  6
Continuous
 62
     4
100
AcDbLine
 10
241.363185707288
 20
202.857002166136
 30
0.0
 11
241.613185707288
 21
202.357002166136
 31
0.0
  0
LINE
  5
1AF
330
1F
100
AcDbEntity
  8
1
  6
Continuous
 62
     4
100
AcDbLine
 10
241.113185707288
 20
203.107002166136
 30
0.0
 11
241.363185707288
 21
202.857002166136
 31
0.0
  0
LINE
  5
1B0
330
1F
100
AcDbEntity
  8
1
  6
Continuous
 62
     4
100
AcDbLine
 10
240.738185707288
 20
203.357002166136
 30
0.0
 11
241.113185707288
 21
203.107002166136
 31
0.0
  0
LINE
  5
1B1
330
1F
100
AcDbEntity
  8
1
  6
Continuous
 62
     4
100
AcDbLine
 10
240.363185707288
 20
203.482002166136
 30
0.0
 11
240.738185707288
 21
203.357002166136
 31
0.0
  0
LINE
  5
1B2
330
1F
100
AcDbEntity
  8
1
  6
Continuous
 62
     4
100
AcDbLine
 10
240.113185707288
 20
203.482002166136
 30
0.0
 11
240.363185707288
 21
203.482002166136
 31
0.0
  0
LINE
  5
1B3
330
1F
100
AcDbEntity
  8
1
  6
Continuous
 62
     4
100
AcDbLine
 10
239.738185707288
 20
203.357002166136
 30
0.0
 11
240.113185707288
 21
203.482002166136
 31
0.0
  0
LINE
  5
1B4
330
1F
100
AcDbEntity
  8
1
  6
Continuous
 62
     4
100
AcDbLine
 10
239.363185707288
 20
203.107002166136
 30
0.0
 11
239.738185707288
 21
203.357002166136
 31
0.0
  0
LINE
  5
1B5
330
1F
100
AcDbEntity
  8
1
  6
Continuous
 62
     4
100
AcDbLine
 10
239.113185707288
 20
202.857002166136
 30
0.0
 11
239.363185707288
 21
203.107002166136
 31
0.0
  0
LINE
  5
1B6
330
1F
100
AcDbEntity
  8
1
  6
Continuous
 62
     4
100
AcDbLine
 10
238.863185707288
 20
202.357002166136
 30
0.0
 11
239.113185707288
 21
202.857002166136
 31
0.0
  0
LINE
  5
1B7
330
1F
100
AcDbEntity
  8
1
  6
Continuous
 62
     4
100
AcDbLine
 10
238.738185707288
 20
201.607002166136
 30
0.0
 11
238.863185707288
 21
202.357002166136
 31
0.0
  0
LINE
  5
1B8
330
1F
100
AcDbEntity
  8
1
  6
Continuous
 62
     4
100
AcDbLine
 10
238.738185707288
 20
200.357002166136
 30
0.0
 11
238.738185707288
 21
201.607002166136
 31
0.0
  0
LINE
  5
1B9
330
1F
100
AcDbEntity
  8
1
  6
Continuous
 62
     4
100
AcDbLine
 10
238.863185707288
 20
199.607002166136
 30
0.0
 11
238.738185707288
 21
200.357002166136
 31
0.0
  0
LINE
  5
1BA
330
1F
100
AcDbEntity
  8
1
  6
Continuous
 62
     4
100
AcDbLine
 10
239.113185707288
 20
199.107002166136
 30
0.0
 11
238.863185707288
 21
199.607002166136
 31
0.0
  0
LINE
  5
1BB
330
1F
100
AcDbEntity
  8
1
  6
Continuous
 62
     4
100
AcDbLine
 10
239.363185707288
 20
198.857002166136
 30
0.0
 11
239.113185707288
 21
199.107002166136
 31
0.0
  0
LINE
  5
1BC
330
1F
100
AcDbEntity
  8
1
  6
Continuous
 62
     4
100
AcDbLine
 10
239.738185707288
 20
198.607002166136
 30
0.0
 11
239.363185707288
 21
198.857002166136
 31
0.0
  0
LINE
  5
1BD
330
1F
100
AcDbEntity
  8
1
  6
Continuous
 62
     4
100
AcDbLine
 10
240.113185707288
 20
198.482002166136
 30
0.0
 11
239.738185707288
 21
198.607002166136
 31
0.0
  0
LINE
  5
1BE
330
1F
100
AcDbEntity
  8
1
  6
Continuous
 62
     4
100
AcDbLine
 10
240.363185707288
 20
198.482002166136
 30
0.0
 11
240.113185707288
 21
198.482002166136
 31
0.0
  0
LINE
  5
1BF
330
1F
100
AcDbEntity
  8
1
  6
Continuous
 62
     4
100
AcDbLine
 10
240.738185707288
 20
198.607002166136
 30
0.0
 11
240.363185707288
 21
198.482002166136
 31
0.0
  0
LINE
  5
1C0
330
1F
100
AcDbEntity
  8
1
  6
Continuous
 62
     4
100
AcDbLine
 10
241.113185707288
 20
198.857002166136
 30
0.0
 11
240.738185707288
 21
198.607002166136
 31
0.0
  0
LINE
  5
1C1
330
1F
100
AcDbEntity
  8
1
  6
Continuous
 62
     4
100
AcDbLine
 10
241.363185707288
 20
199.107002166136
 30
0.0
 11
241.113185707288
 21
198.857002166136
 31
0.0
  0
LINE
  5
1C2
330
1F
100
AcDbEntity
  8
1
  6
Continuous
 62
     4
100
AcDbLine
 10
241.613185707288
 20
199.607002166136
 30
0.0
 11
241.363185707288
 21
199.107002166136
 31
0.0
  0
LINE
  5
1C3
330
1F
100
AcDbEntity
  8
1
  6
Continuous
 62
     4
100
AcDbLine
 10
241.738185707288
 20
200.357002166136
 30
0.0
 11
241.613185707288
 21
199.607002166136
 31
0.0
  0
LINE
  5
1C4
330
1F
100
AcDbEntity
  8
1
  6
Continuous
 62
     4
100
AcDbLine
 10
271.363185707288
 20
209.937002166136
 30
0.0
 11
271.363185707288
 21
208.687002166136
 31
0.0
  0
LINE
  5
1C5
330
1F
100
AcDbEntity
  8
1
  6
Continuous
 62
     4
100
AcDbLine
 10
271.238185707288
 20
210.687002166136
 30
0.0
 11
271.363185707288
 21
209.937002166136
 31
0.0
  0
LINE
  5
1C6
330
1F
100
AcDbEntity
  8
1
  6
Continuous
 62
     4
100
AcDbLine
 10
270.988185707288
 20
211.187002166136
 30
0.0
 11
271.238185707288
 21
210.687002166136
 31
0.0
  0
LINE
  5
1C7
330
1F
100
AcDbEntity
  8
1
  6
Continuous
 62
     4
100
AcDbLine
 10
270.738185707288
 20
211.437002166136
 30
0.0
 11
270.988185707288
 21
211.187002166136
 31
0.0
  0
LINE
  5
1C8
330
1F
100
AcDbEntity
  8
1
  6
Continuous
 62
     4
100
AcDbLine
 10
270.363185707288
 20
211.687002166136
 30
0.0
 11
270.738185707288
 21
211.437002166136
 31
0.0
  0
LINE
  5
1C9
330
1F
100
AcDbEntity
  8
1
  6
Continuous
 62
     4
100
AcDbLine
 10
269.988185707288
 20
211.812002166136
 30
0.0
 11
270.363185707288
 21
211.687002166136
 31
0.0
  0
LINE
  5
1CA
330
1F
100
AcDbEntity
  8
1
  6
Continuous
 62
     4
100
AcDbLine
 10
269.738185707288
 20
211.812002166136
 30
0.0
 11
269.988185707288
 21
211.812002166136
 31
0.0
  0
LINE
  5
1CB
330
1F
100
AcDbEntity
  8
1
  6
Continuous
 62
     4
100
AcDbLine
 10
269.363185707288
 20
211.687002166136
 30
0.0
 11
269.738185707288
 21
211.812002166136
 31
0.0
  0
LINE
  5
1CC
330
1F
100
AcDbEntity
  8
1
  6
Continuous
 62
     4
100
AcDbLine
 10
268.988185707288
 20
211.437002166136
 30
0.0
 11
269.363185707288
 21
211.687002166136
 31
0.0
  0
LINE
  5
1CD
330
1F
100
AcDbEntity
  8
1
  6
Continuous
 62
     4
100
AcDbLine
 10
268.738185707288
 20
211.187002166136
 30
0.0
 11
268.988185707288
 21
211.437002166136
 31
0.0
  0
LINE
  5
1CE
330
1F
100
AcDbEntity
  8
1
  6
Continuous
 62
     4
100
AcDbLine
 10
268.488185707288
 20
210.687002166136
 30
0.0
 11
268.738185707288
 21
211.187002166136
 31
0.0
  0
LINE
  5
1CF
330
1F
100
AcDbEntity
  8
1
  6
Continuous
 62
     4
100
AcDbLine
 10
268.363185707288
 20
209.937002166136
 30
0.0
 11
268.488185707288
 21
210.687002166136
 31
0.0
  0
LINE
  5
1D0
330
1F
100
AcDbEntity
  8
1
  6
Continuous
 62
     4
100
AcDbLine
 10
268.363185707288
 20
208.687002166136
 30
0.0
 11
268.363185707288
 21
209.937002166136
 31
0.0
  0
LINE
  5
1D1
330
1F
100
AcDbEntity
  8
1
  6
Continuous
 62
     4
100
AcDbLine
 10
268.488185707288
 20
207.937002166136
 30
0.0
 11
268.363185707288
 21
208.687002166136
 31
0.0
  0
LINE
  5
1D2
330
1F
100
AcDbEntity
  8
1
  6
Continuous
 62
     4
100
AcDbLine
 10
268.738185707288
 20
207.437002166136
 30
0.0
 11
268.488185707288
 21
207.937002166136
 31
0.0
  0
LINE
  5
1D3
330
1F
100
AcDbEntity
  8
1
  6
Continuous
 62
     4
100
AcDbLine
 10
268.988185707288
 20
207.187002166136
 30
0.0
 11
268.738185707288
 21
207.437002166136
 31
0.0
  0
LINE
  5
1D4
330
1F
100
AcDbEntity
  8
1
  6
Continuous
 62
     4
100
AcDbLine
 10
269.363185707288
 20
206.937002166136
 30
0.0
 11
268.988185707288
 21
207.187002166136
 31
0.0
  0
LINE
  5
1D5
330
1F
100
AcDbEntity
  8
1
  6
Continuous
 62
     4
100
AcDbLine
 10
269.738185707288
 20
206.812002166136
 30
0.0
 11
269.363185707288
 21
206.937002166136
 31
0.0
  0
LINE
  5
1D6
330
1F
100
AcDbEntity
  8
1
  6
Continuous
 62
     4
100
AcDbLine
 10
269.988185707288
 20
206.812002166136
 30
0.0
 11
269.738185707288
 21
206.812002166136
 31
0.0
  0
LINE
  5
1D7
330
1F
100
AcDbEntity
  8
1
  6
Continuous
 62
     4
100
AcDbLine
 10
270.363185707288
 20
206.937002166136
 30
0.0
 11
269.988185707288
 21
206.812002166136
 31
0.0
  0
LINE
  5
1D8
330
1F
100
AcDbEntity
  8
1
  6
Continuous
 62
     4
100
AcDbLine
 10
270.738185707288
 20
207.187002166136
 30
0.0
 11
270.363185707288
 21
206.937002166136
 31
0.0
  0
LINE
  5
1D9
330
1F
100
AcDbEntity
  8
1
  6
Continuous
 62
     4
100
AcDbLine
 10
270.988185707288
 20
207.437002166136
 30
0.0
 11
270.738185707288
 21
207.187002166136
 31
0.0
  0
LINE
  5
1DA
330
1F
100
AcDbEntity
  8
1
  6
Continuous
 62
     4
100
AcDbLine
 10
271.238185707288
 20
207.937002166136
 30
0.0
 11
270.988185707288
 21
207.437002166136
 31
0.0
  0
LINE
  5
1DB
330
1F
100
AcDbEntity
  8
1
  6
Continuous
 62
     4
100
AcDbLine
 10
271.363185707288
 20
208.687002166136
 30
0.0
 11
271.238185707288
 21
207.937002166136
 31
0.0
  0
LINE
  5
1DC
330
1F
100
AcDbEntity
  8
1
  6
Continuous
 62
     4
100
AcDbLine
 10
266.863185707288
 20
209.937002166136
 30
0.0
 11
266.863185707288
 21
208.687002166136
 31
0.0
  0
LINE
  5
1DD
330
1F
100
AcDbEntity
  8
1
  6
Continuous
 62
     4
100
AcDbLine
 10
266.738185707288
 20
210.687002166136
 30
0.0
 11
266.863185707288
 21
209.937002166136
 31
0.0
  0
LINE
  5
1DE
330
1F
100
AcDbEntity
  8
1
  6
Continuous
 62
     4
100
AcDbLine
 10
266.488185707288
 20
211.187002166136
 30
0.0
 11
266.738185707288
 21
210.687002166136
 31
0.0
  0
LINE
  5
1DF
330
1F
100
AcDbEntity
  8
1
  6
Continuous
 62
     4
100
AcDbLine
 10
266.238185707288
 20
211.437002166136
 30
0.0
 11
266.488185707288
 21
211.187002166136
 31
0.0
  0
LINE
  5
1E0
330
1F
100
AcDbEntity
  8
1
  6
Continuous
 62
     4
100
AcDbLine
 10
265.863185707288
 20
211.687002166136
 30
0.0
 11
266.238185707288
 21
211.437002166136
 31
0.0
  0
LINE
  5
1E1
330
1F
100
AcDbEntity
  8
1
  6
Continuous
 62
     4
100
AcDbLine
 10
265.488185707288
 20
211.812002166136
 30
0.0
 11
265.863185707288
 21
211.687002166136
 31
0.0
  0
LINE
  5
1E2
330
1F
100
AcDbEntity
  8
1
  6
Continuous
 62
     4
100
AcDbLine
 10
265.238185707288
 20
211.812002166136
 30
0.0
 11
265.488185707288
 21
211.812002166136
 31
0.0
  0
LINE
  5
1E3
330
1F
100
AcDbEntity
  8
1
  6
Continuous
 62
     4
100
AcDbLine
 10
264.863185707288
 20
211.687002166136
 30
0.0
 11
265.238185707288
 21
211.812002166136
 31
0.0
  0
LINE
  5
1E4
330
1F
100
AcDbEntity
  8
1
  6
Continuous
 62
     4
100
AcDbLine
 10
264.488185707288
 20
211.437002166136
 30
0.0
 11
264.863185707288
 21
211.687002166136
 31
0.0
  0
LINE
  5
1E5
330
1F
100
AcDbEntity
  8
1
  6
Continuous
 62
     4
100
AcDbLine
 10
264.238185707288
 20
211.187002166136
 30
0.0
 11
264.488185707288
 21
211.437002166136
 31
0.0
  0
LINE
  5
1E6
330
1F
100
AcDbEntity
  8
1
  6
Continuous
 62
     4
100
AcDbLine
 10
263.988185707288
 20
210.687002166136
 30
0.0
 11
264.238185707288
 21
211.187002166136
 31
0.0
  0
LINE
  5
1E7
330
1F
100
AcDbEntity
  8
1
  6
Continuous
 62
     4
100
AcDbLine
 10
263.863185707288
 20
209.937002166136
 30
0.0
 11
263.988185707288
 21
210.687002166136
 31
0.0
  0
LINE
  5
1E8
330
1F
100
AcDbEntity
  8
1
  6
Continuous
 62
     4
100
AcDbLine
 10
263.863185707288
 20
208.687002166136
 30
0.0
 11
263.863185707288
 21
209.937002166136
 31
0.0
  0
LINE
  5
1E9
330
1F
100
AcDbEntity
  8
1
  6
Continuous
 62
     4
100
AcDbLine
 10
263.988185707288
 20
207.937002166136
 30
0.0
 11
263.863185707288
 21
208.687002166136
 31
0.0
  0
LINE
  5
1EA
330
1F
100
AcDbEntity
  8
1
  6
Continuous
 62
     4
100
AcDbLine
 10
264.238185707288
 20
207.437002166136
 30
0.0
 11
263.988185707288
 21
207.937002166136
 31
0.0
  0
LINE
  5
1EB
330
1F
100
AcDbEntity
  8
1
  6
Continuous
 62
     4
100
AcDbLine
 10
264.488185707288
 20
207.187002166136
 30
0.0
 11
264.238185707288
 21
207.437002166136
 31
0.0
  0
LINE
  5
1EC
330
1F
100
AcDbEntity
  8
1
  6
Continuous
 62
     4
100
AcDbLine
 10
264.863185707288
 20
206.937002166136
 30
0.0
 11
264.488185707288
 21
207.187002166136
 31
0.0
  0
LINE
  5
1ED
330
1F
100
AcDbEntity
  8
1
  6
Continuous
 62
     4
100
AcDbLine
 10
265.238185707288
 20
206.812002166136
 30
0.0
 11
264.863185707288
 21
206.937002166136
 31
0.0
  0
LINE
  5
1EE
330
1F
100
AcDbEntity
  8
1
  6
Continuous
 62
     4
100
AcDbLine
 10
265.488185707288
 20
206.812002166136
 30
0.0
 11
265.238185707288
 21
206.812002166136
 31
0.0
  0
LINE
  5
1EF
330
1F
100
AcDbEntity
  8
1
  6
Continuous
 62
     4
100
AcDbLine
 10
265.863185707288
 20
206.937002166136
 30
0.0
 11
265.488185707288
 21
206.812002166136
 31
0.0
  0
LINE
  5
1F0
330
1F
100
AcDbEntity
  8
1
  6
Continuous
 62
     4
100
AcDbLine
 10
266.238185707288
 20
207.187002166136
 30
0.0
 11
265.863185707288
 21
206.937002166136
 31
0.0
  0
LINE
  5
1F1
330
1F
100
AcDbEntity
  8
1
  6
Continuous
 62
     4
100
AcDbLine
 10
266.488185707288
 20
207.437002166136
 30
0.0
 11
266.238185707288
 21
207.187002166136
 31
0.0
  0
LINE
  5
1F2
330
1F
100
AcDbEntity
  8
1
  6
Continuous
 62
     4
100
AcDbLine
 10
266.738185707288
 20
207.937002166136
 30
0.0
 11
266.488185707288
 21
207.437002166136
 31
0.0
  0
LINE
  5
1F3
330
1F
100
AcDbEntity
  8
1
  6
Continuous
 62
     4
100
AcDbLine
 10
266.863185707288
 20
208.687002166136
 30
0.0
 11
266.738185707288
 21
207.937002166136
 31
0.0
  0
LINE
  5
1F4
330
1F
100
AcDbEntity
  8
1
  6
Continuous
 62
     4
100
AcDbLine
 10
261.238185707288
 20
206.812002166136
 30
0.0
 11
259.363185707288
 21
206.812002166136
 31
0.0
  0
LINE
  5
1F5
330
1F
100
AcDbEntity
  8
1
  6
Continuous
 62
     4
100
AcDbLine
 10
261.613185707288
 20
206.937002166136
 30
0.0
 11
261.238185707288
 21
206.812002166136
 31
0.0
  0
LINE
  5
1F6
330
1F
100
AcDbEntity
  8
1
  6
Continuous
 62
     4
100
AcDbLine
 10
261.988185707288
 20
207.187002166136
 30
0.0
 11
261.613185707288
 21
206.937002166136
 31
0.0
  0
LINE
  5
1F7
330
1F
100
AcDbEntity
  8
1
  6
Continuous
 62
     4
100
AcDbLine
 10
262.238185707288
 20
207.562002166136
 30
0.0
 11
261.988185707288
 21
207.187002166136
 31
0.0
  0
LINE
  5
1F8
330
1F
100
AcDbEntity
  8
1
  6
Continuous
 62
     4
100
AcDbLine
 10
262.363185707288
 20
208.062002166136
 30
0.0
 11
262.238185707288
 21
207.562002166136
 31
0.0
  0
LINE
  5
1F9
330
1F
100
AcDbEntity
  8
1
  6
Continuous
 62
     4
100
AcDbLine
 10
262.363185707288
 20
208.812002166136
 30
0.0
 11
262.363185707288
 21
208.062002166136
 31
0.0
  0
LINE
  5
1FA
330
1F
100
AcDbEntity
  8
1
  6
Continuous
 62
     4
100
AcDbLine
 10
262.238185707288
 20
209.312002166136
 30
0.0
 11
262.363185707288
 21
208.812002166136
 31
0.0
  0
LINE
  5
1FB
330
1F
100
AcDbEntity
  8
1
  6
Continuous
 62
     4
100
AcDbLine
 10
261.863185707288
 20
209.687002166136
 30
0.0
 11
262.238185707288
 21
209.312002166136
 31
0.0
  0
LINE
  5
1FC
330
1F
100
AcDbEntity
  8
1
  6
Continuous
 62
     4
100
AcDbLine
 10
261.238185707288
 20
209.812002166136
 30
0.0
 11
261.863185707288
 21
209.687002166136
 31
0.0
  0
LINE
  5
1FD
330
1F
100
AcDbEntity
  8
1
  6
Continuous
 62
     4
100
AcDbLine
 10
259.363185707288
 20
209.812002166136
 30
0.0
 11
261.238185707288
 21
209.812002166136
 31
0.0
  0
LINE
  5
1FE
330
1F
100
AcDbEntity
  8
1
  6
Continuous
 62
     4
100
AcDbLine
 10
259.363185707288
 20
211.812002166136
 30
0.0
 11
259.363185707288
 21
209.812002166136
 31
0.0
  0
LINE
  5
1FF
330
1F
100
AcDbEntity
  8
1
  6
Continuous
 62
     4
100
AcDbLine
 10
262.113185707288
 20
211.812002166136
 30
0.0
 11
259.363185707288
 21
211.812002166136
 31
0.0
  0
LINE
  5
200
330
1F
100
AcDbEntity
  8
1
  6
Continuous
 62
     4
100
AcDbLine
 10
246.738185707288
 20
206.812002166136
 30
0.0
 11
244.863185707288
 21
206.812002166136
 31
0.0
  0
LINE
  5
201
330
1F
100
AcDbEntity
  8
1
  6
Continuous
 62
     4
100
AcDbLine
 10
247.113185707288
 20
206.937002166136
 30
0.0
 11
246.738185707288
 21
206.812002166136
 31
0.0
  0
LINE
  5
202
330
1F
100
AcDbEntity
  8
1
  6
Continuous
 62
     4
100
AcDbLine
 10
247.488185707288
 20
207.187002166136
 30
0.0
 11
247.113185707288
 21
206.937002166136
 31
0.0
  0
LINE
  5
203
330
1F
100
AcDbEntity
  8
1
  6
Continuous
 62
     4
100
AcDbLine
 10
247.738185707288
 20
207.562002166136
 30
0.0
 11
247.488185707288
 21
207.187002166136
 31
0.0
  0
LINE
  5
204
330
1F
100
AcDbEntity
  8
1
  6
Continuous
 62
     4
100
AcDbLine
 10
247.863185707288
 20
208.062002166136
 30
0.0
 11
247.738185707288
 21
207.562002166136
 31
0.0
  0
LINE
  5
205
330
1F
100
AcDbEntity
  8
1
  6
Continuous
 62
     4
100
AcDbLine
 10
247.863185707288
 20
208.812002166136
 30
0.0
 11
247.863185707288
 21
208.062002166136
 31
0.0
  0
LINE
  5
206
330
1F
100
AcDbEntity
  8
1
  6
Continuous
 62
     4
100
AcDbLine
 10
247.738185707288
 20
209.312002166136
 30
0.0
 11
247.863185707288
 21
208.812002166136
 31
0.0
  0
LINE
  5
207
330
1F
100
AcDbEntity
  8
1
  6
Continuous
 62
     4
100
AcDbLine
 10
247.363185707288
 20
209.687002166136
 30
0.0
 11
247.738185707288
 21
209.312002166136
 31
0.0
  0
LINE
  5
208
330
1F
100
AcDbEntity
  8
1
  6
Continuous
 62
     4
100
AcDbLine
 10
246.738185707288
 20
209.812002166136
 30
0.0
 11
247.363185707288
 21
209.687002166136
 31
0.0
  0
LINE
  5
209
330
1F
100
AcDbEntity
  8
1
  6
Continuous
 62
     4
100
AcDbLine
 10
244.863185707288
 20
209.812002166136
 30
0.0
 11
246.738185707288
 21
209.812002166136
 31
0.0
  0
LINE
  5
20A
330
1F
100
AcDbEntity
  8
1
  6
Continuous
 62
     4
100
AcDbLine
 10
244.863185707288
 20
211.812002166136
 30
0.0
 11
244.863185707288
 21
209.812002166136
 31
0.0
  0
LINE
  5
20B
330
1F
100
AcDbEntity
  8
1
  6
Continuous
 62
     4
100
AcDbLine
 10
247.613185707288
 20
211.812002166136
 30
0.0
 11
244.863185707288
 21
211.812002166136
 31
0.0
  0
LINE
  5
20C
330
1F
100
AcDbEntity
  8
1
  6
Continuous
 62
     4
100
AcDbLine
 10
243.488185707288
 20
207.062002166136
 30
0.0
 11
243.488185707288
 21
206.937002166136
 31
0.0
  0
LINE
  5
20D
330
1F
100
AcDbEntity
  8
1
  6
Continuous
 62
     4
100
AcDbLine
 10
243.363185707288
 20
207.062002166136
 30
0.0
 11
243.488185707288
 21
207.062002166136
 31
0.0
  0
LINE
  5
20E
330
1F
100
AcDbEntity
  8
1
  6
Continuous
 62
     4
100
AcDbLine
 10
243.363185707288
 20
206.937002166136
 30
0.0
 11
243.363185707288
 21
207.062002166136
 31
0.0
  0
LINE
  5
20F
330
1F
100
AcDbEntity
  8
1
  6
Continuous
 62
     4
100
AcDbLine
 10
243.488185707288
 20
206.937002166136
 30
0.0
 11
243.363185707288
 21
206.937002166136
 31
0.0
  0
LINE
  5
210
330
1F
100
AcDbEntity
  8
1
  6
Continuous
 62
     4
100
AcDbLine
 10
243.613185707288
 20
207.187002166136
 30
0.0
 11
243.613185707288
 21
206.812002166136
 31
0.0
  0
LINE
  5
211
330
1F
100
AcDbEntity
  8
1
  6
Continuous
 62
     4
100
AcDbLine
 10
243.238185707288
 20
207.187002166136
 30
0.0
 11
243.613185707288
 21
207.187002166136
 31
0.0
  0
LINE
  5
212
330
1F
100
AcDbEntity
  8
1
  6
Continuous
 62
     4
100
AcDbLine
 10
243.238185707288
 20
206.812002166136
 30
0.0
 11
243.238185707288
 21
207.187002166136
 31
0.0
  0
LINE
  5
213
330
1F
100
AcDbEntity
  8
1
  6
Continuous
 62
     4
100
AcDbLine
 10
243.613185707288
 20
206.812002166136
 30
0.0
 11
243.238185707288
 21
206.812002166136
 31
0.0
  0
LINE
  5
214
330
1F
100
AcDbEntity
  8
1
  6
Continuous
 62
     4
100
AcDbLine
 10
241.738185707288
 20
209.937002166136
 30
0.0
 11
241.738185707288
 21
208.687002166136
 31
0.0
  0
LINE
  5
215
330
1F
100
AcDbEntity
  8
1
  6
Continuous
 62
     4
100
AcDbLine
 10
241.613185707288
 20
210.687002166136
 30
0.0
 11
241.738185707288
 21
209.937002166136
 31
0.0
  0
LINE
  5
216
330
1F
100
AcDbEntity
  8
1
  6
Continuous
 62
     4
100
AcDbLine
 10
241.363185707288
 20
211.187002166136
 30
0.0
 11
241.613185707288
 21
210.687002166136
 31
0.0
  0
LINE
  5
217
330
1F
100
AcDbEntity
  8
1
  6
Continuous
 62
     4
100
AcDbLine
 10
241.113185707288
 20
211.437002166136
 30
0.0
 11
241.363185707288
 21
211.187002166136
 31
0.0
  0
LINE
  5
218
330
1F
100
AcDbEntity
  8
1
  6
Continuous
 62
     4
100
AcDbLine
 10
240.738185707288
 20
211.687002166136
 30
0.0
 11
241.113185707288
 21
211.437002166136
 31
0.0
  0
LINE
  5
219
330
1F
100
AcDbEntity
  8
1
  6
Continuous
 62
     4
100
AcDbLine
 10
240.363185707288
 20
211.812002166136
 30
0.0
 11
240.738185707288
 21
211.687002166136
 31
0.0
  0
LINE
  5
21A
330
1F
100
AcDbEntity
  8
1
  6
Continuous
 62
     4
100
AcDbLine
 10
240.113185707288
 20
211.812002166136
 30
0.0
 11
240.363185707288
 21
211.812002166136
 31
0.0
  0
LINE
  5
21B
330
1F
100
AcDbEntity
  8
1
  6
Continuous
 62
     4
100
AcDbLine
 10
239.738185707288
 20
211.687002166136
 30
0.0
 11
240.113185707288
 21
211.812002166136
 31
0.0
  0
LINE
  5
21C
330
1F
100
AcDbEntity
  8
1
  6
Continuous
 62
     4
100
AcDbLine
 10
239.363185707288
 20
211.437002166136
 30
0.0
 11
239.738185707288
 21
211.687002166136
 31
0.0
  0
LINE
  5
21D
330
1F
100
AcDbEntity
  8
1
  6
Continuous
 62
     4
100
AcDbLine
 10
239.113185707288
 20
211.187002166136
 30
0.0
 11
239.363185707288
 21
211.437002166136
 31
0.0
  0
LINE
  5
21E
330
1F
100
AcDbEntity
  8
1
  6
Continuous
 62
     4
100
AcDbLine
 10
238.863185707288
 20
210.687002166136
 30
0.0
 11
239.113185707288
 21
211.187002166136
 31
0.0
  0
LINE
  5
21F
330
1F
100
AcDbEntity
  8
1
  6
Continuous
 62
     4
100
AcDbLine
 10
238.738185707288
 20
209.937002166136
 30
0.0
 11
238.863185707288
 21
210.687002166136
 31
0.0
  0
LINE
  5
220
330
1F
100
AcDbEntity
  8
1
  6
Continuous
 62
     4
100
AcDbLine
 10
238.738185707288
 20
208.687002166136
 30
0.0
 11
238.738185707288
 21
209.937002166136
 31
0.0
  0
LINE
  5
221
330
1F
100
AcDbEntity
  8
1
  6
Continuous
 62
     4
100
AcDbLine
 10
238.863185707288
 20
207.937002166136
 30
0.0
 11
238.738185707288
 21
208.687002166136
 31
0.0
  0
LINE
  5
222
330
1F
100
AcDbEntity
  8
1
  6
Continuous
 62
     4
100
AcDbLine
 10
239.113185707288
 20
207.437002166136
 30
0.0
 11
238.863185707288
 21
207.937002166136
 31
0.0
  0
LINE
  5
223
330
1F
100
AcDbEntity
  8
1
  6
Continuous
 62
     4
100
AcDbLine
 10
239.363185707288
 20
207.187002166136
 30
0.0
 11
239.113185707288
 21
207.437002166136
 31
0.0
  0
LINE
  5
224
330
1F
100
AcDbEntity
  8
1
  6
Continuous
 62
     4
100
AcDbLine
 10
239.738185707288
 20
206.937002166136
 30
0.0
 11
239.363185707288
 21
207.187002166136
 31
0.0
  0
LINE
  5
225
330
1F
100
AcDbEntity
  8
1
  6
Continuous
 62
     4
100
AcDbLine
 10
240.113185707288
 20
206.812002166136
 30
0.0
 11
239.738185707288
 21
206.937002166136
 31
0.0
  0
LINE
  5
226
330
1F
100
AcDbEntity
  8
1
  6
Continuous
 62
     4
100
AcDbLine
 10
240.363185707288
 20
206.812002166136
 30
0.0
 11
240.113185707288
 21
206.812002166136
 31
0.0
  0
LINE
  5
227
330
1F
100
AcDbEntity
  8
1
  6
Continuous
 62
     4
100
AcDbLine
 10
240.738185707288
 20
206.937002166136
 30
0.0
 11
240.363185707288
 21
206.812002166136
 31
0.0
  0
LINE
  5
228
330
1F
100
AcDbEntity
  8
1
  6
Continuous
 62
     4
100
AcDbLine
 10
241.113185707288
 20
207.187002166136
 30
0.0
 11
240.738185707288
 21
206.937002166136
 31
0.0
  0
LINE
  5
229
330
1F
100
AcDbEntity
  8
1
  6
Continuous
 62
     4
100
AcDbLine
 10
241.363185707288
 20
207.437002166136
 30
0.0
 11
241.113185707288
 21
207.187002166136
 31
0.0
  0
LINE
  5
22A
330
1F
100
AcDbEntity
  8
1
  6
Continuous
 62
     4
100
AcDbLine
 10
241.613185707288
 20
207.937002166136
 30
0.0
 11
241.363185707288
 21
207.437002166136
 31
0.0
  0
LINE
  5
22B
330
1F
100
AcDbEntity
  8
1
  6
Continuous
 62
     4
100
AcDbLine
 10
241.738185707288
 20
208.687002166136
 30
0.0
 11
241.613185707288
 21
207.937002166136
 31
0.0
  0
LINE
  5
22C
330
1F
100
AcDbEntity
  8
1
  6
Continuous
 62
     4
100
AcDbLine
 10
271.363185707288
 20
218.267002166136
 30
0.0
 11
271.363185707288
 21
217.017002166136
 31
0.0
  0
LINE
  5
22D
330
1F
100
AcDbEntity
  8
1
  6
Continuous
 62
     4
100
AcDbLine
 10
271.238185707288
 20
219.017002166136
 30
0.0
 11
271.363185707288
 21
218.267002166136
 31
0.0
  0
LINE
  5
22E
330
1F
100
AcDbEntity
  8
1
  6
Continuous
 62
     4
100
AcDbLine
 10
270.988185707288
 20
219.517002166136
 30
0.0
 11
271.238185707288
 21
219.017002166136
 31
0.0
  0
LINE
  5
22F
330
1F
100
AcDbEntity
  8
1
  6
Continuous
 62
     4
100
AcDbLine
 10
270.738185707288
 20
219.767002166136
 30
0.0
 11
270.988185707288
 21
219.517002166136
 31
0.0
  0
LINE
  5
230
330
1F
100
AcDbEntity
  8
1
  6
Continuous
 62
     4
100
AcDbLine
 10
270.363185707288
 20
220.017002166136
 30
0.0
 11
270.738185707288
 21
219.767002166136
 31
0.0
  0
LINE
  5
231
330
1F
100
AcDbEntity
  8
1
  6
Continuous
 62
     4
100
AcDbLine
 10
269.988185707288
 20
220.142002166136
 30
0.0
 11
270.363185707288
 21
220.017002166136
 31
0.0
  0
LINE
  5
232
330
1F
100
AcDbEntity
  8
1
  6
Continuous
 62
     4
100
AcDbLine
 10
269.738185707288
 20
220.142002166136
 30
0.0
 11
269.988185707288
 21
220.142002166136
 31
0.0
  0
LINE
  5
233
330
1F
100
AcDbEntity
  8
1
  6
Continuous
 62
     4
100
AcDbLine
 10
269.363185707288
 20
220.017002166136
 30
0.0
 11
269.738185707288
 21
220.142002166136
 31
0.0
  0
LINE
  5
234
330
1F
100
AcDbEntity
  8
1
  6
Continuous
 62
     4
100
AcDbLine
 10
268.988185707288
 20
219.767002166136
 30
0.0
 11
269.363185707288
 21
220.017002166136
 31
0.0
  0
LINE
  5
235
330
1F
100
AcDbEntity
  8
1
  6
Continuous
 62
     4
100
AcDbLine
 10
268.738185707288
 20
219.517002166136
 30
0.0
 11
268.988185707288
 21
219.767002166136
 31
0.0
  0
LINE
  5
236
330
1F
100
AcDbEntity
  8
1
  6
Continuous
 62
     4
100
AcDbLine
 10
268.488185707288
 20
219.017002166136
 30
0.0
 11
268.738185707288
 21
219.517002166136
 31
0.0
  0
LINE
  5
237
330
1F
100
AcDbEntity
  8
1
  6
Continuous
 62
     4
100
AcDbLine
 10
268.363185707288
 20
218.267002166136
 30
0.0
 11
268.488185707288
 21
219.017002166136
 31
0.0
  0
LINE
  5
238
330
1F
100
AcDbEntity
  8
1
  6
Continuous
 62
     4
100
AcDbLine
 10
268.363185707288
 20
217.017002166136
 30
0.0
 11
268.363185707288
 21
218.267002166136
 31
0.0
  0
LINE
  5
239
330
1F
100
AcDbEntity
  8
1
  6
Continuous
 62
     4
100
AcDbLine
 10
268.488185707288
 20
216.267002166136
 30
0.0
 11
268.363185707288
 21
217.017002166136
 31
0.0
  0
LINE
  5
23A
330
1F
100
AcDbEntity
  8
1
  6
Continuous
 62
     4
100
AcDbLine
 10
268.738185707288
 20
215.767002166136
 30
0.0
 11
268.488185707288
 21
216.267002166136
 31
0.0
  0
LINE
  5
23B
330
1F
100
AcDbEntity
  8
1
  6
Continuous
 62
     4
100
AcDbLine
 10
268.988185707288
 20
215.517002166136
 30
0.0
 11
268.738185707288
 21
215.767002166136
 31
0.0
  0
LINE
  5
23C
330
1F
100
AcDbEntity
  8
1
  6
Continuous
 62
     4
100
AcDbLine
 10
269.363185707288
 20
215.267002166136
 30
0.0
 11
268.988185707288
 21
215.517002166136
 31
0.0
  0
LINE
  5
23D
330
1F
100
AcDbEntity
  8
1
  6
Continuous
 62
     4
100
AcDbLine
 10
269.738185707288
 20
215.142002166136
 30
0.0
 11
269.363185707288
 21
215.267002166136
 31
0.0
  0
LINE
  5
23E
330
1F
100
AcDbEntity
  8
1
  6
Continuous
 62
     4
100
AcDbLine
 10
269.988185707288
 20
215.142002166136
 30
0.0
 11
269.738185707288
 21
215.142002166136
 31
0.0
  0
LINE
  5
23F
330
1F
100
AcDbEntity
  8
1
  6
Continuous
 62
     4
100
AcDbLine
 10
270.363185707288
 20
215.267002166136
 30
0.0
 11
269.988185707288
 21
215.142002166136
 31
0.0
  0
LINE
  5
240
330
1F
100
AcDbEntity
  8
1
  6
Continuous
 62
     4
100
AcDbLine
 10
270.738185707288
 20
215.517002166136
 30
0.0
 11
270.363185707288
 21
215.267002166136
 31
0.0
  0
LINE
  5
241
330
1F
100
AcDbEntity
  8
1
  6
Continuous
 62
     4
100
AcDbLine
 10
270.988185707288
 20
215.767002166136
 30
0.0
 11
270.738185707288
 21
215.517002166136
 31
0.0
  0
LINE
  5
242
330
1F
100
AcDbEntity
  8
1
  6
Continuous
 62
     4
100
AcDbLine
 10
271.238185707288
 20
216.267002166136
 30
0.0
 11
270.988185707288
 21
215.767002166136
 31
0.0
  0
LINE
  5
243
330
1F
100
AcDbEntity
  8
1
  6
Continuous
 62
     4
100
AcDbLine
 10
271.363185707288
 20
217.017002166136
 30
0.0
 11
271.238185707288
 21
216.267002166136
 31
0.0
  0
LINE
  5
244
330
1F
100
AcDbEntity
  8
1
  6
Continuous
 62
     4
100
AcDbLine
 10
266.863185707288
 20
218.267002166136
 30
0.0
 11
266.863185707288
 21
217.017002166136
 31
0.0
  0
LINE
  5
245
330
1F
100
AcDbEntity
  8
1
  6
Continuous
 62
     4
100
AcDbLine
 10
266.738185707288
 20
219.017002166136
 30
0.0
 11
266.863185707288
 21
218.267002166136
 31
0.0
  0
LINE
  5
246
330
1F
100
AcDbEntity
  8
1
  6
Continuous
 62
     4
100
AcDbLine
 10
266.488185707288
 20
219.517002166136
 30
0.0
 11
266.738185707288
 21
219.017002166136
 31
0.0
  0
LINE
  5
247
330
1F
100
AcDbEntity
  8
1
  6
Continuous
 62
     4
100
AcDbLine
 10
266.238185707288
 20
219.767002166136
 30
0.0
 11
266.488185707288
 21
219.517002166136
 31
0.0
  0
LINE
  5
248
330
1F
100
AcDbEntity
  8
1
  6
Continuous
 62
     4
100
AcDbLine
 10
265.863185707288
 20
220.017002166136
 30
0.0
 11
266.238185707288
 21
219.767002166136
 31
0.0
  0
LINE
  5
249
330
1F
100
AcDbEntity
  8
1
  6
Continuous
 62
     4
100
AcDbLine
 10
265.488185707288
 20
220.142002166136
 30
0.0
 11
265.863185707288
 21
220.017002166136
 31
0.0
  0
LINE
  5
24A
330
1F
100
AcDbEntity
  8
1
  6
Continuous
 62
     4
100
AcDbLine
 10
265.238185707288
 20
220.142002166136
 30
0.0
 11
265.488185707288
 21
220.142002166136
 31
0.0
  0
LINE
  5
24B
330
1F
100
AcDbEntity
  8
1
  6
Continuous
 62
     4
100
AcDbLine
 10
264.863185707288
 20
220.017002166136
 30
0.0
 11
265.238185707288
 21
220.142002166136
 31
0.0
  0
LINE
  5
24C
330
1F
100
AcDbEntity
  8
1
  6
Continuous
 62
     4
100
AcDbLine
 10
264.488185707288
 20
219.767002166136
 30
0.0
 11
264.863185707288
 21
220.017002166136
 31
0.0
  0
LINE
  5
24D
330
1F
100
AcDbEntity
  8
1
  6
Continuous
 62
     4
100
AcDbLine
 10
264.238185707288
 20
219.517002166136
 30
0.0
 11
264.488185707288
 21
219.767002166136
 31
0.0
  0
LINE
  5
24E
330
1F
100
AcDbEntity
  8
1
  6
Continuous
 62
     4
100
AcDbLine
 10
263.988185707288
 20
219.017002166136
 30
0.0
 11
264.238185707288
 21
219.517002166136
 31
0.0
  0
LINE
  5
24F
330
1F
100
AcDbEntity
  8
1
  6
Continuous
 62
     4
100
AcDbLine
 10
263.863185707288
 20
218.267002166136
 30
0.0
 11
263.988185707288
 21
219.017002166136
 31
0.0
  0
LINE
  5
250
330
1F
100
AcDbEntity
  8
1
  6
Continuous
 62
     4
100
AcDbLine
 10
263.863185707288
 20
217.017002166136
 30
0.0
 11
263.863185707288
 21
218.267002166136
 31
0.0
  0
LINE
  5
251
330
1F
100
AcDbEntity
  8
1
  6
Continuous
 62
     4
100
AcDbLine
 10
263.988185707288
 20
216.267002166136
 30
0.0
 11
263.863185707288
 21
217.017002166136
 31
0.0
  0
LINE
  5
252
330
1F
100
AcDbEntity
  8
1
  6
Continuous
 62
     4
100
AcDbLine
 10
264.238185707288
 20
215.767002166136
 30
0.0
 11
263.988185707288
 21
216.267002166136
 31
0.0
  0
LINE
  5
253
330
1F
100
AcDbEntity
  8
1
  6
Continuous
 62
     4
100
AcDbLine
 10
264.488185707288
 20
215.517002166136
 30
0.0
 11
264.238185707288
 21
215.767002166136
 31
0.0
  0
LINE
  5
254
330
1F
100
AcDbEntity
  8
1
  6
Continuous
 62
     4
100
AcDbLine
 10
264.863185707288
 20
215.267002166136
 30
0.0
 11
264.488185707288
 21
215.517002166136
 31
0.0
  0
LINE
  5
255
330
1F
100
AcDbEntity
  8
1
  6
Continuous
 62
     4
100
AcDbLine
 10
265.238185707288
 20
215.142002166136
 30
0.0
 11
264.863185707288
 21
215.267002166136
 31
0.0
  0
LINE
  5
256
330
1F
100
AcDbEntity
  8
1
  6
Continuous
 62
     4
100
AcDbLine
 10
265.488185707288
 20
215.142002166136
 30
0.0
 11
265.238185707288
 21
215.142002166136
 31
0.0
  0
LINE
  5
257
330
1F
100
AcDbEntity
  8
1
  6
Continuous
 62
     4
100
AcDbLine
 10
265.863185707288
 20
215.267002166136
 30
0.0
 11
265.488185707288
 21
215.142002166136
 31
0.0
  0
LINE
  5
258
330
1F
100
AcDbEntity
  8
1
  6
Continuous
 62
     4
100
AcDbLine
 10
266.238185707288
 20
215.517002166136
 30
0.0
 11
265.863185707288
 21
215.267002166136
 31
0.0
  0
LINE
  5
259
330
1F
100
AcDbEntity
  8
1
  6
Continuous
 62
     4
100
AcDbLine
 10
266.488185707288
 20
215.767002166136
 30
0.0
 11
266.238185707288
 21
215.517002166136
 31
0.0
  0
LINE
  5
25A
330
1F
100
AcDbEntity
  8
1
  6
Continuous
 62
     4
100
AcDbLine
 10
266.738185707288
 20
216.267002166136
 30
0.0
 11
266.488185707288
 21
215.767002166136
 31
0.0
  0
LINE
  5
25B
330
1F
100
AcDbEntity
  8
1
  6
Continuous
 62
     4
100
AcDbLine
 10
266.863185707288
 20
217.017002166136
 30
0.0
 11
266.738185707288
 21
216.267002166136
 31
0.0
  0
LINE
  5
25C
330
1F
100
AcDbEntity
  8
1
  6
Continuous
 62
     4
100
AcDbLine
 10
261.613185707288
 20
217.142002166136
 30
0.0
 11
261.613185707288
 21
215.142002166136
 31
0.0
  0
LINE
  5
25D
330
1F
100
AcDbEntity
  8
1
  6
Continuous
 62
     4
100
AcDbLine
 10
259.363185707288
 20
216.142002166136
 30
0.0
 11
262.363185707288
 21
216.142002166136
 31
0.0
  0
LINE
  5
25E
330
1F
100
AcDbEntity
  8
1
  6
Continuous
 62
     4
100
AcDbLine
 10
261.613185707288
 20
220.142002166136
 30
0.0
 11
259.363185707288
 21
216.142002166136
 31
0.0
  0
LINE
  5
25F
330
1F
100
AcDbEntity
  8
1
  6
Continuous
 62
     4
100
AcDbLine
 10
247.113185707288
 20
217.142002166136
 30
0.0
 11
247.113185707288
 21
215.142002166136
 31
0.0
  0
LINE
  5
260
330
1F
100
AcDbEntity
  8
1
  6
Continuous
 62
     4
100
AcDbLine
 10
244.863185707288
 20
216.142002166136
 30
0.0
 11
247.863185707288
 21
216.142002166136
 31
0.0
  0
LINE
  5
261
330
1F
100
AcDbEntity
  8
1
  6
Continuous
 62
     4
100
AcDbLine
 10
247.113185707288
 20
220.142002166136
 30
0.0
 11
244.863185707288
 21
216.142002166136
 31
0.0
  0
LINE
  5
262
330
1F
100
AcDbEntity
  8
1
  6
Continuous
 62
     4
100
AcDbLine
 10
243.488185707288
 20
215.392002166136
 30
0.0
 11
243.488185707288
 21
215.267002166136
 31
0.0
  0
LINE
  5
263
330
1F
100
AcDbEntity
  8
1
  6
Continuous
 62
     4
100
AcDbLine
 10
243.363185707288
 20
215.392002166136
 30
0.0
 11
243.488185707288
 21
215.392002166136
 31
0.0
  0
LINE
  5
264
330
1F
100
AcDbEntity
  8
1
  6
Continuous
 62
     4
100
AcDbLine
 10
243.363185707288
 20
215.267002166136
 30
0.0
 11
243.363185707288
 21
215.392002166136
 31
0.0
  0
LINE
  5
265
330
1F
100
AcDbEntity
  8
1
  6
Continuous
 62
     4
100
AcDbLine
 10
243.488185707288
 20
215.267002166136
 30
0.0
 11
243.363185707288
 21
215.267002166136
 31
0.0
  0
LINE
  5
266
330
1F
100
AcDbEntity
  8
1
  6
Continuous
 62
     4
100
AcDbLine
 10
243.613185707288
 20
215.517002166136
 30
0.0
 11
243.613185707288
 21
215.142002166136
 31
0.0
  0
LINE
  5
267
330
1F
100
AcDbEntity
  8
1
  6
Continuous
 62
     4
100
AcDbLine
 10
243.238185707288
 20
215.517002166136
 30
0.0
 11
243.613185707288
 21
215.517002166136
 31
0.0
  0
LINE
  5
268
330
1F
100
AcDbEntity
  8
1
  6
Continuous
 62
     4
100
AcDbLine
 10
243.238185707288
 20
215.142002166136
 30
0.0
 11
243.238185707288
 21
215.517002166136
 31
0.0
  0
LINE
  5
269
330
1F
100
AcDbEntity
  8
1
  6
Continuous
 62
     4
100
AcDbLine
 10
243.613185707288
 20
215.142002166136
 30
0.0
 11
243.238185707288
 21
215.142002166136
 31
0.0
  0
LINE
  5
26A
330
1F
100
AcDbEntity
  8
1
  6
Continuous
 62
     4
100
AcDbLine
 10
241.738185707288
 20
218.267002166136
 30
0.0
 11
241.738185707288
 21
217.017002166136
 31
0.0
  0
LINE
  5
26B
330
1F
100
AcDbEntity
  8
1
  6
Continuous
 62
     4
100
AcDbLine
 10
241.613185707288
 20
219.017002166136
 30
0.0
 11
241.738185707288
 21
218.267002166136
 31
0.0
  0
LINE
  5
26C
330
1F
100
AcDbEntity
  8
1
  6
Continuous
 62
     4
100
AcDbLine
 10
241.363185707288
 20
219.517002166136
 30
0.0
 11
241.613185707288
 21
219.017002166136
 31
0.0
  0
LINE
  5
26D
330
1F
100
AcDbEntity
  8
1
  6
Continuous
 62
     4
100
AcDbLine
 10
241.113185707288
 20
219.767002166136
 30
0.0
 11
241.363185707288
 21
219.517002166136
 31
0.0
  0
LINE
  5
26E
330
1F
100
AcDbEntity
  8
1
  6
Continuous
 62
     4
100
AcDbLine
 10
240.738185707288
 20
220.017002166136
 30
0.0
 11
241.113185707288
 21
219.767002166136
 31
0.0
  0
LINE
  5
26F
330
1F
100
AcDbEntity
  8
1
  6
Continuous
 62
     4
100
AcDbLine
 10
240.363185707288
 20
220.142002166136
 30
0.0
 11
240.738185707288
 21
220.017002166136
 31
0.0
  0
LINE
  5
270
330
1F
100
AcDbEntity
  8
1
  6
Continuous
 62
     4
100
AcDbLine
 10
240.113185707288
 20
220.142002166136
 30
0.0
 11
240.363185707288
 21
220.142002166136
 31
0.0
  0
LINE
  5
271
330
1F
100
AcDbEntity
  8
1
  6
Continuous
 62
     4
100
AcDbLine
 10
239.738185707288
 20
220.017002166136
 30
0.0
 11
240.113185707288
 21
220.142002166136
 31
0.0
  0
LINE
  5
272
330
1F
100
AcDbEntity
  8
1
  6
Continuous
 62
     4
100
AcDbLine
 10
239.363185707288
 20
219.767002166136
 30
0.0
 11
239.738185707288
 21
220.017002166136
 31
0.0
  0
LINE
  5
273
330
1F
100
AcDbEntity
  8
1
  6
Continuous
 62
     4
100
AcDbLine
 10
239.113185707288
 20
219.517002166136
 30
0.0
 11
239.363185707288
 21
219.767002166136
 31
0.0
  0
LINE
  5
274
330
1F
100
AcDbEntity
  8
1
  6
Continuous
 62
     4
100
AcDbLine
 10
238.863185707288
 20
219.017002166136
 30
0.0
 11
239.113185707288
 21
219.517002166136
 31
0.0
  0
LINE
  5
275
330
1F
100
AcDbEntity
  8
1
  6
Continuous
 62
     4
100
AcDbLine
 10
238.738185707288
 20
218.267002166136
 30
0.0
 11
238.863185707288
 21
219.017002166136
 31
0.0
  0
LINE
  5
276
330
1F
100
AcDbEntity
  8
1
  6
Continuous
 62
     4
100
AcDbLine
 10
238.738185707288
 20
217.017002166136
 30
0.0
 11
238.738185707288
 21
218.267002166136
 31
0.0
  0
LINE
  5
277
330
1F
100
AcDbEntity
  8
1
  6
Continuous
 62
     4
100
AcDbLine
 10
238.863185707288
 20
216.267002166136
 30
0.0
 11
238.738185707288
 21
217.017002166136
 31
0.0
  0
LINE
  5
278
330
1F
100
AcDbEntity
  8
1
  6
Continuous
 62
     4
100
AcDbLine
 10
239.113185707288
 20
215.767002166136
 30
0.0
 11
238.863185707288
 21
216.267002166136
 31
0.0
  0
LINE
  5
279
330
1F
100
AcDbEntity
  8
1
  6
Continuous
 62
     4
100
AcDbLine
 10
239.363185707288
 20
215.517002166136
 30
0.0
 11
239.113185707288
 21
215.767002166136
 31
0.0
  0
LINE
  5
27A
330
1F
100
AcDbEntity
  8
1
  6
Continuous
 62
     4
100
AcDbLine
 10
239.738185707288
 20
215.267002166136
 30
0.0
 11
239.363185707288
 21
215.517002166136
 31
0.0
  0
LINE
  5
27B
330
1F
100
AcDbEntity
  8
1
  6
Continuous
 62
     4
100
AcDbLine
 10
240.113185707288
 20
215.142002166136
 30
0.0
 11
239.738185707288
 21
215.267002166136
 31
0.0
  0
LINE
  5
27C
330
1F
100
AcDbEntity
  8
1
  6
Continuous
 62
     4
100
AcDbLine
 10
240.363185707288
 20
215.142002166136
 30
0.0
 11
240.113185707288
 21
215.142002166136
 31
0.0
  0
LINE
  5
27D
330
1F
100
AcDbEntity
  8
1
  6
Continuous
 62
     4
100
AcDbLine
 10
240.738185707288
 20
215.267002166136
 30
0.0
 11
240.363185707288
 21
215.142002166136
 31
0.0
  0
LINE
  5
27E
330
1F
100
AcDbEntity
  8
1
  6
Continuous
 62
     4
100
AcDbLine
 10
241.113185707288
 20
215.517002166136
 30
0.0
 11
240.738185707288
 21
215.267002166136
 31
0.0
  0
LINE
  5
27F
330
1F
100
AcDbEntity
  8
1
  6
Continuous
 62
     4
100
AcDbLine
 10
241.363185707288
 20
215.767002166136
 30
0.0
 11
241.113185707288
 21
215.517002166136
 31
0.0
  0
LINE
  5
280
330
1F
100
AcDbEntity
  8
1
  6
Continuous
 62
     4
100
AcDbLine
 10
241.613185707288
 20
216.267002166136
 30
0.0
 11
241.363185707288
 21
215.767002166136
 31
0.0
  0
LINE
  5
281
330
1F
100
AcDbEntity
  8
1
  6
Continuous
 62
     4
100
AcDbLine
 10
241.738185707288
 20
217.017002166136
 30
0.0
 11
241.613185707288
 21
216.267002166136
 31
0.0
  0
LINE
  5
282
330
1F
100
AcDbEntity
  8
1
  6
Continuous
 62
     4
100
AcDbLine
 10
271.363185707288
 20
226.597002166136
 30
0.0
 11
271.363185707288
 21
225.347002166136
 31
0.0
  0
LINE
  5
283
330
1F
100
AcDbEntity
  8
1
  6
Continuous
 62
     4
100
AcDbLine
 10
271.238185707288
 20
227.347002166136
 30
0.0
 11
271.363185707288
 21
226.597002166136
 31
0.0
  0
LINE
  5
284
330
1F
100
AcDbEntity
  8
1
  6
Continuous
 62
     4
100
AcDbLine
 10
270.988185707288
 20
227.847002166136
 30
0.0
 11
271.238185707288
 21
227.347002166136
 31
0.0
  0
LINE
  5
285
330
1F
100
AcDbEntity
  8
1
  6
Continuous
 62
     4
100
AcDbLine
 10
270.738185707288
 20
228.097002166136
 30
0.0
 11
270.988185707288
 21
227.847002166136
 31
0.0
  0
LINE
  5
286
330
1F
100
AcDbEntity
  8
1
  6
Continuous
 62
     4
100
AcDbLine
 10
270.363185707288
 20
228.347002166136
 30
0.0
 11
270.738185707288
 21
228.097002166136
 31
0.0
  0
LINE
  5
287
330
1F
100
AcDbEntity
  8
1
  6
Continuous
 62
     4
100
AcDbLine
 10
269.988185707288
 20
228.472002166136
 30
0.0
 11
270.363185707288
 21
228.347002166136
 31
0.0
  0
LINE
  5
288
330
1F
100
AcDbEntity
  8
1
  6
Continuous
 62
     4
100
AcDbLine
 10
269.738185707288
 20
228.472002166136
 30
0.0
 11
269.988185707288
 21
228.472002166136
 31
0.0
  0
LINE
  5
289
330
1F
100
AcDbEntity
  8
1
  6
Continuous
 62
     4
100
AcDbLine
 10
269.363185707288
 20
228.347002166136
 30
0.0
 11
269.738185707288
 21
228.472002166136
 31
0.0
  0
LINE
  5
28A
330
1F
100
AcDbEntity
  8
1
  6
Continuous
 62
     4
100
AcDbLine
 10
268.988185707288
 20
228.097002166136
 30
0.0
 11
269.363185707288
 21
228.347002166136
 31
0.0
  0
LINE
  5
28B
330
1F
100
AcDbEntity
  8
1
  6
Continuous
 62
     4
100
AcDbLine
 10
268.738185707288
 20
227.847002166136
 30
0.0
 11
268.988185707288
 21
228.097002166136
 31
0.0
  0
LINE
  5
28C
330
1F
100
AcDbEntity
  8
1
  6
Continuous
 62
     4
100
AcDbLine
 10
268.488185707288
 20
227.347002166136
 30
0.0
 11
268.738185707288
 21
227.847002166136
 31
0.0
  0
LINE
  5
28D
330
1F
100
AcDbEntity
  8
1
  6
Continuous
 62
     4
100
AcDbLine
 10
268.363185707288
 20
226.597002166136
 30
0.0
 11
268.488185707288
 21
227.347002166136
 31
0.0
  0
LINE
  5
28E
330
1F
100
AcDbEntity
  8
1
  6
Continuous
 62
     4
100
AcDbLine
 10
268.363185707288
 20
225.347002166136
 30
0.0
 11
268.363185707288
 21
226.597002166136
 31
0.0
  0
LINE
  5
28F
330
1F
100
AcDbEntity
  8
1
  6
Continuous
 62
     4
100
AcDbLine
 10
268.488185707288
 20
224.597002166136
 30
0.0
 11
268.363185707288
 21
225.347002166136
 31
0.0
  0
LINE
  5
290
330
1F
100
AcDbEntity
  8
1
  6
Continuous
 62
     4
100
AcDbLine
 10
268.738185707288
 20
224.097002166136
 30
0.0
 11
268.488185707288
 21
224.597002166136
 31
0.0
  0
LINE
  5
291
330
1F
100
AcDbEntity
  8
1
  6
Continuous
 62
     4
100
AcDbLine
 10
268.988185707288
 20
223.847002166136
 30
0.0
 11
268.738185707288
 21
224.097002166136
 31
0.0
  0
LINE
  5
292
330
1F
100
AcDbEntity
  8
1
  6
Continuous
 62
     4
100
AcDbLine
 10
269.363185707288
 20
223.597002166136
 30
0.0
 11
268.988185707288
 21
223.847002166136
 31
0.0
  0
LINE
  5
293
330
1F
100
AcDbEntity
  8
1
  6
Continuous
 62
     4
100
AcDbLine
 10
269.738185707288
 20
223.472002166136
 30
0.0
 11
269.363185707288
 21
223.597002166136
 31
0.0
  0
LINE
  5
294
330
1F
100
AcDbEntity
  8
1
  6
Continuous
 62
     4
100
AcDbLine
 10
269.988185707288
 20
223.472002166136
 30
0.0
 11
269.738185707288
 21
223.472002166136
 31
0.0
  0
LINE
  5
295
330
1F
100
AcDbEntity
  8
1
  6
Continuous
 62
     4
100
AcDbLine
 10
270.363185707288
 20
223.597002166136
 30
0.0
 11
269.988185707288
 21
223.472002166136
 31
0.0
  0
LINE
  5
296
330
1F
100
AcDbEntity
  8
1
  6
Continuous
 62
     4
100
AcDbLine
 10
270.738185707288
 20
223.847002166136
 30
0.0
 11
270.363185707288
 21
223.597002166136
 31
0.0
  0
LINE
  5
297
330
1F
100
AcDbEntity
  8
1
  6
Continuous
 62
     4
100
AcDbLine
 10
270.988185707288
 20
224.097002166136
 30
0.0
 11
270.738185707288
 21
223.847002166136
 31
0.0
  0
LINE
  5
298
330
1F
100
AcDbEntity
  8
1
  6
Continuous
 62
     4
100
AcDbLine
 10
271.238185707288
 20
224.597002166136
 30
0.0
 11
270.988185707288
 21
224.097002166136
 31
0.0
  0
LINE
  5
299
330
1F
100
AcDbEntity
  8
1
  6
Continuous
 62
     4
100
AcDbLine
 10
271.363185707288
 20
225.347002166136
 30
0.0
 11
271.238185707288
 21
224.597002166136
 31
0.0
  0
LINE
  5
29A
330
1F
100
AcDbEntity
  8
1
  6
Continuous
 62
     4
100
AcDbLine
 10
266.863185707288
 20
226.597002166136
 30
0.0
 11
266.863185707288
 21
225.347002166136
 31
0.0
  0
LINE
  5
29B
330
1F
100
AcDbEntity
  8
1
  6
Continuous
 62
     4
100
AcDbLine
 10
266.738185707288
 20
227.347002166136
 30
0.0
 11
266.863185707288
 21
226.597002166136
 31
0.0
  0
LINE
  5
29C
330
1F
100
AcDbEntity
  8
1
  6
Continuous
 62
     4
100
AcDbLine
 10
266.488185707288
 20
227.847002166136
 30
0.0
 11
266.738185707288
 21
227.347002166136
 31
0.0
  0
LINE
  5
29D
330
1F
100
AcDbEntity
  8
1
  6
Continuous
 62
     4
100
AcDbLine
 10
266.238185707288
 20
228.097002166136
 30
0.0
 11
266.488185707288
 21
227.847002166136
 31
0.0
  0
LINE
  5
29E
330
1F
100
AcDbEntity
  8
1
  6
Continuous
 62
     4
100
AcDbLine
 10
265.863185707288
 20
228.347002166136
 30
0.0
 11
266.238185707288
 21
228.097002166136
 31
0.0
  0
LINE
  5
29F
330
1F
100
AcDbEntity
  8
1
  6
Continuous
 62
     4
100
AcDbLine
 10
265.488185707288
 20
228.472002166136
 30
0.0
 11
265.863185707288
 21
228.347002166136
 31
0.0
  0
LINE
  5
2A0
330
1F
100
AcDbEntity
  8
1
  6
Continuous
 62
     4
100
AcDbLine
 10
265.238185707288
 20
228.472002166136
 30
0.0
 11
265.488185707288
 21
228.472002166136
 31
0.0
  0
LINE
  5
2A1
330
1F
100
AcDbEntity
  8
1
  6
Continuous
 62
     4
100
AcDbLine
 10
264.863185707288
 20
228.347002166136
 30
0.0
 11
265.238185707288
 21
228.472002166136
 31
0.0
  0
LINE
  5
2A2
330
1F
100
AcDbEntity
  8
1
  6
Continuous
 62
     4
100
AcDbLine
 10
264.488185707288
 20
228.097002166136
 30
0.0
 11
264.863185707288
 21
228.347002166136
 31
0.0
  0
LINE
  5
2A3
330
1F
100
AcDbEntity
  8
1
  6
Continuous
 62
     4
100
AcDbLine
 10
264.238185707288
 20
227.847002166136
 30
0.0
 11
264.488185707288
 21
228.097002166136
 31
0.0
  0
LINE
  5
2A4
330
1F
100
AcDbEntity
  8
1
  6
Continuous
 62
     4
100
AcDbLine
 10
263.988185707288
 20
227.347002166136
 30
0.0
 11
264.238185707288
 21
227.847002166136
 31
0.0
  0
LINE
  5
2A5
330
1F
100
AcDbEntity
  8
1
  6
Continuous
 62
     4
100
AcDbLine
 10
263.863185707288
 20
226.597002166136
 30
0.0
 11
263.988185707288
 21
227.347002166136
 31
0.0
  0
LINE
  5
2A6
330
1F
100
AcDbEntity
  8
1
  6
Continuous
 62
     4
100
AcDbLine
 10
263.863185707288
 20
225.347002166136
 30
0.0
 11
263.863185707288
 21
226.597002166136
 31
0.0
  0
LINE
  5
2A7
330
1F
100
AcDbEntity
  8
1
  6
Continuous
 62
     4
100
AcDbLine
 10
263.988185707288
 20
224.597002166136
 30
0.0
 11
263.863185707288
 21
225.347002166136
 31
0.0
  0
LINE
  5
2A8
330
1F
100
AcDbEntity
  8
1
  6
Continuous
 62
     4
100
AcDbLine
 10
264.238185707288
 20
224.097002166136
 30
0.0
 11
263.988185707288
 21
224.597002166136
 31
0.0
  0
LINE
  5
2A9
330
1F
100
AcDbEntity
  8
1
  6
Continuous
 62
     4
100
AcDbLine
 10
264.488185707288
 20
223.847002166136
 30
0.0
 11
264.238185707288
 21
224.097002166136
 31
0.0
  0
LINE
  5
2AA
330
1F
100
AcDbEntity
  8
1
  6
Continuous
 62
     4
100
AcDbLine
 10
264.863185707288
 20
223.597002166136
 30
0.0
 11
264.488185707288
 21
223.847002166136
 31
0.0
  0
LINE
  5
2AB
330
1F
100
AcDbEntity
  8
1
  6
Continuous
 62
     4
100
AcDbLine
 10
265.238185707288
 20
223.472002166136
 30
0.0
 11
264.863185707288
 21
223.597002166136
 31
0.0
  0
LINE
  5
2AC
330
1F
100
AcDbEntity
  8
1
  6
Continuous
 62
     4
100
AcDbLine
 10
265.488185707288
 20
223.472002166136
 30
0.0
 11
265.238185707288
 21
223.472002166136
 31
0.0
  0
LINE
  5
2AD
330
1F
100
AcDbEntity
  8
1
  6
Continuous
 62
     4
100
AcDbLine
 10
265.863185707288
 20
223.597002166136
 30
0.0
 11
265.488185707288
 21
223.472002166136
 31
0.0
  0
LINE
  5
2AE
330
1F
100
AcDbEntity
  8
1
  6
Continuous
 62
     4
100
AcDbLine
 10
266.238185707288
 20
223.847002166136
 30
0.0
 11
265.863185707288
 21
223.597002166136
 31
0.0
  0
LINE
  5
2AF
330
1F
100
AcDbEntity
  8
1
  6
Continuous
 62
     4
100
AcDbLine
 10
266.488185707288
 20
224.097002166136
 30
0.0
 11
266.238185707288
 21
223.847002166136
 31
0.0
  0
LINE
  5
2B0
330
1F
100
AcDbEntity
  8
1
  6
Continuous
 62
     4
100
AcDbLine
 10
266.738185707288
 20
224.597002166136
 30
0.0
 11
266.488185707288
 21
224.097002166136
 31
0.0
  0
LINE
  5
2B1
330
1F
100
AcDbEntity
  8
1
  6
Continuous
 62
     4
100
AcDbLine
 10
266.863185707288
 20
225.347002166136
 30
0.0
 11
266.738185707288
 21
224.597002166136
 31
0.0
  0
LINE
  5
2B2
330
1F
100
AcDbEntity
  8
1
  6
Continuous
 62
     4
100
AcDbLine
 10
261.238185707288
 20
223.472002166136
 30
0.0
 11
259.363185707288
 21
223.472002166136
 31
0.0
  0
LINE
  5
2B3
330
1F
100
AcDbEntity
  8
1
  6
Continuous
 62
     4
100
AcDbLine
 10
261.613185707288
 20
223.597002166136
 30
0.0
 11
261.238185707288
 21
223.472002166136
 31
0.0
  0
LINE
  5
2B4
330
1F
100
AcDbEntity
  8
1
  6
Continuous
 62
     4
100
AcDbLine
 10
261.988185707288
 20
223.847002166136
 30
0.0
 11
261.613185707288
 21
223.597002166136
 31
0.0
  0
LINE
  5
2B5
330
1F
100
AcDbEntity
  8
1
  6
Continuous
 62
     4
100
AcDbLine
 10
262.238185707288
 20
224.222002166136
 30
0.0
 11
261.988185707288
 21
223.847002166136
 31
0.0
  0
LINE
  5
2B6
330
1F
100
AcDbEntity
  8
1
  6
Continuous
 62
     4
100
AcDbLine
 10
262.363185707288
 20
224.722002166136
 30
0.0
 11
262.238185707288
 21
224.222002166136
 31
0.0
  0
LINE
  5
2B7
330
1F
100
AcDbEntity
  8
1
  6
Continuous
 62
     4
100
AcDbLine
 10
262.363185707288
 20
225.347002166136
 30
0.0
 11
262.363185707288
 21
224.722002166136
 31
0.0
  0
LINE
  5
2B8
330
1F
100
AcDbEntity
  8
1
  6
Continuous
 62
     4
100
AcDbLine
 10
262.238185707288
 20
225.847002166136
 30
0.0
 11
262.363185707288
 21
225.347002166136
 31
0.0
  0
LINE
  5
2B9
330
1F
100
AcDbEntity
  8
1
  6
Continuous
 62
     4
100
AcDbLine
 10
262.113185707288
 20
226.097002166136
 30
0.0
 11
262.238185707288
 21
225.847002166136
 31
0.0
  0
LINE
  5
2BA
330
1F
100
AcDbEntity
  8
1
  6
Continuous
 62
     4
100
AcDbLine
 10
261.863185707288
 20
226.347002166136
 30
0.0
 11
262.113185707288
 21
226.097002166136
 31
0.0
  0
LINE
  5
2BB
330
1F
100
AcDbEntity
  8
1
  6
Continuous
 62
     4
100
AcDbLine
 10
261.363185707288
 20
226.472002166136
 30
0.0
 11
261.863185707288
 21
226.347002166136
 31
0.0
  0
LINE
  5
2BC
330
1F
100
AcDbEntity
  8
1
  6
Continuous
 62
     4
100
AcDbLine
 10
261.738185707288
 20
226.597002166136
 30
0.0
 11
261.363185707288
 21
226.472002166136
 31
0.0
  0
LINE
  5
2BD
330
1F
100
AcDbEntity
  8
1
  6
Continuous
 62
     4
100
AcDbLine
 10
261.988185707288
 20
226.722002166136
 30
0.0
 11
261.738185707288
 21
226.597002166136
 31
0.0
  0
LINE
  5
2BE
330
1F
100
AcDbEntity
  8
1
  6
Continuous
 62
     4
100
AcDbLine
 10
262.238185707288
 20
226.972002166136
 30
0.0
 11
261.988185707288
 21
226.722002166136
 31
0.0
  0
LINE
  5
2BF
330
1F
100
AcDbEntity
  8
1
  6
Continuous
 62
     4
100
AcDbLine
 10
262.363185707288
 20
227.347002166136
 30
0.0
 11
262.238185707288
 21
226.972002166136
 31
0.0
  0
LINE
  5
2C0
330
1F
100
AcDbEntity
  8
1
  6
Continuous
 62
     4
100
AcDbLine
 10
262.363185707288
 20
227.722002166136
 30
0.0
 11
262.363185707288
 21
227.347002166136
 31
0.0
  0
LINE
  5
2C1
330
1F
100
AcDbEntity
  8
1
  6
Continuous
 62
     4
100
AcDbLine
 10
262.238185707288
 20
228.097002166136
 30
0.0
 11
262.363185707288
 21
227.722002166136
 31
0.0
  0
LINE
  5
2C2
330
1F
100
AcDbEntity
  8
1
  6
Continuous
 62
     4
100
AcDbLine
 10
261.863185707288
 20
228.347002166136
 30
0.0
 11
262.238185707288
 21
228.097002166136
 31
0.0
  0
LINE
  5
2C3
330
1F
100
AcDbEntity
  8
1
  6
Continuous
 62
     4
100
AcDbLine
 10
261.238185707288
 20
228.472002166136
 30
0.0
 11
261.863185707288
 21
228.347002166136
 31
0.0
  0
LINE
  5
2C4
330
1F
100
AcDbEntity
  8
1
  6
Continuous
 62
     4
100
AcDbLine
 10
259.363185707288
 20
228.472002166136
 30
0.0
 11
261.238185707288
 21
228.472002166136
 31
0.0
  0
LINE
  5
2C5
330
1F
100
AcDbEntity
  8
1
  6
Continuous
 62
     4
100
AcDbLine
 10
260.113185707288
 20
226.472002166136
 30
0.0
 11
261.363185707288
 21
226.472002166136
 31
0.0
  0
LINE
  5
2C6
330
1F
100
AcDbEntity
  8
1
  6
Continuous
 62
     4
100
AcDbLine
 10
246.738185707288
 20
223.472002166136
 30
0.0
 11
244.863185707288
 21
223.472002166136
 31
0.0
  0
LINE
  5
2C7
330
1F
100
AcDbEntity
  8
1
  6
Continuous
 62
     4
100
AcDbLine
 10
247.113185707288
 20
223.597002166136
 30
0.0
 11
246.738185707288
 21
223.472002166136
 31
0.0
  0
LINE
  5
2C8
330
1F
100
AcDbEntity
  8
1
  6
Continuous
 62
     4
100
AcDbLine
 10
247.488185707288
 20
223.847002166136
 30
0.0
 11
247.113185707288
 21
223.597002166136
 31
0.0
  0
LINE
  5
2C9
330
1F
100
AcDbEntity
  8
1
  6
Continuous
 62
     4
100
AcDbLine
 10
247.738185707288
 20
224.222002166136
 30
0.0
 11
247.488185707288
 21
223.847002166136
 31
0.0
  0
LINE
  5
2CA
330
1F
100
AcDbEntity
  8
1
  6
Continuous
 62
     4
100
AcDbLine
 10
247.863185707288
 20
224.722002166136
 30
0.0
 11
247.738185707288
 21
224.222002166136
 31
0.0
  0
LINE
  5
2CB
330
1F
100
AcDbEntity
  8
1
  6
Continuous
 62
     4
100
AcDbLine
 10
247.863185707288
 20
225.347002166136
 30
0.0
 11
247.863185707288
 21
224.722002166136
 31
0.0
  0
LINE
  5
2CC
330
1F
100
AcDbEntity
  8
1
  6
Continuous
 62
     4
100
AcDbLine
 10
247.738185707288
 20
225.847002166136
 30
0.0
 11
247.863185707288
 21
225.347002166136
 31
0.0
  0
LINE
  5
2CD
330
1F
100
AcDbEntity
  8
1
  6
Continuous
 62
     4
100
AcDbLine
 10
247.613185707288
 20
226.097002166136
 30
0.0
 11
247.738185707288
 21
225.847002166136
 31
0.0
  0
LINE
  5
2CE
330
1F
100
AcDbEntity
  8
1
  6
Continuous
 62
     4
100
AcDbLine
 10
247.363185707288
 20
226.347002166136
 30
0.0
 11
247.613185707288
 21
226.097002166136
 31
0.0
  0
LINE
  5
2CF
330
1F
100
AcDbEntity
  8
1
  6
Continuous
 62
     4
100
AcDbLine
 10
246.863185707288
 20
226.472002166136
 30
0.0
 11
247.363185707288
 21
226.347002166136
 31
0.0
  0
LINE
  5
2D0
330
1F
100
AcDbEntity
  8
1
  6
Continuous
 62
     4
100
AcDbLine
 10
247.238185707288
 20
226.597002166136
 30
0.0
 11
246.863185707288
 21
226.472002166136
 31
0.0
  0
LINE
  5
2D1
330
1F
100
AcDbEntity
  8
1
  6
Continuous
 62
     4
100
AcDbLine
 10
247.488185707288
 20
226.722002166136
 30
0.0
 11
247.238185707288
 21
226.597002166136
 31
0.0
  0
LINE
  5
2D2
330
1F
100
AcDbEntity
  8
1
  6
Continuous
 62
     4
100
AcDbLine
 10
247.738185707288
 20
226.972002166136
 30
0.0
 11
247.488185707288
 21
226.722002166136
 31
0.0
  0
LINE
  5
2D3
330
1F
100
AcDbEntity
  8
1
  6
Continuous
 62
     4
100
AcDbLine
 10
247.863185707288
 20
227.347002166136
 30
0.0
 11
247.738185707288
 21
226.972002166136
 31
0.0
  0
LINE
  5
2D4
330
1F
100
AcDbEntity
  8
1
  6
Continuous
 62
     4
100
AcDbLine
 10
247.863185707288
 20
227.722002166136
 30
0.0
 11
247.863185707288
 21
227.347002166136
 31
0.0
  0
LINE
  5
2D5
330
1F
100
AcDbEntity
  8
1
  6
Continuous
 62
     4
100
AcDbLine
 10
247.738185707288
 20
228.097002166136
 30
0.0
 11
247.863185707288
 21
227.722002166136
 31
0.0
  0
LINE
  5
2D6
330
1F
100
AcDbEntity
  8
1
  6
Continuous
 62
     4
100
AcDbLine
 10
247.363185707288
 20
228.347002166136
 30
0.0
 11
247.738185707288
 21
228.097002166136
 31
0.0
  0
LINE
  5
2D7
330
1F
100
AcDbEntity
  8
1
  6
Continuous
 62
     4
100
AcDbLine
 10
246.738185707288
 20
228.472002166136
 30
0.0
 11
247.363185707288
 21
228.347002166136
 31
0.0
  0
LINE
  5
2D8
330
1F
100
AcDbEntity
  8
1
  6
Continuous
 62
     4
100
AcDbLine
 10
244.863185707288
 20
228.472002166136
 30
0.0
 11
246.738185707288
 21
228.472002166136
 31
0.0
  0
LINE
  5
2D9
330
1F
100
AcDbEntity
  8
1
  6
Continuous
 62
     4
100
AcDbLine
 10
245.613185707288
 20
226.472002166136
 30
0.0
 11
246.863185707288
 21
226.472002166136
 31
0.0
  0
LINE
  5
2DA
330
1F
100
AcDbEntity
  8
1
  6
Continuous
 62
     4
100
AcDbLine
 10
243.488185707288
 20
223.722002166136
 30
0.0
 11
243.488185707288
 21
223.597002166136
 31
0.0
  0
LINE
  5
2DB
330
1F
100
AcDbEntity
  8
1
  6
Continuous
 62
     4
100
AcDbLine
 10
243.363185707288
 20
223.722002166136
 30
0.0
 11
243.488185707288
 21
223.722002166136
 31
0.0
  0
LINE
  5
2DC
330
1F
100
AcDbEntity
  8
1
  6
Continuous
 62
     4
100
AcDbLine
 10
243.363185707288
 20
223.597002166136
 30
0.0
 11
243.363185707288
 21
223.722002166136
 31
0.0
  0
LINE
  5
2DD
330
1F
100
AcDbEntity
  8
1
  6
Continuous
 62
     4
100
AcDbLine
 10
243.488185707288
 20
223.597002166136
 30
0.0
 11
243.363185707288
 21
223.597002166136
 31
0.0
  0
LINE
  5
2DE
330
1F
100
AcDbEntity
  8
1
  6
Continuous
 62
     4
100
AcDbLine
 10
243.613185707288
 20
223.847002166136
 30
0.0
 11
243.613185707288
 21
223.472002166136
 31
0.0
  0
LINE
  5
2DF
330
1F
100
AcDbEntity
  8
1
  6
Continuous
 62
     4
100
AcDbLine
 10
243.238185707288
 20
223.847002166136
 30
0.0
 11
243.613185707288
 21
223.847002166136
 31
0.0
  0
LINE
  5
2E0
330
1F
100
AcDbEntity
  8
1
  6
Continuous
 62
     4
100
AcDbLine
 10
243.238185707288
 20
223.472002166136
 30
0.0
 11
243.238185707288
 21
223.847002166136
 31
0.0
  0
LINE
  5
2E1
330
1F
100
AcDbEntity
  8
1
  6
Continuous
 62
     4
100
AcDbLine
 10
243.613185707288
 20
223.472002166136
 30
0.0
 11
243.238185707288
 21
223.472002166136
 31
0.0
  0
LINE
  5
2E2
330
1F
100
AcDbEntity
  8
1
  6
Continuous
 62
     4
100
AcDbLine
 10
241.738185707288
 20
226.597002166136
 30
0.0
 11
241.738185707288
 21
225.347002166136
 31
0.0
  0
LINE
  5
2E3
330
1F
100
AcDbEntity
  8
1
  6
Continuous
 62
     4
100
AcDbLine
 10
241.613185707288
 20
227.347002166136
 30
0.0
 11
241.738185707288
 21
226.597002166136
 31
0.0
  0
LINE
  5
2E4
330
1F
100
AcDbEntity
  8
1
  6
Continuous
 62
     4
100
AcDbLine
 10
241.363185707288
 20
227.847002166136
 30
0.0
 11
241.613185707288
 21
227.347002166136
 31
0.0
  0
LINE
  5
2E5
330
1F
100
AcDbEntity
  8
1
  6
Continuous
 62
     4
100
AcDbLine
 10
241.113185707288
 20
228.097002166136
 30
0.0
 11
241.363185707288
 21
227.847002166136
 31
0.0
  0
LINE
  5
2E6
330
1F
100
AcDbEntity
  8
1
  6
Continuous
 62
     4
100
AcDbLine
 10
240.738185707288
 20
228.347002166136
 30
0.0
 11
241.113185707288
 21
228.097002166136
 31
0.0
  0
LINE
  5
2E7
330
1F
100
AcDbEntity
  8
1
  6
Continuous
 62
     4
100
AcDbLine
 10
240.363185707288
 20
228.472002166136
 30
0.0
 11
240.738185707288
 21
228.347002166136
 31
0.0
  0
LINE
  5
2E8
330
1F
100
AcDbEntity
  8
1
  6
Continuous
 62
     4
100
AcDbLine
 10
240.113185707288
 20
228.472002166136
 30
0.0
 11
240.363185707288
 21
228.472002166136
 31
0.0
  0
LINE
  5
2E9
330
1F
100
AcDbEntity
  8
1
  6
Continuous
 62
     4
100
AcDbLine
 10
239.738185707288
 20
228.347002166136
 30
0.0
 11
240.113185707288
 21
228.472002166136
 31
0.0
  0
LINE
  5
2EA
330
1F
100
AcDbEntity
  8
1
  6
Continuous
 62
     4
100
AcDbLine
 10
239.363185707288
 20
228.097002166136
 30
0.0
 11
239.738185707288
 21
228.347002166136
 31
0.0
  0
LINE
  5
2EB
330
1F
100
AcDbEntity
  8
1
  6
Continuous
 62
     4
100
AcDbLine
 10
239.113185707288
 20
227.847002166136
 30
0.0
 11
239.363185707288
 21
228.097002166136
 31
0.0
  0
LINE
  5
2EC
330
1F
100
AcDbEntity
  8
1
  6
Continuous
 62
     4
100
AcDbLine
 10
238.863185707288
 20
227.347002166136
 30
0.0
 11
239.113185707288
 21
227.847002166136
 31
0.0
  0
LINE
  5
2ED
330
1F
100
AcDbEntity
  8
1
  6
Continuous
 62
     4
100
AcDbLine
 10
238.738185707288
 20
226.597002166136
 30
0.0
 11
238.863185707288
 21
227.347002166136
 31
0.0
  0
LINE
  5
2EE
330
1F
100
AcDbEntity
  8
1
  6
Continuous
 62
     4
100
AcDbLine
 10
238.738185707288
 20
225.347002166136
 30
0.0
 11
238.738185707288
 21
226.597002166136
 31
0.0
  0
LINE
  5
2EF
330
1F
100
AcDbEntity
  8
1
  6
Continuous
 62
     4
100
AcDbLine
 10
238.863185707288
 20
224.597002166136
 30
0.0
 11
238.738185707288
 21
225.347002166136
 31
0.0
  0
LINE
  5
2F0
330
1F
100
AcDbEntity
  8
1
  6
Continuous
 62
     4
100
AcDbLine
 10
239.113185707288
 20
224.097002166136
 30
0.0
 11
238.863185707288
 21
224.597002166136
 31
0.0
  0
LINE
  5
2F1
330
1F
100
AcDbEntity
  8
1
  6
Continuous
 62
     4
100
AcDbLine
 10
239.363185707288
 20
223.847002166136
 30
0.0
 11
239.113185707288
 21
224.097002166136
 31
0.0
  0
LINE
  5
2F2
330
1F
100
AcDbEntity
  8
1
  6
Continuous
 62
     4
100
AcDbLine
 10
239.738185707288
 20
223.597002166136
 30
0.0
 11
239.363185707288
 21
223.847002166136
 31
0.0
  0
LINE
  5
2F3
330
1F
100
AcDbEntity
  8
1
  6
Continuous
 62
     4
100
AcDbLine
 10
240.113185707288
 20
223.472002166136
 30
0.0
 11
239.738185707288
 21
223.597002166136
 31
0.0
  0
LINE
  5
2F4
330
1F
100
AcDbEntity
  8
1
  6
Continuous
 62
     4
100
AcDbLine
 10
240.363185707288
 20
223.472002166136
 30
0.0
 11
240.113185707288
 21
223.472002166136
 31
0.0
  0
LINE
  5
2F5
330
1F
100
AcDbEntity
  8
1
  6
Continuous
 62
     4
100
AcDbLine
 10
240.738185707288
 20
223.597002166136
 30
0.0
 11
240.363185707288
 21
223.472002166136
 31
0.0
  0
LINE
  5
2F6
330
1F
100
AcDbEntity
  8
1
  6
Continuous
 62
     4
100
AcDbLine
 10
241.113185707288
 20
223.847002166136
 30
0.0
 11
240.738185707288
 21
223.597002166136
 31
0.0
  0
LINE
  5
2F7
330
1F
100
AcDbEntity
  8
1
  6
Continuous
 62
     4
100
AcDbLine
 10
241.363185707288
 20
224.097002166136
 30
0.0
 11
241.113185707288
 21
223.847002166136
 31
0.0
  0
LINE
  5
2F8
330
1F
100
AcDbEntity
  8
1
  6
Continuous
 62
     4
100
AcDbLine
 10
241.613185707288
 20
224.597002166136
 30
0.0
 11
241.363185707288
 21
224.097002166136
 31
0.0
  0
LINE
  5
2F9
330
1F
100
AcDbEntity
  8
1
  6
Continuous
 62
     4
100
AcDbLine
 10
241.738185707288
 20
225.347002166136
 30
0.0
 11
241.613185707288
 21
224.597002166136
 31
0.0
  0
LINE
  5
2FA
330
1F
100
AcDbEntity
  8
1
  6
Continuous
 62
     4
100
AcDbLine
 10
268.238185707288
 20
231.802002166136
 30
0.0
 11
268.238185707288
 21
236.802002166136
 31
0.0
  0
LINE
  5
2FB
330
1F
100
AcDbEntity
  8
1
  6
Continuous
 62
     4
100
AcDbLine
 10
271.238185707288
 20
231.802002166136
 30
0.0
 11
268.238185707288
 21
231.802002166136
 31
0.0
  0
LINE
  5
2FC
330
1F
100
AcDbEntity
  8
1
  6
Continuous
 62
     4
100
AcDbLine
 10
256.488185707288
 20
232.802002166136
 30
0.0
 11
255.988185707288
 21
231.802002166136
 31
0.0
  0
LINE
  5
2FD
330
1F
100
AcDbEntity
  8
1
  6
Continuous
 62
     4
100
AcDbLine
 10
256.738185707288
 20
233.802002166136
 30
0.0
 11
256.488185707288
 21
232.802002166136
 31
0.0
  0
LINE
  5
2FE
330
1F
100
AcDbEntity
  8
1
  6
Continuous
 62
     4
100
AcDbLine
 10
256.738185707288
 20
234.802002166136
 30
0.0
 11
256.738185707288
 21
233.802002166136
 31
0.0
  0
LINE
  5
2FF
330
1F
100
AcDbEntity
  8
1
  6
Continuous
 62
     4
100
AcDbLine
 10
256.488185707288
 20
235.802002166136
 30
0.0
 11
256.738185707288
 21
234.802002166136
 31
0.0
  0
LINE
  5
300
330
1F
100
AcDbEntity
  8
1
  6
Continuous
 62
     4
100
AcDbLine
 10
255.988185707288
 20
236.802002166136
 30
0.0
 11
256.488185707288
 21
235.802002166136
 31
0.0
  0
LINE
  5
301
330
1F
100
AcDbEntity
  8
1
  6
Continuous
 62
     4
100
AcDbLine
 10
252.738185707288
 20
235.302002166136
 30
0.0
 11
253.738185707288
 21
235.302002166136
 31
0.0
  0
LINE
  5
302
330
1F
100
AcDbEntity
  8
1
  6
Continuous
 62
     4
100
AcDbLine
 10
252.738185707288
 20
235.302002166136
 30
0.0
 11
252.738185707288
 21
231.802002166136
 31
0.0
  0
LINE
  5
303
330
1F
100
AcDbEntity
  8
1
  6
Continuous
 62
     4
100
AcDbLine
 10
254.488185707288
 20
234.677002166136
 30
0.0
 11
254.488185707288
 21
231.802002166136
 31
0.0
  0
LINE
  5
304
330
1F
100
AcDbEntity
  8
1
  6
Continuous
 62
     4
100
AcDbLine
 10
254.363185707288
 20
234.927002166136
 30
0.0
 11
254.488185707288
 21
234.677002166136
 31
0.0
  0
LINE
  5
305
330
1F
100
AcDbEntity
  8
1
  6
Continuous
 62
     4
100
AcDbLine
 10
254.113185707288
 20
235.177002166136
 30
0.0
 11
254.363185707288
 21
234.927002166136
 31
0.0
  0
LINE
  5
306
330
1F
100
AcDbEntity
  8
1
  6
Continuous
 62
     4
100
AcDbLine
 10
253.738185707288
 20
235.302002166136
 30
0.0
 11
254.113185707288
 21
235.177002166136
 31
0.0
  0
LINE
  5
307
330
1F
100
AcDbEntity
  8
1
  6
Continuous
 62
     4
100
AcDbLine
 10
250.988185707288
 20
235.302002166136
 30
0.0
 11
252.738185707288
 21
235.302002166136
 31
0.0
  0
LINE
  5
308
330
1F
100
AcDbEntity
  8
1
  6
Continuous
 62
     4
100
AcDbLine
 10
250.988185707288
 20
231.802002166136
 30
0.0
 11
250.988185707288
 21
235.302002166136
 31
0.0
  0
LINE
  5
309
330
1F
100
AcDbEntity
  8
1
  6
Continuous
 62
     4
100
AcDbLine
 10
248.988185707288
 20
232.802002166136
 30
0.0
 11
249.488185707288
 21
231.802002166136
 31
0.0
  0
LINE
  5
30A
330
1F
100
AcDbEntity
  8
1
  6
Continuous
 62
     4
100
AcDbLine
 10
248.738185707288
 20
233.802002166136
 30
0.0
 11
248.988185707288
 21
232.802002166136
 31
0.0
  0
LINE
  5
30B
330
1F
100
AcDbEntity
  8
1
  6
Continuous
 62
     4
100
AcDbLine
 10
248.738185707288
 20
234.802002166136
 30
0.0
 11
248.738185707288
 21
233.802002166136
 31
0.0
  0
LINE
  5
30C
330
1F
100
AcDbEntity
  8
1
  6
Continuous
 62
     4
100
AcDbLine
 10
248.988185707288
 20
235.802002166136
 30
0.0
 11
248.738185707288
 21
234.802002166136
 31
0.0
  0
LINE
  5
30D
330
1F
100
AcDbEntity
  8
1
  6
Continuous
 62
     4
100
AcDbLine
 10
249.488185707288
 20
236.802002166136
 30
0.0
 11
248.988185707288
 21
235.802002166136
 31
0.0
  0
LINE
  5
30E
330
1F
100
AcDbEntity
  8
1
  6
Continuous
 62
     4
100
AcDbLine
 10
245.800685707288
 20
232.427002166136
 30
0.0
 11
246.675685707288
 21
232.302002166136
 31
0.0
  0
LINE
  5
30F
330
1F
100
AcDbEntity
  8
1
  6
Continuous
 62
     4
100
AcDbLine
 10
245.238185707288
 20
232.739502166136
 30
0.0
 11
245.800685707288
 21
232.427002166136
 31
0.0
  0
LINE
  5
310
330
1F
100
AcDbEntity
  8
1
  6
Continuous
 62
     4
100
AcDbLine
 10
244.988185707288
 20
233.239502166136
 30
0.0
 11
245.238185707288
 21
232.739502166136
 31
0.0
  0
LINE
  5
311
330
1F
100
AcDbEntity
  8
1
  6
Continuous
 62
     4
100
AcDbLine
 10
245.238185707288
 20
233.677002166136
 30
0.0
 11
244.988185707288
 21
233.239502166136
 31
0.0
  0
LINE
  5
312
330
1F
100
AcDbEntity
  8
1
  6
Continuous
 62
     4
100
AcDbLine
 10
246.113185707288
 20
233.989502166136
 30
0.0
 11
245.238185707288
 21
233.677002166136
 31
0.0
  0
LINE
  5
313
330
1F
100
AcDbEntity
  8
1
  6
Continuous
 62
     4
100
AcDbLine
 10
247.050685707288
 20
233.864502166136
 30
0.0
 11
246.113185707288
 21
233.989502166136
 31
0.0
  0
LINE
  5
314
330
1F
100
AcDbEntity
  8
1
  6
Continuous
 62
     4
100
AcDbLine
 10
246.488185707288
 20
234.927002166136
 30
0.0
 11
247.050685707288
 21
233.864502166136
 31
0.0
  0
LINE
  5
315
330
1F
100
AcDbEntity
  8
1
  6
Continuous
 62
     4
100
AcDbLine
 10
245.550685707288
 20
236.364502166136
 30
0.0
 11
246.488185707288
 21
234.927002166136
 31
0.0
  0
LINE
  5
316
330
1F
100
AcDbEntity
  8
1
  6
Continuous
 62
     4
100
AcDbLine
 10
245.988185707288
 20
235.427002166136
 30
0.0
 11
246.925685707288
 21
235.864502166136
 31
0.0
  0
LINE
  5
317
330
1F
100
AcDbEntity
  8
1
  6
Continuous
 62
     4
100
AcDbLine
 10
244.863185707288
 20
235.114502166136
 30
0.0
 11
245.988185707288
 21
235.427002166136
 31
0.0
  0
LINE
  5
318
330
1F
100
AcDbEntity
  8
1
  6
Continuous
 62
     4
100
AcDbLine
 10
239.988185707288
 20
235.864502166136
 30
0.0
 11
239.988185707288
 21
232.302002166136
 31
0.0
  0
LINE
  5
319
330
1F
100
AcDbEntity
  8
1
  6
Continuous
 62
     4
100
AcDbLine
 10
241.925685707288
 20
232.427002166136
 30
0.0
 11
243.050685707288
 21
231.989502166136
 31
0.0
  0
LINE
  5
31A
330
1F
100
AcDbEntity
  8
1
  6
Continuous
 62
     4
100
AcDbLine
 10
241.363185707288
 20
233.052002166136
 30
0.0
 11
241.925685707288
 21
232.427002166136
 31
0.0
  0
LINE
  5
31B
330
1F
100
AcDbEntity
  8
1
  6
Continuous
 62
     4
100
AcDbLine
 10
240.800685707288
 20
233.989502166136
 30
0.0
 11
241.363185707288
 21
233.052002166136
 31
0.0
  0
LINE
  5
31C
330
1F
100
AcDbEntity
  8
1
  6
Continuous
 62
     4
100
AcDbLine
 10
239.988185707288
 20
236.677002166136
 30
0.0
 11
239.988185707288
 21
235.864502166136
 31
0.0
  0
LINE
  5
31D
330
1F
100
AcDbEntity
  8
1
  6
Continuous
 62
     4
100
AcDbLine
 10
242.238185707288
 20
236.677002166136
 30
0.0
 11
239.988185707288
 21
236.677002166136
 31
0.0
  0
LINE
  5
31E
330
1F
100
AcDbEntity
  8
1
  6
Continuous
 62
     4
100
AcDbLine
 10
242.050685707288
 20
235.864502166136
 30
0.0
 11
239.988185707288
 21
235.864502166136
 31
0.0
  0
LINE
  5
31F
330
1F
100
AcDbEntity
  8
1
  6
Continuous
 62
     4
100
AcDbLine
 10
239.988185707288
 20
235.114502166136
 30
0.0
 11
242.050685707288
 21
235.114502166136
 31
0.0
  0
LINE
  5
320
330
1F
100
AcDbEntity
  8
1
  6
Continuous
 62
     4
100
AcDbLine
 10
243.050685707288
 20
234.302002166136
 30
0.0
 11
238.863185707288
 21
234.302002166136
 31
0.0
  0
LINE
  5
321
330
1F
100
AcDbEntity
  8
1
  6
Continuous
 62
     4
100
AcDbLine
 10
241.363185707288
 20
233.239502166136
 30
0.0
 11
242.363185707288
 21
233.864502166136
 31
0.0
  0
LINE
  5
322
330
1F
100
AcDbEntity
  8
1
  6
Continuous
 62
     4
100
AcDbLine
 10
239.175685707288
 20
231.989502166136
 30
0.0
 11
240.988185707288
 21
232.739502166136
 31
0.0
  0
LINE
  5
323
330
1F
100
AcDbEntity
  8
1
  6
Continuous
 62
     4
100
AcDbLine
 10
237.738185707288
 20
236.052002166136
 30
0.0
 11
238.175685707288
 21
235.552002166136
 31
0.0
  0
LINE
  5
324
330
1F
100
AcDbEntity
  8
1
  6
Continuous
 62
     4
100
AcDbLine
 10
237.363185707288
 20
235.739502166136
 30
0.0
 11
237.738185707288
 21
235.239502166136
 31
0.0
  0
LINE
  5
325
330
1F
100
AcDbEntity
  8
1
  6
Continuous
 62
     4
100
AcDbLine
 10
236.800685707288
 20
234.489502166136
 30
0.0
 11
237.363185707288
 21
233.239502166136
 31
0.0
  0
LINE
  5
326
330
1F
100
AcDbEntity
  8
1
  6
Continuous
 62
     4
100
AcDbLine
 10
236.675685707288
 20
235.552002166136
 30
0.0
 11
236.800685707288
 21
234.489502166136
 31
0.0
  0
LINE
  5
327
330
1F
100
AcDbEntity
  8
1
  6
Continuous
 62
     4
100
AcDbLine
 10
236.675685707288
 20
234.614502166136
 30
0.0
 11
236.675685707288
 21
235.552002166136
 31
0.0
  0
LINE
  5
328
330
1F
100
AcDbEntity
  8
1
  6
Continuous
 62
     4
100
AcDbLine
 10
236.488185707288
 20
233.677002166136
 30
0.0
 11
236.675685707288
 21
234.614502166136
 31
0.0
  0
LINE
  5
329
330
1F
100
AcDbEntity
  8
1
  6
Continuous
 62
     4
100
AcDbLine
 10
236.113185707288
 20
232.739502166136
 30
0.0
 11
236.488185707288
 21
233.677002166136
 31
0.0
  0
LINE
  5
32A
330
1F
100
AcDbEntity
  8
1
  6
Continuous
 62
     4
100
AcDbLine
 10
235.550685707288
 20
232.302002166136
 30
0.0
 11
236.113185707288
 21
232.739502166136
 31
0.0
  0
LINE
  5
32B
330
1F
100
AcDbEntity
  8
1
  6
Continuous
 62
     4
100
AcDbLine
 10
234.988185707288
 20
232.114502166136
 30
0.0
 11
235.550685707288
 21
232.302002166136
 31
0.0
  0
LINE
  5
32C
330
1F
100
AcDbEntity
  8
1
  6
Continuous
 62
     4
100
AcDbLine
 10
234.425685707288
 20
232.302002166136
 30
0.0
 11
234.988185707288
 21
232.114502166136
 31
0.0
  0
LINE
  5
32D
330
1F
100
AcDbEntity
  8
1
  6
Continuous
 62
     4
100
AcDbLine
 10
234.175685707288
 20
232.739502166136
 30
0.0
 11
234.425685707288
 21
232.302002166136
 31
0.0
  0
LINE
  5
32E
330
1F
100
AcDbEntity
  8
1
  6
Continuous
 62
     4
100
AcDbLine
 10
234.175685707288
 20
233.364502166136
 30
0.0
 11
234.175685707288
 21
232.739502166136
 31
0.0
  0
LINE
  5
32F
330
1F
100
AcDbEntity
  8
1
  6
Continuous
 62
     4
100
AcDbLine
 10
234.425685707288
 20
234.177002166136
 30
0.0
 11
234.175685707288
 21
233.364502166136
 31
0.0
  0
LINE
  5
330
330
1F
100
AcDbEntity
  8
1
  6
Continuous
 62
     4
100
AcDbLine
 10
234.863185707288
 20
234.802002166136
 30
0.0
 11
234.425685707288
 21
234.177002166136
 31
0.0
  0
LINE
  5
331
330
1F
100
AcDbEntity
  8
1
  6
Continuous
 62
     4
100
AcDbLine
 10
235.425685707288
 20
235.427002166136
 30
0.0
 11
234.863185707288
 21
234.802002166136
 31
0.0
  0
LINE
  5
332
330
1F
100
AcDbEntity
  8
1
  6
Continuous
 62
     4
100
AcDbLine
 10
234.863185707288
 20
235.239502166136
 30
0.0
 11
235.425685707288
 21
235.427002166136
 31
0.0
  0
LINE
  5
333
330
1F
100
AcDbEntity
  8
1
  6
Continuous
 62
     4
100
AcDbLine
 10
234.175685707288
 20
235.114502166136
 30
0.0
 11
234.863185707288
 21
235.239502166136
 31
0.0
  0
LINE
  5
334
330
1F
100
AcDbEntity
  8
1
  6
Continuous
 62
     4
100
AcDbLine
 10
231.800685707288
 20
231.989502166136
 30
0.0
 11
231.238185707288
 21
231.989502166136
 31
0.0
  0
LINE
  5
335
330
1F
100
AcDbEntity
  8
1
  6
Continuous
 62
     4
100
AcDbLine
 10
231.800685707288
 20
236.052002166136
 30
0.0
 11
231.800685707288
 21
231.989502166136
 31
0.0
  0
LINE
  5
336
330
1F
100
AcDbEntity
  8
1
  6
Continuous
 62
     4
100
AcDbLine
 10
230.675685707288
 20
235.552002166136
 30
0.0
 11
231.113185707288
 21
234.614502166136
 31
0.0
  0
LINE
  5
337
330
1F
100
AcDbEntity
  8
1
  6
Continuous
 62
     4
100
AcDbLine
 10
231.488185707288
 20
236.364502166136
 30
0.0
 11
230.800685707288
 21
236.177002166136
 31
0.0
  0
LINE
  5
338
330
1F
100
AcDbEntity
  8
1
  6
Continuous
 62
     4
100
AcDbLine
 10
232.488185707288
 20
236.677002166136
 30
0.0
 11
231.488185707288
 21
236.364502166136
 31
0.0
  0
LINE
  5
339
330
1F
100
AcDbEntity
  8
1
  6
Continuous
 62
     4
100
AcDbLine
 10
232.363185707288
 20
234.614502166136
 30
0.0
 11
232.738185707288
 21
235.552002166136
 31
0.0
  0
LINE
  5
33A
330
1F
100
AcDbEntity
  8
1
  6
Continuous
 62
     4
100
AcDbLine
 10
230.425685707288
 20
233.989502166136
 30
0.0
 11
233.175685707288
 21
233.989502166136
 31
0.0
  0
LINE
  5
33B
330
1F
100
AcDbEntity
  8
1
  6
Continuous
 62
     4
100
AcDbLine
 10
228.988185707288
 20
236.052002166136
 30
0.0
 11
228.988185707288
 21
233.364502166136
 31
0.0
  0
LINE
  5
33C
330
1F
100
AcDbEntity
  8
1
  6
Continuous
 62
     4
100
AcDbLine
 10
229.988185707288
 20
236.052002166136
 30
0.0
 11
228.988185707288
 21
236.052002166136
 31
0.0
  0
LINE
  5
33D
330
1F
100
AcDbEntity
  8
1
  6
Continuous
 62
     4
100
AcDbLine
 10
229.988185707288
 20
233.364502166136
 30
0.0
 11
229.988185707288
 21
236.052002166136
 31
0.0
  0
LINE
  5
33E
330
1F
100
AcDbEntity
  8
1
  6
Continuous
 62
     4
100
AcDbLine
 10
228.988185707288
 20
233.364502166136
 30
0.0
 11
229.988185707288
 21
233.364502166136
 31
0.0
  0
LINE
  5
33F
330
1F
100
AcDbEntity
  8
1
  6
Continuous
 62
     4
100
AcDbLine
 10
259.238185707288
 20
251.587002166136
 30
0.0
 11
259.238185707288
 21
250.337002166136
 31
0.0
  0
LINE
  5
340
330
1F
100
AcDbEntity
  8
1
  6
Continuous
 62
     4
100
AcDbLine
 10
259.113185707288
 20
252.337002166136
 30
0.0
 11
259.238185707288
 21
251.587002166136
 31
0.0
  0
LINE
  5
341
330
1F
100
AcDbEntity
  8
1
  6
Continuous
 62
     4
100
AcDbLine
 10
258.863185707288
 20
252.837002166136
 30
0.0
 11
259.113185707288
 21
252.337002166136
 31
0.0
  0
LINE
  5
342
330
1F
100
AcDbEntity
  8
1
  6
Continuous
 62
     4
100
AcDbLine
 10
258.613185707288
 20
253.087002166136
 30
0.0
 11
258.863185707288
 21
252.837002166136
 31
0.0
  0
LINE
  5
343
330
1F
100
AcDbEntity
  8
1
  6
Continuous
 62
     4
100
AcDbLine
 10
258.238185707288
 20
253.337002166136
 30
0.0
 11
258.613185707288
 21
253.087002166136
 31
0.0
  0
LINE
  5
344
330
1F
100
AcDbEntity
  8
1
  6
Continuous
 62
     4
100
AcDbLine
 10
257.863185707288
 20
253.462002166136
 30
0.0
 11
258.238185707288
 21
253.337002166136
 31
0.0
  0
LINE
  5
345
330
1F
100
AcDbEntity
  8
1
  6
Continuous
 62
     4
100
AcDbLine
 10
257.613185707288
 20
253.462002166136
 30
0.0
 11
257.863185707288
 21
253.462002166136
 31
0.0
  0
LINE
  5
346
330
1F
100
AcDbEntity
  8
1
  6
Continuous
 62
     4
100
AcDbLine
 10
257.238185707288
 20
253.337002166136
 30
0.0
 11
257.613185707288
 21
253.462002166136
 31
0.0
  0
LINE
  5
347
330
1F
100
AcDbEntity
  8
1
  6
Continuous
 62
     4
100
AcDbLine
 10
256.863185707288
 20
253.087002166136
 30
0.0
 11
257.238185707288
 21
253.337002166136
 31
0.0
  0
LINE
  5
348
330
1F
100
AcDbEntity
  8
1
  6
Continuous
 62
     4
100
AcDbLine
 10
256.613185707288
 20
252.837002166136
 30
0.0
 11
256.863185707288
 21
253.087002166136
 31
0.0
  0
LINE
  5
349
330
1F
100
AcDbEntity
  8
1
  6
Continuous
 62
     4
100
AcDbLine
 10
256.363185707288
 20
252.337002166136
 30
0.0
 11
256.613185707288
 21
252.837002166136
 31
0.0
  0
LINE
  5
34A
330
1F
100
AcDbEntity
  8
1
  6
Continuous
 62
     4
100
AcDbLine
 10
256.238185707288
 20
251.587002166136
 30
0.0
 11
256.363185707288
 21
252.337002166136
 31
0.0
  0
LINE
  5
34B
330
1F
100
AcDbEntity
  8
1
  6
Continuous
 62
     4
100
AcDbLine
 10
256.238185707288
 20
250.337002166136
 30
0.0
 11
256.238185707288
 21
251.587002166136
 31
0.0
  0
LINE
  5
34C
330
1F
100
AcDbEntity
  8
1
  6
Continuous
 62
     4
100
AcDbLine
 10
256.363185707288
 20
249.587002166136
 30
0.0
 11
256.238185707288
 21
250.337002166136
 31
0.0
  0
LINE
  5
34D
330
1F
100
AcDbEntity
  8
1
  6
Continuous
 62
     4
100
AcDbLine
 10
256.613185707288
 20
249.087002166136
 30
0.0
 11
256.363185707288
 21
249.587002166136
 31
0.0
  0
LINE
  5
34E
330
1F
100
AcDbEntity
  8
1
  6
Continuous
 62
     4
100
AcDbLine
 10
256.863185707288
 20
248.837002166136
 30
0.0
 11
256.613185707288
 21
249.087002166136
 31
0.0
  0
LINE
  5
34F
330
1F
100
AcDbEntity
  8
1
  6
Continuous
 62
     4
100
AcDbLine
 10
257.238185707288
 20
248.587002166136
 30
0.0
 11
256.863185707288
 21
248.837002166136
 31
0.0
  0
LINE
  5
350
330
1F
100
AcDbEntity
  8
1
  6
Continuous
 62
     4
100
AcDbLine
 10
257.613185707288
 20
248.462002166136
 30
0.0
 11
257.238185707288
 21
248.587002166136
 31
0.0
  0
LINE
  5
351
330
1F
100
AcDbEntity
  8
1
  6
Continuous
 62
     4
100
AcDbLine
 10
257.863185707288
 20
248.462002166136
 30
0.0
 11
257.613185707288
 21
248.462002166136
 31
0.0
  0
LINE
  5
352
330
1F
100
AcDbEntity
  8
1
  6
Continuous
 62
     4
100
AcDbLine
 10
258.238185707288
 20
248.587002166136
 30
0.0
 11
257.863185707288
 21
248.462002166136
 31
0.0
  0
LINE
  5
353
330
1F
100
AcDbEntity
  8
1
  6
Continuous
 62
     4
100
AcDbLine
 10
258.613185707288
 20
248.837002166136
 30
0.0
 11
258.238185707288
 21
248.587002166136
 31
0.0
  0
LINE
  5
354
330
1F
100
AcDbEntity
  8
1
  6
Continuous
 62
     4
100
AcDbLine
 10
258.863185707288
 20
249.087002166136
 30
0.0
 11
258.613185707288
 21
248.837002166136
 31
0.0
  0
LINE
  5
355
330
1F
100
AcDbEntity
  8
1
  6
Continuous
 62
     4
100
AcDbLine
 10
259.113185707288
 20
249.587002166136
 30
0.0
 11
258.863185707288
 21
249.087002166136
 31
0.0
  0
LINE
  5
356
330
1F
100
AcDbEntity
  8
1
  6
Continuous
 62
     4
100
AcDbLine
 10
259.238185707288
 20
250.337002166136
 30
0.0
 11
259.113185707288
 21
249.587002166136
 31
0.0
  0
LINE
  5
357
330
1F
100
AcDbEntity
  8
1
  6
Continuous
 62
     4
100
AcDbLine
 10
251.738185707288
 20
248.462002166136
 30
0.0
 11
254.738185707288
 21
248.462002166136
 31
0.0
  0
LINE
  5
358
330
1F
100
AcDbEntity
  8
1
  6
Continuous
 62
     4
100
AcDbLine
 10
254.488185707288
 20
251.712002166136
 30
0.0
 11
251.738185707288
 21
248.462002166136
 31
0.0
  0
LINE
  5
359
330
1F
100
AcDbEntity
  8
1
  6
Continuous
 62
     4
100
AcDbLine
 10
254.738185707288
 20
252.212002166136
 30
0.0
 11
254.488185707288
 21
251.712002166136
 31
0.0
  0
LINE
  5
35A
330
1F
100
AcDbEntity
  8
1
  6
Continuous
 62
     4
100
AcDbLine
 10
254.738185707288
 20
252.712002166136
 30
0.0
 11
254.738185707288
 21
252.212002166136
 31
0.0
  0
LINE
  5
35B
330
1F
100
AcDbEntity
  8
1
  6
Continuous
 62
     4
100
AcDbLine
 10
254.488185707288
 20
253.087002166136
 30
0.0
 11
254.738185707288
 21
252.712002166136
 31
0.0
  0
LINE
  5
35C
330
1F
100
AcDbEntity
  8
1
  6
Continuous
 62
     4
100
AcDbLine
 10
254.113185707288
 20
253.337002166136
 30
0.0
 11
254.488185707288
 21
253.087002166136
 31
0.0
  0
LINE
  5
35D
330
1F
100
AcDbEntity
  8
1
  6
Continuous
 62
     4
100
AcDbLine
 10
253.613185707288
 20
253.462002166136
 30
0.0
 11
254.113185707288
 21
253.337002166136
 31
0.0
  0
LINE
  5
35E
330
1F
100
AcDbEntity
  8
1
  6
Continuous
 62
     4
100
AcDbLine
 10
252.863185707288
 20
253.462002166136
 30
0.0
 11
253.613185707288
 21
253.462002166136
 31
0.0
  0
LINE
  5
35F
330
1F
100
AcDbEntity
  8
1
  6
Continuous
 62
     4
100
AcDbLine
 10
252.363185707288
 20
253.337002166136
 30
0.0
 11
252.863185707288
 21
253.462002166136
 31
0.0
  0
LINE
  5
360
330
1F
100
AcDbEntity
  8
1
  6
Continuous
 62
     4
100
AcDbLine
 10
251.988185707288
 20
253.087002166136
 30
0.0
 11
252.363185707288
 21
253.337002166136
 31
0.0
  0
LINE
  5
361
330
1F
100
AcDbEntity
  8
1
  6
Continuous
 62
     4
100
AcDbLine
 10
251.738185707288
 20
252.712002166136
 30
0.0
 11
251.988185707288
 21
253.087002166136
 31
0.0
  0
LINE
  5
362
330
1F
100
AcDbEntity
  8
1
  6
Continuous
 62
     4
100
AcDbLine
 10
247.738185707288
 20
250.212002166136
 30
0.0
 11
250.238185707288
 21
250.212002166136
 31
0.0
  0
LINE
  5
363
330
1F
100
AcDbEntity
  8
1
  6
Continuous
 62
     4
100
AcDbLine
 10
242.988185707288
 20
248.837002166136
 30
0.0
 11
242.738185707288
 21
249.087002166136
 31
0.0
  0
LINE
  5
364
330
1F
100
AcDbEntity
  8
1
  6
Continuous
 62
     4
100
AcDbLine
 10
243.488185707288
 20
248.587002166136
 30
0.0
 11
242.988185707288
 21
248.837002166136
 31
0.0
  0
LINE
  5
365
330
1F
100
AcDbEntity
  8
1
  6
Continuous
 62
     4
100
AcDbLine
 10
244.113185707288
 20
248.462002166136
 30
0.0
 11
243.488185707288
 21
248.587002166136
 31
0.0
  0
LINE
  5
366
330
1F
100
AcDbEntity
  8
1
  6
Continuous
 62
     4
100
AcDbLine
 10
244.863185707288
 20
248.462002166136
 30
0.0
 11
244.113185707288
 21
248.462002166136
 31
0.0
  0
LINE
  5
367
330
1F
100
AcDbEntity
  8
1
  6
Continuous
 62
     4
100
AcDbLine
 10
245.488185707288
 20
248.587002166136
 30
0.0
 11
244.863185707288
 21
248.462002166136
 31
0.0
  0
LINE
  5
368
330
1F
100
AcDbEntity
  8
1
  6
Continuous
 62
     4
100
AcDbLine
 10
245.863185707288
 20
248.837002166136
 30
0.0
 11
245.488185707288
 21
248.587002166136
 31
0.0
  0
LINE
  5
369
330
1F
100
AcDbEntity
  8
1
  6
Continuous
 62
     4
100
AcDbLine
 10
246.113185707288
 20
249.212002166136
 30
0.0
 11
245.863185707288
 21
248.837002166136
 31
0.0
  0
LINE
  5
36A
330
1F
100
AcDbEntity
  8
1
  6
Continuous
 62
     4
100
AcDbLine
 10
246.238185707288
 20
249.587002166136
 30
0.0
 11
246.113185707288
 21
249.212002166136
 31
0.0
  0
LINE
  5
36B
330
1F
100
AcDbEntity
  8
1
  6
Continuous
 62
     4
100
AcDbLine
 10
246.238185707288
 20
249.837002166136
 30
0.0
 11
246.238185707288
 21
249.587002166136
 31
0.0
  0
LINE
  5
36C
330
1F
100
AcDbEntity
  8
1
  6
Continuous
 62
     4
100
AcDbLine
 10
246.113185707288
 20
250.212002166136
 30
0.0
 11
246.238185707288
 21
249.837002166136
 31
0.0
  0
LINE
  5
36D
330
1F
100
AcDbEntity
  8
1
  6
Continuous
 62
     4
100
AcDbLine
 10
245.863185707288
 20
250.587002166136
 30
0.0
 11
246.113185707288
 21
250.212002166136
 31
0.0
  0
LINE
  5
36E
330
1F
100
AcDbEntity
  8
1
  6
Continuous
 62
     4
100
AcDbLine
 10
245.488185707288
 20
250.837002166136
 30
0.0
 11
245.863185707288
 21
250.587002166136
 31
0.0
  0
LINE
  5
36F
330
1F
100
AcDbEntity
  8
1
  6
Continuous
 62
     4
100
AcDbLine
 10
243.363185707288
 20
251.712002166136
 30
0.0
 11
245.488185707288
 21
250.837002166136
 31
0.0
  0
LINE
  5
370
330
1F
100
AcDbEntity
  8
1
  6
Continuous
 62
     4
100
AcDbLine
 10
242.988185707288
 20
251.962002166136
 30
0.0
 11
243.363185707288
 21
251.712002166136
 31
0.0
  0
LINE
  5
371
330
1F
100
AcDbEntity
  8
1
  6
Continuous
 62
     4
100
AcDbLine
 10
242.863185707288
 20
252.337002166136
 30
0.0
 11
242.988185707288
 21
251.962002166136
 31
0.0
  0
LINE
  5
372
330
1F
100
AcDbEntity
  8
1
  6
Continuous
 62
     4
100
AcDbLine
 10
242.863185707288
 20
252.587002166136
 30
0.0
 11
242.863185707288
 21
252.337002166136
 31
0.0
  0
LINE
  5
373
330
1F
100
AcDbEntity
  8
1
  6
Continuous
 62
     4
100
AcDbLine
 10
242.988185707288
 20
252.962002166136
 30
0.0
 11
242.863185707288
 21
252.587002166136
 31
0.0
  0
LINE
  5
374
330
1F
100
AcDbEntity
  8
1
  6
Continuous
 62
     4
100
AcDbLine
 10
243.363185707288
 20
253.212002166136
 30
0.0
 11
242.988185707288
 21
252.962002166136
 31
0.0
  0
LINE
  5
375
330
1F
100
AcDbEntity
  8
1
  6
Continuous
 62
     4
100
AcDbLine
 10
243.738185707288
 20
253.337002166136
 30
0.0
 11
243.363185707288
 21
253.212002166136
 31
0.0
  0
LINE
  5
376
330
1F
100
AcDbEntity
  8
1
  6
Continuous
 62
     4
100
AcDbLine
 10
244.238185707288
 20
253.462002166136
 30
0.0
 11
243.738185707288
 21
253.337002166136
 31
0.0
  0
LINE
  5
377
330
1F
100
AcDbEntity
  8
1
  6
Continuous
 62
     4
100
AcDbLine
 10
244.738185707288
 20
253.462002166136
 30
0.0
 11
244.238185707288
 21
253.462002166136
 31
0.0
  0
LINE
  5
378
330
1F
100
AcDbEntity
  8
1
  6
Continuous
 62
     4
100
AcDbLine
 10
245.363185707288
 20
253.337002166136
 30
0.0
 11
244.738185707288
 21
253.462002166136
 31
0.0
  0
LINE
  5
379
330
1F
100
AcDbEntity
  8
1
  6
Continuous
 62
     4
100
AcDbLine
 10
245.738185707288
 20
253.212002166136
 30
0.0
 11
245.363185707288
 21
253.337002166136
 31
0.0
  0
LINE
  5
37A
330
1F
100
AcDbEntity
  8
1
  6
Continuous
 62
     4
100
AcDbLine
 10
246.113185707288
 20
252.962002166136
 30
0.0
 11
245.738185707288
 21
253.212002166136
 31
0.0
  0
LINE
  5
37B
330
1F
100
AcDbEntity
  8
1
  6
Continuous
 62
     4
100
AcDbLine
 10
238.738185707288
 20
250.212002166136
 30
0.0
 11
241.238185707288
 21
250.212002166136
 31
0.0
  0
LINE
  5
37C
330
1F
100
AcDbEntity
  8
1
  6
Continuous
 62
     4
100
AcDbLine
 10
237.113185707288
 20
252.462002166136
 30
0.0
 11
237.238185707288
 21
251.962002166136
 31
0.0
  0
LINE
  5
37D
330
1F
100
AcDbEntity
  8
1
  6
Continuous
 62
     4
100
AcDbLine
 10
236.863185707288
 20
252.837002166136
 30
0.0
 11
237.113185707288
 21
252.462002166136
 31
0.0
  0
LINE
  5
37E
330
1F
100
AcDbEntity
  8
1
  6
Continuous
 62
     4
100
AcDbLine
 10
236.613185707288
 20
253.087002166136
 30
0.0
 11
236.863185707288
 21
252.837002166136
 31
0.0
  0
LINE
  5
37F
330
1F
100
AcDbEntity
  8
1
  6
Continuous
 62
     4
100
AcDbLine
 10
236.238185707288
 20
253.337002166136
 30
0.0
 11
236.613185707288
 21
253.087002166136
 31
0.0
  0
LINE
  5
380
330
1F
100
AcDbEntity
  8
1
  6
Continuous
 62
     4
100
AcDbLine
 10
235.738185707288
 20
253.462002166136
 30
0.0
 11
236.238185707288
 21
253.337002166136
 31
0.0
  0
LINE
  5
381
330
1F
100
AcDbEntity
  8
1
  6
Continuous
 62
     4
100
AcDbLine
 10
233.738185707288
 20
253.462002166136
 30
0.0
 11
235.738185707288
 21
253.462002166136
 31
0.0
  0
LINE
  5
382
330
1F
100
AcDbEntity
  8
1
  6
Continuous
 62
     4
100
AcDbLine
 10
233.738185707288
 20
248.462002166136
 30
0.0
 11
233.738185707288
 21
253.462002166136
 31
0.0
  0
LINE
  5
383
330
1F
100
AcDbEntity
  8
1
  6
Continuous
 62
     4
100
AcDbLine
 10
235.738185707288
 20
248.462002166136
 30
0.0
 11
233.738185707288
 21
248.462002166136
 31
0.0
  0
LINE
  5
384
330
1F
100
AcDbEntity
  8
1
  6
Continuous
 62
     4
100
AcDbLine
 10
236.238185707288
 20
248.587002166136
 30
0.0
 11
235.738185707288
 21
248.462002166136
 31
0.0
  0
LINE
  5
385
330
1F
100
AcDbEntity
  8
1
  6
Continuous
 62
     4
100
AcDbLine
 10
236.613185707288
 20
248.837002166136
 30
0.0
 11
236.238185707288
 21
248.587002166136
 31
0.0
  0
LINE
  5
386
330
1F
100
AcDbEntity
  8
1
  6
Continuous
 62
     4
100
AcDbLine
 10
236.863185707288
 20
249.087002166136
 30
0.0
 11
236.613185707288
 21
248.837002166136
 31
0.0
  0
LINE
  5
387
330
1F
100
AcDbEntity
  8
1
  6
Continuous
 62
     4
100
AcDbLine
 10
237.113185707288
 20
249.462002166136
 30
0.0
 11
236.863185707288
 21
249.087002166136
 31
0.0
  0
LINE
  5
388
330
1F
100
AcDbEntity
  8
1
  6
Continuous
 62
     4
100
AcDbLine
 10
237.238185707288
 20
249.962002166136
 30
0.0
 11
237.113185707288
 21
249.462002166136
 31
0.0
  0
LINE
  5
389
330
1F
100
AcDbEntity
  8
1
  6
Continuous
 62
     4
100
AcDbLine
 10
237.238185707288
 20
251.962002166136
 30
0.0
 11
237.238185707288
 21
249.962002166136
 31
0.0
  0
LINE
  5
38A
330
1F
100
AcDbEntity
  8
1
  6
Continuous
 62
     4
100
AcDbLine
 10
232.238185707288
 20
253.462002166136
 30
0.0
 11
232.238185707288
 21
248.462002166136
 31
0.0
  0
LINE
  5
38B
330
1F
100
AcDbEntity
  8
1
  6
Continuous
 62
     4
100
AcDbLine
 10
230.488185707288
 20
250.712002166136
 30
0.0
 11
232.238185707288
 21
253.462002166136
 31
0.0
  0
LINE
  5
38C
330
1F
100
AcDbEntity
  8
1
  6
Continuous
 62
     4
100
AcDbLine
 10
228.738185707288
 20
253.462002166136
 30
0.0
 11
230.488185707288
 21
250.712002166136
 31
0.0
  0
LINE
  5
38D
330
1F
100
AcDbEntity
  8
1
  6
Continuous
 62
     4
100
AcDbLine
 10
228.738185707288
 20
248.462002166136
 30
0.0
 11
228.738185707288
 21
253.462002166136
 31
0.0
  0
LINE
  5
38E
330
1F
100
AcDbEntity
  8
1
  6
Continuous
 62
     4
100
AcDbLine
 10
118.899025589302
 20
-35.39763974178
 30
0.0
 11
119.899025589302
 21
-36.02263974178
 31
0.0
  0
LINE
  5
38F
330
1F
100
AcDbEntity
  8
1
  6
Continuous
 62
     4
100
AcDbLine
 10
120.274025589302
 20
-35.08513974178
 30
0.0
 11
119.461525589302
 21
-34.46013974178
 31
0.0
  0
LINE
  5
390
330
1F
100
AcDbEntity
  8
1
  6
Continuous
 62
     4
100
AcDbLine
 10
120.961525589302
 20
-34.33513974178
 30
0.0
 11
121.399025589302
 21
-34.77263974178
 31
0.0
  0
LINE
  5
391
330
1F
100
AcDbEntity
  8
1
  6
Continuous
 62
     4
100
AcDbLine
 10
121.711525589302
 20
-34.46013974178
 30
0.0
 11
121.274025589302
 21
-34.02263974178
 31
0.0
  0
LINE
  5
392
330
1F
100
AcDbEntity
  8
1
  6
Continuous
 62
     4
100
AcDbLine
 10
121.399025589302
 20
-36.33513974178
 30
0.0
 11
122.086525589302
 21
-35.39763974178
 31
0.0
  0
LINE
  5
393
330
1F
100
AcDbEntity
  8
1
  6
Continuous
 62
     4
100
AcDbLine
 10
120.274025589302
 20
-37.27263974178
 30
0.0
 11
121.399025589302
 21
-36.33513974178
 31
0.0
  0
LINE
  5
394
330
1F
100
AcDbEntity
  8
1
  6
Continuous
 62
     4
100
AcDbLine
 10
119.211525589302
 20
-37.89763974178
 30
0.0
 11
120.274025589302
 21
-37.27263974178
 31
0.0
  0
LINE
  5
395
330
1F
100
AcDbEntity
  8
1
  6
Continuous
 62
     4
100
AcDbLine
 10
116.524025589302
 20
-36.52263974178
 30
0.0
 11
116.961525589302
 21
-37.14763974178
 31
0.0
  0
LINE
  5
396
330
1F
100
AcDbEntity
  8
1
  6
Continuous
 62
     4
100
AcDbLine
 10
115.961525589302
 20
-36.02263974178
 30
0.0
 11
116.524025589302
 21
-36.52263974178
 31
0.0
  0
LINE
  5
397
330
1F
100
AcDbEntity
  8
1
  6
Continuous
 62
     4
100
AcDbLine
 10
115.586525589302
 20
-34.02263974178
 30
0.0
 11
115.836525589302
 21
-34.33513974178
 31
0.0
  0
LINE
  5
398
330
1F
100
AcDbEntity
  8
1
  6
Continuous
 62
     4
100
AcDbLine
 10
115.024025589302
 20
-33.71013974178
 30
0.0
 11
115.586525589302
 21
-34.02263974178
 31
0.0
  0
LINE
  5
399
330
1F
100
AcDbEntity
  8
1
  6
Continuous
 62
     4
100
AcDbLine
 10
116.274025589302
 20
-34.96013974178
 30
0.0
 11
114.336525589302
 21
-34.96013974178
 31
0.0
  0
LINE
  5
39A
330
1F
100
AcDbEntity
  8
1
  6
Continuous
 62
     4
100
AcDbLine
 10
115.274025589302
 20
-36.02263974178
 30
0.0
 11
116.274025589302
 21
-34.96013974178
 31
0.0
  0
LINE
  5
39B
330
1F
100
AcDbEntity
  8
1
  6
Continuous
 62
     4
100
AcDbLine
 10
113.899025589302
 20
-36.96013974178
 30
0.0
 11
115.274025589302
 21
-36.02263974178
 31
0.0
  0
LINE
  5
39C
330
1F
100
AcDbEntity
  8
1
  6
Continuous
 62
     4
100
AcDbLine
 10
115.461525589302
 20
-37.89763974178
 30
0.0
 11
115.461525589302
 21
-35.89763974178
 31
0.0
  0
LINE
  5
39D
330
1F
100
AcDbEntity
  8
1
  6
Continuous
 62
     4
100
AcDbLine
 10
110.961525589302
 20
-36.39763974178
 30
0.0
 11
110.961525589302
 21
-38.39763974178
 31
0.0
  0
LINE
  5
39E
330
1F
100
AcDbEntity
  8
1
  6
Continuous
 62
     4
100
AcDbLine
 10
108.711525589302
 20
-37.39763974178
 30
0.0
 11
111.711525589302
 21
-37.39763974178
 31
0.0
  0
LINE
  5
39F
330
1F
100
AcDbEntity
  8
1
  6
Continuous
 62
     4
100
AcDbLine
 10
110.961525589302
 20
-33.39763974178
 30
0.0
 11
108.711525589302
 21
-37.39763974178
 31
0.0
  0
LINE
  5
3A0
330
1F
100
AcDbEntity
  8
1
  6
Continuous
 62
     4
100
AcDbLine
 10
105.211525589302
 20
-38.39763974178
 30
0.0
 11
107.211525589302
 21
-33.39763974178
 31
0.0
  0
LINE
  5
3A1
330
1F
100
AcDbEntity
  8
1
  6
Continuous
 62
     4
100
AcDbLine
 10
102.586525589302
 20
-38.39763974178
 30
0.0
 11
100.711525589302
 21
-38.39763974178
 31
0.0
  0
LINE
  5
3A2
330
1F
100
AcDbEntity
  8
1
  6
Continuous
 62
     4
100
AcDbLine
 10
102.961525589302
 20
-38.27263974178
 30
0.0
 11
102.586525589302
 21
-38.39763974178
 31
0.0
  0
LINE
  5
3A3
330
1F
100
AcDbEntity
  8
1
  6
Continuous
 62
     4
100
AcDbLine
 10
103.336525589302
 20
-38.02263974178
 30
0.0
 11
102.961525589302
 21
-38.27263974178
 31
0.0
  0
LINE
  5
3A4
330
1F
100
AcDbEntity
  8
1
  6
Continuous
 62
     4
100
AcDbLine
 10
103.586525589302
 20
-37.64763974178
 30
0.0
 11
103.336525589302
 21
-38.02263974178
 31
0.0
  0
LINE
  5
3A5
330
1F
100
AcDbEntity
  8
1
  6
Continuous
 62
     4
100
AcDbLine
 10
103.711525589302
 20
-37.14763974178
 30
0.0
 11
103.586525589302
 21
-37.64763974178
 31
0.0
  0
LINE
  5
3A6
330
1F
100
AcDbEntity
  8
1
  6
Continuous
 62
     4
100
AcDbLine
 10
103.711525589302
 20
-36.52263974178
 30
0.0
 11
103.711525589302
 21
-37.14763974178
 31
0.0
  0
LINE
  5
3A7
330
1F
100
AcDbEntity
  8
1
  6
Continuous
 62
     4
100
AcDbLine
 10
103.586525589302
 20
-36.02263974178
 30
0.0
 11
103.711525589302
 21
-36.52263974178
 31
0.0
  0
LINE
  5
3A8
330
1F
100
AcDbEntity
  8
1
  6
Continuous
 62
     4
100
AcDbLine
 10
103.461525589302
 20
-35.77263974178
 30
0.0
 11
103.586525589302
 21
-36.02263974178
 31
0.0
  0
LINE
  5
3A9
330
1F
100
AcDbEntity
  8
1
  6
Continuous
 62
     4
100
AcDbLine
 10
103.211525589302
 20
-35.52263974178
 30
0.0
 11
103.461525589302
 21
-35.77263974178
 31
0.0
  0
LINE
  5
3AA
330
1F
100
AcDbEntity
  8
1
  6
Continuous
 62
     4
100
AcDbLine
 10
102.711525589302
 20
-35.39763974178
 30
0.0
 11
103.211525589302
 21
-35.52263974178
 31
0.0
  0
LINE
  5
3AB
330
1F
100
AcDbEntity
  8
1
  6
Continuous
 62
     4
100
AcDbLine
 10
103.086525589302
 20
-35.27263974178
 30
0.0
 11
102.711525589302
 21
-35.39763974178
 31
0.0
  0
LINE
  5
3AC
330
1F
100
AcDbEntity
  8
1
  6
Continuous
 62
     4
100
AcDbLine
 10
103.336525589302
 20
-35.14763974178
 30
0.0
 11
103.086525589302
 21
-35.27263974178
 31
0.0
  0
LINE
  5
3AD
330
1F
100
AcDbEntity
  8
1
  6
Continuous
 62
     4
100
AcDbLine
 10
103.586525589302
 20
-34.89763974178
 30
0.0
 11
103.336525589302
 21
-35.14763974178
 31
0.0
  0
LINE
  5
3AE
330
1F
100
AcDbEntity
  8
1
  6
Continuous
 62
     4
100
AcDbLine
 10
103.711525589302
 20
-34.52263974178
 30
0.0
 11
103.586525589302
 21
-34.89763974178
 31
0.0
  0
LINE
  5
3AF
330
1F
100
AcDbEntity
  8
1
  6
Continuous
 62
     4
100
AcDbLine
 10
103.711525589302
 20
-34.14763974178
 30
0.0
 11
103.711525589302
 21
-34.52263974178
 31
0.0
  0
LINE
  5
3B0
330
1F
100
AcDbEntity
  8
1
  6
Continuous
 62
     4
100
AcDbLine
 10
103.586525589302
 20
-33.77263974178
 30
0.0
 11
103.711525589302
 21
-34.14763974178
 31
0.0
  0
LINE
  5
3B1
330
1F
100
AcDbEntity
  8
1
  6
Continuous
 62
     4
100
AcDbLine
 10
103.211525589302
 20
-33.52263974178
 30
0.0
 11
103.586525589302
 21
-33.77263974178
 31
0.0
  0
LINE
  5
3B2
330
1F
100
AcDbEntity
  8
1
  6
Continuous
 62
     4
100
AcDbLine
 10
102.586525589302
 20
-33.39763974178
 30
0.0
 11
103.211525589302
 21
-33.52263974178
 31
0.0
  0
LINE
  5
3B3
330
1F
100
AcDbEntity
  8
1
  6
Continuous
 62
     4
100
AcDbLine
 10
100.711525589302
 20
-33.39763974178
 30
0.0
 11
102.586525589302
 21
-33.39763974178
 31
0.0
  0
LINE
  5
3B4
330
1F
100
AcDbEntity
  8
1
  6
Continuous
 62
     4
100
AcDbLine
 10
101.461525589302
 20
-35.39763974178
 30
0.0
 11
102.711525589302
 21
-35.39763974178
 31
0.0
  0
LINE
  5
3B5
330
1F
100
AcDbEntity
  8
1
  6
Continuous
 62
     4
100
AcDbLine
 10
95.711525589302
 20
-38.39763974178
 30
0.0
 11
95.711525589302
 21
-35.89763974178
 31
0.0
  0
LINE
  5
3B6
330
1F
100
AcDbEntity
  8
1
  6
Continuous
 62
     4
100
AcDbLine
 10
97.711525589302
 20
-35.89763974178
 30
0.0
 11
99.211525589302
 21
-38.39763974178
 31
0.0
  0
LINE
  5
3B7
330
1F
100
AcDbEntity
  8
1
  6
Continuous
 62
     4
100
AcDbLine
 10
98.086525589302
 20
-35.89763974178
 30
0.0
 11
97.711525589302
 21
-35.89763974178
 31
0.0
  0
LINE
  5
3B8
330
1F
100
AcDbEntity
  8
1
  6
Continuous
 62
     4
100
AcDbLine
 10
98.586525589302
 20
-35.77263974178
 30
0.0
 11
98.086525589302
 21
-35.89763974178
 31
0.0
  0
LINE
  5
3B9
330
1F
100
AcDbEntity
  8
1
  6
Continuous
 62
     4
100
AcDbLine
 10
98.961525589302
 20
-35.52263974178
 30
0.0
 11
98.586525589302
 21
-35.77263974178
 31
0.0
  0
LINE
  5
3BA
330
1F
100
AcDbEntity
  8
1
  6
Continuous
 62
     4
100
AcDbLine
 10
99.086525589302
 20
-35.27263974178
 30
0.0
 11
98.961525589302
 21
-35.52263974178
 31
0.0
  0
LINE
  5
3BB
330
1F
100
AcDbEntity
  8
1
  6
Continuous
 62
     4
100
AcDbLine
 10
99.211525589302
 20
-34.89763974178
 30
0.0
 11
99.086525589302
 21
-35.27263974178
 31
0.0
  0
LINE
  5
3BC
330
1F
100
AcDbEntity
  8
1
  6
Continuous
 62
     4
100
AcDbLine
 10
99.211525589302
 20
-34.39763974178
 30
0.0
 11
99.211525589302
 21
-34.89763974178
 31
0.0
  0
LINE
  5
3BD
330
1F
100
AcDbEntity
  8
1
  6
Continuous
 62
     4
100
AcDbLine
 10
99.086525589302
 20
-34.02263974178
 30
0.0
 11
99.211525589302
 21
-34.39763974178
 31
0.0
  0
LINE
  5
3BE
330
1F
100
AcDbEntity
  8
1
  6
Continuous
 62
     4
100
AcDbLine
 10
98.961525589302
 20
-33.77263974178
 30
0.0
 11
99.086525589302
 21
-34.02263974178
 31
0.0
  0
LINE
  5
3BF
330
1F
100
AcDbEntity
  8
1
  6
Continuous
 62
     4
100
AcDbLine
 10
98.586525589302
 20
-33.52263974178
 30
0.0
 11
98.961525589302
 21
-33.77263974178
 31
0.0
  0
LINE
  5
3C0
330
1F
100
AcDbEntity
  8
1
  6
Continuous
 62
     4
100
AcDbLine
 10
98.086525589302
 20
-33.39763974178
 30
0.0
 11
98.586525589302
 21
-33.52263974178
 31
0.0
  0
LINE
  5
3C1
330
1F
100
AcDbEntity
  8
1
  6
Continuous
 62
     4
100
AcDbLine
 10
95.711525589302
 20
-33.39763974178
 30
0.0
 11
98.086525589302
 21
-33.39763974178
 31
0.0
  0
LINE
  5
3C2
330
1F
100
AcDbEntity
  8
1
  6
Continuous
 62
     4
100
AcDbLine
 10
95.711525589302
 20
-35.89763974178
 30
0.0
 11
95.711525589302
 21
-33.39763974178
 31
0.0
  0
LINE
  5
3C3
330
1F
100
AcDbEntity
  8
1
  6
Continuous
 62
     4
100
AcDbLine
 10
97.711525589302
 20
-35.89763974178
 30
0.0
 11
95.711525589302
 21
-35.89763974178
 31
0.0
  0
LINE
  5
482
330
1F
100
AcDbEntity
  8
2
  6
Continuous
 62
     2
100
AcDbLine
 10
13.5
 20
300.0
 30
0.0
 11
56.0
 21
300.0
 31
0.0
  0
LINE
  5
483
330
1F
100
AcDbEntity
  8
2
  6
Continuous
 62
     2
100
AcDbLine
 10
1.0
 20
0.0
 30
0.0
 11
56.0
 21
0.0
 31
0.0
  0
LINE
  5
484
330
1F
100
AcDbEntity
  8
2
  6
Continuous
 62
     2
100
AcDbLine
 10
55.0
 20
300.0
 30
0.0
 11
55.0
 21
190.5
 31
0.0
  0
LINE
  5
485
330
1F
100
AcDbEntity
  8
2
  6
Continuous
 62
     2
100
AcDbLine
 10
55.0
 20
0.0
 30
0.0
 11
55.0
 21
190.5
 31
0.0
  0
LINE
  5
486
330
1F
100
AcDbEntity
  8
1
  6
Continuous
 62
     4
100
AcDbLine
 10
-80.6905322982668
 20
-13.1
 30
0.0
 11
-82.4767079336051
 21
-15.6408163111969
 31
0.0
  0
LINE
  5
487
330
1F
100
AcDbEntity
  8
1
  6
Continuous
 62
     4
100
AcDbLine
 10
-80.6905322982668
 20
-13.1
 30
0.0
 11
-80.9669976184922
 21
-16.1934992895155
 31
0.0
  0
LINE
  5
488
330
1F
100
AcDbEntity
  8
100
  6
Continuous
 62
     3
100
AcDbLine
 10
191.0
 20
290.024240303043
 30
0.0
 11
191.0
 21
280.0
 31
0.0
  0
LINE
  5
489
330
1F
100
AcDbEntity
  8
100
  6
Continuous
 62
     3
100
AcDbLine
 10
143.0
 20
228.5
 30
0.0
 11
143.0
 21
232.0
 31
0.0
  0
LINE
  5
48A
330
1F
100
AcDbEntity
  8
100
  6
Continuous
 62
     3
100
AcDbLine
 10
143.0
 20
232.0
 30
0.0
 11
177.0
 21
232.0
 31
0.0
  0
LINE
  5
48B
330
1F
100
AcDbEntity
  8
100
  6
Continuous
 62
     3
100
AcDbLine
 10
177.0
 20
228.5
 30
0.0
 11
177.0
 21
232.0
 31
0.0
  0
LINE
  5
48C
330
1F
100
AcDbEntity
  8
100
  6
Continuous
 62
     3
100
AcDbLine
 10
155.6
 20
280.0
 30
0.0
 11
155.6
 21
262.0
 31
0.0
  0
LINE
  5
48D
330
1F
100
AcDbEntity
  8
2
  6
DOT_CENTER
 62
     1
100
AcDbLine
 10
160.0
 20
310.5
 30
0.0
 11
160.0
 21
-47.7673268006168
 31
0.0
  0
LINE
  5
48E
330
1F
100
AcDbEntity
  8
100
  6
Continuous
 62
     3
100
AcDbLine
 10
169.0
 20
262.0
 30
0.0
 11
151.0
 21
262.0
 31
0.0
  0
LINE
  5
48F
330
1F
100
AcDbEntity
  8
100
  6
Continuous
 62
     3
100
AcDbLine
 10
173.5
 20
247.048426656989
 30
0.0
 11
173.5
 21
232.0
 31
0.0
  0
LINE
  5
490
330
1F
100
AcDbEntity
  8
100
  6
Continuous
 62
     3
100
AcDbLine
 10
169.0
 20
262.0
 30
0.0
 11
169.0
 21
254.930285549747
 31
0.0
  0
LINE
  5
491
330
1F
100
AcDbEntity
  8
100
  6
Continuous
 62
     3
100
AcDbLine
 10
146.5
 20
247.048426656989
 30
0.0
 11
146.5
 21
232.0
 31
0.0
  0
LINE
  5
492
330
1F
100
AcDbEntity
  8
100
  6
Continuous
 62
     3
100
AcDbLine
 10
151.0
 20
262.0
 30
0.0
 11
151.0
 21
254.930285549747
 31
0.0
  0
LINE
  5
493
330
1F
100
AcDbEntity
  8
100
  6
Continuous
 62
     3
100
AcDbLine
 10
143.0
 20
228.5
 30
0.0
 11
177.0
 21
228.5
 31
0.0
  0
LINE
  5
494
330
1F
100
AcDbEntity
  8
100
  6
Continuous
 62
     3
100
AcDbLine
 10
173.6
 20
81.6889311249324
 30
0.0
 11
173.6
 21
203.5
 31
0.0
  0
LINE
  5
495
330
1F
100
AcDbEntity
  8
100
  6
Continuous
 62
     3
100
AcDbLine
 10
146.4
 20
80.0000000000007
 30
0.0
 11
146.4
 21
203.5
 31
0.0
  0
LINE
  5
496
330
1F
100
AcDbEntity
  8
100
  6
Continuous
 62
     3
100
AcDbLine
 10
144.0
 20
203.5
 30
0.0
 11
176.0
 21
203.5
 31
0.0
  0
LINE
  5
497
330
1F
100
AcDbEntity
  8
100
  6
Continuous
 62
     3
100
AcDbLine
 10
144.0
 20
203.5
 30
0.0
 11
144.0
 21
228.5
 31
0.0
  0
LINE
  5
498
330
1F
100
AcDbEntity
  8
100
  6
Continuous
 62
     3
100
AcDbLine
 10
176.0
 20
203.5
 30
0.0
 11
176.0
 21
228.5
 31
0.0
  0
LINE
  5
499
330
1F
100
AcDbEntity
  8
100
  6
Continuous
 62
     3
100
AcDbLine
 10
173.6
 20
26.0
 30
0.0
 11
173.6
 21
76.6889311249324
 31
0.0
  0
LINE
  5
49A
330
1F
100
AcDbEntity
  8
100
  6
Continuous
 62
     3
100
AcDbLine
 10
146.4
 20
75.0000000000007
 30
0.0
 11
146.4
 21
26.0
 31
0.0
  0
LINE
  5
49B
330
1F
100
AcDbEntity
  8
100
  6
Continuous
 62
     3
100
AcDbLine
 10
129.0
 20
280.0
 30
0.0
 11
191.0
 21
280.0
 31
0.0
  0
LINE
  5
49C
330
1F
100
AcDbEntity
  8
100
  6
Continuous
 62
     3
100
AcDbLine
 10
146.770007860876
 20
299.891048196256
 30
0.0
 11
133.248018866102
 21
295.762755974056
 31
0.0
  0
LINE
  5
49D
330
1F
100
AcDbEntity
  8
100
  6
Continuous
 62
     3
100
AcDbLine
 10
129.0
 20
290.024240303043
 30
0.0
 11
129.0
 21
280.0
 31
0.0
  0
LINE
  5
49E
330
1F
100
AcDbEntity
  8
100
  6
Continuous
 62
     3
100
AcDbLine
 10
172.5
 20
300.0
 30
0.0
 11
147.5
 21
300.0
 31
0.0
  0
LINE
  5
49F
330
1F
100
AcDbEntity
  8
100
  6
Continuous
 62
     3
100
AcDbLine
 10
140.003457120787
 20
290.044738518463
 30
0.0
 11
140.003457120787
 21
282.0
 31
0.0
  0
LINE
  5
4A0
330
1F
100
AcDbEntity
  8
100
  6
Continuous
 62
     3
100
AcDbLine
 10
179.996542879213
 20
290.044738518463
 30
0.0
 11
179.996542879213
 21
282.0
 31
0.0
  0
LINE
  5
4A1
330
1F
100
AcDbEntity
  8
100
  6
Continuous
 62
     3
100
AcDbLine
 10
173.229992139124
 20
299.891048196256
 30
0.0
 11
186.751981133898
 21
295.762755974056
 31
0.0
  0
LINE
  5
4A2
330
1F
100
AcDbEntity
  8
100
  6
Continuous
 62
     3
100
AcDbLine
 10
144.0
 20
26.0
 30
0.0
 11
176.0
 21
26.0
 31
0.0
  0
LINE
  5
4A3
330
1F
100
AcDbEntity
  8
100
  6
Continuous
 62
     3
100
AcDbLine
 10
174.5
 20
5.0
 30
0.0
 11
163.358983848623
 21
5.0
 31
0.0
  0
LINE
  5
4A4
330
1F
100
AcDbEntity
  8
100
  6
Continuous
 62
     3
100
AcDbLine
 10
156.641016151378
 20
5.0
 30
0.0
 11
145.5
 21
5.0
 31
0.0
  0
LINE
  5
4A5
330
1F
100
AcDbEntity
  8
2
  6
DOT_CENTER
 62
     1
100
AcDbLine
 10
187.275599099099
 20
0.0
 30
0.0
 11
133.319306306306
 21
0.0
 31
0.0
  0
LINE
  5
4A6
330
1F
100
AcDbEntity
  8
2
  6
DOT_CENTER
 62
     1
100
AcDbLine
 10
187.275599099099
 20
-15.0
 30
0.0
 11
133.319306306306
 21
-15.0
 31
0.0
  0
LINE
  5
4A7
330
1F
100
AcDbEntity
  8
100
  6
Continuous
 62
     3
100
AcDbLine
 10
173.1
 20
5.0
 30
0.0
 11
173.1
 21
13.0
 31
0.0
  0
LINE
  5
4A8
330
1F
100
AcDbEntity
  8
100
  6
Continuous
 62
     3
100
AcDbLine
 10
176.0
 20
13.0
 30
0.0
 11
176.0
 21
26.0
 31
0.0
  0
LINE
  5
4A9
330
1F
100
AcDbEntity
  8
100
  6
Continuous
 62
     3
100
AcDbLine
 10
144.0
 20
26.0
 30
0.0
 11
144.0
 21
13.0
 31
0.0
  0
LINE
  5
4AA
330
1F
100
AcDbEntity
  8
100
  6
Continuous
 62
     3
100
AcDbLine
 10
146.9
 20
13.0
 30
0.0
 11
146.9
 21
5.0
 31
0.0
  0
LINE
  5
4AB
330
1F
100
AcDbEntity
  8
100
  6
Continuous
 62
     3
100
AcDbLine
 10
176.0
 20
13.0
 30
0.0
 11
144.0
 21
13.0
 31
0.0
  0
LINE
  5
4AC
330
1F
100
AcDbEntity
  8
100
  6
Continuous
 62
     3
100
AcDbLine
 10
174.5
 20
-1.43226867404377
 30
0.0
 11
174.5
 21
5.0
 31
0.0
  0
LINE
  5
4AD
330
1F
100
AcDbEntity
  8
100
  6
Continuous
 62
     3
100
AcDbLine
 10
145.5
 20
5.0
 30
0.0
 11
145.5
 21
-1.43226867404377
 31
0.0
  0
LINE
  5
4AE
330
1F
100
AcDbEntity
  8
100
  6
Continuous
 62
     3
100
AcDbLine
 10
-4.39999999999998
 20
280.0
 30
0.0
 11
-4.39999999999998
 21
262.0
 31
0.0
  0
LINE
  5
4AF
330
1F
100
AcDbEntity
  8
100
  6
Continuous
 62
     3
100
AcDbLine
 10
-17.0
 20
228.5
 30
0.0
 11
-17.0
 21
232.0
 31
0.0
  0
LINE
  5
4B0
330
1F
100
AcDbEntity
  8
100
  6
Continuous
 62
     3
100
AcDbLine
 10
17.0
 20
228.5
 30
0.0
 11
17.0
 21
232.0
 31
0.0
  0
LINE
  5
4B1
330
1F
100
AcDbEntity
  8
100
  6
Continuous
 62
     3
100
AcDbLine
 10
-17.0
 20
232.0
 30
0.0
 11
17.0
 21
232.0
 31
0.0
  0
LINE
  5
4B2
330
1F
100
AcDbEntity
  8
100
  6
Continuous
 62
     3
100
AcDbLine
 10
-9.0
 20
262.0
 30
0.0
 11
-9.0
 21
255.400073201234
 31
0.0
  0
LINE
  5
4B3
330
1F
100
AcDbEntity
  8
100
  6
Continuous
 62
     3
100
AcDbLine
 10
9.0
 20
262.0
 30
0.0
 11
-9.0
 21
262.0
 31
0.0
  0
LINE
  5
4B4
330
1F
100
AcDbEntity
  8
100
  6
Continuous
 62
     3
100
AcDbLine
 10
9.0
 20
262.0
 30
0.0
 11
9.0
 21
255.400073201234
 31
0.0
  0
LINE
  5
4B5
330
1F
100
AcDbEntity
  8
100
  6
Continuous
 62
     3
100
AcDbLine
 10
15.5884572681199
 20
232.0
 30
0.0
 11
15.5884572681199
 21
246.0
 31
0.0
  0
LINE
  5
4B6
330
1F
100
AcDbEntity
  8
100
  6
Continuous
 62
     3
100
AcDbLine
 10
-15.5884572681199
 20
232.0
 30
0.0
 11
-15.5884572681199
 21
246.0
 31
0.0
  0
LINE
  5
4B7
330
1F
100
AcDbEntity
  8
100
  6
Continuous
 62
     3
100
AcDbLine
 10
-17.5
 20
228.5
 30
0.0
 11
17.5
 21
228.5
 31
0.0
  0
LINE
  5
4B8
330
1F
100
AcDbEntity
  8
100
  6
Continuous
 62
     3
100
AcDbLine
 10
-17.5
 20
203.5
 30
0.0
 11
17.5
 21
203.5
 31
0.0
  0
LINE
  5
4B9
330
1F
100
AcDbEntity
  8
100
  6
Continuous
 62
     3
100
AcDbLine
 10
-17.5
 20
203.5
 30
0.0
 11
-17.5
 21
228.5
 31
0.0
  0
LINE
  5
4BA
330
1F
100
AcDbEntity
  8
100
  6
Continuous
 62
     3
100
AcDbLine
 10
17.5
 20
203.5
 30
0.0
 11
17.5
 21
228.5
 31
0.0
  0
LINE
  5
4BB
330
1F
100
AcDbEntity
  8
100
  6
Continuous
 62
     3
100
AcDbLine
 10
13.6
 20
79.9497979778518
 30
0.0
 11
13.6
 21
203.5
 31
0.0
  0
LINE
  5
4BC
330
1F
100
AcDbEntity
  8
100
  6
Continuous
 62
     3
100
AcDbLine
 10
-13.6
 20
81.6387291027835
 30
0.0
 11
-13.6
 21
203.5
 31
0.0
  0
LINE
  5
4BD
330
1F
100
AcDbEntity
  8
100
  6
Continuous
 62
     3
100
AcDbLine
 10
-28.0525588832576
 20
280.0
 30
0.0
 11
28.0525588832576
 21
280.0
 31
0.0
  0
LINE
  5
4BE
330
1F
100
AcDbEntity
  8
2
  6
CENTER
 62
     6
100
AcDbLine
 10
-28.0525588832576
 20
273.449797977851
 30
0.0
 11
28.0525588832576
 21
273.449797977851
 31
0.0
  0
LINE
  5
4BF
330
1F
100
AcDbEntity
  8
100
  6
Continuous
 62
     3
100
AcDbLine
 10
12.5
 20
300.0
 30
0.0
 11
-12.5
 21
300.0
 31
0.0
  0
LINE
  5
4C0
330
1F
100
AcDbEntity
  8
100
  6
Continuous
 62
     3
100
AcDbLine
 10
28.0525588832576
 20
290.924100393325
 30
0.0
 11
28.0525588832576
 21
280.0
 31
0.0
  0
LINE
  5
4C1
330
1F
100
AcDbEntity
  8
100
  6
Continuous
 62
     3
100
AcDbLine
 10
13.229992139124
 20
299.891048196256
 30
0.0
 11
23.8045400171553
 21
296.662616064339
 31
0.0
  0
LINE
  5
4C2
330
1F
100
AcDbEntity
  8
100
  6
Continuous
 62
     3
100
AcDbLine
 10
-13.229992139124
 20
299.891048196256
 30
0.0
 11
-23.8045400171553
 21
296.662616064339
 31
0.0
  0
LINE
  5
4C3
330
1F
100
AcDbEntity
  8
100
  6
Continuous
 62
     3
100
AcDbLine
 10
-28.0525588832576
 20
290.924100393325
 30
0.0
 11
-28.0525588832576
 21
280.0
 31
0.0
  0
LINE
  5
4C4
330
1F
100
AcDbEntity
  8
2
  6
CENTER
 62
     6
100
AcDbLine
 10
-28.0525588832576
 20
284.373898371176
 30
0.0
 11
-28.0525588832576
 21
273.449797977851
 31
0.0
  0
LINE
  5
4C5
330
1F
100
AcDbEntity
  8
2
  6
CENTER
 62
     6
100
AcDbLine
 10
-13.229992139124
 20
293.340846174107
 30
0.0
 11
-23.8045400171553
 21
290.11241404219
 31
0.0
  0
LINE
  5
4C6
330
1F
100
AcDbEntity
  8
2
  6
CENTER
 62
     6
100
AcDbLine
 10
12.5
 20
293.449797977851
 30
0.0
 11
-12.5
 21
293.449797977851
 31
0.0
  0
LINE
  5
4C7
330
1F
100
AcDbEntity
  8
2
  6
CENTER
 62
     6
100
AcDbLine
 10
13.229992139124
 20
293.340846174107
 30
0.0
 11
23.8045400171553
 21
290.11241404219
 31
0.0
  0
LINE
  5
4C8
330
1F
100
AcDbEntity
  8
2
  6
CENTER
 62
     6
100
AcDbLine
 10
28.0525588832576
 20
284.373898371176
 30
0.0
 11
28.0525588832576
 21
273.449797977851
 31
0.0
  0
LINE
  5
4C9
330
1F
100
AcDbEntity
  8
2
  6
DOT_CENTER
 62
     1
100
AcDbLine
 10
0.0
 20
393.290389415599
 30
0.0
 11
0.0
 21
318.49261013632
 31
0.0
  0
LINE
  5
4CA
330
1F
100
AcDbEntity
  8
2
  6
DOT_CENTER
 62
     1
100
AcDbLine
 10
-101.189490990991
 20
355.5
 30
0.0
 11
-49.1594864864865
 21
355.5
 31
0.0
  0
LINE
  5
4CB
330
1F
100
AcDbEntity
  8
2
  6
DOT_CENTER
 62
     1
100
AcDbLine
 10
-19.9814054054054
 20
355.5
 30
0.0
 11
21.9331396396396
 21
355.5
 31
0.0
  0
LINE
  5
4CC
330
1F
100
AcDbEntity
  8
2
  6
DOT_CENTER
 62
     1
100
AcDbLine
 10
50.6480765765766
 20
355.5
 30
0.0
 11
104.530657657658
 21
355.5
 31
0.0
  0
LINE
  5
4CD
330
1F
100
AcDbEntity
  8
2
  6
DOT_CENTER
 62
     1
100
AcDbLine
 10
0.0
 20
310.5
 30
0.0
 11
0.0
 21
-17.7671925795462
 31
0.0
  0
LINE
  5
4CE
330
1F
100
AcDbEntity
  8
100
  6
Continuous
 62
     3
100
AcDbLine
 10
13.6
 20
75.0000000000007
 30
0.0
 11
13.6
 21
26.0
 31
0.0
  0
LINE
  5
4CF
330
1F
100
AcDbEntity
  8
100
  6
Continuous
 62
     3
100
AcDbLine
 10
-13.6
 20
26.0
 30
0.0
 11
-13.6
 21
76.6889311249324
 31
0.0
  0
LINE
  5
4D0
330
1F
100
AcDbEntity
  8
100
  6
Continuous
 62
     3
100
AcDbLine
 10
-16.0
 20
26.0
 30
0.0
 11
16.0
 21
26.0
 31
0.0
  0
LINE
  5
4D1
330
1F
100
AcDbEntity
  8
2
  6
DOT_CENTER
 62
     1
100
AcDbLine
 10
-5.0
 20
0.0
 30
0.0
 11
-98.2537537802938
 21
0.0
 31
0.0
  0
LINE
  5
4D2
330
1F
100
AcDbEntity
  8
2
  6
DOT_CENTER
 62
     1
100
AcDbLine
 10
97.7099446176409
 20
-15.0
 30
0.0
 11
16.0
 21
-15.0
 31
0.0
  0
LINE
  5
4D3
330
1F
100
AcDbEntity
  8
100
  6
Continuous
 62
     3
100
AcDbLine
 10
-16.0
 20
26.0
 30
0.0
 11
-16.0
 21
14.5
 31
0.0
  0
LINE
  5
4D4
330
1F
100
AcDbEntity
  8
100
  6
Continuous
 62
     3
100
AcDbLine
 10
-16.0
 20
14.5
 30
0.0
 11
-20.8741669750802
 21
14.5
 31
0.0
  0
LINE
  5
4D5
330
1F
100
AcDbEntity
  8
100
  6
Continuous
 62
     3
100
AcDbLine
 10
-22.0
 20
16.45
 30
0.0
 11
-23.5
 21
16.45
 31
0.0
  0
LINE
  5
4D6
330
1F
100
AcDbEntity
  8
100
  6
Continuous
 62
     3
100
AcDbLine
 10
-23.5
 20
-16.45
 30
0.0
 11
-22.0
 21
-16.45
 31
0.0
  0
LINE
  5
4D7
330
1F
100
AcDbEntity
  8
100
  6
Continuous
 62
     3
100
AcDbLine
 10
-20.8741669750802
 20
-14.5
 30
0.0
 11
-11.5
 21
-14.5
 31
0.0
  0
LINE
  5
4D8
330
1F
100
AcDbEntity
  8
100
  6
Continuous
 62
     3
100
AcDbLine
 10
-11.5
 20
-14.5
 30
0.0
 11
-11.5
 21
-27.5
 31
0.0
  0
LINE
  5
4D9
330
1F
100
AcDbEntity
  8
100
  6
Continuous
 62
     3
100
AcDbLine
 10
-11.5
 20
-27.5
 30
0.0
 11
19.719466436701
 21
-27.5
 31
0.0
  0
LINE
  5
4DA
330
1F
100
AcDbEntity
  8
100
  6
Continuous
 62
     3
100
AcDbLine
 10
22.0
 20
-31.45
 30
0.0
 11
23.5
 21
-31.45
 31
0.0
  0
LINE
  5
4DB
330
1F
100
AcDbEntity
  8
100
  6
Continuous
 62
     3
100
AcDbLine
 10
23.5
 20
1.44999999999999
 30
0.0
 11
22.0
 21
1.44999999999999
 31
0.0
  0
LINE
  5
4DC
330
1F
100
AcDbEntity
  8
100
  6
Continuous
 62
     3
100
AcDbLine
 10
20.8741669750802
 20
-0.5
 30
0.0
 11
14.5
 21
-0.5
 31
0.0
  0
LINE
  5
4DD
330
1F
100
AcDbEntity
  8
100
  6
Continuous
 62
     3
100
AcDbLine
 10
14.5
 20
-0.5
 30
0.0
 11
14.5
 21
5.0
 31
0.0
  0
LINE
  5
4DE
330
1F
100
AcDbEntity
  8
100
  6
Continuous
 62
     3
100
AcDbLine
 10
16.0
 20
13.0
 30
0.0
 11
16.0
 21
26.0
 31
0.0
  0
LINE
  5
4DF
330
1F
100
AcDbEntity
  8
100
  6
Continuous
 62
     3
100
AcDbLine
 10
13.1
 20
5.0
 30
0.0
 11
13.1
 21
13.0
 31
0.0
  0
LINE
  5
4E0
330
1F
100
AcDbEntity
  8
100
  6
Continuous
 62
     3
100
AcDbLine
 10
-22.0
 20
16.45
 30
0.0
 11
-20.8741669750802
 21
14.5
 31
0.0
  0
LINE
  5
4E1
330
1F
100
AcDbEntity
  8
100
  6
Continuous
 62
     3
100
AcDbLine
 10
-22.0
 20
-16.45
 30
0.0
 11
-20.8741669750802
 21
-14.5
 31
0.0
  0
LINE
  5
4E2
330
1F
100
AcDbEntity
  8
100
  6
Continuous
 62
     3
100
AcDbLine
 10
20.8741669750802
 20
-0.5
 30
0.0
 11
22.0
 21
1.44999999999999
 31
0.0
  0
LINE
  5
4E3
330
1F
100
AcDbEntity
  8
100
  6
Continuous
 62
     3
100
AcDbLine
 10
19.719466436701
 20
-27.5
 30
0.0
 11
22.0
 21
-31.45
 31
0.0
  0
LINE
  5
4E4
330
1F
100
AcDbEntity
  8
100
  6
Continuous
 62
     3
100
AcDbLine
 10
16.0
 20
13.0
 30
0.0
 11
-10.0
 21
13.0
 31
0.0
  0
LINE
  5
4E5
330
1F
100
AcDbEntity
  8
100
  6
Continuous
 62
     3
100
AcDbLine
 10
14.5
 20
5.0
 30
0.0
 11
-2.0
 21
5.0
 31
0.0
  0
LINE
  5
4E6
330
1F
100
AcDbEntity
  8
100
  6
Continuous
 62
     3
100
AcDbLine
 10
8.0
 20
-22.5
 30
0.0
 11
12.0
 21
-21.0
 31
0.0
  0
LINE
  5
4E7
330
1F
100
AcDbEntity
  8
100
  6
Continuous
 62
     3
100
AcDbLine
 10
12.0
 20
-21.0
 30
0.0
 11
8.0
 21
-19.5
 31
0.0
  0
LINE
  5
4E8
330
1F
100
AcDbEntity
  8
2
  6
DOT_CENTER
 62
     1
100
AcDbLine
 10
-186.481725225225
 20
-15.0
 30
0.0
 11
-133.683292792793
 21
-15.0
 31
0.0
  0
LINE
  5
4E9
330
1F
100
AcDbEntity
  8
2
  6
DOT_CENTER
 62
     1
100
AcDbLine
 10
-186.481725225225
 20
0.0
 30
0.0
 11
-133.683292792793
 21
0.0
 31
0.0
  0
LINE
  5
4EA
330
1F
100
AcDbEntity
  8
2
  6
DOT_CENTER
 62
     1
100
AcDbLine
 10
0.0
 20
-24.3168828534688
 30
0.0
 11
0.0
 21
-47.7673268006168
 31
0.0
  0
LINE
  5
4EB
330
1F
100
AcDbEntity
  8
2
  6
DOT_CENTER
 62
     1
100
AcDbLine
 10
-160.0
 20
307.89340942854
 30
0.0
 11
-160.0
 21
-46.7673268006168
 31
0.0
  0
LINE
  5
4EC
330
1F
100
AcDbEntity
  8
100
  6
Continuous
 62
     3
100
AcDbLine
 10
-144.0
 20
26.0
 30
0.0
 11
-176.0
 21
26.0
 31
0.0
  0
LINE
  5
4ED
330
1F
100
AcDbEntity
  8
100
  6
Continuous
 62
     3
100
AcDbLine
 10
-176.0
 20
13.0
 30
0.0
 11
-176.0
 21
26.0
 31
0.0
  0
LINE
  5
4EE
330
1F
100
AcDbEntity
  8
100
  6
Continuous
 62
     3
100
AcDbLine
 10
-144.0
 20
26.0
 30
0.0
 11
-144.0
 21
13.0
 31
0.0
  0
LINE
  5
4EF
330
1F
100
AcDbEntity
  8
100
  6
Continuous
 62
     3
100
AcDbLine
 10
-174.5
 20
-27.5
 30
0.0
 11
-174.5
 21
-13.5677313259562
 31
0.0
  0
LINE
  5
4F0
330
1F
100
AcDbEntity
  8
100
  6
Continuous
 62
     3
100
AcDbLine
 10
-145.5
 20
-13.5677313259562
 30
0.0
 11
-145.5
 21
-27.5
 31
0.0
  0
LINE
  5
4F1
330
1F
100
AcDbEntity
  8
100
  6
Continuous
 62
     3
100
AcDbLine
 10
-174.5
 20
-27.5
 30
0.0
 11
-145.5
 21
-27.5
 31
0.0
  0
LINE
  5
4F2
330
1F
100
AcDbEntity
  8
100
  6
Continuous
 62
     3
100
AcDbLine
 10
-176.0
 20
13.0
 30
0.0
 11
-175.483339501605
 21
13.0
 31
0.0
  0
LINE
  5
4F3
330
1F
100
AcDbEntity
  8
100
  6
Continuous
 62
     3
100
AcDbLine
 10
-144.516660498395
 20
13.0
 30
0.0
 11
-144.0
 21
13.0
 31
0.0
  0
LINE
  5
4F4
330
1F
100
AcDbEntity
  8
100
  6
Continuous
 62
     3
100
AcDbLine
 10
3.0
 20
-21.0
 30
0.0
 11
12.0
 21
-21.0
 31
0.0
  0
LINE
  5
4F5
330
1F
100
AcDbEntity
  8
100
  6
Continuous
 62
     3
100
AcDbLine
 10
91.0
 20
-27.9226875000001
 30
0.0
 11
91.0
 21
-2.07731249999995
 31
0.0
  0
LINE
  5
4F6
330
1F
100
AcDbEntity
  8
100
  6
Continuous
 62
     3
100
AcDbLine
 10
91.0
 20
-2.07731249999995
 30
0.0
 11
85.3260000000002
 21
-1.89999999999998
 31
0.0
  0
LINE
  5
4F7
330
1F
100
AcDbEntity
  8
2
  6
Continuous
 62
     1
100
AcDbLine
 10
72.0
 20
-2.64556249999998
 30
0.0
 11
91.0
 21
-3.23931249999998
 31
0.0
  0
LINE
  5
4F8
330
1F
100
AcDbEntity
  8
100
  6
Continuous
 62
     3
100
AcDbLine
 10
91.0
 20
-27.9226875000001
 30
0.0
 11
85.3260000000002
 21
-28.1
 31
0.0
  0
LINE
  5
4F9
330
1F
100
AcDbEntity
  8
2
  6
Continuous
 62
     1
100
AcDbLine
 10
72.0
 20
-27.3544375
 30
0.0
 11
91.0
 21
-26.7606875
 31
0.0
  0
LINE
  5
4FA
330
1F
100
AcDbEntity
  8
100
  6
Continuous
 62
     3
100
AcDbLine
 10
72.0
 20
-28.1
 30
0.0
 11
72.0
 21
-1.89999999999998
 31
0.0
  0
LINE
  5
4FB
330
1F
100
AcDbEntity
  8
2
  6
Continuous
 62
     3
100
AcDbLine
 10
72.0
 20
-2.64556249999998
 30
0.0
 11
70.7086478697819
 21
-1.89999999999998
 31
0.0
  0
LINE
  5
4FC
330
1F
100
AcDbEntity
  8
2
  6
Continuous
 62
     3
100
AcDbLine
 10
72.0
 20
-27.3544375
 30
0.0
 11
70.7086478697819
 21
-28.1
 31
0.0
  0
LINE
  5
4FD
330
1F
100
AcDbEntity
  8
100
  6
Continuous
 62
     3
100
AcDbLine
 10
45.5
 20
-36.9393102292058
 30
0.0
 11
45.5
 21
6.93931022920583
 31
0.0
  0
LINE
  5
4FE
330
1F
100
AcDbEntity
  8
100
  6
Continuous
 62
     3
100
AcDbLine
 10
45.5
 20
6.93931022920583
 30
0.0
 11
23.5
 21
6.93931022920583
 31
0.0
  0
LINE
  5
4FF
330
1F
100
AcDbEntity
  8
100
  6
Continuous
 62
     3
100
AcDbLine
 10
23.5
 20
-36.9393102292058
 30
0.0
 11
23.5
 21
6.93931022920583
 31
0.0
  0
LINE
  5
500
330
1F
100
AcDbEntity
  8
100
  6
Continuous
 62
     3
100
AcDbLine
 10
45.5
 20
-4.03034488539708
 30
0.0
 11
23.5
 21
-4.03034488539708
 31
0.0
  0
LINE
  5
501
330
1F
100
AcDbEntity
  8
100
  6
Continuous
 62
     3
100
AcDbLine
 10
45.5
 20
-25.9696551146029
 30
0.0
 11
23.5
 21
-25.9696551146029
 31
0.0
  0
LINE
  5
502
330
1F
100
AcDbEntity
  8
100
  6
Continuous
 62
     3
100
AcDbLine
 10
45.5
 20
-36.9393102292058
 30
0.0
 11
23.5
 21
-36.9393102292058
 31
0.0
  0
LINE
  5
503
330
1F
100
AcDbEntity
  8
100
  6
Continuous
 62
     3
100
AcDbLine
 10
85.3260000000002
 20
-1.89999999999998
 30
0.0
 11
45.5
 21
-1.89999999999998
 31
0.0
  0
LINE
  5
504
330
1F
100
AcDbEntity
  8
100
  6
Continuous
 62
     3
100
AcDbLine
 10
85.3260000000002
 20
-28.1
 30
0.0
 11
45.5
 21
-28.1
 31
0.0
  0
LINE
  5
505
330
1F
100
AcDbEntity
  8
2
  6
Continuous
 62
     3
100
AcDbLine
 10
72.0
 20
367.8544375
 30
0.0
 11
70.7086478697819
 21
368.6
 31
0.0
  0
LINE
  5
506
330
1F
100
AcDbEntity
  8
100
  6
Continuous
 62
     3
100
AcDbLine
 10
72.0
 20
342.4
 30
0.0
 11
72.0
 21
368.6
 31
0.0
  0
LINE
  5
507
330
1F
100
AcDbEntity
  8
2
  6
Continuous
 62
     3
100
AcDbLine
 10
72.0
 20
343.1455625
 30
0.0
 11
70.7086478697819
 21
342.4
 31
0.0
  0
LINE
  5
508
330
1F
100
AcDbEntity
  8
100
  6
Continuous
 62
     3
100
AcDbLine
 10
91.0
 20
368.4226875
 30
0.0
 11
85.3260000000002
 21
368.6
 31
0.0
  0
LINE
  5
509
330
1F
100
AcDbEntity
  8
100
  6
Continuous
 62
     3
100
AcDbLine
 10
91.0
 20
342.5773125
 30
0.0
 11
91.0
 21
368.4226875
 31
0.0
  0
LINE
  5
50A
330
1F
100
AcDbEntity
  8
100
  6
Continuous
 62
     3
100
AcDbLine
 10
91.0
 20
342.5773125
 30
0.0
 11
85.3260000000002
 21
342.4
 31
0.0
  0
LINE
  5
50B
330
1F
100
AcDbEntity
  8
2
  6
Continuous
 62
     1
100
AcDbLine
 10
72.0
 20
343.1455625
 30
0.0
 11
91.0
 21
343.7393125
 31
0.0
  0
LINE
  5
50C
330
1F
100
AcDbEntity
  8
2
  6
Continuous
 62
     1
100
AcDbLine
 10
72.0
 20
367.8544375
 30
0.0
 11
91.0
 21
367.2606875
 31
0.0
  0
LINE
  5
50D
330
1F
100
AcDbEntity
  8
100
  6
Continuous
 62
     3
100
AcDbLine
 10
45.5
 20
336.5
 30
0.0
 11
45.5
 21
374.5
 31
0.0
  0
LINE
  5
50E
330
1F
100
AcDbEntity
  8
100
  6
Continuous
 62
     3
100
AcDbLine
 10
85.3260000000002
 20
368.6
 30
0.0
 11
45.5
 21
368.6
 31
0.0
  0
LINE
  5
50F
330
1F
100
AcDbEntity
  8
100
  6
Continuous
 62
     3
100
AcDbLine
 10
85.3260000000002
 20
342.4
 30
0.0
 11
45.5
 21
342.4
 31
0.0
  0
LINE
  5
510
330
1F
100
AcDbEntity
  8
100
  6
Continuous
 62
     3
100
AcDbLine
 10
45.5
 20
336.5
 30
0.0
 11
23.5
 21
336.5
 31
0.0
  0
LINE
  5
511
330
1F
100
AcDbEntity
  8
100
  6
Continuous
 62
     3
100
AcDbLine
 10
45.5
 20
374.5
 30
0.0
 11
23.5
 21
374.5
 31
0.0
  0
LINE
  5
512
330
1F
100
AcDbEntity
  8
100
  6
Continuous
 62
     3
100
AcDbLine
 10
45.5
 20
355.5
 30
0.0
 11
24.941102703256
 21
355.5
 31
0.0
  0
LINE
  5
513
330
1F
100
AcDbEntity
  8
100
  6
Continuous
 62
     3
100
AcDbLine
 10
-72.0
 20
-13.1
 30
0.0
 11
-72.0
 21
13.1
 31
0.0
  0
LINE
  5
514
330
1F
100
AcDbEntity
  8
2
  6
Continuous
 62
     3
100
AcDbLine
 10
-72.0
 20
12.3544375
 30
0.0
 11
-70.7086478697819
 21
13.1
 31
0.0
  0
LINE
  5
515
330
1F
100
AcDbEntity
  8
2
  6
Continuous
 62
     3
100
AcDbLine
 10
-72.0
 20
-12.3544375
 30
0.0
 11
-70.7086478697819
 21
-13.1
 31
0.0
  0
LINE
  5
516
330
1F
100
AcDbEntity
  8
100
  6
Continuous
 62
     3
100
AcDbLine
 10
-85.3260000000002
 20
13.1
 30
0.0
 11
-45.5
 21
13.1
 31
0.0
  0
LINE
  5
517
330
1F
100
AcDbEntity
  8
100
  6
Continuous
 62
     3
100
AcDbLine
 10
-85.3260000000002
 20
-13.1
 30
0.0
 11
-45.5
 21
-13.1
 31
0.0
  0
LINE
  5
518
330
1F
100
AcDbEntity
  8
2
  6
Continuous
 62
     3
100
AcDbLine
 10
-72.0
 20
367.8544375
 30
0.0
 11
-70.7086478697819
 21
368.6
 31
0.0
  0
LINE
  5
519
330
1F
100
AcDbEntity
  8
100
  6
Continuous
 62
     3
100
AcDbLine
 10
-72.0
 20
342.4
 30
0.0
 11
-72.0
 21
368.6
 31
0.0
  0
LINE
  5
51A
330
1F
100
AcDbEntity
  8
2
  6
Continuous
 62
     3
100
AcDbLine
 10
-72.0
 20
343.1455625
 30
0.0
 11
-70.7086478697819
 21
342.4
 31
0.0
  0
LINE
  5
51B
330
1F
100
AcDbEntity
  8
100
  6
Continuous
 62
     3
100
AcDbLine
 10
-45.5
 20
336.5
 30
0.0
 11
-45.5
 21
374.5
 31
0.0
  0
LINE
  5
51C
330
1F
100
AcDbEntity
  8
100
  6
Continuous
 62
     3
100
AcDbLine
 10
-85.3260000000002
 20
368.6
 30
0.0
 11
-45.5
 21
368.6
 31
0.0
  0
LINE
  5
51D
330
1F
100
AcDbEntity
  8
100
  6
Continuous
 62
     3
100
AcDbLine
 10
-85.3260000000002
 20
342.4
 30
0.0
 11
-45.5
 21
342.4
 31
0.0
  0
LINE
  5
51E
330
1F
100
AcDbEntity
  8
100
  6
Continuous
 62
     3
100
AcDbLine
 10
-45.5
 20
21.9393102292058
 30
0.0
 11
-23.5
 21
21.9393102292058
 31
0.0
  0
LINE
  5
51F
330
1F
100
AcDbEntity
  8
100
  6
Continuous
 62
     3
100
AcDbLine
 10
-45.5
 20
10.9696551146029
 30
0.0
 11
-23.5
 21
10.9696551146029
 31
0.0
  0
LINE
  5
520
330
1F
100
AcDbEntity
  8
100
  6
Continuous
 62
     3
100
AcDbLine
 10
-45.5
 20
-10.9696551146029
 30
0.0
 11
-23.5
 21
-10.9696551146029
 31
0.0
  0
LINE
  5
521
330
1F
100
AcDbEntity
  8
100
  6
Continuous
 62
     3
100
AcDbLine
 10
-45.5
 20
-21.9393102292058
 30
0.0
 11
-23.5
 21
-21.9393102292058
 31
0.0
  0
LINE
  5
522
330
1F
100
AcDbEntity
  8
100
  6
Continuous
 62
     3
100
AcDbLine
 10
-45.5
 20
336.5
 30
0.0
 11
-23.5
 21
336.5
 31
0.0
  0
LINE
  5
523
330
1F
100
AcDbEntity
  8
100
  6
Continuous
 62
     3
100
AcDbLine
 10
-45.5
 20
374.5
 30
0.0
 11
-23.5
 21
374.5
 31
0.0
  0
LINE
  5
524
330
1F
100
AcDbEntity
  8
100
  6
Continuous
 62
     3
100
AcDbLine
 10
-45.5
 20
355.5
 30
0.0
 11
-24.941102703256
 21
355.5
 31
0.0
  0
LINE
  5
525
330
1F
100
AcDbEntity
  8
100
  6
Continuous
 62
     3
100
AcDbLine
 10
-91.0
 20
12.9226875000001
 30
0.0
 11
-85.3260000000002
 21
13.1
 31
0.0
  0
LINE
  5
526
330
1F
100
AcDbEntity
  8
2
  6
Continuous
 62
     1
100
AcDbLine
 10
-72.0
 20
12.3544375
 30
0.0
 11
-91.0
 21
11.7606875
 31
0.0
  0
LINE
  5
527
330
1F
100
AcDbEntity
  8
100
  6
Continuous
 62
     3
100
AcDbLine
 10
-91.0
 20
-12.9226875000001
 30
0.0
 11
-85.3260000000002
 21
-13.1
 31
0.0
  0
LINE
  5
528
330
1F
100
AcDbEntity
  8
2
  6
Continuous
 62
     1
100
AcDbLine
 10
-72.0
 20
-12.3544375
 30
0.0
 11
-91.0
 21
-11.7606875
 31
0.0
  0
LINE
  5
529
330
1F
100
AcDbEntity
  8
100
  6
Continuous
 62
     3
100
AcDbLine
 10
-91.0
 20
368.4226875
 30
0.0
 11
-85.3260000000002
 21
368.6
 31
0.0
  0
LINE
  5
52A
330
1F
100
AcDbEntity
  8
100
  6
Continuous
 62
     3
100
AcDbLine
 10
-91.0
 20
342.5773125
 30
0.0
 11
-85.3260000000002
 21
342.4
 31
0.0
  0
LINE
  5
52B
330
1F
100
AcDbEntity
  8
2
  6
Continuous
 62
     1
100
AcDbLine
 10
-72.0
 20
343.1455625
 30
0.0
 11
-91.0
 21
343.7393125
 31
0.0
  0
LINE
  5
52C
330
1F
100
AcDbEntity
  8
2
  6
Continuous
 62
     1
100
AcDbLine
 10
-72.0
 20
367.8544375
 30
0.0
 11
-91.0
 21
367.2606875
 31
0.0
  0
LINE
  5
52D
330
1F
100
AcDbEntity
  8
100
  6
Continuous
 62
     3
100
AcDbLine
 10
-91.0
 20
-12.9226875000001
 30
0.0
 11
-91.0
 21
12.9226875000001
 31
0.0
  0
LINE
  5
52E
330
1F
100
AcDbEntity
  8
100
  6
Continuous
 62
     3
100
AcDbLine
 10
-91.0
 20
342.5773125
 30
0.0
 11
-91.0
 21
368.4226875
 31
0.0
  0
LINE
  5
52F
330
1F
100
AcDbEntity
  8
100
  6
Continuous
 62
     3
100
AcDbLine
 10
-45.5
 20
-21.9393102292058
 30
0.0
 11
-45.5
 21
21.9393102292058
 31
0.0
  0
LINE
  5
530
330
1F
100
AcDbEntity
  8
100
  6
Continuous
 62
     3
100
AcDbLine
 10
-23.5
 20
-21.9393102292058
 30
0.0
 11
-23.5
 21
21.9393102292058
 31
0.0
  0
LINE
  5
531
330
1F
100
AcDbEntity
  8
100
  6
Continuous
 62
     3
100
AcDbLine
 10
-141.0
 20
10.9696551146029
 30
0.0
 11
-160.0
 21
21.9393102292058
 31
0.0
  0
LINE
  5
532
330
1F
100
AcDbEntity
  8
100
  6
Continuous
 62
     3
100
AcDbLine
 10
-160.0
 20
21.9393102292058
 30
0.0
 11
-179.0
 21
10.9696551146029
 31
0.0
  0
LINE
  5
533
330
1F
100
AcDbEntity
  8
100
  6
Continuous
 62
     3
100
AcDbLine
 10
-179.0
 20
10.9696551146029
 30
0.0
 11
-179.0
 21
-25.9696551146029
 31
0.0
  0
LINE
  5
534
330
1F
100
AcDbEntity
  8
100
  6
Continuous
 62
     3
100
AcDbLine
 10
-179.0
 20
-10.9696551146029
 30
0.0
 11
-160.0
 21
-21.9393102292058
 31
0.0
  0
LINE
  5
535
330
1F
100
AcDbEntity
  8
100
  6
Continuous
 62
     3
100
AcDbLine
 10
-160.0
 20
-21.9393102292058
 30
0.0
 11
-141.0
 21
-10.9696551146029
 31
0.0
  0
LINE
  5
536
330
1F
100
AcDbEntity
  8
100
  6
Continuous
 62
     3
100
AcDbLine
 10
-141.0
 20
-25.9696551146029
 30
0.0
 11
-141.0
 21
10.9696551146029
 31
0.0
  0
LINE
  5
537
330
1F
100
AcDbEntity
  8
100
  6
Continuous
 62
     3
100
AcDbLine
 10
-179.0
 20
-25.9696551146029
 30
0.0
 11
-160.0
 21
-36.9393102292058
 31
0.0
  0
LINE
  5
538
330
1F
100
AcDbEntity
  8
100
  6
Continuous
 62
     3
100
AcDbLine
 10
-160.0
 20
-36.9393102292058
 30
0.0
 11
-141.0
 21
-25.9696551146029
 31
0.0
  0
LINE
  5
539
330
1F
100
AcDbEntity
  8
100
  6
Continuous
 62
     3
100
AcDbLine
 10
179.0
 20
10.9696551146029
 30
0.0
 11
175.483339501605
 21
13.0
 31
0.0
  0
LINE
  5
53A
330
1F
100
AcDbEntity
  8
100
  6
Continuous
 62
     3
100
AcDbLine
 10
144.516660498395
 20
13.0
 30
0.0
 11
141.0
 21
10.9696551146029
 31
0.0
  0
LINE
  5
53B
330
1F
100
AcDbEntity
  8
100
  6
Continuous
 62
     3
100
AcDbLine
 10
179.0
 20
-4.03034488539708
 30
0.0
 11
160.0
 21
6.9393102292058
 31
0.0
  0
LINE
  5
53C
330
1F
100
AcDbEntity
  8
100
  6
Continuous
 62
     3
100
AcDbLine
 10
160.0
 20
6.9393102292058
 30
0.0
 11
141.0
 21
-4.03034488539708
 31
0.0
  0
LINE
  5
53D
330
1F
100
AcDbEntity
  8
100
  6
Continuous
 62
     3
100
AcDbLine
 10
141.0
 20
10.9696551146029
 30
0.0
 11
141.0
 21
-25.9696551146029
 31
0.0
  0
LINE
  5
53E
330
1F
100
AcDbEntity
  8
100
  6
Continuous
 62
     3
100
AcDbLine
 10
141.0
 20
-25.9696551146029
 30
0.0
 11
160.0
 21
-36.9393102292058
 31
0.0
  0
LINE
  5
53F
330
1F
100
AcDbEntity
  8
100
  6
Continuous
 62
     3
100
AcDbLine
 10
160.0
 20
-36.9393102292058
 30
0.0
 11
179.0
 21
-25.9696551146029
 31
0.0
  0
LINE
  5
540
330
1F
100
AcDbEntity
  8
100
  6
Continuous
 62
     3
100
AcDbLine
 10
179.0
 20
-25.9696551146029
 30
0.0
 11
179.0
 21
10.9696551146029
 31
0.0
  0
LINE
  5
541
330
1F
100
AcDbEntity
  8
100
  6
Continuous
 62
     3
100
AcDbLine
 10
-146.770007860876
 20
299.891048196256
 30
0.0
 11
-133.248018866102
 21
295.762755974056
 31
0.0
  0
LINE
  5
542
330
1F
100
AcDbEntity
  8
100
  6
Continuous
 62
     3
100
AcDbLine
 10
-140.003457120787
 20
290.044738518463
 30
0.0
 11
-140.003457120787
 21
282.0
 31
0.0
  0
LINE
  5
543
330
1F
100
AcDbEntity
  8
100
  6
Continuous
 62
     3
100
AcDbLine
 10
-179.996542879213
 20
290.044738518463
 30
0.0
 11
-179.996542879213
 21
282.0
 31
0.0
  0
LINE
  5
544
330
1F
100
AcDbEntity
  8
100
  6
Continuous
 62
     3
100
AcDbLine
 10
-147.5
 20
300.0
 30
0.0
 11
-172.5
 21
300.0
 31
0.0
  0
LINE
  5
545
330
1F
100
AcDbEntity
  8
100
  6
Continuous
 62
     3
100
AcDbLine
 10
-191.0
 20
290.024240303043
 30
0.0
 11
-191.0
 21
280.0
 31
0.0
  0
LINE
  5
546
330
1F
100
AcDbEntity
  8
100
  6
Continuous
 62
     3
100
AcDbLine
 10
-173.229992139124
 20
299.891048196256
 30
0.0
 11
-186.751981133898
 21
295.762755974056
 31
0.0
  0
LINE
  5
547
330
1F
100
AcDbEntity
  8
100
  6
Continuous
 62
     3
100
AcDbLine
 10
-191.0
 20
280.0
 30
0.0
 11
-129.0
 21
280.0
 31
0.0
  0
LINE
  5
548
330
1F
100
AcDbEntity
  8
100
  6
Continuous
 62
     3
100
AcDbLine
 10
-144.0
 20
203.5
 30
0.0
 11
-144.0
 21
228.5
 31
0.0
  0
LINE
  5
549
330
1F
100
AcDbEntity
  8
100
  6
Continuous
 62
     3
100
AcDbLine
 10
-176.0
 20
203.5
 30
0.0
 11
-176.0
 21
228.5
 31
0.0
  0
LINE
  5
54A
330
1F
100
AcDbEntity
  8
100
  6
Continuous
 62
     3
100
AcDbLine
 10
-176.0
 20
203.5
 30
0.0
 11
-144.0
 21
203.5
 31
0.0
  0
LINE
  5
54B
330
1F
100
AcDbEntity
  8
100
  6
Continuous
 62
     3
100
AcDbLine
 10
-173.6
 20
80.0000000000007
 30
0.0
 11
-173.6
 21
203.5
 31
0.0
  0
LINE
  5
54C
330
1F
100
AcDbEntity
  8
100
  6
Continuous
 62
     3
100
AcDbLine
 10
-146.4
 20
81.6889311249324
 30
0.0
 11
-146.4
 21
203.5
 31
0.0
  0
LINE
  5
54D
330
1F
100
AcDbEntity
  8
100
  6
Continuous
 62
     3
100
AcDbLine
 10
-177.0
 20
228.5
 30
0.0
 11
-143.0
 21
228.5
 31
0.0
  0
LINE
  5
54E
330
1F
100
AcDbEntity
  8
100
  6
Continuous
 62
     3
100
AcDbLine
 10
-169.0
 20
262.0
 30
0.0
 11
-169.0
 21
254.930285549747
 31
0.0
  0
LINE
  5
54F
330
1F
100
AcDbEntity
  8
100
  6
Continuous
 62
     3
100
AcDbLine
 10
-173.5
 20
247.048426656989
 30
0.0
 11
-173.5
 21
232.0
 31
0.0
  0
LINE
  5
550
330
1F
100
AcDbEntity
  8
100
  6
Continuous
 62
     3
100
AcDbLine
 10
-151.0
 20
262.0
 30
0.0
 11
-151.0
 21
254.930285549747
 31
0.0
  0
LINE
  5
551
330
1F
100
AcDbEntity
  8
100
  6
Continuous
 62
     3
100
AcDbLine
 10
-146.5
 20
247.048426656989
 30
0.0
 11
-146.5
 21
232.0
 31
0.0
  0
LINE
  5
552
330
1F
100
AcDbEntity
  8
100
  6
Continuous
 62
     3
100
AcDbLine
 10
-151.0
 20
262.0
 30
0.0
 11
-169.0
 21
262.0
 31
0.0
  0
LINE
  5
553
330
1F
100
AcDbEntity
  8
100
  6
Continuous
 62
     3
100
AcDbLine
 10
-164.4
 20
280.0
 30
0.0
 11
-164.4
 21
262.0
 31
0.0
  0
LINE
  5
554
330
1F
100
AcDbEntity
  8
100
  6
Continuous
 62
     3
100
AcDbLine
 10
-143.0
 20
228.5
 30
0.0
 11
-143.0
 21
232.0
 31
0.0
  0
LINE
  5
555
330
1F
100
AcDbEntity
  8
100
  6
Continuous
 62
     3
100
AcDbLine
 10
-177.0
 20
232.0
 30
0.0
 11
-143.0
 21
232.0
 31
0.0
  0
LINE
  5
556
330
1F
100
AcDbEntity
  8
100
  6
Continuous
 62
     3
100
AcDbLine
 10
-177.0
 20
228.5
 30
0.0
 11
-177.0
 21
232.0
 31
0.0
  0
LINE
  5
557
330
1F
100
AcDbEntity
  8
100
  6
Continuous
 62
     3
100
AcDbLine
 10
-129.0
 20
290.024240303043
 30
0.0
 11
-129.0
 21
280.0
 31
0.0
  0
LINE
  5
558
330
1F
100
AcDbEntity
  8
100
  6
Continuous
 62
     3
100
AcDbLine
 10
-146.4
 20
26.0
 30
0.0
 11
-146.4
 21
76.6889311249324
 31
0.0
  0
LINE
  5
559
330
1F
100
AcDbEntity
  8
100
  6
Continuous
 62
     3
100
AcDbLine
 10
-173.6
 20
75.0000000000007
 30
0.0
 11
-173.6
 21
26.0
 31
0.0
  0
LINE
  5
55A
330
1F
100
AcDbEntity
  8
1
  6
Continuous
 62
     4
100
AcDbLine
 10
80.9669976184922
 20
-31.1934992895155
 30
0.0
 11
80.6905322982668
 21
-28.1
 31
0.0
  0
LINE
  5
55B
330
1F
100
AcDbEntity
  8
1
  6
Continuous
 62
     4
100
AcDbLine
 10
82.4767079336051
 20
-30.6408163111969
 30
0.0
 11
80.6905322982668
 21
-28.1
 31
0.0
  0
ARC
  5
55C
330
1F
100
AcDbEntity
  8
100
  6
Continuous
 62
     3
100
AcDbCircle
 10
-0.00000000000001
 20
377.5
 30
0.0
 40
8.999999999999998
100
AcDbArc
 50
28.41186449479876
 51
151.5881355052015
  0
ARC
  5
55D
330
1F
100
AcDbEntity
  8
100
  6
Continuous
 62
     3
100
AcDbCircle
 10
185.0
 20
290.024240303043
 30
0.0
 40
6.0
100
AcDbArc
 50
0.0
 51
73.02245725904896
  0
ARC
  5
55E
330
1F
100
AcDbEntity
  8
100
  6
Continuous
 62
     3
100
AcDbCircle
 10
141.0
 20
255.400073201234
 30
0.0
 40
9.999999999999972
100
AcDbArc
 50
303.3670129692318
 51
0.0
  0
ARC
  5
55F
330
1F
100
AcDbEntity
  8
100
  6
Continuous
 62
     3
100
AcDbCircle
 10
179.0
 20
255.400073201234
 30
0.0
 40
10.0
100
AcDbArc
 50
180.0
 51
236.6329870307681
  0
ARC
  5
560
330
1F
100
AcDbEntity
  8
100
  6
Continuous
 62
     3
100
AcDbCircle
 10
135.0
 20
290.024240303043
 30
0.0
 40
5.999999999999724
100
AcDbArc
 50
106.977542740951
 51
180.0
  0
ARC
  5
561
330
1F
100
AcDbEntity
  8
100
  6
Continuous
 62
     3
100
AcDbCircle
 10
147.5
 20
297.5
 30
0.0
 40
2.5
100
AcDbArc
 50
90.0
 51
106.9775427409434
  0
ARC
  5
562
330
1F
100
AcDbEntity
  8
100
  6
Continuous
 62
     3
100
AcDbCircle
 10
146.003457120787
 20
290.044738518463
 30
0.0
 40
5.999999999999352
100
AcDbArc
 50
121.2094430364593
 51
180.0
  0
ARC
  5
563
330
1F
100
AcDbEntity
  8
100
  6
Continuous
 62
     3
100
AcDbCircle
 10
173.996542879213
 20
290.044738518463
 30
0.0
 40
6.0
100
AcDbArc
 50
0.0
 51
58.7905569635458
  0
ARC
  5
564
330
1F
100
AcDbEntity
  8
100
  6
Continuous
 62
     3
100
AcDbCircle
 10
172.5
 20
297.5
 30
0.0
 40
2.500000000000387
100
AcDbArc
 50
73.02245725905664
 51
90.0
  0
ARC
  5
565
330
1F
100
AcDbEntity
  8
100
  6
Continuous
 62
     3
100
AcDbCircle
 10
19.0
 20
255.400073201234
 30
0.0
 40
10.0
100
AcDbArc
 50
180.0
 51
250.0527857663935
  0
ARC
  5
566
330
1F
100
AcDbEntity
  8
100
  6
Continuous
 62
     3
100
AcDbCircle
 10
-19.0
 20
255.400073201234
 30
0.0
 40
10.00000000000007
100
AcDbArc
 50
289.9472142336065
 51
0.0
  0
ARC
  5
567
330
1F
100
AcDbEntity
  8
100
  6
Continuous
 62
     3
100
AcDbCircle
 10
19.0525588832576
 20
366.5
 30
0.0
 40
9.000000000000199
100
AcDbArc
 50
0.0
 51
91.58813550520077
  0
ARC
  5
568
330
1F
100
AcDbEntity
  8
100
  6
Continuous
 62
     3
100
AcDbCircle
 10
19.0525588832576
 20
366.5
 30
0.0
 40
9.000000000000172
100
AcDbArc
 50
328.4118644947973
 51
0.0
  0
ARC
  5
569
330
1F
100
AcDbEntity
  8
100
  6
Continuous
 62
     3
100
AcDbCircle
 10
36.941102703256
 20
355.5
 30
0.0
 40
11.9999999999999
100
AcDbArc
 50
148.4118644948002
 51
211.5881355052001
  0
ARC
  5
56A
330
1F
100
AcDbEntity
  8
100
  6
Continuous
 62
     3
100
AcDbCircle
 10
18.470551351628
 20
387.49193338483
 30
0.0
 40
12.00000000000019
100
AcDbArc
 50
208.4118644948003
 51
271.5881355052011
  0
ARC
  5
56B
330
1F
100
AcDbEntity
  8
100
  6
Continuous
 62
     3
100
AcDbCircle
 10
19.0525588832576
 20
344.5
 30
0.0
 40
9.000000000000279
100
AcDbArc
 50
268.4118644947993
 51
31.58813550520235
  0
ARC
  5
56C
330
1F
100
AcDbEntity
  8
100
  6
Continuous
 62
     3
100
AcDbCircle
 10
18.470551351628
 20
323.50806661517
 30
0.0
 40
12.00000000000007
100
AcDbArc
 50
88.41186449479889
 51
151.5881355051997
  0
ARC
  5
56D
330
1F
100
AcDbEntity
  8
100
  6
Continuous
 62
     3
100
AcDbCircle
 10
-0.00000000000001
 20
333.5
 30
0.0
 40
8.99999999999999
100
AcDbArc
 50
208.4118644947988
 51
331.5881355052013
  0
ARC
  5
56E
330
1F
100
AcDbEntity
  8
100
  6
Continuous
 62
     3
100
AcDbCircle
 10
-19.0525588832577
 20
344.5
 30
0.0
 40
9.000000000000087
100
AcDbArc
 50
148.411864494797
 51
271.5881355052014
  0
ARC
  5
56F
330
1F
100
AcDbEntity
  8
100
  6
Continuous
 62
     3
100
AcDbCircle
 10
-18.470551351628
 20
323.50806661517
 30
0.0
 40
12.00000000000018
100
AcDbArc
 50
28.41186449480033
 51
91.58813550520111
  0
ARC
  5
570
330
1F
100
AcDbEntity
  8
100
  6
Continuous
 62
     3
100
AcDbCircle
 10
-36.941102703256
 20
355.5
 30
0.0
 40
11.9999999999999
100
AcDbArc
 50
328.4118644948002
 51
31.58813550520032
  0
ARC
  5
571
330
1F
100
AcDbEntity
  8
100
  6
Continuous
 62
     3
100
AcDbCircle
 10
-19.0525588832577
 20
366.5
 30
0.0
 40
9.000000000000282
100
AcDbArc
 50
88.4118644947986
 51
211.5881355052023
  0
ARC
  5
572
330
1F
100
AcDbEntity
  8
100
  6
Continuous
 62
     3
100
AcDbCircle
 10
-18.470551351628
 20
387.49193338483
 30
0.0
 40
12.00000000000007
100
AcDbArc
 50
268.4118644947989
 51
331.5881355051994
  0
ARC
  5
573
330
1F
100
AcDbEntity
  8
100
  6
Continuous
 62
     3
100
AcDbCircle
 10
12.5
 20
297.5
 30
0.0
 40
2.500000000000389
100
AcDbArc
 50
73.02245725905647
 51
90.0
  0
ARC
  5
574
330
1F
100
AcDbEntity
  8
100
  6
Continuous
 62
     3
100
AcDbCircle
 10
22.0525588832576
 20
290.924100393325
 30
0.0
 40
6.0
100
AcDbArc
 50
0.0
 51
73.02245725905439
  0
ARC
  5
575
330
1F
100
AcDbEntity
  8
100
  6
Continuous
 62
     3
100
AcDbCircle
 10
-12.5
 20
297.5
 30
0.0
 40
2.5
100
AcDbArc
 50
90.0
 51
106.9775427409435
  0
ARC
  5
576
330
1F
100
AcDbEntity
  8
100
  6
Continuous
 62
     3
100
AcDbCircle
 10
-22.0525588832576
 20
290.924100393325
 30
0.0
 40
6.00000000000056
100
AcDbArc
 50
106.9775427409456
 51
180.0
  0
ARC
  5
577
330
1F
100
AcDbEntity
  8
2
  6
CENTER
 62
     6
100
AcDbCircle
 10
-22.0525588832576
 20
284.373898371176
 30
0.0
 40
6.00000000000056
100
AcDbArc
 50
106.9775427409456
 51
180.0
  0
ARC
  5
578
330
1F
100
AcDbEntity
  8
2
  6
CENTER
 62
     6
100
AcDbCircle
 10
-12.5
 20
290.949797977851
 30
0.0
 40
2.5
100
AcDbArc
 50
90.0
 51
106.9775427409435
  0
ARC
  5
579
330
1F
100
AcDbEntity
  8
2
  6
CENTER
 62
     6
100
AcDbCircle
 10
12.5
 20
290.949797977851
 30
0.0
 40
2.500000000000389
100
AcDbArc
 50
73.02245725905647
 51
90.0
  0
ARC
  5
57A
330
1F
100
AcDbEntity
  8
2
  6
CENTER
 62
     6
100
AcDbCircle
 10
22.0525588832576
 20
284.373898371176
 30
0.0
 40
6.0
100
AcDbArc
 50
0.0
 51
73.02245725905439
  0
ARC
  5
57B
330
1F
100
AcDbEntity
  8
100
  6
Continuous
 62
     3
100
AcDbCircle
 10
-147.5
 20
297.5
 30
0.0
 40
2.500000000000387
100
AcDbArc
 50
73.02245725905664
 51
90.0
  0
ARC
  5
57C
330
1F
100
AcDbEntity
  8
100
  6
Continuous
 62
     3
100
AcDbCircle
 10
-146.003457120787
 20
290.044738518463
 30
0.0
 40
6.0
100
AcDbArc
 50
0.0
 51
58.7905569635458
  0
ARC
  5
57D
330
1F
100
AcDbEntity
  8
100
  6
Continuous
 62
     3
100
AcDbCircle
 10
-173.996542879213
 20
290.044738518463
 30
0.0
 40
5.999999999999352
100
AcDbArc
 50
121.2094430364593
 51
180.0
  0
ARC
  5
57E
330
1F
100
AcDbEntity
  8
100
  6
Continuous
 62
     3
100
AcDbCircle
 10
-172.5
 20
297.5
 30
0.0
 40
2.5
100
AcDbArc
 50
90.0
 51
106.9775427409434
  0
ARC
  5
57F
330
1F
100
AcDbEntity
  8
100
  6
Continuous
 62
     3
100
AcDbCircle
 10
-185.0
 20
290.024240303043
 30
0.0
 40
5.999999999999724
100
AcDbArc
 50
106.977542740951
 51
180.0
  0
ARC
  5
580
330
1F
100
AcDbEntity
  8
100
  6
Continuous
 62
     3
100
AcDbCircle
 10
-141.0
 20
255.400073201234
 30
0.0
 40
10.0
100
AcDbArc
 50
180.0
 51
236.6329870307681
  0
ARC
  5
581
330
1F
100
AcDbEntity
  8
100
  6
Continuous
 62
     3
100
AcDbCircle
 10
-179.0
 20
255.400073201234
 30
0.0
 40
9.999999999999972
100
AcDbArc
 50
303.3670129692318
 51
0.0
  0
ARC
  5
582
330
1F
100
AcDbEntity
  8
100
  6
Continuous
 62
     3
100
AcDbCircle
 10
-135.0
 20
290.024240303043
 30
0.0
 40
6.0
100
AcDbArc
 50
0.0
 51
73.02245725904896
  0
CIRCLE
  5
583
330
1F
100
AcDbEntity
  8
100
  6
Continuous
 62
     3
100
AcDbCircle
 10
0.0
 20
355.5
 30
0.0
 40
10.0
  0
CIRCLE
  5
584
330
1F
100
AcDbEntity
  8
100
  6
Continuous
 62
     3
100
AcDbCircle
 10
-160.0
 20
0.0
 30
0.0
 40
13.09999999999999
  0
CIRCLE
  5
585
330
1F
100
AcDbEntity
  8
2
  6
Continuous
 62
     3
100
AcDbCircle
 10
-160.0
 20
0.0
 30
0.0
 40
12.05850000000001
  0
CIRCLE
  5
586
330
1F
100
AcDbEntity
  8
100
  6
Continuous
 62
     3
100
AcDbCircle
 10
-160.0
 20
0.0
 30
0.0
 40
10.0
  0
CIRCLE
  5
587
330
1F
100
AcDbEntity
  8
100
  6
Continuous
 62
     3
100
AcDbCircle
 10
160.0
 20
-15.0
 30
0.0
 40
13.09999999999999
  0
CIRCLE
  5
588
330
1F
100
AcDbEntity
  8
2
  6
Continuous
 62
     3
100
AcDbCircle
 10
160.0
 20
-15.0
 30
0.0
 40
12.05850000000001
  0
CIRCLE
  5
589
330
1F
100
AcDbEntity
  8
100
  6
Continuous
 62
     3
100
AcDbCircle
 10
160.0
 20
-15.0
 30
0.0
 40
10.0
  0
LWPOLYLINE
  5
58A
330
1F
100
AcDbEntity
  8
2
  6
Continuous
 62
     2
100
AcDbPolyline
 90
        3
 70
     0
 43
0.0
 10
46.2000007629395
 20
161.925003051758
 10
52.5
 20
161.925003051758
 10
52.5
 20
165.075004577637
  0
LWPOLYLINE
  5
58B
330
1F
100
AcDbEntity
  8
2
  6
Continuous
 62
     2
100
AcDbPolyline
 90
        3
 70
     0
 43
0.0
 10
54.25
 20
297.0
 10
55.0
 20
300.0
 10
55.75
 20
297.0
  0
LWPOLYLINE
  5
58C
330
1F
100
AcDbEntity
  8
2
  6
Continuous
 62
     2
100
AcDbPolyline
 90
        3
 70
     0
 43
0.0
 10
55.75
 20
3.0
 10
55.0
 20
0.0
 10
54.25
 20
3.0
  0
LWPOLYLINE
  5
58D
330
1F
100
AcDbEntity
  8
100
  6
Continuous
 62
     3
100
AcDbPolyline
 90
        9
 70
     0
 43
0.0
 10
-1.66093063354492
 20
-21.2455768585205
 10
-1.64757164328195
 20
-21.7164398192239
 10
-1.56344310591195
 20
-22.1798869605322
 10
-1.41047831643174
 20
-22.6252969176275
 10
-1.19218063354492
 20
-23.0424518585205
 10
-1.01909727768429
 20
-23.2658322242655
 10
-0.79501078541269
 20
-23.4382425662495
 10
-0.53453761447702
 20
-23.5484892473191
 10
-0.25468063354492
 20
-23.5893268585205
  0
LWPOLYLINE
  5
58E
330
1F
100
AcDbEntity
  8
100
  6
Continuous
 62
     3
100
AcDbPolyline
 90
        9
 70
     0
 43
0.0
 10
1.15156936645508
 20
-21.2455768585205
 10
1.13821037619211
 20
-21.7164398192239
 10
1.05408183882211
 20
-22.1798869605322
 10
0.9011170493419
 20
-22.6252969176275
 10
0.68281936645508
 20
-23.0424518585205
 10
0.50973601059445
 20
-23.2658322242655
 10
0.28564951832284
 20
-23.4382425662495
 10
0.02517634738718
 20
-23.5484892473191
 10
-0.25468063354492
 20
-23.5893268585205
  0
LWPOLYLINE
  5
58F
330
1F
100
AcDbEntity
  8
100
  6
Continuous
 62
     3
100
AcDbPolyline
 90
        9
 70
     0
 43
0.0
 10
1.15156936645508
 20
-21.2455768585205
 10
1.13821037619211
 20
-20.7747138978171
 10
1.05408183882211
 20
-20.3112667565088
 10
0.9011170493419
 20
-19.8658567994135
 10
0.68281936645508
 20
-19.4487018585205
 10
0.50973601059445
 20
-19.2253214927755
 10
0.28564951832284
 20
-19.0529111507915
 10
0.02517634738718
 20
-18.9426644697219
 10
-0.25468063354492
 20
-18.9018268585205
  0
LWPOLYLINE
  5
590
330
1F
100
AcDbEntity
  8
100
  6
Continuous
 62
     3
100
AcDbPolyline
 90
        9
 70
     0
 43
0.0
 10
-1.66093063354492
 20
-21.2455768585205
 10
-1.64757164328195
 20
-20.7747138978171
 10
-1.56344310591195
 20
-20.3112667565088
 10
-1.41047831643174
 20
-19.8658567994135
 10
-1.19218063354492
 20
-19.4487018585205
 10
-1.01909727768429
 20
-19.2253214927755
 10
-0.79501078541269
 20
-19.0529111507915
 10
-0.53453761447702
 20
-18.9426644697219
 10
-0.25468063354492
 20
-18.9018268585205
  0
LWPOLYLINE
  5
591
330
1F
100
AcDbEntity
  8
100
  6
Continuous
 62
     3
100
AcDbPolyline
 90
        3
 70
     0
 43
0.0
 10
-7.36405563354492
 20
-23.5893268585205
 10
-7.29301449532522
 20
-23.2221658832526
 10
-7.12968063354492
 20
-22.8862018585205
  0
LWPOLYLINE
  5
592
330
1F
100
AcDbEntity
  8
100
  6
Continuous
 62
     3
100
AcDbPolyline
 90
        2
 70
     0
 43
0.0
 10
-7.36405563354492
 20
-23.5893268585205
 10
-5.02030563354492
 20
-23.5893268585205
  0
LWPOLYLINE
  5
593
330
1F
100
AcDbEntity
  8
100
  6
Continuous
 62
     3
100
AcDbPolyline
 90
       14
 70
     0
 43
0.0
 10
-7.36405563354492
 20
-20.0737018585205
 10
-7.30636432268411
 20
-19.7099776408326
 10
-7.13848844908575
 20
-19.3819630302354
 10
-6.87728658761884
 20
-19.1222411342169
 10
-6.54862594604492
 20
-18.9567584991455
 10
-6.18481370962525
 20
-18.9012443369779
 10
-5.82141324928403
 20
-18.9615579475835
 10
-5.49459072554609
 20
-19.1315333263904
 10
-5.23698043823242
 20
-19.394380569458
 10
-5.07332096887062
 20
-19.7242524187806
 10
-5.02015645583275
 20
-20.0888479265699
 10
-5.08262930510234
 20
-20.4517466512563
 10
-5.25468063354492
 20
-20.7768268585205
 10
-7.12968063354492
 20
-22.8862018585205
  0
LWPOLYLINE
  5
594
330
1F
100
AcDbEntity
  8
100
  6
Continuous
 62
     3
100
AcDbPolyline
 90
        4
 70
     0
 43
0.0
 10
2.9912691116333
 20
-11.406476020813
 10
1.5850191116333
 20
-11.406476020813
 10
1.5850191116333
 20
-6.71897602081299
 10
2.9912691116333
 20
-6.71897602081299
  0
LWPOLYLINE
  5
595
330
1F
100
AcDbEntity
  8
100
  6
Continuous
 62
     3
100
AcDbPolyline
 90
        7
 70
     0
 43
0.0
 10
2.9912691116333
 20
-11.406476020813
 10
3.42974757844253
 20
-11.3767478909567
 10
3.83688444361514
 20
-11.2100820939202
 10
4.17096707354496
 20
-10.9237770314687
 10
4.3975191116333
 20
-10.547101020813
 10
4.58695677382049
 20
-9.8168422981064
 10
4.6318941116333
 20
-9.06272602081299
  0
LWPOLYLINE
  5
596
330
1F
100
AcDbEntity
  8
100
  6
Continuous
 62
     3
100
AcDbPolyline
 90
        7
 70
     0
 43
0.0
 10
2.9912691116333
 20
-6.71897602081299
 10
3.42974757844253
 20
-6.74870415066931
 10
3.83688444361514
 20
-6.91536994770581
 10
4.17096707354496
 20
-7.20167501015726
 10
4.3975191116333
 20
-7.57835102081299
 10
4.58695677382049
 20
-8.30860974351957
 10
4.6318941116333
 20
-9.06272602081299
  0
LWPOLYLINE
  5
597
330
1F
100
AcDbEntity
  8
100
  6
Continuous
 62
     3
100
AcDbPolyline
 90
        5
 70
     0
 43
0.0
 10
-4.5868558883667
 20
-11.406476020813
 10
-4.5868558883667
 20
-6.71897602081299
 10
-2.9462308883667
 20
-9.29710102081299
 10
-1.3056058883667
 20
-6.71897602081299
 10
-1.3056058883667
 20
-11.406476020813
  0
LWPOLYLINE
  5
598
330
1F
100
AcDbEntity
  8
100
  6
Continuous
 62
     3
100
AcDbPolyline
 90
        2
 70
     0
 43
0.0
 10
164.4
 20
262.0
 10
164.4
 20
280.0
  0
LWPOLYLINE
  5
599
330
1F
100
AcDbEntity
  8
2
  6
Continuous
 62
     1
100
AcDbPolyline
 90
       20
 70
     0
 43
0.0
 10
146.4
 20
80.0000000000007
 10
148.026151303087
 20
80.5506927839539
 10
149.494236782005
 20
80.9142491104437
 10
150.918068426499
 20
81.1192883131609
 10
151.606768704399
 20
81.1602819512559
 10
152.279546286507
 20
81.1602266461601
 10
153.570715158155
 20
81.0497186303252
 10
155.021922125237
 20
80.7911230449614
 10
156.653689641044
 20
80.3858499316395
 10
158.876584743738
 20
79.7318920761439
 10
160.104372572337
 20
79.3626314183342
 10
162.320865425601
 20
78.7813668857945
 10
164.092246556256
 20
78.4986638405479
 10
165.715625735907
 20
78.4678685755341
 10
167.259506518388
 20
78.692939078556
 10
167.916587339289
 20
78.8694661679594
 10
168.61037293177
 20
79.1015687246662
 10
170.10670366563
 20
79.7320304685191
 10
171.727942942493
 20
80.5725820698445
 10
173.6
 20
81.6889311249324
  0
LWPOLYLINE
  5
59A
330
1F
100
AcDbEntity
  8
2
  6
Continuous
 62
     1
100
AcDbPolyline
 90
       20
 70
     0
 43
0.0
 10
146.4
 20
75.0000000000007
 10
148.026151303087
 20
75.5506927839539
 10
149.494236782005
 20
75.9142491104437
 10
150.918068426499
 20
76.1192883131609
 10
151.606768704399
 20
76.1602819512559
 10
152.279546286507
 20
76.1602266461601
 10
153.570715158155
 20
76.0497186303252
 10
155.021922125237
 20
75.7911230449614
 10
156.653689641044
 20
75.3858499316395
 10
158.876584743738
 20
74.7318920761439
 10
160.104372572337
 20
74.3626314183342
 10
162.320865425601
 20
73.7813668857945
 10
164.092246556256
 20
73.4986638405479
 10
165.715625735907
 20
73.4678685755341
 10
167.259506518388
 20
73.692939078556
 10
167.916587339289
 20
73.8694661679594
 10
168.61037293177
 20
74.1015687246662
 10
170.10670366563
 20
74.7320304685191
 10
171.727942942493
 20
75.5725820698445
 10
173.6
 20
76.6889311249324
  0
LWPOLYLINE
  5
59B
330
1F
100
AcDbEntity
  8
100
  6
Continuous
 62
     3
100
AcDbPolyline
 90
        2
 70
     0
 43
0.0
 10
4.39999999999998
 20
262.0
 10
4.39999999999998
 20
280.0
  0
LWPOLYLINE
  5
59C
330
1F
100
AcDbEntity
  8
2
  6
Continuous
 62
     1
100
AcDbPolyline
 90
       20
 70
     0
 43
0.0
 10
13.6
 20
79.9497979778518
 10
11.9738486969133
 20
80.5004907618049
 10
10.5057632179954
 20
80.8640470882947
 10
9.0819315735014
 20
81.0690862910119
 10
8.39323129560129
 20
81.1100799291069
 10
7.72045371349344
 20
81.1100246240112
 10
6.42928484184467
 20
80.9995166081763
 10
4.97807787476323
 20
80.7409210228124
 10
3.34631035895618
 20
80.3356479094906
 10
1.12341525626216
 20
79.681690053995
 10
-0.10437257233659
 20
79.3124293961853
 10
-2.32086542560122
 20
78.7311648636456
 10
-4.09224655625565
 20
78.448461818399
 10
-5.71562573590698
 20
78.4176665533852
 10
-7.25950651838843
 20
78.642737056407
 10
-7.9165873392892
 20
78.8192641458104
 10
-8.61037293177008
 20
79.0513667025172
 10
-10.1067036656296
 20
79.6818284463701
 10
-11.7279429424935
 20
80.5223800476955
 10
-13.6
 20
81.6387291027835
  0
LWPOLYLINE
  5
59D
330
1F
100
AcDbEntity
  8
2
  6
Continuous
 62
     1
100
AcDbPolyline
 90
       20
 70
     0
 43
0.0
 10
13.6
 20
75.0000000000007
 10
11.9738486969133
 20
75.5506927839538
 10
10.5057632179954
 20
75.9142491104436
 10
9.0819315735014
 20
76.1192883131609
 10
8.39323129560129
 20
76.1602819512559
 10
7.72045371349344
 20
76.1602266461601
 10
6.42928484184467
 20
76.0497186303252
 10
4.97807787476323
 20
75.7911230449614
 10
3.34631035895618
 20
75.3858499316395
 10
1.12341525626216
 20
74.7318920761439
 10
-0.10437257233659
 20
74.3626314183342
 10
-2.32086542560122
 20
73.7813668857945
 10
-4.09224655625565
 20
73.4986638405479
 10
-5.71562573590698
 20
73.4678685755341
 10
-7.25950651838843
 20
73.692939078556
 10
-7.9165873392892
 20
73.8694661679593
 10
-8.61037293177008
 20
74.1015687246661
 10
-10.1067036656296
 20
74.732030468519
 10
-11.7279429424935
 20
75.5725820698445
 10
-13.6
 20
76.6889311249324
  0
LWPOLYLINE
  5
59E
330
1F
100
AcDbEntity
  8
2
  6
Continuous
 62
     1
100
AcDbPolyline
 90
       20
 70
     0
 43
0.0
 10
-173.6
 20
75.0000000000007
 10
-171.973848696913
 20
75.5506927839539
 10
-170.505763217995
 20
75.9142491104437
 10
-169.081931573501
 20
76.1192883131609
 10
-168.393231295601
 20
76.1602819512559
 10
-167.720453713493
 20
76.1602266461601
 10
-166.429284841845
 20
76.0497186303252
 10
-164.978077874763
 20
75.7911230449614
 10
-163.346310358956
 20
75.3858499316395
 10
-161.123415256262
 20
74.7318920761439
 10
-159.895627427663
 20
74.3626314183342
 10
-157.679134574399
 20
73.7813668857945
 10
-155.907753443744
 20
73.4986638405479
 10
-154.284374264093
 20
73.4678685755341
 10
-152.740493481612
 20
73.692939078556
 10
-152.083412660711
 20
73.8694661679594
 10
-151.38962706823
 20
74.1015687246662
 10
-149.89329633437
 20
74.7320304685191
 10
-148.272057057507
 20
75.5725820698445
 10
-146.4
 20
76.6889311249324
  0
LWPOLYLINE
  5
59F
330
1F
100
AcDbEntity
  8
100
  6
Continuous
 62
     3
100
AcDbPolyline
 90
        2
 70
     0
 43
0.0
 10
-155.6
 20
262.0
 10
-155.6
 20
280.0
  0
LWPOLYLINE
  5
5A0
330
1F
100
AcDbEntity
  8
2
  6
Continuous
 62
     1
100
AcDbPolyline
 90
       20
 70
     0
 43
0.0
 10
-173.6
 20
80.0000000000007
 10
-171.973848696913
 20
80.5506927839539
 10
-170.505763217995
 20
80.9142491104437
 10
-169.081931573501
 20
81.1192883131609
 10
-168.393231295601
 20
81.1602819512559
 10
-167.720453713493
 20
81.1602266461601
 10
-166.429284841845
 20
81.0497186303252
 10
-164.978077874763
 20
80.7911230449614
 10
-163.346310358956
 20
80.3858499316395
 10
-161.123415256262
 20
79.7318920761439
 10
-159.895627427663
 20
79.3626314183342
 10
-157.679134574399
 20
78.7813668857945
 10
-155.907753443744
 20
78.4986638405479
 10
-154.284374264093
 20
78.4678685755341
 10
-152.740493481612
 20
78.692939078556
 10
-152.083412660711
 20
78.8694661679594
 10
-151.38962706823
 20
79.1015687246662
 10
-149.89329633437
 20
79.7320304685191
 10
-148.272057057507
 20
80.5725820698445
 10
-146.4
 20
81.6889311249324
  0
LEADER
  5
5A1
330
1F
100
AcDbEntity
  8
1
  6
Continuous
 62
     4
100
AcDbLeader
  3
Standard
 71
     0
 76
     3
 10
-80.6905322982668
 20
-13.1
 30
0.0
 10
-85.4986166949607
 20
-26.2337763136922
 30
0.0
 10
-124.474280455838
 20
-26.2337763136922
 30
0.0
  0
LEADER
  5
5A2
330
1F
100
AcDbEntity
  8
1
  6
Continuous
 62
     4
100
AcDbLeader
  3
Standard
 71
     0
 76
     3
 10
80.6905322982668
 20
-28.1
 30
0.0
 10
85.4986166949607
 20
-41.2337763136922
 30
0.0
 10
124.474280455838
 20
-41.2337763136922
 30
0.0
  0
ENDSEC
  0
SECTION
  2
OBJECTS
  0
DICTIONARY
  5
C
330
0
100
AcDbDictionary
281
     1
  3
ACAD_GROUP
350
D
  3
ACAD_LAYOUT
350
1A
  3
ACAD_MATERIAL
350
3B
  3
ACAD_MLEADERSTYLE
350
5A5
  3
ACAD_MLINESTYLE
350
17
  3
ACAD_PLOTSETTINGS
350
19
  3
ACAD_PLOTSTYLENAME
350
E
  3
ACAD_VISUALSTYLE
350
2A
  3
AcDbVariableDictionary
350
5A3
  0
DICTIONARY
  5
D
102
{ACAD_REACTORS
330
C
102
}
330
C
100
AcDbDictionary
281
     1
  0
DICTIONARY
  5
1A
102
{ACAD_REACTORS
330
C
102
}
330
C
100
AcDbDictionary
281
     1
  3
Layout1
350
1E
  3
Layout2
350
26
  3
Model
350
22
  0
DICTIONARY
  5
3B
102
{ACAD_REACTORS
330
C
102
}
330
C
100
AcDbDictionary
281
     1
  3
ByBlock
350
3D
  3
ByLayer
350
3C
  3
Global
350
3E
  0
DICTIONARY
  5
5A5
102
{ACAD_REACTORS
330
C
102
}
330
C
100
AcDbDictionary
281
     1
  0
DICTIONARY
  5
17
102
{ACAD_REACTORS
330
C
102
}
330
C
100
AcDbDictionary
281
     1
  3
Standard
350
18
  0
DICTIONARY
  5
19
102
{ACAD_REACTORS
330
C
102
}
330
C
100
AcDbDictionary
281
     1
  0
ACDBDICTIONARYWDFLT
  5
E
102
{ACAD_REACTORS
330
C
102
}
330
C
100
AcDbDictionary
281
     1
  3
Normal
350
F
100
AcDbDictionaryWithDefault
340
F
  0
DICTIONARY
  5
2A
102
{ACAD_REACTORS
330
C
102
}
330
C
100
AcDbDictionary
281
     1
  3
2dWireframe
350
2F
  3
3D Hidden
350
31
  3
3dWireframe
350
30
  3
Basic
350
32
  3
Brighten
350
36
  3
ColorChange
350
3A
  3
Conceptual
350
34
  3
Dim
350
35
  3
Facepattern
350
39
  3
Flat
350
2B
  3
FlatWithEdges
350
2C
  3
Gouraud
350
2D
  3
GouraudWithEdges
350
2E
  3
Linepattern
350
38
  3
Realistic
350
33
  3
Thicken
350
37
  0
DICTIONARY
  5
5A3
102
{ACAD_REACTORS
330
C
102
}
330
C
100
AcDbDictionary
281
     1
  3
DIMASSOC
350
5A6
  3
HIDETEXT
350
5A7
  0
LAYOUT
  5
1E
102
{ACAD_REACTORS
330
1A
102
}
330
1A
100
AcDbPlotSettings
  1

  2
none_device
  4

  6

 40
0.0
 41
0.0
 42
0.0
 43
0.0
 44
0.0
 45
0.0
 46
0.0
 47
0.0
 48
0.0
 49
0.0
140
0.0
141
0.0
142
1.0
143
1.0
 70
   688
 72
     0
 73
     0
 74
     5
  7

 75
    16
147
1.0
148
0.0
149
0.0
100
AcDbLayout
  1
Layout1
 70
     1
 71
     1
 10
0.0
 20
0.0
 11
12.0
 21
9.0
 12
0.0
 22
0.0
 32
0.0
 14
1.00000000000000E+20
 24
1.00000000000000E+20
 34
1.00000000000000E+20
 15
-1.00000000000000E+20
 25
-1.00000000000000E+20
 35
-1.00000000000000E+20
146
0.0
 13
0.0
 23
0.0
 33
0.0
 16
1.0
 26
0.0
 36
0.0
 17
0.0
 27
1.0
 37
0.0
 76
     0
330
1B
  0
LAYOUT
  5
26
102
{ACAD_REACTORS
330
1A
102
}
330
1A
100
AcDbPlotSettings
  1

  2
none_device
  4

  6

 40
0.0
 41
0.0
 42
0.0
 43
0.0
 44
0.0
 45
0.0
 46
0.0
 47
0.0
 48
0.0
 49
0.0
140
0.0
141
0.0
142
1.0
143
1.0
 70
   688
 72
     0
 73
     0
 74
     5
  7

 75
    16
147
1.0
148
0.0
149
0.0
100
AcDbLayout
  1
Layout2
 70
     1
 71
     2
 10
0.0
 20
0.0
 11
0.0
 21
0.0
 12
0.0
 22
0.0
 32
0.0
 14
0.0
 24
0.0
 34
0.0
 15
0.0
 25
0.0
 35
0.0
146
0.0
 13
0.0
 23
0.0
 33
0.0
 16
1.0
 26
0.0
 36
0.0
 17
0.0
 27
1.0
 37
0.0
 76
     0
330
23
  0
LAYOUT
  5
22
102
{ACAD_REACTORS
330
1A
102
}
330
1A
100
AcDbPlotSettings
  1

  2
none_device
  4

  6

 40
0.0
 41
0.0
 42
0.0
 43
0.0
 44
0.0
 45
0.0
 46
0.0
 47
0.0
 48
0.0
 49
0.0
140
0.0
141
0.0
142
1.0
143
1.0
 70
  1712
 72
     0
 73
     0
 74
     0
  7

 75
     0
147
1.0
148
0.0
149
0.0
100
AcDbLayout
  1
Model
 70
     1
 71
     0
 10
0.0
 20
0.0
 11
12.0
 21
9.0
 12
0.0
 22
0.0
 32
0.0
 14
-191.0
 24
-60.9274982908581
 34
0.0
 15
271.363185707288
 25
393.290389415599
 35
0.0
146
0.0
 13
0.0
 23
0.0
 33
0.0
 16
1.0
 26
0.0
 36
0.0
 17
0.0
 27
1.0
 37
0.0
 76
     0
330
1F
331
29
  0
MATERIAL
  5
3D
102
{ACAD_REACTORS
330
3B
102
}
102
{ACAD_XDICTIONARY
360
5CA
102
}
330
3B
100
AcDbMaterial
  1
ByBlock
  0
MATERIAL
  5
3C
102
{ACAD_REACTORS
330
3B
102
}
102
{ACAD_XDICTIONARY
360
5C8
102
}
330
3B
100
AcDbMaterial
  1
ByLayer
  0
MATERIAL
  5
3E
102
{ACAD_REACTORS
330
3B
102
}
102
{ACAD_XDICTIONARY
360
5CC
102
}
330
3B
100
AcDbMaterial
  1
Global
  0
MLINESTYLE
  5
18
102
{ACAD_REACTORS
330
17
102
}
330
17
100
AcDbMlineStyle
  2
Standard
 70
     0
  3

 62
   256
 51
90.0
 52
90.0
 71
     2
 49
0.5
 62
   256
  6
BYLAYER
 49
-0.5
 62
   256
  6
BYLAYER
  0
ACDBPLACEHOLDER
  5
F
102
{ACAD_REACTORS
330
E
102
}
330
E
  0
VISUALSTYLE
  5
2F
102
{ACAD_REACTORS
330
2A
102
}
102
{ACAD_XDICTIONARY
360
5B0
102
}
330
2A
100
AcDbVisualStyle
  2
2dWireframe
 70
     4
 71
     0
 72
     2
 73
     0
 90
        0
 40
-0.6
 41
-30.0
 62
     5
 63
     7
 74
     1
 91
        4
 64
     7
 65
   257
 75
     1
175
     1
 42
1.0
 92
        0
 66
   257
 43
1.0
 76
     1
 77
     6
 78
     2
 67
     7
 79
     5
170
     0
171
     0
290
     0
174
     0
 93
        1
 44
0.0
173
     0
291
     0
 45
0.0
1001
ACAD
1000
AcDbSavedByObjectVersion
1070
     0
  0
VISUALSTYLE
  5
31
102
{ACAD_REACTORS
330
2A
102
}
102
{ACAD_XDICTIONARY
360
5B4
102
}
330
2A
100
AcDbVisualStyle
  2
3D Hidden
 70
     6
 71
     1
 72
     2
 73
     2
 90
        0
 40
-0.6
 41
-30.0
 62
     5
 63
     7
 74
     2
 91
        2
 64
     7
 65
   257
 75
     2
175
     1
 42
40.0
 92
        0
 66
   257
 43
1.0
 76
     1
 77
     6
 78
     2
 67
     7
 79
     3
170
     0
171
     0
290
     0
174
     0
 93
        1
 44
0.0
173
     0
291
     0
 45
0.0
1001
ACAD
1000
AcDbSavedByObjectVersion
1070
     0
  0
VISUALSTYLE
  5
30
102
{ACAD_REACTORS
330
2A
102
}
102
{ACAD_XDICTIONARY
360
5B2
102
}
330
2A
100
AcDbVisualStyle
  2
3dWireframe
 70
     5
 71
     0
 72
     2
 73
     0
 90
        0
 40
-0.6
 41
-30.0
 62
     5
 63
     7
 74
     1
 91
        4
 64
     7
 65
   257
 75
     1
175
     1
 42
1.0
 92
        0
 66
   257
 43
1.0
 76
     1
 77
     6
 78
     2
 67
     7
 79
     5
170
     0
171
     0
290
     0
174
     0
 93
        1
 44
0.0
173
     0
291
     0
 45
0.0
1001
ACAD
1000
AcDbSavedByObjectVersion
1070
     0
  0
VISUALSTYLE
  5
32
102
{ACAD_REACTORS
330
2A
102
}
102
{ACAD_XDICTIONARY
360
5B6
102
}
330
2A
100
AcDbVisualStyle
  2
Basic
 70
     7
 71
     1
 72
     0
 73
     1
 90
        0
 40
-0.6
 41
-30.0
 62
     5
 63
     7
 74
     0
 91
        4
 64
     7
 65
   257
 75
     1
175
     1
 42
1.0
 92
        8
 66
     7
 43
1.0
 76
     1
 77
     6
 78
     2
 67
     7
 79
     5
170
     0
171
     0
290
     0
174
     0
 93
        1
 44
0.0
173
     0
291
     1
 45
0.0
1001
ACAD
1000
AcDbSavedByObjectVersion
1070
     0
  0
VISUALSTYLE
  5
36
102
{ACAD_REACTORS
330
2A
102
}
102
{ACAD_XDICTIONARY
360
5BE
102
}
330
2A
100
AcDbVisualStyle
  2
Brighten
 70
    12
 71
     2
 72
     2
 73
     0
 90
        0
 40
-0.6
 41
-30.0
 62
     5
 63
     7
 74
     1
 91
        4
 64
     7
 65
   257
 75
     1
175
     1
 42
1.0
 92
        8
 66
     7
 43
1.0
 76
     1
 77
     6
 78
     2
 67
     7
 79
     5
170
     0
171
     0
290
     0
174
     0
 93
        1
 44
50.0
173
     0
291
     1
 45
0.0
1001
ACAD
1000
AcDbSavedByObjectVersion
1070
     0
  0
VISUALSTYLE
  5
3A
102
{ACAD_REACTORS
330
2A
102
}
102
{ACAD_XDICTIONARY
360
5C6
102
}
330
2A
100
AcDbVisualStyle
  2
ColorChange
 70
    16
 71
     2
 72
     2
 73
     3
 90
        0
 40
-0.6
 41
-30.0
 62
     5
 63
     8
 74
     1
 91
        4
 64
     7
 65
   257
 75
     1
175
     1
 42
1.0
 92
        8
 66
     8
 43
1.0
 76
     1
 77
     6
 78
     2
 67
     7
 79
     5
170
     0
171
     0
290
     0
174
     0
 93
        1
 44
0.0
173
     0
291
     1
 45
0.0
1001
ACAD
1000
AcDbSavedByObjectVersion
1070
     0
  0
VISUALSTYLE
  5
34
102
{ACAD_REACTORS
330
2A
102
}
102
{ACAD_XDICTIONARY
360
5BA
102
}
330
2A
100
AcDbVisualStyle
  2
Conceptual
 70
     9
 71
     3
 72
     2
 73
     0
 90
        0
 40
-0.6
 41
-30.0
 62
     5
 63
     7
 74
     2
 91
        2
 64
     7
 65
   257
 75
     1
175
     1
 42
40.0
 92
        8
 66
     7
 43
1.0
 76
     1
 77
     6
 78
     2
 67
     7
 79
     3
170
     0
171
     0
290
     0
174
     0
 93
        1
 44
0.0
173
     0
291
     0
 45
0.0
1001
ACAD
1000
AcDbSavedByObjectVersion
1070
     0
  0
VISUALSTYLE
  5
35
102
{ACAD_REACTORS
330
2A
102
}
102
{ACAD_XDICTIONARY
360
5BC
102
}
330
2A
100
AcDbVisualStyle
  2
Dim
 70
    11
 71
     2
 72
     2
 73
     0
 90
        0
 40
-0.6
 41
-30.0
 62
     5
 63
     7
 74
     1
 91
        4
 64
     7
 65
   257
 75
     1
175
     1
 42
1.0
 92
        8
 66
     7
 43
1.0
 76
     1
 77
     6
 78
     2
 67
     7
 79
     5
170
     0
171
     0
290
     0
174
     0
 93
        1
 44
-50.0
173
     0
291
     1
 45
0.0
1001
ACAD
1000
AcDbSavedByObjectVersion
1070
     0
  0
VISUALSTYLE
  5
39
102
{ACAD_REACTORS
330
2A
102
}
102
{ACAD_XDICTIONARY
360
5C4
102
}
330
2A
100
AcDbVisualStyle
  2
Facepattern
 70
    15
 71
     2
 72
     2
 73
     0
 90
        0
 40
-0.6
 41
-30.0
 62
     5
 63
     7
 74
     1
 91
        4
 64
     7
 65
   257
 75
     1
175
     1
 42
1.0
 92
        8
 66
     7
 43
1.0
 76
     1
 77
     6
 78
     2
 67
     7
 79
     5
170
     0
171
     0
290
     0
174
     0
 93
        1
 44
0.0
173
     0
291
     1
 45
0.0
1001
ACAD
1000
AcDbSavedByObjectVersion
1070
     0
  0
VISUALSTYLE
  5
2B
102
{ACAD_REACTORS
330
2A
102
}
102
{ACAD_XDICTIONARY
360
5A8
102
}
330
2A
100
AcDbVisualStyle
  2
Flat
 70
     0
 71
     2
 72
     1
 73
     1
 90
        2
 40
-0.6
 41
30.0
 62
     5
 63
     7
 74
     0
 91
        4
 64
     7
 65
   257
 75
     1
175
     1
 42
1.0
 92
        8
 66
     7
 43
1.0
 76
     1
 77
     6
 78
     2
 67
     7
 79
     5
170
     0
171
     0
290
     0
174
     0
 93
       13
 44
0.0
173
     0
291
     1
 45
0.0
1001
ACAD
1000
AcDbSavedByObjectVersion
1070
     0
  0
VISUALSTYLE
  5
2C
102
{ACAD_REACTORS
330
2A
102
}
102
{ACAD_XDICTIONARY
360
5AA
102
}
330
2A
100
AcDbVisualStyle
  2
FlatWithEdges
 70
     1
 71
     2
 72
     1
 73
     1
 90
        2
 40
-0.6
 41
30.0
 62
     5
 63
     7
 74
     1
 91
        4
 64
     7
 65
   257
 75
     1
175
     1
 42
1.0
 92
        0
 66
   257
 43
1.0
 76
     1
 77
     6
 78
     2
 67
     7
 79
     5
170
     0
171
     0
290
     0
174
     0
 93
       13
 44
0.0
173
     0
291
     1
 45
0.0
1001
ACAD
1000
AcDbSavedByObjectVersion
1070
     0
  0
VISUALSTYLE
  5
2D
102
{ACAD_REACTORS
330
2A
102
}
102
{ACAD_XDICTIONARY
360
5AC
102
}
330
2A
100
AcDbVisualStyle
  2
Gouraud
 70
     2
 71
     2
 72
     2
 73
     1
 90
        2
 40
-0.6
 41
30.0
 62
     5
 63
     7
 74
     0
 91
        4
 64
     7
 65
   257
 75
     1
175
     1
 42
1.0
 92
        0
 66
     7
 43
1.0
 76
     1
 77
     6
 78
     2
 67
     7
 79
     5
170
     0
171
     0
290
     0
174
     0
 93
       13
 44
0.0
173
     0
291
     1
 45
0.0
1001
ACAD
1000
AcDbSavedByObjectVersion
1070
     0
  0
VISUALSTYLE
  5
2E
102
{ACAD_REACTORS
330
2A
102
}
102
{ACAD_XDICTIONARY
360
5AE
102
}
330
2A
100
AcDbVisualStyle
  2
GouraudWithEdges
 70
     3
 71
     2
 72
     2
 73
     1
 90
        2
 40
-0.6
 41
30.0
 62
     5
 63
     7
 74
     1
 91
        4
 64
     7
 65
   257
 75
     1
175
     1
 42
1.0
 92
        0
 66
   257
 43
1.0
 76
     1
 77
     6
 78
     2
 67
     7
 79
     5
170
     0
171
     0
290
     0
174
     0
 93
       13
 44
0.0
173
     0
291
     1
 45
0.0
1001
ACAD
1000
AcDbSavedByObjectVersion
1070
     0
  0
VISUALSTYLE
  5
38
102
{ACAD_REACTORS
330
2A
102
}
102
{ACAD_XDICTIONARY
360
5C2
102
}
330
2A
100
AcDbVisualStyle
  2
Linepattern
 70
    14
 71
     2
 72
     2
 73
     0
 90
        0
 40
-0.6
 41
-30.0
 62
     5
 63
     7
 74
     1
 91
        4
 64
     7
 65
   257
 75
     7
175
     7
 42
1.0
 92
        8
 66
     7
 43
1.0
 76
     1
 77
     6
 78
     2
 67
     7
 79
     5
170
     0
171
     0
290
     0
174
     0
 93
        1
 44
0.0
173
     0
291
     1
 45
0.0
1001
ACAD
1000
AcDbSavedByObjectVersion
1070
     0
  0
VISUALSTYLE
  5
33
102
{ACAD_REACTORS
330
2A
102
}
102
{ACAD_XDICTIONARY
360
5B8
102
}
330
2A
100
AcDbVisualStyle
  2
Realistic
 70
     8
 71
     2
 72
     2
 73
     0
 90
        0
 40
-0.6
 41
-30.0
 62
     5
 63
     7
 74
     1
 91
        0
 64
     7
 65
   257
 75
     1
175
     1
 42
1.0
 92
        8
 66
     8
 43
1.0
 76
     1
 77
     6
 78
     2
 67
     7
 79
     5
170
     0
171
     0
290
     0
174
     0
 93
       13
 44
0.0
173
     0
291
     0
 45
0.0
1001
ACAD
1000
AcDbSavedByObjectVersion
1070
     0
  0
VISUALSTYLE
  5
37
102
{ACAD_REACTORS
330
2A
102
}
102
{ACAD_XDICTIONARY
360
5C0
102
}
330
2A
100
AcDbVisualStyle
  2
Thicken
 70
    13
 71
     2
 72
     2
 73
     0
 90
        0
 40
-0.6
 41
-30.0
 62
     5
 63
     7
 74
     1
 91
        4
 64
     7
 65
   257
 75
     1
175
     1
 42
1.0
 92
       12
 66
     7
 43
1.0
 76
     1
 77
     6
 78
     2
 67
     7
 79
     5
170
     0
171
     0
290
     0
174
     0
 93
        1
 44
0.0
173
     0
291
     1
 45
0.0
1001
ACAD
1000
AcDbSavedByObjectVersion
1070
     0
  0
DICTIONARYVAR
  5
5A6
102
{ACAD_REACTORS
330
5A3
102
}
330
5A3
100
DictionaryVariables
280
     0
  1
2
  0
DICTIONARYVAR
  5
5A7
102
{ACAD_REACTORS
330
5A3
102
}
330
5A3
100
DictionaryVariables
280
     0
  1
1
  0
DICTIONARY
  5
5CA
330
3D
100
AcDbDictionary
280
     1
281
     1
  3
ACAD_XREC_ROUNDTRIP
360
5CB
  0
DICTIONARY
  5
5C8
330
3C
100
AcDbDictionary
280
     1
281
     1
  3
ACAD_XREC_ROUNDTRIP
360
5C9
  0
DICTIONARY
  5
5CC
330
3E
100
AcDbDictionary
280
     1
281
     1
  3
ACAD_XREC_ROUNDTRIP
360
5CD
  0
DICTIONARY
  5
5B0
330
2F
100
AcDbDictionary
280
     1
281
     1
  3
ACAD_XREC_ROUNDTRIP
360
5B1
  0
DICTIONARY
  5
5B4
330
31
100
AcDbDictionary
280
     1
281
     1
  3
ACAD_XREC_ROUNDTRIP
360
5B5
  0
DICTIONARY
  5
5B2
330
30
100
AcDbDictionary
280
     1
281
     1
  3
ACAD_XREC_ROUNDTRIP
360
5B3
  0
DICTIONARY
  5
5B6
330
32
100
AcDbDictionary
280
     1
281
     1
  3
ACAD_XREC_ROUNDTRIP
360
5B7
  0
DICTIONARY
  5
5BE
330
36
100
AcDbDictionary
280
     1
281
     1
  3
ACAD_XREC_ROUNDTRIP
360
5BF
  0
DICTIONARY
  5
5C6
330
3A
100
AcDbDictionary
280
     1
281
     1
  3
ACAD_XREC_ROUNDTRIP
360
5C7
  0
DICTIONARY
  5
5BA
330
34
100
AcDbDictionary
280
     1
281
     1
  3
ACAD_XREC_ROUNDTRIP
360
5BB
  0
DICTIONARY
  5
5BC
330
35
100
AcDbDictionary
280
     1
281
     1
  3
ACAD_XREC_ROUNDTRIP
360
5BD
  0
DICTIONARY
  5
5C4
330
39
100
AcDbDictionary
280
     1
281
     1
  3
ACAD_XREC_ROUNDTRIP
360
5C5
  0
DICTIONARY
  5
5A8
330
2B
100
AcDbDictionary
280
     1
281
     1
  3
ACAD_XREC_ROUNDTRIP
360
5A9
  0
DICTIONARY
  5
5AA
330
2C
100
AcDbDictionary
280
     1
281
     1
  3
ACAD_XREC_ROUNDTRIP
360
5AB
  0
DICTIONARY
  5
5AC
330
2D
100
AcDbDictionary
280
     1
281
     1
  3
ACAD_XREC_ROUNDTRIP
360
5AD
  0
DICTIONARY
  5
5AE
330
2E
100
AcDbDictionary
280
     1
281
     1
  3
ACAD_XREC_ROUNDTRIP
360
5AF
  0
DICTIONARY
  5
5C2
330
38
100
AcDbDictionary
280
     1
281
     1
  3
ACAD_XREC_ROUNDTRIP
360
5C3
  0
DICTIONARY
  5
5B8
330
33
100
AcDbDictionary
280
     1
281
     1
  3
ACAD_XREC_ROUNDTRIP
360
5B9
  0
DICTIONARY
  5
5C0
330
37
100
AcDbDictionary
280
     1
281
     1
  3
ACAD_XREC_ROUNDTRIP
360
5C1
  0
XRECORD
  5
5CB
102
{ACAD_REACTORS
330
5CA
102
}
330
5CA
100
AcDbXrecord
280
     1
102
MATERIAL
148
0.0
149
0.0
149
0.0
 93
        0
 94
      127
282
     0
 72
     1
 77
     1
171
     1
175
     1
179
     1
273
     0
  0
XRECORD
  5
5C9
102
{ACAD_REACTORS
330
5C8
102
}
330
5C8
100
AcDbXrecord
280
     1
102
MATERIAL
148
0.0
149
0.0
149
0.0
 93
        0
 94
      127
282
     0
 72
     1
 77
     1
171
     1
175
     1
179
     1
273
     0
  0
XRECORD
  5
5CD
102
{ACAD_REACTORS
330
5CC
102
}
330
5CC
100
AcDbXrecord
280
     1
102
MATERIAL
148
0.0
149
0.0
149
0.0
 93
        0
 94
      127
282
     0
 72
     1
 77
     1
171
     1
175
     1
179
     1
273
     0
  0
XRECORD
  5
5B1
102
{ACAD_REACTORS
330
5B0
102
}
330
5B0
100
AcDbXrecord
280
     1
102
RTVSPropertyOp0
 70
     1
102
RTVSPropertyOp1
 70
     1
102
RTVSPropertyOp2
 70
     1
102
RTVSPropertyOp3
 70
     1
102
RTVSPropertyOp4
 70
     1
102
RTVSPropertyOp5
 70
     1
102
RTVSPropertyOp6
 70
     1
102
RTVSPropertyOp7
 70
     1
102
RTVSPropertyOp8
 70
     1
102
RTVSPropertyOp9
 70
     1
102
RTVSPropertyOp10
 70
     1
102
RTVSPropertyOp11
 70
     1
102
RTVSPropertyOp12
 70
     1
102
RTVSPropertyOp13
 70
     1
102
RTVSPropertyOp14
 70
     1
102
RTVSPropertyOp15
 70
     1
102
RTVSPropertyOp16
 70
     1
102
RTVSPropertyOp17
 70
     1
102
RTVSPropertyOp18
 70
     1
102
RTVSPropertyOp19
 70
     1
102
RTVSPropertyOp20
 70
     1
102
RTVSPropertyOp21
 70
     1
102
RTVSPropertyOp22
 70
     1
102
RTVSPropertyOp23
 70
     1
102
RTVSPropertyOp24
 70
     1
102
RTVSPropertyOp25
 70
     1
102
RTVSPropertyOp26
 70
     1
102
RTVSPropertyOp27
 70
     1
  0
XRECORD
  5
5B5
102
{ACAD_REACTORS
330
5B4
102
}
330
5B4
100
AcDbXrecord
280
     1
102
RTVSPropertyOp0
 70
     1
102
RTVSPropertyOp1
 70
     1
102
RTVSPropertyOp2
 70
     1
102
RTVSPropertyOp3
 70
     1
102
RTVSPropertyOp4
 70
     1
102
RTVSPropertyOp5
 70
     1
102
RTVSPropertyOp6
 70
     1
102
RTVSPropertyOp7
 70
     1
102
RTVSPropertyOp8
 70
     1
102
RTVSPropertyOp9
 70
     1
102
RTVSPropertyOp10
 70
     1
102
RTVSPropertyOp11
 70
     1
102
RTVSPropertyOp12
 70
     1
102
RTVSPropertyOp13
 70
     1
102
RTVSPropertyOp14
 70
     1
102
RTVSPropertyOp15
 70
     1
102
RTVSPropertyOp16
 70
     1
102
RTVSPropertyOp17
 70
     1
102
RTVSPropertyOp18
 70
     1
102
RTVSPropertyOp19
 70
     1
102
RTVSPropertyOp20
 70
     1
102
RTVSPropertyOp21
 70
     1
102
RTVSPropertyOp22
 70
     1
102
RTVSPropertyOp23
 70
     1
102
RTVSPropertyOp24
 70
     1
102
RTVSPropertyOp25
 70
     1
102
RTVSPropertyOp26
 70
     1
102
RTVSPropertyOp27
 70
     1
  0
XRECORD
  5
5B3
102
{ACAD_REACTORS
330
5B2
102
}
330
5B2
100
AcDbXrecord
280
     1
102
RTVSPropertyOp0
 70
     1
102
RTVSPropertyOp1
 70
     1
102
RTVSPropertyOp2
 70
     1
102
RTVSPropertyOp3
 70
     1
102
RTVSPropertyOp4
 70
     1
102
RTVSPropertyOp5
 70
     1
102
RTVSPropertyOp6
 70
     1
102
RTVSPropertyOp7
 70
     1
102
RTVSPropertyOp8
 70
     1
102
RTVSPropertyOp9
 70
     1
102
RTVSPropertyOp10
 70
     1
102
RTVSPropertyOp11
 70
     1
102
RTVSPropertyOp12
 70
     1
102
RTVSPropertyOp13
 70
     1
102
RTVSPropertyOp14
 70
     1
102
RTVSPropertyOp15
 70
     1
102
RTVSPropertyOp16
 70
     1
102
RTVSPropertyOp17
 70
     1
102
RTVSPropertyOp18
 70
     1
102
RTVSPropertyOp19
 70
     1
102
RTVSPropertyOp20
 70
     1
102
RTVSPropertyOp21
 70
     1
102
RTVSPropertyOp22
 70
     1
102
RTVSPropertyOp23
 70
     1
102
RTVSPropertyOp24
 70
     1
102
RTVSPropertyOp25
 70
     1
102
RTVSPropertyOp26
 70
     1
102
RTVSPropertyOp27
 70
     1
  0
XRECORD
  5
5B7
102
{ACAD_REACTORS
330
5B6
102
}
330
5B6
100
AcDbXrecord
280
     1
102
RTVSPropertyOp0
 70
     1
102
RTVSPropertyOp1
 70
     1
102
RTVSPropertyOp2
 70
     1
102
RTVSPropertyOp3
 70
     1
102
RTVSPropertyOp4
 70
     1
102
RTVSPropertyOp5
 70
     1
102
RTVSPropertyOp6
 70
     1
102
RTVSPropertyOp7
 70
     1
102
RTVSPropertyOp8
 70
     1
102
RTVSPropertyOp9
 70
     1
102
RTVSPropertyOp10
 70
     1
102
RTVSPropertyOp11
 70
     1
102
RTVSPropertyOp12
 70
     1
102
RTVSPropertyOp13
 70
     1
102
RTVSPropertyOp14
 70
     1
102
RTVSPropertyOp15
 70
     1
102
RTVSPropertyOp16
 70
     1
102
RTVSPropertyOp17
 70
     1
102
RTVSPropertyOp18
 70
     1
102
RTVSPropertyOp19
 70
     1
102
RTVSPropertyOp20
 70
     1
102
RTVSPropertyOp21
 70
     1
102
RTVSPropertyOp22
 70
     1
102
RTVSPropertyOp23
 70
     1
102
RTVSPropertyOp24
 70
     1
102
RTVSPropertyOp25
 70
     1
102
RTVSPropertyOp26
 70
     1
102
RTVSPropertyOp27
 70
     1
  0
XRECORD
  5
5BF
102
{ACAD_REACTORS
330
5BE
102
}
330
5BE
100
AcDbXrecord
280
     1
102
RTVSPropertyOp0
 70
     1
102
RTVSPropertyOp1
 70
     1
102
RTVSPropertyOp2
 70
     1
102
RTVSPropertyOp3
 70
     1
102
RTVSPropertyOp4
 70
     1
102
RTVSPropertyOp5
 70
     1
102
RTVSPropertyOp6
 70
     1
102
RTVSPropertyOp7
 70
     1
102
RTVSPropertyOp8
 70
     1
102
RTVSPropertyOp9
 70
     1
102
RTVSPropertyOp10
 70
     1
102
RTVSPropertyOp11
 70
     1
102
RTVSPropertyOp12
 70
     1
102
RTVSPropertyOp13
 70
     1
102
RTVSPropertyOp14
 70
     1
102
RTVSPropertyOp15
 70
     1
102
RTVSPropertyOp16
 70
     1
102
RTVSPropertyOp17
 70
     1
102
RTVSPropertyOp18
 70
     1
102
RTVSPropertyOp19
 70
     1
102
RTVSPropertyOp20
 70
     1
102
RTVSPropertyOp21
 70
     1
102
RTVSPropertyOp22
 70
     1
102
RTVSPropertyOp23
 70
     1
102
RTVSPropertyOp24
 70
     1
102
RTVSPropertyOp25
 70
     1
102
RTVSPropertyOp26
 70
     1
102
RTVSPropertyOp27
 70
     1
  0
XRECORD
  5
5C7
102
{ACAD_REACTORS
330
5C6
102
}
330
5C6
100
AcDbXrecord
280
     1
102
RTVSPropertyOp0
 70
     1
102
RTVSPropertyOp1
 70
     1
102
RTVSPropertyOp2
 70
     1
102
RTVSPropertyOp3
 70
     1
102
RTVSPropertyOp4
 70
     1
102
RTVSPropertyOp5
 70
     1
102
RTVSPropertyOp6
 70
     1
102
RTVSPropertyOp7
 70
     1
102
RTVSPropertyOp8
 70
     1
102
RTVSPropertyOp9
 70
     1
102
RTVSPropertyOp10
 70
     1
102
RTVSPropertyOp11
 70
     1
102
RTVSPropertyOp12
 70
     1
102
RTVSPropertyOp13
 70
     1
102
RTVSPropertyOp14
 70
     1
102
RTVSPropertyOp15
 70
     1
102
RTVSPropertyOp16
 70
     1
102
RTVSPropertyOp17
 70
     1
102
RTVSPropertyOp18
 70
     1
102
RTVSPropertyOp19
 70
     1
102
RTVSPropertyOp20
 70
     1
102
RTVSPropertyOp21
 70
     1
102
RTVSPropertyOp22
 70
     1
102
RTVSPropertyOp23
 70
     1
102
RTVSPropertyOp24
 70
     1
102
RTVSPropertyOp25
 70
     1
102
RTVSPropertyOp26
 70
     1
102
RTVSPropertyOp27
 70
     1
  0
XRECORD
  5
5BB
102
{ACAD_REACTORS
330
5BA
102
}
330
5BA
100
AcDbXrecord
280
     1
102
RTVSPropertyOp0
 70
     1
102
RTVSPropertyOp1
 70
     1
102
RTVSPropertyOp2
 70
     1
102
RTVSPropertyOp3
 70
     1
102
RTVSPropertyOp4
 70
     1
102
RTVSPropertyOp5
 70
     1
102
RTVSPropertyOp6
 70
     1
102
RTVSPropertyOp7
 70
     1
102
RTVSPropertyOp8
 70
     1
102
RTVSPropertyOp9
 70
     1
102
RTVSPropertyOp10
 70
     1
102
RTVSPropertyOp11
 70
     1
102
RTVSPropertyOp12
 70
     1
102
RTVSPropertyOp13
 70
     1
102
RTVSPropertyOp14
 70
     1
102
RTVSPropertyOp15
 70
     1
102
RTVSPropertyOp16
 70
     1
102
RTVSPropertyOp17
 70
     1
102
RTVSPropertyOp18
 70
     1
102
RTVSPropertyOp19
 70
     1
102
RTVSPropertyOp20
 70
     1
102
RTVSPropertyOp21
 70
     1
102
RTVSPropertyOp22
 70
     1
102
RTVSPropertyOp23
 70
     1
102
RTVSPropertyOp24
 70
     1
102
RTVSPropertyOp25
 70
     1
102
RTVSPropertyOp26
 70
     1
102
RTVSPropertyOp27
 70
     1
  0
XRECORD
  5
5BD
102
{ACAD_REACTORS
330
5BC
102
}
330
5BC
100
AcDbXrecord
280
     1
102
RTVSPropertyOp0
 70
     1
102
RTVSPropertyOp1
 70
     1
102
RTVSPropertyOp2
 70
     1
102
RTVSPropertyOp3
 70
     1
102
RTVSPropertyOp4
 70
     1
102
RTVSPropertyOp5
 70
     1
102
RTVSPropertyOp6
 70
     1
102
RTVSPropertyOp7
 70
     1
102
RTVSPropertyOp8
 70
     1
102
RTVSPropertyOp9
 70
     1
102
RTVSPropertyOp10
 70
     1
102
RTVSPropertyOp11
 70
     1
102
RTVSPropertyOp12
 70
     1
102
RTVSPropertyOp13
 70
     1
102
RTVSPropertyOp14
 70
     1
102
RTVSPropertyOp15
 70
     1
102
RTVSPropertyOp16
 70
     1
102
RTVSPropertyOp17
 70
     1
102
RTVSPropertyOp18
 70
     1
102
RTVSPropertyOp19
 70
     1
102
RTVSPropertyOp20
 70
     1
102
RTVSPropertyOp21
 70
     1
102
RTVSPropertyOp22
 70
     1
102
RTVSPropertyOp23
 70
     1
102
RTVSPropertyOp24
 70
     1
102
RTVSPropertyOp25
 70
     1
102
RTVSPropertyOp26
 70
     1
102
RTVSPropertyOp27
 70
     1
  0
XRECORD
  5
5C5
102
{ACAD_REACTORS
330
5C4
102
}
330
5C4
100
AcDbXrecord
280
     1
102
RTVSPropertyOp0
 70
     1
102
RTVSPropertyOp1
 70
     1
102
RTVSPropertyOp2
 70
     1
102
RTVSPropertyOp3
 70
     1
102
RTVSPropertyOp4
 70
     1
102
RTVSPropertyOp5
 70
     1
102
RTVSPropertyOp6
 70
     1
102
RTVSPropertyOp7
 70
     1
102
RTVSPropertyOp8
 70
     1
102
RTVSPropertyOp9
 70
     1
102
RTVSPropertyOp10
 70
     1
102
RTVSPropertyOp11
 70
     1
102
RTVSPropertyOp12
 70
     1
102
RTVSPropertyOp13
 70
     1
102
RTVSPropertyOp14
 70
     1
102
RTVSPropertyOp15
 70
     1
102
RTVSPropertyOp16
 70
     1
102
RTVSPropertyOp17
 70
     1
102
RTVSPropertyOp18
 70
     1
102
RTVSPropertyOp19
 70
     1
102
RTVSPropertyOp20
 70
     1
102
RTVSPropertyOp21
 70
     1
102
RTVSPropertyOp22
 70
     1
102
RTVSPropertyOp23
 70
     1
102
RTVSPropertyOp24
 70
     1
102
RTVSPropertyOp25
 70
     1
102
RTVSPropertyOp26
 70
     1
102
RTVSPropertyOp27
 70
     1
  0
XRECORD
  5
5A9
102
{ACAD_REACTORS
330
5A8
102
}
330
5A8
100
AcDbXrecord
280
     1
102
RTVSPropertyOp0
 70
     1
102
RTVSPropertyOp1
 70
     1
102
RTVSPropertyOp2
 70
     1
102
RTVSPropertyOp3
 70
     1
102
RTVSPropertyOp4
 70
     1
102
RTVSPropertyOp5
 70
     1
102
RTVSPropertyOp6
 70
     1
102
RTVSPropertyOp7
 70
     1
102
RTVSPropertyOp8
 70
     1
102
RTVSPropertyOp9
 70
     1
102
RTVSPropertyOp10
 70
     1
102
RTVSPropertyOp11
 70
     1
102
RTVSPropertyOp12
 70
     1
102
RTVSPropertyOp13
 70
     1
102
RTVSPropertyOp14
 70
     1
102
RTVSPropertyOp15
 70
     1
102
RTVSPropertyOp16
 70
     1
102
RTVSPropertyOp17
 70
     1
102
RTVSPropertyOp18
 70
     1
102
RTVSPropertyOp19
 70
     1
102
RTVSPropertyOp20
 70
     1
102
RTVSPropertyOp21
 70
     1
102
RTVSPropertyOp22
 70
     1
102
RTVSPropertyOp23
 70
     1
102
RTVSPropertyOp24
 70
     1
102
RTVSPropertyOp25
 70
     1
102
RTVSPropertyOp26
 70
     1
102
RTVSPropertyOp27
 70
     1
  0
XRECORD
  5
5AB
102
{ACAD_REACTORS
330
5AA
102
}
330
5AA
100
AcDbXrecord
280
     1
102
RTVSPropertyOp0
 70
     1
102
RTVSPropertyOp1
 70
     1
102
RTVSPropertyOp2
 70
     1
102
RTVSPropertyOp3
 70
     1
102
RTVSPropertyOp4
 70
     1
102
RTVSPropertyOp5
 70
     1
102
RTVSPropertyOp6
 70
     1
102
RTVSPropertyOp7
 70
     1
102
RTVSPropertyOp8
 70
     1
102
RTVSPropertyOp9
 70
     1
102
RTVSPropertyOp10
 70
     1
102
RTVSPropertyOp11
 70
     1
102
RTVSPropertyOp12
 70
     1
102
RTVSPropertyOp13
 70
     1
102
RTVSPropertyOp14
 70
     1
102
RTVSPropertyOp15
 70
     1
102
RTVSPropertyOp16
 70
     1
102
RTVSPropertyOp17
 70
     1
102
RTVSPropertyOp18
 70
     1
102
RTVSPropertyOp19
 70
     1
102
RTVSPropertyOp20
 70
     1
102
RTVSPropertyOp21
 70
     1
102
RTVSPropertyOp22
 70
     1
102
RTVSPropertyOp23
 70
     1
102
RTVSPropertyOp24
 70
     1
102
RTVSPropertyOp25
 70
     1
102
RTVSPropertyOp26
 70
     1
102
RTVSPropertyOp27
 70
     1
  0
XRECORD
  5
5AD
102
{ACAD_REACTORS
330
5AC
102
}
330
5AC
100
AcDbXrecord
280
     1
102
RTVSPropertyOp0
 70
     1
102
RTVSPropertyOp1
 70
     1
102
RTVSPropertyOp2
 70
     1
102
RTVSPropertyOp3
 70
     1
102
RTVSPropertyOp4
 70
     1
102
RTVSPropertyOp5
 70
     1
102
RTVSPropertyOp6
 70
     1
102
RTVSPropertyOp7
 70
     1
102
RTVSPropertyOp8
 70
     1
102
RTVSPropertyOp9
 70
     1
102
RTVSPropertyOp10
 70
     1
102
RTVSPropertyOp11
 70
     1
102
RTVSPropertyOp12
 70
     1
102
RTVSPropertyOp13
 70
     1
102
RTVSPropertyOp14
 70
     1
102
RTVSPropertyOp15
 70
     1
102
RTVSPropertyOp16
 70
     1
102
RTVSPropertyOp17
 70
     1
102
RTVSPropertyOp18
 70
     1
102
RTVSPropertyOp19
 70
     1
102
RTVSPropertyOp20
 70
     1
102
RTVSPropertyOp21
 70
     1
102
RTVSPropertyOp22
 70
     1
102
RTVSPropertyOp23
 70
     1
102
RTVSPropertyOp24
 70
     1
102
RTVSPropertyOp25
 70
     1
102
RTVSPropertyOp26
 70
     1
102
RTVSPropertyOp27
 70
     1
  0
XRECORD
  5
5AF
102
{ACAD_REACTORS
330
5AE
102
}
330
5AE
100
AcDbXrecord
280
     1
102
RTVSPropertyOp0
 70
     1
102
RTVSPropertyOp1
 70
     1
102
RTVSPropertyOp2
 70
     1
102
RTVSPropertyOp3
 70
     1
102
RTVSPropertyOp4
 70
     1
102
RTVSPropertyOp5
 70
     1
102
RTVSPropertyOp6
 70
     1
102
RTVSPropertyOp7
 70
     1
102
RTVSPropertyOp8
 70
     1
102
RTVSPropertyOp9
 70
     1
102
RTVSPropertyOp10
 70
     1
102
RTVSPropertyOp11
 70
     1
102
RTVSPropertyOp12
 70
     1
102
RTVSPropertyOp13
 70
     1
102
RTVSPropertyOp14
 70
     1
102
RTVSPropertyOp15
 70
     1
102
RTVSPropertyOp16
 70
     1
102
RTVSPropertyOp17
 70
     1
102
RTVSPropertyOp18
 70
     1
102
RTVSPropertyOp19
 70
     1
102
RTVSPropertyOp20
 70
     1
102
RTVSPropertyOp21
 70
     1
102
RTVSPropertyOp22
 70
     1
102
RTVSPropertyOp23
 70
     1
102
RTVSPropertyOp24
 70
     1
102
RTVSPropertyOp25
 70
     1
102
RTVSPropertyOp26
 70
     1
102
RTVSPropertyOp27
 70
     1
  0
XRECORD
  5
5C3
102
{ACAD_REACTORS
330
5C2
102
}
330
5C2
100
AcDbXrecord
280
     1
102
RTVSPropertyOp0
 70
     1
102
RTVSPropertyOp1
 70
     1
102
RTVSPropertyOp2
 70
     1
102
RTVSPropertyOp3
 70
     1
102
RTVSPropertyOp4
 70
     1
102
RTVSPropertyOp5
 70
     1
102
RTVSPropertyOp6
 70
     1
102
RTVSPropertyOp7
 70
     1
102
RTVSPropertyOp8
 70
     1
102
RTVSPropertyOp9
 70
     1
102
RTVSPropertyOp10
 70
     1
102
RTVSPropertyOp11
 70
     1
102
RTVSPropertyOp12
 70
     1
102
RTVSPropertyOp13
 70
     1
102
RTVSPropertyOp14
 70
     1
102
RTVSPropertyOp15
 70
     1
102
RTVSPropertyOp16
 70
     1
102
RTVSPropertyOp17
 70
     1
102
RTVSPropertyOp18
 70
     1
102
RTVSPropertyOp19
 70
     1
102
RTVSPropertyOp20
 70
     1
102
RTVSPropertyOp21
 70
     1
102
RTVSPropertyOp22
 70
     1
102
RTVSPropertyOp23
 70
     1
102
RTVSPropertyOp24
 70
     1
102
RTVSPropertyOp25
 70
     1
102
RTVSPropertyOp26
 70
     1
102
RTVSPropertyOp27
 70
     1
  0
XRECORD
  5
5B9
102
{ACAD_REACTORS
330
5B8
102
}
330
5B8
100
AcDbXrecord
280
     1
102
RTVSPropertyOp0
 70
     1
102
RTVSPropertyOp1
 70
     1
102
RTVSPropertyOp2
 70
     1
102
RTVSPropertyOp3
 70
     1
102
RTVSPropertyOp4
 70
     1
102
RTVSPropertyOp5
 70
     1
102
RTVSPropertyOp6
 70
     1
102
RTVSPropertyOp7
 70
     1
102
RTVSPropertyOp8
 70
     1
102
RTVSPropertyOp9
 70
     1
102
RTVSPropertyOp10
 70
     1
102
RTVSPropertyOp11
 70
     1
102
RTVSPropertyOp12
 70
     1
102
RTVSPropertyOp13
 70
     1
102
RTVSPropertyOp14
 70
     1
102
RTVSPropertyOp15
 70
     1
102
RTVSPropertyOp16
 70
     1
102
RTVSPropertyOp17
 70
     1
102
RTVSPropertyOp18
 70
     1
102
RTVSPropertyOp19
 70
     1
102
RTVSPropertyOp20
 70
     1
102
RTVSPropertyOp21
 70
     1
102
RTVSPropertyOp22
 70
     1
102
RTVSPropertyOp23
 70
     1
102
RTVSPropertyOp24
 70
     1
102
RTVSPropertyOp25
 70
     1
102
RTVSPropertyOp26
 70
     1
102
RTVSPropertyOp27
 70
     1
  0
XRECORD
  5
5C1
102
{ACAD_REACTORS
330
5C0
102
}
330
5C0
100
AcDbXrecord
280
     1
102
RTVSPropertyOp0
 70
     1
102
RTVSPropertyOp1
 70
     1
102
RTVSPropertyOp2
 70
     1
102
RTVSPropertyOp3
 70
     1
102
RTVSPropertyOp4
 70
     1
102
RTVSPropertyOp5
 70
     1
102
RTVSPropertyOp6
 70
     1
102
RTVSPropertyOp7
 70
     1
102
RTVSPropertyOp8
 70
     1
102
RTVSPropertyOp9
 70
     1
102
RTVSPropertyOp10
 70
     1
102
RTVSPropertyOp11
 70
     1
102
RTVSPropertyOp12
 70
     1
102
RTVSPropertyOp13
 70
     1
102
RTVSPropertyOp14
 70
     1
102
RTVSPropertyOp15
 70
     1
102
RTVSPropertyOp16
 70
     1
102
RTVSPropertyOp17
 70
     1
102
RTVSPropertyOp18
 70
     1
102
RTVSPropertyOp19
 70
     1
102
RTVSPropertyOp20
 70
     1
102
RTVSPropertyOp21
 70
     1
102
RTVSPropertyOp22
 70
     1
102
RTVSPropertyOp23
 70
     1
102
RTVSPropertyOp24
 70
     1
102
RTVSPropertyOp25
 70
     1
102
RTVSPropertyOp26
 70
     1
102
RTVSPropertyOp27
 70
     1
  0
ENDSEC
  0
EOF
