  0
SECTION
  2
HEADER
  9
$ACADVER
  1
AC1015
  9
$ACADMAINTVER
 70
     6
  9
$DWGCODEPAGE
  3
ANSI_932
  9
$INSBASE
 10
0.0
 20
0.0
 30
0.0
  9
$EXTMIN
 10
-191.0
 20
-59.4158848386005
 30
0.0
  9
$EXTMAX
 10
280.560341323291
 20
391.960526714489
 30
0.0
  9
$LIMMIN
 10
0.0
 20
0.0
  9
$LIMMAX
 10
12.0
 20
9.0
  9
$ORTHOMODE
 70
     0
  9
$REGENMODE
 70
     1
  9
$FILLMODE
 70
     1
  9
$QTEXTMODE
 70
     0
  9
$MIRRTEXT
 70
     1
  9
$LTSCALE
 40
1.0
  9
$ATTMODE
 70
     1
  9
$TEXTSIZE
 40
0.2
  9
$TRACEWID
 40
0.05
  9
$TEXTSTYLE
  7
Standard
  9
$CLAYER
  8
0
  9
$CELTYPE
  6
ByLayer
  9
$CECOLOR
 62
   256
  9
$CELTSCALE
 40
1.0
  9
$DISPSILH
 70
     0
  9
$DIMSCALE
 40
1.0
  9
$DIMASZ
 40
0.18
  9
$DIMEXO
 40
0.0625
  9
$DIMDLI
 40
0.38
  9
$DIMRND
 40
0.0
  9
$DIMDLE
 40
0.0
  9
$DIMEXE
 40
0.18
  9
$DIMTP
 40
0.0
  9
$DIMTM
 40
0.0
  9
$DIMTXT
 40
0.18
  9
$DIMCEN
 40
0.09
  9
$DIMTSZ
 40
0.0
  9
$DIMTOL
 70
     0
  9
$DIMLIM
 70
     0
  9
$DIMTIH
 70
     1
  9
$DIMTOH
 70
     1
  9
$DIMSE1
 70
     0
  9
$DIMSE2
 70
     0
  9
$DIMTAD
 70
     0
  9
$DIMZIN
 70
     0
  9
$DIMBLK
  1

  9
$DIMASO
 70
     1
  9
$DIMSHO
 70
     1
  9
$DIMPOST
  1

  9
$DIMAPOST
  1

  9
$DIMALT
 70
     0
  9
$DIMALTD
 70
     2
  9
$DIMALTF
 40
25.4
  9
$DIMLFAC
 40
1.0
  9
$DIMTOFL
 70
     0
  9
$DIMTVP
 40
0.0
  9
$DIMTIX
 70
     0
  9
$DIMSOXD
 70
     0
  9
$DIMSAH
 70
     0
  9
$DIMBLK1
  1

  9
$DIMBLK2
  1

  9
$DIMSTYLE
  2
Standard
  9
$DIMCLRD
 70
     0
  9
$DIMCLRE
 70
     0
  9
$DIMCLRT
 70
     0
  9
$DIMTFAC
 40
1.0
  9
$DIMGAP
 40
0.09
  9
$DIMJUST
 70
     0
  9
$DIMSD1
 70
     0
  9
$DIMSD2
 70
     0
  9
$DIMTOLJ
 70
     1
  9
$DIMTZIN
 70
     0
  9
$DIMALTZ
 70
     0
  9
$DIMALTTZ
 70
     0
  9
$DIMUPT
 70
     0
  9
$DIMDEC
 70
     4
  9
$DIMTDEC
 70
     4
  9
$DIMALTU
 70
     2
  9
$DIMALTTD
 70
     2
  9
$DIMTXSTY
  7
Standard
  9
$DIMAUNIT
 70
     0
  9
$DIMADEC
 70
     0
  9
$DIMALTRND
 40
0.0
  9
$DIMAZIN
 70
     0
  9
$DIMDSEP
 70
    46
  9
$DIMATFIT
 70
     3
  9
$DIMFRAC
 70
     0
  9
$DIMLDRBLK
  1

  9
$DIMLUNIT
 70
     2
  9
$DIMLWD
 70
    -2
  9
$DIMLWE
 70
    -2
  9
$DIMTMOVE
 70
     0
  9
$LUNITS
 70
     2
  9
$LUPREC
 70
     4
  9
$SKETCHINC
 40
0.1
  9
$FILLETRAD
 40
0.5
  9
$AUNITS
 70
     0
  9
$AUPREC
 70
     0
  9
$MENU
  1
.
  9
$ELEVATION
 40
0.0
  9
$PELEVATION
 40
0.0
  9
$THICKNESS
 40
0.0
  9
$LIMCHECK
 70
     0
  9
$CHAMFERA
 40
0.5
  9
$CHAMFERB
 40
0.5
  9
$CHAMFERC
 40
1.0
  9
$CHAMFERD
 40
0.0
  9
$SKPOLY
 70
     0
  9
$TDCREATE
 40
2457624.704094676
  9
$TDUCREATE
 40
2457624.329094676
  9
$TDUPDATE
 40
2457624.704094687
  9
$TDUUPDATE
 40
2457624.329094687
  9
$TDINDWG
 40
0.0000000116
  9
$TDUSRTIMER
 40
0.0000000116
  9
$USRTIMER
 70
     1
  9
$ANGBASE
 50
0.0
  9
$ANGDIR
 70
     0
  9
$PDMODE
 70
     0
  9
$PDSIZE
 40
0.0
  9
$PLINEWID
 40
0.0
  9
$SPLFRAME
 70
     0
  9
$SPLINETYPE
 70
     6
  9
$SPLINESEGS
 70
     8
  9
$HANDSEED
  5
55A
  9
$SURFTAB1
 70
     6
  9
$SURFTAB2
 70
     6
  9
$SURFTYPE
 70
     6
  9
$SURFU
 70
     6
  9
$SURFV
 70
     6
  9
$UCSBASE
  2

  9
$UCSNAME
  2

  9
$UCSORG
 10
0.0
 20
0.0
 30
0.0
  9
$UCSXDIR
 10
1.0
 20
0.0
 30
0.0
  9
$UCSYDIR
 10
0.0
 20
1.0
 30
0.0
  9
$UCSORTHOREF
  2

  9
$UCSORTHOVIEW
 70
     0
  9
$UCSORGTOP
 10
0.0
 20
0.0
 30
0.0
  9
$UCSORGBOTTOM
 10
0.0
 20
0.0
 30
0.0
  9
$UCSORGLEFT
 10
0.0
 20
0.0
 30
0.0
  9
$UCSORGRIGHT
 10
0.0
 20
0.0
 30
0.0
  9
$UCSORGFRONT
 10
0.0
 20
0.0
 30
0.0
  9
$UCSORGBACK
 10
0.0
 20
0.0
 30
0.0
  9
$PUCSBASE
  2

  9
$PUCSNAME
  2

  9
$PUCSORG
 10
0.0
 20
0.0
 30
0.0
  9
$PUCSXDIR
 10
1.0
 20
0.0
 30
0.0
  9
$PUCSYDIR
 10
0.0
 20
1.0
 30
0.0
  9
$PUCSORTHOREF
  2

  9
$PUCSORTHOVIEW
 70
     0
  9
$PUCSORGTOP
 10
0.0
 20
0.0
 30
0.0
  9
$PUCSORGBOTTOM
 10
0.0
 20
0.0
 30
0.0
  9
$PUCSORGLEFT
 10
0.0
 20
0.0
 30
0.0
  9
$PUCSORGRIGHT
 10
0.0
 20
0.0
 30
0.0
  9
$PUCSORGFRONT
 10
0.0
 20
0.0
 30
0.0
  9
$PUCSORGBACK
 10
0.0
 20
0.0
 30
0.0
  9
$USERI1
 70
     0
  9
$USERI2
 70
     0
  9
$USERI3
 70
     0
  9
$USERI4
 70
     0
  9
$USERI5
 70
     0
  9
$USERR1
 40
18.0
  9
$USERR2
 40
0.0
  9
$USERR3
 40
0.0
  9
$USERR4
 40
0.0
  9
$USERR5
 40
0.0
  9
$WORLDVIEW
 70
     1
  9
$SHADEDGE
 70
     3
  9
$SHADEDIF
 70
    70
  9
$TILEMODE
 70
     1
  9
$MAXACTVP
 70
    64
  9
$PINSBASE
 10
0.0
 20
0.0
 30
0.0
  9
$PLIMCHECK
 70
     0
  9
$PEXTMIN
 10
1.00000000000000E+20
 20
1.00000000000000E+20
 30
1.00000000000000E+20
  9
$PEXTMAX
 10
-1.00000000000000E+20
 20
-1.00000000000000E+20
 30
-1.00000000000000E+20
  9
$PLIMMIN
 10
0.0
 20
0.0
  9
$PLIMMAX
 10
12.0
 20
9.0
  9
$UNITMODE
 70
     0
  9
$VISRETAIN
 70
     1
  9
$PLINEGEN
 70
     0
  9
$PSLTSCALE
 70
     1
  9
$TREEDEPTH
 70
  3020
  9
$CMLSTYLE
  2
Standard
  9
$CMLJUST
 70
     0
  9
$CMLSCALE
 40
1.0
  9
$PROXYGRAPHICS
 70
     1
  9
$MEASUREMENT
 70
     1
  9
$CELWEIGHT
370
    -1
  9
$ENDCAPS
280
     0
  9
$JOINSTYLE
280
     0
  9
$LWDISPLAY
290
     0
  9
$INSUNITS
 70
     1
  9
$HYPERLINKBASE
  1

  9
$STYLESHEET
  1

  9
$XEDIT
290
     1
  9
$CEPSNTYPE
380
     0
  9
$PSTYLEMODE
290
     1
  9
$FINGERPRINTGUID
  2
{E36EC538-54C3-4D97-895F-4976CEE68F79}
  9
$VERSIONGUID
  2
{FAEB1C32-E019-11D5-929B-00C0DF256EC4}
  9
$EXTNAMES
290
     1
  9
$PSVPSCALE
 40
0.0
  9
$OLESTARTUP
290
     0
  0
ENDSEC
  0
SECTION
  2
CLASSES
  0
CLASS
  1
ACDBDICTIONARYWDFLT
  2
AcDbDictionaryWithDefault
  3
ObjectDBX Classes
 90
        0
280
     0
281
     0
  0
CLASS
  1
VISUALSTYLE
  2
AcDbVisualStyle
  3
ObjectDBX Classes
 90
     4095
280
     0
281
     0
  0
CLASS
  1
MATERIAL
  2
AcDbMaterial
  3
ObjectDBX Classes
 90
     1153
280
     0
281
     0
  0
CLASS
  1

  2
exOdDbCircle
  3

 90
        0
280
     0
281
     1
  0
CLASS
  1

  2
exOdDbPolyline
  3

 90
        0
280
     0
281
     1
  0
CLASS
  1
DICTIONARYVAR
  2
AcDbDictionaryVar
  3
ObjectDBX Classes
 90
        0
280
     0
281
     0
  0
CLASS
  1
ACDBPLACEHOLDER
  2
AcDbPlaceHolder
  3
ObjectDBX Classes
 90
        0
280
     0
281
     0
  0
CLASS
  1
LAYOUT
  2
AcDbLayout
  3
ObjectDBX Classes
 90
        0
280
     0
281
     0
  0
ENDSEC
  0
SECTION
  2
TABLES
  0
TABLE
  2
VPORT
  5
8
330
0
100
AcDbSymbolTable
 70
     1
  0
VPORT
  5
29
330
8
100
AcDbSymbolTableRecord
100
AcDbViewportTableRecord
  2
*Active
 70
     0
 10
0.0
 20
0.0
 11
1.0
 21
1.0
 12
44.78017066164551
 22
166.2723209379442
 13
0.0
 23
0.0
 14
0.5
 24
0.5
 15
0.5
 25
0.5
 16
0.0
 26
0.0
 36
1.0
 17
0.0
 27
0.0
 37
0.0
 40
496.5140527083985
 41
1.60267857142857
 42
50.0
 43
0.0
 44
0.0
 50
0.0
 51
0.0
 71
     0
 72
   100
 73
     1
 74
     3
 75
     0
 76
     0
 77
     0
 78
     0
281
     0
 65
     1
110
0.0
120
0.0
130
0.0
111
1.0
121
0.0
131
0.0
112
0.0
122
1.0
132
0.0
 79
     0
146
0.0
  0
ENDTAB
  0
TABLE
  2
LTYPE
  5
5
330
0
100
AcDbSymbolTable
 70
     9
  0
LTYPE
  5
14
330
5
100
AcDbSymbolTableRecord
100
AcDbLinetypeTableRecord
  2
ByBlock
 70
     0
  3

 72
    65
 73
     0
 40
0.0
  0
LTYPE
  5
15
330
5
100
AcDbSymbolTableRecord
100
AcDbLinetypeTableRecord
  2
ByLayer
 70
     0
  3

 72
    65
 73
     0
 40
0.0
  0
LTYPE
  5
16
330
5
100
AcDbSymbolTableRecord
100
AcDbLinetypeTableRecord
  2
Continuous
 70
     0
  3
Solid line
 72
    65
 73
     0
 40
0.0
  0
LTYPE
  5
3F
330
5
100
AcDbSymbolTableRecord
100
AcDbLinetypeTableRecord
  2
DASHED
 70
     0
  3
Dashed
 72
    65
 73
     2
 40
15.0
 49
7.0
 74
     0
 49
-8.0
 74
     0
  0
LTYPE
  5
40
330
5
100
AcDbSymbolTableRecord
100
AcDbLinetypeTableRecord
  2
DOTTED
 70
     0
  3
Dotted
 72
    65
 73
     2
 40
1.0
 49
0.0
 74
     0
 49
-1.0
 74
     0
  0
LTYPE
  5
41
330
5
100
AcDbSymbolTableRecord
100
AcDbLinetypeTableRecord
  2
DOT_CENTER
 70
     0
  3
Dot_Center
 72
    65
 73
     4
 40
14.0
 49
12.0
 74
     0
 49
-1.0
 74
     0
 49
0.0
 74
     0
 49
-1.0
 74
     0
  0
LTYPE
  5
42
330
5
100
AcDbSymbolTableRecord
100
AcDbLinetypeTableRecord
  2
LONG_DASHED
 70
     0
  3
Long_Dashed
 72
    65
 73
     2
 40
15.0
 49
10.0
 74
     0
 49
-5.0
 74
     0
  0
LTYPE
  5
43
330
5
100
AcDbSymbolTableRecord
100
AcDbLinetypeTableRecord
  2
DASH_CENTER
 70
     0
  3
Dash_Center
 72
    65
 73
     4
 40
14.0
 49
11.0
 74
     0
 49
-1.0
 74
     0
 49
1.0
 74
     0
 49
-1.0
 74
     0
  0
LTYPE
  5
44
330
5
100
AcDbSymbolTableRecord
100
AcDbLinetypeTableRecord
  2
PHANTOM
 70
     0
  3
Phantom
 72
    65
 73
     6
 40
13.0
 49
10.0
 74
     0
 49
-1.0
 74
     0
 49
0.0
 74
     0
 49
-1.0
 74
     0
 49
0.0
 74
     0
 49
-1.0
 74
     0
  0
LTYPE
  5
45
330
5
100
AcDbSymbolTableRecord
100
AcDbLinetypeTableRecord
  2
CENTER_DASH_DASH
 70
     0
  3
Center_Dash_Dash
 72
    65
 73
     6
 40
14.0
 49
9.0
 74
     0
 49
-1.0
 74
     0
 49
1.0
 74
     0
 49
-1.0
 74
     0
 49
1.0
 74
     0
 49
-1.0
 74
     0
  0
LTYPE
  5
46
330
5
100
AcDbSymbolTableRecord
100
AcDbLinetypeTableRecord
  2
CENTER
 70
     0
  3
CENTER
 72
    65
 73
     4
 40
6.0
 49
3.0
 74
     0
 49
-1.0
 74
     0
 49
1.0
 74
     0
 49
-1.0
 74
     0
  0
ENDTAB
  0
TABLE
  2
LAYER
  5
2
330
0
100
AcDbSymbolTable
 70
     4
  0
LAYER
  5
10
330
2
100
AcDbSymbolTableRecord
100
AcDbLayerTableRecord
  2
0
 70
     0
 62
     7
  6
Continuous
370
    -3
390
F
  0
LAYER
  5
47
330
2
100
AcDbSymbolTableRecord
100
AcDbLayerTableRecord
  2
1
 70
     0
 62
     7
  6
Continuous
370
    -3
390
F
  0
LAYER
  5
48
330
2
100
AcDbSymbolTableRecord
100
AcDbLayerTableRecord
  2
100
 70
     0
 62
     7
  6
Continuous
370
    -3
390
F
  0
LAYER
  5
49
330
2
100
AcDbSymbolTableRecord
100
AcDbLayerTableRecord
  2
2
 70
     0
 62
     7
  6
Continuous
370
    -3
390
F
  0
ENDTAB
  0
TABLE
  2
STYLE
  5
3
330
0
100
AcDbSymbolTable
 70
     1
  0
STYLE
  5
11
330
3
100
AcDbSymbolTableRecord
100
AcDbTextStyleTableRecord
  2
Standard
 70
     0
 40
0.0
 41
1.0
 50
0.0
 71
     0
 42
0.2
  3
txt
  4

  0
ENDTAB
  0
TABLE
  2
VIEW
  5
6
330
0
100
AcDbSymbolTable
 70
     0
  0
ENDTAB
  0
TABLE
  2
UCS
  5
7
330
0
100
AcDbSymbolTable
 70
     0
  0
ENDTAB
  0
TABLE
  2
APPID
  5
9
330
0
100
AcDbSymbolTable
 70
     1
  0
APPID
  5
12
330
9
100
AcDbSymbolTableRecord
100
AcDbRegAppTableRecord
  2
ACAD
 70
     0
  0
ENDTAB
  0
TABLE
  2
DIMSTYLE
  5
A
330
0
100
AcDbSymbolTable
 70
     1
100
AcDbDimStyleTable
  0
DIMSTYLE
105
27
330
A
100
AcDbSymbolTableRecord
100
AcDbDimStyleTableRecord
  2
Standard
 70
     0
340
11
  0
ENDTAB
  0
TABLE
  2
BLOCK_RECORD
  5
1
330
0
100
AcDbSymbolTable
 70
     1
  0
BLOCK_RECORD
  5
1F
330
1
100
AcDbSymbolTableRecord
100
AcDbBlockTableRecord
  2
*Model_Space
340
22
  0
BLOCK_RECORD
  5
1B
330
1
100
AcDbSymbolTableRecord
100
AcDbBlockTableRecord
  2
*Paper_Space
340
1E
  0
BLOCK_RECORD
  5
23
330
1
100
AcDbSymbolTableRecord
100
AcDbBlockTableRecord
  2
*Paper_Space0
340
26
  0
ENDTAB
  0
ENDSEC
  0
SECTION
  2
BLOCKS
  0
BLOCK
  5
20
330
1F
100
AcDbEntity
  8
0
100
AcDbBlockBegin
  2
*Model_Space
 70
     0
 10
0.0
 20
0.0
 30
0.0
  3
*Model_Space
  1

  0
ENDBLK
  5
21
330
1F
100
AcDbEntity
  8
0
100
AcDbBlockEnd
  0
BLOCK
  5
1C
330
1B
100
AcDbEntity
 67
     1
  8
0
100
AcDbBlockBegin
  2
*Paper_Space
 70
     0
 10
0.0
 20
0.0
 30
0.0
  3
*Paper_Space
  1

  0
ENDBLK
  5
1D
330
1B
100
AcDbEntity
 67
     1
  8
0
100
AcDbBlockEnd
  0
BLOCK
  5
24
330
23
100
AcDbEntity
  8
0
100
AcDbBlockBegin
  2
*Paper_Space0
 70
     0
 10
0.0
 20
0.0
 30
0.0
  3
*Paper_Space0
  1

  0
ENDBLK
  5
25
330
23
100
AcDbEntity
  8
0
100
AcDbBlockEnd
  0
ENDSEC
  0
SECTION
  2
ENTITIES
  0
LINE
  5
4A
330
1F
100
AcDbEntity
  8
1
  6
Continuous
 62
     4
100
AcDbLine
 10
2.5814643882451
 20
-56.9158848386005
 30
0.0
 11
2.0814643882451
 21
-57.5408848386005
 31
0.0
  0
LINE
  5
4B
330
1F
100
AcDbEntity
  8
1
  6
Continuous
 62
     4
100
AcDbLine
 10
2.0814643882451
 20
-56.2908848386005
 30
0.0
 11
2.5814643882451
 21
-56.9158848386005
 31
0.0
  0
LINE
  5
4C
330
1F
100
AcDbEntity
  8
1
  6
Continuous
 62
     4
100
AcDbLine
 10
-1.1685356117549
 20
-56.9158848386005
 30
0.0
 11
2.5814643882451
 21
-56.9158848386005
 31
0.0
  0
LINE
  5
4D
330
1F
100
AcDbEntity
  8
1
  6
Continuous
 62
     4
100
AcDbLine
 10
-5.2935356117549
 20
-55.4783848386005
 30
0.0
 11
-2.4185356117549
 21
-55.4783848386005
 31
0.0
  0
LINE
  5
4E
330
1F
100
AcDbEntity
  8
1
  6
Continuous
 62
     4
100
AcDbLine
 10
-5.2935356117549
 20
-55.4783848386005
 30
0.0
 11
-4.6060356117549
 21
-54.5408848386005
 31
0.0
  0
LINE
  5
4F
330
1F
100
AcDbEntity
  8
1
  6
Continuous
 62
     4
100
AcDbLine
 10
-3.6685356117549
 20
-57.8533848386005
 30
0.0
 11
-4.7310356117549
 21
-57.8533848386005
 31
0.0
  0
LINE
  5
50
330
1F
100
AcDbEntity
  8
1
  6
Continuous
 62
     4
100
AcDbLine
 10
-3.6685356117549
 20
-56.6033848386005
 30
0.0
 11
-3.6685356117549
 21
-57.8533848386005
 31
0.0
  0
LINE
  5
51
330
1F
100
AcDbEntity
  8
1
  6
Continuous
 62
     4
100
AcDbLine
 10
-4.7310356117549
 20
-56.6033848386005
 30
0.0
 11
-3.6685356117549
 21
-56.6033848386005
 31
0.0
  0
LINE
  5
52
330
1F
100
AcDbEntity
  8
1
  6
Continuous
 62
     4
100
AcDbLine
 10
-4.7310356117549
 20
-57.8533848386005
 30
0.0
 11
-4.7310356117549
 21
-56.6033848386005
 31
0.0
  0
LINE
  5
53
330
1F
100
AcDbEntity
  8
1
  6
Continuous
 62
     4
100
AcDbLine
 10
-2.4185356117549
 20
-59.2283848386005
 30
0.0
 11
-3.1060356117549
 21
-59.2283848386005
 31
0.0
  0
LINE
  5
54
330
1F
100
AcDbEntity
  8
1
  6
Continuous
 62
     4
100
AcDbLine
 10
-2.4185356117549
 20
-55.4783848386005
 30
0.0
 11
-2.4185356117549
 21
-59.2283848386005
 31
0.0
  0
LINE
  5
55
330
1F
100
AcDbEntity
  8
1
  6
Continuous
 62
     4
100
AcDbLine
 10
-5.9810356117549
 20
-55.4783848386005
 30
0.0
 11
-5.2935356117549
 21
-55.4783848386005
 31
0.0
  0
LINE
  5
56
330
1F
100
AcDbEntity
  8
1
  6
Continuous
 62
     4
100
AcDbLine
 10
-5.9810356117549
 20
-59.2283848386005
 30
0.0
 11
-5.9810356117549
 21
-55.4783848386005
 31
0.0
  0
LINE
  5
57
330
1F
100
AcDbEntity
  8
1
  6
Continuous
 62
     4
100
AcDbLine
 10
-8.6685356117549
 20
-59.4158848386005
 30
0.0
 11
-9.1685356117549
 21
-59.1033848386005
 31
0.0
  0
LINE
  5
58
330
1F
100
AcDbEntity
  8
1
  6
Continuous
 62
     4
100
AcDbLine
 10
-8.3560356117549
 20
-58.9158848386005
 30
0.0
 11
-8.6685356117549
 21
-59.4158848386005
 31
0.0
  0
LINE
  5
59
330
1F
100
AcDbEntity
  8
1
  6
Continuous
 62
     4
100
AcDbLine
 10
-8.1060356117549
 20
-58.1658848386005
 30
0.0
 11
-8.3560356117549
 21
-58.9158848386005
 31
0.0
  0
LINE
  5
5A
330
1F
100
AcDbEntity
  8
1
  6
Continuous
 62
     4
100
AcDbLine
 10
-7.7935356117549
 20
-57.0408848386005
 30
0.0
 11
-8.1060356117549
 21
-58.1658848386005
 31
0.0
  0
LINE
  5
5B
330
1F
100
AcDbEntity
  8
1
  6
Continuous
 62
     4
100
AcDbLine
 10
-7.7935356117549
 20
-56.6033848386005
 30
0.0
 11
-7.7935356117549
 21
-57.0408848386005
 31
0.0
  0
LINE
  5
5C
330
1F
100
AcDbEntity
  8
1
  6
Continuous
 62
     4
100
AcDbLine
 10
-9.6060356117549
 20
-56.6033848386005
 30
0.0
 11
-7.7935356117549
 21
-56.6033848386005
 31
0.0
  0
LINE
  5
5D
330
1F
100
AcDbEntity
  8
1
  6
Continuous
 62
     4
100
AcDbLine
 10
-11.2935356117549
 20
-55.3533848386005
 30
0.0
 11
-7.1060356117549
 21
-55.3533848386005
 31
0.0
  0
LINE
  5
5E
330
1F
100
AcDbEntity
  8
1
  6
Continuous
 62
     4
100
AcDbLine
 10
-9.4810356117549
 20
-55.7908848386005
 30
0.0
 11
-9.3560356117549
 21
-54.5408848386005
 31
0.0
  0
LINE
  5
5F
330
1F
100
AcDbEntity
  8
1
  6
Continuous
 62
     4
100
AcDbLine
 10
-9.7310356117549
 20
-57.0408848386005
 30
0.0
 11
-9.4810356117549
 21
-55.7908848386005
 31
0.0
  0
LINE
  5
60
330
1F
100
AcDbEntity
  8
1
  6
Continuous
 62
     4
100
AcDbLine
 10
-10.0435356117549
 20
-57.8533848386005
 30
0.0
 11
-9.7310356117549
 21
-57.0408848386005
 31
0.0
  0
LINE
  5
61
330
1F
100
AcDbEntity
  8
1
  6
Continuous
 62
     4
100
AcDbLine
 10
-10.4185356117549
 20
-58.6033848386005
 30
0.0
 11
-10.0435356117549
 21
-57.8533848386005
 31
0.0
  0
LINE
  5
62
330
1F
100
AcDbEntity
  8
1
  6
Continuous
 62
     4
100
AcDbLine
 10
-10.9810356117549
 20
-59.2283848386005
 30
0.0
 11
-10.4185356117549
 21
-58.6033848386005
 31
0.0
  0
LINE
  5
63
330
1F
100
AcDbEntity
  8
1
  6
Continuous
 62
     4
100
AcDbLine
 10
-12.6685356117549
 20
-57.8533848386005
 30
0.0
 11
-11.9810356117549
 21
-58.6033848386005
 31
0.0
  0
LINE
  5
64
330
1F
100
AcDbEntity
  8
1
  6
Continuous
 62
     4
100
AcDbLine
 10
-13.2310356117549
 20
-56.9158848386005
 30
0.0
 11
-12.6685356117549
 21
-57.8533848386005
 31
0.0
  0
LINE
  5
65
330
1F
100
AcDbEntity
  8
1
  6
Continuous
 62
     4
100
AcDbLine
 10
-13.6685356117549
 20
-55.7908848386005
 30
0.0
 11
-13.2310356117549
 21
-56.9158848386005
 31
0.0
  0
LINE
  5
66
330
1F
100
AcDbEntity
  8
1
  6
Continuous
 62
     4
100
AcDbLine
 10
-12.4185356117549
 20
-55.6658848386005
 30
0.0
 11
-13.3560356117549
 21
-56.4158848386005
 31
0.0
  0
LINE
  5
67
330
1F
100
AcDbEntity
  8
1
  6
Continuous
 62
     4
100
AcDbLine
 10
-14.0435356117549
 20
-59.4158848386005
 30
0.0
 11
-14.4810356117549
 21
-59.2283848386005
 31
0.0
  0
LINE
  5
68
330
1F
100
AcDbEntity
  8
1
  6
Continuous
 62
     4
100
AcDbLine
 10
-14.0435356117549
 20
-54.5408848386005
 30
0.0
 11
-14.0435356117549
 21
-59.4158848386005
 31
0.0
  0
LINE
  5
69
330
1F
100
AcDbEntity
  8
1
  6
Continuous
 62
     4
100
AcDbLine
 10
-14.7310356117549
 20
-56.1033848386005
 30
0.0
 11
-16.1685356117549
 21
-56.1033848386005
 31
0.0
  0
LINE
  5
6A
330
1F
100
AcDbEntity
  8
1
  6
Continuous
 62
     4
100
AcDbLine
 10
-15.0435356117549
 20
-57.0408848386005
 30
0.0
 11
-14.7310356117549
 21
-56.1033848386005
 31
0.0
  0
LINE
  5
6B
330
1F
100
AcDbEntity
  8
1
  6
Continuous
 62
     4
100
AcDbLine
 10
-15.6060356117549
 20
-57.9783848386005
 30
0.0
 11
-15.0435356117549
 21
-57.0408848386005
 31
0.0
  0
LINE
  5
6C
330
1F
100
AcDbEntity
  8
1
  6
Continuous
 62
     4
100
AcDbLine
 10
-16.1685356117549
 20
-58.6033848386005
 30
0.0
 11
-15.6060356117549
 21
-57.9783848386005
 31
0.0
  0
LINE
  5
6D
330
1F
100
AcDbEntity
  8
1
  6
Continuous
 62
     4
100
AcDbLine
 10
-18.9185356117549
 20
-55.1658848386005
 30
0.0
 11
-17.2310356117549
 21
-55.1658848386005
 31
0.0
  0
LINE
  5
6E
330
1F
100
AcDbEntity
  8
1
  6
Continuous
 62
     4
100
AcDbLine
 10
-16.9810356117549
 20
-58.9158848386005
 30
0.0
 11
-16.9810356117549
 21
-58.6033848386005
 31
0.0
  0
LINE
  5
6F
330
1F
100
AcDbEntity
  8
1
  6
Continuous
 62
     4
100
AcDbLine
 10
-17.2310356117549
 20
-59.2283848386005
 30
0.0
 11
-16.9810356117549
 21
-58.9158848386005
 31
0.0
  0
LINE
  5
70
330
1F
100
AcDbEntity
  8
1
  6
Continuous
 62
     4
100
AcDbLine
 10
-17.7935356117549
 20
-59.2283848386005
 30
0.0
 11
-17.2310356117549
 21
-59.2283848386005
 31
0.0
  0
LINE
  5
71
330
1F
100
AcDbEntity
  8
1
  6
Continuous
 62
     4
100
AcDbLine
 10
-18.1060356117549
 20
-58.7908848386005
 30
0.0
 11
-17.7935356117549
 21
-59.2283848386005
 31
0.0
  0
LINE
  5
72
330
1F
100
AcDbEntity
  8
1
  6
Continuous
 62
     4
100
AcDbLine
 10
-18.1060356117549
 20
-57.2283848386005
 30
0.0
 11
-18.1060356117549
 21
-58.7908848386005
 31
0.0
  0
LINE
  5
73
330
1F
100
AcDbEntity
  8
1
  6
Continuous
 62
     4
100
AcDbLine
 10
-18.9185356117549
 20
-59.2283848386005
 30
0.0
 11
-18.9185356117549
 21
-57.2283848386005
 31
0.0
  0
LINE
  5
74
330
1F
100
AcDbEntity
  8
1
  6
Continuous
 62
     4
100
AcDbLine
 10
-20.1685356117549
 20
-59.1033848386005
 30
0.0
 11
-20.6060356117549
 21
-59.4158848386005
 31
0.0
  0
LINE
  5
75
330
1F
100
AcDbEntity
  8
1
  6
Continuous
 62
     4
100
AcDbLine
 10
-19.9185356117549
 20
-58.7908848386005
 30
0.0
 11
-20.1685356117549
 21
-59.1033848386005
 31
0.0
  0
LINE
  5
76
330
1F
100
AcDbEntity
  8
1
  6
Continuous
 62
     4
100
AcDbLine
 10
-19.7310356117549
 20
-58.2908848386005
 30
0.0
 11
-19.9185356117549
 21
-58.7908848386005
 31
0.0
  0
LINE
  5
77
330
1F
100
AcDbEntity
  8
1
  6
Continuous
 62
     4
100
AcDbLine
 10
-19.6060356117549
 20
-57.2283848386005
 30
0.0
 11
-19.7310356117549
 21
-58.2908848386005
 31
0.0
  0
LINE
  5
78
330
1F
100
AcDbEntity
  8
1
  6
Continuous
 62
     4
100
AcDbLine
 10
-18.2310356117549
 20
-55.6658848386005
 30
0.0
 11
-17.6685356117549
 21
-56.7283848386005
 31
0.0
  0
LINE
  5
79
330
1F
100
AcDbEntity
  8
1
  6
Continuous
 62
     4
100
AcDbLine
 10
-20.0435356117549
 20
-56.4158848386005
 30
0.0
 11
-17.9185356117549
 21
-56.2908848386005
 31
0.0
  0
LINE
  5
7A
330
1F
100
AcDbEntity
  8
1
  6
Continuous
 62
     4
100
AcDbLine
 10
-18.9185356117549
 20
-55.1658848386005
 30
0.0
 11
-19.4810356117549
 21
-56.4158848386005
 31
0.0
  0
LINE
  5
7B
330
1F
100
AcDbEntity
  8
1
  6
Continuous
 62
     4
100
AcDbLine
 10
-18.7935356117549
 20
-54.4158848386005
 30
0.0
 11
-18.7935356117549
 21
-55.1658848386005
 31
0.0
  0
LINE
  5
7C
330
1F
100
AcDbEntity
  8
1
  6
Continuous
 62
     4
100
AcDbLine
 10
-20.2935356117549
 20
-55.1658848386005
 30
0.0
 11
-18.9185356117549
 21
-55.1658848386005
 31
0.0
  0
LINE
  5
7D
330
1F
100
AcDbEntity
  8
1
  6
Continuous
 62
     4
100
AcDbLine
 10
-21.2935356117549
 20
-59.2283848386005
 30
0.0
 11
-20.7310356117549
 21
-57.2283848386005
 31
0.0
  0
LINE
  5
7E
330
1F
100
AcDbEntity
  8
1
  6
Continuous
 62
     4
100
AcDbLine
 10
-21.4185356117549
 20
-55.9783848386005
 30
0.0
 11
-20.9810356117549
 21
-56.4158848386005
 31
0.0
  0
LINE
  5
7F
330
1F
100
AcDbEntity
  8
1
  6
Continuous
 62
     4
100
AcDbLine
 10
-20.9810356117549
 20
-54.5408848386005
 30
0.0
 11
-20.7310356117549
 21
-55.0408848386005
 31
0.0
  0
LINE
  5
80
330
1F
100
AcDbEntity
  8
1
  6
Continuous
 62
     4
100
AcDbLine
 10
-88.302207553469
 20
-15.6784633168473
 30
0.0
 11
-87.302207553469
 21
-16.3034633168473
 31
0.0
  0
LINE
  5
81
330
1F
100
AcDbEntity
  8
1
  6
Continuous
 62
     4
100
AcDbLine
 10
-86.927207553469
 20
-15.3659633168473
 30
0.0
 11
-87.739707553469
 21
-14.7409633168473
 31
0.0
  0
LINE
  5
82
330
1F
100
AcDbEntity
  8
1
  6
Continuous
 62
     4
100
AcDbLine
 10
-86.239707553469
 20
-14.6159633168473
 30
0.0
 11
-85.802207553469
 21
-15.0534633168473
 31
0.0
  0
LINE
  5
83
330
1F
100
AcDbEntity
  8
1
  6
Continuous
 62
     4
100
AcDbLine
 10
-85.489707553469
 20
-14.7409633168473
 30
0.0
 11
-85.927207553469
 21
-14.3034633168473
 31
0.0
  0
LINE
  5
84
330
1F
100
AcDbEntity
  8
1
  6
Continuous
 62
     4
100
AcDbLine
 10
-85.802207553469
 20
-16.6159633168473
 30
0.0
 11
-85.114707553469
 21
-15.6784633168473
 31
0.0
  0
LINE
  5
85
330
1F
100
AcDbEntity
  8
1
  6
Continuous
 62
     4
100
AcDbLine
 10
-86.927207553469
 20
-17.5534633168473
 30
0.0
 11
-85.802207553469
 21
-16.6159633168473
 31
0.0
  0
LINE
  5
86
330
1F
100
AcDbEntity
  8
1
  6
Continuous
 62
     4
100
AcDbLine
 10
-87.989707553469
 20
-18.1784633168473
 30
0.0
 11
-86.927207553469
 21
-17.5534633168473
 31
0.0
  0
LINE
  5
87
330
1F
100
AcDbEntity
  8
1
  6
Continuous
 62
     4
100
AcDbLine
 10
-90.677207553469
 20
-16.8034633168473
 30
0.0
 11
-90.239707553469
 21
-17.4284633168473
 31
0.0
  0
LINE
  5
88
330
1F
100
AcDbEntity
  8
1
  6
Continuous
 62
     4
100
AcDbLine
 10
-91.239707553469
 20
-16.3034633168473
 30
0.0
 11
-90.677207553469
 21
-16.8034633168473
 31
0.0
  0
LINE
  5
89
330
1F
100
AcDbEntity
  8
1
  6
Continuous
 62
     4
100
AcDbLine
 10
-91.614707553469
 20
-14.3034633168473
 30
0.0
 11
-91.364707553469
 21
-14.6159633168473
 31
0.0
  0
LINE
  5
8A
330
1F
100
AcDbEntity
  8
1
  6
Continuous
 62
     4
100
AcDbLine
 10
-92.177207553469
 20
-13.9909633168473
 30
0.0
 11
-91.614707553469
 21
-14.3034633168473
 31
0.0
  0
LINE
  5
8B
330
1F
100
AcDbEntity
  8
1
  6
Continuous
 62
     4
100
AcDbLine
 10
-90.927207553469
 20
-15.2409633168473
 30
0.0
 11
-92.864707553469
 21
-15.2409633168473
 31
0.0
  0
LINE
  5
8C
330
1F
100
AcDbEntity
  8
1
  6
Continuous
 62
     4
100
AcDbLine
 10
-91.927207553469
 20
-16.3034633168473
 30
0.0
 11
-90.927207553469
 21
-15.2409633168473
 31
0.0
  0
LINE
  5
8D
330
1F
100
AcDbEntity
  8
1
  6
Continuous
 62
     4
100
AcDbLine
 10
-93.302207553469
 20
-17.2409633168473
 30
0.0
 11
-91.927207553469
 21
-16.3034633168473
 31
0.0
  0
LINE
  5
8E
330
1F
100
AcDbEntity
  8
1
  6
Continuous
 62
     4
100
AcDbLine
 10
-91.739707553469
 20
-18.1784633168473
 30
0.0
 11
-91.739707553469
 21
-16.1784633168473
 31
0.0
  0
LINE
  5
8F
330
1F
100
AcDbEntity
  8
1
  6
Continuous
 62
     4
100
AcDbLine
 10
-98.489707553469
 20
-18.6784633168473
 30
0.0
 11
-95.489707553469
 21
-18.6784633168473
 31
0.0
  0
LINE
  5
90
330
1F
100
AcDbEntity
  8
1
  6
Continuous
 62
     4
100
AcDbLine
 10
-95.739707553469
 20
-15.4284633168473
 30
0.0
 11
-98.489707553469
 21
-18.6784633168473
 31
0.0
  0
LINE
  5
91
330
1F
100
AcDbEntity
  8
1
  6
Continuous
 62
     4
100
AcDbLine
 10
-95.489707553469
 20
-14.9284633168473
 30
0.0
 11
-95.739707553469
 21
-15.4284633168473
 31
0.0
  0
LINE
  5
92
330
1F
100
AcDbEntity
  8
1
  6
Continuous
 62
     4
100
AcDbLine
 10
-95.489707553469
 20
-14.4284633168473
 30
0.0
 11
-95.489707553469
 21
-14.9284633168473
 31
0.0
  0
LINE
  5
93
330
1F
100
AcDbEntity
  8
1
  6
Continuous
 62
     4
100
AcDbLine
 10
-95.739707553469
 20
-14.0534633168473
 30
0.0
 11
-95.489707553469
 21
-14.4284633168473
 31
0.0
  0
LINE
  5
94
330
1F
100
AcDbEntity
  8
1
  6
Continuous
 62
     4
100
AcDbLine
 10
-96.114707553469
 20
-13.8034633168473
 30
0.0
 11
-95.739707553469
 21
-14.0534633168473
 31
0.0
  0
LINE
  5
95
330
1F
100
AcDbEntity
  8
1
  6
Continuous
 62
     4
100
AcDbLine
 10
-96.614707553469
 20
-13.6784633168473
 30
0.0
 11
-96.114707553469
 21
-13.8034633168473
 31
0.0
  0
LINE
  5
96
330
1F
100
AcDbEntity
  8
1
  6
Continuous
 62
     4
100
AcDbLine
 10
-97.364707553469
 20
-13.6784633168473
 30
0.0
 11
-96.614707553469
 21
-13.6784633168473
 31
0.0
  0
LINE
  5
97
330
1F
100
AcDbEntity
  8
1
  6
Continuous
 62
     4
100
AcDbLine
 10
-97.864707553469
 20
-13.8034633168473
 30
0.0
 11
-97.364707553469
 21
-13.6784633168473
 31
0.0
  0
LINE
  5
98
330
1F
100
AcDbEntity
  8
1
  6
Continuous
 62
     4
100
AcDbLine
 10
-98.239707553469
 20
-14.0534633168473
 30
0.0
 11
-97.864707553469
 21
-13.8034633168473
 31
0.0
  0
LINE
  5
99
330
1F
100
AcDbEntity
  8
1
  6
Continuous
 62
     4
100
AcDbLine
 10
-98.489707553469
 20
-14.4284633168473
 30
0.0
 11
-98.239707553469
 21
-14.0534633168473
 31
0.0
  0
LINE
  5
9A
330
1F
100
AcDbEntity
  8
1
  6
Continuous
 62
     4
100
AcDbLine
 10
-101.989707553469
 20
-18.6784633168473
 30
0.0
 11
-99.989707553469
 21
-13.6784633168473
 31
0.0
  0
LINE
  5
9B
330
1F
100
AcDbEntity
  8
1
  6
Continuous
 62
     4
100
AcDbLine
 10
-103.489707553469
 20
-13.6784633168473
 30
0.0
 11
-103.489707553469
 21
-18.6784633168473
 31
0.0
  0
LINE
  5
9C
330
1F
100
AcDbEntity
  8
1
  6
Continuous
 62
     4
100
AcDbLine
 10
-104.989707553469
 20
-15.1784633168473
 30
0.0
 11
-103.489707553469
 21
-13.6784633168473
 31
0.0
  0
LINE
  5
9D
330
1F
100
AcDbEntity
  8
1
  6
Continuous
 62
     4
100
AcDbLine
 10
-109.989707553469
 20
-18.6784633168473
 30
0.0
 11
-109.989707553469
 21
-16.1784633168473
 31
0.0
  0
LINE
  5
9E
330
1F
100
AcDbEntity
  8
1
  6
Continuous
 62
     4
100
AcDbLine
 10
-107.989707553469
 20
-16.1784633168473
 30
0.0
 11
-106.489707553469
 21
-18.6784633168473
 31
0.0
  0
LINE
  5
9F
330
1F
100
AcDbEntity
  8
1
  6
Continuous
 62
     4
100
AcDbLine
 10
-107.614707553469
 20
-16.1784633168473
 30
0.0
 11
-107.989707553469
 21
-16.1784633168473
 31
0.0
  0
LINE
  5
A0
330
1F
100
AcDbEntity
  8
1
  6
Continuous
 62
     4
100
AcDbLine
 10
-107.114707553469
 20
-16.0534633168473
 30
0.0
 11
-107.614707553469
 21
-16.1784633168473
 31
0.0
  0
LINE
  5
A1
330
1F
100
AcDbEntity
  8
1
  6
Continuous
 62
     4
100
AcDbLine
 10
-106.739707553469
 20
-15.8034633168473
 30
0.0
 11
-107.114707553469
 21
-16.0534633168473
 31
0.0
  0
LINE
  5
A2
330
1F
100
AcDbEntity
  8
1
  6
Continuous
 62
     4
100
AcDbLine
 10
-106.614707553469
 20
-15.5534633168473
 30
0.0
 11
-106.739707553469
 21
-15.8034633168473
 31
0.0
  0
LINE
  5
A3
330
1F
100
AcDbEntity
  8
1
  6
Continuous
 62
     4
100
AcDbLine
 10
-106.489707553469
 20
-15.1784633168473
 30
0.0
 11
-106.614707553469
 21
-15.5534633168473
 31
0.0
  0
LINE
  5
A4
330
1F
100
AcDbEntity
  8
1
  6
Continuous
 62
     4
100
AcDbLine
 10
-106.489707553469
 20
-14.6784633168473
 30
0.0
 11
-106.489707553469
 21
-15.1784633168473
 31
0.0
  0
LINE
  5
A5
330
1F
100
AcDbEntity
  8
1
  6
Continuous
 62
     4
100
AcDbLine
 10
-106.614707553469
 20
-14.3034633168473
 30
0.0
 11
-106.489707553469
 21
-14.6784633168473
 31
0.0
  0
LINE
  5
A6
330
1F
100
AcDbEntity
  8
1
  6
Continuous
 62
     4
100
AcDbLine
 10
-106.739707553469
 20
-14.0534633168473
 30
0.0
 11
-106.614707553469
 21
-14.3034633168473
 31
0.0
  0
LINE
  5
A7
330
1F
100
AcDbEntity
  8
1
  6
Continuous
 62
     4
100
AcDbLine
 10
-107.114707553469
 20
-13.8034633168473
 30
0.0
 11
-106.739707553469
 21
-14.0534633168473
 31
0.0
  0
LINE
  5
A8
330
1F
100
AcDbEntity
  8
1
  6
Continuous
 62
     4
100
AcDbLine
 10
-107.614707553469
 20
-13.6784633168473
 30
0.0
 11
-107.114707553469
 21
-13.8034633168473
 31
0.0
  0
LINE
  5
A9
330
1F
100
AcDbEntity
  8
1
  6
Continuous
 62
     4
100
AcDbLine
 10
-109.989707553469
 20
-13.6784633168473
 30
0.0
 11
-107.614707553469
 21
-13.6784633168473
 31
0.0
  0
LINE
  5
AA
330
1F
100
AcDbEntity
  8
1
  6
Continuous
 62
     4
100
AcDbLine
 10
-109.989707553469
 20
-16.1784633168473
 30
0.0
 11
-109.989707553469
 21
-13.6784633168473
 31
0.0
  0
LINE
  5
AB
330
1F
100
AcDbEntity
  8
1
  6
Continuous
 62
     4
100
AcDbLine
 10
-107.989707553469
 20
-16.1784633168473
 30
0.0
 11
-109.989707553469
 21
-16.1784633168473
 31
0.0
  0
LINE
  5
AC
330
1F
100
AcDbEntity
  8
1
  6
Continuous
 62
     4
100
AcDbLine
 10
277.560341323291
 20
191.663615618393
 30
0.0
 11
280.560341323291
 21
191.663615618393
 31
0.0
  0
LINE
  5
AD
330
1F
100
AcDbEntity
  8
1
  6
Continuous
 62
     4
100
AcDbLine
 10
280.310341323291
 20
194.913615618393
 30
0.0
 11
277.560341323291
 21
191.663615618393
 31
0.0
  0
LINE
  5
AE
330
1F
100
AcDbEntity
  8
1
  6
Continuous
 62
     4
100
AcDbLine
 10
280.560341323291
 20
195.413615618393
 30
0.0
 11
280.310341323291
 21
194.913615618393
 31
0.0
  0
LINE
  5
AF
330
1F
100
AcDbEntity
  8
1
  6
Continuous
 62
     4
100
AcDbLine
 10
280.560341323291
 20
195.913615618393
 30
0.0
 11
280.560341323291
 21
195.413615618393
 31
0.0
  0
LINE
  5
B0
330
1F
100
AcDbEntity
  8
1
  6
Continuous
 62
     4
100
AcDbLine
 10
280.310341323291
 20
196.288615618393
 30
0.0
 11
280.560341323291
 21
195.913615618393
 31
0.0
  0
LINE
  5
B1
330
1F
100
AcDbEntity
  8
1
  6
Continuous
 62
     4
100
AcDbLine
 10
279.935341323291
 20
196.538615618393
 30
0.0
 11
280.310341323291
 21
196.288615618393
 31
0.0
  0
LINE
  5
B2
330
1F
100
AcDbEntity
  8
1
  6
Continuous
 62
     4
100
AcDbLine
 10
279.435341323291
 20
196.663615618393
 30
0.0
 11
279.935341323291
 21
196.538615618393
 31
0.0
  0
LINE
  5
B3
330
1F
100
AcDbEntity
  8
1
  6
Continuous
 62
     4
100
AcDbLine
 10
278.685341323291
 20
196.663615618393
 30
0.0
 11
279.435341323291
 21
196.663615618393
 31
0.0
  0
LINE
  5
B4
330
1F
100
AcDbEntity
  8
1
  6
Continuous
 62
     4
100
AcDbLine
 10
278.185341323291
 20
196.538615618393
 30
0.0
 11
278.685341323291
 21
196.663615618393
 31
0.0
  0
LINE
  5
B5
330
1F
100
AcDbEntity
  8
1
  6
Continuous
 62
     4
100
AcDbLine
 10
277.810341323291
 20
196.288615618393
 30
0.0
 11
278.185341323291
 21
196.538615618393
 31
0.0
  0
LINE
  5
B6
330
1F
100
AcDbEntity
  8
1
  6
Continuous
 62
     4
100
AcDbLine
 10
277.560341323291
 20
195.913615618393
 30
0.0
 11
277.810341323291
 21
196.288615618393
 31
0.0
  0
LINE
  5
B7
330
1F
100
AcDbEntity
  8
1
  6
Continuous
 62
     4
100
AcDbLine
 10
276.060341323291
 20
194.788615618393
 30
0.0
 11
276.060341323291
 21
193.538615618393
 31
0.0
  0
LINE
  5
B8
330
1F
100
AcDbEntity
  8
1
  6
Continuous
 62
     4
100
AcDbLine
 10
275.935341323291
 20
195.538615618393
 30
0.0
 11
276.060341323291
 21
194.788615618393
 31
0.0
  0
LINE
  5
B9
330
1F
100
AcDbEntity
  8
1
  6
Continuous
 62
     4
100
AcDbLine
 10
275.685341323291
 20
196.038615618393
 30
0.0
 11
275.935341323291
 21
195.538615618393
 31
0.0
  0
LINE
  5
BA
330
1F
100
AcDbEntity
  8
1
  6
Continuous
 62
     4
100
AcDbLine
 10
275.435341323291
 20
196.288615618393
 30
0.0
 11
275.685341323291
 21
196.038615618393
 31
0.0
  0
LINE
  5
BB
330
1F
100
AcDbEntity
  8
1
  6
Continuous
 62
     4
100
AcDbLine
 10
275.060341323291
 20
196.538615618393
 30
0.0
 11
275.435341323291
 21
196.288615618393
 31
0.0
  0
LINE
  5
BC
330
1F
100
AcDbEntity
  8
1
  6
Continuous
 62
     4
100
AcDbLine
 10
274.685341323291
 20
196.663615618393
 30
0.0
 11
275.060341323291
 21
196.538615618393
 31
0.0
  0
LINE
  5
BD
330
1F
100
AcDbEntity
  8
1
  6
Continuous
 62
     4
100
AcDbLine
 10
274.435341323291
 20
196.663615618393
 30
0.0
 11
274.685341323291
 21
196.663615618393
 31
0.0
  0
LINE
  5
BE
330
1F
100
AcDbEntity
  8
1
  6
Continuous
 62
     4
100
AcDbLine
 10
274.060341323291
 20
196.538615618393
 30
0.0
 11
274.435341323291
 21
196.663615618393
 31
0.0
  0
LINE
  5
BF
330
1F
100
AcDbEntity
  8
1
  6
Continuous
 62
     4
100
AcDbLine
 10
273.685341323291
 20
196.288615618393
 30
0.0
 11
274.060341323291
 21
196.538615618393
 31
0.0
  0
LINE
  5
C0
330
1F
100
AcDbEntity
  8
1
  6
Continuous
 62
     4
100
AcDbLine
 10
273.435341323291
 20
196.038615618393
 30
0.0
 11
273.685341323291
 21
196.288615618393
 31
0.0
  0
LINE
  5
C1
330
1F
100
AcDbEntity
  8
1
  6
Continuous
 62
     4
100
AcDbLine
 10
273.185341323291
 20
195.538615618393
 30
0.0
 11
273.435341323291
 21
196.038615618393
 31
0.0
  0
LINE
  5
C2
330
1F
100
AcDbEntity
  8
1
  6
Continuous
 62
     4
100
AcDbLine
 10
273.060341323291
 20
194.788615618393
 30
0.0
 11
273.185341323291
 21
195.538615618393
 31
0.0
  0
LINE
  5
C3
330
1F
100
AcDbEntity
  8
1
  6
Continuous
 62
     4
100
AcDbLine
 10
273.060341323291
 20
193.538615618393
 30
0.0
 11
273.060341323291
 21
194.788615618393
 31
0.0
  0
LINE
  5
C4
330
1F
100
AcDbEntity
  8
1
  6
Continuous
 62
     4
100
AcDbLine
 10
273.185341323291
 20
192.788615618393
 30
0.0
 11
273.060341323291
 21
193.538615618393
 31
0.0
  0
LINE
  5
C5
330
1F
100
AcDbEntity
  8
1
  6
Continuous
 62
     4
100
AcDbLine
 10
273.435341323291
 20
192.288615618393
 30
0.0
 11
273.185341323291
 21
192.788615618393
 31
0.0
  0
LINE
  5
C6
330
1F
100
AcDbEntity
  8
1
  6
Continuous
 62
     4
100
AcDbLine
 10
273.685341323291
 20
192.038615618393
 30
0.0
 11
273.435341323291
 21
192.288615618393
 31
0.0
  0
LINE
  5
C7
330
1F
100
AcDbEntity
  8
1
  6
Continuous
 62
     4
100
AcDbLine
 10
274.060341323291
 20
191.788615618393
 30
0.0
 11
273.685341323291
 21
192.038615618393
 31
0.0
  0
LINE
  5
C8
330
1F
100
AcDbEntity
  8
1
  6
Continuous
 62
     4
100
AcDbLine
 10
274.435341323291
 20
191.663615618393
 30
0.0
 11
274.060341323291
 21
191.788615618393
 31
0.0
  0
LINE
  5
C9
330
1F
100
AcDbEntity
  8
1
  6
Continuous
 62
     4
100
AcDbLine
 10
274.685341323291
 20
191.663615618393
 30
0.0
 11
274.435341323291
 21
191.663615618393
 31
0.0
  0
LINE
  5
CA
330
1F
100
AcDbEntity
  8
1
  6
Continuous
 62
     4
100
AcDbLine
 10
275.060341323291
 20
191.788615618393
 30
0.0
 11
274.685341323291
 21
191.663615618393
 31
0.0
  0
LINE
  5
CB
330
1F
100
AcDbEntity
  8
1
  6
Continuous
 62
     4
100
AcDbLine
 10
275.435341323291
 20
192.038615618393
 30
0.0
 11
275.060341323291
 21
191.788615618393
 31
0.0
  0
LINE
  5
CC
330
1F
100
AcDbEntity
  8
1
  6
Continuous
 62
     4
100
AcDbLine
 10
275.685341323291
 20
192.288615618393
 30
0.0
 11
275.435341323291
 21
192.038615618393
 31
0.0
  0
LINE
  5
CD
330
1F
100
AcDbEntity
  8
1
  6
Continuous
 62
     4
100
AcDbLine
 10
275.935341323291
 20
192.788615618393
 30
0.0
 11
275.685341323291
 21
192.288615618393
 31
0.0
  0
LINE
  5
CE
330
1F
100
AcDbEntity
  8
1
  6
Continuous
 62
     4
100
AcDbLine
 10
276.060341323291
 20
193.538615618393
 30
0.0
 11
275.935341323291
 21
192.788615618393
 31
0.0
  0
LINE
  5
CF
330
1F
100
AcDbEntity
  8
1
  6
Continuous
 62
     4
100
AcDbLine
 10
269.060341323291
 20
196.288615618393
 30
0.0
 11
269.435341323291
 21
196.538615618393
 31
0.0
  0
LINE
  5
D0
330
1F
100
AcDbEntity
  8
1
  6
Continuous
 62
     4
100
AcDbLine
 10
268.810341323291
 20
195.913615618393
 30
0.0
 11
269.060341323291
 21
196.288615618393
 31
0.0
  0
LINE
  5
D1
330
1F
100
AcDbEntity
  8
1
  6
Continuous
 62
     4
100
AcDbLine
 10
268.810341323291
 20
195.413615618393
 30
0.0
 11
268.810341323291
 21
195.913615618393
 31
0.0
  0
LINE
  5
D2
330
1F
100
AcDbEntity
  8
1
  6
Continuous
 62
     4
100
AcDbLine
 10
269.060341323291
 20
195.038615618393
 30
0.0
 11
268.810341323291
 21
195.413615618393
 31
0.0
  0
LINE
  5
D3
330
1F
100
AcDbEntity
  8
1
  6
Continuous
 62
     4
100
AcDbLine
 10
269.435341323291
 20
194.788615618393
 30
0.0
 11
269.060341323291
 21
195.038615618393
 31
0.0
  0
LINE
  5
D4
330
1F
100
AcDbEntity
  8
1
  6
Continuous
 62
     4
100
AcDbLine
 10
269.810341323291
 20
194.663615618393
 30
0.0
 11
269.435341323291
 21
194.788615618393
 31
0.0
  0
LINE
  5
D5
330
1F
100
AcDbEntity
  8
1
  6
Continuous
 62
     4
100
AcDbLine
 10
270.310341323291
 20
194.663615618393
 30
0.0
 11
269.810341323291
 21
194.663615618393
 31
0.0
  0
LINE
  5
D6
330
1F
100
AcDbEntity
  8
1
  6
Continuous
 62
     4
100
AcDbLine
 10
270.685341323291
 20
194.788615618393
 30
0.0
 11
270.310341323291
 21
194.663615618393
 31
0.0
  0
LINE
  5
D7
330
1F
100
AcDbEntity
  8
1
  6
Continuous
 62
     4
100
AcDbLine
 10
271.060341323291
 20
195.038615618393
 30
0.0
 11
270.685341323291
 21
194.788615618393
 31
0.0
  0
LINE
  5
D8
330
1F
100
AcDbEntity
  8
1
  6
Continuous
 62
     4
100
AcDbLine
 10
271.310341323291
 20
195.413615618393
 30
0.0
 11
271.060341323291
 21
195.038615618393
 31
0.0
  0
LINE
  5
D9
330
1F
100
AcDbEntity
  8
1
  6
Continuous
 62
     4
100
AcDbLine
 10
271.310341323291
 20
195.913615618393
 30
0.0
 11
271.310341323291
 21
195.413615618393
 31
0.0
  0
LINE
  5
DA
330
1F
100
AcDbEntity
  8
1
  6
Continuous
 62
     4
100
AcDbLine
 10
271.060341323291
 20
196.288615618393
 30
0.0
 11
271.310341323291
 21
195.913615618393
 31
0.0
  0
LINE
  5
DB
330
1F
100
AcDbEntity
  8
1
  6
Continuous
 62
     4
100
AcDbLine
 10
270.685341323291
 20
196.538615618393
 30
0.0
 11
271.060341323291
 21
196.288615618393
 31
0.0
  0
LINE
  5
DC
330
1F
100
AcDbEntity
  8
1
  6
Continuous
 62
     4
100
AcDbLine
 10
270.310341323291
 20
196.663615618393
 30
0.0
 11
270.685341323291
 21
196.538615618393
 31
0.0
  0
LINE
  5
DD
330
1F
100
AcDbEntity
  8
1
  6
Continuous
 62
     4
100
AcDbLine
 10
269.810341323291
 20
196.663615618393
 30
0.0
 11
270.310341323291
 21
196.663615618393
 31
0.0
  0
LINE
  5
DE
330
1F
100
AcDbEntity
  8
1
  6
Continuous
 62
     4
100
AcDbLine
 10
269.435341323291
 20
196.538615618393
 30
0.0
 11
269.810341323291
 21
196.663615618393
 31
0.0
  0
LINE
  5
DF
330
1F
100
AcDbEntity
  8
1
  6
Continuous
 62
     4
100
AcDbLine
 10
270.935341323291
 20
194.413615618393
 30
0.0
 11
270.310341323291
 21
194.663615618393
 31
0.0
  0
LINE
  5
E0
330
1F
100
AcDbEntity
  8
1
  6
Continuous
 62
     4
100
AcDbLine
 10
271.310341323291
 20
194.038615618393
 30
0.0
 11
270.935341323291
 21
194.413615618393
 31
0.0
  0
LINE
  5
E1
330
1F
100
AcDbEntity
  8
1
  6
Continuous
 62
     4
100
AcDbLine
 10
271.560341323291
 20
193.538615618393
 30
0.0
 11
271.310341323291
 21
194.038615618393
 31
0.0
  0
LINE
  5
E2
330
1F
100
AcDbEntity
  8
1
  6
Continuous
 62
     4
100
AcDbLine
 10
271.560341323291
 20
192.788615618393
 30
0.0
 11
271.560341323291
 21
193.538615618393
 31
0.0
  0
LINE
  5
E3
330
1F
100
AcDbEntity
  8
1
  6
Continuous
 62
     4
100
AcDbLine
 10
271.310341323291
 20
192.288615618393
 30
0.0
 11
271.560341323291
 21
192.788615618393
 31
0.0
  0
LINE
  5
E4
330
1F
100
AcDbEntity
  8
1
  6
Continuous
 62
     4
100
AcDbLine
 10
270.935341323291
 20
191.913615618393
 30
0.0
 11
271.310341323291
 21
192.288615618393
 31
0.0
  0
LINE
  5
E5
330
1F
100
AcDbEntity
  8
1
  6
Continuous
 62
     4
100
AcDbLine
 10
270.435341323291
 20
191.663615618393
 30
0.0
 11
270.935341323291
 21
191.913615618393
 31
0.0
  0
LINE
  5
E6
330
1F
100
AcDbEntity
  8
1
  6
Continuous
 62
     4
100
AcDbLine
 10
269.685341323291
 20
191.663615618393
 30
0.0
 11
270.435341323291
 21
191.663615618393
 31
0.0
  0
LINE
  5
E7
330
1F
100
AcDbEntity
  8
1
  6
Continuous
 62
     4
100
AcDbLine
 10
269.185341323291
 20
191.913615618393
 30
0.0
 11
269.685341323291
 21
191.663615618393
 31
0.0
  0
LINE
  5
E8
330
1F
100
AcDbEntity
  8
1
  6
Continuous
 62
     4
100
AcDbLine
 10
268.810341323291
 20
192.288615618393
 30
0.0
 11
269.185341323291
 21
191.913615618393
 31
0.0
  0
LINE
  5
E9
330
1F
100
AcDbEntity
  8
1
  6
Continuous
 62
     4
100
AcDbLine
 10
268.560341323291
 20
192.788615618393
 30
0.0
 11
268.810341323291
 21
192.288615618393
 31
0.0
  0
LINE
  5
EA
330
1F
100
AcDbEntity
  8
1
  6
Continuous
 62
     4
100
AcDbLine
 10
268.560341323291
 20
193.538615618393
 30
0.0
 11
268.560341323291
 21
192.788615618393
 31
0.0
  0
LINE
  5
EB
330
1F
100
AcDbEntity
  8
1
  6
Continuous
 62
     4
100
AcDbLine
 10
268.810341323291
 20
194.038615618393
 30
0.0
 11
268.560341323291
 21
193.538615618393
 31
0.0
  0
LINE
  5
EC
330
1F
100
AcDbEntity
  8
1
  6
Continuous
 62
     4
100
AcDbLine
 10
269.185341323291
 20
194.413615618393
 30
0.0
 11
268.810341323291
 21
194.038615618393
 31
0.0
  0
LINE
  5
ED
330
1F
100
AcDbEntity
  8
1
  6
Continuous
 62
     4
100
AcDbLine
 10
269.810341323291
 20
194.663615618393
 30
0.0
 11
269.185341323291
 21
194.413615618393
 31
0.0
  0
LINE
  5
EE
330
1F
100
AcDbEntity
  8
1
  6
Continuous
 62
     4
100
AcDbLine
 10
254.560341323291
 20
196.288615618393
 30
0.0
 11
254.935341323291
 21
196.538615618393
 31
0.0
  0
LINE
  5
EF
330
1F
100
AcDbEntity
  8
1
  6
Continuous
 62
     4
100
AcDbLine
 10
254.310341323291
 20
195.913615618393
 30
0.0
 11
254.560341323291
 21
196.288615618393
 31
0.0
  0
LINE
  5
F0
330
1F
100
AcDbEntity
  8
1
  6
Continuous
 62
     4
100
AcDbLine
 10
254.310341323291
 20
195.413615618393
 30
0.0
 11
254.310341323291
 21
195.913615618393
 31
0.0
  0
LINE
  5
F1
330
1F
100
AcDbEntity
  8
1
  6
Continuous
 62
     4
100
AcDbLine
 10
254.560341323291
 20
195.038615618393
 30
0.0
 11
254.310341323291
 21
195.413615618393
 31
0.0
  0
LINE
  5
F2
330
1F
100
AcDbEntity
  8
1
  6
Continuous
 62
     4
100
AcDbLine
 10
254.935341323291
 20
194.788615618393
 30
0.0
 11
254.560341323291
 21
195.038615618393
 31
0.0
  0
LINE
  5
F3
330
1F
100
AcDbEntity
  8
1
  6
Continuous
 62
     4
100
AcDbLine
 10
255.310341323291
 20
194.663615618393
 30
0.0
 11
254.935341323291
 21
194.788615618393
 31
0.0
  0
LINE
  5
F4
330
1F
100
AcDbEntity
  8
1
  6
Continuous
 62
     4
100
AcDbLine
 10
255.810341323291
 20
194.663615618393
 30
0.0
 11
255.310341323291
 21
194.663615618393
 31
0.0
  0
LINE
  5
F5
330
1F
100
AcDbEntity
  8
1
  6
Continuous
 62
     4
100
AcDbLine
 10
256.185341323291
 20
194.788615618393
 30
0.0
 11
255.810341323291
 21
194.663615618393
 31
0.0
  0
LINE
  5
F6
330
1F
100
AcDbEntity
  8
1
  6
Continuous
 62
     4
100
AcDbLine
 10
256.560341323291
 20
195.038615618393
 30
0.0
 11
256.185341323291
 21
194.788615618393
 31
0.0
  0
LINE
  5
F7
330
1F
100
AcDbEntity
  8
1
  6
Continuous
 62
     4
100
AcDbLine
 10
256.810341323291
 20
195.413615618393
 30
0.0
 11
256.560341323291
 21
195.038615618393
 31
0.0
  0
LINE
  5
F8
330
1F
100
AcDbEntity
  8
1
  6
Continuous
 62
     4
100
AcDbLine
 10
256.810341323291
 20
195.913615618393
 30
0.0
 11
256.810341323291
 21
195.413615618393
 31
0.0
  0
LINE
  5
F9
330
1F
100
AcDbEntity
  8
1
  6
Continuous
 62
     4
100
AcDbLine
 10
256.560341323291
 20
196.288615618393
 30
0.0
 11
256.810341323291
 21
195.913615618393
 31
0.0
  0
LINE
  5
FA
330
1F
100
AcDbEntity
  8
1
  6
Continuous
 62
     4
100
AcDbLine
 10
256.185341323291
 20
196.538615618393
 30
0.0
 11
256.560341323291
 21
196.288615618393
 31
0.0
  0
LINE
  5
FB
330
1F
100
AcDbEntity
  8
1
  6
Continuous
 62
     4
100
AcDbLine
 10
255.810341323291
 20
196.663615618393
 30
0.0
 11
256.185341323291
 21
196.538615618393
 31
0.0
  0
LINE
  5
FC
330
1F
100
AcDbEntity
  8
1
  6
Continuous
 62
     4
100
AcDbLine
 10
255.310341323291
 20
196.663615618393
 30
0.0
 11
255.810341323291
 21
196.663615618393
 31
0.0
  0
LINE
  5
FD
330
1F
100
AcDbEntity
  8
1
  6
Continuous
 62
     4
100
AcDbLine
 10
254.935341323291
 20
196.538615618393
 30
0.0
 11
255.310341323291
 21
196.663615618393
 31
0.0
  0
LINE
  5
FE
330
1F
100
AcDbEntity
  8
1
  6
Continuous
 62
     4
100
AcDbLine
 10
256.435341323291
 20
194.413615618393
 30
0.0
 11
255.810341323291
 21
194.663615618393
 31
0.0
  0
LINE
  5
FF
330
1F
100
AcDbEntity
  8
1
  6
Continuous
 62
     4
100
AcDbLine
 10
256.810341323291
 20
194.038615618393
 30
0.0
 11
256.435341323291
 21
194.413615618393
 31
0.0
  0
LINE
  5
100
330
1F
100
AcDbEntity
  8
1
  6
Continuous
 62
     4
100
AcDbLine
 10
257.060341323291
 20
193.538615618393
 30
0.0
 11
256.810341323291
 21
194.038615618393
 31
0.0
  0
LINE
  5
101
330
1F
100
AcDbEntity
  8
1
  6
Continuous
 62
     4
100
AcDbLine
 10
257.060341323291
 20
192.788615618393
 30
0.0
 11
257.060341323291
 21
193.538615618393
 31
0.0
  0
LINE
  5
102
330
1F
100
AcDbEntity
  8
1
  6
Continuous
 62
     4
100
AcDbLine
 10
256.810341323291
 20
192.288615618393
 30
0.0
 11
257.060341323291
 21
192.788615618393
 31
0.0
  0
LINE
  5
103
330
1F
100
AcDbEntity
  8
1
  6
Continuous
 62
     4
100
AcDbLine
 10
256.435341323291
 20
191.913615618393
 30
0.0
 11
256.810341323291
 21
192.288615618393
 31
0.0
  0
LINE
  5
104
330
1F
100
AcDbEntity
  8
1
  6
Continuous
 62
     4
100
AcDbLine
 10
255.935341323291
 20
191.663615618393
 30
0.0
 11
256.435341323291
 21
191.913615618393
 31
0.0
  0
LINE
  5
105
330
1F
100
AcDbEntity
  8
1
  6
Continuous
 62
     4
100
AcDbLine
 10
255.185341323291
 20
191.663615618393
 30
0.0
 11
255.935341323291
 21
191.663615618393
 31
0.0
  0
LINE
  5
106
330
1F
100
AcDbEntity
  8
1
  6
Continuous
 62
     4
100
AcDbLine
 10
254.685341323291
 20
191.913615618393
 30
0.0
 11
255.185341323291
 21
191.663615618393
 31
0.0
  0
LINE
  5
107
330
1F
100
AcDbEntity
  8
1
  6
Continuous
 62
     4
100
AcDbLine
 10
254.310341323291
 20
192.288615618393
 30
0.0
 11
254.685341323291
 21
191.913615618393
 31
0.0
  0
LINE
  5
108
330
1F
100
AcDbEntity
  8
1
  6
Continuous
 62
     4
100
AcDbLine
 10
254.060341323291
 20
192.788615618393
 30
0.0
 11
254.310341323291
 21
192.288615618393
 31
0.0
  0
LINE
  5
109
330
1F
100
AcDbEntity
  8
1
  6
Continuous
 62
     4
100
AcDbLine
 10
254.060341323291
 20
193.538615618393
 30
0.0
 11
254.060341323291
 21
192.788615618393
 31
0.0
  0
LINE
  5
10A
330
1F
100
AcDbEntity
  8
1
  6
Continuous
 62
     4
100
AcDbLine
 10
254.310341323291
 20
194.038615618393
 30
0.0
 11
254.060341323291
 21
193.538615618393
 31
0.0
  0
LINE
  5
10B
330
1F
100
AcDbEntity
  8
1
  6
Continuous
 62
     4
100
AcDbLine
 10
254.685341323291
 20
194.413615618393
 30
0.0
 11
254.310341323291
 21
194.038615618393
 31
0.0
  0
LINE
  5
10C
330
1F
100
AcDbEntity
  8
1
  6
Continuous
 62
     4
100
AcDbLine
 10
255.310341323291
 20
194.663615618393
 30
0.0
 11
254.685341323291
 21
194.413615618393
 31
0.0
  0
LINE
  5
10D
330
1F
100
AcDbEntity
  8
1
  6
Continuous
 62
     4
100
AcDbLine
 10
252.685341323291
 20
191.913615618393
 30
0.0
 11
252.685341323291
 21
191.788615618393
 31
0.0
  0
LINE
  5
10E
330
1F
100
AcDbEntity
  8
1
  6
Continuous
 62
     4
100
AcDbLine
 10
252.560341323291
 20
191.913615618393
 30
0.0
 11
252.685341323291
 21
191.913615618393
 31
0.0
  0
LINE
  5
10F
330
1F
100
AcDbEntity
  8
1
  6
Continuous
 62
     4
100
AcDbLine
 10
252.560341323291
 20
191.788615618393
 30
0.0
 11
252.560341323291
 21
191.913615618393
 31
0.0
  0
LINE
  5
110
330
1F
100
AcDbEntity
  8
1
  6
Continuous
 62
     4
100
AcDbLine
 10
252.685341323291
 20
191.788615618393
 30
0.0
 11
252.560341323291
 21
191.788615618393
 31
0.0
  0
LINE
  5
111
330
1F
100
AcDbEntity
  8
1
  6
Continuous
 62
     4
100
AcDbLine
 10
252.810341323291
 20
192.038615618393
 30
0.0
 11
252.810341323291
 21
191.663615618393
 31
0.0
  0
LINE
  5
112
330
1F
100
AcDbEntity
  8
1
  6
Continuous
 62
     4
100
AcDbLine
 10
252.435341323291
 20
192.038615618393
 30
0.0
 11
252.810341323291
 21
192.038615618393
 31
0.0
  0
LINE
  5
113
330
1F
100
AcDbEntity
  8
1
  6
Continuous
 62
     4
100
AcDbLine
 10
252.435341323291
 20
191.663615618393
 30
0.0
 11
252.435341323291
 21
192.038615618393
 31
0.0
  0
LINE
  5
114
330
1F
100
AcDbEntity
  8
1
  6
Continuous
 62
     4
100
AcDbLine
 10
252.810341323291
 20
191.663615618393
 30
0.0
 11
252.435341323291
 21
191.663615618393
 31
0.0
  0
LINE
  5
115
330
1F
100
AcDbEntity
  8
1
  6
Continuous
 62
     4
100
AcDbLine
 10
250.935341323291
 20
194.788615618393
 30
0.0
 11
250.935341323291
 21
193.538615618393
 31
0.0
  0
LINE
  5
116
330
1F
100
AcDbEntity
  8
1
  6
Continuous
 62
     4
100
AcDbLine
 10
250.810341323291
 20
195.538615618393
 30
0.0
 11
250.935341323291
 21
194.788615618393
 31
0.0
  0
LINE
  5
117
330
1F
100
AcDbEntity
  8
1
  6
Continuous
 62
     4
100
AcDbLine
 10
250.560341323291
 20
196.038615618393
 30
0.0
 11
250.810341323291
 21
195.538615618393
 31
0.0
  0
LINE
  5
118
330
1F
100
AcDbEntity
  8
1
  6
Continuous
 62
     4
100
AcDbLine
 10
250.310341323291
 20
196.288615618393
 30
0.0
 11
250.560341323291
 21
196.038615618393
 31
0.0
  0
LINE
  5
119
330
1F
100
AcDbEntity
  8
1
  6
Continuous
 62
     4
100
AcDbLine
 10
249.935341323291
 20
196.538615618393
 30
0.0
 11
250.310341323291
 21
196.288615618393
 31
0.0
  0
LINE
  5
11A
330
1F
100
AcDbEntity
  8
1
  6
Continuous
 62
     4
100
AcDbLine
 10
249.560341323291
 20
196.663615618393
 30
0.0
 11
249.935341323291
 21
196.538615618393
 31
0.0
  0
LINE
  5
11B
330
1F
100
AcDbEntity
  8
1
  6
Continuous
 62
     4
100
AcDbLine
 10
249.310341323291
 20
196.663615618393
 30
0.0
 11
249.560341323291
 21
196.663615618393
 31
0.0
  0
LINE
  5
11C
330
1F
100
AcDbEntity
  8
1
  6
Continuous
 62
     4
100
AcDbLine
 10
248.935341323291
 20
196.538615618393
 30
0.0
 11
249.310341323291
 21
196.663615618393
 31
0.0
  0
LINE
  5
11D
330
1F
100
AcDbEntity
  8
1
  6
Continuous
 62
     4
100
AcDbLine
 10
248.560341323291
 20
196.288615618393
 30
0.0
 11
248.935341323291
 21
196.538615618393
 31
0.0
  0
LINE
  5
11E
330
1F
100
AcDbEntity
  8
1
  6
Continuous
 62
     4
100
AcDbLine
 10
248.310341323291
 20
196.038615618393
 30
0.0
 11
248.560341323291
 21
196.288615618393
 31
0.0
  0
LINE
  5
11F
330
1F
100
AcDbEntity
  8
1
  6
Continuous
 62
     4
100
AcDbLine
 10
248.060341323291
 20
195.538615618393
 30
0.0
 11
248.310341323291
 21
196.038615618393
 31
0.0
  0
LINE
  5
120
330
1F
100
AcDbEntity
  8
1
  6
Continuous
 62
     4
100
AcDbLine
 10
247.935341323291
 20
194.788615618393
 30
0.0
 11
248.060341323291
 21
195.538615618393
 31
0.0
  0
LINE
  5
121
330
1F
100
AcDbEntity
  8
1
  6
Continuous
 62
     4
100
AcDbLine
 10
247.935341323291
 20
193.538615618393
 30
0.0
 11
247.935341323291
 21
194.788615618393
 31
0.0
  0
LINE
  5
122
330
1F
100
AcDbEntity
  8
1
  6
Continuous
 62
     4
100
AcDbLine
 10
248.060341323291
 20
192.788615618393
 30
0.0
 11
247.935341323291
 21
193.538615618393
 31
0.0
  0
LINE
  5
123
330
1F
100
AcDbEntity
  8
1
  6
Continuous
 62
     4
100
AcDbLine
 10
248.310341323291
 20
192.288615618393
 30
0.0
 11
248.060341323291
 21
192.788615618393
 31
0.0
  0
LINE
  5
124
330
1F
100
AcDbEntity
  8
1
  6
Continuous
 62
     4
100
AcDbLine
 10
248.560341323291
 20
192.038615618393
 30
0.0
 11
248.310341323291
 21
192.288615618393
 31
0.0
  0
LINE
  5
125
330
1F
100
AcDbEntity
  8
1
  6
Continuous
 62
     4
100
AcDbLine
 10
248.935341323291
 20
191.788615618393
 30
0.0
 11
248.560341323291
 21
192.038615618393
 31
0.0
  0
LINE
  5
126
330
1F
100
AcDbEntity
  8
1
  6
Continuous
 62
     4
100
AcDbLine
 10
249.310341323291
 20
191.663615618393
 30
0.0
 11
248.935341323291
 21
191.788615618393
 31
0.0
  0
LINE
  5
127
330
1F
100
AcDbEntity
  8
1
  6
Continuous
 62
     4
100
AcDbLine
 10
249.560341323291
 20
191.663615618393
 30
0.0
 11
249.310341323291
 21
191.663615618393
 31
0.0
  0
LINE
  5
128
330
1F
100
AcDbEntity
  8
1
  6
Continuous
 62
     4
100
AcDbLine
 10
249.935341323291
 20
191.788615618393
 30
0.0
 11
249.560341323291
 21
191.663615618393
 31
0.0
  0
LINE
  5
129
330
1F
100
AcDbEntity
  8
1
  6
Continuous
 62
     4
100
AcDbLine
 10
250.310341323291
 20
192.038615618393
 30
0.0
 11
249.935341323291
 21
191.788615618393
 31
0.0
  0
LINE
  5
12A
330
1F
100
AcDbEntity
  8
1
  6
Continuous
 62
     4
100
AcDbLine
 10
250.560341323291
 20
192.288615618393
 30
0.0
 11
250.310341323291
 21
192.038615618393
 31
0.0
  0
LINE
  5
12B
330
1F
100
AcDbEntity
  8
1
  6
Continuous
 62
     4
100
AcDbLine
 10
250.810341323291
 20
192.788615618393
 30
0.0
 11
250.560341323291
 21
192.288615618393
 31
0.0
  0
LINE
  5
12C
330
1F
100
AcDbEntity
  8
1
  6
Continuous
 62
     4
100
AcDbLine
 10
250.935341323291
 20
193.538615618393
 30
0.0
 11
250.810341323291
 21
192.788615618393
 31
0.0
  0
LINE
  5
12D
330
1F
100
AcDbEntity
  8
1
  6
Continuous
 62
     4
100
AcDbLine
 10
277.560341323291
 20
199.993615618393
 30
0.0
 11
280.560341323291
 21
199.993615618393
 31
0.0
  0
LINE
  5
12E
330
1F
100
AcDbEntity
  8
1
  6
Continuous
 62
     4
100
AcDbLine
 10
280.310341323291
 20
203.243615618393
 30
0.0
 11
277.560341323291
 21
199.993615618393
 31
0.0
  0
LINE
  5
12F
330
1F
100
AcDbEntity
  8
1
  6
Continuous
 62
     4
100
AcDbLine
 10
280.560341323291
 20
203.743615618393
 30
0.0
 11
280.310341323291
 21
203.243615618393
 31
0.0
  0
LINE
  5
130
330
1F
100
AcDbEntity
  8
1
  6
Continuous
 62
     4
100
AcDbLine
 10
280.560341323291
 20
204.243615618393
 30
0.0
 11
280.560341323291
 21
203.743615618393
 31
0.0
  0
LINE
  5
131
330
1F
100
AcDbEntity
  8
1
  6
Continuous
 62
     4
100
AcDbLine
 10
280.310341323291
 20
204.618615618393
 30
0.0
 11
280.560341323291
 21
204.243615618393
 31
0.0
  0
LINE
  5
132
330
1F
100
AcDbEntity
  8
1
  6
Continuous
 62
     4
100
AcDbLine
 10
279.935341323291
 20
204.868615618393
 30
0.0
 11
280.310341323291
 21
204.618615618393
 31
0.0
  0
LINE
  5
133
330
1F
100
AcDbEntity
  8
1
  6
Continuous
 62
     4
100
AcDbLine
 10
279.435341323291
 20
204.993615618393
 30
0.0
 11
279.935341323291
 21
204.868615618393
 31
0.0
  0
LINE
  5
134
330
1F
100
AcDbEntity
  8
1
  6
Continuous
 62
     4
100
AcDbLine
 10
278.685341323291
 20
204.993615618393
 30
0.0
 11
279.435341323291
 21
204.993615618393
 31
0.0
  0
LINE
  5
135
330
1F
100
AcDbEntity
  8
1
  6
Continuous
 62
     4
100
AcDbLine
 10
278.185341323291
 20
204.868615618393
 30
0.0
 11
278.685341323291
 21
204.993615618393
 31
0.0
  0
LINE
  5
136
330
1F
100
AcDbEntity
  8
1
  6
Continuous
 62
     4
100
AcDbLine
 10
277.810341323291
 20
204.618615618393
 30
0.0
 11
278.185341323291
 21
204.868615618393
 31
0.0
  0
LINE
  5
137
330
1F
100
AcDbEntity
  8
1
  6
Continuous
 62
     4
100
AcDbLine
 10
277.560341323291
 20
204.243615618393
 30
0.0
 11
277.810341323291
 21
204.618615618393
 31
0.0
  0
LINE
  5
138
330
1F
100
AcDbEntity
  8
1
  6
Continuous
 62
     4
100
AcDbLine
 10
276.060341323291
 20
203.118615618393
 30
0.0
 11
276.060341323291
 21
201.868615618393
 31
0.0
  0
LINE
  5
139
330
1F
100
AcDbEntity
  8
1
  6
Continuous
 62
     4
100
AcDbLine
 10
275.935341323291
 20
203.868615618393
 30
0.0
 11
276.060341323291
 21
203.118615618393
 31
0.0
  0
LINE
  5
13A
330
1F
100
AcDbEntity
  8
1
  6
Continuous
 62
     4
100
AcDbLine
 10
275.685341323291
 20
204.368615618393
 30
0.0
 11
275.935341323291
 21
203.868615618393
 31
0.0
  0
LINE
  5
13B
330
1F
100
AcDbEntity
  8
1
  6
Continuous
 62
     4
100
AcDbLine
 10
275.435341323291
 20
204.618615618393
 30
0.0
 11
275.685341323291
 21
204.368615618393
 31
0.0
  0
LINE
  5
13C
330
1F
100
AcDbEntity
  8
1
  6
Continuous
 62
     4
100
AcDbLine
 10
275.060341323291
 20
204.868615618393
 30
0.0
 11
275.435341323291
 21
204.618615618393
 31
0.0
  0
LINE
  5
13D
330
1F
100
AcDbEntity
  8
1
  6
Continuous
 62
     4
100
AcDbLine
 10
274.685341323291
 20
204.993615618393
 30
0.0
 11
275.060341323291
 21
204.868615618393
 31
0.0
  0
LINE
  5
13E
330
1F
100
AcDbEntity
  8
1
  6
Continuous
 62
     4
100
AcDbLine
 10
274.435341323291
 20
204.993615618393
 30
0.0
 11
274.685341323291
 21
204.993615618393
 31
0.0
  0
LINE
  5
13F
330
1F
100
AcDbEntity
  8
1
  6
Continuous
 62
     4
100
AcDbLine
 10
274.060341323291
 20
204.868615618393
 30
0.0
 11
274.435341323291
 21
204.993615618393
 31
0.0
  0
LINE
  5
140
330
1F
100
AcDbEntity
  8
1
  6
Continuous
 62
     4
100
AcDbLine
 10
273.685341323291
 20
204.618615618393
 30
0.0
 11
274.060341323291
 21
204.868615618393
 31
0.0
  0
LINE
  5
141
330
1F
100
AcDbEntity
  8
1
  6
Continuous
 62
     4
100
AcDbLine
 10
273.435341323291
 20
204.368615618393
 30
0.0
 11
273.685341323291
 21
204.618615618393
 31
0.0
  0
LINE
  5
142
330
1F
100
AcDbEntity
  8
1
  6
Continuous
 62
     4
100
AcDbLine
 10
273.185341323291
 20
203.868615618393
 30
0.0
 11
273.435341323291
 21
204.368615618393
 31
0.0
  0
LINE
  5
143
330
1F
100
AcDbEntity
  8
1
  6
Continuous
 62
     4
100
AcDbLine
 10
273.060341323291
 20
203.118615618393
 30
0.0
 11
273.185341323291
 21
203.868615618393
 31
0.0
  0
LINE
  5
144
330
1F
100
AcDbEntity
  8
1
  6
Continuous
 62
     4
100
AcDbLine
 10
273.060341323291
 20
201.868615618393
 30
0.0
 11
273.060341323291
 21
203.118615618393
 31
0.0
  0
LINE
  5
145
330
1F
100
AcDbEntity
  8
1
  6
Continuous
 62
     4
100
AcDbLine
 10
273.185341323291
 20
201.118615618393
 30
0.0
 11
273.060341323291
 21
201.868615618393
 31
0.0
  0
LINE
  5
146
330
1F
100
AcDbEntity
  8
1
  6
Continuous
 62
     4
100
AcDbLine
 10
273.435341323291
 20
200.618615618393
 30
0.0
 11
273.185341323291
 21
201.118615618393
 31
0.0
  0
LINE
  5
147
330
1F
100
AcDbEntity
  8
1
  6
Continuous
 62
     4
100
AcDbLine
 10
273.685341323291
 20
200.368615618393
 30
0.0
 11
273.435341323291
 21
200.618615618393
 31
0.0
  0
LINE
  5
148
330
1F
100
AcDbEntity
  8
1
  6
Continuous
 62
     4
100
AcDbLine
 10
274.060341323291
 20
200.118615618393
 30
0.0
 11
273.685341323291
 21
200.368615618393
 31
0.0
  0
LINE
  5
149
330
1F
100
AcDbEntity
  8
1
  6
Continuous
 62
     4
100
AcDbLine
 10
274.435341323291
 20
199.993615618393
 30
0.0
 11
274.060341323291
 21
200.118615618393
 31
0.0
  0
LINE
  5
14A
330
1F
100
AcDbEntity
  8
1
  6
Continuous
 62
     4
100
AcDbLine
 10
274.685341323291
 20
199.993615618393
 30
0.0
 11
274.435341323291
 21
199.993615618393
 31
0.0
  0
LINE
  5
14B
330
1F
100
AcDbEntity
  8
1
  6
Continuous
 62
     4
100
AcDbLine
 10
275.060341323291
 20
200.118615618393
 30
0.0
 11
274.685341323291
 21
199.993615618393
 31
0.0
  0
LINE
  5
14C
330
1F
100
AcDbEntity
  8
1
  6
Continuous
 62
     4
100
AcDbLine
 10
275.435341323291
 20
200.368615618393
 30
0.0
 11
275.060341323291
 21
200.118615618393
 31
0.0
  0
LINE
  5
14D
330
1F
100
AcDbEntity
  8
1
  6
Continuous
 62
     4
100
AcDbLine
 10
275.685341323291
 20
200.618615618393
 30
0.0
 11
275.435341323291
 21
200.368615618393
 31
0.0
  0
LINE
  5
14E
330
1F
100
AcDbEntity
  8
1
  6
Continuous
 62
     4
100
AcDbLine
 10
275.935341323291
 20
201.118615618393
 30
0.0
 11
275.685341323291
 21
200.618615618393
 31
0.0
  0
LINE
  5
14F
330
1F
100
AcDbEntity
  8
1
  6
Continuous
 62
     4
100
AcDbLine
 10
276.060341323291
 20
201.868615618393
 30
0.0
 11
275.935341323291
 21
201.118615618393
 31
0.0
  0
LINE
  5
150
330
1F
100
AcDbEntity
  8
1
  6
Continuous
 62
     4
100
AcDbLine
 10
269.435341323291
 20
203.868615618393
 30
0.0
 11
270.810341323291
 21
204.993615618393
 31
0.0
  0
LINE
  5
151
330
1F
100
AcDbEntity
  8
1
  6
Continuous
 62
     4
100
AcDbLine
 10
268.935341323291
 20
203.243615618393
 30
0.0
 11
269.435341323291
 21
203.868615618393
 31
0.0
  0
LINE
  5
152
330
1F
100
AcDbEntity
  8
1
  6
Continuous
 62
     4
100
AcDbLine
 10
268.685341323291
 20
202.743615618393
 30
0.0
 11
268.935341323291
 21
203.243615618393
 31
0.0
  0
LINE
  5
153
330
1F
100
AcDbEntity
  8
1
  6
Continuous
 62
     4
100
AcDbLine
 10
268.560341323291
 20
201.743615618393
 30
0.0
 11
268.685341323291
 21
202.743615618393
 31
0.0
  0
LINE
  5
154
330
1F
100
AcDbEntity
  8
1
  6
Continuous
 62
     4
100
AcDbLine
 10
268.560341323291
 20
201.243615618393
 30
0.0
 11
268.560341323291
 21
201.743615618393
 31
0.0
  0
LINE
  5
155
330
1F
100
AcDbEntity
  8
1
  6
Continuous
 62
     4
100
AcDbLine
 10
268.685341323291
 20
200.743615618393
 30
0.0
 11
268.560341323291
 21
201.243615618393
 31
0.0
  0
LINE
  5
156
330
1F
100
AcDbEntity
  8
1
  6
Continuous
 62
     4
100
AcDbLine
 10
268.935341323291
 20
200.368615618393
 30
0.0
 11
268.685341323291
 21
200.743615618393
 31
0.0
  0
LINE
  5
157
330
1F
100
AcDbEntity
  8
1
  6
Continuous
 62
     4
100
AcDbLine
 10
269.310341323291
 20
200.118615618393
 30
0.0
 11
268.935341323291
 21
200.368615618393
 31
0.0
  0
LINE
  5
158
330
1F
100
AcDbEntity
  8
1
  6
Continuous
 62
     4
100
AcDbLine
 10
269.685341323291
 20
199.993615618393
 30
0.0
 11
269.310341323291
 21
200.118615618393
 31
0.0
  0
LINE
  5
159
330
1F
100
AcDbEntity
  8
1
  6
Continuous
 62
     4
100
AcDbLine
 10
270.435341323291
 20
199.993615618393
 30
0.0
 11
269.685341323291
 21
199.993615618393
 31
0.0
  0
LINE
  5
15A
330
1F
100
AcDbEntity
  8
1
  6
Continuous
 62
     4
100
AcDbLine
 10
270.810341323291
 20
200.118615618393
 30
0.0
 11
270.435341323291
 21
199.993615618393
 31
0.0
  0
LINE
  5
15B
330
1F
100
AcDbEntity
  8
1
  6
Continuous
 62
     4
100
AcDbLine
 10
271.185341323291
 20
200.368615618393
 30
0.0
 11
270.810341323291
 21
200.118615618393
 31
0.0
  0
LINE
  5
15C
330
1F
100
AcDbEntity
  8
1
  6
Continuous
 62
     4
100
AcDbLine
 10
271.435341323291
 20
200.743615618393
 30
0.0
 11
271.185341323291
 21
200.368615618393
 31
0.0
  0
LINE
  5
15D
330
1F
100
AcDbEntity
  8
1
  6
Continuous
 62
     4
100
AcDbLine
 10
271.560341323291
 20
201.243615618393
 30
0.0
 11
271.435341323291
 21
200.743615618393
 31
0.0
  0
LINE
  5
15E
330
1F
100
AcDbEntity
  8
1
  6
Continuous
 62
     4
100
AcDbLine
 10
271.560341323291
 20
201.743615618393
 30
0.0
 11
271.560341323291
 21
201.243615618393
 31
0.0
  0
LINE
  5
15F
330
1F
100
AcDbEntity
  8
1
  6
Continuous
 62
     4
100
AcDbLine
 10
271.435341323291
 20
202.243615618393
 30
0.0
 11
271.560341323291
 21
201.743615618393
 31
0.0
  0
LINE
  5
160
330
1F
100
AcDbEntity
  8
1
  6
Continuous
 62
     4
100
AcDbLine
 10
271.185341323291
 20
202.618615618393
 30
0.0
 11
271.435341323291
 21
202.243615618393
 31
0.0
  0
LINE
  5
161
330
1F
100
AcDbEntity
  8
1
  6
Continuous
 62
     4
100
AcDbLine
 10
270.810341323291
 20
202.868615618393
 30
0.0
 11
271.185341323291
 21
202.618615618393
 31
0.0
  0
LINE
  5
162
330
1F
100
AcDbEntity
  8
1
  6
Continuous
 62
     4
100
AcDbLine
 10
270.435341323291
 20
202.993615618393
 30
0.0
 11
270.810341323291
 21
202.868615618393
 31
0.0
  0
LINE
  5
163
330
1F
100
AcDbEntity
  8
1
  6
Continuous
 62
     4
100
AcDbLine
 10
269.685341323291
 20
202.993615618393
 30
0.0
 11
270.435341323291
 21
202.993615618393
 31
0.0
  0
LINE
  5
164
330
1F
100
AcDbEntity
  8
1
  6
Continuous
 62
     4
100
AcDbLine
 10
269.310341323291
 20
202.868615618393
 30
0.0
 11
269.685341323291
 21
202.993615618393
 31
0.0
  0
LINE
  5
165
330
1F
100
AcDbEntity
  8
1
  6
Continuous
 62
     4
100
AcDbLine
 10
268.935341323291
 20
202.618615618393
 30
0.0
 11
269.310341323291
 21
202.868615618393
 31
0.0
  0
LINE
  5
166
330
1F
100
AcDbEntity
  8
1
  6
Continuous
 62
     4
100
AcDbLine
 10
268.685341323291
 20
202.243615618393
 30
0.0
 11
268.935341323291
 21
202.618615618393
 31
0.0
  0
LINE
  5
167
330
1F
100
AcDbEntity
  8
1
  6
Continuous
 62
     4
100
AcDbLine
 10
268.560341323291
 20
201.743615618393
 30
0.0
 11
268.685341323291
 21
202.243615618393
 31
0.0
  0
LINE
  5
168
330
1F
100
AcDbEntity
  8
1
  6
Continuous
 62
     4
100
AcDbLine
 10
254.935341323291
 20
203.868615618393
 30
0.0
 11
256.310341323291
 21
204.993615618393
 31
0.0
  0
LINE
  5
169
330
1F
100
AcDbEntity
  8
1
  6
Continuous
 62
     4
100
AcDbLine
 10
254.435341323291
 20
203.243615618393
 30
0.0
 11
254.935341323291
 21
203.868615618393
 31
0.0
  0
LINE
  5
16A
330
1F
100
AcDbEntity
  8
1
  6
Continuous
 62
     4
100
AcDbLine
 10
254.185341323291
 20
202.743615618393
 30
0.0
 11
254.435341323291
 21
203.243615618393
 31
0.0
  0
LINE
  5
16B
330
1F
100
AcDbEntity
  8
1
  6
Continuous
 62
     4
100
AcDbLine
 10
254.060341323291
 20
201.743615618393
 30
0.0
 11
254.185341323291
 21
202.743615618393
 31
0.0
  0
LINE
  5
16C
330
1F
100
AcDbEntity
  8
1
  6
Continuous
 62
     4
100
AcDbLine
 10
254.060341323291
 20
201.243615618393
 30
0.0
 11
254.060341323291
 21
201.743615618393
 31
0.0
  0
LINE
  5
16D
330
1F
100
AcDbEntity
  8
1
  6
Continuous
 62
     4
100
AcDbLine
 10
254.185341323291
 20
200.743615618393
 30
0.0
 11
254.060341323291
 21
201.243615618393
 31
0.0
  0
LINE
  5
16E
330
1F
100
AcDbEntity
  8
1
  6
Continuous
 62
     4
100
AcDbLine
 10
254.435341323291
 20
200.368615618393
 30
0.0
 11
254.185341323291
 21
200.743615618393
 31
0.0
  0
LINE
  5
16F
330
1F
100
AcDbEntity
  8
1
  6
Continuous
 62
     4
100
AcDbLine
 10
254.810341323291
 20
200.118615618393
 30
0.0
 11
254.435341323291
 21
200.368615618393
 31
0.0
  0
LINE
  5
170
330
1F
100
AcDbEntity
  8
1
  6
Continuous
 62
     4
100
AcDbLine
 10
255.185341323291
 20
199.993615618393
 30
0.0
 11
254.810341323291
 21
200.118615618393
 31
0.0
  0
LINE
  5
171
330
1F
100
AcDbEntity
  8
1
  6
Continuous
 62
     4
100
AcDbLine
 10
255.935341323291
 20
199.993615618393
 30
0.0
 11
255.185341323291
 21
199.993615618393
 31
0.0
  0
LINE
  5
172
330
1F
100
AcDbEntity
  8
1
  6
Continuous
 62
     4
100
AcDbLine
 10
256.310341323291
 20
200.118615618393
 30
0.0
 11
255.935341323291
 21
199.993615618393
 31
0.0
  0
LINE
  5
173
330
1F
100
AcDbEntity
  8
1
  6
Continuous
 62
     4
100
AcDbLine
 10
256.685341323291
 20
200.368615618393
 30
0.0
 11
256.310341323291
 21
200.118615618393
 31
0.0
  0
LINE
  5
174
330
1F
100
AcDbEntity
  8
1
  6
Continuous
 62
     4
100
AcDbLine
 10
256.935341323291
 20
200.743615618393
 30
0.0
 11
256.685341323291
 21
200.368615618393
 31
0.0
  0
LINE
  5
175
330
1F
100
AcDbEntity
  8
1
  6
Continuous
 62
     4
100
AcDbLine
 10
257.060341323291
 20
201.243615618393
 30
0.0
 11
256.935341323291
 21
200.743615618393
 31
0.0
  0
LINE
  5
176
330
1F
100
AcDbEntity
  8
1
  6
Continuous
 62
     4
100
AcDbLine
 10
257.060341323291
 20
201.743615618393
 30
0.0
 11
257.060341323291
 21
201.243615618393
 31
0.0
  0
LINE
  5
177
330
1F
100
AcDbEntity
  8
1
  6
Continuous
 62
     4
100
AcDbLine
 10
256.935341323291
 20
202.243615618393
 30
0.0
 11
257.060341323291
 21
201.743615618393
 31
0.0
  0
LINE
  5
178
330
1F
100
AcDbEntity
  8
1
  6
Continuous
 62
     4
100
AcDbLine
 10
256.685341323291
 20
202.618615618393
 30
0.0
 11
256.935341323291
 21
202.243615618393
 31
0.0
  0
LINE
  5
179
330
1F
100
AcDbEntity
  8
1
  6
Continuous
 62
     4
100
AcDbLine
 10
256.310341323291
 20
202.868615618393
 30
0.0
 11
256.685341323291
 21
202.618615618393
 31
0.0
  0
LINE
  5
17A
330
1F
100
AcDbEntity
  8
1
  6
Continuous
 62
     4
100
AcDbLine
 10
255.935341323291
 20
202.993615618393
 30
0.0
 11
256.310341323291
 21
202.868615618393
 31
0.0
  0
LINE
  5
17B
330
1F
100
AcDbEntity
  8
1
  6
Continuous
 62
     4
100
AcDbLine
 10
255.185341323291
 20
202.993615618393
 30
0.0
 11
255.935341323291
 21
202.993615618393
 31
0.0
  0
LINE
  5
17C
330
1F
100
AcDbEntity
  8
1
  6
Continuous
 62
     4
100
AcDbLine
 10
254.810341323291
 20
202.868615618393
 30
0.0
 11
255.185341323291
 21
202.993615618393
 31
0.0
  0
LINE
  5
17D
330
1F
100
AcDbEntity
  8
1
  6
Continuous
 62
     4
100
AcDbLine
 10
254.435341323291
 20
202.618615618393
 30
0.0
 11
254.810341323291
 21
202.868615618393
 31
0.0
  0
LINE
  5
17E
330
1F
100
AcDbEntity
  8
1
  6
Continuous
 62
     4
100
AcDbLine
 10
254.185341323291
 20
202.243615618393
 30
0.0
 11
254.435341323291
 21
202.618615618393
 31
0.0
  0
LINE
  5
17F
330
1F
100
AcDbEntity
  8
1
  6
Continuous
 62
     4
100
AcDbLine
 10
254.060341323291
 20
201.743615618393
 30
0.0
 11
254.185341323291
 21
202.243615618393
 31
0.0
  0
LINE
  5
180
330
1F
100
AcDbEntity
  8
1
  6
Continuous
 62
     4
100
AcDbLine
 10
252.685341323291
 20
200.243615618393
 30
0.0
 11
252.685341323291
 21
200.118615618393
 31
0.0
  0
LINE
  5
181
330
1F
100
AcDbEntity
  8
1
  6
Continuous
 62
     4
100
AcDbLine
 10
252.560341323291
 20
200.243615618393
 30
0.0
 11
252.685341323291
 21
200.243615618393
 31
0.0
  0
LINE
  5
182
330
1F
100
AcDbEntity
  8
1
  6
Continuous
 62
     4
100
AcDbLine
 10
252.560341323291
 20
200.118615618393
 30
0.0
 11
252.560341323291
 21
200.243615618393
 31
0.0
  0
LINE
  5
183
330
1F
100
AcDbEntity
  8
1
  6
Continuous
 62
     4
100
AcDbLine
 10
252.685341323291
 20
200.118615618393
 30
0.0
 11
252.560341323291
 21
200.118615618393
 31
0.0
  0
LINE
  5
184
330
1F
100
AcDbEntity
  8
1
  6
Continuous
 62
     4
100
AcDbLine
 10
252.810341323291
 20
200.368615618393
 30
0.0
 11
252.810341323291
 21
199.993615618393
 31
0.0
  0
LINE
  5
185
330
1F
100
AcDbEntity
  8
1
  6
Continuous
 62
     4
100
AcDbLine
 10
252.435341323291
 20
200.368615618393
 30
0.0
 11
252.810341323291
 21
200.368615618393
 31
0.0
  0
LINE
  5
186
330
1F
100
AcDbEntity
  8
1
  6
Continuous
 62
     4
100
AcDbLine
 10
252.435341323291
 20
199.993615618393
 30
0.0
 11
252.435341323291
 21
200.368615618393
 31
0.0
  0
LINE
  5
187
330
1F
100
AcDbEntity
  8
1
  6
Continuous
 62
     4
100
AcDbLine
 10
252.810341323291
 20
199.993615618393
 30
0.0
 11
252.435341323291
 21
199.993615618393
 31
0.0
  0
LINE
  5
188
330
1F
100
AcDbEntity
  8
1
  6
Continuous
 62
     4
100
AcDbLine
 10
250.935341323291
 20
203.118615618393
 30
0.0
 11
250.935341323291
 21
201.868615618393
 31
0.0
  0
LINE
  5
189
330
1F
100
AcDbEntity
  8
1
  6
Continuous
 62
     4
100
AcDbLine
 10
250.810341323291
 20
203.868615618393
 30
0.0
 11
250.935341323291
 21
203.118615618393
 31
0.0
  0
LINE
  5
18A
330
1F
100
AcDbEntity
  8
1
  6
Continuous
 62
     4
100
AcDbLine
 10
250.560341323291
 20
204.368615618393
 30
0.0
 11
250.810341323291
 21
203.868615618393
 31
0.0
  0
LINE
  5
18B
330
1F
100
AcDbEntity
  8
1
  6
Continuous
 62
     4
100
AcDbLine
 10
250.310341323291
 20
204.618615618393
 30
0.0
 11
250.560341323291
 21
204.368615618393
 31
0.0
  0
LINE
  5
18C
330
1F
100
AcDbEntity
  8
1
  6
Continuous
 62
     4
100
AcDbLine
 10
249.935341323291
 20
204.868615618393
 30
0.0
 11
250.310341323291
 21
204.618615618393
 31
0.0
  0
LINE
  5
18D
330
1F
100
AcDbEntity
  8
1
  6
Continuous
 62
     4
100
AcDbLine
 10
249.560341323291
 20
204.993615618393
 30
0.0
 11
249.935341323291
 21
204.868615618393
 31
0.0
  0
LINE
  5
18E
330
1F
100
AcDbEntity
  8
1
  6
Continuous
 62
     4
100
AcDbLine
 10
249.310341323291
 20
204.993615618393
 30
0.0
 11
249.560341323291
 21
204.993615618393
 31
0.0
  0
LINE
  5
18F
330
1F
100
AcDbEntity
  8
1
  6
Continuous
 62
     4
100
AcDbLine
 10
248.935341323291
 20
204.868615618393
 30
0.0
 11
249.310341323291
 21
204.993615618393
 31
0.0
  0
LINE
  5
190
330
1F
100
AcDbEntity
  8
1
  6
Continuous
 62
     4
100
AcDbLine
 10
248.560341323291
 20
204.618615618393
 30
0.0
 11
248.935341323291
 21
204.868615618393
 31
0.0
  0
LINE
  5
191
330
1F
100
AcDbEntity
  8
1
  6
Continuous
 62
     4
100
AcDbLine
 10
248.310341323291
 20
204.368615618393
 30
0.0
 11
248.560341323291
 21
204.618615618393
 31
0.0
  0
LINE
  5
192
330
1F
100
AcDbEntity
  8
1
  6
Continuous
 62
     4
100
AcDbLine
 10
248.060341323291
 20
203.868615618393
 30
0.0
 11
248.310341323291
 21
204.368615618393
 31
0.0
  0
LINE
  5
193
330
1F
100
AcDbEntity
  8
1
  6
Continuous
 62
     4
100
AcDbLine
 10
247.935341323291
 20
203.118615618393
 30
0.0
 11
248.060341323291
 21
203.868615618393
 31
0.0
  0
LINE
  5
194
330
1F
100
AcDbEntity
  8
1
  6
Continuous
 62
     4
100
AcDbLine
 10
247.935341323291
 20
201.868615618393
 30
0.0
 11
247.935341323291
 21
203.118615618393
 31
0.0
  0
LINE
  5
195
330
1F
100
AcDbEntity
  8
1
  6
Continuous
 62
     4
100
AcDbLine
 10
248.060341323291
 20
201.118615618393
 30
0.0
 11
247.935341323291
 21
201.868615618393
 31
0.0
  0
LINE
  5
196
330
1F
100
AcDbEntity
  8
1
  6
Continuous
 62
     4
100
AcDbLine
 10
248.310341323291
 20
200.618615618393
 30
0.0
 11
248.060341323291
 21
201.118615618393
 31
0.0
  0
LINE
  5
197
330
1F
100
AcDbEntity
  8
1
  6
Continuous
 62
     4
100
AcDbLine
 10
248.560341323291
 20
200.368615618393
 30
0.0
 11
248.310341323291
 21
200.618615618393
 31
0.0
  0
LINE
  5
198
330
1F
100
AcDbEntity
  8
1
  6
Continuous
 62
     4
100
AcDbLine
 10
248.935341323291
 20
200.118615618393
 30
0.0
 11
248.560341323291
 21
200.368615618393
 31
0.0
  0
LINE
  5
199
330
1F
100
AcDbEntity
  8
1
  6
Continuous
 62
     4
100
AcDbLine
 10
249.310341323291
 20
199.993615618393
 30
0.0
 11
248.935341323291
 21
200.118615618393
 31
0.0
  0
LINE
  5
19A
330
1F
100
AcDbEntity
  8
1
  6
Continuous
 62
     4
100
AcDbLine
 10
249.560341323291
 20
199.993615618393
 30
0.0
 11
249.310341323291
 21
199.993615618393
 31
0.0
  0
LINE
  5
19B
330
1F
100
AcDbEntity
  8
1
  6
Continuous
 62
     4
100
AcDbLine
 10
249.935341323291
 20
200.118615618393
 30
0.0
 11
249.560341323291
 21
199.993615618393
 31
0.0
  0
LINE
  5
19C
330
1F
100
AcDbEntity
  8
1
  6
Continuous
 62
     4
100
AcDbLine
 10
250.310341323291
 20
200.368615618393
 30
0.0
 11
249.935341323291
 21
200.118615618393
 31
0.0
  0
LINE
  5
19D
330
1F
100
AcDbEntity
  8
1
  6
Continuous
 62
     4
100
AcDbLine
 10
250.560341323291
 20
200.618615618393
 30
0.0
 11
250.310341323291
 21
200.368615618393
 31
0.0
  0
LINE
  5
19E
330
1F
100
AcDbEntity
  8
1
  6
Continuous
 62
     4
100
AcDbLine
 10
250.810341323291
 20
201.118615618393
 30
0.0
 11
250.560341323291
 21
200.618615618393
 31
0.0
  0
LINE
  5
19F
330
1F
100
AcDbEntity
  8
1
  6
Continuous
 62
     4
100
AcDbLine
 10
250.935341323291
 20
201.868615618393
 30
0.0
 11
250.810341323291
 21
201.118615618393
 31
0.0
  0
LINE
  5
1A0
330
1F
100
AcDbEntity
  8
1
  6
Continuous
 62
     4
100
AcDbLine
 10
277.560341323291
 20
208.323615618393
 30
0.0
 11
280.560341323291
 21
208.323615618393
 31
0.0
  0
LINE
  5
1A1
330
1F
100
AcDbEntity
  8
1
  6
Continuous
 62
     4
100
AcDbLine
 10
280.310341323291
 20
211.573615618393
 30
0.0
 11
277.560341323291
 21
208.323615618393
 31
0.0
  0
LINE
  5
1A2
330
1F
100
AcDbEntity
  8
1
  6
Continuous
 62
     4
100
AcDbLine
 10
280.560341323291
 20
212.073615618393
 30
0.0
 11
280.310341323291
 21
211.573615618393
 31
0.0
  0
LINE
  5
1A3
330
1F
100
AcDbEntity
  8
1
  6
Continuous
 62
     4
100
AcDbLine
 10
280.560341323291
 20
212.573615618393
 30
0.0
 11
280.560341323291
 21
212.073615618393
 31
0.0
  0
LINE
  5
1A4
330
1F
100
AcDbEntity
  8
1
  6
Continuous
 62
     4
100
AcDbLine
 10
280.310341323291
 20
212.948615618393
 30
0.0
 11
280.560341323291
 21
212.573615618393
 31
0.0
  0
LINE
  5
1A5
330
1F
100
AcDbEntity
  8
1
  6
Continuous
 62
     4
100
AcDbLine
 10
279.935341323291
 20
213.198615618393
 30
0.0
 11
280.310341323291
 21
212.948615618393
 31
0.0
  0
LINE
  5
1A6
330
1F
100
AcDbEntity
  8
1
  6
Continuous
 62
     4
100
AcDbLine
 10
279.435341323291
 20
213.323615618393
 30
0.0
 11
279.935341323291
 21
213.198615618393
 31
0.0
  0
LINE
  5
1A7
330
1F
100
AcDbEntity
  8
1
  6
Continuous
 62
     4
100
AcDbLine
 10
278.685341323291
 20
213.323615618393
 30
0.0
 11
279.435341323291
 21
213.323615618393
 31
0.0
  0
LINE
  5
1A8
330
1F
100
AcDbEntity
  8
1
  6
Continuous
 62
     4
100
AcDbLine
 10
278.185341323291
 20
213.198615618393
 30
0.0
 11
278.685341323291
 21
213.323615618393
 31
0.0
  0
LINE
  5
1A9
330
1F
100
AcDbEntity
  8
1
  6
Continuous
 62
     4
100
AcDbLine
 10
277.810341323291
 20
212.948615618393
 30
0.0
 11
278.185341323291
 21
213.198615618393
 31
0.0
  0
LINE
  5
1AA
330
1F
100
AcDbEntity
  8
1
  6
Continuous
 62
     4
100
AcDbLine
 10
277.560341323291
 20
212.573615618393
 30
0.0
 11
277.810341323291
 21
212.948615618393
 31
0.0
  0
LINE
  5
1AB
330
1F
100
AcDbEntity
  8
1
  6
Continuous
 62
     4
100
AcDbLine
 10
276.060341323291
 20
211.448615618393
 30
0.0
 11
276.060341323291
 21
210.198615618393
 31
0.0
  0
LINE
  5
1AC
330
1F
100
AcDbEntity
  8
1
  6
Continuous
 62
     4
100
AcDbLine
 10
275.935341323291
 20
212.198615618393
 30
0.0
 11
276.060341323291
 21
211.448615618393
 31
0.0
  0
LINE
  5
1AD
330
1F
100
AcDbEntity
  8
1
  6
Continuous
 62
     4
100
AcDbLine
 10
275.685341323291
 20
212.698615618393
 30
0.0
 11
275.935341323291
 21
212.198615618393
 31
0.0
  0
LINE
  5
1AE
330
1F
100
AcDbEntity
  8
1
  6
Continuous
 62
     4
100
AcDbLine
 10
275.435341323291
 20
212.948615618393
 30
0.0
 11
275.685341323291
 21
212.698615618393
 31
0.0
  0
LINE
  5
1AF
330
1F
100
AcDbEntity
  8
1
  6
Continuous
 62
     4
100
AcDbLine
 10
275.060341323291
 20
213.198615618393
 30
0.0
 11
275.435341323291
 21
212.948615618393
 31
0.0
  0
LINE
  5
1B0
330
1F
100
AcDbEntity
  8
1
  6
Continuous
 62
     4
100
AcDbLine
 10
274.685341323291
 20
213.323615618393
 30
0.0
 11
275.060341323291
 21
213.198615618393
 31
0.0
  0
LINE
  5
1B1
330
1F
100
AcDbEntity
  8
1
  6
Continuous
 62
     4
100
AcDbLine
 10
274.435341323291
 20
213.323615618393
 30
0.0
 11
274.685341323291
 21
213.323615618393
 31
0.0
  0
LINE
  5
1B2
330
1F
100
AcDbEntity
  8
1
  6
Continuous
 62
     4
100
AcDbLine
 10
274.060341323291
 20
213.198615618393
 30
0.0
 11
274.435341323291
 21
213.323615618393
 31
0.0
  0
LINE
  5
1B3
330
1F
100
AcDbEntity
  8
1
  6
Continuous
 62
     4
100
AcDbLine
 10
273.685341323291
 20
212.948615618393
 30
0.0
 11
274.060341323291
 21
213.198615618393
 31
0.0
  0
LINE
  5
1B4
330
1F
100
AcDbEntity
  8
1
  6
Continuous
 62
     4
100
AcDbLine
 10
273.435341323291
 20
212.698615618393
 30
0.0
 11
273.685341323291
 21
212.948615618393
 31
0.0
  0
LINE
  5
1B5
330
1F
100
AcDbEntity
  8
1
  6
Continuous
 62
     4
100
AcDbLine
 10
273.185341323291
 20
212.198615618393
 30
0.0
 11
273.435341323291
 21
212.698615618393
 31
0.0
  0
LINE
  5
1B6
330
1F
100
AcDbEntity
  8
1
  6
Continuous
 62
     4
100
AcDbLine
 10
273.060341323291
 20
211.448615618393
 30
0.0
 11
273.185341323291
 21
212.198615618393
 31
0.0
  0
LINE
  5
1B7
330
1F
100
AcDbEntity
  8
1
  6
Continuous
 62
     4
100
AcDbLine
 10
273.060341323291
 20
210.198615618393
 30
0.0
 11
273.060341323291
 21
211.448615618393
 31
0.0
  0
LINE
  5
1B8
330
1F
100
AcDbEntity
  8
1
  6
Continuous
 62
     4
100
AcDbLine
 10
273.185341323291
 20
209.448615618393
 30
0.0
 11
273.060341323291
 21
210.198615618393
 31
0.0
  0
LINE
  5
1B9
330
1F
100
AcDbEntity
  8
1
  6
Continuous
 62
     4
100
AcDbLine
 10
273.435341323291
 20
208.948615618393
 30
0.0
 11
273.185341323291
 21
209.448615618393
 31
0.0
  0
LINE
  5
1BA
330
1F
100
AcDbEntity
  8
1
  6
Continuous
 62
     4
100
AcDbLine
 10
273.685341323291
 20
208.698615618393
 30
0.0
 11
273.435341323291
 21
208.948615618393
 31
0.0
  0
LINE
  5
1BB
330
1F
100
AcDbEntity
  8
1
  6
Continuous
 62
     4
100
AcDbLine
 10
274.060341323291
 20
208.448615618393
 30
0.0
 11
273.685341323291
 21
208.698615618393
 31
0.0
  0
LINE
  5
1BC
330
1F
100
AcDbEntity
  8
1
  6
Continuous
 62
     4
100
AcDbLine
 10
274.435341323291
 20
208.323615618393
 30
0.0
 11
274.060341323291
 21
208.448615618393
 31
0.0
  0
LINE
  5
1BD
330
1F
100
AcDbEntity
  8
1
  6
Continuous
 62
     4
100
AcDbLine
 10
274.685341323291
 20
208.323615618393
 30
0.0
 11
274.435341323291
 21
208.323615618393
 31
0.0
  0
LINE
  5
1BE
330
1F
100
AcDbEntity
  8
1
  6
Continuous
 62
     4
100
AcDbLine
 10
275.060341323291
 20
208.448615618393
 30
0.0
 11
274.685341323291
 21
208.323615618393
 31
0.0
  0
LINE
  5
1BF
330
1F
100
AcDbEntity
  8
1
  6
Continuous
 62
     4
100
AcDbLine
 10
275.435341323291
 20
208.698615618393
 30
0.0
 11
275.060341323291
 21
208.448615618393
 31
0.0
  0
LINE
  5
1C0
330
1F
100
AcDbEntity
  8
1
  6
Continuous
 62
     4
100
AcDbLine
 10
275.685341323291
 20
208.948615618393
 30
0.0
 11
275.435341323291
 21
208.698615618393
 31
0.0
  0
LINE
  5
1C1
330
1F
100
AcDbEntity
  8
1
  6
Continuous
 62
     4
100
AcDbLine
 10
275.935341323291
 20
209.448615618393
 30
0.0
 11
275.685341323291
 21
208.948615618393
 31
0.0
  0
LINE
  5
1C2
330
1F
100
AcDbEntity
  8
1
  6
Continuous
 62
     4
100
AcDbLine
 10
276.060341323291
 20
210.198615618393
 30
0.0
 11
275.935341323291
 21
209.448615618393
 31
0.0
  0
LINE
  5
1C3
330
1F
100
AcDbEntity
  8
1
  6
Continuous
 62
     4
100
AcDbLine
 10
270.435341323291
 20
208.323615618393
 30
0.0
 11
268.560341323291
 21
208.323615618393
 31
0.0
  0
LINE
  5
1C4
330
1F
100
AcDbEntity
  8
1
  6
Continuous
 62
     4
100
AcDbLine
 10
270.810341323291
 20
208.448615618393
 30
0.0
 11
270.435341323291
 21
208.323615618393
 31
0.0
  0
LINE
  5
1C5
330
1F
100
AcDbEntity
  8
1
  6
Continuous
 62
     4
100
AcDbLine
 10
271.185341323291
 20
208.698615618393
 30
0.0
 11
270.810341323291
 21
208.448615618393
 31
0.0
  0
LINE
  5
1C6
330
1F
100
AcDbEntity
  8
1
  6
Continuous
 62
     4
100
AcDbLine
 10
271.435341323291
 20
209.073615618393
 30
0.0
 11
271.185341323291
 21
208.698615618393
 31
0.0
  0
LINE
  5
1C7
330
1F
100
AcDbEntity
  8
1
  6
Continuous
 62
     4
100
AcDbLine
 10
271.560341323291
 20
209.573615618393
 30
0.0
 11
271.435341323291
 21
209.073615618393
 31
0.0
  0
LINE
  5
1C8
330
1F
100
AcDbEntity
  8
1
  6
Continuous
 62
     4
100
AcDbLine
 10
271.560341323291
 20
210.323615618393
 30
0.0
 11
271.560341323291
 21
209.573615618393
 31
0.0
  0
LINE
  5
1C9
330
1F
100
AcDbEntity
  8
1
  6
Continuous
 62
     4
100
AcDbLine
 10
271.435341323291
 20
210.823615618393
 30
0.0
 11
271.560341323291
 21
210.323615618393
 31
0.0
  0
LINE
  5
1CA
330
1F
100
AcDbEntity
  8
1
  6
Continuous
 62
     4
100
AcDbLine
 10
271.060341323291
 20
211.198615618393
 30
0.0
 11
271.435341323291
 21
210.823615618393
 31
0.0
  0
LINE
  5
1CB
330
1F
100
AcDbEntity
  8
1
  6
Continuous
 62
     4
100
AcDbLine
 10
270.435341323291
 20
211.323615618393
 30
0.0
 11
271.060341323291
 21
211.198615618393
 31
0.0
  0
LINE
  5
1CC
330
1F
100
AcDbEntity
  8
1
  6
Continuous
 62
     4
100
AcDbLine
 10
268.560341323291
 20
211.323615618393
 30
0.0
 11
270.435341323291
 21
211.323615618393
 31
0.0
  0
LINE
  5
1CD
330
1F
100
AcDbEntity
  8
1
  6
Continuous
 62
     4
100
AcDbLine
 10
268.560341323291
 20
213.323615618393
 30
0.0
 11
268.560341323291
 21
211.323615618393
 31
0.0
  0
LINE
  5
1CE
330
1F
100
AcDbEntity
  8
1
  6
Continuous
 62
     4
100
AcDbLine
 10
271.310341323291
 20
213.323615618393
 30
0.0
 11
268.560341323291
 21
213.323615618393
 31
0.0
  0
LINE
  5
1CF
330
1F
100
AcDbEntity
  8
1
  6
Continuous
 62
     4
100
AcDbLine
 10
255.935341323291
 20
208.323615618393
 30
0.0
 11
254.060341323291
 21
208.323615618393
 31
0.0
  0
LINE
  5
1D0
330
1F
100
AcDbEntity
  8
1
  6
Continuous
 62
     4
100
AcDbLine
 10
256.310341323291
 20
208.448615618393
 30
0.0
 11
255.935341323291
 21
208.323615618393
 31
0.0
  0
LINE
  5
1D1
330
1F
100
AcDbEntity
  8
1
  6
Continuous
 62
     4
100
AcDbLine
 10
256.685341323291
 20
208.698615618393
 30
0.0
 11
256.310341323291
 21
208.448615618393
 31
0.0
  0
LINE
  5
1D2
330
1F
100
AcDbEntity
  8
1
  6
Continuous
 62
     4
100
AcDbLine
 10
256.935341323291
 20
209.073615618393
 30
0.0
 11
256.685341323291
 21
208.698615618393
 31
0.0
  0
LINE
  5
1D3
330
1F
100
AcDbEntity
  8
1
  6
Continuous
 62
     4
100
AcDbLine
 10
257.060341323291
 20
209.573615618393
 30
0.0
 11
256.935341323291
 21
209.073615618393
 31
0.0
  0
LINE
  5
1D4
330
1F
100
AcDbEntity
  8
1
  6
Continuous
 62
     4
100
AcDbLine
 10
257.060341323291
 20
210.323615618393
 30
0.0
 11
257.060341323291
 21
209.573615618393
 31
0.0
  0
LINE
  5
1D5
330
1F
100
AcDbEntity
  8
1
  6
Continuous
 62
     4
100
AcDbLine
 10
256.935341323291
 20
210.823615618393
 30
0.0
 11
257.060341323291
 21
210.323615618393
 31
0.0
  0
LINE
  5
1D6
330
1F
100
AcDbEntity
  8
1
  6
Continuous
 62
     4
100
AcDbLine
 10
256.560341323291
 20
211.198615618393
 30
0.0
 11
256.935341323291
 21
210.823615618393
 31
0.0
  0
LINE
  5
1D7
330
1F
100
AcDbEntity
  8
1
  6
Continuous
 62
     4
100
AcDbLine
 10
255.935341323291
 20
211.323615618393
 30
0.0
 11
256.560341323291
 21
211.198615618393
 31
0.0
  0
LINE
  5
1D8
330
1F
100
AcDbEntity
  8
1
  6
Continuous
 62
     4
100
AcDbLine
 10
254.060341323291
 20
211.323615618393
 30
0.0
 11
255.935341323291
 21
211.323615618393
 31
0.0
  0
LINE
  5
1D9
330
1F
100
AcDbEntity
  8
1
  6
Continuous
 62
     4
100
AcDbLine
 10
254.060341323291
 20
213.323615618393
 30
0.0
 11
254.060341323291
 21
211.323615618393
 31
0.0
  0
LINE
  5
1DA
330
1F
100
AcDbEntity
  8
1
  6
Continuous
 62
     4
100
AcDbLine
 10
256.810341323291
 20
213.323615618393
 30
0.0
 11
254.060341323291
 21
213.323615618393
 31
0.0
  0
LINE
  5
1DB
330
1F
100
AcDbEntity
  8
1
  6
Continuous
 62
     4
100
AcDbLine
 10
252.685341323291
 20
208.573615618393
 30
0.0
 11
252.685341323291
 21
208.448615618393
 31
0.0
  0
LINE
  5
1DC
330
1F
100
AcDbEntity
  8
1
  6
Continuous
 62
     4
100
AcDbLine
 10
252.560341323291
 20
208.573615618393
 30
0.0
 11
252.685341323291
 21
208.573615618393
 31
0.0
  0
LINE
  5
1DD
330
1F
100
AcDbEntity
  8
1
  6
Continuous
 62
     4
100
AcDbLine
 10
252.560341323291
 20
208.448615618393
 30
0.0
 11
252.560341323291
 21
208.573615618393
 31
0.0
  0
LINE
  5
1DE
330
1F
100
AcDbEntity
  8
1
  6
Continuous
 62
     4
100
AcDbLine
 10
252.685341323291
 20
208.448615618393
 30
0.0
 11
252.560341323291
 21
208.448615618393
 31
0.0
  0
LINE
  5
1DF
330
1F
100
AcDbEntity
  8
1
  6
Continuous
 62
     4
100
AcDbLine
 10
252.810341323291
 20
208.698615618393
 30
0.0
 11
252.810341323291
 21
208.323615618393
 31
0.0
  0
LINE
  5
1E0
330
1F
100
AcDbEntity
  8
1
  6
Continuous
 62
     4
100
AcDbLine
 10
252.435341323291
 20
208.698615618393
 30
0.0
 11
252.810341323291
 21
208.698615618393
 31
0.0
  0
LINE
  5
1E1
330
1F
100
AcDbEntity
  8
1
  6
Continuous
 62
     4
100
AcDbLine
 10
252.435341323291
 20
208.323615618393
 30
0.0
 11
252.435341323291
 21
208.698615618393
 31
0.0
  0
LINE
  5
1E2
330
1F
100
AcDbEntity
  8
1
  6
Continuous
 62
     4
100
AcDbLine
 10
252.810341323291
 20
208.323615618393
 30
0.0
 11
252.435341323291
 21
208.323615618393
 31
0.0
  0
LINE
  5
1E3
330
1F
100
AcDbEntity
  8
1
  6
Continuous
 62
     4
100
AcDbLine
 10
250.935341323291
 20
211.448615618393
 30
0.0
 11
250.935341323291
 21
210.198615618393
 31
0.0
  0
LINE
  5
1E4
330
1F
100
AcDbEntity
  8
1
  6
Continuous
 62
     4
100
AcDbLine
 10
250.810341323291
 20
212.198615618393
 30
0.0
 11
250.935341323291
 21
211.448615618393
 31
0.0
  0
LINE
  5
1E5
330
1F
100
AcDbEntity
  8
1
  6
Continuous
 62
     4
100
AcDbLine
 10
250.560341323291
 20
212.698615618393
 30
0.0
 11
250.810341323291
 21
212.198615618393
 31
0.0
  0
LINE
  5
1E6
330
1F
100
AcDbEntity
  8
1
  6
Continuous
 62
     4
100
AcDbLine
 10
250.310341323291
 20
212.948615618393
 30
0.0
 11
250.560341323291
 21
212.698615618393
 31
0.0
  0
LINE
  5
1E7
330
1F
100
AcDbEntity
  8
1
  6
Continuous
 62
     4
100
AcDbLine
 10
249.935341323291
 20
213.198615618393
 30
0.0
 11
250.310341323291
 21
212.948615618393
 31
0.0
  0
LINE
  5
1E8
330
1F
100
AcDbEntity
  8
1
  6
Continuous
 62
     4
100
AcDbLine
 10
249.560341323291
 20
213.323615618393
 30
0.0
 11
249.935341323291
 21
213.198615618393
 31
0.0
  0
LINE
  5
1E9
330
1F
100
AcDbEntity
  8
1
  6
Continuous
 62
     4
100
AcDbLine
 10
249.310341323291
 20
213.323615618393
 30
0.0
 11
249.560341323291
 21
213.323615618393
 31
0.0
  0
LINE
  5
1EA
330
1F
100
AcDbEntity
  8
1
  6
Continuous
 62
     4
100
AcDbLine
 10
248.935341323291
 20
213.198615618393
 30
0.0
 11
249.310341323291
 21
213.323615618393
 31
0.0
  0
LINE
  5
1EB
330
1F
100
AcDbEntity
  8
1
  6
Continuous
 62
     4
100
AcDbLine
 10
248.560341323291
 20
212.948615618393
 30
0.0
 11
248.935341323291
 21
213.198615618393
 31
0.0
  0
LINE
  5
1EC
330
1F
100
AcDbEntity
  8
1
  6
Continuous
 62
     4
100
AcDbLine
 10
248.310341323291
 20
212.698615618393
 30
0.0
 11
248.560341323291
 21
212.948615618393
 31
0.0
  0
LINE
  5
1ED
330
1F
100
AcDbEntity
  8
1
  6
Continuous
 62
     4
100
AcDbLine
 10
248.060341323291
 20
212.198615618393
 30
0.0
 11
248.310341323291
 21
212.698615618393
 31
0.0
  0
LINE
  5
1EE
330
1F
100
AcDbEntity
  8
1
  6
Continuous
 62
     4
100
AcDbLine
 10
247.935341323291
 20
211.448615618393
 30
0.0
 11
248.060341323291
 21
212.198615618393
 31
0.0
  0
LINE
  5
1EF
330
1F
100
AcDbEntity
  8
1
  6
Continuous
 62
     4
100
AcDbLine
 10
247.935341323291
 20
210.198615618393
 30
0.0
 11
247.935341323291
 21
211.448615618393
 31
0.0
  0
LINE
  5
1F0
330
1F
100
AcDbEntity
  8
1
  6
Continuous
 62
     4
100
AcDbLine
 10
248.060341323291
 20
209.448615618393
 30
0.0
 11
247.935341323291
 21
210.198615618393
 31
0.0
  0
LINE
  5
1F1
330
1F
100
AcDbEntity
  8
1
  6
Continuous
 62
     4
100
AcDbLine
 10
248.310341323291
 20
208.948615618393
 30
0.0
 11
248.060341323291
 21
209.448615618393
 31
0.0
  0
LINE
  5
1F2
330
1F
100
AcDbEntity
  8
1
  6
Continuous
 62
     4
100
AcDbLine
 10
248.560341323291
 20
208.698615618393
 30
0.0
 11
248.310341323291
 21
208.948615618393
 31
0.0
  0
LINE
  5
1F3
330
1F
100
AcDbEntity
  8
1
  6
Continuous
 62
     4
100
AcDbLine
 10
248.935341323291
 20
208.448615618393
 30
0.0
 11
248.560341323291
 21
208.698615618393
 31
0.0
  0
LINE
  5
1F4
330
1F
100
AcDbEntity
  8
1
  6
Continuous
 62
     4
100
AcDbLine
 10
249.310341323291
 20
208.323615618393
 30
0.0
 11
248.935341323291
 21
208.448615618393
 31
0.0
  0
LINE
  5
1F5
330
1F
100
AcDbEntity
  8
1
  6
Continuous
 62
     4
100
AcDbLine
 10
249.560341323291
 20
208.323615618393
 30
0.0
 11
249.310341323291
 21
208.323615618393
 31
0.0
  0
LINE
  5
1F6
330
1F
100
AcDbEntity
  8
1
  6
Continuous
 62
     4
100
AcDbLine
 10
249.935341323291
 20
208.448615618393
 30
0.0
 11
249.560341323291
 21
208.323615618393
 31
0.0
  0
LINE
  5
1F7
330
1F
100
AcDbEntity
  8
1
  6
Continuous
 62
     4
100
AcDbLine
 10
250.310341323291
 20
208.698615618393
 30
0.0
 11
249.935341323291
 21
208.448615618393
 31
0.0
  0
LINE
  5
1F8
330
1F
100
AcDbEntity
  8
1
  6
Continuous
 62
     4
100
AcDbLine
 10
250.560341323291
 20
208.948615618393
 30
0.0
 11
250.310341323291
 21
208.698615618393
 31
0.0
  0
LINE
  5
1F9
330
1F
100
AcDbEntity
  8
1
  6
Continuous
 62
     4
100
AcDbLine
 10
250.810341323291
 20
209.448615618393
 30
0.0
 11
250.560341323291
 21
208.948615618393
 31
0.0
  0
LINE
  5
1FA
330
1F
100
AcDbEntity
  8
1
  6
Continuous
 62
     4
100
AcDbLine
 10
250.935341323291
 20
210.198615618393
 30
0.0
 11
250.810341323291
 21
209.448615618393
 31
0.0
  0
LINE
  5
1FB
330
1F
100
AcDbEntity
  8
1
  6
Continuous
 62
     4
100
AcDbLine
 10
277.560341323291
 20
216.653615618393
 30
0.0
 11
280.560341323291
 21
216.653615618393
 31
0.0
  0
LINE
  5
1FC
330
1F
100
AcDbEntity
  8
1
  6
Continuous
 62
     4
100
AcDbLine
 10
280.310341323291
 20
219.903615618393
 30
0.0
 11
277.560341323291
 21
216.653615618393
 31
0.0
  0
LINE
  5
1FD
330
1F
100
AcDbEntity
  8
1
  6
Continuous
 62
     4
100
AcDbLine
 10
280.560341323291
 20
220.403615618393
 30
0.0
 11
280.310341323291
 21
219.903615618393
 31
0.0
  0
LINE
  5
1FE
330
1F
100
AcDbEntity
  8
1
  6
Continuous
 62
     4
100
AcDbLine
 10
280.560341323291
 20
220.903615618393
 30
0.0
 11
280.560341323291
 21
220.403615618393
 31
0.0
  0
LINE
  5
1FF
330
1F
100
AcDbEntity
  8
1
  6
Continuous
 62
     4
100
AcDbLine
 10
280.310341323291
 20
221.278615618393
 30
0.0
 11
280.560341323291
 21
220.903615618393
 31
0.0
  0
LINE
  5
200
330
1F
100
AcDbEntity
  8
1
  6
Continuous
 62
     4
100
AcDbLine
 10
279.935341323291
 20
221.528615618393
 30
0.0
 11
280.310341323291
 21
221.278615618393
 31
0.0
  0
LINE
  5
201
330
1F
100
AcDbEntity
  8
1
  6
Continuous
 62
     4
100
AcDbLine
 10
279.435341323291
 20
221.653615618393
 30
0.0
 11
279.935341323291
 21
221.528615618393
 31
0.0
  0
LINE
  5
202
330
1F
100
AcDbEntity
  8
1
  6
Continuous
 62
     4
100
AcDbLine
 10
278.685341323291
 20
221.653615618393
 30
0.0
 11
279.435341323291
 21
221.653615618393
 31
0.0
  0
LINE
  5
203
330
1F
100
AcDbEntity
  8
1
  6
Continuous
 62
     4
100
AcDbLine
 10
278.185341323291
 20
221.528615618393
 30
0.0
 11
278.685341323291
 21
221.653615618393
 31
0.0
  0
LINE
  5
204
330
1F
100
AcDbEntity
  8
1
  6
Continuous
 62
     4
100
AcDbLine
 10
277.810341323291
 20
221.278615618393
 30
0.0
 11
278.185341323291
 21
221.528615618393
 31
0.0
  0
LINE
  5
205
330
1F
100
AcDbEntity
  8
1
  6
Continuous
 62
     4
100
AcDbLine
 10
277.560341323291
 20
220.903615618393
 30
0.0
 11
277.810341323291
 21
221.278615618393
 31
0.0
  0
LINE
  5
206
330
1F
100
AcDbEntity
  8
1
  6
Continuous
 62
     4
100
AcDbLine
 10
276.060341323291
 20
219.778615618393
 30
0.0
 11
276.060341323291
 21
218.528615618393
 31
0.0
  0
LINE
  5
207
330
1F
100
AcDbEntity
  8
1
  6
Continuous
 62
     4
100
AcDbLine
 10
275.935341323291
 20
220.528615618393
 30
0.0
 11
276.060341323291
 21
219.778615618393
 31
0.0
  0
LINE
  5
208
330
1F
100
AcDbEntity
  8
1
  6
Continuous
 62
     4
100
AcDbLine
 10
275.685341323291
 20
221.028615618393
 30
0.0
 11
275.935341323291
 21
220.528615618393
 31
0.0
  0
LINE
  5
209
330
1F
100
AcDbEntity
  8
1
  6
Continuous
 62
     4
100
AcDbLine
 10
275.435341323291
 20
221.278615618393
 30
0.0
 11
275.685341323291
 21
221.028615618393
 31
0.0
  0
LINE
  5
20A
330
1F
100
AcDbEntity
  8
1
  6
Continuous
 62
     4
100
AcDbLine
 10
275.060341323291
 20
221.528615618393
 30
0.0
 11
275.435341323291
 21
221.278615618393
 31
0.0
  0
LINE
  5
20B
330
1F
100
AcDbEntity
  8
1
  6
Continuous
 62
     4
100
AcDbLine
 10
274.685341323291
 20
221.653615618393
 30
0.0
 11
275.060341323291
 21
221.528615618393
 31
0.0
  0
LINE
  5
20C
330
1F
100
AcDbEntity
  8
1
  6
Continuous
 62
     4
100
AcDbLine
 10
274.435341323291
 20
221.653615618393
 30
0.0
 11
274.685341323291
 21
221.653615618393
 31
0.0
  0
LINE
  5
20D
330
1F
100
AcDbEntity
  8
1
  6
Continuous
 62
     4
100
AcDbLine
 10
274.060341323291
 20
221.528615618393
 30
0.0
 11
274.435341323291
 21
221.653615618393
 31
0.0
  0
LINE
  5
20E
330
1F
100
AcDbEntity
  8
1
  6
Continuous
 62
     4
100
AcDbLine
 10
273.685341323291
 20
221.278615618393
 30
0.0
 11
274.060341323291
 21
221.528615618393
 31
0.0
  0
LINE
  5
20F
330
1F
100
AcDbEntity
  8
1
  6
Continuous
 62
     4
100
AcDbLine
 10
273.435341323291
 20
221.028615618393
 30
0.0
 11
273.685341323291
 21
221.278615618393
 31
0.0
  0
LINE
  5
210
330
1F
100
AcDbEntity
  8
1
  6
Continuous
 62
     4
100
AcDbLine
 10
273.185341323291
 20
220.528615618393
 30
0.0
 11
273.435341323291
 21
221.028615618393
 31
0.0
  0
LINE
  5
211
330
1F
100
AcDbEntity
  8
1
  6
Continuous
 62
     4
100
AcDbLine
 10
273.060341323291
 20
219.778615618393
 30
0.0
 11
273.185341323291
 21
220.528615618393
 31
0.0
  0
LINE
  5
212
330
1F
100
AcDbEntity
  8
1
  6
Continuous
 62
     4
100
AcDbLine
 10
273.060341323291
 20
218.528615618393
 30
0.0
 11
273.060341323291
 21
219.778615618393
 31
0.0
  0
LINE
  5
213
330
1F
100
AcDbEntity
  8
1
  6
Continuous
 62
     4
100
AcDbLine
 10
273.185341323291
 20
217.778615618393
 30
0.0
 11
273.060341323291
 21
218.528615618393
 31
0.0
  0
LINE
  5
214
330
1F
100
AcDbEntity
  8
1
  6
Continuous
 62
     4
100
AcDbLine
 10
273.435341323291
 20
217.278615618393
 30
0.0
 11
273.185341323291
 21
217.778615618393
 31
0.0
  0
LINE
  5
215
330
1F
100
AcDbEntity
  8
1
  6
Continuous
 62
     4
100
AcDbLine
 10
273.685341323291
 20
217.028615618393
 30
0.0
 11
273.435341323291
 21
217.278615618393
 31
0.0
  0
LINE
  5
216
330
1F
100
AcDbEntity
  8
1
  6
Continuous
 62
     4
100
AcDbLine
 10
274.060341323291
 20
216.778615618393
 30
0.0
 11
273.685341323291
 21
217.028615618393
 31
0.0
  0
LINE
  5
217
330
1F
100
AcDbEntity
  8
1
  6
Continuous
 62
     4
100
AcDbLine
 10
274.435341323291
 20
216.653615618393
 30
0.0
 11
274.060341323291
 21
216.778615618393
 31
0.0
  0
LINE
  5
218
330
1F
100
AcDbEntity
  8
1
  6
Continuous
 62
     4
100
AcDbLine
 10
274.685341323291
 20
216.653615618393
 30
0.0
 11
274.435341323291
 21
216.653615618393
 31
0.0
  0
LINE
  5
219
330
1F
100
AcDbEntity
  8
1
  6
Continuous
 62
     4
100
AcDbLine
 10
275.060341323291
 20
216.778615618393
 30
0.0
 11
274.685341323291
 21
216.653615618393
 31
0.0
  0
LINE
  5
21A
330
1F
100
AcDbEntity
  8
1
  6
Continuous
 62
     4
100
AcDbLine
 10
275.435341323291
 20
217.028615618393
 30
0.0
 11
275.060341323291
 21
216.778615618393
 31
0.0
  0
LINE
  5
21B
330
1F
100
AcDbEntity
  8
1
  6
Continuous
 62
     4
100
AcDbLine
 10
275.685341323291
 20
217.278615618393
 30
0.0
 11
275.435341323291
 21
217.028615618393
 31
0.0
  0
LINE
  5
21C
330
1F
100
AcDbEntity
  8
1
  6
Continuous
 62
     4
100
AcDbLine
 10
275.935341323291
 20
217.778615618393
 30
0.0
 11
275.685341323291
 21
217.278615618393
 31
0.0
  0
LINE
  5
21D
330
1F
100
AcDbEntity
  8
1
  6
Continuous
 62
     4
100
AcDbLine
 10
276.060341323291
 20
218.528615618393
 30
0.0
 11
275.935341323291
 21
217.778615618393
 31
0.0
  0
LINE
  5
21E
330
1F
100
AcDbEntity
  8
1
  6
Continuous
 62
     4
100
AcDbLine
 10
270.810341323291
 20
218.653615618393
 30
0.0
 11
270.810341323291
 21
216.653615618393
 31
0.0
  0
LINE
  5
21F
330
1F
100
AcDbEntity
  8
1
  6
Continuous
 62
     4
100
AcDbLine
 10
268.560341323291
 20
217.653615618393
 30
0.0
 11
271.560341323291
 21
217.653615618393
 31
0.0
  0
LINE
  5
220
330
1F
100
AcDbEntity
  8
1
  6
Continuous
 62
     4
100
AcDbLine
 10
270.810341323291
 20
221.653615618393
 30
0.0
 11
268.560341323291
 21
217.653615618393
 31
0.0
  0
LINE
  5
221
330
1F
100
AcDbEntity
  8
1
  6
Continuous
 62
     4
100
AcDbLine
 10
256.310341323291
 20
218.653615618393
 30
0.0
 11
256.310341323291
 21
216.653615618393
 31
0.0
  0
LINE
  5
222
330
1F
100
AcDbEntity
  8
1
  6
Continuous
 62
     4
100
AcDbLine
 10
254.060341323291
 20
217.653615618393
 30
0.0
 11
257.060341323291
 21
217.653615618393
 31
0.0
  0
LINE
  5
223
330
1F
100
AcDbEntity
  8
1
  6
Continuous
 62
     4
100
AcDbLine
 10
256.310341323291
 20
221.653615618393
 30
0.0
 11
254.060341323291
 21
217.653615618393
 31
0.0
  0
LINE
  5
224
330
1F
100
AcDbEntity
  8
1
  6
Continuous
 62
     4
100
AcDbLine
 10
252.685341323291
 20
216.903615618393
 30
0.0
 11
252.685341323291
 21
216.778615618393
 31
0.0
  0
LINE
  5
225
330
1F
100
AcDbEntity
  8
1
  6
Continuous
 62
     4
100
AcDbLine
 10
252.560341323291
 20
216.903615618393
 30
0.0
 11
252.685341323291
 21
216.903615618393
 31
0.0
  0
LINE
  5
226
330
1F
100
AcDbEntity
  8
1
  6
Continuous
 62
     4
100
AcDbLine
 10
252.560341323291
 20
216.778615618393
 30
0.0
 11
252.560341323291
 21
216.903615618393
 31
0.0
  0
LINE
  5
227
330
1F
100
AcDbEntity
  8
1
  6
Continuous
 62
     4
100
AcDbLine
 10
252.685341323291
 20
216.778615618393
 30
0.0
 11
252.560341323291
 21
216.778615618393
 31
0.0
  0
LINE
  5
228
330
1F
100
AcDbEntity
  8
1
  6
Continuous
 62
     4
100
AcDbLine
 10
252.810341323291
 20
217.028615618393
 30
0.0
 11
252.810341323291
 21
216.653615618393
 31
0.0
  0
LINE
  5
229
330
1F
100
AcDbEntity
  8
1
  6
Continuous
 62
     4
100
AcDbLine
 10
252.435341323291
 20
217.028615618393
 30
0.0
 11
252.810341323291
 21
217.028615618393
 31
0.0
  0
LINE
  5
22A
330
1F
100
AcDbEntity
  8
1
  6
Continuous
 62
     4
100
AcDbLine
 10
252.435341323291
 20
216.653615618393
 30
0.0
 11
252.435341323291
 21
217.028615618393
 31
0.0
  0
LINE
  5
22B
330
1F
100
AcDbEntity
  8
1
  6
Continuous
 62
     4
100
AcDbLine
 10
252.810341323291
 20
216.653615618393
 30
0.0
 11
252.435341323291
 21
216.653615618393
 31
0.0
  0
LINE
  5
22C
330
1F
100
AcDbEntity
  8
1
  6
Continuous
 62
     4
100
AcDbLine
 10
250.935341323291
 20
219.778615618393
 30
0.0
 11
250.935341323291
 21
218.528615618393
 31
0.0
  0
LINE
  5
22D
330
1F
100
AcDbEntity
  8
1
  6
Continuous
 62
     4
100
AcDbLine
 10
250.810341323291
 20
220.528615618393
 30
0.0
 11
250.935341323291
 21
219.778615618393
 31
0.0
  0
LINE
  5
22E
330
1F
100
AcDbEntity
  8
1
  6
Continuous
 62
     4
100
AcDbLine
 10
250.560341323291
 20
221.028615618393
 30
0.0
 11
250.810341323291
 21
220.528615618393
 31
0.0
  0
LINE
  5
22F
330
1F
100
AcDbEntity
  8
1
  6
Continuous
 62
     4
100
AcDbLine
 10
250.310341323291
 20
221.278615618393
 30
0.0
 11
250.560341323291
 21
221.028615618393
 31
0.0
  0
LINE
  5
230
330
1F
100
AcDbEntity
  8
1
  6
Continuous
 62
     4
100
AcDbLine
 10
249.935341323291
 20
221.528615618393
 30
0.0
 11
250.310341323291
 21
221.278615618393
 31
0.0
  0
LINE
  5
231
330
1F
100
AcDbEntity
  8
1
  6
Continuous
 62
     4
100
AcDbLine
 10
249.560341323291
 20
221.653615618393
 30
0.0
 11
249.935341323291
 21
221.528615618393
 31
0.0
  0
LINE
  5
232
330
1F
100
AcDbEntity
  8
1
  6
Continuous
 62
     4
100
AcDbLine
 10
249.310341323291
 20
221.653615618393
 30
0.0
 11
249.560341323291
 21
221.653615618393
 31
0.0
  0
LINE
  5
233
330
1F
100
AcDbEntity
  8
1
  6
Continuous
 62
     4
100
AcDbLine
 10
248.935341323291
 20
221.528615618393
 30
0.0
 11
249.310341323291
 21
221.653615618393
 31
0.0
  0
LINE
  5
234
330
1F
100
AcDbEntity
  8
1
  6
Continuous
 62
     4
100
AcDbLine
 10
248.560341323291
 20
221.278615618393
 30
0.0
 11
248.935341323291
 21
221.528615618393
 31
0.0
  0
LINE
  5
235
330
1F
100
AcDbEntity
  8
1
  6
Continuous
 62
     4
100
AcDbLine
 10
248.310341323291
 20
221.028615618393
 30
0.0
 11
248.560341323291
 21
221.278615618393
 31
0.0
  0
LINE
  5
236
330
1F
100
AcDbEntity
  8
1
  6
Continuous
 62
     4
100
AcDbLine
 10
248.060341323291
 20
220.528615618393
 30
0.0
 11
248.310341323291
 21
221.028615618393
 31
0.0
  0
LINE
  5
237
330
1F
100
AcDbEntity
  8
1
  6
Continuous
 62
     4
100
AcDbLine
 10
247.935341323291
 20
219.778615618393
 30
0.0
 11
248.060341323291
 21
220.528615618393
 31
0.0
  0
LINE
  5
238
330
1F
100
AcDbEntity
  8
1
  6
Continuous
 62
     4
100
AcDbLine
 10
247.935341323291
 20
218.528615618393
 30
0.0
 11
247.935341323291
 21
219.778615618393
 31
0.0
  0
LINE
  5
239
330
1F
100
AcDbEntity
  8
1
  6
Continuous
 62
     4
100
AcDbLine
 10
248.060341323291
 20
217.778615618393
 30
0.0
 11
247.935341323291
 21
218.528615618393
 31
0.0
  0
LINE
  5
23A
330
1F
100
AcDbEntity
  8
1
  6
Continuous
 62
     4
100
AcDbLine
 10
248.310341323291
 20
217.278615618393
 30
0.0
 11
248.060341323291
 21
217.778615618393
 31
0.0
  0
LINE
  5
23B
330
1F
100
AcDbEntity
  8
1
  6
Continuous
 62
     4
100
AcDbLine
 10
248.560341323291
 20
217.028615618393
 30
0.0
 11
248.310341323291
 21
217.278615618393
 31
0.0
  0
LINE
  5
23C
330
1F
100
AcDbEntity
  8
1
  6
Continuous
 62
     4
100
AcDbLine
 10
248.935341323291
 20
216.778615618393
 30
0.0
 11
248.560341323291
 21
217.028615618393
 31
0.0
  0
LINE
  5
23D
330
1F
100
AcDbEntity
  8
1
  6
Continuous
 62
     4
100
AcDbLine
 10
249.310341323291
 20
216.653615618393
 30
0.0
 11
248.935341323291
 21
216.778615618393
 31
0.0
  0
LINE
  5
23E
330
1F
100
AcDbEntity
  8
1
  6
Continuous
 62
     4
100
AcDbLine
 10
249.560341323291
 20
216.653615618393
 30
0.0
 11
249.310341323291
 21
216.653615618393
 31
0.0
  0
LINE
  5
23F
330
1F
100
AcDbEntity
  8
1
  6
Continuous
 62
     4
100
AcDbLine
 10
249.935341323291
 20
216.778615618393
 30
0.0
 11
249.560341323291
 21
216.653615618393
 31
0.0
  0
LINE
  5
240
330
1F
100
AcDbEntity
  8
1
  6
Continuous
 62
     4
100
AcDbLine
 10
250.310341323291
 20
217.028615618393
 30
0.0
 11
249.935341323291
 21
216.778615618393
 31
0.0
  0
LINE
  5
241
330
1F
100
AcDbEntity
  8
1
  6
Continuous
 62
     4
100
AcDbLine
 10
250.560341323291
 20
217.278615618393
 30
0.0
 11
250.310341323291
 21
217.028615618393
 31
0.0
  0
LINE
  5
242
330
1F
100
AcDbEntity
  8
1
  6
Continuous
 62
     4
100
AcDbLine
 10
250.810341323291
 20
217.778615618393
 30
0.0
 11
250.560341323291
 21
217.278615618393
 31
0.0
  0
LINE
  5
243
330
1F
100
AcDbEntity
  8
1
  6
Continuous
 62
     4
100
AcDbLine
 10
250.935341323291
 20
218.528615618393
 30
0.0
 11
250.810341323291
 21
217.778615618393
 31
0.0
  0
LINE
  5
244
330
1F
100
AcDbEntity
  8
1
  6
Continuous
 62
     4
100
AcDbLine
 10
277.560341323291
 20
224.983615618393
 30
0.0
 11
280.560341323291
 21
224.983615618393
 31
0.0
  0
LINE
  5
245
330
1F
100
AcDbEntity
  8
1
  6
Continuous
 62
     4
100
AcDbLine
 10
280.310341323291
 20
228.233615618393
 30
0.0
 11
277.560341323291
 21
224.983615618393
 31
0.0
  0
LINE
  5
246
330
1F
100
AcDbEntity
  8
1
  6
Continuous
 62
     4
100
AcDbLine
 10
280.560341323291
 20
228.733615618393
 30
0.0
 11
280.310341323291
 21
228.233615618393
 31
0.0
  0
LINE
  5
247
330
1F
100
AcDbEntity
  8
1
  6
Continuous
 62
     4
100
AcDbLine
 10
280.560341323291
 20
229.233615618393
 30
0.0
 11
280.560341323291
 21
228.733615618393
 31
0.0
  0
LINE
  5
248
330
1F
100
AcDbEntity
  8
1
  6
Continuous
 62
     4
100
AcDbLine
 10
280.310341323291
 20
229.608615618393
 30
0.0
 11
280.560341323291
 21
229.233615618393
 31
0.0
  0
LINE
  5
249
330
1F
100
AcDbEntity
  8
1
  6
Continuous
 62
     4
100
AcDbLine
 10
279.935341323291
 20
229.858615618393
 30
0.0
 11
280.310341323291
 21
229.608615618393
 31
0.0
  0
LINE
  5
24A
330
1F
100
AcDbEntity
  8
1
  6
Continuous
 62
     4
100
AcDbLine
 10
279.435341323291
 20
229.983615618393
 30
0.0
 11
279.935341323291
 21
229.858615618393
 31
0.0
  0
LINE
  5
24B
330
1F
100
AcDbEntity
  8
1
  6
Continuous
 62
     4
100
AcDbLine
 10
278.685341323291
 20
229.983615618393
 30
0.0
 11
279.435341323291
 21
229.983615618393
 31
0.0
  0
LINE
  5
24C
330
1F
100
AcDbEntity
  8
1
  6
Continuous
 62
     4
100
AcDbLine
 10
278.185341323291
 20
229.858615618393
 30
0.0
 11
278.685341323291
 21
229.983615618393
 31
0.0
  0
LINE
  5
24D
330
1F
100
AcDbEntity
  8
1
  6
Continuous
 62
     4
100
AcDbLine
 10
277.810341323291
 20
229.608615618393
 30
0.0
 11
278.185341323291
 21
229.858615618393
 31
0.0
  0
LINE
  5
24E
330
1F
100
AcDbEntity
  8
1
  6
Continuous
 62
     4
100
AcDbLine
 10
277.560341323291
 20
229.233615618393
 30
0.0
 11
277.810341323291
 21
229.608615618393
 31
0.0
  0
LINE
  5
24F
330
1F
100
AcDbEntity
  8
1
  6
Continuous
 62
     4
100
AcDbLine
 10
276.060341323291
 20
228.108615618393
 30
0.0
 11
276.060341323291
 21
226.858615618393
 31
0.0
  0
LINE
  5
250
330
1F
100
AcDbEntity
  8
1
  6
Continuous
 62
     4
100
AcDbLine
 10
275.935341323291
 20
228.858615618393
 30
0.0
 11
276.060341323291
 21
228.108615618393
 31
0.0
  0
LINE
  5
251
330
1F
100
AcDbEntity
  8
1
  6
Continuous
 62
     4
100
AcDbLine
 10
275.685341323291
 20
229.358615618393
 30
0.0
 11
275.935341323291
 21
228.858615618393
 31
0.0
  0
LINE
  5
252
330
1F
100
AcDbEntity
  8
1
  6
Continuous
 62
     4
100
AcDbLine
 10
275.435341323291
 20
229.608615618393
 30
0.0
 11
275.685341323291
 21
229.358615618393
 31
0.0
  0
LINE
  5
253
330
1F
100
AcDbEntity
  8
1
  6
Continuous
 62
     4
100
AcDbLine
 10
275.060341323291
 20
229.858615618393
 30
0.0
 11
275.435341323291
 21
229.608615618393
 31
0.0
  0
LINE
  5
254
330
1F
100
AcDbEntity
  8
1
  6
Continuous
 62
     4
100
AcDbLine
 10
274.685341323291
 20
229.983615618393
 30
0.0
 11
275.060341323291
 21
229.858615618393
 31
0.0
  0
LINE
  5
255
330
1F
100
AcDbEntity
  8
1
  6
Continuous
 62
     4
100
AcDbLine
 10
274.435341323291
 20
229.983615618393
 30
0.0
 11
274.685341323291
 21
229.983615618393
 31
0.0
  0
LINE
  5
256
330
1F
100
AcDbEntity
  8
1
  6
Continuous
 62
     4
100
AcDbLine
 10
274.060341323291
 20
229.858615618393
 30
0.0
 11
274.435341323291
 21
229.983615618393
 31
0.0
  0
LINE
  5
257
330
1F
100
AcDbEntity
  8
1
  6
Continuous
 62
     4
100
AcDbLine
 10
273.685341323291
 20
229.608615618393
 30
0.0
 11
274.060341323291
 21
229.858615618393
 31
0.0
  0
LINE
  5
258
330
1F
100
AcDbEntity
  8
1
  6
Continuous
 62
     4
100
AcDbLine
 10
273.435341323291
 20
229.358615618393
 30
0.0
 11
273.685341323291
 21
229.608615618393
 31
0.0
  0
LINE
  5
259
330
1F
100
AcDbEntity
  8
1
  6
Continuous
 62
     4
100
AcDbLine
 10
273.185341323291
 20
228.858615618393
 30
0.0
 11
273.435341323291
 21
229.358615618393
 31
0.0
  0
LINE
  5
25A
330
1F
100
AcDbEntity
  8
1
  6
Continuous
 62
     4
100
AcDbLine
 10
273.060341323291
 20
228.108615618393
 30
0.0
 11
273.185341323291
 21
228.858615618393
 31
0.0
  0
LINE
  5
25B
330
1F
100
AcDbEntity
  8
1
  6
Continuous
 62
     4
100
AcDbLine
 10
273.060341323291
 20
226.858615618393
 30
0.0
 11
273.060341323291
 21
228.108615618393
 31
0.0
  0
LINE
  5
25C
330
1F
100
AcDbEntity
  8
1
  6
Continuous
 62
     4
100
AcDbLine
 10
273.185341323291
 20
226.108615618393
 30
0.0
 11
273.060341323291
 21
226.858615618393
 31
0.0
  0
LINE
  5
25D
330
1F
100
AcDbEntity
  8
1
  6
Continuous
 62
     4
100
AcDbLine
 10
273.435341323291
 20
225.608615618393
 30
0.0
 11
273.185341323291
 21
226.108615618393
 31
0.0
  0
LINE
  5
25E
330
1F
100
AcDbEntity
  8
1
  6
Continuous
 62
     4
100
AcDbLine
 10
273.685341323291
 20
225.358615618393
 30
0.0
 11
273.435341323291
 21
225.608615618393
 31
0.0
  0
LINE
  5
25F
330
1F
100
AcDbEntity
  8
1
  6
Continuous
 62
     4
100
AcDbLine
 10
274.060341323291
 20
225.108615618393
 30
0.0
 11
273.685341323291
 21
225.358615618393
 31
0.0
  0
LINE
  5
260
330
1F
100
AcDbEntity
  8
1
  6
Continuous
 62
     4
100
AcDbLine
 10
274.435341323291
 20
224.983615618393
 30
0.0
 11
274.060341323291
 21
225.108615618393
 31
0.0
  0
LINE
  5
261
330
1F
100
AcDbEntity
  8
1
  6
Continuous
 62
     4
100
AcDbLine
 10
274.685341323291
 20
224.983615618393
 30
0.0
 11
274.435341323291
 21
224.983615618393
 31
0.0
  0
LINE
  5
262
330
1F
100
AcDbEntity
  8
1
  6
Continuous
 62
     4
100
AcDbLine
 10
275.060341323291
 20
225.108615618393
 30
0.0
 11
274.685341323291
 21
224.983615618393
 31
0.0
  0
LINE
  5
263
330
1F
100
AcDbEntity
  8
1
  6
Continuous
 62
     4
100
AcDbLine
 10
275.435341323291
 20
225.358615618393
 30
0.0
 11
275.060341323291
 21
225.108615618393
 31
0.0
  0
LINE
  5
264
330
1F
100
AcDbEntity
  8
1
  6
Continuous
 62
     4
100
AcDbLine
 10
275.685341323291
 20
225.608615618393
 30
0.0
 11
275.435341323291
 21
225.358615618393
 31
0.0
  0
LINE
  5
265
330
1F
100
AcDbEntity
  8
1
  6
Continuous
 62
     4
100
AcDbLine
 10
275.935341323291
 20
226.108615618393
 30
0.0
 11
275.685341323291
 21
225.608615618393
 31
0.0
  0
LINE
  5
266
330
1F
100
AcDbEntity
  8
1
  6
Continuous
 62
     4
100
AcDbLine
 10
276.060341323291
 20
226.858615618393
 30
0.0
 11
275.935341323291
 21
226.108615618393
 31
0.0
  0
LINE
  5
267
330
1F
100
AcDbEntity
  8
1
  6
Continuous
 62
     4
100
AcDbLine
 10
270.435341323291
 20
224.983615618393
 30
0.0
 11
268.560341323291
 21
224.983615618393
 31
0.0
  0
LINE
  5
268
330
1F
100
AcDbEntity
  8
1
  6
Continuous
 62
     4
100
AcDbLine
 10
270.810341323291
 20
225.108615618393
 30
0.0
 11
270.435341323291
 21
224.983615618393
 31
0.0
  0
LINE
  5
269
330
1F
100
AcDbEntity
  8
1
  6
Continuous
 62
     4
100
AcDbLine
 10
271.185341323291
 20
225.358615618393
 30
0.0
 11
270.810341323291
 21
225.108615618393
 31
0.0
  0
LINE
  5
26A
330
1F
100
AcDbEntity
  8
1
  6
Continuous
 62
     4
100
AcDbLine
 10
271.435341323291
 20
225.733615618393
 30
0.0
 11
271.185341323291
 21
225.358615618393
 31
0.0
  0
LINE
  5
26B
330
1F
100
AcDbEntity
  8
1
  6
Continuous
 62
     4
100
AcDbLine
 10
271.560341323291
 20
226.233615618393
 30
0.0
 11
271.435341323291
 21
225.733615618393
 31
0.0
  0
LINE
  5
26C
330
1F
100
AcDbEntity
  8
1
  6
Continuous
 62
     4
100
AcDbLine
 10
271.560341323291
 20
226.858615618393
 30
0.0
 11
271.560341323291
 21
226.233615618393
 31
0.0
  0
LINE
  5
26D
330
1F
100
AcDbEntity
  8
1
  6
Continuous
 62
     4
100
AcDbLine
 10
271.435341323291
 20
227.358615618393
 30
0.0
 11
271.560341323291
 21
226.858615618393
 31
0.0
  0
LINE
  5
26E
330
1F
100
AcDbEntity
  8
1
  6
Continuous
 62
     4
100
AcDbLine
 10
271.310341323291
 20
227.608615618393
 30
0.0
 11
271.435341323291
 21
227.358615618393
 31
0.0
  0
LINE
  5
26F
330
1F
100
AcDbEntity
  8
1
  6
Continuous
 62
     4
100
AcDbLine
 10
271.060341323291
 20
227.858615618393
 30
0.0
 11
271.310341323291
 21
227.608615618393
 31
0.0
  0
LINE
  5
270
330
1F
100
AcDbEntity
  8
1
  6
Continuous
 62
     4
100
AcDbLine
 10
270.560341323291
 20
227.983615618393
 30
0.0
 11
271.060341323291
 21
227.858615618393
 31
0.0
  0
LINE
  5
271
330
1F
100
AcDbEntity
  8
1
  6
Continuous
 62
     4
100
AcDbLine
 10
270.935341323291
 20
228.108615618393
 30
0.0
 11
270.560341323291
 21
227.983615618393
 31
0.0
  0
LINE
  5
272
330
1F
100
AcDbEntity
  8
1
  6
Continuous
 62
     4
100
AcDbLine
 10
271.185341323291
 20
228.233615618393
 30
0.0
 11
270.935341323291
 21
228.108615618393
 31
0.0
  0
LINE
  5
273
330
1F
100
AcDbEntity
  8
1
  6
Continuous
 62
     4
100
AcDbLine
 10
271.435341323291
 20
228.483615618393
 30
0.0
 11
271.185341323291
 21
228.233615618393
 31
0.0
  0
LINE
  5
274
330
1F
100
AcDbEntity
  8
1
  6
Continuous
 62
     4
100
AcDbLine
 10
271.560341323291
 20
228.858615618393
 30
0.0
 11
271.435341323291
 21
228.483615618393
 31
0.0
  0
LINE
  5
275
330
1F
100
AcDbEntity
  8
1
  6
Continuous
 62
     4
100
AcDbLine
 10
271.560341323291
 20
229.233615618393
 30
0.0
 11
271.560341323291
 21
228.858615618393
 31
0.0
  0
LINE
  5
276
330
1F
100
AcDbEntity
  8
1
  6
Continuous
 62
     4
100
AcDbLine
 10
271.435341323291
 20
229.608615618393
 30
0.0
 11
271.560341323291
 21
229.233615618393
 31
0.0
  0
LINE
  5
277
330
1F
100
AcDbEntity
  8
1
  6
Continuous
 62
     4
100
AcDbLine
 10
271.060341323291
 20
229.858615618393
 30
0.0
 11
271.435341323291
 21
229.608615618393
 31
0.0
  0
LINE
  5
278
330
1F
100
AcDbEntity
  8
1
  6
Continuous
 62
     4
100
AcDbLine
 10
270.435341323291
 20
229.983615618393
 30
0.0
 11
271.060341323291
 21
229.858615618393
 31
0.0
  0
LINE
  5
279
330
1F
100
AcDbEntity
  8
1
  6
Continuous
 62
     4
100
AcDbLine
 10
268.560341323291
 20
229.983615618393
 30
0.0
 11
270.435341323291
 21
229.983615618393
 31
0.0
  0
LINE
  5
27A
330
1F
100
AcDbEntity
  8
1
  6
Continuous
 62
     4
100
AcDbLine
 10
269.310341323291
 20
227.983615618393
 30
0.0
 11
270.560341323291
 21
227.983615618393
 31
0.0
  0
LINE
  5
27B
330
1F
100
AcDbEntity
  8
1
  6
Continuous
 62
     4
100
AcDbLine
 10
255.935341323291
 20
224.983615618393
 30
0.0
 11
254.060341323291
 21
224.983615618393
 31
0.0
  0
LINE
  5
27C
330
1F
100
AcDbEntity
  8
1
  6
Continuous
 62
     4
100
AcDbLine
 10
256.310341323291
 20
225.108615618393
 30
0.0
 11
255.935341323291
 21
224.983615618393
 31
0.0
  0
LINE
  5
27D
330
1F
100
AcDbEntity
  8
1
  6
Continuous
 62
     4
100
AcDbLine
 10
256.685341323291
 20
225.358615618393
 30
0.0
 11
256.310341323291
 21
225.108615618393
 31
0.0
  0
LINE
  5
27E
330
1F
100
AcDbEntity
  8
1
  6
Continuous
 62
     4
100
AcDbLine
 10
256.935341323291
 20
225.733615618393
 30
0.0
 11
256.685341323291
 21
225.358615618393
 31
0.0
  0
LINE
  5
27F
330
1F
100
AcDbEntity
  8
1
  6
Continuous
 62
     4
100
AcDbLine
 10
257.060341323291
 20
226.233615618393
 30
0.0
 11
256.935341323291
 21
225.733615618393
 31
0.0
  0
LINE
  5
280
330
1F
100
AcDbEntity
  8
1
  6
Continuous
 62
     4
100
AcDbLine
 10
257.060341323291
 20
226.858615618393
 30
0.0
 11
257.060341323291
 21
226.233615618393
 31
0.0
  0
LINE
  5
281
330
1F
100
AcDbEntity
  8
1
  6
Continuous
 62
     4
100
AcDbLine
 10
256.935341323291
 20
227.358615618393
 30
0.0
 11
257.060341323291
 21
226.858615618393
 31
0.0
  0
LINE
  5
282
330
1F
100
AcDbEntity
  8
1
  6
Continuous
 62
     4
100
AcDbLine
 10
256.810341323291
 20
227.608615618393
 30
0.0
 11
256.935341323291
 21
227.358615618393
 31
0.0
  0
LINE
  5
283
330
1F
100
AcDbEntity
  8
1
  6
Continuous
 62
     4
100
AcDbLine
 10
256.560341323291
 20
227.858615618393
 30
0.0
 11
256.810341323291
 21
227.608615618393
 31
0.0
  0
LINE
  5
284
330
1F
100
AcDbEntity
  8
1
  6
Continuous
 62
     4
100
AcDbLine
 10
256.060341323291
 20
227.983615618393
 30
0.0
 11
256.560341323291
 21
227.858615618393
 31
0.0
  0
LINE
  5
285
330
1F
100
AcDbEntity
  8
1
  6
Continuous
 62
     4
100
AcDbLine
 10
256.435341323291
 20
228.108615618393
 30
0.0
 11
256.060341323291
 21
227.983615618393
 31
0.0
  0
LINE
  5
286
330
1F
100
AcDbEntity
  8
1
  6
Continuous
 62
     4
100
AcDbLine
 10
256.685341323291
 20
228.233615618393
 30
0.0
 11
256.435341323291
 21
228.108615618393
 31
0.0
  0
LINE
  5
287
330
1F
100
AcDbEntity
  8
1
  6
Continuous
 62
     4
100
AcDbLine
 10
256.935341323291
 20
228.483615618393
 30
0.0
 11
256.685341323291
 21
228.233615618393
 31
0.0
  0
LINE
  5
288
330
1F
100
AcDbEntity
  8
1
  6
Continuous
 62
     4
100
AcDbLine
 10
257.060341323291
 20
228.858615618393
 30
0.0
 11
256.935341323291
 21
228.483615618393
 31
0.0
  0
LINE
  5
289
330
1F
100
AcDbEntity
  8
1
  6
Continuous
 62
     4
100
AcDbLine
 10
257.060341323291
 20
229.233615618393
 30
0.0
 11
257.060341323291
 21
228.858615618393
 31
0.0
  0
LINE
  5
28A
330
1F
100
AcDbEntity
  8
1
  6
Continuous
 62
     4
100
AcDbLine
 10
256.935341323291
 20
229.608615618393
 30
0.0
 11
257.060341323291
 21
229.233615618393
 31
0.0
  0
LINE
  5
28B
330
1F
100
AcDbEntity
  8
1
  6
Continuous
 62
     4
100
AcDbLine
 10
256.560341323291
 20
229.858615618393
 30
0.0
 11
256.935341323291
 21
229.608615618393
 31
0.0
  0
LINE
  5
28C
330
1F
100
AcDbEntity
  8
1
  6
Continuous
 62
     4
100
AcDbLine
 10
255.935341323291
 20
229.983615618393
 30
0.0
 11
256.560341323291
 21
229.858615618393
 31
0.0
  0
LINE
  5
28D
330
1F
100
AcDbEntity
  8
1
  6
Continuous
 62
     4
100
AcDbLine
 10
254.060341323291
 20
229.983615618393
 30
0.0
 11
255.935341323291
 21
229.983615618393
 31
0.0
  0
LINE
  5
28E
330
1F
100
AcDbEntity
  8
1
  6
Continuous
 62
     4
100
AcDbLine
 10
254.810341323291
 20
227.983615618393
 30
0.0
 11
256.060341323291
 21
227.983615618393
 31
0.0
  0
LINE
  5
28F
330
1F
100
AcDbEntity
  8
1
  6
Continuous
 62
     4
100
AcDbLine
 10
252.685341323291
 20
225.233615618393
 30
0.0
 11
252.685341323291
 21
225.108615618393
 31
0.0
  0
LINE
  5
290
330
1F
100
AcDbEntity
  8
1
  6
Continuous
 62
     4
100
AcDbLine
 10
252.560341323291
 20
225.233615618393
 30
0.0
 11
252.685341323291
 21
225.233615618393
 31
0.0
  0
LINE
  5
291
330
1F
100
AcDbEntity
  8
1
  6
Continuous
 62
     4
100
AcDbLine
 10
252.560341323291
 20
225.108615618393
 30
0.0
 11
252.560341323291
 21
225.233615618393
 31
0.0
  0
LINE
  5
292
330
1F
100
AcDbEntity
  8
1
  6
Continuous
 62
     4
100
AcDbLine
 10
252.685341323291
 20
225.108615618393
 30
0.0
 11
252.560341323291
 21
225.108615618393
 31
0.0
  0
LINE
  5
293
330
1F
100
AcDbEntity
  8
1
  6
Continuous
 62
     4
100
AcDbLine
 10
252.810341323291
 20
225.358615618393
 30
0.0
 11
252.810341323291
 21
224.983615618393
 31
0.0
  0
LINE
  5
294
330
1F
100
AcDbEntity
  8
1
  6
Continuous
 62
     4
100
AcDbLine
 10
252.435341323291
 20
225.358615618393
 30
0.0
 11
252.810341323291
 21
225.358615618393
 31
0.0
  0
LINE
  5
295
330
1F
100
AcDbEntity
  8
1
  6
Continuous
 62
     4
100
AcDbLine
 10
252.435341323291
 20
224.983615618393
 30
0.0
 11
252.435341323291
 21
225.358615618393
 31
0.0
  0
LINE
  5
296
330
1F
100
AcDbEntity
  8
1
  6
Continuous
 62
     4
100
AcDbLine
 10
252.810341323291
 20
224.983615618393
 30
0.0
 11
252.435341323291
 21
224.983615618393
 31
0.0
  0
LINE
  5
297
330
1F
100
AcDbEntity
  8
1
  6
Continuous
 62
     4
100
AcDbLine
 10
250.935341323291
 20
228.108615618393
 30
0.0
 11
250.935341323291
 21
226.858615618393
 31
0.0
  0
LINE
  5
298
330
1F
100
AcDbEntity
  8
1
  6
Continuous
 62
     4
100
AcDbLine
 10
250.810341323291
 20
228.858615618393
 30
0.0
 11
250.935341323291
 21
228.108615618393
 31
0.0
  0
LINE
  5
299
330
1F
100
AcDbEntity
  8
1
  6
Continuous
 62
     4
100
AcDbLine
 10
250.560341323291
 20
229.358615618393
 30
0.0
 11
250.810341323291
 21
228.858615618393
 31
0.0
  0
LINE
  5
29A
330
1F
100
AcDbEntity
  8
1
  6
Continuous
 62
     4
100
AcDbLine
 10
250.310341323291
 20
229.608615618393
 30
0.0
 11
250.560341323291
 21
229.358615618393
 31
0.0
  0
LINE
  5
29B
330
1F
100
AcDbEntity
  8
1
  6
Continuous
 62
     4
100
AcDbLine
 10
249.935341323291
 20
229.858615618393
 30
0.0
 11
250.310341323291
 21
229.608615618393
 31
0.0
  0
LINE
  5
29C
330
1F
100
AcDbEntity
  8
1
  6
Continuous
 62
     4
100
AcDbLine
 10
249.560341323291
 20
229.983615618393
 30
0.0
 11
249.935341323291
 21
229.858615618393
 31
0.0
  0
LINE
  5
29D
330
1F
100
AcDbEntity
  8
1
  6
Continuous
 62
     4
100
AcDbLine
 10
249.310341323291
 20
229.983615618393
 30
0.0
 11
249.560341323291
 21
229.983615618393
 31
0.0
  0
LINE
  5
29E
330
1F
100
AcDbEntity
  8
1
  6
Continuous
 62
     4
100
AcDbLine
 10
248.935341323291
 20
229.858615618393
 30
0.0
 11
249.310341323291
 21
229.983615618393
 31
0.0
  0
LINE
  5
29F
330
1F
100
AcDbEntity
  8
1
  6
Continuous
 62
     4
100
AcDbLine
 10
248.560341323291
 20
229.608615618393
 30
0.0
 11
248.935341323291
 21
229.858615618393
 31
0.0
  0
LINE
  5
2A0
330
1F
100
AcDbEntity
  8
1
  6
Continuous
 62
     4
100
AcDbLine
 10
248.310341323291
 20
229.358615618393
 30
0.0
 11
248.560341323291
 21
229.608615618393
 31
0.0
  0
LINE
  5
2A1
330
1F
100
AcDbEntity
  8
1
  6
Continuous
 62
     4
100
AcDbLine
 10
248.060341323291
 20
228.858615618393
 30
0.0
 11
248.310341323291
 21
229.358615618393
 31
0.0
  0
LINE
  5
2A2
330
1F
100
AcDbEntity
  8
1
  6
Continuous
 62
     4
100
AcDbLine
 10
247.935341323291
 20
228.108615618393
 30
0.0
 11
248.060341323291
 21
228.858615618393
 31
0.0
  0
LINE
  5
2A3
330
1F
100
AcDbEntity
  8
1
  6
Continuous
 62
     4
100
AcDbLine
 10
247.935341323291
 20
226.858615618393
 30
0.0
 11
247.935341323291
 21
228.108615618393
 31
0.0
  0
LINE
  5
2A4
330
1F
100
AcDbEntity
  8
1
  6
Continuous
 62
     4
100
AcDbLine
 10
248.060341323291
 20
226.108615618393
 30
0.0
 11
247.935341323291
 21
226.858615618393
 31
0.0
  0
LINE
  5
2A5
330
1F
100
AcDbEntity
  8
1
  6
Continuous
 62
     4
100
AcDbLine
 10
248.310341323291
 20
225.608615618393
 30
0.0
 11
248.060341323291
 21
226.108615618393
 31
0.0
  0
LINE
  5
2A6
330
1F
100
AcDbEntity
  8
1
  6
Continuous
 62
     4
100
AcDbLine
 10
248.560341323291
 20
225.358615618393
 30
0.0
 11
248.310341323291
 21
225.608615618393
 31
0.0
  0
LINE
  5
2A7
330
1F
100
AcDbEntity
  8
1
  6
Continuous
 62
     4
100
AcDbLine
 10
248.935341323291
 20
225.108615618393
 30
0.0
 11
248.560341323291
 21
225.358615618393
 31
0.0
  0
LINE
  5
2A8
330
1F
100
AcDbEntity
  8
1
  6
Continuous
 62
     4
100
AcDbLine
 10
249.310341323291
 20
224.983615618393
 30
0.0
 11
248.935341323291
 21
225.108615618393
 31
0.0
  0
LINE
  5
2A9
330
1F
100
AcDbEntity
  8
1
  6
Continuous
 62
     4
100
AcDbLine
 10
249.560341323291
 20
224.983615618393
 30
0.0
 11
249.310341323291
 21
224.983615618393
 31
0.0
  0
LINE
  5
2AA
330
1F
100
AcDbEntity
  8
1
  6
Continuous
 62
     4
100
AcDbLine
 10
249.935341323291
 20
225.108615618393
 30
0.0
 11
249.560341323291
 21
224.983615618393
 31
0.0
  0
LINE
  5
2AB
330
1F
100
AcDbEntity
  8
1
  6
Continuous
 62
     4
100
AcDbLine
 10
250.310341323291
 20
225.358615618393
 30
0.0
 11
249.935341323291
 21
225.108615618393
 31
0.0
  0
LINE
  5
2AC
330
1F
100
AcDbEntity
  8
1
  6
Continuous
 62
     4
100
AcDbLine
 10
250.560341323291
 20
225.608615618393
 30
0.0
 11
250.310341323291
 21
225.358615618393
 31
0.0
  0
LINE
  5
2AD
330
1F
100
AcDbEntity
  8
1
  6
Continuous
 62
     4
100
AcDbLine
 10
250.810341323291
 20
226.108615618393
 30
0.0
 11
250.560341323291
 21
225.608615618393
 31
0.0
  0
LINE
  5
2AE
330
1F
100
AcDbEntity
  8
1
  6
Continuous
 62
     4
100
AcDbLine
 10
250.935341323291
 20
226.858615618393
 30
0.0
 11
250.810341323291
 21
226.108615618393
 31
0.0
  0
LINE
  5
2AF
330
1F
100
AcDbEntity
  8
1
  6
Continuous
 62
     4
100
AcDbLine
 10
277.435341323291
 20
233.313615618393
 30
0.0
 11
277.435341323291
 21
238.313615618393
 31
0.0
  0
LINE
  5
2B0
330
1F
100
AcDbEntity
  8
1
  6
Continuous
 62
     4
100
AcDbLine
 10
280.435341323291
 20
233.313615618393
 30
0.0
 11
277.435341323291
 21
233.313615618393
 31
0.0
  0
LINE
  5
2B1
330
1F
100
AcDbEntity
  8
1
  6
Continuous
 62
     4
100
AcDbLine
 10
265.685341323291
 20
234.313615618393
 30
0.0
 11
265.185341323291
 21
233.313615618393
 31
0.0
  0
LINE
  5
2B2
330
1F
100
AcDbEntity
  8
1
  6
Continuous
 62
     4
100
AcDbLine
 10
265.935341323291
 20
235.313615618393
 30
0.0
 11
265.685341323291
 21
234.313615618393
 31
0.0
  0
LINE
  5
2B3
330
1F
100
AcDbEntity
  8
1
  6
Continuous
 62
     4
100
AcDbLine
 10
265.935341323291
 20
236.313615618393
 30
0.0
 11
265.935341323291
 21
235.313615618393
 31
0.0
  0
LINE
  5
2B4
330
1F
100
AcDbEntity
  8
1
  6
Continuous
 62
     4
100
AcDbLine
 10
265.685341323291
 20
237.313615618393
 30
0.0
 11
265.935341323291
 21
236.313615618393
 31
0.0
  0
LINE
  5
2B5
330
1F
100
AcDbEntity
  8
1
  6
Continuous
 62
     4
100
AcDbLine
 10
265.185341323291
 20
238.313615618393
 30
0.0
 11
265.685341323291
 21
237.313615618393
 31
0.0
  0
LINE
  5
2B6
330
1F
100
AcDbEntity
  8
1
  6
Continuous
 62
     4
100
AcDbLine
 10
261.935341323291
 20
236.813615618393
 30
0.0
 11
262.935341323291
 21
236.813615618393
 31
0.0
  0
LINE
  5
2B7
330
1F
100
AcDbEntity
  8
1
  6
Continuous
 62
     4
100
AcDbLine
 10
261.935341323291
 20
236.813615618393
 30
0.0
 11
261.935341323291
 21
233.313615618393
 31
0.0
  0
LINE
  5
2B8
330
1F
100
AcDbEntity
  8
1
  6
Continuous
 62
     4
100
AcDbLine
 10
263.685341323291
 20
236.188615618393
 30
0.0
 11
263.685341323291
 21
233.313615618393
 31
0.0
  0
LINE
  5
2B9
330
1F
100
AcDbEntity
  8
1
  6
Continuous
 62
     4
100
AcDbLine
 10
263.560341323291
 20
236.438615618393
 30
0.0
 11
263.685341323291
 21
236.188615618393
 31
0.0
  0
LINE
  5
2BA
330
1F
100
AcDbEntity
  8
1
  6
Continuous
 62
     4
100
AcDbLine
 10
263.310341323291
 20
236.688615618393
 30
0.0
 11
263.560341323291
 21
236.438615618393
 31
0.0
  0
LINE
  5
2BB
330
1F
100
AcDbEntity
  8
1
  6
Continuous
 62
     4
100
AcDbLine
 10
262.935341323291
 20
236.813615618393
 30
0.0
 11
263.310341323291
 21
236.688615618393
 31
0.0
  0
LINE
  5
2BC
330
1F
100
AcDbEntity
  8
1
  6
Continuous
 62
     4
100
AcDbLine
 10
260.185341323291
 20
236.813615618393
 30
0.0
 11
261.935341323291
 21
236.813615618393
 31
0.0
  0
LINE
  5
2BD
330
1F
100
AcDbEntity
  8
1
  6
Continuous
 62
     4
100
AcDbLine
 10
260.185341323291
 20
233.313615618393
 30
0.0
 11
260.185341323291
 21
236.813615618393
 31
0.0
  0
LINE
  5
2BE
330
1F
100
AcDbEntity
  8
1
  6
Continuous
 62
     4
100
AcDbLine
 10
258.185341323291
 20
234.313615618393
 30
0.0
 11
258.685341323291
 21
233.313615618393
 31
0.0
  0
LINE
  5
2BF
330
1F
100
AcDbEntity
  8
1
  6
Continuous
 62
     4
100
AcDbLine
 10
257.935341323291
 20
235.313615618393
 30
0.0
 11
258.185341323291
 21
234.313615618393
 31
0.0
  0
LINE
  5
2C0
330
1F
100
AcDbEntity
  8
1
  6
Continuous
 62
     4
100
AcDbLine
 10
257.935341323291
 20
236.313615618393
 30
0.0
 11
257.935341323291
 21
235.313615618393
 31
0.0
  0
LINE
  5
2C1
330
1F
100
AcDbEntity
  8
1
  6
Continuous
 62
     4
100
AcDbLine
 10
258.185341323291
 20
237.313615618393
 30
0.0
 11
257.935341323291
 21
236.313615618393
 31
0.0
  0
LINE
  5
2C2
330
1F
100
AcDbEntity
  8
1
  6
Continuous
 62
     4
100
AcDbLine
 10
258.685341323291
 20
238.313615618393
 30
0.0
 11
258.185341323291
 21
237.313615618393
 31
0.0
  0
LINE
  5
2C3
330
1F
100
AcDbEntity
  8
1
  6
Continuous
 62
     4
100
AcDbLine
 10
254.997841323291
 20
233.938615618393
 30
0.0
 11
255.872841323291
 21
233.813615618393
 31
0.0
  0
LINE
  5
2C4
330
1F
100
AcDbEntity
  8
1
  6
Continuous
 62
     4
100
AcDbLine
 10
254.435341323291
 20
234.251115618393
 30
0.0
 11
254.997841323291
 21
233.938615618393
 31
0.0
  0
LINE
  5
2C5
330
1F
100
AcDbEntity
  8
1
  6
Continuous
 62
     4
100
AcDbLine
 10
254.185341323291
 20
234.751115618393
 30
0.0
 11
254.435341323291
 21
234.251115618393
 31
0.0
  0
LINE
  5
2C6
330
1F
100
AcDbEntity
  8
1
  6
Continuous
 62
     4
100
AcDbLine
 10
254.435341323291
 20
235.188615618393
 30
0.0
 11
254.185341323291
 21
234.751115618393
 31
0.0
  0
LINE
  5
2C7
330
1F
100
AcDbEntity
  8
1
  6
Continuous
 62
     4
100
AcDbLine
 10
255.310341323291
 20
235.501115618393
 30
0.0
 11
254.435341323291
 21
235.188615618393
 31
0.0
  0
LINE
  5
2C8
330
1F
100
AcDbEntity
  8
1
  6
Continuous
 62
     4
100
AcDbLine
 10
256.247841323291
 20
235.376115618393
 30
0.0
 11
255.310341323291
 21
235.501115618393
 31
0.0
  0
LINE
  5
2C9
330
1F
100
AcDbEntity
  8
1
  6
Continuous
 62
     4
100
AcDbLine
 10
255.685341323291
 20
236.438615618393
 30
0.0
 11
256.247841323291
 21
235.376115618393
 31
0.0
  0
LINE
  5
2CA
330
1F
100
AcDbEntity
  8
1
  6
Continuous
 62
     4
100
AcDbLine
 10
254.747841323291
 20
237.876115618393
 30
0.0
 11
255.685341323291
 21
236.438615618393
 31
0.0
  0
LINE
  5
2CB
330
1F
100
AcDbEntity
  8
1
  6
Continuous
 62
     4
100
AcDbLine
 10
255.185341323291
 20
236.938615618393
 30
0.0
 11
256.122841323291
 21
237.376115618393
 31
0.0
  0
LINE
  5
2CC
330
1F
100
AcDbEntity
  8
1
  6
Continuous
 62
     4
100
AcDbLine
 10
254.060341323291
 20
236.626115618393
 30
0.0
 11
255.185341323291
 21
236.938615618393
 31
0.0
  0
LINE
  5
2CD
330
1F
100
AcDbEntity
  8
1
  6
Continuous
 62
     4
100
AcDbLine
 10
249.185341323291
 20
237.376115618393
 30
0.0
 11
249.185341323291
 21
233.813615618393
 31
0.0
  0
LINE
  5
2CE
330
1F
100
AcDbEntity
  8
1
  6
Continuous
 62
     4
100
AcDbLine
 10
251.122841323291
 20
233.938615618393
 30
0.0
 11
252.247841323291
 21
233.501115618393
 31
0.0
  0
LINE
  5
2CF
330
1F
100
AcDbEntity
  8
1
  6
Continuous
 62
     4
100
AcDbLine
 10
250.560341323291
 20
234.563615618393
 30
0.0
 11
251.122841323291
 21
233.938615618393
 31
0.0
  0
LINE
  5
2D0
330
1F
100
AcDbEntity
  8
1
  6
Continuous
 62
     4
100
AcDbLine
 10
249.997841323291
 20
235.501115618393
 30
0.0
 11
250.560341323291
 21
234.563615618393
 31
0.0
  0
LINE
  5
2D1
330
1F
100
AcDbEntity
  8
1
  6
Continuous
 62
     4
100
AcDbLine
 10
249.185341323291
 20
238.188615618393
 30
0.0
 11
249.185341323291
 21
237.376115618393
 31
0.0
  0
LINE
  5
2D2
330
1F
100
AcDbEntity
  8
1
  6
Continuous
 62
     4
100
AcDbLine
 10
251.435341323291
 20
238.188615618393
 30
0.0
 11
249.185341323291
 21
238.188615618393
 31
0.0
  0
LINE
  5
2D3
330
1F
100
AcDbEntity
  8
1
  6
Continuous
 62
     4
100
AcDbLine
 10
251.247841323291
 20
237.376115618393
 30
0.0
 11
249.185341323291
 21
237.376115618393
 31
0.0
  0
LINE
  5
2D4
330
1F
100
AcDbEntity
  8
1
  6
Continuous
 62
     4
100
AcDbLine
 10
249.185341323291
 20
236.626115618393
 30
0.0
 11
251.247841323291
 21
236.626115618393
 31
0.0
  0
LINE
  5
2D5
330
1F
100
AcDbEntity
  8
1
  6
Continuous
 62
     4
100
AcDbLine
 10
252.247841323291
 20
235.813615618393
 30
0.0
 11
248.060341323291
 21
235.813615618393
 31
0.0
  0
LINE
  5
2D6
330
1F
100
AcDbEntity
  8
1
  6
Continuous
 62
     4
100
AcDbLine
 10
250.560341323291
 20
234.751115618393
 30
0.0
 11
251.560341323291
 21
235.376115618393
 31
0.0
  0
LINE
  5
2D7
330
1F
100
AcDbEntity
  8
1
  6
Continuous
 62
     4
100
AcDbLine
 10
248.372841323291
 20
233.501115618393
 30
0.0
 11
250.185341323291
 21
234.251115618393
 31
0.0
  0
LINE
  5
2D8
330
1F
100
AcDbEntity
  8
1
  6
Continuous
 62
     4
100
AcDbLine
 10
246.935341323291
 20
237.563615618393
 30
0.0
 11
247.372841323291
 21
237.063615618393
 31
0.0
  0
LINE
  5
2D9
330
1F
100
AcDbEntity
  8
1
  6
Continuous
 62
     4
100
AcDbLine
 10
246.560341323291
 20
237.251115618393
 30
0.0
 11
246.935341323291
 21
236.751115618393
 31
0.0
  0
LINE
  5
2DA
330
1F
100
AcDbEntity
  8
1
  6
Continuous
 62
     4
100
AcDbLine
 10
245.997841323291
 20
236.001115618393
 30
0.0
 11
246.560341323291
 21
234.751115618393
 31
0.0
  0
LINE
  5
2DB
330
1F
100
AcDbEntity
  8
1
  6
Continuous
 62
     4
100
AcDbLine
 10
245.872841323291
 20
237.063615618393
 30
0.0
 11
245.997841323291
 21
236.001115618393
 31
0.0
  0
LINE
  5
2DC
330
1F
100
AcDbEntity
  8
1
  6
Continuous
 62
     4
100
AcDbLine
 10
245.872841323291
 20
236.126115618393
 30
0.0
 11
245.872841323291
 21
237.063615618393
 31
0.0
  0
LINE
  5
2DD
330
1F
100
AcDbEntity
  8
1
  6
Continuous
 62
     4
100
AcDbLine
 10
245.685341323291
 20
235.188615618393
 30
0.0
 11
245.872841323291
 21
236.126115618393
 31
0.0
  0
LINE
  5
2DE
330
1F
100
AcDbEntity
  8
1
  6
Continuous
 62
     4
100
AcDbLine
 10
245.310341323291
 20
234.251115618393
 30
0.0
 11
245.685341323291
 21
235.188615618393
 31
0.0
  0
LINE
  5
2DF
330
1F
100
AcDbEntity
  8
1
  6
Continuous
 62
     4
100
AcDbLine
 10
244.747841323291
 20
233.813615618393
 30
0.0
 11
245.310341323291
 21
234.251115618393
 31
0.0
  0
LINE
  5
2E0
330
1F
100
AcDbEntity
  8
1
  6
Continuous
 62
     4
100
AcDbLine
 10
244.185341323291
 20
233.626115618393
 30
0.0
 11
244.747841323291
 21
233.813615618393
 31
0.0
  0
LINE
  5
2E1
330
1F
100
AcDbEntity
  8
1
  6
Continuous
 62
     4
100
AcDbLine
 10
243.622841323291
 20
233.813615618393
 30
0.0
 11
244.185341323291
 21
233.626115618393
 31
0.0
  0
LINE
  5
2E2
330
1F
100
AcDbEntity
  8
1
  6
Continuous
 62
     4
100
AcDbLine
 10
243.372841323291
 20
234.251115618393
 30
0.0
 11
243.622841323291
 21
233.813615618393
 31
0.0
  0
LINE
  5
2E3
330
1F
100
AcDbEntity
  8
1
  6
Continuous
 62
     4
100
AcDbLine
 10
243.372841323291
 20
234.876115618393
 30
0.0
 11
243.372841323291
 21
234.251115618393
 31
0.0
  0
LINE
  5
2E4
330
1F
100
AcDbEntity
  8
1
  6
Continuous
 62
     4
100
AcDbLine
 10
243.622841323291
 20
235.688615618393
 30
0.0
 11
243.372841323291
 21
234.876115618393
 31
0.0
  0
LINE
  5
2E5
330
1F
100
AcDbEntity
  8
1
  6
Continuous
 62
     4
100
AcDbLine
 10
244.060341323291
 20
236.313615618393
 30
0.0
 11
243.622841323291
 21
235.688615618393
 31
0.0
  0
LINE
  5
2E6
330
1F
100
AcDbEntity
  8
1
  6
Continuous
 62
     4
100
AcDbLine
 10
244.622841323291
 20
236.938615618393
 30
0.0
 11
244.060341323291
 21
236.313615618393
 31
0.0
  0
LINE
  5
2E7
330
1F
100
AcDbEntity
  8
1
  6
Continuous
 62
     4
100
AcDbLine
 10
244.060341323291
 20
236.751115618393
 30
0.0
 11
244.622841323291
 21
236.938615618393
 31
0.0
  0
LINE
  5
2E8
330
1F
100
AcDbEntity
  8
1
  6
Continuous
 62
     4
100
AcDbLine
 10
243.372841323291
 20
236.626115618393
 30
0.0
 11
244.060341323291
 21
236.751115618393
 31
0.0
  0
LINE
  5
2E9
330
1F
100
AcDbEntity
  8
1
  6
Continuous
 62
     4
100
AcDbLine
 10
240.997841323291
 20
233.501115618393
 30
0.0
 11
240.435341323291
 21
233.501115618393
 31
0.0
  0
LINE
  5
2EA
330
1F
100
AcDbEntity
  8
1
  6
Continuous
 62
     4
100
AcDbLine
 10
240.997841323291
 20
237.563615618393
 30
0.0
 11
240.997841323291
 21
233.501115618393
 31
0.0
  0
LINE
  5
2EB
330
1F
100
AcDbEntity
  8
1
  6
Continuous
 62
     4
100
AcDbLine
 10
239.872841323291
 20
237.063615618393
 30
0.0
 11
240.310341323291
 21
236.126115618393
 31
0.0
  0
LINE
  5
2EC
330
1F
100
AcDbEntity
  8
1
  6
Continuous
 62
     4
100
AcDbLine
 10
240.685341323291
 20
237.876115618393
 30
0.0
 11
239.997841323291
 21
237.688615618393
 31
0.0
  0
LINE
  5
2ED
330
1F
100
AcDbEntity
  8
1
  6
Continuous
 62
     4
100
AcDbLine
 10
241.685341323291
 20
238.188615618393
 30
0.0
 11
240.685341323291
 21
237.876115618393
 31
0.0
  0
LINE
  5
2EE
330
1F
100
AcDbEntity
  8
1
  6
Continuous
 62
     4
100
AcDbLine
 10
241.560341323291
 20
236.126115618393
 30
0.0
 11
241.935341323291
 21
237.063615618393
 31
0.0
  0
LINE
  5
2EF
330
1F
100
AcDbEntity
  8
1
  6
Continuous
 62
     4
100
AcDbLine
 10
239.622841323291
 20
235.501115618393
 30
0.0
 11
242.372841323291
 21
235.501115618393
 31
0.0
  0
LINE
  5
2F0
330
1F
100
AcDbEntity
  8
1
  6
Continuous
 62
     4
100
AcDbLine
 10
238.185341323291
 20
237.563615618393
 30
0.0
 11
238.185341323291
 21
234.876115618393
 31
0.0
  0
LINE
  5
2F1
330
1F
100
AcDbEntity
  8
1
  6
Continuous
 62
     4
100
AcDbLine
 10
239.185341323291
 20
237.563615618393
 30
0.0
 11
238.185341323291
 21
237.563615618393
 31
0.0
  0
LINE
  5
2F2
330
1F
100
AcDbEntity
  8
1
  6
Continuous
 62
     4
100
AcDbLine
 10
239.185341323291
 20
234.876115618393
 30
0.0
 11
239.185341323291
 21
237.563615618393
 31
0.0
  0
LINE
  5
2F3
330
1F
100
AcDbEntity
  8
1
  6
Continuous
 62
     4
100
AcDbLine
 10
238.185341323291
 20
234.876115618393
 30
0.0
 11
239.185341323291
 21
234.876115618393
 31
0.0
  0
LINE
  5
2F4
330
1F
100
AcDbEntity
  8
1
  6
Continuous
 62
     4
100
AcDbLine
 10
265.810341323291
 20
249.973615618393
 30
0.0
 11
263.935341323291
 21
249.973615618393
 31
0.0
  0
LINE
  5
2F5
330
1F
100
AcDbEntity
  8
1
  6
Continuous
 62
     4
100
AcDbLine
 10
266.185341323291
 20
250.098615618393
 30
0.0
 11
265.810341323291
 21
249.973615618393
 31
0.0
  0
LINE
  5
2F6
330
1F
100
AcDbEntity
  8
1
  6
Continuous
 62
     4
100
AcDbLine
 10
266.560341323291
 20
250.348615618393
 30
0.0
 11
266.185341323291
 21
250.098615618393
 31
0.0
  0
LINE
  5
2F7
330
1F
100
AcDbEntity
  8
1
  6
Continuous
 62
     4
100
AcDbLine
 10
266.810341323291
 20
250.723615618393
 30
0.0
 11
266.560341323291
 21
250.348615618393
 31
0.0
  0
LINE
  5
2F8
330
1F
100
AcDbEntity
  8
1
  6
Continuous
 62
     4
100
AcDbLine
 10
266.935341323291
 20
251.223615618393
 30
0.0
 11
266.810341323291
 21
250.723615618393
 31
0.0
  0
LINE
  5
2F9
330
1F
100
AcDbEntity
  8
1
  6
Continuous
 62
     4
100
AcDbLine
 10
266.935341323291
 20
251.848615618393
 30
0.0
 11
266.935341323291
 21
251.223615618393
 31
0.0
  0
LINE
  5
2FA
330
1F
100
AcDbEntity
  8
1
  6
Continuous
 62
     4
100
AcDbLine
 10
266.810341323291
 20
252.348615618393
 30
0.0
 11
266.935341323291
 21
251.848615618393
 31
0.0
  0
LINE
  5
2FB
330
1F
100
AcDbEntity
  8
1
  6
Continuous
 62
     4
100
AcDbLine
 10
266.685341323291
 20
252.598615618393
 30
0.0
 11
266.810341323291
 21
252.348615618393
 31
0.0
  0
LINE
  5
2FC
330
1F
100
AcDbEntity
  8
1
  6
Continuous
 62
     4
100
AcDbLine
 10
266.435341323291
 20
252.848615618393
 30
0.0
 11
266.685341323291
 21
252.598615618393
 31
0.0
  0
LINE
  5
2FD
330
1F
100
AcDbEntity
  8
1
  6
Continuous
 62
     4
100
AcDbLine
 10
265.935341323291
 20
252.973615618393
 30
0.0
 11
266.435341323291
 21
252.848615618393
 31
0.0
  0
LINE
  5
2FE
330
1F
100
AcDbEntity
  8
1
  6
Continuous
 62
     4
100
AcDbLine
 10
266.310341323291
 20
253.098615618393
 30
0.0
 11
265.935341323291
 21
252.973615618393
 31
0.0
  0
LINE
  5
2FF
330
1F
100
AcDbEntity
  8
1
  6
Continuous
 62
     4
100
AcDbLine
 10
266.560341323291
 20
253.223615618393
 30
0.0
 11
266.310341323291
 21
253.098615618393
 31
0.0
  0
LINE
  5
300
330
1F
100
AcDbEntity
  8
1
  6
Continuous
 62
     4
100
AcDbLine
 10
266.810341323291
 20
253.473615618393
 30
0.0
 11
266.560341323291
 21
253.223615618393
 31
0.0
  0
LINE
  5
301
330
1F
100
AcDbEntity
  8
1
  6
Continuous
 62
     4
100
AcDbLine
 10
266.935341323291
 20
253.848615618393
 30
0.0
 11
266.810341323291
 21
253.473615618393
 31
0.0
  0
LINE
  5
302
330
1F
100
AcDbEntity
  8
1
  6
Continuous
 62
     4
100
AcDbLine
 10
266.935341323291
 20
254.223615618393
 30
0.0
 11
266.935341323291
 21
253.848615618393
 31
0.0
  0
LINE
  5
303
330
1F
100
AcDbEntity
  8
1
  6
Continuous
 62
     4
100
AcDbLine
 10
266.810341323291
 20
254.598615618393
 30
0.0
 11
266.935341323291
 21
254.223615618393
 31
0.0
  0
LINE
  5
304
330
1F
100
AcDbEntity
  8
1
  6
Continuous
 62
     4
100
AcDbLine
 10
266.435341323291
 20
254.848615618393
 30
0.0
 11
266.810341323291
 21
254.598615618393
 31
0.0
  0
LINE
  5
305
330
1F
100
AcDbEntity
  8
1
  6
Continuous
 62
     4
100
AcDbLine
 10
265.810341323291
 20
254.973615618393
 30
0.0
 11
266.435341323291
 21
254.848615618393
 31
0.0
  0
LINE
  5
306
330
1F
100
AcDbEntity
  8
1
  6
Continuous
 62
     4
100
AcDbLine
 10
263.935341323291
 20
254.973615618393
 30
0.0
 11
265.810341323291
 21
254.973615618393
 31
0.0
  0
LINE
  5
307
330
1F
100
AcDbEntity
  8
1
  6
Continuous
 62
     4
100
AcDbLine
 10
264.685341323291
 20
252.973615618393
 30
0.0
 11
265.935341323291
 21
252.973615618393
 31
0.0
  0
LINE
  5
308
330
1F
100
AcDbEntity
  8
1
  6
Continuous
 62
     4
100
AcDbLine
 10
262.435341323291
 20
254.973615618393
 30
0.0
 11
262.435341323291
 21
249.973615618393
 31
0.0
  0
LINE
  5
309
330
1F
100
AcDbEntity
  8
1
  6
Continuous
 62
     4
100
AcDbLine
 10
260.935341323291
 20
253.473615618393
 30
0.0
 11
262.435341323291
 21
254.973615618393
 31
0.0
  0
LINE
  5
30A
330
1F
100
AcDbEntity
  8
1
  6
Continuous
 62
     4
100
AcDbLine
 10
256.935341323291
 20
251.723615618393
 30
0.0
 11
259.435341323291
 21
251.723615618393
 31
0.0
  0
LINE
  5
30B
330
1F
100
AcDbEntity
  8
1
  6
Continuous
 62
     4
100
AcDbLine
 10
252.185341323291
 20
250.348615618393
 30
0.0
 11
251.935341323291
 21
250.598615618393
 31
0.0
  0
LINE
  5
30C
330
1F
100
AcDbEntity
  8
1
  6
Continuous
 62
     4
100
AcDbLine
 10
252.685341323291
 20
250.098615618393
 30
0.0
 11
252.185341323291
 21
250.348615618393
 31
0.0
  0
LINE
  5
30D
330
1F
100
AcDbEntity
  8
1
  6
Continuous
 62
     4
100
AcDbLine
 10
253.310341323291
 20
249.973615618393
 30
0.0
 11
252.685341323291
 21
250.098615618393
 31
0.0
  0
LINE
  5
30E
330
1F
100
AcDbEntity
  8
1
  6
Continuous
 62
     4
100
AcDbLine
 10
254.060341323291
 20
249.973615618393
 30
0.0
 11
253.310341323291
 21
249.973615618393
 31
0.0
  0
LINE
  5
30F
330
1F
100
AcDbEntity
  8
1
  6
Continuous
 62
     4
100
AcDbLine
 10
254.685341323291
 20
250.098615618393
 30
0.0
 11
254.060341323291
 21
249.973615618393
 31
0.0
  0
LINE
  5
310
330
1F
100
AcDbEntity
  8
1
  6
Continuous
 62
     4
100
AcDbLine
 10
255.060341323291
 20
250.348615618393
 30
0.0
 11
254.685341323291
 21
250.098615618393
 31
0.0
  0
LINE
  5
311
330
1F
100
AcDbEntity
  8
1
  6
Continuous
 62
     4
100
AcDbLine
 10
255.310341323291
 20
250.723615618393
 30
0.0
 11
255.060341323291
 21
250.348615618393
 31
0.0
  0
LINE
  5
312
330
1F
100
AcDbEntity
  8
1
  6
Continuous
 62
     4
100
AcDbLine
 10
255.435341323291
 20
251.098615618393
 30
0.0
 11
255.310341323291
 21
250.723615618393
 31
0.0
  0
LINE
  5
313
330
1F
100
AcDbEntity
  8
1
  6
Continuous
 62
     4
100
AcDbLine
 10
255.435341323291
 20
251.348615618393
 30
0.0
 11
255.435341323291
 21
251.098615618393
 31
0.0
  0
LINE
  5
314
330
1F
100
AcDbEntity
  8
1
  6
Continuous
 62
     4
100
AcDbLine
 10
255.310341323291
 20
251.723615618393
 30
0.0
 11
255.435341323291
 21
251.348615618393
 31
0.0
  0
LINE
  5
315
330
1F
100
AcDbEntity
  8
1
  6
Continuous
 62
     4
100
AcDbLine
 10
255.060341323291
 20
252.098615618393
 30
0.0
 11
255.310341323291
 21
251.723615618393
 31
0.0
  0
LINE
  5
316
330
1F
100
AcDbEntity
  8
1
  6
Continuous
 62
     4
100
AcDbLine
 10
254.685341323291
 20
252.348615618393
 30
0.0
 11
255.060341323291
 21
252.098615618393
 31
0.0
  0
LINE
  5
317
330
1F
100
AcDbEntity
  8
1
  6
Continuous
 62
     4
100
AcDbLine
 10
252.560341323291
 20
253.223615618393
 30
0.0
 11
254.685341323291
 21
252.348615618393
 31
0.0
  0
LINE
  5
318
330
1F
100
AcDbEntity
  8
1
  6
Continuous
 62
     4
100
AcDbLine
 10
252.185341323291
 20
253.473615618393
 30
0.0
 11
252.560341323291
 21
253.223615618393
 31
0.0
  0
LINE
  5
319
330
1F
100
AcDbEntity
  8
1
  6
Continuous
 62
     4
100
AcDbLine
 10
252.060341323291
 20
253.848615618393
 30
0.0
 11
252.185341323291
 21
253.473615618393
 31
0.0
  0
LINE
  5
31A
330
1F
100
AcDbEntity
  8
1
  6
Continuous
 62
     4
100
AcDbLine
 10
252.060341323291
 20
254.098615618393
 30
0.0
 11
252.060341323291
 21
253.848615618393
 31
0.0
  0
LINE
  5
31B
330
1F
100
AcDbEntity
  8
1
  6
Continuous
 62
     4
100
AcDbLine
 10
252.185341323291
 20
254.473615618393
 30
0.0
 11
252.060341323291
 21
254.098615618393
 31
0.0
  0
LINE
  5
31C
330
1F
100
AcDbEntity
  8
1
  6
Continuous
 62
     4
100
AcDbLine
 10
252.560341323291
 20
254.723615618393
 30
0.0
 11
252.185341323291
 21
254.473615618393
 31
0.0
  0
LINE
  5
31D
330
1F
100
AcDbEntity
  8
1
  6
Continuous
 62
     4
100
AcDbLine
 10
252.935341323291
 20
254.848615618393
 30
0.0
 11
252.560341323291
 21
254.723615618393
 31
0.0
  0
LINE
  5
31E
330
1F
100
AcDbEntity
  8
1
  6
Continuous
 62
     4
100
AcDbLine
 10
253.435341323291
 20
254.973615618393
 30
0.0
 11
252.935341323291
 21
254.848615618393
 31
0.0
  0
LINE
  5
31F
330
1F
100
AcDbEntity
  8
1
  6
Continuous
 62
     4
100
AcDbLine
 10
253.935341323291
 20
254.973615618393
 30
0.0
 11
253.435341323291
 21
254.973615618393
 31
0.0
  0
LINE
  5
320
330
1F
100
AcDbEntity
  8
1
  6
Continuous
 62
     4
100
AcDbLine
 10
254.560341323291
 20
254.848615618393
 30
0.0
 11
253.935341323291
 21
254.973615618393
 31
0.0
  0
LINE
  5
321
330
1F
100
AcDbEntity
  8
1
  6
Continuous
 62
     4
100
AcDbLine
 10
254.935341323291
 20
254.723615618393
 30
0.0
 11
254.560341323291
 21
254.848615618393
 31
0.0
  0
LINE
  5
322
330
1F
100
AcDbEntity
  8
1
  6
Continuous
 62
     4
100
AcDbLine
 10
255.310341323291
 20
254.473615618393
 30
0.0
 11
254.935341323291
 21
254.723615618393
 31
0.0
  0
LINE
  5
323
330
1F
100
AcDbEntity
  8
1
  6
Continuous
 62
     4
100
AcDbLine
 10
247.935341323291
 20
251.723615618393
 30
0.0
 11
250.435341323291
 21
251.723615618393
 31
0.0
  0
LINE
  5
324
330
1F
100
AcDbEntity
  8
1
  6
Continuous
 62
     4
100
AcDbLine
 10
246.310341323291
 20
253.973615618393
 30
0.0
 11
246.435341323291
 21
253.473615618393
 31
0.0
  0
LINE
  5
325
330
1F
100
AcDbEntity
  8
1
  6
Continuous
 62
     4
100
AcDbLine
 10
246.060341323291
 20
254.348615618393
 30
0.0
 11
246.310341323291
 21
253.973615618393
 31
0.0
  0
LINE
  5
326
330
1F
100
AcDbEntity
  8
1
  6
Continuous
 62
     4
100
AcDbLine
 10
245.810341323291
 20
254.598615618393
 30
0.0
 11
246.060341323291
 21
254.348615618393
 31
0.0
  0
LINE
  5
327
330
1F
100
AcDbEntity
  8
1
  6
Continuous
 62
     4
100
AcDbLine
 10
245.435341323291
 20
254.848615618393
 30
0.0
 11
245.810341323291
 21
254.598615618393
 31
0.0
  0
LINE
  5
328
330
1F
100
AcDbEntity
  8
1
  6
Continuous
 62
     4
100
AcDbLine
 10
244.935341323291
 20
254.973615618393
 30
0.0
 11
245.435341323291
 21
254.848615618393
 31
0.0
  0
LINE
  5
329
330
1F
100
AcDbEntity
  8
1
  6
Continuous
 62
     4
100
AcDbLine
 10
242.935341323291
 20
254.973615618393
 30
0.0
 11
244.935341323291
 21
254.973615618393
 31
0.0
  0
LINE
  5
32A
330
1F
100
AcDbEntity
  8
1
  6
Continuous
 62
     4
100
AcDbLine
 10
242.935341323291
 20
249.973615618393
 30
0.0
 11
242.935341323291
 21
254.973615618393
 31
0.0
  0
LINE
  5
32B
330
1F
100
AcDbEntity
  8
1
  6
Continuous
 62
     4
100
AcDbLine
 10
244.935341323291
 20
249.973615618393
 30
0.0
 11
242.935341323291
 21
249.973615618393
 31
0.0
  0
LINE
  5
32C
330
1F
100
AcDbEntity
  8
1
  6
Continuous
 62
     4
100
AcDbLine
 10
245.435341323291
 20
250.098615618393
 30
0.0
 11
244.935341323291
 21
249.973615618393
 31
0.0
  0
LINE
  5
32D
330
1F
100
AcDbEntity
  8
1
  6
Continuous
 62
     4
100
AcDbLine
 10
245.810341323291
 20
250.348615618393
 30
0.0
 11
245.435341323291
 21
250.098615618393
 31
0.0
  0
LINE
  5
32E
330
1F
100
AcDbEntity
  8
1
  6
Continuous
 62
     4
100
AcDbLine
 10
246.060341323291
 20
250.598615618393
 30
0.0
 11
245.810341323291
 21
250.348615618393
 31
0.0
  0
LINE
  5
32F
330
1F
100
AcDbEntity
  8
1
  6
Continuous
 62
     4
100
AcDbLine
 10
246.310341323291
 20
250.973615618393
 30
0.0
 11
246.060341323291
 21
250.598615618393
 31
0.0
  0
LINE
  5
330
330
1F
100
AcDbEntity
  8
1
  6
Continuous
 62
     4
100
AcDbLine
 10
246.435341323291
 20
251.473615618393
 30
0.0
 11
246.310341323291
 21
250.973615618393
 31
0.0
  0
LINE
  5
331
330
1F
100
AcDbEntity
  8
1
  6
Continuous
 62
     4
100
AcDbLine
 10
246.435341323291
 20
253.473615618393
 30
0.0
 11
246.435341323291
 21
251.473615618393
 31
0.0
  0
LINE
  5
332
330
1F
100
AcDbEntity
  8
1
  6
Continuous
 62
     4
100
AcDbLine
 10
241.435341323291
 20
254.973615618393
 30
0.0
 11
241.435341323291
 21
249.973615618393
 31
0.0
  0
LINE
  5
333
330
1F
100
AcDbEntity
  8
1
  6
Continuous
 62
     4
100
AcDbLine
 10
239.685341323291
 20
252.223615618393
 30
0.0
 11
241.435341323291
 21
254.973615618393
 31
0.0
  0
LINE
  5
334
330
1F
100
AcDbEntity
  8
1
  6
Continuous
 62
     4
100
AcDbLine
 10
237.935341323291
 20
254.973615618393
 30
0.0
 11
239.685341323291
 21
252.223615618393
 31
0.0
  0
LINE
  5
335
330
1F
100
AcDbEntity
  8
1
  6
Continuous
 62
     4
100
AcDbLine
 10
237.935341323291
 20
249.973615618393
 30
0.0
 11
237.935341323291
 21
254.973615618393
 31
0.0
  0
LINE
  5
336
330
1F
100
AcDbEntity
  8
1
  6
Continuous
 62
     4
100
AcDbLine
 10
106.802207553469
 20
-30.6784633168473
 30
0.0
 11
107.802207553469
 21
-31.3034633168473
 31
0.0
  0
LINE
  5
337
330
1F
100
AcDbEntity
  8
1
  6
Continuous
 62
     4
100
AcDbLine
 10
108.177207553469
 20
-30.3659633168473
 30
0.0
 11
107.364707553469
 21
-29.7409633168473
 31
0.0
  0
LINE
  5
338
330
1F
100
AcDbEntity
  8
1
  6
Continuous
 62
     4
100
AcDbLine
 10
108.864707553469
 20
-29.6159633168473
 30
0.0
 11
109.302207553469
 21
-30.0534633168473
 31
0.0
  0
LINE
  5
339
330
1F
100
AcDbEntity
  8
1
  6
Continuous
 62
     4
100
AcDbLine
 10
109.614707553469
 20
-29.7409633168473
 30
0.0
 11
109.177207553469
 21
-29.3034633168473
 31
0.0
  0
LINE
  5
33A
330
1F
100
AcDbEntity
  8
1
  6
Continuous
 62
     4
100
AcDbLine
 10
109.302207553469
 20
-31.6159633168473
 30
0.0
 11
109.989707553469
 21
-30.6784633168473
 31
0.0
  0
LINE
  5
33B
330
1F
100
AcDbEntity
  8
1
  6
Continuous
 62
     4
100
AcDbLine
 10
108.177207553469
 20
-32.5534633168473
 30
0.0
 11
109.302207553469
 21
-31.6159633168473
 31
0.0
  0
LINE
  5
33C
330
1F
100
AcDbEntity
  8
1
  6
Continuous
 62
     4
100
AcDbLine
 10
107.114707553469
 20
-33.1784633168473
 30
0.0
 11
108.177207553469
 21
-32.5534633168473
 31
0.0
  0
LINE
  5
33D
330
1F
100
AcDbEntity
  8
1
  6
Continuous
 62
     4
100
AcDbLine
 10
104.427207553469
 20
-31.8034633168473
 30
0.0
 11
104.864707553469
 21
-32.4284633168473
 31
0.0
  0
LINE
  5
33E
330
1F
100
AcDbEntity
  8
1
  6
Continuous
 62
     4
100
AcDbLine
 10
103.864707553469
 20
-31.3034633168473
 30
0.0
 11
104.427207553469
 21
-31.8034633168473
 31
0.0
  0
LINE
  5
33F
330
1F
100
AcDbEntity
  8
1
  6
Continuous
 62
     4
100
AcDbLine
 10
103.489707553469
 20
-29.3034633168473
 30
0.0
 11
103.739707553469
 21
-29.6159633168473
 31
0.0
  0
LINE
  5
340
330
1F
100
AcDbEntity
  8
1
  6
Continuous
 62
     4
100
AcDbLine
 10
102.927207553469
 20
-28.9909633168473
 30
0.0
 11
103.489707553469
 21
-29.3034633168473
 31
0.0
  0
LINE
  5
341
330
1F
100
AcDbEntity
  8
1
  6
Continuous
 62
     4
100
AcDbLine
 10
104.177207553469
 20
-30.2409633168473
 30
0.0
 11
102.239707553469
 21
-30.2409633168473
 31
0.0
  0
LINE
  5
342
330
1F
100
AcDbEntity
  8
1
  6
Continuous
 62
     4
100
AcDbLine
 10
103.177207553469
 20
-31.3034633168473
 30
0.0
 11
104.177207553469
 21
-30.2409633168473
 31
0.0
  0
LINE
  5
343
330
1F
100
AcDbEntity
  8
1
  6
Continuous
 62
     4
100
AcDbLine
 10
101.802207553469
 20
-32.2409633168473
 30
0.0
 11
103.177207553469
 21
-31.3034633168473
 31
0.0
  0
LINE
  5
344
330
1F
100
AcDbEntity
  8
1
  6
Continuous
 62
     4
100
AcDbLine
 10
103.364707553469
 20
-33.1784633168473
 30
0.0
 11
103.364707553469
 21
-31.1784633168473
 31
0.0
  0
LINE
  5
345
330
1F
100
AcDbEntity
  8
1
  6
Continuous
 62
     4
100
AcDbLine
 10
96.614707553469
 20
-33.6784633168473
 30
0.0
 11
99.614707553469
 21
-33.6784633168473
 31
0.0
  0
LINE
  5
346
330
1F
100
AcDbEntity
  8
1
  6
Continuous
 62
     4
100
AcDbLine
 10
99.364707553469
 20
-30.4284633168473
 30
0.0
 11
96.614707553469
 21
-33.6784633168473
 31
0.0
  0
LINE
  5
347
330
1F
100
AcDbEntity
  8
1
  6
Continuous
 62
     4
100
AcDbLine
 10
99.614707553469
 20
-29.9284633168473
 30
0.0
 11
99.364707553469
 21
-30.4284633168473
 31
0.0
  0
LINE
  5
348
330
1F
100
AcDbEntity
  8
1
  6
Continuous
 62
     4
100
AcDbLine
 10
99.614707553469
 20
-29.4284633168473
 30
0.0
 11
99.614707553469
 21
-29.9284633168473
 31
0.0
  0
LINE
  5
349
330
1F
100
AcDbEntity
  8
1
  6
Continuous
 62
     4
100
AcDbLine
 10
99.364707553469
 20
-29.0534633168473
 30
0.0
 11
99.614707553469
 21
-29.4284633168473
 31
0.0
  0
LINE
  5
34A
330
1F
100
AcDbEntity
  8
1
  6
Continuous
 62
     4
100
AcDbLine
 10
98.989707553469
 20
-28.8034633168473
 30
0.0
 11
99.364707553469
 21
-29.0534633168473
 31
0.0
  0
LINE
  5
34B
330
1F
100
AcDbEntity
  8
1
  6
Continuous
 62
     4
100
AcDbLine
 10
98.489707553469
 20
-28.6784633168473
 30
0.0
 11
98.989707553469
 21
-28.8034633168473
 31
0.0
  0
LINE
  5
34C
330
1F
100
AcDbEntity
  8
1
  6
Continuous
 62
     4
100
AcDbLine
 10
97.739707553469
 20
-28.6784633168473
 30
0.0
 11
98.489707553469
 21
-28.6784633168473
 31
0.0
  0
LINE
  5
34D
330
1F
100
AcDbEntity
  8
1
  6
Continuous
 62
     4
100
AcDbLine
 10
97.239707553469
 20
-28.8034633168473
 30
0.0
 11
97.739707553469
 21
-28.6784633168473
 31
0.0
  0
LINE
  5
34E
330
1F
100
AcDbEntity
  8
1
  6
Continuous
 62
     4
100
AcDbLine
 10
96.864707553469
 20
-29.0534633168473
 30
0.0
 11
97.239707553469
 21
-28.8034633168473
 31
0.0
  0
LINE
  5
34F
330
1F
100
AcDbEntity
  8
1
  6
Continuous
 62
     4
100
AcDbLine
 10
96.614707553469
 20
-29.4284633168473
 30
0.0
 11
96.864707553469
 21
-29.0534633168473
 31
0.0
  0
LINE
  5
350
330
1F
100
AcDbEntity
  8
1
  6
Continuous
 62
     4
100
AcDbLine
 10
93.114707553469
 20
-33.6784633168473
 30
0.0
 11
95.114707553469
 21
-28.6784633168473
 31
0.0
  0
LINE
  5
351
330
1F
100
AcDbEntity
  8
1
  6
Continuous
 62
     4
100
AcDbLine
 10
91.614707553469
 20
-28.6784633168473
 30
0.0
 11
91.614707553469
 21
-33.6784633168473
 31
0.0
  0
LINE
  5
352
330
1F
100
AcDbEntity
  8
1
  6
Continuous
 62
     4
100
AcDbLine
 10
90.114707553469
 20
-30.1784633168473
 30
0.0
 11
91.614707553469
 21
-28.6784633168473
 31
0.0
  0
LINE
  5
353
330
1F
100
AcDbEntity
  8
1
  6
Continuous
 62
     4
100
AcDbLine
 10
85.114707553469
 20
-33.6784633168473
 30
0.0
 11
85.114707553469
 21
-31.1784633168473
 31
0.0
  0
LINE
  5
354
330
1F
100
AcDbEntity
  8
1
  6
Continuous
 62
     4
100
AcDbLine
 10
87.114707553469
 20
-31.1784633168473
 30
0.0
 11
88.614707553469
 21
-33.6784633168473
 31
0.0
  0
LINE
  5
355
330
1F
100
AcDbEntity
  8
1
  6
Continuous
 62
     4
100
AcDbLine
 10
87.489707553469
 20
-31.1784633168473
 30
0.0
 11
87.114707553469
 21
-31.1784633168473
 31
0.0
  0
LINE
  5
356
330
1F
100
AcDbEntity
  8
1
  6
Continuous
 62
     4
100
AcDbLine
 10
87.989707553469
 20
-31.0534633168473
 30
0.0
 11
87.489707553469
 21
-31.1784633168473
 31
0.0
  0
LINE
  5
357
330
1F
100
AcDbEntity
  8
1
  6
Continuous
 62
     4
100
AcDbLine
 10
88.364707553469
 20
-30.8034633168473
 30
0.0
 11
87.989707553469
 21
-31.0534633168473
 31
0.0
  0
LINE
  5
358
330
1F
100
AcDbEntity
  8
1
  6
Continuous
 62
     4
100
AcDbLine
 10
88.489707553469
 20
-30.5534633168473
 30
0.0
 11
88.364707553469
 21
-30.8034633168473
 31
0.0
  0
LINE
  5
359
330
1F
100
AcDbEntity
  8
1
  6
Continuous
 62
     4
100
AcDbLine
 10
88.614707553469
 20
-30.1784633168473
 30
0.0
 11
88.489707553469
 21
-30.5534633168473
 31
0.0
  0
LINE
  5
35A
330
1F
100
AcDbEntity
  8
1
  6
Continuous
 62
     4
100
AcDbLine
 10
88.614707553469
 20
-29.6784633168473
 30
0.0
 11
88.614707553469
 21
-30.1784633168473
 31
0.0
  0
LINE
  5
35B
330
1F
100
AcDbEntity
  8
1
  6
Continuous
 62
     4
100
AcDbLine
 10
88.489707553469
 20
-29.3034633168473
 30
0.0
 11
88.614707553469
 21
-29.6784633168473
 31
0.0
  0
LINE
  5
35C
330
1F
100
AcDbEntity
  8
1
  6
Continuous
 62
     4
100
AcDbLine
 10
88.364707553469
 20
-29.0534633168473
 30
0.0
 11
88.489707553469
 21
-29.3034633168473
 31
0.0
  0
LINE
  5
35D
330
1F
100
AcDbEntity
  8
1
  6
Continuous
 62
     4
100
AcDbLine
 10
87.989707553469
 20
-28.8034633168473
 30
0.0
 11
88.364707553469
 21
-29.0534633168473
 31
0.0
  0
LINE
  5
35E
330
1F
100
AcDbEntity
  8
1
  6
Continuous
 62
     4
100
AcDbLine
 10
87.489707553469
 20
-28.6784633168473
 30
0.0
 11
87.989707553469
 21
-28.8034633168473
 31
0.0
  0
LINE
  5
35F
330
1F
100
AcDbEntity
  8
1
  6
Continuous
 62
     4
100
AcDbLine
 10
85.114707553469
 20
-28.6784633168473
 30
0.0
 11
87.489707553469
 21
-28.6784633168473
 31
0.0
  0
LINE
  5
360
330
1F
100
AcDbEntity
  8
1
  6
Continuous
 62
     4
100
AcDbLine
 10
85.114707553469
 20
-31.1784633168473
 30
0.0
 11
85.114707553469
 21
-28.6784633168473
 31
0.0
  0
LINE
  5
361
330
1F
100
AcDbEntity
  8
1
  6
Continuous
 62
     4
100
AcDbLine
 10
87.114707553469
 20
-31.1784633168473
 30
0.0
 11
85.114707553469
 21
-31.1784633168473
 31
0.0
  0
LINE
  5
40A
330
1F
100
AcDbEntity
  8
2
  6
Continuous
 62
     2
100
AcDbLine
 10
-4.41503238677979
 20
0.0
 30
0.0
 11
56.0
 21
0.0
 31
0.0
  0
LINE
  5
40B
330
1F
100
AcDbEntity
  8
2
  6
Continuous
 62
     2
100
AcDbLine
 10
13.5
 20
302.0
 30
0.0
 11
56.0
 21
302.0
 31
0.0
  0
LINE
  5
40C
330
1F
100
AcDbEntity
  8
2
  6
Continuous
 62
     2
100
AcDbLine
 10
55.0
 20
0.0
 30
0.0
 11
55.0
 21
192.5
 31
0.0
  0
LINE
  5
40D
330
1F
100
AcDbEntity
  8
2
  6
Continuous
 62
     2
100
AcDbLine
 10
55.0
 20
302.0
 30
0.0
 11
55.0
 21
192.5
 31
0.0
  0
LINE
  5
40E
330
1F
100
AcDbEntity
  8
1
  6
Continuous
 62
     4
100
AcDbLine
 10
-74.1199999999999
 20
-10.5
 30
0.0
 11
-76.1522385227402
 21
-12.848654405018
 31
0.0
  0
LINE
  5
40F
330
1F
100
AcDbEntity
  8
1
  6
Continuous
 62
     4
100
AcDbLine
 10
-74.1199999999999
 20
-10.5
 30
0.0
 11
-74.7056429847334
 21
-13.550113640826
 31
0.0
  0
LINE
  5
410
330
1F
100
AcDbEntity
  8
100
  6
Continuous
 62
     3
100
AcDbLine
 10
143.0
 20
230.5
 30
0.0
 11
143.0
 21
234.0
 31
0.0
  0
LINE
  5
411
330
1F
100
AcDbEntity
  8
100
  6
Continuous
 62
     3
100
AcDbLine
 10
143.0
 20
234.0
 30
0.0
 11
177.0
 21
234.0
 31
0.0
  0
LINE
  5
412
330
1F
100
AcDbEntity
  8
100
  6
Continuous
 62
     3
100
AcDbLine
 10
177.0
 20
230.5
 30
0.0
 11
177.0
 21
234.0
 31
0.0
  0
LINE
  5
413
330
1F
100
AcDbEntity
  8
100
  6
Continuous
 62
     3
100
AcDbLine
 10
155.6
 20
282.0
 30
0.0
 11
155.6
 21
264.0
 31
0.0
  0
LINE
  5
414
330
1F
100
AcDbEntity
  8
2
  6
DOT_CENTER
 62
     1
100
AcDbLine
 10
160.0
 20
312.5
 30
0.0
 11
160.0
 21
-33.0
 31
0.0
  0
LINE
  5
415
330
1F
100
AcDbEntity
  8
100
  6
Continuous
 62
     3
100
AcDbLine
 10
169.0
 20
264.0
 30
0.0
 11
151.0
 21
264.0
 31
0.0
  0
LINE
  5
416
330
1F
100
AcDbEntity
  8
100
  6
Continuous
 62
     3
100
AcDbLine
 10
173.5
 20
249.048426656989
 30
0.0
 11
173.5
 21
234.0
 31
0.0
  0
LINE
  5
417
330
1F
100
AcDbEntity
  8
100
  6
Continuous
 62
     3
100
AcDbLine
 10
169.0
 20
264.0
 30
0.0
 11
169.0
 21
256.930285549747
 31
0.0
  0
LINE
  5
418
330
1F
100
AcDbEntity
  8
100
  6
Continuous
 62
     3
100
AcDbLine
 10
146.5
 20
249.048426656989
 30
0.0
 11
146.5
 21
234.0
 31
0.0
  0
LINE
  5
419
330
1F
100
AcDbEntity
  8
100
  6
Continuous
 62
     3
100
AcDbLine
 10
151.0
 20
264.0
 30
0.0
 11
151.0
 21
256.930285549747
 31
0.0
  0
LINE
  5
41A
330
1F
100
AcDbEntity
  8
100
  6
Continuous
 62
     3
100
AcDbLine
 10
143.0
 20
230.5
 30
0.0
 11
177.0
 21
230.5
 31
0.0
  0
LINE
  5
41B
330
1F
100
AcDbEntity
  8
100
  6
Continuous
 62
     3
100
AcDbLine
 10
173.6
 20
83.6889311249324
 30
0.0
 11
173.6
 21
205.5
 31
0.0
  0
LINE
  5
41C
330
1F
100
AcDbEntity
  8
100
  6
Continuous
 62
     3
100
AcDbLine
 10
146.4
 20
82.0000000000007
 30
0.0
 11
146.4
 21
205.5
 31
0.0
  0
LINE
  5
41D
330
1F
100
AcDbEntity
  8
100
  6
Continuous
 62
     3
100
AcDbLine
 10
144.0
 20
205.5
 30
0.0
 11
176.0
 21
205.5
 31
0.0
  0
LINE
  5
41E
330
1F
100
AcDbEntity
  8
100
  6
Continuous
 62
     3
100
AcDbLine
 10
144.0
 20
205.5
 30
0.0
 11
144.0
 21
230.5
 31
0.0
  0
LINE
  5
41F
330
1F
100
AcDbEntity
  8
100
  6
Continuous
 62
     3
100
AcDbLine
 10
176.0
 20
205.5
 30
0.0
 11
176.0
 21
230.5
 31
0.0
  0
LINE
  5
420
330
1F
100
AcDbEntity
  8
100
  6
Continuous
 62
     3
100
AcDbLine
 10
173.6
 20
28.0
 30
0.0
 11
173.6
 21
78.6889311249324
 31
0.0
  0
LINE
  5
421
330
1F
100
AcDbEntity
  8
100
  6
Continuous
 62
     3
100
AcDbLine
 10
146.4
 20
77.0000000000007
 30
0.0
 11
146.4
 21
28.0
 31
0.0
  0
LINE
  5
422
330
1F
100
AcDbEntity
  8
100
  6
Continuous
 62
     3
100
AcDbLine
 10
129.0
 20
282.0
 30
0.0
 11
191.0
 21
282.0
 31
0.0
  0
LINE
  5
423
330
1F
100
AcDbEntity
  8
100
  6
Continuous
 62
     3
100
AcDbLine
 10
146.770007860876
 20
301.891048196256
 30
0.0
 11
133.248018866102
 21
297.762755974056
 31
0.0
  0
LINE
  5
424
330
1F
100
AcDbEntity
  8
100
  6
Continuous
 62
     3
100
AcDbLine
 10
129.0
 20
292.024240303043
 30
0.0
 11
129.0
 21
282.0
 31
0.0
  0
LINE
  5
425
330
1F
100
AcDbEntity
  8
100
  6
Continuous
 62
     3
100
AcDbLine
 10
172.5
 20
302.0
 30
0.0
 11
147.5
 21
302.0
 31
0.0
  0
LINE
  5
426
330
1F
100
AcDbEntity
  8
100
  6
Continuous
 62
     3
100
AcDbLine
 10
140.003457120787
 20
292.044738518463
 30
0.0
 11
140.003457120787
 21
284.0
 31
0.0
  0
LINE
  5
427
330
1F
100
AcDbEntity
  8
100
  6
Continuous
 62
     3
100
AcDbLine
 10
179.996542879213
 20
292.044738518463
 30
0.0
 11
179.996542879213
 21
284.0
 31
0.0
  0
LINE
  5
428
330
1F
100
AcDbEntity
  8
100
  6
Continuous
 62
     3
100
AcDbLine
 10
191.0
 20
292.024240303043
 30
0.0
 11
191.0
 21
282.0
 31
0.0
  0
LINE
  5
429
330
1F
100
AcDbEntity
  8
100
  6
Continuous
 62
     3
100
AcDbLine
 10
173.229992139124
 20
301.891048196256
 30
0.0
 11
186.751981133898
 21
297.762755974056
 31
0.0
  0
LINE
  5
42A
330
1F
100
AcDbEntity
  8
100
  6
Continuous
 62
     3
100
AcDbLine
 10
176.0
 20
14.5
 30
0.0
 11
176.0
 21
28.0
 31
0.0
  0
LINE
  5
42B
330
1F
100
AcDbEntity
  8
100
  6
Continuous
 62
     3
100
AcDbLine
 10
144.0
 20
14.5
 30
0.0
 11
176.0
 21
14.5
 31
0.0
  0
LINE
  5
42C
330
1F
100
AcDbEntity
  8
100
  6
Continuous
 62
     3
100
AcDbLine
 10
172.5
 20
7.5
 30
0.0
 11
172.5
 21
14.5
 31
0.0
  0
LINE
  5
42D
330
1F
100
AcDbEntity
  8
100
  6
Continuous
 62
     3
100
AcDbLine
 10
146.0
 20
7.5
 30
0.0
 11
174.0
 21
7.5
 31
0.0
  0
LINE
  5
42E
330
1F
100
AcDbEntity
  8
100
  6
Continuous
 62
     3
100
AcDbLine
 10
174.0
 20
-5.18504542377637
 30
0.0
 11
174.0
 21
7.5
 31
0.0
  0
LINE
  5
42F
330
1F
100
AcDbEntity
  8
100
  6
Continuous
 62
     3
100
AcDbLine
 10
144.0
 20
14.5
 30
0.0
 11
144.0
 21
28.0
 31
0.0
  0
LINE
  5
430
330
1F
100
AcDbEntity
  8
100
  6
Continuous
 62
     3
100
AcDbLine
 10
147.5
 20
7.5
 30
0.0
 11
147.5
 21
14.5
 31
0.0
  0
LINE
  5
431
330
1F
100
AcDbEntity
  8
100
  6
Continuous
 62
     3
100
AcDbLine
 10
146.0
 20
-5.18504542377637
 30
0.0
 11
146.0
 21
7.5
 31
0.0
  0
LINE
  5
432
330
1F
100
AcDbEntity
  8
2
  6
DOT_CENTER
 62
     1
100
AcDbLine
 10
140.0
 20
0.0
 30
0.0
 11
180.340392250206
 21
0.0
 31
0.0
  0
LINE
  5
433
330
1F
100
AcDbEntity
  8
2
  6
DOT_CENTER
 62
     1
100
AcDbLine
 10
140.0
 20
-15.0
 30
0.0
 11
180.340392250206
 21
-15.0
 31
0.0
  0
LINE
  5
434
330
1F
100
AcDbEntity
  8
100
  6
Continuous
 62
     3
100
AcDbLine
 10
144.0
 20
28.0
 30
0.0
 11
176.0
 21
28.0
 31
0.0
  0
LINE
  5
435
330
1F
100
AcDbEntity
  8
100
  6
Continuous
 62
     3
100
AcDbLine
 10
-4.39999999999998
 20
282.0
 30
0.0
 11
-4.39999999999998
 21
264.0
 31
0.0
  0
LINE
  5
436
330
1F
100
AcDbEntity
  8
100
  6
Continuous
 62
     3
100
AcDbLine
 10
-17.0
 20
230.5
 30
0.0
 11
-17.0
 21
234.0
 31
0.0
  0
LINE
  5
437
330
1F
100
AcDbEntity
  8
100
  6
Continuous
 62
     3
100
AcDbLine
 10
17.0
 20
230.5
 30
0.0
 11
17.0
 21
234.0
 31
0.0
  0
LINE
  5
438
330
1F
100
AcDbEntity
  8
100
  6
Continuous
 62
     3
100
AcDbLine
 10
-17.0
 20
234.0
 30
0.0
 11
17.0
 21
234.0
 31
0.0
  0
LINE
  5
439
330
1F
100
AcDbEntity
  8
100
  6
Continuous
 62
     3
100
AcDbLine
 10
-9.0
 20
264.0
 30
0.0
 11
-9.0
 21
257.400073201234
 31
0.0
  0
LINE
  5
43A
330
1F
100
AcDbEntity
  8
100
  6
Continuous
 62
     3
100
AcDbLine
 10
9.0
 20
264.0
 30
0.0
 11
-9.0
 21
264.0
 31
0.0
  0
LINE
  5
43B
330
1F
100
AcDbEntity
  8
100
  6
Continuous
 62
     3
100
AcDbLine
 10
9.0
 20
264.0
 30
0.0
 11
9.0
 21
257.400073201234
 31
0.0
  0
LINE
  5
43C
330
1F
100
AcDbEntity
  8
100
  6
Continuous
 62
     3
100
AcDbLine
 10
15.5884572681199
 20
234.0
 30
0.0
 11
15.5884572681199
 21
248.0
 31
0.0
  0
LINE
  5
43D
330
1F
100
AcDbEntity
  8
100
  6
Continuous
 62
     3
100
AcDbLine
 10
-15.5884572681199
 20
234.0
 30
0.0
 11
-15.5884572681199
 21
248.0
 31
0.0
  0
LINE
  5
43E
330
1F
100
AcDbEntity
  8
100
  6
Continuous
 62
     3
100
AcDbLine
 10
-17.5
 20
230.5
 30
0.0
 11
17.5
 21
230.5
 31
0.0
  0
LINE
  5
43F
330
1F
100
AcDbEntity
  8
100
  6
Continuous
 62
     3
100
AcDbLine
 10
-17.5
 20
205.5
 30
0.0
 11
-17.5
 21
230.5
 31
0.0
  0
LINE
  5
440
330
1F
100
AcDbEntity
  8
100
  6
Continuous
 62
     3
100
AcDbLine
 10
17.5
 20
205.5
 30
0.0
 11
17.5
 21
230.5
 31
0.0
  0
LINE
  5
441
330
1F
100
AcDbEntity
  8
2
  6
DOT_CENTER
 62
     1
100
AcDbLine
 10
-87.4570215276146
 20
355.5
 30
0.0
 11
-47.1065069013364
 21
355.5
 31
0.0
  0
LINE
  5
442
330
1F
100
AcDbEntity
  8
2
  6
DOT_CENTER
 62
     1
100
AcDbLine
 10
-23.2007406330193
 20
355.5
 30
0.0
 11
23.1339878098192
 21
355.5
 31
0.0
  0
LINE
  5
443
330
1F
100
AcDbEntity
  8
2
  6
DOT_CENTER
 62
     1
100
AcDbLine
 10
46.5782527988252
 20
355.5
 30
0.0
 11
87.9440702395879
 21
355.5
 31
0.0
  0
LINE
  5
444
330
1F
100
AcDbEntity
  8
2
  6
DOT_CENTER
 62
     1
100
AcDbLine
 10
0.0
 20
391.960526714489
 30
0.0
 11
0.0
 21
318.70778785111
 31
0.0
  0
LINE
  5
445
330
1F
100
AcDbEntity
  8
100
  6
Continuous
 62
     3
100
AcDbLine
 10
12.5
 20
302.0
 30
0.0
 11
-12.5
 21
302.0
 31
0.0
  0
LINE
  5
446
330
1F
100
AcDbEntity
  8
100
  6
Continuous
 62
     3
100
AcDbLine
 10
28.0525588832576
 20
292.924100393325
 30
0.0
 11
28.0525588832576
 21
282.0
 31
0.0
  0
LINE
  5
447
330
1F
100
AcDbEntity
  8
100
  6
Continuous
 62
     3
100
AcDbLine
 10
13.229992139124
 20
301.891048196256
 30
0.0
 11
23.8045400171553
 21
298.662616064339
 31
0.0
  0
LINE
  5
448
330
1F
100
AcDbEntity
  8
2
  6
CENTER
 62
     6
100
AcDbLine
 10
12.5
 20
295.449797977851
 30
0.0
 11
-12.5
 21
295.449797977851
 31
0.0
  0
LINE
  5
449
330
1F
100
AcDbEntity
  8
2
  6
CENTER
 62
     6
100
AcDbLine
 10
13.229992139124
 20
295.340846174107
 30
0.0
 11
23.8045400171553
 21
292.11241404219
 31
0.0
  0
LINE
  5
44A
330
1F
100
AcDbEntity
  8
100
  6
Continuous
 62
     3
100
AcDbLine
 10
-28.0525588832576
 20
282.0
 30
0.0
 11
28.0525588832576
 21
282.0
 31
0.0
  0
LINE
  5
44B
330
1F
100
AcDbEntity
  8
2
  6
CENTER
 62
     6
100
AcDbLine
 10
-28.0525588832576
 20
275.449797977851
 30
0.0
 11
28.0525588832576
 21
275.449797977851
 31
0.0
  0
LINE
  5
44C
330
1F
100
AcDbEntity
  8
2
  6
CENTER
 62
     6
100
AcDbLine
 10
28.0525588832576
 20
286.373898371176
 30
0.0
 11
28.0525588832576
 21
275.449797977851
 31
0.0
  0
LINE
  5
44D
330
1F
100
AcDbEntity
  8
100
  6
Continuous
 62
     3
100
AcDbLine
 10
-13.229992139124
 20
301.891048196256
 30
0.0
 11
-23.8045400171553
 21
298.662616064339
 31
0.0
  0
LINE
  5
44E
330
1F
100
AcDbEntity
  8
100
  6
Continuous
 62
     3
100
AcDbLine
 10
-28.0525588832576
 20
292.924100393325
 30
0.0
 11
-28.0525588832576
 21
282.0
 31
0.0
  0
LINE
  5
44F
330
1F
100
AcDbEntity
  8
2
  6
CENTER
 62
     6
100
AcDbLine
 10
-28.0525588832576
 20
286.373898371176
 30
0.0
 11
-28.0525588832576
 21
275.449797977851
 31
0.0
  0
LINE
  5
450
330
1F
100
AcDbEntity
  8
2
  6
CENTER
 62
     6
100
AcDbLine
 10
-13.229992139124
 20
295.340846174107
 30
0.0
 11
-23.8045400171553
 21
292.11241404219
 31
0.0
  0
LINE
  5
451
330
1F
100
AcDbEntity
  8
2
  6
DOT_CENTER
 62
     1
100
AcDbLine
 10
0.0
 20
312.5
 30
0.0
 11
0.0
 21
-16.8376421283239
 31
0.0
  0
LINE
  5
452
330
1F
100
AcDbEntity
  8
100
  6
Continuous
 62
     3
100
AcDbLine
 10
-17.5
 20
205.5
 30
0.0
 11
17.5
 21
205.5
 31
0.0
  0
LINE
  5
453
330
1F
100
AcDbEntity
  8
100
  6
Continuous
 62
     3
100
AcDbLine
 10
13.6
 20
82.0000000000007
 30
0.0
 11
13.6
 21
205.5
 31
0.0
  0
LINE
  5
454
330
1F
100
AcDbEntity
  8
100
  6
Continuous
 62
     3
100
AcDbLine
 10
13.6
 20
77.0000000000007
 30
0.0
 11
13.6
 21
28.0
 31
0.0
  0
LINE
  5
455
330
1F
100
AcDbEntity
  8
100
  6
Continuous
 62
     3
100
AcDbLine
 10
-13.6
 20
83.6889311249324
 30
0.0
 11
-13.6
 21
205.5
 31
0.0
  0
LINE
  5
456
330
1F
100
AcDbEntity
  8
100
  6
Continuous
 62
     3
100
AcDbLine
 10
-13.6
 20
28.0
 30
0.0
 11
-13.6
 21
78.6889311249324
 31
0.0
  0
LINE
  5
457
330
1F
100
AcDbEntity
  8
100
  6
Continuous
 62
     3
100
AcDbLine
 10
-16.0
 20
14.5
 30
0.0
 11
-16.0
 21
28.0
 31
0.0
  0
LINE
  5
458
330
1F
100
AcDbEntity
  8
100
  6
Continuous
 62
     3
100
AcDbLine
 10
16.0
 20
14.5
 30
0.0
 11
16.0
 21
28.0
 31
0.0
  0
LINE
  5
459
330
1F
100
AcDbEntity
  8
100
  6
Continuous
 62
     3
100
AcDbLine
 10
-16.0
 20
14.5
 30
0.0
 11
16.0
 21
14.5
 31
0.0
  0
LINE
  5
45A
330
1F
100
AcDbEntity
  8
100
  6
Continuous
 62
     3
100
AcDbLine
 10
12.5
 20
7.5
 30
0.0
 11
12.5
 21
14.5
 31
0.0
  0
LINE
  5
45B
330
1F
100
AcDbEntity
  8
100
  6
Continuous
 62
     3
100
AcDbLine
 10
-12.5
 20
12.5
 30
0.0
 11
-12.5
 21
13.0
 31
0.0
  0
LINE
  5
45C
330
1F
100
AcDbEntity
  8
100
  6
Continuous
 62
     3
100
AcDbLine
 10
-8.0
 20
7.5
 30
0.0
 11
14.0
 21
7.5
 31
0.0
  0
LINE
  5
45D
330
1F
100
AcDbEntity
  8
100
  6
Continuous
 62
     3
100
AcDbLine
 10
14.0
 20
-3.5
 30
0.0
 11
14.0
 21
7.5
 31
0.0
  0
LINE
  5
45E
330
1F
100
AcDbEntity
  8
100
  6
Continuous
 62
     3
100
AcDbLine
 10
-11.0
 20
-24.5
 30
0.0
 11
19.9215390309173
 21
-24.5
 31
0.0
  0
LINE
  5
45F
330
1F
100
AcDbEntity
  8
2
  6
DOT_CENTER
 62
     1
100
AcDbLine
 10
15.8575194234235
 20
-15.0
 30
0.0
 11
88.1650314581671
 21
-15.0
 31
0.0
  0
LINE
  5
460
330
1F
100
AcDbEntity
  8
2
  6
DOT_CENTER
 62
     1
100
AcDbLine
 10
-88.0835444764976
 20
0.0
 30
0.0
 11
-5.41503222761756
 21
0.0
 31
0.0
  0
LINE
  5
461
330
1F
100
AcDbEntity
  8
100
  6
Continuous
 62
     3
100
AcDbLine
 10
-21.0762395692966
 20
11.5
 30
0.0
 11
-13.5
 21
11.5
 31
0.0
  0
LINE
  5
462
330
1F
100
AcDbEntity
  8
100
  6
Continuous
 62
     3
100
AcDbLine
 10
-21.0762395692966
 20
-11.5
 30
0.0
 11
-11.0
 21
-11.5
 31
0.0
  0
LINE
  5
463
330
1F
100
AcDbEntity
  8
100
  6
Continuous
 62
     3
100
AcDbLine
 10
-26.5
 20
13.1
 30
0.0
 11
-22.0
 21
13.1
 31
0.0
  0
LINE
  5
464
330
1F
100
AcDbEntity
  8
100
  6
Continuous
 62
     3
100
AcDbLine
 10
-26.5
 20
-13.1
 30
0.0
 11
-22.0
 21
-13.1
 31
0.0
  0
LINE
  5
465
330
1F
100
AcDbEntity
  8
100
  6
Continuous
 62
     3
100
AcDbLine
 10
-22.0
 20
13.1
 30
0.0
 11
-21.0762395692966
 21
11.5
 31
0.0
  0
LINE
  5
466
330
1F
100
AcDbEntity
  8
100
  6
Continuous
 62
     3
100
AcDbLine
 10
-22.0
 20
-13.1
 30
0.0
 11
-21.0762395692966
 21
-11.5
 31
0.0
  0
LINE
  5
467
330
1F
100
AcDbEntity
  8
100
  6
Continuous
 62
     3
100
AcDbLine
 10
26.5
 20
-1.89999999999998
 30
0.0
 11
22.0
 21
-1.89999999999998
 31
0.0
  0
LINE
  5
468
330
1F
100
AcDbEntity
  8
100
  6
Continuous
 62
     3
100
AcDbLine
 10
26.5
 20
-28.1
 30
0.0
 11
22.0
 21
-28.1
 31
0.0
  0
LINE
  5
469
330
1F
100
AcDbEntity
  8
100
  6
Continuous
 62
     3
100
AcDbLine
 10
22.0
 20
-1.89999999999998
 30
0.0
 11
21.0762395692966
 21
-3.5
 31
0.0
  0
LINE
  5
46A
330
1F
100
AcDbEntity
  8
100
  6
Continuous
 62
     3
100
AcDbLine
 10
21.0762395692966
 20
-3.5
 30
0.0
 11
14.0
 21
-3.5
 31
0.0
  0
LINE
  5
46B
330
1F
100
AcDbEntity
  8
100
  6
Continuous
 62
     3
100
AcDbLine
 10
22.0
 20
-28.1
 30
0.0
 11
19.9215390309173
 21
-24.5
 31
0.0
  0
LINE
  5
46C
330
1F
100
AcDbEntity
  8
100
  6
Continuous
 62
     3
100
AcDbLine
 10
-11.0
 20
-24.5
 30
0.0
 11
-11.0
 21
-11.5
 31
0.0
  0
LINE
  5
46D
330
1F
100
AcDbEntity
  8
100
  6
Continuous
 62
     3
100
AcDbLine
 10
11.0
 20
-20.0
 30
0.0
 11
7.0
 21
-18.5
 31
0.0
  0
LINE
  5
46E
330
1F
100
AcDbEntity
  8
100
  6
Continuous
 62
     3
100
AcDbLine
 10
7.0
 20
-21.5
 30
0.0
 11
11.0
 21
-20.0
 31
0.0
  0
LINE
  5
46F
330
1F
100
AcDbEntity
  8
2
  6
CENTER
 62
     3
100
AcDbLine
 10
0.0
 20
-17.0
 30
0.0
 11
0.0
 21
-16.0
 31
0.0
  0
LINE
  5
470
330
1F
100
AcDbEntity
  8
100
  6
Continuous
 62
     3
100
AcDbLine
 10
-16.0
 20
28.0
 30
0.0
 11
16.0
 21
28.0
 31
0.0
  0
LINE
  5
471
330
1F
100
AcDbEntity
  8
2
  6
DOT_CENTER
 62
     1
100
AcDbLine
 10
0.0
 20
-23.138859457048
 30
0.0
 11
0.0
 21
-33.0
 31
0.0
  0
LINE
  5
472
330
1F
100
AcDbEntity
  8
2
  6
DOT_CENTER
 62
     1
100
AcDbLine
 10
-160.0
 20
309.89340942854
 30
0.0
 11
-160.0
 21
-32.0
 31
0.0
  0
LINE
  5
473
330
1F
100
AcDbEntity
  8
100
  6
Continuous
 62
     3
100
AcDbLine
 10
-146.4
 20
78.6889311249324
 30
0.0
 11
-146.4
 21
28.0
 31
0.0
  0
LINE
  5
474
330
1F
100
AcDbEntity
  8
100
  6
Continuous
 62
     3
100
AcDbLine
 10
-173.6
 20
28.0
 30
0.0
 11
-173.6
 21
77.0000000000007
 31
0.0
  0
LINE
  5
475
330
1F
100
AcDbEntity
  8
100
  6
Continuous
 62
     3
100
AcDbLine
 10
-144.0
 20
14.5
 30
0.0
 11
-144.0
 21
28.0
 31
0.0
  0
LINE
  5
476
330
1F
100
AcDbEntity
  8
100
  6
Continuous
 62
     3
100
AcDbLine
 10
-147.5
 20
10.6809799800081
 30
0.0
 11
-147.5
 21
14.5
 31
0.0
  0
LINE
  5
477
330
1F
100
AcDbEntity
  8
100
  6
Continuous
 62
     3
100
AcDbLine
 10
-146.0
 20
-24.5
 30
0.0
 11
-146.0
 21
-9.81495457622366
 31
0.0
  0
LINE
  5
478
330
1F
100
AcDbEntity
  8
100
  6
Continuous
 62
     3
100
AcDbLine
 10
-176.0
 20
14.5
 30
0.0
 11
-176.0
 21
28.0
 31
0.0
  0
LINE
  5
479
330
1F
100
AcDbEntity
  8
100
  6
Continuous
 62
     3
100
AcDbLine
 10
-172.5
 20
10.6809799800081
 30
0.0
 11
-172.5
 21
14.5
 31
0.0
  0
LINE
  5
47A
330
1F
100
AcDbEntity
  8
100
  6
Continuous
 62
     3
100
AcDbLine
 10
-174.0
 20
-24.5
 30
0.0
 11
-174.0
 21
-9.81495457622363
 31
0.0
  0
LINE
  5
47B
330
1F
100
AcDbEntity
  8
100
  6
Continuous
 62
     3
100
AcDbLine
 10
-176.0
 20
14.5
 30
0.0
 11
-165.885263290251
 21
14.5
 31
0.0
  0
LINE
  5
47C
330
1F
100
AcDbEntity
  8
100
  6
Continuous
 62
     3
100
AcDbLine
 10
-154.114736709749
 20
14.5
 30
0.0
 11
-144.0
 21
14.5
 31
0.0
  0
LINE
  5
47D
330
1F
100
AcDbEntity
  8
2
  6
DOT_CENTER
 62
     1
100
AcDbLine
 10
-181.481930471821
 20
0.0
 30
0.0
 11
-138.807883921224
 21
0.0
 31
0.0
  0
LINE
  5
47E
330
1F
100
AcDbEntity
  8
100
  6
Continuous
 62
     3
100
AcDbLine
 10
-174.0
 20
-24.5
 30
0.0
 11
-146.0
 21
-24.5
 31
0.0
  0
LINE
  5
47F
330
1F
100
AcDbEntity
  8
2
  6
DOT_CENTER
 62
     1
100
AcDbLine
 10
-181.481930471821
 20
-15.0
 30
0.0
 11
-138.807883921224
 21
-15.0
 31
0.0
  0
LINE
  5
480
330
1F
100
AcDbEntity
  8
100
  6
Continuous
 62
     3
100
AcDbLine
 10
-176.0
 20
28.0
 30
0.0
 11
-144.0
 21
28.0
 31
0.0
  0
LINE
  5
481
330
1F
100
AcDbEntity
  8
100
  6
Continuous
 62
     3
100
AcDbLine
 10
2.0
 20
-20.0
 30
0.0
 11
11.0
 21
-20.0
 31
0.0
  0
LINE
  5
482
330
1F
100
AcDbEntity
  8
100
  6
Continuous
 62
     3
100
AcDbLine
 10
-83.0
 20
-10.2225
 30
0.0
 11
-83.0
 21
10.2225
 31
0.0
  0
LINE
  5
483
330
1F
100
AcDbEntity
  8
100
  6
Continuous
 62
     3
100
AcDbLine
 10
-83.0
 20
-10.2225
 30
0.0
 11
-74.1199999999999
 21
-10.5
 31
0.0
  0
LINE
  5
484
330
1F
100
AcDbEntity
  8
2
  6
Continuous
 62
     1
100
AcDbLine
 10
-68.0
 20
-9.52924999999999
 30
0.0
 11
-83.0
 21
-9.06049999999999
 31
0.0
  0
LINE
  5
485
330
1F
100
AcDbEntity
  8
100
  6
Continuous
 62
     3
100
AcDbLine
 10
-83.0
 20
10.2225
 30
0.0
 11
-74.1199999999999
 21
10.5
 31
0.0
  0
LINE
  5
486
330
1F
100
AcDbEntity
  8
2
  6
Continuous
 62
     1
100
AcDbLine
 10
-68.0
 20
9.52925000000002
 30
0.0
 11
-83.0
 21
9.06049999999999
 31
0.0
  0
LINE
  5
487
330
1F
100
AcDbEntity
  8
100
  6
Continuous
 62
     3
100
AcDbLine
 10
-68.0
 20
-10.5
 30
0.0
 11
-68.0
 21
10.5
 31
0.0
  0
LINE
  5
488
330
1F
100
AcDbEntity
  8
2
  6
Continuous
 62
     3
100
AcDbLine
 10
-68.0
 20
9.52925000000002
 30
0.0
 11
-66.3186116785525
 21
10.5
 31
0.0
  0
LINE
  5
489
330
1F
100
AcDbEntity
  8
2
  6
Continuous
 62
     3
100
AcDbLine
 10
-68.0
 20
-9.52924999999999
 30
0.0
 11
-66.3186116785525
 21
-10.5
 31
0.0
  0
LINE
  5
48A
330
1F
100
AcDbEntity
  8
100
  6
Continuous
 62
     3
100
AcDbLine
 10
-44.5
 20
-17.8978583448784
 30
0.0
 11
-44.5
 21
17.8978583448784
 31
0.0
  0
LINE
  5
48B
330
1F
100
AcDbEntity
  8
100
  6
Continuous
 62
     3
100
AcDbLine
 10
-44.5
 20
17.8978583448784
 30
0.0
 11
-26.5
 21
17.8978583448784
 31
0.0
  0
LINE
  5
48C
330
1F
100
AcDbEntity
  8
100
  6
Continuous
 62
     3
100
AcDbLine
 10
-44.5
 20
8.94892917243919
 30
0.0
 11
-26.5
 21
8.94892917243919
 31
0.0
  0
LINE
  5
48D
330
1F
100
AcDbEntity
  8
100
  6
Continuous
 62
     3
100
AcDbLine
 10
-44.5
 20
-8.94892917243919
 30
0.0
 11
-26.5
 21
-8.94892917243919
 31
0.0
  0
LINE
  5
48E
330
1F
100
AcDbEntity
  8
100
  6
Continuous
 62
     3
100
AcDbLine
 10
-44.5
 20
-17.8978583448784
 30
0.0
 11
-26.5
 21
-17.8978583448784
 31
0.0
  0
LINE
  5
48F
330
1F
100
AcDbEntity
  8
100
  6
Continuous
 62
     3
100
AcDbLine
 10
-26.5
 20
-17.8978583448784
 30
0.0
 11
-26.5
 21
17.8978583448784
 31
0.0
  0
LINE
  5
490
330
1F
100
AcDbEntity
  8
100
  6
Continuous
 62
     3
100
AcDbLine
 10
-74.1199999999999
 20
10.5
 30
0.0
 11
-44.5
 21
10.5
 31
0.0
  0
LINE
  5
491
330
1F
100
AcDbEntity
  8
100
  6
Continuous
 62
     3
100
AcDbLine
 10
-74.1199999999999
 20
-10.5
 30
0.0
 11
-44.5
 21
-10.5
 31
0.0
  0
LINE
  5
492
330
1F
100
AcDbEntity
  8
100
  6
Continuous
 62
     3
100
AcDbLine
 10
-68.0
 20
345.0
 30
0.0
 11
-68.0
 21
366.0
 31
0.0
  0
LINE
  5
493
330
1F
100
AcDbEntity
  8
100
  6
Continuous
 62
     3
100
AcDbLine
 10
-83.0
 20
365.7225
 30
0.0
 11
-74.1199999999999
 21
366.0
 31
0.0
  0
LINE
  5
494
330
1F
100
AcDbEntity
  8
100
  6
Continuous
 62
     3
100
AcDbLine
 10
-83.0
 20
345.2775
 30
0.0
 11
-83.0
 21
365.7225
 31
0.0
  0
LINE
  5
495
330
1F
100
AcDbEntity
  8
100
  6
Continuous
 62
     3
100
AcDbLine
 10
-83.0
 20
345.2775
 30
0.0
 11
-74.1199999999999
 21
345.0
 31
0.0
  0
LINE
  5
496
330
1F
100
AcDbEntity
  8
100
  6
Continuous
 62
     3
100
AcDbLine
 10
-44.5
 20
340.0
 30
0.0
 11
-44.5
 21
371.0
 31
0.0
  0
LINE
  5
497
330
1F
100
AcDbEntity
  8
100
  6
Continuous
 62
     3
100
AcDbLine
 10
-26.5
 20
349.585325508529
 30
0.0
 11
-26.5
 21
361.414674491471
 31
0.0
  0
LINE
  5
498
330
1F
100
AcDbEntity
  8
100
  6
Continuous
 62
     3
100
AcDbLine
 10
-74.1199999999999
 20
366.0
 30
0.0
 11
-44.5
 21
366.0
 31
0.0
  0
LINE
  5
499
330
1F
100
AcDbEntity
  8
100
  6
Continuous
 62
     3
100
AcDbLine
 10
-74.1199999999999
 20
345.0
 30
0.0
 11
-44.5
 21
345.0
 31
0.0
  0
LINE
  5
49A
330
1F
100
AcDbEntity
  8
2
  6
Continuous
 62
     3
100
AcDbLine
 10
-68.0
 20
365.02925
 30
0.0
 11
-66.3186116785525
 21
366.0
 31
0.0
  0
LINE
  5
49B
330
1F
100
AcDbEntity
  8
2
  6
Continuous
 62
     3
100
AcDbLine
 10
-68.0
 20
345.97075
 30
0.0
 11
-66.3186116785525
 21
345.0
 31
0.0
  0
LINE
  5
49C
330
1F
100
AcDbEntity
  8
2
  6
Continuous
 62
     1
100
AcDbLine
 10
-68.0
 20
365.02925
 30
0.0
 11
-83.0
 21
364.5605
 31
0.0
  0
LINE
  5
49D
330
1F
100
AcDbEntity
  8
2
  6
Continuous
 62
     1
100
AcDbLine
 10
-68.0
 20
345.97075
 30
0.0
 11
-83.0
 21
346.4395
 31
0.0
  0
LINE
  5
49E
330
1F
100
AcDbEntity
  8
100
  6
Continuous
 62
     3
100
AcDbLine
 10
-44.5
 20
371.0
 30
0.0
 11
-26.8467875173176
 21
371.0
 31
0.0
  0
LINE
  5
49F
330
1F
100
AcDbEntity
  8
100
  6
Continuous
 62
     3
100
AcDbLine
 10
-44.5
 20
340.0
 30
0.0
 11
-26.8467875173176
 21
340.0
 31
0.0
  0
LINE
  5
4A0
330
1F
100
AcDbEntity
  8
100
  6
Continuous
 62
     3
100
AcDbLine
 10
-44.5
 20
355.5
 30
0.0
 11
-26.5
 21
355.5
 31
0.0
  0
LINE
  5
4A1
330
1F
100
AcDbEntity
  8
100
  6
Continuous
 62
     3
100
AcDbLine
 10
68.0
 20
-25.5
 30
0.0
 11
68.0
 21
-4.50000000000003
 31
0.0
  0
LINE
  5
4A2
330
1F
100
AcDbEntity
  8
2
  6
Continuous
 62
     3
100
AcDbLine
 10
68.0
 20
-5.47074999999998
 30
0.0
 11
66.3186116785525
 21
-4.50000000000003
 31
0.0
  0
LINE
  5
4A3
330
1F
100
AcDbEntity
  8
2
  6
Continuous
 62
     3
100
AcDbLine
 10
68.0
 20
-24.52925
 30
0.0
 11
66.3186116785525
 21
-25.5
 31
0.0
  0
LINE
  5
4A4
330
1F
100
AcDbEntity
  8
100
  6
Continuous
 62
     3
100
AcDbLine
 10
74.1199999999999
 20
-4.50000000000003
 30
0.0
 11
44.5
 21
-4.50000000000003
 31
0.0
  0
LINE
  5
4A5
330
1F
100
AcDbEntity
  8
100
  6
Continuous
 62
     3
100
AcDbLine
 10
74.1199999999999
 20
-25.5
 30
0.0
 11
44.5
 21
-25.5
 31
0.0
  0
LINE
  5
4A6
330
1F
100
AcDbEntity
  8
100
  6
Continuous
 62
     3
100
AcDbLine
 10
68.0
 20
345.0
 30
0.0
 11
68.0
 21
366.0
 31
0.0
  0
LINE
  5
4A7
330
1F
100
AcDbEntity
  8
100
  6
Continuous
 62
     3
100
AcDbLine
 10
44.5
 20
340.0
 30
0.0
 11
44.5
 21
371.0
 31
0.0
  0
LINE
  5
4A8
330
1F
100
AcDbEntity
  8
100
  6
Continuous
 62
     3
100
AcDbLine
 10
26.5
 20
349.585325508529
 30
0.0
 11
26.5
 21
361.414674491471
 31
0.0
  0
LINE
  5
4A9
330
1F
100
AcDbEntity
  8
100
  6
Continuous
 62
     3
100
AcDbLine
 10
74.1199999999999
 20
366.0
 30
0.0
 11
44.5
 21
366.0
 31
0.0
  0
LINE
  5
4AA
330
1F
100
AcDbEntity
  8
100
  6
Continuous
 62
     3
100
AcDbLine
 10
74.1199999999999
 20
345.0
 30
0.0
 11
44.5
 21
345.0
 31
0.0
  0
LINE
  5
4AB
330
1F
100
AcDbEntity
  8
2
  6
Continuous
 62
     3
100
AcDbLine
 10
68.0
 20
365.02925
 30
0.0
 11
66.3186116785525
 21
366.0
 31
0.0
  0
LINE
  5
4AC
330
1F
100
AcDbEntity
  8
2
  6
Continuous
 62
     3
100
AcDbLine
 10
68.0
 20
345.97075
 30
0.0
 11
66.3186116785525
 21
345.0
 31
0.0
  0
LINE
  5
4AD
330
1F
100
AcDbEntity
  8
100
  6
Continuous
 62
     3
100
AcDbLine
 10
44.5
 20
2.89785834487842
 30
0.0
 11
26.5
 21
2.89785834487842
 31
0.0
  0
LINE
  5
4AE
330
1F
100
AcDbEntity
  8
100
  6
Continuous
 62
     3
100
AcDbLine
 10
44.5
 20
-6.05107082756084
 30
0.0
 11
26.5
 21
-6.05107082756084
 31
0.0
  0
LINE
  5
4AF
330
1F
100
AcDbEntity
  8
100
  6
Continuous
 62
     3
100
AcDbLine
 10
44.5
 20
-23.9489291724392
 30
0.0
 11
26.5
 21
-23.9489291724392
 31
0.0
  0
LINE
  5
4B0
330
1F
100
AcDbEntity
  8
100
  6
Continuous
 62
     3
100
AcDbLine
 10
44.5
 20
-32.8978583448784
 30
0.0
 11
26.5
 21
-32.8978583448784
 31
0.0
  0
LINE
  5
4B1
330
1F
100
AcDbEntity
  8
100
  6
Continuous
 62
     3
100
AcDbLine
 10
44.5
 20
371.0
 30
0.0
 11
26.8467875173176
 21
371.0
 31
0.0
  0
LINE
  5
4B2
330
1F
100
AcDbEntity
  8
100
  6
Continuous
 62
     3
100
AcDbLine
 10
44.5
 20
340.0
 30
0.0
 11
26.8467875173176
 21
340.0
 31
0.0
  0
LINE
  5
4B3
330
1F
100
AcDbEntity
  8
100
  6
Continuous
 62
     3
100
AcDbLine
 10
44.5
 20
355.5
 30
0.0
 11
26.5
 21
355.5
 31
0.0
  0
LINE
  5
4B4
330
1F
100
AcDbEntity
  8
100
  6
Continuous
 62
     3
100
AcDbLine
 10
83.0
 20
-25.2225
 30
0.0
 11
74.1199999999999
 21
-25.5
 31
0.0
  0
LINE
  5
4B5
330
1F
100
AcDbEntity
  8
2
  6
Continuous
 62
     1
100
AcDbLine
 10
68.0
 20
-24.52925
 30
0.0
 11
83.0
 21
-24.0605
 31
0.0
  0
LINE
  5
4B6
330
1F
100
AcDbEntity
  8
100
  6
Continuous
 62
     3
100
AcDbLine
 10
83.0
 20
-4.77749999999995
 30
0.0
 11
74.1199999999999
 21
-4.50000000000003
 31
0.0
  0
LINE
  5
4B7
330
1F
100
AcDbEntity
  8
2
  6
Continuous
 62
     1
100
AcDbLine
 10
68.0
 20
-5.47074999999998
 30
0.0
 11
83.0
 21
-5.93949999999998
 31
0.0
  0
LINE
  5
4B8
330
1F
100
AcDbEntity
  8
100
  6
Continuous
 62
     3
100
AcDbLine
 10
83.0
 20
365.7225
 30
0.0
 11
74.1199999999999
 21
366.0
 31
0.0
  0
LINE
  5
4B9
330
1F
100
AcDbEntity
  8
100
  6
Continuous
 62
     3
100
AcDbLine
 10
83.0
 20
345.2775
 30
0.0
 11
74.1199999999999
 21
345.0
 31
0.0
  0
LINE
  5
4BA
330
1F
100
AcDbEntity
  8
2
  6
Continuous
 62
     1
100
AcDbLine
 10
68.0
 20
365.02925
 30
0.0
 11
83.0
 21
364.5605
 31
0.0
  0
LINE
  5
4BB
330
1F
100
AcDbEntity
  8
2
  6
Continuous
 62
     1
100
AcDbLine
 10
68.0
 20
345.97075
 30
0.0
 11
83.0
 21
346.4395
 31
0.0
  0
LINE
  5
4BC
330
1F
100
AcDbEntity
  8
100
  6
Continuous
 62
     3
100
AcDbLine
 10
83.0
 20
-25.2225
 30
0.0
 11
83.0
 21
-4.77749999999995
 31
0.0
  0
LINE
  5
4BD
330
1F
100
AcDbEntity
  8
100
  6
Continuous
 62
     3
100
AcDbLine
 10
83.0
 20
345.2775
 30
0.0
 11
83.0
 21
365.7225
 31
0.0
  0
LINE
  5
4BE
330
1F
100
AcDbEntity
  8
100
  6
Continuous
 62
     3
100
AcDbLine
 10
26.5
 20
-32.8978583448784
 30
0.0
 11
26.5
 21
2.89785834487842
 31
0.0
  0
LINE
  5
4BF
330
1F
100
AcDbEntity
  8
100
  6
Continuous
 62
     3
100
AcDbLine
 10
44.5
 20
-32.8978583448784
 30
0.0
 11
44.5
 21
2.89785834487842
 31
0.0
  0
LINE
  5
4C0
330
1F
100
AcDbEntity
  8
100
  6
Continuous
 62
     3
100
AcDbLine
 10
-144.5
 20
8.94892917243919
 30
0.0
 11
-160.0
 21
17.8978583448784
 31
0.0
  0
LINE
  5
4C1
330
1F
100
AcDbEntity
  8
100
  6
Continuous
 62
     3
100
AcDbLine
 10
-160.0
 20
17.8978583448784
 30
0.0
 11
-175.5
 21
8.94892917243919
 31
0.0
  0
LINE
  5
4C2
330
1F
100
AcDbEntity
  8
100
  6
Continuous
 62
     3
100
AcDbLine
 10
-175.5
 20
8.94892917243919
 30
0.0
 11
-175.5
 21
-23.9489291724392
 31
0.0
  0
LINE
  5
4C3
330
1F
100
AcDbEntity
  8
100
  6
Continuous
 62
     3
100
AcDbLine
 10
-175.5
 20
-8.94892917243919
 30
0.0
 11
-160.0
 21
-17.8978583448784
 31
0.0
  0
LINE
  5
4C4
330
1F
100
AcDbEntity
  8
100
  6
Continuous
 62
     3
100
AcDbLine
 10
-160.0
 20
-17.8978583448784
 30
0.0
 11
-144.5
 21
-8.94892917243922
 31
0.0
  0
LINE
  5
4C5
330
1F
100
AcDbEntity
  8
100
  6
Continuous
 62
     3
100
AcDbLine
 10
-144.5
 20
-23.9489291724392
 30
0.0
 11
-144.5
 21
8.94892917243919
 31
0.0
  0
LINE
  5
4C6
330
1F
100
AcDbEntity
  8
100
  6
Continuous
 62
     3
100
AcDbLine
 10
-175.5
 20
-23.9489291724392
 30
0.0
 11
-160.0
 21
-32.8978583448784
 31
0.0
  0
LINE
  5
4C7
330
1F
100
AcDbEntity
  8
100
  6
Continuous
 62
     3
100
AcDbLine
 10
-160.0
 20
-32.8978583448784
 30
0.0
 11
-144.5
 21
-23.9489291724392
 31
0.0
  0
LINE
  5
4C8
330
1F
100
AcDbEntity
  8
100
  6
Continuous
 62
     3
100
AcDbLine
 10
175.5
 20
8.94892917243919
 30
0.0
 11
172.5
 21
10.6809799800081
 31
0.0
  0
LINE
  5
4C9
330
1F
100
AcDbEntity
  8
100
  6
Continuous
 62
     3
100
AcDbLine
 10
147.5
 20
10.6809799800081
 30
0.0
 11
144.5
 21
8.94892917243919
 31
0.0
  0
LINE
  5
4CA
330
1F
100
AcDbEntity
  8
100
  6
Continuous
 62
     3
100
AcDbLine
 10
175.5
 20
-6.05107082756081
 30
0.0
 11
160.0
 21
2.89785834487842
 31
0.0
  0
LINE
  5
4CB
330
1F
100
AcDbEntity
  8
100
  6
Continuous
 62
     3
100
AcDbLine
 10
160.0
 20
2.89785834487842
 30
0.0
 11
144.5
 21
-6.05107082756081
 31
0.0
  0
LINE
  5
4CC
330
1F
100
AcDbEntity
  8
100
  6
Continuous
 62
     3
100
AcDbLine
 10
144.5
 20
8.94892917243919
 30
0.0
 11
144.5
 21
-23.9489291724392
 31
0.0
  0
LINE
  5
4CD
330
1F
100
AcDbEntity
  8
100
  6
Continuous
 62
     3
100
AcDbLine
 10
144.5
 20
-23.9489291724392
 30
0.0
 11
160.0
 21
-32.8978583448784
 31
0.0
  0
LINE
  5
4CE
330
1F
100
AcDbEntity
  8
100
  6
Continuous
 62
     3
100
AcDbLine
 10
160.0
 20
-32.8978583448784
 30
0.0
 11
175.5
 21
-23.9489291724392
 31
0.0
  0
LINE
  5
4CF
330
1F
100
AcDbEntity
  8
100
  6
Continuous
 62
     3
100
AcDbLine
 10
175.5
 20
-23.9489291724392
 30
0.0
 11
175.5
 21
8.94892917243919
 31
0.0
  0
LINE
  5
4D0
330
1F
100
AcDbEntity
  8
100
  6
Continuous
 62
     3
100
AcDbLine
 10
-146.770007860876
 20
301.891048196256
 30
0.0
 11
-133.248018866102
 21
297.762755974056
 31
0.0
  0
LINE
  5
4D1
330
1F
100
AcDbEntity
  8
100
  6
Continuous
 62
     3
100
AcDbLine
 10
-129.0
 20
292.024240303043
 30
0.0
 11
-129.0
 21
282.0
 31
0.0
  0
LINE
  5
4D2
330
1F
100
AcDbEntity
  8
100
  6
Continuous
 62
     3
100
AcDbLine
 10
-140.003457120787
 20
292.044738518463
 30
0.0
 11
-140.003457120787
 21
284.0
 31
0.0
  0
LINE
  5
4D3
330
1F
100
AcDbEntity
  8
100
  6
Continuous
 62
     3
100
AcDbLine
 10
-179.996542879213
 20
292.044738518463
 30
0.0
 11
-179.996542879213
 21
284.0
 31
0.0
  0
LINE
  5
4D4
330
1F
100
AcDbEntity
  8
100
  6
Continuous
 62
     3
100
AcDbLine
 10
-147.5
 20
302.0
 30
0.0
 11
-172.5
 21
302.0
 31
0.0
  0
LINE
  5
4D5
330
1F
100
AcDbEntity
  8
100
  6
Continuous
 62
     3
100
AcDbLine
 10
-191.0
 20
292.024240303043
 30
0.0
 11
-191.0
 21
282.0
 31
0.0
  0
LINE
  5
4D6
330
1F
100
AcDbEntity
  8
100
  6
Continuous
 62
     3
100
AcDbLine
 10
-173.229992139124
 20
301.891048196256
 30
0.0
 11
-186.751981133898
 21
297.762755974056
 31
0.0
  0
LINE
  5
4D7
330
1F
100
AcDbEntity
  8
100
  6
Continuous
 62
     3
100
AcDbLine
 10
-191.0
 20
282.0
 30
0.0
 11
-129.0
 21
282.0
 31
0.0
  0
LINE
  5
4D8
330
1F
100
AcDbEntity
  8
100
  6
Continuous
 62
     3
100
AcDbLine
 10
-144.0
 20
205.5
 30
0.0
 11
-144.0
 21
230.5
 31
0.0
  0
LINE
  5
4D9
330
1F
100
AcDbEntity
  8
100
  6
Continuous
 62
     3
100
AcDbLine
 10
-176.0
 20
205.5
 30
0.0
 11
-176.0
 21
230.5
 31
0.0
  0
LINE
  5
4DA
330
1F
100
AcDbEntity
  8
100
  6
Continuous
 62
     3
100
AcDbLine
 10
-176.0
 20
205.5
 30
0.0
 11
-144.0
 21
205.5
 31
0.0
  0
LINE
  5
4DB
330
1F
100
AcDbEntity
  8
100
  6
Continuous
 62
     3
100
AcDbLine
 10
-173.6
 20
82.0000000000007
 30
0.0
 11
-173.6
 21
205.5
 31
0.0
  0
LINE
  5
4DC
330
1F
100
AcDbEntity
  8
100
  6
Continuous
 62
     3
100
AcDbLine
 10
-146.4
 20
83.6889311249324
 30
0.0
 11
-146.4
 21
205.5
 31
0.0
  0
LINE
  5
4DD
330
1F
100
AcDbEntity
  8
100
  6
Continuous
 62
     3
100
AcDbLine
 10
-177.0
 20
230.5
 30
0.0
 11
-143.0
 21
230.5
 31
0.0
  0
LINE
  5
4DE
330
1F
100
AcDbEntity
  8
100
  6
Continuous
 62
     3
100
AcDbLine
 10
-169.0
 20
264.0
 30
0.0
 11
-169.0
 21
256.930285549747
 31
0.0
  0
LINE
  5
4DF
330
1F
100
AcDbEntity
  8
100
  6
Continuous
 62
     3
100
AcDbLine
 10
-173.5
 20
249.048426656989
 30
0.0
 11
-173.5
 21
234.0
 31
0.0
  0
LINE
  5
4E0
330
1F
100
AcDbEntity
  8
100
  6
Continuous
 62
     3
100
AcDbLine
 10
-151.0
 20
264.0
 30
0.0
 11
-151.0
 21
256.930285549747
 31
0.0
  0
LINE
  5
4E1
330
1F
100
AcDbEntity
  8
100
  6
Continuous
 62
     3
100
AcDbLine
 10
-146.5
 20
249.048426656989
 30
0.0
 11
-146.5
 21
234.0
 31
0.0
  0
LINE
  5
4E2
330
1F
100
AcDbEntity
  8
100
  6
Continuous
 62
     3
100
AcDbLine
 10
-151.0
 20
264.0
 30
0.0
 11
-169.0
 21
264.0
 31
0.0
  0
LINE
  5
4E3
330
1F
100
AcDbEntity
  8
100
  6
Continuous
 62
     3
100
AcDbLine
 10
-164.4
 20
282.0
 30
0.0
 11
-164.4
 21
264.0
 31
0.0
  0
LINE
  5
4E4
330
1F
100
AcDbEntity
  8
100
  6
Continuous
 62
     3
100
AcDbLine
 10
-143.0
 20
230.5
 30
0.0
 11
-143.0
 21
234.0
 31
0.0
  0
LINE
  5
4E5
330
1F
100
AcDbEntity
  8
100
  6
Continuous
 62
     3
100
AcDbLine
 10
-177.0
 20
234.0
 30
0.0
 11
-143.0
 21
234.0
 31
0.0
  0
LINE
  5
4E6
330
1F
100
AcDbEntity
  8
100
  6
Continuous
 62
     3
100
AcDbLine
 10
-177.0
 20
230.5
 30
0.0
 11
-177.0
 21
234.0
 31
0.0
  0
LINE
  5
4E7
330
1F
100
AcDbEntity
  8
1
  6
Continuous
 62
     4
100
AcDbLine
 10
74.7056429847334
 20
-28.550113640826
 30
0.0
 11
74.1199999999999
 21
-25.5
 31
0.0
  0
LINE
  5
4E8
330
1F
100
AcDbEntity
  8
1
  6
Continuous
 62
     4
100
AcDbLine
 10
76.1522385227402
 20
-27.848654405018
 30
0.0
 11
74.1199999999999
 21
-25.5
 31
0.0
  0
ARC
  5
4E9
330
1F
100
AcDbEntity
  8
100
  6
Continuous
 62
     3
100
AcDbCircle
 10
141.0
 20
257.400073201234
 30
0.0
 40
9.999999999999996
100
AcDbArc
 50
303.3670129692317
 51
0.0
  0
ARC
  5
4EA
330
1F
100
AcDbEntity
  8
100
  6
Continuous
 62
     3
100
AcDbCircle
 10
179.0
 20
257.400073201234
 30
0.0
 40
10.0
100
AcDbArc
 50
180.0
 51
236.6329870307683
  0
ARC
  5
4EB
330
1F
100
AcDbEntity
  8
100
  6
Continuous
 62
     3
100
AcDbCircle
 10
135.0
 20
292.024240303043
 30
0.0
 40
5.999999999999724
100
AcDbArc
 50
106.977542740951
 51
180.0
  0
ARC
  5
4EC
330
1F
100
AcDbEntity
  8
100
  6
Continuous
 62
     3
100
AcDbCircle
 10
147.5
 20
299.5
 30
0.0
 40
2.5
100
AcDbArc
 50
90.0
 51
106.9775427409434
  0
ARC
  5
4ED
330
1F
100
AcDbEntity
  8
100
  6
Continuous
 62
     3
100
AcDbCircle
 10
146.003457120787
 20
292.044738518463
 30
0.0
 40
5.999999999999352
100
AcDbArc
 50
121.2094430364593
 51
180.0
  0
ARC
  5
4EE
330
1F
100
AcDbEntity
  8
100
  6
Continuous
 62
     3
100
AcDbCircle
 10
173.996542879213
 20
292.044738518463
 30
0.0
 40
6.0
100
AcDbArc
 50
0.0
 51
58.7905569635458
  0
ARC
  5
4EF
330
1F
100
AcDbEntity
  8
100
  6
Continuous
 62
     3
100
AcDbCircle
 10
172.5
 20
299.5
 30
0.0
 40
2.500000000000387
100
AcDbArc
 50
73.02245725905664
 51
90.0
  0
ARC
  5
4F0
330
1F
100
AcDbEntity
  8
100
  6
Continuous
 62
     3
100
AcDbCircle
 10
185.0
 20
292.024240303043
 30
0.0
 40
6.0
100
AcDbArc
 50
0.0
 51
73.02245725904896
  0
ARC
  5
4F1
330
1F
100
AcDbEntity
  8
100
  6
Continuous
 62
     3
100
AcDbCircle
 10
19.0
 20
257.400073201234
 30
0.0
 40
10.0
100
AcDbArc
 50
180.0
 51
250.0527857663936
  0
ARC
  5
4F2
330
1F
100
AcDbEntity
  8
100
  6
Continuous
 62
     3
100
AcDbCircle
 10
-19.0
 20
257.400073201234
 30
0.0
 40
10.0000000000001
100
AcDbArc
 50
289.9472142336064
 51
0.0
  0
ARC
  5
4F3
330
1F
100
AcDbEntity
  8
100
  6
Continuous
 62
     3
100
AcDbCircle
 10
-0.00000000000001
 20
377.5
 30
0.0
 40
8.999999999999998
100
AcDbArc
 50
28.41186449479876
 51
151.5881355052015
  0
ARC
  5
4F4
330
1F
100
AcDbEntity
  8
100
  6
Continuous
 62
     3
100
AcDbCircle
 10
19.0525588832576
 20
366.5
 30
0.0
 40
9.000000000000199
100
AcDbArc
 50
0.0
 51
91.58813550520077
  0
ARC
  5
4F5
330
1F
100
AcDbEntity
  8
100
  6
Continuous
 62
     3
100
AcDbCircle
 10
19.0525588832576
 20
366.5
 30
0.0
 40
9.000000000000172
100
AcDbArc
 50
328.4118644947973
 51
0.0
  0
ARC
  5
4F6
330
1F
100
AcDbEntity
  8
100
  6
Continuous
 62
     3
100
AcDbCircle
 10
36.941102703256
 20
355.5
 30
0.0
 40
11.9999999999999
100
AcDbArc
 50
148.4118644948002
 51
211.5881355052001
  0
ARC
  5
4F7
330
1F
100
AcDbEntity
  8
100
  6
Continuous
 62
     3
100
AcDbCircle
 10
18.470551351628
 20
387.49193338483
 30
0.0
 40
12.00000000000019
100
AcDbArc
 50
208.4118644948003
 51
271.5881355052011
  0
ARC
  5
4F8
330
1F
100
AcDbEntity
  8
100
  6
Continuous
 62
     3
100
AcDbCircle
 10
-36.941102703256
 20
355.5
 30
0.0
 40
11.9999999999999
100
AcDbArc
 50
328.4118644948002
 51
31.58813550520032
  0
ARC
  5
4F9
330
1F
100
AcDbEntity
  8
100
  6
Continuous
 62
     3
100
AcDbCircle
 10
-19.0525588832577
 20
366.5
 30
0.0
 40
9.000000000000282
100
AcDbArc
 50
88.4118644947986
 51
211.5881355052023
  0
ARC
  5
4FA
330
1F
100
AcDbEntity
  8
100
  6
Continuous
 62
     3
100
AcDbCircle
 10
-18.470551351628
 20
387.49193338483
 30
0.0
 40
12.00000000000007
100
AcDbArc
 50
268.4118644947989
 51
331.5881355051994
  0
ARC
  5
4FB
330
1F
100
AcDbEntity
  8
100
  6
Continuous
 62
     3
100
AcDbCircle
 10
19.0525588832576
 20
344.5
 30
0.0
 40
9.000000000000279
100
AcDbArc
 50
268.4118644947993
 51
31.58813550520235
  0
ARC
  5
4FC
330
1F
100
AcDbEntity
  8
100
  6
Continuous
 62
     3
100
AcDbCircle
 10
18.470551351628
 20
323.50806661517
 30
0.0
 40
12.00000000000007
100
AcDbArc
 50
88.41186449479889
 51
151.5881355051997
  0
ARC
  5
4FD
330
1F
100
AcDbEntity
  8
100
  6
Continuous
 62
     3
100
AcDbCircle
 10
-0.00000000000001
 20
333.5
 30
0.0
 40
8.99999999999999
100
AcDbArc
 50
208.4118644947988
 51
331.5881355052013
  0
ARC
  5
4FE
330
1F
100
AcDbEntity
  8
100
  6
Continuous
 62
     3
100
AcDbCircle
 10
-19.0525588832577
 20
344.5
 30
0.0
 40
9.000000000000087
100
AcDbArc
 50
148.411864494797
 51
271.5881355052014
  0
ARC
  5
4FF
330
1F
100
AcDbEntity
  8
100
  6
Continuous
 62
     3
100
AcDbCircle
 10
-18.470551351628
 20
323.50806661517
 30
0.0
 40
12.00000000000018
100
AcDbArc
 50
28.41186449480033
 51
91.58813550520111
  0
ARC
  5
500
330
1F
100
AcDbEntity
  8
100
  6
Continuous
 62
     3
100
AcDbCircle
 10
12.5
 20
299.5
 30
0.0
 40
2.500000000000389
100
AcDbArc
 50
73.02245725905647
 51
90.0
  0
ARC
  5
501
330
1F
100
AcDbEntity
  8
100
  6
Continuous
 62
     3
100
AcDbCircle
 10
22.0525588832576
 20
292.924100393325
 30
0.0
 40
6.0
100
AcDbArc
 50
0.0
 51
73.02245725905439
  0
ARC
  5
502
330
1F
100
AcDbEntity
  8
2
  6
CENTER
 62
     6
100
AcDbCircle
 10
12.5
 20
292.949797977851
 30
0.0
 40
2.500000000000389
100
AcDbArc
 50
73.02245725905647
 51
90.0
  0
ARC
  5
503
330
1F
100
AcDbEntity
  8
2
  6
CENTER
 62
     6
100
AcDbCircle
 10
22.0525588832576
 20
286.373898371176
 30
0.0
 40
6.0
100
AcDbArc
 50
0.0
 51
73.02245725905439
  0
ARC
  5
504
330
1F
100
AcDbEntity
  8
100
  6
Continuous
 62
     3
100
AcDbCircle
 10
-12.5
 20
299.5
 30
0.0
 40
2.5
100
AcDbArc
 50
90.0
 51
106.9775427409435
  0
ARC
  5
505
330
1F
100
AcDbEntity
  8
100
  6
Continuous
 62
     3
100
AcDbCircle
 10
-22.0525588832576
 20
292.924100393325
 30
0.0
 40
6.00000000000056
100
AcDbArc
 50
106.9775427409456
 51
180.0
  0
ARC
  5
506
330
1F
100
AcDbEntity
  8
2
  6
CENTER
 62
     6
100
AcDbCircle
 10
-22.0525588832576
 20
286.373898371176
 30
0.0
 40
6.00000000000056
100
AcDbArc
 50
106.9775427409456
 51
180.0
  0
ARC
  5
507
330
1F
100
AcDbEntity
  8
2
  6
CENTER
 62
     6
100
AcDbCircle
 10
-12.5
 20
292.949797977851
 30
0.0
 40
2.5
100
AcDbArc
 50
90.0
 51
106.9775427409435
  0
ARC
  5
508
330
1F
100
AcDbEntity
  8
100
  6
Continuous
 62
     3
100
AcDbCircle
 10
-14.0
 20
13.0
 30
0.0
 40
1.5
100
AcDbArc
 50
0.0
 51
90.0
  0
ARC
  5
509
330
1F
100
AcDbEntity
  8
100
  6
Continuous
 62
     3
100
AcDbCircle
 10
-13.5
 20
12.5
 30
0.0
 40
1.0
100
AcDbArc
 50
270.0
 51
0.0
  0
ARC
  5
50A
330
1F
100
AcDbEntity
  8
100
  6
Continuous
 62
     3
100
AcDbCircle
 10
-135.0
 20
292.024240303043
 30
0.0
 40
6.0
100
AcDbArc
 50
0.0
 51
73.02245725904896
  0
ARC
  5
50B
330
1F
100
AcDbEntity
  8
100
  6
Continuous
 62
     3
100
AcDbCircle
 10
-147.5
 20
299.5
 30
0.0
 40
2.500000000000387
100
AcDbArc
 50
73.02245725905664
 51
90.0
  0
ARC
  5
50C
330
1F
100
AcDbEntity
  8
100
  6
Continuous
 62
     3
100
AcDbCircle
 10
-146.003457120787
 20
292.044738518463
 30
0.0
 40
6.0
100
AcDbArc
 50
0.0
 51
58.7905569635458
  0
ARC
  5
50D
330
1F
100
AcDbEntity
  8
100
  6
Continuous
 62
     3
100
AcDbCircle
 10
-173.996542879213
 20
292.044738518463
 30
0.0
 40
5.999999999999352
100
AcDbArc
 50
121.2094430364593
 51
180.0
  0
ARC
  5
50E
330
1F
100
AcDbEntity
  8
100
  6
Continuous
 62
     3
100
AcDbCircle
 10
-172.5
 20
299.5
 30
0.0
 40
2.5
100
AcDbArc
 50
90.0
 51
106.9775427409434
  0
ARC
  5
50F
330
1F
100
AcDbEntity
  8
100
  6
Continuous
 62
     3
100
AcDbCircle
 10
-185.0
 20
292.024240303043
 30
0.0
 40
5.999999999999724
100
AcDbArc
 50
106.977542740951
 51
180.0
  0
ARC
  5
510
330
1F
100
AcDbEntity
  8
100
  6
Continuous
 62
     3
100
AcDbCircle
 10
-141.0
 20
257.400073201234
 30
0.0
 40
10.0
100
AcDbArc
 50
180.0
 51
236.6329870307683
  0
ARC
  5
511
330
1F
100
AcDbEntity
  8
100
  6
Continuous
 62
     3
100
AcDbCircle
 10
-179.0
 20
257.400073201234
 30
0.0
 40
9.999999999999996
100
AcDbArc
 50
303.3670129692317
 51
0.0
  0
CIRCLE
  5
512
330
1F
100
AcDbEntity
  8
100
  6
Continuous
 62
     3
100
AcDbCircle
 10
0.0
 20
355.5
 30
0.0
 40
10.0
  0
CIRCLE
  5
513
330
1F
100
AcDbEntity
  8
100
  6
Continuous
 62
     3
100
AcDbCircle
 10
-160.0
 20
0.0
 30
0.0
 40
10.47749999999999
  0
CIRCLE
  5
514
330
1F
100
AcDbEntity
  8
2
  6
Continuous
 62
     3
100
AcDbCircle
 10
-160.0
 20
0.0
 30
0.0
 40
9.315499999999986
  0
CIRCLE
  5
515
330
1F
100
AcDbEntity
  8
100
  6
Continuous
 62
     3
100
AcDbCircle
 10
-160.0
 20
0.0
 30
0.0
 40
7.5
  0
CIRCLE
  5
516
330
1F
100
AcDbEntity
  8
100
  6
Continuous
 62
     3
100
AcDbCircle
 10
160.0
 20
-15.0
 30
0.0
 40
10.47749999999999
  0
CIRCLE
  5
517
330
1F
100
AcDbEntity
  8
2
  6
Continuous
 62
     3
100
AcDbCircle
 10
160.0
 20
-15.0
 30
0.0
 40
9.315499999999986
  0
CIRCLE
  5
518
330
1F
100
AcDbEntity
  8
100
  6
Continuous
 62
     3
100
AcDbCircle
 10
160.0
 20
-15.0
 30
0.0
 40
7.5
  0
LWPOLYLINE
  5
519
330
1F
100
AcDbEntity
  8
2
  6
Continuous
 62
     2
100
AcDbPolyline
 90
        3
 70
     0
 43
0.0
 10
46.2000007629395
 20
190.925003051758
 10
52.5
 20
190.925003051758
 10
52.5
 20
194.075004577637
  0
LWPOLYLINE
  5
51A
330
1F
100
AcDbEntity
  8
2
  6
Continuous
 62
     2
100
AcDbPolyline
 90
        3
 70
     0
 43
0.0
 10
55.75
 20
3.0
 10
55.0
 20
0.0
 10
54.25
 20
3.0
  0
LWPOLYLINE
  5
51B
330
1F
100
AcDbEntity
  8
2
  6
Continuous
 62
     2
100
AcDbPolyline
 90
        3
 70
     0
 43
0.0
 10
54.25
 20
299.0
 10
55.0
 20
302.0
 10
55.75
 20
299.0
  0
LWPOLYLINE
  5
51C
330
1F
100
AcDbEntity
  8
100
  6
Continuous
 62
     3
100
AcDbPolyline
 90
        5
 70
     0
 43
0.0
 10
-0.33678150177002
 20
-17.8099422454834
 10
-0.73286062028599
 20
-17.8805453545649
 10
-1.08443819252422
 20
-18.0766924617884
 10
-1.35292399688979
 20
-18.3765904608761
 10
-1.50865650177002
 20
-18.7474422454834
  0
LWPOLYLINE
  5
51D
330
1F
100
AcDbEntity
  8
100
  6
Continuous
 62
     3
100
AcDbPolyline
 90
        9
 70
     0
 43
0.0
 10
-0.33678150177002
 20
-17.8099422454834
 10
0.10291030981506
 20
-17.8538260425458
 10
0.48707660984261
 20
-18.0744936127013
 10
0.74835557213858
 20
-18.4323202163247
 10
0.83997631072998
 20
-18.8646297454834
 10
0.74835557213858
 20
-19.2969392746421
 10
0.48707660984261
 20
-19.6547658782655
 10
0.10291030981506
 20
-19.875433448421
 10
-0.33678150177002
 20
-19.9193172454834
  0
LWPOLYLINE
  5
51E
330
1F
100
AcDbEntity
  8
100
  6
Continuous
 62
     3
100
AcDbPolyline
 90
       13
 70
     0
 43
0.0
 10
-1.50865650177002
 20
-21.3255672454834
 10
-1.3665262985927
 20
-21.8103351732102
 10
-1.0485224271046
 20
-22.2040201455463
 10
-0.60420922854891
 20
-22.4463163544629
 10
-0.10179615020752
 20
-22.4992733001709
 10
0.38286949128004
 20
-22.3568004810913
 10
0.77632516346644
 20
-22.0386368507512
 10
1.01842107633061
 20
-21.5942685250044
 10
1.07129955291748
 20
-21.0918025970459
 10
0.92874369655139
 20
-20.6071632743256
 10
0.61036015529597
 20
-20.2137594111069
 10
0.1657617086177
 20
-19.9718431403202
 10
-0.33678150177002
 20
-19.9193172454834
  0
LWPOLYLINE
  5
51F
330
1F
100
AcDbEntity
  8
100
  6
Continuous
 62
     3
100
AcDbPolyline
 90
        3
 70
     0
 43
0.0
 10
-7.21178150177002
 20
-18.7474422454834
 10
-6.27428150177002
 20
-17.6536922454834
 10
-6.27428150177002
 20
-22.6536922454834
  0
LWPOLYLINE
  5
520
330
1F
100
AcDbEntity
  8
100
  6
Continuous
 62
     3
100
AcDbPolyline
 90
        4
 70
     0
 43
0.0
 10
2.88467073440552
 20
-10.3982677459717
 10
1.47842073440552
 20
-10.3982677459717
 10
1.47842073440552
 20
-5.71076774597168
 10
2.88467073440552
 20
-5.71076774597168
  0
LWPOLYLINE
  5
521
330
1F
100
AcDbEntity
  8
100
  6
Continuous
 62
     3
100
AcDbPolyline
 90
        7
 70
     0
 43
0.0
 10
2.88467073440552
 20
-10.3982677459717
 10
3.32314920121474
 20
-10.3685396161154
 10
3.73028606638736
 20
-10.2018738190789
 10
4.06436869631718
 20
-9.91556875662741
 10
4.29092073440552
 20
-9.53889274597168
 10
4.4803583965927
 20
-8.80863402326509
 10
4.52529573440552
 20
-8.05451774597168
  0
LWPOLYLINE
  5
522
330
1F
100
AcDbEntity
  8
100
  6
Continuous
 62
     3
100
AcDbPolyline
 90
        7
 70
     0
 43
0.0
 10
2.88467073440552
 20
-5.71076774597168
 10
3.32314920121474
 20
-5.740495875828
 10
3.73028606638736
 20
-5.9071616728645
 10
4.06436869631718
 20
-6.19346673531595
 10
4.29092073440552
 20
-6.57014274597168
 10
4.4803583965927
 20
-7.30040146867827
 10
4.52529573440552
 20
-8.05451774597168
  0
LWPOLYLINE
  5
523
330
1F
100
AcDbEntity
  8
100
  6
Continuous
 62
     3
100
AcDbPolyline
 90
        5
 70
     0
 43
0.0
 10
-4.69345426559448
 20
-10.3982677459717
 10
-4.69345426559448
 20
-5.71076774597168
 10
-3.05282926559448
 20
-8.28889274597168
 10
-1.41220426559448
 20
-5.71076774597168
 10
-1.41220426559448
 20
-10.3982677459717
  0
LWPOLYLINE
  5
524
330
1F
100
AcDbEntity
  8
100
  6
Continuous
 62
     3
100
AcDbPolyline
 90
        2
 70
     0
 43
0.0
 10
164.4
 20
264.0
 10
164.4
 20
282.0
  0
LWPOLYLINE
  5
525
330
1F
100
AcDbEntity
  8
2
  6
Continuous
 62
     1
100
AcDbPolyline
 90
       20
 70
     0
 43
0.0
 10
146.4
 20
82.0000000000007
 10
148.026151303087
 20
82.5506927839539
 10
149.494236782005
 20
82.9142491104437
 10
150.918068426499
 20
83.1192883131609
 10
151.606768704399
 20
83.1602819512559
 10
152.279546286507
 20
83.1602266461601
 10
153.570715158155
 20
83.0497186303252
 10
155.021922125237
 20
82.7911230449614
 10
156.653689641044
 20
82.3858499316395
 10
158.876584743738
 20
81.7318920761439
 10
160.104372572337
 20
81.3626314183342
 10
162.320865425601
 20
80.7813668857945
 10
164.092246556256
 20
80.4986638405479
 10
165.715625735907
 20
80.4678685755341
 10
167.259506518388
 20
80.692939078556
 10
167.916587339289
 20
80.8694661679594
 10
168.61037293177
 20
81.1015687246662
 10
170.10670366563
 20
81.7320304685191
 10
171.727942942493
 20
82.5725820698445
 10
173.6
 20
83.6889311249324
  0
LWPOLYLINE
  5
526
330
1F
100
AcDbEntity
  8
2
  6
Continuous
 62
     1
100
AcDbPolyline
 90
       20
 70
     0
 43
0.0
 10
146.4
 20
77.0000000000007
 10
148.026151303087
 20
77.5506927839539
 10
149.494236782005
 20
77.9142491104437
 10
150.918068426499
 20
78.1192883131609
 10
151.606768704399
 20
78.1602819512559
 10
152.279546286507
 20
78.1602266461601
 10
153.570715158155
 20
78.0497186303252
 10
155.021922125237
 20
77.7911230449614
 10
156.653689641044
 20
77.3858499316395
 10
158.876584743738
 20
76.7318920761439
 10
160.104372572337
 20
76.3626314183342
 10
162.320865425601
 20
75.7813668857945
 10
164.092246556256
 20
75.4986638405479
 10
165.715625735907
 20
75.4678685755341
 10
167.259506518388
 20
75.692939078556
 10
167.916587339289
 20
75.8694661679594
 10
168.61037293177
 20
76.1015687246662
 10
170.10670366563
 20
76.7320304685191
 10
171.727942942493
 20
77.5725820698445
 10
173.6
 20
78.6889311249324
  0
LWPOLYLINE
  5
527
330
1F
100
AcDbEntity
  8
100
  6
Continuous
 62
     3
100
AcDbPolyline
 90
        2
 70
     0
 43
0.0
 10
4.39999999999998
 20
264.0
 10
4.39999999999998
 20
282.0
  0
LWPOLYLINE
  5
528
330
1F
100
AcDbEntity
  8
2
  6
Continuous
 62
     1
100
AcDbPolyline
 90
       20
 70
     0
 43
0.0
 10
13.6
 20
82.0000000000007
 10
11.9738486969133
 20
82.5506927839538
 10
10.5057632179954
 20
82.9142491104436
 10
9.0819315735014
 20
83.1192883131609
 10
8.39323129560129
 20
83.1602819512559
 10
7.72045371349344
 20
83.1602266461601
 10
6.42928484184467
 20
83.0497186303252
 10
4.97807787476323
 20
82.7911230449614
 10
3.34631035895618
 20
82.3858499316395
 10
1.12341525626216
 20
81.7318920761439
 10
-0.10437257233659
 20
81.3626314183342
 10
-2.32086542560122
 20
80.7813668857945
 10
-4.09224655625565
 20
80.4986638405479
 10
-5.71562573590698
 20
80.4678685755341
 10
-7.25950651838843
 20
80.692939078556
 10
-7.9165873392892
 20
80.8694661679593
 10
-8.61037293177008
 20
81.1015687246661
 10
-10.1067036656296
 20
81.732030468519
 10
-11.7279429424935
 20
82.5725820698445
 10
-13.6
 20
83.6889311249324
  0
LWPOLYLINE
  5
529
330
1F
100
AcDbEntity
  8
2
  6
Continuous
 62
     1
100
AcDbPolyline
 90
       20
 70
     0
 43
0.0
 10
13.6
 20
77.0000000000007
 10
11.9738486969133
 20
77.5506927839538
 10
10.5057632179954
 20
77.9142491104436
 10
9.0819315735014
 20
78.1192883131609
 10
8.39323129560129
 20
78.1602819512559
 10
7.72045371349344
 20
78.1602266461601
 10
6.42928484184467
 20
78.0497186303252
 10
4.97807787476323
 20
77.7911230449614
 10
3.34631035895618
 20
77.3858499316395
 10
1.12341525626216
 20
76.7318920761439
 10
-0.10437257233659
 20
76.3626314183342
 10
-2.32086542560122
 20
75.7813668857945
 10
-4.09224655625565
 20
75.4986638405479
 10
-5.71562573590698
 20
75.4678685755341
 10
-7.25950651838843
 20
75.692939078556
 10
-7.9165873392892
 20
75.8694661679593
 10
-8.61037293177008
 20
76.1015687246661
 10
-10.1067036656296
 20
76.732030468519
 10
-11.7279429424935
 20
77.5725820698445
 10
-13.6
 20
78.6889311249324
  0
LWPOLYLINE
  5
52A
330
1F
100
AcDbEntity
  8
2
  6
Continuous
 62
     1
100
AcDbPolyline
 90
       20
 70
     0
 43
0.0
 10
-173.6
 20
82.0000000000007
 10
-171.973848696913
 20
82.5506927839539
 10
-170.505763217995
 20
82.9142491104437
 10
-169.081931573501
 20
83.1192883131609
 10
-168.393231295601
 20
83.1602819512559
 10
-167.720453713493
 20
83.1602266461601
 10
-166.429284841845
 20
83.0497186303252
 10
-164.978077874763
 20
82.7911230449614
 10
-163.346310358956
 20
82.3858499316395
 10
-161.123415256262
 20
81.7318920761439
 10
-159.895627427663
 20
81.3626314183342
 10
-157.679134574399
 20
80.7813668857945
 10
-155.907753443744
 20
80.4986638405479
 10
-154.284374264093
 20
80.4678685755341
 10
-152.740493481612
 20
80.692939078556
 10
-152.083412660711
 20
80.8694661679594
 10
-151.38962706823
 20
81.1015687246662
 10
-149.89329633437
 20
81.7320304685191
 10
-148.272057057507
 20
82.5725820698445
 10
-146.4
 20
83.6889311249324
  0
LWPOLYLINE
  5
52B
330
1F
100
AcDbEntity
  8
100
  6
Continuous
 62
     3
100
AcDbPolyline
 90
        2
 70
     0
 43
0.0
 10
-155.6
 20
264.0
 10
-155.6
 20
282.0
  0
LWPOLYLINE
  5
52C
330
1F
100
AcDbEntity
  8
2
  6
Continuous
 62
     1
100
AcDbPolyline
 90
       20
 70
     0
 43
0.0
 10
-173.6
 20
77.0000000000007
 10
-171.973848696913
 20
77.5506927839539
 10
-170.505763217995
 20
77.9142491104437
 10
-169.081931573501
 20
78.1192883131609
 10
-168.393231295601
 20
78.1602819512559
 10
-167.720453713493
 20
78.1602266461601
 10
-166.429284841845
 20
78.0497186303252
 10
-164.978077874763
 20
77.7911230449614
 10
-163.346310358956
 20
77.3858499316395
 10
-161.123415256262
 20
76.7318920761439
 10
-159.895627427663
 20
76.3626314183342
 10
-157.679134574399
 20
75.7813668857945
 10
-155.907753443744
 20
75.4986638405479
 10
-154.284374264093
 20
75.4678685755341
 10
-152.740493481612
 20
75.692939078556
 10
-152.083412660711
 20
75.8694661679594
 10
-151.38962706823
 20
76.1015687246662
 10
-149.89329633437
 20
76.7320304685191
 10
-148.272057057507
 20
77.5725820698445
 10
-146.4
 20
78.6889311249324
  0
LEADER
  5
52D
330
1F
100
AcDbEntity
  8
1
  6
Continuous
 62
     4
100
AcDbLeader
  3
Standard
 71
     0
 76
     3
 10
-74.1199999999999
 20
-10.5
 30
0.0
 10
-79.2744990688243
 20
-21.1299482179217
 30
0.0
 10
-112.882257186714
 20
-21.1299482179217
 30
0.0
  0
LEADER
  5
52E
330
1F
100
AcDbEntity
  8
1
  6
Continuous
 62
     4
100
AcDbLeader
  3
Standard
 71
     0
 76
     3
 10
74.1199999999999
 20
-25.5
 30
0.0
 10
79.2744990688243
 20
-36.1299482179217
 30
0.0
 10
112.882257186714
 20
-36.1299482179217
 30
0.0
  0
ENDSEC
  0
SECTION
  2
OBJECTS
  0
DICTIONARY
  5
C
330
0
100
AcDbDictionary
281
     1
  3
ACAD_GROUP
350
D
  3
ACAD_LAYOUT
350
1A
  3
ACAD_MATERIAL
350
3B
  3
ACAD_MLEADERSTYLE
350
531
  3
ACAD_MLINESTYLE
350
17
  3
ACAD_PLOTSETTINGS
350
19
  3
ACAD_PLOTSTYLENAME
350
E
  3
ACAD_VISUALSTYLE
350
2A
  3
AcDbVariableDictionary
350
52F
  0
DICTIONARY
  5
D
102
{ACAD_REACTORS
330
C
102
}
330
C
100
AcDbDictionary
281
     1
  0
DICTIONARY
  5
1A
102
{ACAD_REACTORS
330
C
102
}
330
C
100
AcDbDictionary
281
     1
  3
Layout1
350
1E
  3
Layout2
350
26
  3
Model
350
22
  0
DICTIONARY
  5
3B
102
{ACAD_REACTORS
330
C
102
}
330
C
100
AcDbDictionary
281
     1
  3
ByBlock
350
3D
  3
ByLayer
350
3C
  3
Global
350
3E
  0
DICTIONARY
  5
531
102
{ACAD_REACTORS
330
C
102
}
330
C
100
AcDbDictionary
281
     1
  0
DICTIONARY
  5
17
102
{ACAD_REACTORS
330
C
102
}
330
C
100
AcDbDictionary
281
     1
  3
Standard
350
18
  0
DICTIONARY
  5
19
102
{ACAD_REACTORS
330
C
102
}
330
C
100
AcDbDictionary
281
     1
  0
ACDBDICTIONARYWDFLT
  5
E
102
{ACAD_REACTORS
330
C
102
}
330
C
100
AcDbDictionary
281
     1
  3
Normal
350
F
100
AcDbDictionaryWithDefault
340
F
  0
DICTIONARY
  5
2A
102
{ACAD_REACTORS
330
C
102
}
330
C
100
AcDbDictionary
281
     1
  3
2dWireframe
350
2F
  3
3D Hidden
350
31
  3
3dWireframe
350
30
  3
Basic
350
32
  3
Brighten
350
36
  3
ColorChange
350
3A
  3
Conceptual
350
34
  3
Dim
350
35
  3
Facepattern
350
39
  3
Flat
350
2B
  3
FlatWithEdges
350
2C
  3
Gouraud
350
2D
  3
GouraudWithEdges
350
2E
  3
Linepattern
350
38
  3
Realistic
350
33
  3
Thicken
350
37
  0
DICTIONARY
  5
52F
102
{ACAD_REACTORS
330
C
102
}
330
C
100
AcDbDictionary
281
     1
  3
DIMASSOC
350
532
  3
HIDETEXT
350
533
  0
LAYOUT
  5
1E
102
{ACAD_REACTORS
330
1A
102
}
330
1A
100
AcDbPlotSettings
  1

  2
none_device
  4

  6

 40
0.0
 41
0.0
 42
0.0
 43
0.0
 44
0.0
 45
0.0
 46
0.0
 47
0.0
 48
0.0
 49
0.0
140
0.0
141
0.0
142
1.0
143
1.0
 70
   688
 72
     0
 73
     0
 74
     5
  7

 75
    16
147
1.0
148
0.0
149
0.0
100
AcDbLayout
  1
Layout1
 70
     1
 71
     1
 10
0.0
 20
0.0
 11
12.0
 21
9.0
 12
0.0
 22
0.0
 32
0.0
 14
1.00000000000000E+20
 24
1.00000000000000E+20
 34
1.00000000000000E+20
 15
-1.00000000000000E+20
 25
-1.00000000000000E+20
 35
-1.00000000000000E+20
146
0.0
 13
0.0
 23
0.0
 33
0.0
 16
1.0
 26
0.0
 36
0.0
 17
0.0
 27
1.0
 37
0.0
 76
     0
330
1B
  0
LAYOUT
  5
26
102
{ACAD_REACTORS
330
1A
102
}
330
1A
100
AcDbPlotSettings
  1

  2
none_device
  4

  6

 40
0.0
 41
0.0
 42
0.0
 43
0.0
 44
0.0
 45
0.0
 46
0.0
 47
0.0
 48
0.0
 49
0.0
140
0.0
141
0.0
142
1.0
143
1.0
 70
   688
 72
     0
 73
     0
 74
     5
  7

 75
    16
147
1.0
148
0.0
149
0.0
100
AcDbLayout
  1
Layout2
 70
     1
 71
     2
 10
0.0
 20
0.0
 11
0.0
 21
0.0
 12
0.0
 22
0.0
 32
0.0
 14
0.0
 24
0.0
 34
0.0
 15
0.0
 25
0.0
 35
0.0
146
0.0
 13
0.0
 23
0.0
 33
0.0
 16
1.0
 26
0.0
 36
0.0
 17
0.0
 27
1.0
 37
0.0
 76
     0
330
23
  0
LAYOUT
  5
22
102
{ACAD_REACTORS
330
1A
102
}
330
1A
100
AcDbPlotSettings
  1

  2
none_device
  4

  6

 40
0.0
 41
0.0
 42
0.0
 43
0.0
 44
0.0
 45
0.0
 46
0.0
 47
0.0
 48
0.0
 49
0.0
140
0.0
141
0.0
142
1.0
143
1.0
 70
  1712
 72
     0
 73
     0
 74
     0
  7

 75
     0
147
1.0
148
0.0
149
0.0
100
AcDbLayout
  1
Model
 70
     1
 71
     0
 10
0.0
 20
0.0
 11
12.0
 21
9.0
 12
0.0
 22
0.0
 32
0.0
 14
-191.0
 24
-59.4158848386005
 34
0.0
 15
280.560341323291
 25
391.960526714489
 35
0.0
146
0.0
 13
0.0
 23
0.0
 33
0.0
 16
1.0
 26
0.0
 36
0.0
 17
0.0
 27
1.0
 37
0.0
 76
     0
330
1F
331
29
  0
MATERIAL
  5
3D
102
{ACAD_REACTORS
330
3B
102
}
102
{ACAD_XDICTIONARY
360
556
102
}
330
3B
100
AcDbMaterial
  1
ByBlock
  0
MATERIAL
  5
3C
102
{ACAD_REACTORS
330
3B
102
}
102
{ACAD_XDICTIONARY
360
554
102
}
330
3B
100
AcDbMaterial
  1
ByLayer
  0
MATERIAL
  5
3E
102
{ACAD_REACTORS
330
3B
102
}
102
{ACAD_XDICTIONARY
360
558
102
}
330
3B
100
AcDbMaterial
  1
Global
  0
MLINESTYLE
  5
18
102
{ACAD_REACTORS
330
17
102
}
330
17
100
AcDbMlineStyle
  2
Standard
 70
     0
  3

 62
   256
 51
90.0
 52
90.0
 71
     2
 49
0.5
 62
   256
  6
BYLAYER
 49
-0.5
 62
   256
  6
BYLAYER
  0
ACDBPLACEHOLDER
  5
F
102
{ACAD_REACTORS
330
E
102
}
330
E
  0
VISUALSTYLE
  5
2F
102
{ACAD_REACTORS
330
2A
102
}
102
{ACAD_XDICTIONARY
360
53C
102
}
330
2A
100
AcDbVisualStyle
  2
2dWireframe
 70
     4
 71
     0
 72
     2
 73
     0
 90
        0
 40
-0.6
 41
-30.0
 62
     5
 63
     7
 74
     1
 91
        4
 64
     7
 65
   257
 75
     1
175
     1
 42
1.0
 92
        0
 66
   257
 43
1.0
 76
     1
 77
     6
 78
     2
 67
     7
 79
     5
170
     0
171
     0
290
     0
174
     0
 93
        1
 44
0.0
173
     0
291
     0
 45
0.0
1001
ACAD
1000
AcDbSavedByObjectVersion
1070
     0
  0
VISUALSTYLE
  5
31
102
{ACAD_REACTORS
330
2A
102
}
102
{ACAD_XDICTIONARY
360
540
102
}
330
2A
100
AcDbVisualStyle
  2
3D Hidden
 70
     6
 71
     1
 72
     2
 73
     2
 90
        0
 40
-0.6
 41
-30.0
 62
     5
 63
     7
 74
     2
 91
        2
 64
     7
 65
   257
 75
     2
175
     1
 42
40.0
 92
        0
 66
   257
 43
1.0
 76
     1
 77
     6
 78
     2
 67
     7
 79
     3
170
     0
171
     0
290
     0
174
     0
 93
        1
 44
0.0
173
     0
291
     0
 45
0.0
1001
ACAD
1000
AcDbSavedByObjectVersion
1070
     0
  0
VISUALSTYLE
  5
30
102
{ACAD_REACTORS
330
2A
102
}
102
{ACAD_XDICTIONARY
360
53E
102
}
330
2A
100
AcDbVisualStyle
  2
3dWireframe
 70
     5
 71
     0
 72
     2
 73
     0
 90
        0
 40
-0.6
 41
-30.0
 62
     5
 63
     7
 74
     1
 91
        4
 64
     7
 65
   257
 75
     1
175
     1
 42
1.0
 92
        0
 66
   257
 43
1.0
 76
     1
 77
     6
 78
     2
 67
     7
 79
     5
170
     0
171
     0
290
     0
174
     0
 93
        1
 44
0.0
173
     0
291
     0
 45
0.0
1001
ACAD
1000
AcDbSavedByObjectVersion
1070
     0
  0
VISUALSTYLE
  5
32
102
{ACAD_REACTORS
330
2A
102
}
102
{ACAD_XDICTIONARY
360
542
102
}
330
2A
100
AcDbVisualStyle
  2
Basic
 70
     7
 71
     1
 72
     0
 73
     1
 90
        0
 40
-0.6
 41
-30.0
 62
     5
 63
     7
 74
     0
 91
        4
 64
     7
 65
   257
 75
     1
175
     1
 42
1.0
 92
        8
 66
     7
 43
1.0
 76
     1
 77
     6
 78
     2
 67
     7
 79
     5
170
     0
171
     0
290
     0
174
     0
 93
        1
 44
0.0
173
     0
291
     1
 45
0.0
1001
ACAD
1000
AcDbSavedByObjectVersion
1070
     0
  0
VISUALSTYLE
  5
36
102
{ACAD_REACTORS
330
2A
102
}
102
{ACAD_XDICTIONARY
360
54A
102
}
330
2A
100
AcDbVisualStyle
  2
Brighten
 70
    12
 71
     2
 72
     2
 73
     0
 90
        0
 40
-0.6
 41
-30.0
 62
     5
 63
     7
 74
     1
 91
        4
 64
     7
 65
   257
 75
     1
175
     1
 42
1.0
 92
        8
 66
     7
 43
1.0
 76
     1
 77
     6
 78
     2
 67
     7
 79
     5
170
     0
171
     0
290
     0
174
     0
 93
        1
 44
50.0
173
     0
291
     1
 45
0.0
1001
ACAD
1000
AcDbSavedByObjectVersion
1070
     0
  0
VISUALSTYLE
  5
3A
102
{ACAD_REACTORS
330
2A
102
}
102
{ACAD_XDICTIONARY
360
552
102
}
330
2A
100
AcDbVisualStyle
  2
ColorChange
 70
    16
 71
     2
 72
     2
 73
     3
 90
        0
 40
-0.6
 41
-30.0
 62
     5
 63
     8
 74
     1
 91
        4
 64
     7
 65
   257
 75
     1
175
     1
 42
1.0
 92
        8
 66
     8
 43
1.0
 76
     1
 77
     6
 78
     2
 67
     7
 79
     5
170
     0
171
     0
290
     0
174
     0
 93
        1
 44
0.0
173
     0
291
     1
 45
0.0
1001
ACAD
1000
AcDbSavedByObjectVersion
1070
     0
  0
VISUALSTYLE
  5
34
102
{ACAD_REACTORS
330
2A
102
}
102
{ACAD_XDICTIONARY
360
546
102
}
330
2A
100
AcDbVisualStyle
  2
Conceptual
 70
     9
 71
     3
 72
     2
 73
     0
 90
        0
 40
-0.6
 41
-30.0
 62
     5
 63
     7
 74
     2
 91
        2
 64
     7
 65
   257
 75
     1
175
     1
 42
40.0
 92
        8
 66
     7
 43
1.0
 76
     1
 77
     6
 78
     2
 67
     7
 79
     3
170
     0
171
     0
290
     0
174
     0
 93
        1
 44
0.0
173
     0
291
     0
 45
0.0
1001
ACAD
1000
AcDbSavedByObjectVersion
1070
     0
  0
VISUALSTYLE
  5
35
102
{ACAD_REACTORS
330
2A
102
}
102
{ACAD_XDICTIONARY
360
548
102
}
330
2A
100
AcDbVisualStyle
  2
Dim
 70
    11
 71
     2
 72
     2
 73
     0
 90
        0
 40
-0.6
 41
-30.0
 62
     5
 63
     7
 74
     1
 91
        4
 64
     7
 65
   257
 75
     1
175
     1
 42
1.0
 92
        8
 66
     7
 43
1.0
 76
     1
 77
     6
 78
     2
 67
     7
 79
     5
170
     0
171
     0
290
     0
174
     0
 93
        1
 44
-50.0
173
     0
291
     1
 45
0.0
1001
ACAD
1000
AcDbSavedByObjectVersion
1070
     0
  0
VISUALSTYLE
  5
39
102
{ACAD_REACTORS
330
2A
102
}
102
{ACAD_XDICTIONARY
360
550
102
}
330
2A
100
AcDbVisualStyle
  2
Facepattern
 70
    15
 71
     2
 72
     2
 73
     0
 90
        0
 40
-0.6
 41
-30.0
 62
     5
 63
     7
 74
     1
 91
        4
 64
     7
 65
   257
 75
     1
175
     1
 42
1.0
 92
        8
 66
     7
 43
1.0
 76
     1
 77
     6
 78
     2
 67
     7
 79
     5
170
     0
171
     0
290
     0
174
     0
 93
        1
 44
0.0
173
     0
291
     1
 45
0.0
1001
ACAD
1000
AcDbSavedByObjectVersion
1070
     0
  0
VISUALSTYLE
  5
2B
102
{ACAD_REACTORS
330
2A
102
}
102
{ACAD_XDICTIONARY
360
534
102
}
330
2A
100
AcDbVisualStyle
  2
Flat
 70
     0
 71
     2
 72
     1
 73
     1
 90
        2
 40
-0.6
 41
30.0
 62
     5
 63
     7
 74
     0
 91
        4
 64
     7
 65
   257
 75
     1
175
     1
 42
1.0
 92
        8
 66
     7
 43
1.0
 76
     1
 77
     6
 78
     2
 67
     7
 79
     5
170
     0
171
     0
290
     0
174
     0
 93
       13
 44
0.0
173
     0
291
     1
 45
0.0
1001
ACAD
1000
AcDbSavedByObjectVersion
1070
     0
  0
VISUALSTYLE
  5
2C
102
{ACAD_REACTORS
330
2A
102
}
102
{ACAD_XDICTIONARY
360
536
102
}
330
2A
100
AcDbVisualStyle
  2
FlatWithEdges
 70
     1
 71
     2
 72
     1
 73
     1
 90
        2
 40
-0.6
 41
30.0
 62
     5
 63
     7
 74
     1
 91
        4
 64
     7
 65
   257
 75
     1
175
     1
 42
1.0
 92
        0
 66
   257
 43
1.0
 76
     1
 77
     6
 78
     2
 67
     7
 79
     5
170
     0
171
     0
290
     0
174
     0
 93
       13
 44
0.0
173
     0
291
     1
 45
0.0
1001
ACAD
1000
AcDbSavedByObjectVersion
1070
     0
  0
VISUALSTYLE
  5
2D
102
{ACAD_REACTORS
330
2A
102
}
102
{ACAD_XDICTIONARY
360
538
102
}
330
2A
100
AcDbVisualStyle
  2
Gouraud
 70
     2
 71
     2
 72
     2
 73
     1
 90
        2
 40
-0.6
 41
30.0
 62
     5
 63
     7
 74
     0
 91
        4
 64
     7
 65
   257
 75
     1
175
     1
 42
1.0
 92
        0
 66
     7
 43
1.0
 76
     1
 77
     6
 78
     2
 67
     7
 79
     5
170
     0
171
     0
290
     0
174
     0
 93
       13
 44
0.0
173
     0
291
     1
 45
0.0
1001
ACAD
1000
AcDbSavedByObjectVersion
1070
     0
  0
VISUALSTYLE
  5
2E
102
{ACAD_REACTORS
330
2A
102
}
102
{ACAD_XDICTIONARY
360
53A
102
}
330
2A
100
AcDbVisualStyle
  2
GouraudWithEdges
 70
     3
 71
     2
 72
     2
 73
     1
 90
        2
 40
-0.6
 41
30.0
 62
     5
 63
     7
 74
     1
 91
        4
 64
     7
 65
   257
 75
     1
175
     1
 42
1.0
 92
        0
 66
   257
 43
1.0
 76
     1
 77
     6
 78
     2
 67
     7
 79
     5
170
     0
171
     0
290
     0
174
     0
 93
       13
 44
0.0
173
     0
291
     1
 45
0.0
1001
ACAD
1000
AcDbSavedByObjectVersion
1070
     0
  0
VISUALSTYLE
  5
38
102
{ACAD_REACTORS
330
2A
102
}
102
{ACAD_XDICTIONARY
360
54E
102
}
330
2A
100
AcDbVisualStyle
  2
Linepattern
 70
    14
 71
     2
 72
     2
 73
     0
 90
        0
 40
-0.6
 41
-30.0
 62
     5
 63
     7
 74
     1
 91
        4
 64
     7
 65
   257
 75
     7
175
     7
 42
1.0
 92
        8
 66
     7
 43
1.0
 76
     1
 77
     6
 78
     2
 67
     7
 79
     5
170
     0
171
     0
290
     0
174
     0
 93
        1
 44
0.0
173
     0
291
     1
 45
0.0
1001
ACAD
1000
AcDbSavedByObjectVersion
1070
     0
  0
VISUALSTYLE
  5
33
102
{ACAD_REACTORS
330
2A
102
}
102
{ACAD_XDICTIONARY
360
544
102
}
330
2A
100
AcDbVisualStyle
  2
Realistic
 70
     8
 71
     2
 72
     2
 73
     0
 90
        0
 40
-0.6
 41
-30.0
 62
     5
 63
     7
 74
     1
 91
        0
 64
     7
 65
   257
 75
     1
175
     1
 42
1.0
 92
        8
 66
     8
 43
1.0
 76
     1
 77
     6
 78
     2
 67
     7
 79
     5
170
     0
171
     0
290
     0
174
     0
 93
       13
 44
0.0
173
     0
291
     0
 45
0.0
1001
ACAD
1000
AcDbSavedByObjectVersion
1070
     0
  0
VISUALSTYLE
  5
37
102
{ACAD_REACTORS
330
2A
102
}
102
{ACAD_XDICTIONARY
360
54C
102
}
330
2A
100
AcDbVisualStyle
  2
Thicken
 70
    13
 71
     2
 72
     2
 73
     0
 90
        0
 40
-0.6
 41
-30.0
 62
     5
 63
     7
 74
     1
 91
        4
 64
     7
 65
   257
 75
     1
175
     1
 42
1.0
 92
       12
 66
     7
 43
1.0
 76
     1
 77
     6
 78
     2
 67
     7
 79
     5
170
     0
171
     0
290
     0
174
     0
 93
        1
 44
0.0
173
     0
291
     1
 45
0.0
1001
ACAD
1000
AcDbSavedByObjectVersion
1070
     0
  0
DICTIONARYVAR
  5
532
102
{ACAD_REACTORS
330
52F
102
}
330
52F
100
DictionaryVariables
280
     0
  1
2
  0
DICTIONARYVAR
  5
533
102
{ACAD_REACTORS
330
52F
102
}
330
52F
100
DictionaryVariables
280
     0
  1
1
  0
DICTIONARY
  5
556
330
3D
100
AcDbDictionary
280
     1
281
     1
  3
ACAD_XREC_ROUNDTRIP
360
557
  0
DICTIONARY
  5
554
330
3C
100
AcDbDictionary
280
     1
281
     1
  3
ACAD_XREC_ROUNDTRIP
360
555
  0
DICTIONARY
  5
558
330
3E
100
AcDbDictionary
280
     1
281
     1
  3
ACAD_XREC_ROUNDTRIP
360
559
  0
DICTIONARY
  5
53C
330
2F
100
AcDbDictionary
280
     1
281
     1
  3
ACAD_XREC_ROUNDTRIP
360
53D
  0
DICTIONARY
  5
540
330
31
100
AcDbDictionary
280
     1
281
     1
  3
ACAD_XREC_ROUNDTRIP
360
541
  0
DICTIONARY
  5
53E
330
30
100
AcDbDictionary
280
     1
281
     1
  3
ACAD_XREC_ROUNDTRIP
360
53F
  0
DICTIONARY
  5
542
330
32
100
AcDbDictionary
280
     1
281
     1
  3
ACAD_XREC_ROUNDTRIP
360
543
  0
DICTIONARY
  5
54A
330
36
100
AcDbDictionary
280
     1
281
     1
  3
ACAD_XREC_ROUNDTRIP
360
54B
  0
DICTIONARY
  5
552
330
3A
100
AcDbDictionary
280
     1
281
     1
  3
ACAD_XREC_ROUNDTRIP
360
553
  0
DICTIONARY
  5
546
330
34
100
AcDbDictionary
280
     1
281
     1
  3
ACAD_XREC_ROUNDTRIP
360
547
  0
DICTIONARY
  5
548
330
35
100
AcDbDictionary
280
     1
281
     1
  3
ACAD_XREC_ROUNDTRIP
360
549
  0
DICTIONARY
  5
550
330
39
100
AcDbDictionary
280
     1
281
     1
  3
ACAD_XREC_ROUNDTRIP
360
551
  0
DICTIONARY
  5
534
330
2B
100
AcDbDictionary
280
     1
281
     1
  3
ACAD_XREC_ROUNDTRIP
360
535
  0
DICTIONARY
  5
536
330
2C
100
AcDbDictionary
280
     1
281
     1
  3
ACAD_XREC_ROUNDTRIP
360
537
  0
DICTIONARY
  5
538
330
2D
100
AcDbDictionary
280
     1
281
     1
  3
ACAD_XREC_ROUNDTRIP
360
539
  0
DICTIONARY
  5
53A
330
2E
100
AcDbDictionary
280
     1
281
     1
  3
ACAD_XREC_ROUNDTRIP
360
53B
  0
DICTIONARY
  5
54E
330
38
100
AcDbDictionary
280
     1
281
     1
  3
ACAD_XREC_ROUNDTRIP
360
54F
  0
DICTIONARY
  5
544
330
33
100
AcDbDictionary
280
     1
281
     1
  3
ACAD_XREC_ROUNDTRIP
360
545
  0
DICTIONARY
  5
54C
330
37
100
AcDbDictionary
280
     1
281
     1
  3
ACAD_XREC_ROUNDTRIP
360
54D
  0
XRECORD
  5
557
102
{ACAD_REACTORS
330
556
102
}
330
556
100
AcDbXrecord
280
     1
102
MATERIAL
148
0.0
149
0.0
149
0.0
 93
        0
 94
      127
282
     0
 72
     1
 77
     1
171
     1
175
     1
179
     1
273
     0
  0
XRECORD
  5
555
102
{ACAD_REACTORS
330
554
102
}
330
554
100
AcDbXrecord
280
     1
102
MATERIAL
148
0.0
149
0.0
149
0.0
 93
        0
 94
      127
282
     0
 72
     1
 77
     1
171
     1
175
     1
179
     1
273
     0
  0
XRECORD
  5
559
102
{ACAD_REACTORS
330
558
102
}
330
558
100
AcDbXrecord
280
     1
102
MATERIAL
148
0.0
149
0.0
149
0.0
 93
        0
 94
      127
282
     0
 72
     1
 77
     1
171
     1
175
     1
179
     1
273
     0
  0
XRECORD
  5
53D
102
{ACAD_REACTORS
330
53C
102
}
330
53C
100
AcDbXrecord
280
     1
102
RTVSPropertyOp0
 70
     1
102
RTVSPropertyOp1
 70
     1
102
RTVSPropertyOp2
 70
     1
102
RTVSPropertyOp3
 70
     1
102
RTVSPropertyOp4
 70
     1
102
RTVSPropertyOp5
 70
     1
102
RTVSPropertyOp6
 70
     1
102
RTVSPropertyOp7
 70
     1
102
RTVSPropertyOp8
 70
     1
102
RTVSPropertyOp9
 70
     1
102
RTVSPropertyOp10
 70
     1
102
RTVSPropertyOp11
 70
     1
102
RTVSPropertyOp12
 70
     1
102
RTVSPropertyOp13
 70
     1
102
RTVSPropertyOp14
 70
     1
102
RTVSPropertyOp15
 70
     1
102
RTVSPropertyOp16
 70
     1
102
RTVSPropertyOp17
 70
     1
102
RTVSPropertyOp18
 70
     1
102
RTVSPropertyOp19
 70
     1
102
RTVSPropertyOp20
 70
     1
102
RTVSPropertyOp21
 70
     1
102
RTVSPropertyOp22
 70
     1
102
RTVSPropertyOp23
 70
     1
102
RTVSPropertyOp24
 70
     1
102
RTVSPropertyOp25
 70
     1
102
RTVSPropertyOp26
 70
     1
102
RTVSPropertyOp27
 70
     1
  0
XRECORD
  5
541
102
{ACAD_REACTORS
330
540
102
}
330
540
100
AcDbXrecord
280
     1
102
RTVSPropertyOp0
 70
     1
102
RTVSPropertyOp1
 70
     1
102
RTVSPropertyOp2
 70
     1
102
RTVSPropertyOp3
 70
     1
102
RTVSPropertyOp4
 70
     1
102
RTVSPropertyOp5
 70
     1
102
RTVSPropertyOp6
 70
     1
102
RTVSPropertyOp7
 70
     1
102
RTVSPropertyOp8
 70
     1
102
RTVSPropertyOp9
 70
     1
102
RTVSPropertyOp10
 70
     1
102
RTVSPropertyOp11
 70
     1
102
RTVSPropertyOp12
 70
     1
102
RTVSPropertyOp13
 70
     1
102
RTVSPropertyOp14
 70
     1
102
RTVSPropertyOp15
 70
     1
102
RTVSPropertyOp16
 70
     1
102
RTVSPropertyOp17
 70
     1
102
RTVSPropertyOp18
 70
     1
102
RTVSPropertyOp19
 70
     1
102
RTVSPropertyOp20
 70
     1
102
RTVSPropertyOp21
 70
     1
102
RTVSPropertyOp22
 70
     1
102
RTVSPropertyOp23
 70
     1
102
RTVSPropertyOp24
 70
     1
102
RTVSPropertyOp25
 70
     1
102
RTVSPropertyOp26
 70
     1
102
RTVSPropertyOp27
 70
     1
  0
XRECORD
  5
53F
102
{ACAD_REACTORS
330
53E
102
}
330
53E
100
AcDbXrecord
280
     1
102
RTVSPropertyOp0
 70
     1
102
RTVSPropertyOp1
 70
     1
102
RTVSPropertyOp2
 70
     1
102
RTVSPropertyOp3
 70
     1
102
RTVSPropertyOp4
 70
     1
102
RTVSPropertyOp5
 70
     1
102
RTVSPropertyOp6
 70
     1
102
RTVSPropertyOp7
 70
     1
102
RTVSPropertyOp8
 70
     1
102
RTVSPropertyOp9
 70
     1
102
RTVSPropertyOp10
 70
     1
102
RTVSPropertyOp11
 70
     1
102
RTVSPropertyOp12
 70
     1
102
RTVSPropertyOp13
 70
     1
102
RTVSPropertyOp14
 70
     1
102
RTVSPropertyOp15
 70
     1
102
RTVSPropertyOp16
 70
     1
102
RTVSPropertyOp17
 70
     1
102
RTVSPropertyOp18
 70
     1
102
RTVSPropertyOp19
 70
     1
102
RTVSPropertyOp20
 70
     1
102
RTVSPropertyOp21
 70
     1
102
RTVSPropertyOp22
 70
     1
102
RTVSPropertyOp23
 70
     1
102
RTVSPropertyOp24
 70
     1
102
RTVSPropertyOp25
 70
     1
102
RTVSPropertyOp26
 70
     1
102
RTVSPropertyOp27
 70
     1
  0
XRECORD
  5
543
102
{ACAD_REACTORS
330
542
102
}
330
542
100
AcDbXrecord
280
     1
102
RTVSPropertyOp0
 70
     1
102
RTVSPropertyOp1
 70
     1
102
RTVSPropertyOp2
 70
     1
102
RTVSPropertyOp3
 70
     1
102
RTVSPropertyOp4
 70
     1
102
RTVSPropertyOp5
 70
     1
102
RTVSPropertyOp6
 70
     1
102
RTVSPropertyOp7
 70
     1
102
RTVSPropertyOp8
 70
     1
102
RTVSPropertyOp9
 70
     1
102
RTVSPropertyOp10
 70
     1
102
RTVSPropertyOp11
 70
     1
102
RTVSPropertyOp12
 70
     1
102
RTVSPropertyOp13
 70
     1
102
RTVSPropertyOp14
 70
     1
102
RTVSPropertyOp15
 70
     1
102
RTVSPropertyOp16
 70
     1
102
RTVSPropertyOp17
 70
     1
102
RTVSPropertyOp18
 70
     1
102
RTVSPropertyOp19
 70
     1
102
RTVSPropertyOp20
 70
     1
102
RTVSPropertyOp21
 70
     1
102
RTVSPropertyOp22
 70
     1
102
RTVSPropertyOp23
 70
     1
102
RTVSPropertyOp24
 70
     1
102
RTVSPropertyOp25
 70
     1
102
RTVSPropertyOp26
 70
     1
102
RTVSPropertyOp27
 70
     1
  0
XRECORD
  5
54B
102
{ACAD_REACTORS
330
54A
102
}
330
54A
100
AcDbXrecord
280
     1
102
RTVSPropertyOp0
 70
     1
102
RTVSPropertyOp1
 70
     1
102
RTVSPropertyOp2
 70
     1
102
RTVSPropertyOp3
 70
     1
102
RTVSPropertyOp4
 70
     1
102
RTVSPropertyOp5
 70
     1
102
RTVSPropertyOp6
 70
     1
102
RTVSPropertyOp7
 70
     1
102
RTVSPropertyOp8
 70
     1
102
RTVSPropertyOp9
 70
     1
102
RTVSPropertyOp10
 70
     1
102
RTVSPropertyOp11
 70
     1
102
RTVSPropertyOp12
 70
     1
102
RTVSPropertyOp13
 70
     1
102
RTVSPropertyOp14
 70
     1
102
RTVSPropertyOp15
 70
     1
102
RTVSPropertyOp16
 70
     1
102
RTVSPropertyOp17
 70
     1
102
RTVSPropertyOp18
 70
     1
102
RTVSPropertyOp19
 70
     1
102
RTVSPropertyOp20
 70
     1
102
RTVSPropertyOp21
 70
     1
102
RTVSPropertyOp22
 70
     1
102
RTVSPropertyOp23
 70
     1
102
RTVSPropertyOp24
 70
     1
102
RTVSPropertyOp25
 70
     1
102
RTVSPropertyOp26
 70
     1
102
RTVSPropertyOp27
 70
     1
  0
XRECORD
  5
553
102
{ACAD_REACTORS
330
552
102
}
330
552
100
AcDbXrecord
280
     1
102
RTVSPropertyOp0
 70
     1
102
RTVSPropertyOp1
 70
     1
102
RTVSPropertyOp2
 70
     1
102
RTVSPropertyOp3
 70
     1
102
RTVSPropertyOp4
 70
     1
102
RTVSPropertyOp5
 70
     1
102
RTVSPropertyOp6
 70
     1
102
RTVSPropertyOp7
 70
     1
102
RTVSPropertyOp8
 70
     1
102
RTVSPropertyOp9
 70
     1
102
RTVSPropertyOp10
 70
     1
102
RTVSPropertyOp11
 70
     1
102
RTVSPropertyOp12
 70
     1
102
RTVSPropertyOp13
 70
     1
102
RTVSPropertyOp14
 70
     1
102
RTVSPropertyOp15
 70
     1
102
RTVSPropertyOp16
 70
     1
102
RTVSPropertyOp17
 70
     1
102
RTVSPropertyOp18
 70
     1
102
RTVSPropertyOp19
 70
     1
102
RTVSPropertyOp20
 70
     1
102
RTVSPropertyOp21
 70
     1
102
RTVSPropertyOp22
 70
     1
102
RTVSPropertyOp23
 70
     1
102
RTVSPropertyOp24
 70
     1
102
RTVSPropertyOp25
 70
     1
102
RTVSPropertyOp26
 70
     1
102
RTVSPropertyOp27
 70
     1
  0
XRECORD
  5
547
102
{ACAD_REACTORS
330
546
102
}
330
546
100
AcDbXrecord
280
     1
102
RTVSPropertyOp0
 70
     1
102
RTVSPropertyOp1
 70
     1
102
RTVSPropertyOp2
 70
     1
102
RTVSPropertyOp3
 70
     1
102
RTVSPropertyOp4
 70
     1
102
RTVSPropertyOp5
 70
     1
102
RTVSPropertyOp6
 70
     1
102
RTVSPropertyOp7
 70
     1
102
RTVSPropertyOp8
 70
     1
102
RTVSPropertyOp9
 70
     1
102
RTVSPropertyOp10
 70
     1
102
RTVSPropertyOp11
 70
     1
102
RTVSPropertyOp12
 70
     1
102
RTVSPropertyOp13
 70
     1
102
RTVSPropertyOp14
 70
     1
102
RTVSPropertyOp15
 70
     1
102
RTVSPropertyOp16
 70
     1
102
RTVSPropertyOp17
 70
     1
102
RTVSPropertyOp18
 70
     1
102
RTVSPropertyOp19
 70
     1
102
RTVSPropertyOp20
 70
     1
102
RTVSPropertyOp21
 70
     1
102
RTVSPropertyOp22
 70
     1
102
RTVSPropertyOp23
 70
     1
102
RTVSPropertyOp24
 70
     1
102
RTVSPropertyOp25
 70
     1
102
RTVSPropertyOp26
 70
     1
102
RTVSPropertyOp27
 70
     1
  0
XRECORD
  5
549
102
{ACAD_REACTORS
330
548
102
}
330
548
100
AcDbXrecord
280
     1
102
RTVSPropertyOp0
 70
     1
102
RTVSPropertyOp1
 70
     1
102
RTVSPropertyOp2
 70
     1
102
RTVSPropertyOp3
 70
     1
102
RTVSPropertyOp4
 70
     1
102
RTVSPropertyOp5
 70
     1
102
RTVSPropertyOp6
 70
     1
102
RTVSPropertyOp7
 70
     1
102
RTVSPropertyOp8
 70
     1
102
RTVSPropertyOp9
 70
     1
102
RTVSPropertyOp10
 70
     1
102
RTVSPropertyOp11
 70
     1
102
RTVSPropertyOp12
 70
     1
102
RTVSPropertyOp13
 70
     1
102
RTVSPropertyOp14
 70
     1
102
RTVSPropertyOp15
 70
     1
102
RTVSPropertyOp16
 70
     1
102
RTVSPropertyOp17
 70
     1
102
RTVSPropertyOp18
 70
     1
102
RTVSPropertyOp19
 70
     1
102
RTVSPropertyOp20
 70
     1
102
RTVSPropertyOp21
 70
     1
102
RTVSPropertyOp22
 70
     1
102
RTVSPropertyOp23
 70
     1
102
RTVSPropertyOp24
 70
     1
102
RTVSPropertyOp25
 70
     1
102
RTVSPropertyOp26
 70
     1
102
RTVSPropertyOp27
 70
     1
  0
XRECORD
  5
551
102
{ACAD_REACTORS
330
550
102
}
330
550
100
AcDbXrecord
280
     1
102
RTVSPropertyOp0
 70
     1
102
RTVSPropertyOp1
 70
     1
102
RTVSPropertyOp2
 70
     1
102
RTVSPropertyOp3
 70
     1
102
RTVSPropertyOp4
 70
     1
102
RTVSPropertyOp5
 70
     1
102
RTVSPropertyOp6
 70
     1
102
RTVSPropertyOp7
 70
     1
102
RTVSPropertyOp8
 70
     1
102
RTVSPropertyOp9
 70
     1
102
RTVSPropertyOp10
 70
     1
102
RTVSPropertyOp11
 70
     1
102
RTVSPropertyOp12
 70
     1
102
RTVSPropertyOp13
 70
     1
102
RTVSPropertyOp14
 70
     1
102
RTVSPropertyOp15
 70
     1
102
RTVSPropertyOp16
 70
     1
102
RTVSPropertyOp17
 70
     1
102
RTVSPropertyOp18
 70
     1
102
RTVSPropertyOp19
 70
     1
102
RTVSPropertyOp20
 70
     1
102
RTVSPropertyOp21
 70
     1
102
RTVSPropertyOp22
 70
     1
102
RTVSPropertyOp23
 70
     1
102
RTVSPropertyOp24
 70
     1
102
RTVSPropertyOp25
 70
     1
102
RTVSPropertyOp26
 70
     1
102
RTVSPropertyOp27
 70
     1
  0
XRECORD
  5
535
102
{ACAD_REACTORS
330
534
102
}
330
534
100
AcDbXrecord
280
     1
102
RTVSPropertyOp0
 70
     1
102
RTVSPropertyOp1
 70
     1
102
RTVSPropertyOp2
 70
     1
102
RTVSPropertyOp3
 70
     1
102
RTVSPropertyOp4
 70
     1
102
RTVSPropertyOp5
 70
     1
102
RTVSPropertyOp6
 70
     1
102
RTVSPropertyOp7
 70
     1
102
RTVSPropertyOp8
 70
     1
102
RTVSPropertyOp9
 70
     1
102
RTVSPropertyOp10
 70
     1
102
RTVSPropertyOp11
 70
     1
102
RTVSPropertyOp12
 70
     1
102
RTVSPropertyOp13
 70
     1
102
RTVSPropertyOp14
 70
     1
102
RTVSPropertyOp15
 70
     1
102
RTVSPropertyOp16
 70
     1
102
RTVSPropertyOp17
 70
     1
102
RTVSPropertyOp18
 70
     1
102
RTVSPropertyOp19
 70
     1
102
RTVSPropertyOp20
 70
     1
102
RTVSPropertyOp21
 70
     1
102
RTVSPropertyOp22
 70
     1
102
RTVSPropertyOp23
 70
     1
102
RTVSPropertyOp24
 70
     1
102
RTVSPropertyOp25
 70
     1
102
RTVSPropertyOp26
 70
     1
102
RTVSPropertyOp27
 70
     1
  0
XRECORD
  5
537
102
{ACAD_REACTORS
330
536
102
}
330
536
100
AcDbXrecord
280
     1
102
RTVSPropertyOp0
 70
     1
102
RTVSPropertyOp1
 70
     1
102
RTVSPropertyOp2
 70
     1
102
RTVSPropertyOp3
 70
     1
102
RTVSPropertyOp4
 70
     1
102
RTVSPropertyOp5
 70
     1
102
RTVSPropertyOp6
 70
     1
102
RTVSPropertyOp7
 70
     1
102
RTVSPropertyOp8
 70
     1
102
RTVSPropertyOp9
 70
     1
102
RTVSPropertyOp10
 70
     1
102
RTVSPropertyOp11
 70
     1
102
RTVSPropertyOp12
 70
     1
102
RTVSPropertyOp13
 70
     1
102
RTVSPropertyOp14
 70
     1
102
RTVSPropertyOp15
 70
     1
102
RTVSPropertyOp16
 70
     1
102
RTVSPropertyOp17
 70
     1
102
RTVSPropertyOp18
 70
     1
102
RTVSPropertyOp19
 70
     1
102
RTVSPropertyOp20
 70
     1
102
RTVSPropertyOp21
 70
     1
102
RTVSPropertyOp22
 70
     1
102
RTVSPropertyOp23
 70
     1
102
RTVSPropertyOp24
 70
     1
102
RTVSPropertyOp25
 70
     1
102
RTVSPropertyOp26
 70
     1
102
RTVSPropertyOp27
 70
     1
  0
XRECORD
  5
539
102
{ACAD_REACTORS
330
538
102
}
330
538
100
AcDbXrecord
280
     1
102
RTVSPropertyOp0
 70
     1
102
RTVSPropertyOp1
 70
     1
102
RTVSPropertyOp2
 70
     1
102
RTVSPropertyOp3
 70
     1
102
RTVSPropertyOp4
 70
     1
102
RTVSPropertyOp5
 70
     1
102
RTVSPropertyOp6
 70
     1
102
RTVSPropertyOp7
 70
     1
102
RTVSPropertyOp8
 70
     1
102
RTVSPropertyOp9
 70
     1
102
RTVSPropertyOp10
 70
     1
102
RTVSPropertyOp11
 70
     1
102
RTVSPropertyOp12
 70
     1
102
RTVSPropertyOp13
 70
     1
102
RTVSPropertyOp14
 70
     1
102
RTVSPropertyOp15
 70
     1
102
RTVSPropertyOp16
 70
     1
102
RTVSPropertyOp17
 70
     1
102
RTVSPropertyOp18
 70
     1
102
RTVSPropertyOp19
 70
     1
102
RTVSPropertyOp20
 70
     1
102
RTVSPropertyOp21
 70
     1
102
RTVSPropertyOp22
 70
     1
102
RTVSPropertyOp23
 70
     1
102
RTVSPropertyOp24
 70
     1
102
RTVSPropertyOp25
 70
     1
102
RTVSPropertyOp26
 70
     1
102
RTVSPropertyOp27
 70
     1
  0
XRECORD
  5
53B
102
{ACAD_REACTORS
330
53A
102
}
330
53A
100
AcDbXrecord
280
     1
102
RTVSPropertyOp0
 70
     1
102
RTVSPropertyOp1
 70
     1
102
RTVSPropertyOp2
 70
     1
102
RTVSPropertyOp3
 70
     1
102
RTVSPropertyOp4
 70
     1
102
RTVSPropertyOp5
 70
     1
102
RTVSPropertyOp6
 70
     1
102
RTVSPropertyOp7
 70
     1
102
RTVSPropertyOp8
 70
     1
102
RTVSPropertyOp9
 70
     1
102
RTVSPropertyOp10
 70
     1
102
RTVSPropertyOp11
 70
     1
102
RTVSPropertyOp12
 70
     1
102
RTVSPropertyOp13
 70
     1
102
RTVSPropertyOp14
 70
     1
102
RTVSPropertyOp15
 70
     1
102
RTVSPropertyOp16
 70
     1
102
RTVSPropertyOp17
 70
     1
102
RTVSPropertyOp18
 70
     1
102
RTVSPropertyOp19
 70
     1
102
RTVSPropertyOp20
 70
     1
102
RTVSPropertyOp21
 70
     1
102
RTVSPropertyOp22
 70
     1
102
RTVSPropertyOp23
 70
     1
102
RTVSPropertyOp24
 70
     1
102
RTVSPropertyOp25
 70
     1
102
RTVSPropertyOp26
 70
     1
102
RTVSPropertyOp27
 70
     1
  0
XRECORD
  5
54F
102
{ACAD_REACTORS
330
54E
102
}
330
54E
100
AcDbXrecord
280
     1
102
RTVSPropertyOp0
 70
     1
102
RTVSPropertyOp1
 70
     1
102
RTVSPropertyOp2
 70
     1
102
RTVSPropertyOp3
 70
     1
102
RTVSPropertyOp4
 70
     1
102
RTVSPropertyOp5
 70
     1
102
RTVSPropertyOp6
 70
     1
102
RTVSPropertyOp7
 70
     1
102
RTVSPropertyOp8
 70
     1
102
RTVSPropertyOp9
 70
     1
102
RTVSPropertyOp10
 70
     1
102
RTVSPropertyOp11
 70
     1
102
RTVSPropertyOp12
 70
     1
102
RTVSPropertyOp13
 70
     1
102
RTVSPropertyOp14
 70
     1
102
RTVSPropertyOp15
 70
     1
102
RTVSPropertyOp16
 70
     1
102
RTVSPropertyOp17
 70
     1
102
RTVSPropertyOp18
 70
     1
102
RTVSPropertyOp19
 70
     1
102
RTVSPropertyOp20
 70
     1
102
RTVSPropertyOp21
 70
     1
102
RTVSPropertyOp22
 70
     1
102
RTVSPropertyOp23
 70
     1
102
RTVSPropertyOp24
 70
     1
102
RTVSPropertyOp25
 70
     1
102
RTVSPropertyOp26
 70
     1
102
RTVSPropertyOp27
 70
     1
  0
XRECORD
  5
545
102
{ACAD_REACTORS
330
544
102
}
330
544
100
AcDbXrecord
280
     1
102
RTVSPropertyOp0
 70
     1
102
RTVSPropertyOp1
 70
     1
102
RTVSPropertyOp2
 70
     1
102
RTVSPropertyOp3
 70
     1
102
RTVSPropertyOp4
 70
     1
102
RTVSPropertyOp5
 70
     1
102
RTVSPropertyOp6
 70
     1
102
RTVSPropertyOp7
 70
     1
102
RTVSPropertyOp8
 70
     1
102
RTVSPropertyOp9
 70
     1
102
RTVSPropertyOp10
 70
     1
102
RTVSPropertyOp11
 70
     1
102
RTVSPropertyOp12
 70
     1
102
RTVSPropertyOp13
 70
     1
102
RTVSPropertyOp14
 70
     1
102
RTVSPropertyOp15
 70
     1
102
RTVSPropertyOp16
 70
     1
102
RTVSPropertyOp17
 70
     1
102
RTVSPropertyOp18
 70
     1
102
RTVSPropertyOp19
 70
     1
102
RTVSPropertyOp20
 70
     1
102
RTVSPropertyOp21
 70
     1
102
RTVSPropertyOp22
 70
     1
102
RTVSPropertyOp23
 70
     1
102
RTVSPropertyOp24
 70
     1
102
RTVSPropertyOp25
 70
     1
102
RTVSPropertyOp26
 70
     1
102
RTVSPropertyOp27
 70
     1
  0
XRECORD
  5
54D
102
{ACAD_REACTORS
330
54C
102
}
330
54C
100
AcDbXrecord
280
     1
102
RTVSPropertyOp0
 70
     1
102
RTVSPropertyOp1
 70
     1
102
RTVSPropertyOp2
 70
     1
102
RTVSPropertyOp3
 70
     1
102
RTVSPropertyOp4
 70
     1
102
RTVSPropertyOp5
 70
     1
102
RTVSPropertyOp6
 70
     1
102
RTVSPropertyOp7
 70
     1
102
RTVSPropertyOp8
 70
     1
102
RTVSPropertyOp9
 70
     1
102
RTVSPropertyOp10
 70
     1
102
RTVSPropertyOp11
 70
     1
102
RTVSPropertyOp12
 70
     1
102
RTVSPropertyOp13
 70
     1
102
RTVSPropertyOp14
 70
     1
102
RTVSPropertyOp15
 70
     1
102
RTVSPropertyOp16
 70
     1
102
RTVSPropertyOp17
 70
     1
102
RTVSPropertyOp18
 70
     1
102
RTVSPropertyOp19
 70
     1
102
RTVSPropertyOp20
 70
     1
102
RTVSPropertyOp21
 70
     1
102
RTVSPropertyOp22
 70
     1
102
RTVSPropertyOp23
 70
     1
102
RTVSPropertyOp24
 70
     1
102
RTVSPropertyOp25
 70
     1
102
RTVSPropertyOp26
 70
     1
102
RTVSPropertyOp27
 70
     1
  0
ENDSEC
  0
EOF
