  0
SECTION
  2
HEADER
  9
$ACADVER
  1
AC1015
  9
$ACADMAINTVER
 70
     6
  9
$DWGCODEPAGE
  3
ANSI_932
  9
$INSBASE
 10
0.0
 20
0.0
 30
0.0
  9
$EXTMIN
 10
142.432457983964
 20
60.08913608739557
 30
0.0
  9
$EXTMAX
 10
374.0
 20
315.0000000000006
 30
0.0
  9
$LIMMIN
 10
0.0
 20
0.0
  9
$LIMMAX
 10
12.0
 20
9.0
  9
$ORTHOMODE
 70
     0
  9
$REGENMODE
 70
     1
  9
$FILLMODE
 70
     1
  9
$QTEXTMODE
 70
     0
  9
$MIRRTEXT
 70
     1
  9
$LTSCALE
 40
1.0
  9
$ATTMODE
 70
     1
  9
$TEXTSIZE
 40
0.2
  9
$TRACEWID
 40
0.05
  9
$TEXTSTYLE
  7
Standard
  9
$CLAYER
  8
0
  9
$CELTYPE
  6
ByLayer
  9
$CECOLOR
 62
   256
  9
$CELTSCALE
 40
1.0
  9
$DISPSILH
 70
     0
  9
$DIMSCALE
 40
1.0
  9
$DIMASZ
 40
0.18
  9
$DIMEXO
 40
0.0625
  9
$DIMDLI
 40
0.38
  9
$DIMRND
 40
0.0
  9
$DIMDLE
 40
0.0
  9
$DIMEXE
 40
0.18
  9
$DIMTP
 40
0.0
  9
$DIMTM
 40
0.0
  9
$DIMTXT
 40
0.18
  9
$DIMCEN
 40
0.09
  9
$DIMTSZ
 40
0.0
  9
$DIMTOL
 70
     0
  9
$DIMLIM
 70
     0
  9
$DIMTIH
 70
     1
  9
$DIMTOH
 70
     1
  9
$DIMSE1
 70
     0
  9
$DIMSE2
 70
     0
  9
$DIMTAD
 70
     0
  9
$DIMZIN
 70
     0
  9
$DIMBLK
  1

  9
$DIMASO
 70
     1
  9
$DIMSHO
 70
     1
  9
$DIMPOST
  1

  9
$DIMAPOST
  1

  9
$DIMALT
 70
     0
  9
$DIMALTD
 70
     2
  9
$DIMALTF
 40
25.4
  9
$DIMLFAC
 40
1.0
  9
$DIMTOFL
 70
     0
  9
$DIMTVP
 40
0.0
  9
$DIMTIX
 70
     0
  9
$DIMSOXD
 70
     0
  9
$DIMSAH
 70
     0
  9
$DIMBLK1
  1

  9
$DIMBLK2
  1

  9
$DIMSTYLE
  2
Standard
  9
$DIMCLRD
 70
     0
  9
$DIMCLRE
 70
     0
  9
$DIMCLRT
 70
     0
  9
$DIMTFAC
 40
1.0
  9
$DIMGAP
 40
0.09
  9
$DIMJUST
 70
     0
  9
$DIMSD1
 70
     0
  9
$DIMSD2
 70
     0
  9
$DIMTOLJ
 70
     1
  9
$DIMTZIN
 70
     0
  9
$DIMALTZ
 70
     0
  9
$DIMALTTZ
 70
     0
  9
$DIMUPT
 70
     0
  9
$DIMDEC
 70
     4
  9
$DIMTDEC
 70
     4
  9
$DIMALTU
 70
     2
  9
$DIMALTTD
 70
     2
  9
$DIMTXSTY
  7
Standard
  9
$DIMAUNIT
 70
     0
  9
$DIMADEC
 70
     0
  9
$DIMALTRND
 40
0.0
  9
$DIMAZIN
 70
     0
  9
$DIMDSEP
 70
    46
  9
$DIMATFIT
 70
     3
  9
$DIMFRAC
 70
     0
  9
$DIMLDRBLK
  1

  9
$DIMLUNIT
 70
     2
  9
$DIMLWD
 70
    -2
  9
$DIMLWE
 70
    -2
  9
$DIMTMOVE
 70
     0
  9
$LUNITS
 70
     2
  9
$LUPREC
 70
     4
  9
$SKETCHINC
 40
0.1
  9
$FILLETRAD
 40
0.5
  9
$AUNITS
 70
     0
  9
$AUPREC
 70
     0
  9
$MENU
  1
.
  9
$ELEVATION
 40
0.0
  9
$PELEVATION
 40
0.0
  9
$THICKNESS
 40
0.0
  9
$LIMCHECK
 70
     0
  9
$CHAMFERA
 40
0.5
  9
$CHAMFERB
 40
0.5
  9
$CHAMFERC
 40
1.0
  9
$CHAMFERD
 40
0.0
  9
$SKPOLY
 70
     0
  9
$TDCREATE
 40
2458179.554645
  9
$TDUCREATE
 40
2458179.179645
  9
$TDUPDATE
 40
2458179.554645012
  9
$TDUUPDATE
 40
2458179.179645012
  9
$TDINDWG
 40
0.0000000116
  9
$TDUSRTIMER
 40
0.0000000116
  9
$USRTIMER
 70
     1
  9
$ANGBASE
 50
0.0
  9
$ANGDIR
 70
     0
  9
$PDMODE
 70
     0
  9
$PDSIZE
 40
0.0
  9
$PLINEWID
 40
0.0
  9
$SPLFRAME
 70
     0
  9
$SPLINETYPE
 70
     6
  9
$SPLINESEGS
 70
     8
  9
$HANDSEED
  5
435
  9
$SURFTAB1
 70
     6
  9
$SURFTAB2
 70
     6
  9
$SURFTYPE
 70
     6
  9
$SURFU
 70
     6
  9
$SURFV
 70
     6
  9
$UCSBASE
  2

  9
$UCSNAME
  2

  9
$UCSORG
 10
0.0
 20
0.0
 30
0.0
  9
$UCSXDIR
 10
1.0
 20
0.0
 30
0.0
  9
$UCSYDIR
 10
0.0
 20
1.0
 30
0.0
  9
$UCSORTHOREF
  2

  9
$UCSORTHOVIEW
 70
     0
  9
$UCSORGTOP
 10
0.0
 20
0.0
 30
0.0
  9
$UCSORGBOTTOM
 10
0.0
 20
0.0
 30
0.0
  9
$UCSORGLEFT
 10
0.0
 20
0.0
 30
0.0
  9
$UCSORGRIGHT
 10
0.0
 20
0.0
 30
0.0
  9
$UCSORGFRONT
 10
0.0
 20
0.0
 30
0.0
  9
$UCSORGBACK
 10
0.0
 20
0.0
 30
0.0
  9
$PUCSBASE
  2

  9
$PUCSNAME
  2

  9
$PUCSORG
 10
0.0
 20
0.0
 30
0.0
  9
$PUCSXDIR
 10
1.0
 20
0.0
 30
0.0
  9
$PUCSYDIR
 10
0.0
 20
1.0
 30
0.0
  9
$PUCSORTHOREF
  2

  9
$PUCSORTHOVIEW
 70
     0
  9
$PUCSORGTOP
 10
0.0
 20
0.0
 30
0.0
  9
$PUCSORGBOTTOM
 10
0.0
 20
0.0
 30
0.0
  9
$PUCSORGLEFT
 10
0.0
 20
0.0
 30
0.0
  9
$PUCSORGRIGHT
 10
0.0
 20
0.0
 30
0.0
  9
$PUCSORGFRONT
 10
0.0
 20
0.0
 30
0.0
  9
$PUCSORGBACK
 10
0.0
 20
0.0
 30
0.0
  9
$USERI1
 70
     0
  9
$USERI2
 70
     0
  9
$USERI3
 70
     0
  9
$USERI4
 70
     0
  9
$USERI5
 70
     0
  9
$USERR1
 40
18.0
  9
$USERR2
 40
0.0
  9
$USERR3
 40
0.0
  9
$USERR4
 40
0.0
  9
$USERR5
 40
0.0
  9
$WORLDVIEW
 70
     1
  9
$SHADEDGE
 70
     3
  9
$SHADEDIF
 70
    70
  9
$TILEMODE
 70
     1
  9
$MAXACTVP
 70
    64
  9
$PINSBASE
 10
0.0
 20
0.0
 30
0.0
  9
$PLIMCHECK
 70
     0
  9
$PEXTMIN
 10
1.00000000000000E+20
 20
1.00000000000000E+20
 30
1.00000000000000E+20
  9
$PEXTMAX
 10
-1.00000000000000E+20
 20
-1.00000000000000E+20
 30
-1.00000000000000E+20
  9
$PLIMMIN
 10
0.0
 20
0.0
  9
$PLIMMAX
 10
12.0
 20
9.0
  9
$UNITMODE
 70
     0
  9
$VISRETAIN
 70
     1
  9
$PLINEGEN
 70
     0
  9
$PSLTSCALE
 70
     1
  9
$TREEDEPTH
 70
  3020
  9
$CMLSTYLE
  2
Standard
  9
$CMLJUST
 70
     0
  9
$CMLSCALE
 40
1.0
  9
$PROXYGRAPHICS
 70
     1
  9
$MEASUREMENT
 70
     1
  9
$CELWEIGHT
370
    -1
  9
$ENDCAPS
280
     0
  9
$JOINSTYLE
280
     0
  9
$LWDISPLAY
290
     0
  9
$INSUNITS
 70
     1
  9
$HYPERLINKBASE
  1

  9
$STYLESHEET
  1

  9
$XEDIT
290
     1
  9
$CEPSNTYPE
380
     0
  9
$PSTYLEMODE
290
     1
  9
$FINGERPRINTGUID
  2
{504B25F1-74D4-4FDF-B916-63591AB38977}
  9
$VERSIONGUID
  2
{FAEB1C32-E019-11D5-929B-00C0DF256EC4}
  9
$EXTNAMES
290
     1
  9
$PSVPSCALE
 40
0.0
  9
$OLESTARTUP
290
     0
  0
ENDSEC
  0
SECTION
  2
CLASSES
  0
CLASS
  1
ACDBDICTIONARYWDFLT
  2
AcDbDictionaryWithDefault
  3
ObjectDBX Classes
 90
        0
280
     0
281
     0
  0
CLASS
  1
VISUALSTYLE
  2
AcDbVisualStyle
  3
ObjectDBX Classes
 90
     4095
280
     0
281
     0
  0
CLASS
  1
MATERIAL
  2
AcDbMaterial
  3
ObjectDBX Classes
 90
     1153
280
     0
281
     0
  0
CLASS
  1

  2
exOdDbCircle
  3

 90
        0
280
     0
281
     1
  0
CLASS
  1

  2
exOdDbPolyline
  3

 90
        0
280
     0
281
     1
  0
CLASS
  1
DICTIONARYVAR
  2
AcDbDictionaryVar
  3
ObjectDBX Classes
 90
        0
280
     0
281
     0
  0
CLASS
  1
ACDBPLACEHOLDER
  2
AcDbPlaceHolder
  3
ObjectDBX Classes
 90
        0
280
     0
281
     0
  0
CLASS
  1
LAYOUT
  2
AcDbLayout
  3
ObjectDBX Classes
 90
        0
280
     0
281
     0
  0
ENDSEC
  0
SECTION
  2
TABLES
  0
TABLE
  2
VPORT
  5
8
330
0
100
AcDbSymbolTable
 70
     1
  0
VPORT
  5
29
330
8
100
AcDbSymbolTableRecord
100
AcDbViewportTableRecord
  2
*Active
 70
     0
 10
0.0
 20
0.0
 11
1.0
 21
1.0
 12
258.216228991982
 22
187.5445680436981
 13
0.0
 23
0.0
 14
0.5
 24
0.5
 15
0.5
 25
0.5
 16
0.0
 26
0.0
 36
1.0
 17
0.0
 27
0.0
 37
0.0
 40
280.4019503038656
 41
1.60267857142857
 42
50.0
 43
0.0
 44
0.0
 50
0.0
 51
0.0
 71
     0
 72
   100
 73
     1
 74
     3
 75
     0
 76
     0
 77
     0
 78
     0
281
     0
 65
     1
110
0.0
120
0.0
130
0.0
111
1.0
121
0.0
131
0.0
112
0.0
122
1.0
132
0.0
 79
     0
146
0.0
  0
ENDTAB
  0
TABLE
  2
LTYPE
  5
5
330
0
100
AcDbSymbolTable
 70
     8
  0
LTYPE
  5
14
330
5
100
AcDbSymbolTableRecord
100
AcDbLinetypeTableRecord
  2
ByBlock
 70
     0
  3

 72
    65
 73
     0
 40
0.0
  0
LTYPE
  5
15
330
5
100
AcDbSymbolTableRecord
100
AcDbLinetypeTableRecord
  2
ByLayer
 70
     0
  3

 72
    65
 73
     0
 40
0.0
  0
LTYPE
  5
16
330
5
100
AcDbSymbolTableRecord
100
AcDbLinetypeTableRecord
  2
Continuous
 70
     0
  3
Solid line
 72
    65
 73
     0
 40
0.0
  0
LTYPE
  5
3F
330
5
100
AcDbSymbolTableRecord
100
AcDbLinetypeTableRecord
  2
DASHED
 70
     0
  3
Dashed
 72
    65
 73
     2
 40
15.0
 49
7.0
 74
     0
 49
-8.0
 74
     0
  0
LTYPE
  5
40
330
5
100
AcDbSymbolTableRecord
100
AcDbLinetypeTableRecord
  2
DOTTED
 70
     0
  3
Dotted
 72
    65
 73
     2
 40
1.0
 49
0.0
 74
     0
 49
-1.0
 74
     0
  0
LTYPE
  5
41
330
5
100
AcDbSymbolTableRecord
100
AcDbLinetypeTableRecord
  2
DOT_CENTER
 70
     0
  3
Dot_Center
 72
    65
 73
     4
 40
14.0
 49
12.0
 74
     0
 49
-1.0
 74
     0
 49
0.0
 74
     0
 49
-1.0
 74
     0
  0
LTYPE
  5
42
330
5
100
AcDbSymbolTableRecord
100
AcDbLinetypeTableRecord
  2
LONG_DASHED
 70
     0
  3
Long_Dashed
 72
    65
 73
     2
 40
15.0
 49
10.0
 74
     0
 49
-5.0
 74
     0
  0
LTYPE
  5
43
330
5
100
AcDbSymbolTableRecord
100
AcDbLinetypeTableRecord
  2
DASH_CENTER
 70
     0
  3
Dash_Center
 72
    65
 73
     4
 40
14.0
 49
11.0
 74
     0
 49
-1.0
 74
     0
 49
1.0
 74
     0
 49
-1.0
 74
     0
  0
LTYPE
  5
44
330
5
100
AcDbSymbolTableRecord
100
AcDbLinetypeTableRecord
  2
PHANTOM
 70
     0
  3
Phantom
 72
    65
 73
     6
 40
13.0
 49
10.0
 74
     0
 49
-1.0
 74
     0
 49
0.0
 74
     0
 49
-1.0
 74
     0
 49
0.0
 74
     0
 49
-1.0
 74
     0
  0
LTYPE
  5
45
330
5
100
AcDbSymbolTableRecord
100
AcDbLinetypeTableRecord
  2
CENTER_DASH_DASH
 70
     0
  3
Center_Dash_Dash
 72
    65
 73
     6
 40
14.0
 49
9.0
 74
     0
 49
-1.0
 74
     0
 49
1.0
 74
     0
 49
-1.0
 74
     0
 49
1.0
 74
     0
 49
-1.0
 74
     0
  0
ENDTAB
  0
TABLE
  2
LAYER
  5
2
330
0
100
AcDbSymbolTable
 70
     4
  0
LAYER
  5
10
330
2
100
AcDbSymbolTableRecord
100
AcDbLayerTableRecord
  2
0
 70
     0
 62
     7
  6
Continuous
370
    -3
390
F
  0
LAYER
  5
46
330
2
100
AcDbSymbolTableRecord
100
AcDbLayerTableRecord
  2
1
 70
     0
 62
     7
  6
Continuous
370
    -3
390
F
  0
LAYER
  5
47
330
2
100
AcDbSymbolTableRecord
100
AcDbLayerTableRecord
  2
2
 70
     0
 62
     7
  6
Continuous
370
    -3
390
F
  0
LAYER
  5
48
330
2
100
AcDbSymbolTableRecord
100
AcDbLayerTableRecord
  2
3
 70
     0
 62
     7
  6
Continuous
370
    -3
390
F
  0
ENDTAB
  0
TABLE
  2
STYLE
  5
3
330
0
100
AcDbSymbolTable
 70
     1
  0
STYLE
  5
11
330
3
100
AcDbSymbolTableRecord
100
AcDbTextStyleTableRecord
  2
Standard
 70
     0
 40
0.0
 41
1.0
 50
0.0
 71
     0
 42
0.2
  3
txt
  4

  0
ENDTAB
  0
TABLE
  2
VIEW
  5
6
330
0
100
AcDbSymbolTable
 70
     0
  0
ENDTAB
  0
TABLE
  2
UCS
  5
7
330
0
100
AcDbSymbolTable
 70
     0
  0
ENDTAB
  0
TABLE
  2
APPID
  5
9
330
0
100
AcDbSymbolTable
 70
     1
  0
APPID
  5
12
330
9
100
AcDbSymbolTableRecord
100
AcDbRegAppTableRecord
  2
ACAD
 70
     0
  0
ENDTAB
  0
TABLE
  2
DIMSTYLE
  5
A
330
0
100
AcDbSymbolTable
 70
     1
100
AcDbDimStyleTable
  0
DIMSTYLE
105
27
330
A
100
AcDbSymbolTableRecord
100
AcDbDimStyleTableRecord
  2
Standard
 70
     0
340
11
  0
ENDTAB
  0
TABLE
  2
BLOCK_RECORD
  5
1
330
0
100
AcDbSymbolTable
 70
     1
  0
BLOCK_RECORD
  5
1F
330
1
100
AcDbSymbolTableRecord
100
AcDbBlockTableRecord
  2
*Model_Space
340
22
  0
BLOCK_RECORD
  5
1B
330
1
100
AcDbSymbolTableRecord
100
AcDbBlockTableRecord
  2
*Paper_Space
340
1E
  0
BLOCK_RECORD
  5
23
330
1
100
AcDbSymbolTableRecord
100
AcDbBlockTableRecord
  2
*Paper_Space0
340
26
  0
ENDTAB
  0
ENDSEC
  0
SECTION
  2
BLOCKS
  0
BLOCK
  5
20
330
1F
100
AcDbEntity
  8
0
100
AcDbBlockBegin
  2
*Model_Space
 70
     0
 10
0.0
 20
0.0
 30
0.0
  3
*Model_Space
  1

  0
ENDBLK
  5
21
330
1F
100
AcDbEntity
  8
0
100
AcDbBlockEnd
  0
BLOCK
  5
1C
330
1B
100
AcDbEntity
 67
     1
  8
0
100
AcDbBlockBegin
  2
*Paper_Space
 70
     0
 10
0.0
 20
0.0
 30
0.0
  3
*Paper_Space
  1

  0
ENDBLK
  5
1D
330
1B
100
AcDbEntity
 67
     1
  8
0
100
AcDbBlockEnd
  0
BLOCK
  5
24
330
23
100
AcDbEntity
  8
0
100
AcDbBlockBegin
  2
*Paper_Space0
 70
     0
 10
0.0
 20
0.0
 30
0.0
  3
*Paper_Space0
  1

  0
ENDBLK
  5
25
330
23
100
AcDbEntity
  8
0
100
AcDbBlockEnd
  0
ENDSEC
  0
SECTION
  2
ENTITIES
  0
POINT
  5
49
330
1F
100
AcDbEntity
  8
1
 62
     3
100
AcDbPoint
 10
194.4500000000001
 20
283.5000000000005
 30
0.0
  0
POINT
  5
4A
330
1F
100
AcDbEntity
  8
1
 62
     3
100
AcDbPoint
 10
189.5500000000002
 20
283.5000000000005
 30
0.0
  0
LINE
  5
4B
330
1F
100
AcDbEntity
  8
1
  6
Continuous
 62
     4
100
AcDbLine
 10
148.534033036065
 20
133.271651165032
 30
0.0
 11
148.534033036065
 21
128.771651165032
 31
0.0
  0
LINE
  5
4C
330
1F
100
AcDbEntity
  8
1
  6
Continuous
 62
     4
100
AcDbLine
 10
147.8722683301827
 20
132.821651165032
 30
0.0
 11
148.534033036065
 21
133.271651165032
 31
0.0
  0
LINE
  5
4D
330
1F
100
AcDbEntity
  8
1
  6
Continuous
 62
     4
100
AcDbLine
 10
146.5487389184179
 20
130.871651165032
 30
0.0
 11
145.3575624478297
 21
130.871651165032
 31
0.0
  0
LINE
  5
4E
330
1F
100
AcDbEntity
  8
1
  6
Continuous
 62
     4
100
AcDbLine
 10
146.5487389184179
 20
129.971651165032
 30
0.0
 11
146.5487389184179
 21
130.871651165032
 31
0.0
  0
LINE
  5
4F
330
1F
100
AcDbEntity
  8
1
  6
Continuous
 62
     4
100
AcDbLine
 10
146.4163859772415
 20
129.521651165032
 30
0.0
 11
146.5487389184179
 21
129.971651165032
 31
0.0
  0
LINE
  5
50
330
1F
100
AcDbEntity
  8
1
  6
Continuous
 62
     4
100
AcDbLine
 10
146.1516800948885
 20
129.221651165032
 30
0.0
 11
146.4163859772415
 21
129.521651165032
 31
0.0
  0
LINE
  5
51
330
1F
100
AcDbEntity
  8
1
  6
Continuous
 62
     4
100
AcDbLine
 10
145.7546212713591
 20
128.921651165032
 30
0.0
 11
146.1516800948885
 21
129.221651165032
 31
0.0
  0
LINE
  5
52
330
1F
100
AcDbEntity
  8
1
  6
Continuous
 62
     4
100
AcDbLine
 10
145.0928565654768
 20
128.771651165032
 30
0.0
 11
145.7546212713591
 21
128.921651165032
 31
0.0
  0
LINE
  5
53
330
1F
100
AcDbEntity
  8
1
  6
Continuous
 62
     4
100
AcDbLine
 10
144.4310918595944
 20
128.921651165032
 30
0.0
 11
145.0928565654768
 21
128.771651165032
 31
0.0
  0
LINE
  5
54
330
1F
100
AcDbEntity
  8
1
  6
Continuous
 62
     4
100
AcDbLine
 10
144.034033036065
 20
129.521651165032
 30
0.0
 11
144.4310918595944
 21
128.921651165032
 31
0.0
  0
LINE
  5
55
330
1F
100
AcDbEntity
  8
1
  6
Continuous
 62
     4
100
AcDbLine
 10
143.9016800948885
 20
129.821651165032
 30
0.0
 11
144.034033036065
 21
129.521651165032
 31
0.0
  0
LINE
  5
56
330
1F
100
AcDbEntity
  8
1
  6
Continuous
 62
     4
100
AcDbLine
 10
143.7693271537121
 20
130.421651165032
 30
0.0
 11
143.9016800948885
 21
129.821651165032
 31
0.0
  0
LINE
  5
57
330
1F
100
AcDbEntity
  8
1
  6
Continuous
 62
     4
100
AcDbLine
 10
143.6369742125356
 20
131.021651165032
 30
0.0
 11
143.7693271537121
 21
130.421651165032
 31
0.0
  0
LINE
  5
58
330
1F
100
AcDbEntity
  8
1
  6
Continuous
 62
     4
100
AcDbLine
 10
143.7693271537121
 20
131.621651165032
 30
0.0
 11
143.6369742125356
 21
131.021651165032
 31
0.0
  0
LINE
  5
59
330
1F
100
AcDbEntity
  8
1
  6
Continuous
 62
     4
100
AcDbLine
 10
144.034033036065
 20
132.521651165032
 30
0.0
 11
143.7693271537121
 21
131.621651165032
 31
0.0
  0
LINE
  5
5A
330
1F
100
AcDbEntity
  8
1
  6
Continuous
 62
     4
100
AcDbLine
 10
144.1663859772415
 20
132.821651165032
 30
0.0
 11
144.034033036065
 21
132.521651165032
 31
0.0
  0
LINE
  5
5B
330
1F
100
AcDbEntity
  8
1
  6
Continuous
 62
     4
100
AcDbLine
 10
144.5634448007709
 20
133.121651165032
 30
0.0
 11
144.1663859772415
 21
132.821651165032
 31
0.0
  0
LINE
  5
5C
330
1F
100
AcDbEntity
  8
1
  6
Continuous
 62
     4
100
AcDbLine
 10
145.0928565654768
 20
133.271651165032
 30
0.0
 11
144.5634448007709
 21
133.121651165032
 31
0.0
  0
LINE
  5
5D
330
1F
100
AcDbEntity
  8
1
  6
Continuous
 62
     4
100
AcDbLine
 10
145.7546212713591
 20
133.121651165032
 30
0.0
 11
145.0928565654768
 21
133.271651165032
 31
0.0
  0
LINE
  5
5E
330
1F
100
AcDbEntity
  8
1
  6
Continuous
 62
     4
100
AcDbLine
 10
146.0193271537121
 20
132.971651165032
 30
0.0
 11
145.7546212713591
 21
133.121651165032
 31
0.0
  0
LINE
  5
5F
330
1F
100
AcDbEntity
  8
1
  6
Continuous
 62
     4
100
AcDbLine
 10
146.284033036065
 20
132.671651165032
 30
0.0
 11
146.0193271537121
 21
132.971651165032
 31
0.0
  0
LINE
  5
60
330
1F
100
AcDbEntity
  8
1
  6
Continuous
 62
     4
100
AcDbLine
 10
146.5487389184179
 20
132.221651165032
 30
0.0
 11
146.284033036065
 21
132.671651165032
 31
0.0
  0
LINE
  5
61
330
1F
100
AcDbEntity
  8
1
  6
Continuous
 62
     4
100
AcDbLine
 10
313.6761624502412
 20
64.43913608739557
 30
0.0
 11
312.8820448031824
 21
64.73913608739556
 31
0.0
  0
LINE
  5
62
330
1F
100
AcDbEntity
  8
1
  6
Continuous
 62
     4
100
AcDbLine
 10
314.2055742149471
 20
63.68913608739558
 30
0.0
 11
313.6761624502412
 21
64.43913608739557
 31
0.0
  0
LINE
  5
63
330
1F
100
AcDbEntity
  8
1
  6
Continuous
 62
     4
100
AcDbLine
 10
314.3379271561236
 20
62.48913608739557
 30
0.0
 11
314.2055742149471
 21
63.68913608739558
 31
0.0
  0
LINE
  5
64
330
1F
100
AcDbEntity
  8
1
  6
Continuous
 62
     4
100
AcDbLine
 10
314.2055742149471
 20
61.28913608739557
 30
0.0
 11
314.3379271561236
 21
62.48913608739557
 31
0.0
  0
LINE
  5
65
330
1F
100
AcDbEntity
  8
1
  6
Continuous
 62
     4
100
AcDbLine
 10
313.6761624502412
 20
60.53913608739557
 30
0.0
 11
314.2055742149471
 21
61.28913608739557
 31
0.0
  0
LINE
  5
66
330
1F
100
AcDbEntity
  8
1
  6
Continuous
 62
     4
100
AcDbLine
 10
312.8820448031824
 20
60.23913608739557
 30
0.0
 11
313.6761624502412
 21
60.53913608739557
 31
0.0
  0
LINE
  5
67
330
1F
100
AcDbEntity
  8
1
  6
Continuous
 62
     4
100
AcDbLine
 10
312.0879271561236
 20
60.53913608739557
 30
0.0
 11
312.8820448031824
 21
60.23913608739557
 31
0.0
  0
LINE
  5
68
330
1F
100
AcDbEntity
  8
1
  6
Continuous
 62
     4
100
AcDbLine
 10
311.6908683325942
 20
61.28913608739557
 30
0.0
 11
312.0879271561236
 21
60.53913608739557
 31
0.0
  0
LINE
  5
69
330
1F
100
AcDbEntity
  8
1
  6
Continuous
 62
     4
100
AcDbLine
 10
311.4261624502412
 20
62.48913608739557
 30
0.0
 11
311.6908683325942
 21
61.28913608739557
 31
0.0
  0
LINE
  5
6A
330
1F
100
AcDbEntity
  8
1
  6
Continuous
 62
     4
100
AcDbLine
 10
311.6908683325942
 20
63.68913608739558
 30
0.0
 11
311.4261624502412
 21
62.48913608739557
 31
0.0
  0
LINE
  5
6B
330
1F
100
AcDbEntity
  8
1
  6
Continuous
 62
     4
100
AcDbLine
 10
312.0879271561236
 20
64.43913608739557
 30
0.0
 11
311.6908683325942
 21
63.68913608739558
 31
0.0
  0
LINE
  5
6C
330
1F
100
AcDbEntity
  8
1
  6
Continuous
 62
     4
100
AcDbLine
 10
312.8820448031824
 20
64.73913608739556
 30
0.0
 11
312.0879271561236
 21
64.43913608739557
 31
0.0
  0
LINE
  5
6D
330
1F
100
AcDbEntity
  8
1
  6
Continuous
 62
     4
100
AcDbLine
 10
307.7202800973
 20
62.48913608739557
 30
0.0
 11
310.1026330384765
 21
62.48913608739557
 31
0.0
  0
LINE
  5
6E
330
1F
100
AcDbEntity
  8
1
  6
Continuous
 62
     4
100
AcDbLine
 10
306.3967506855353
 20
64.73913608739556
 30
0.0
 11
306.3967506855353
 21
60.23913608739557
 31
0.0
  0
LINE
  5
6F
330
1F
100
AcDbEntity
  8
1
  6
Continuous
 62
     4
100
AcDbLine
 10
305.734985979653
 20
64.28913608739558
 30
0.0
 11
306.3967506855353
 21
64.73913608739556
 31
0.0
  0
LINE
  5
70
330
1F
100
AcDbEntity
  8
1
  6
Continuous
 62
     4
100
AcDbLine
 10
303.7496918620059
 20
64.43913608739557
 30
0.0
 11
302.955574214947
 21
64.73913608739556
 31
0.0
  0
LINE
  5
71
330
1F
100
AcDbEntity
  8
1
  6
Continuous
 62
     4
100
AcDbLine
 10
304.2791036267117
 20
63.68913608739558
 30
0.0
 11
303.7496918620059
 21
64.43913608739557
 31
0.0
  0
LINE
  5
72
330
1F
100
AcDbEntity
  8
1
  6
Continuous
 62
     4
100
AcDbLine
 10
304.4114565678883
 20
62.48913608739557
 30
0.0
 11
304.2791036267117
 21
63.68913608739558
 31
0.0
  0
LINE
  5
73
330
1F
100
AcDbEntity
  8
1
  6
Continuous
 62
     4
100
AcDbLine
 10
304.2791036267117
 20
61.28913608739557
 30
0.0
 11
304.4114565678883
 21
62.48913608739557
 31
0.0
  0
LINE
  5
74
330
1F
100
AcDbEntity
  8
1
  6
Continuous
 62
     4
100
AcDbLine
 10
303.7496918620059
 20
60.53913608739557
 30
0.0
 11
304.2791036267117
 21
61.28913608739557
 31
0.0
  0
LINE
  5
75
330
1F
100
AcDbEntity
  8
1
  6
Continuous
 62
     4
100
AcDbLine
 10
302.955574214947
 20
60.23913608739557
 30
0.0
 11
303.7496918620059
 21
60.53913608739557
 31
0.0
  0
LINE
  5
76
330
1F
100
AcDbEntity
  8
1
  6
Continuous
 62
     4
100
AcDbLine
 10
302.1614565678883
 20
60.53913608739557
 30
0.0
 11
302.955574214947
 21
60.23913608739557
 31
0.0
  0
LINE
  5
77
330
1F
100
AcDbEntity
  8
1
  6
Continuous
 62
     4
100
AcDbLine
 10
301.7643977443588
 20
61.28913608739557
 30
0.0
 11
302.1614565678883
 21
60.53913608739557
 31
0.0
  0
LINE
  5
78
330
1F
100
AcDbEntity
  8
1
  6
Continuous
 62
     4
100
AcDbLine
 10
301.4996918620059
 20
62.48913608739557
 30
0.0
 11
301.7643977443588
 21
61.28913608739557
 31
0.0
  0
LINE
  5
79
330
1F
100
AcDbEntity
  8
1
  6
Continuous
 62
     4
100
AcDbLine
 10
301.7643977443588
 20
63.68913608739558
 30
0.0
 11
301.4996918620059
 21
62.48913608739557
 31
0.0
  0
LINE
  5
7A
330
1F
100
AcDbEntity
  8
1
  6
Continuous
 62
     4
100
AcDbLine
 10
302.1614565678883
 20
64.43913608739557
 30
0.0
 11
301.7643977443588
 21
63.68913608739558
 31
0.0
  0
LINE
  5
7B
330
1F
100
AcDbEntity
  8
1
  6
Continuous
 62
     4
100
AcDbLine
 10
302.955574214947
 20
64.73913608739556
 30
0.0
 11
302.1614565678883
 21
64.43913608739557
 31
0.0
  0
LINE
  5
7C
330
1F
100
AcDbEntity
  8
1
  6
Continuous
 62
     4
100
AcDbLine
 10
297.6614565678883
 20
62.48913608739557
 30
0.0
 11
297.6614565678883
 21
60.23913608739557
 31
0.0
  0
LINE
  5
7D
330
1F
100
AcDbEntity
  8
1
  6
Continuous
 62
     4
100
AcDbLine
 10
297.6614565678883
 20
62.48913608739557
 30
0.0
 11
299.9114565678883
 21
62.48913608739557
 31
0.0
  0
LINE
  5
7E
330
1F
100
AcDbEntity
  8
1
  6
Continuous
 62
     4
100
AcDbLine
 10
297.6614565678883
 20
64.73913608739556
 30
0.0
 11
297.6614565678883
 21
62.48913608739557
 31
0.0
  0
LINE
  5
7F
330
1F
100
AcDbEntity
  8
1
  6
Continuous
 62
     4
100
AcDbLine
 10
300.1761624502412
 20
64.73913608739556
 30
0.0
 11
297.6614565678883
 21
64.73913608739556
 31
0.0
  0
LINE
  5
80
330
1F
100
AcDbEntity
  8
1
  6
Continuous
 62
     4
100
AcDbLine
 10
295.4114565678883
 20
60.23913608739557
 30
0.0
 11
296.3379271561236
 21
64.73913608739556
 31
0.0
  0
LINE
  5
81
330
1F
100
AcDbEntity
  8
1
  6
Continuous
 62
     4
100
AcDbLine
 10
294.3526330384765
 20
64.58913608739557
 30
0.0
 11
295.4114565678883
 21
60.23913608739557
 31
0.0
  0
LINE
  5
82
330
1F
100
AcDbEntity
  8
1
  6
Continuous
 62
     4
100
AcDbLine
 10
293.4261624502412
 20
60.23913608739557
 30
0.0
 11
294.3526330384765
 21
64.58913608739557
 31
0.0
  0
LINE
  5
83
330
1F
100
AcDbEntity
  8
1
  6
Continuous
 62
     4
100
AcDbLine
 10
292.3673389208294
 20
64.73913608739556
 30
0.0
 11
293.4261624502412
 21
60.23913608739557
 31
0.0
  0
LINE
  5
84
330
1F
100
AcDbEntity
  8
1
  6
Continuous
 62
     4
100
AcDbLine
 10
287.8673389208294
 20
61.28913608739557
 30
0.0
 11
291.0438095090647
 21
61.28913608739557
 31
0.0
  0
LINE
  5
85
330
1F
100
AcDbEntity
  8
1
  6
Continuous
 62
     4
100
AcDbLine
 10
290.2496918620059
 20
64.73913608739556
 30
0.0
 11
287.8673389208294
 21
61.28913608739557
 31
0.0
  0
LINE
  5
86
330
1F
100
AcDbEntity
  8
1
  6
Continuous
 62
     4
100
AcDbLine
 10
290.2496918620059
 20
60.23913608739557
 30
0.0
 11
290.2496918620059
 21
64.73913608739556
 31
0.0
  0
LINE
  5
87
330
1F
100
AcDbEntity
  8
1
  6
Continuous
 62
     4
100
AcDbLine
 10
284.4261624502412
 20
60.53913608739557
 30
0.0
 11
284.0291036267118
 21
60.98913608739557
 31
0.0
  0
LINE
  5
88
330
1F
100
AcDbEntity
  8
1
  6
Continuous
 62
     4
100
AcDbLine
 10
285.3526330384765
 20
60.23913608739557
 30
0.0
 11
284.4261624502412
 21
60.53913608739557
 31
0.0
  0
LINE
  5
89
330
1F
100
AcDbEntity
  8
1
  6
Continuous
 62
     4
100
AcDbLine
 10
286.0143977443589
 20
60.53913608739557
 30
0.0
 11
285.3526330384765
 21
60.23913608739557
 31
0.0
  0
LINE
  5
8A
330
1F
100
AcDbEntity
  8
1
  6
Continuous
 62
     4
100
AcDbLine
 10
286.4114565678883
 20
60.98913608739557
 30
0.0
 11
286.0143977443589
 21
60.53913608739557
 31
0.0
  0
LINE
  5
8B
330
1F
100
AcDbEntity
  8
1
  6
Continuous
 62
     4
100
AcDbLine
 10
286.5438095090647
 20
61.58913608739557
 30
0.0
 11
286.4114565678883
 21
60.98913608739557
 31
0.0
  0
LINE
  5
8C
330
1F
100
AcDbEntity
  8
1
  6
Continuous
 62
     4
100
AcDbLine
 10
286.5438095090647
 20
63.38913608739557
 30
0.0
 11
286.5438095090647
 21
61.58913608739557
 31
0.0
  0
LINE
  5
8D
330
1F
100
AcDbEntity
  8
1
  6
Continuous
 62
     4
100
AcDbLine
 10
286.2791036267118
 20
62.48913608739557
 30
0.0
 11
286.5438095090647
 21
63.38913608739557
 31
0.0
  0
LINE
  5
8E
330
1F
100
AcDbEntity
  8
1
  6
Continuous
 62
     4
100
AcDbLine
 10
285.8820448031824
 20
62.03913608739557
 30
0.0
 11
286.2791036267118
 21
62.48913608739557
 31
0.0
  0
LINE
  5
8F
330
1F
100
AcDbEntity
  8
1
  6
Continuous
 62
     4
100
AcDbLine
 10
285.3526330384765
 20
61.88913608739557
 30
0.0
 11
285.8820448031824
 21
62.03913608739557
 31
0.0
  0
LINE
  5
90
330
1F
100
AcDbEntity
  8
1
  6
Continuous
 62
     4
100
AcDbLine
 10
284.8232212737706
 20
62.03913608739557
 30
0.0
 11
285.3526330384765
 21
61.88913608739557
 31
0.0
  0
LINE
  5
91
330
1F
100
AcDbEntity
  8
1
  6
Continuous
 62
     4
100
AcDbLine
 10
284.2938095090647
 20
62.48913608739557
 30
0.0
 11
284.8232212737706
 21
62.03913608739557
 31
0.0
  0
LINE
  5
92
330
1F
100
AcDbEntity
  8
1
  6
Continuous
 62
     4
100
AcDbLine
 10
284.1614565678883
 20
62.78913608739557
 30
0.0
 11
284.2938095090647
 21
62.48913608739557
 31
0.0
  0
LINE
  5
93
330
1F
100
AcDbEntity
  8
1
  6
Continuous
 62
     4
100
AcDbLine
 10
284.0291036267118
 20
63.38913608739557
 30
0.0
 11
284.1614565678883
 21
62.78913608739557
 31
0.0
  0
LINE
  5
94
330
1F
100
AcDbEntity
  8
1
  6
Continuous
 62
     4
100
AcDbLine
 10
284.2938095090647
 20
64.13913608739557
 30
0.0
 11
284.0291036267118
 21
63.38913608739557
 31
0.0
  0
LINE
  5
95
330
1F
100
AcDbEntity
  8
1
  6
Continuous
 62
     4
100
AcDbLine
 10
284.6908683325942
 20
64.58913608739557
 30
0.0
 11
284.2938095090647
 21
64.13913608739557
 31
0.0
  0
LINE
  5
96
330
1F
100
AcDbEntity
  8
1
  6
Continuous
 62
     4
100
AcDbLine
 10
285.3526330384765
 20
64.73913608739556
 30
0.0
 11
284.6908683325942
 21
64.58913608739557
 31
0.0
  0
LINE
  5
97
330
1F
100
AcDbEntity
  8
1
  6
Continuous
 62
     4
100
AcDbLine
 10
286.0143977443589
 20
64.58913608739557
 30
0.0
 11
285.3526330384765
 21
64.73913608739556
 31
0.0
  0
LINE
  5
98
330
1F
100
AcDbEntity
  8
1
  6
Continuous
 62
     4
100
AcDbLine
 10
286.4114565678883
 20
64.13913608739557
 30
0.0
 11
286.0143977443589
 21
64.58913608739557
 31
0.0
  0
LINE
  5
99
330
1F
100
AcDbEntity
  8
1
  6
Continuous
 62
     4
100
AcDbLine
 10
286.5438095090647
 20
63.38913608739557
 30
0.0
 11
286.4114565678883
 21
64.13913608739557
 31
0.0
  0
LINE
  5
9A
330
1F
100
AcDbEntity
  8
1
  6
Continuous
 62
     4
100
AcDbLine
 10
282.0438095090647
 20
64.43913608739557
 30
0.0
 11
281.2496918620059
 21
64.73913608739556
 31
0.0
  0
LINE
  5
9B
330
1F
100
AcDbEntity
  8
1
  6
Continuous
 62
     4
100
AcDbLine
 10
282.5732212737706
 20
63.68913608739558
 30
0.0
 11
282.0438095090647
 21
64.43913608739557
 31
0.0
  0
LINE
  5
9C
330
1F
100
AcDbEntity
  8
1
  6
Continuous
 62
     4
100
AcDbLine
 10
282.7055742149471
 20
62.48913608739557
 30
0.0
 11
282.5732212737706
 21
63.68913608739558
 31
0.0
  0
LINE
  5
9D
330
1F
100
AcDbEntity
  8
1
  6
Continuous
 62
     4
100
AcDbLine
 10
282.5732212737706
 20
61.28913608739557
 30
0.0
 11
282.7055742149471
 21
62.48913608739557
 31
0.0
  0
LINE
  5
9E
330
1F
100
AcDbEntity
  8
1
  6
Continuous
 62
     4
100
AcDbLine
 10
282.0438095090647
 20
60.53913608739557
 30
0.0
 11
282.5732212737706
 21
61.28913608739557
 31
0.0
  0
LINE
  5
9F
330
1F
100
AcDbEntity
  8
1
  6
Continuous
 62
     4
100
AcDbLine
 10
281.2496918620059
 20
60.23913608739557
 30
0.0
 11
282.0438095090647
 21
60.53913608739557
 31
0.0
  0
LINE
  5
A0
330
1F
100
AcDbEntity
  8
1
  6
Continuous
 62
     4
100
AcDbLine
 10
280.4555742149471
 20
60.53913608739557
 30
0.0
 11
281.2496918620059
 21
60.23913608739557
 31
0.0
  0
LINE
  5
A1
330
1F
100
AcDbEntity
  8
1
  6
Continuous
 62
     4
100
AcDbLine
 10
280.0585153914176
 20
61.28913608739557
 30
0.0
 11
280.4555742149471
 21
60.53913608739557
 31
0.0
  0
LINE
  5
A2
330
1F
100
AcDbEntity
  8
1
  6
Continuous
 62
     4
100
AcDbLine
 10
279.7938095090647
 20
62.48913608739557
 30
0.0
 11
280.0585153914176
 21
61.28913608739557
 31
0.0
  0
LINE
  5
A3
330
1F
100
AcDbEntity
  8
1
  6
Continuous
 62
     4
100
AcDbLine
 10
280.0585153914176
 20
63.68913608739558
 30
0.0
 11
279.7938095090647
 21
62.48913608739557
 31
0.0
  0
LINE
  5
A4
330
1F
100
AcDbEntity
  8
1
  6
Continuous
 62
     4
100
AcDbLine
 10
280.4555742149471
 20
64.43913608739557
 30
0.0
 11
280.0585153914176
 21
63.68913608739558
 31
0.0
  0
LINE
  5
A5
330
1F
100
AcDbEntity
  8
1
  6
Continuous
 62
     4
100
AcDbLine
 10
281.2496918620059
 20
64.73913608739556
 30
0.0
 11
280.4555742149471
 21
64.43913608739557
 31
0.0
  0
LINE
  5
A6
330
1F
100
AcDbEntity
  8
1
  6
Continuous
 62
     4
100
AcDbLine
 10
277.8085153914177
 20
64.43913608739557
 30
0.0
 11
277.0143977443589
 21
64.73913608739556
 31
0.0
  0
LINE
  5
A7
330
1F
100
AcDbEntity
  8
1
  6
Continuous
 62
     4
100
AcDbLine
 10
278.3379271561236
 20
63.68913608739558
 30
0.0
 11
277.8085153914177
 21
64.43913608739557
 31
0.0
  0
LINE
  5
A8
330
1F
100
AcDbEntity
  8
1
  6
Continuous
 62
     4
100
AcDbLine
 10
278.4702800973001
 20
62.48913608739557
 30
0.0
 11
278.3379271561236
 21
63.68913608739558
 31
0.0
  0
LINE
  5
A9
330
1F
100
AcDbEntity
  8
1
  6
Continuous
 62
     4
100
AcDbLine
 10
278.3379271561236
 20
61.28913608739557
 30
0.0
 11
278.4702800973001
 21
62.48913608739557
 31
0.0
  0
LINE
  5
AA
330
1F
100
AcDbEntity
  8
1
  6
Continuous
 62
     4
100
AcDbLine
 10
277.8085153914177
 20
60.53913608739557
 30
0.0
 11
278.3379271561236
 21
61.28913608739557
 31
0.0
  0
LINE
  5
AB
330
1F
100
AcDbEntity
  8
1
  6
Continuous
 62
     4
100
AcDbLine
 10
277.0143977443589
 20
60.23913608739557
 30
0.0
 11
277.8085153914177
 21
60.53913608739557
 31
0.0
  0
LINE
  5
AC
330
1F
100
AcDbEntity
  8
1
  6
Continuous
 62
     4
100
AcDbLine
 10
276.2202800973001
 20
60.53913608739557
 30
0.0
 11
277.0143977443589
 21
60.23913608739557
 31
0.0
  0
LINE
  5
AD
330
1F
100
AcDbEntity
  8
1
  6
Continuous
 62
     4
100
AcDbLine
 10
275.8232212737706
 20
61.28913608739557
 30
0.0
 11
276.2202800973001
 21
60.53913608739557
 31
0.0
  0
LINE
  5
AE
330
1F
100
AcDbEntity
  8
1
  6
Continuous
 62
     4
100
AcDbLine
 10
275.5585153914177
 20
62.48913608739557
 30
0.0
 11
275.8232212737706
 21
61.28913608739557
 31
0.0
  0
LINE
  5
AF
330
1F
100
AcDbEntity
  8
1
  6
Continuous
 62
     4
100
AcDbLine
 10
275.8232212737706
 20
63.68913608739558
 30
0.0
 11
275.5585153914177
 21
62.48913608739557
 31
0.0
  0
LINE
  5
B0
330
1F
100
AcDbEntity
  8
1
  6
Continuous
 62
     4
100
AcDbLine
 10
276.2202800973001
 20
64.43913608739557
 30
0.0
 11
275.8232212737706
 21
63.68913608739558
 31
0.0
  0
LINE
  5
B1
330
1F
100
AcDbEntity
  8
1
  6
Continuous
 62
     4
100
AcDbLine
 10
277.0143977443589
 20
64.73913608739556
 30
0.0
 11
276.2202800973001
 21
64.43913608739557
 31
0.0
  0
LINE
  5
B2
330
1F
100
AcDbEntity
  8
1
  6
Continuous
 62
     4
100
AcDbLine
 10
269.9996918620059
 20
60.23913608739557
 30
0.0
 11
274.234985979653
 21
60.23913608739557
 31
0.0
  0
LINE
  5
B3
330
1F
100
AcDbEntity
  8
1
  6
Continuous
 62
     4
100
AcDbLine
 10
265.234985979653
 20
63.23913608739557
 30
0.0
 11
264.8379271561236
 21
61.88913608739557
 31
0.0
  0
LINE
  5
B4
330
1F
100
AcDbEntity
  8
1
  6
Continuous
 62
     4
100
AcDbLine
 10
266.2938095090647
 20
62.93913608739558
 30
0.0
 11
266.9555742149471
 21
61.28913608739557
 31
0.0
  0
LINE
  5
B5
330
1F
100
AcDbEntity
  8
1
  6
Continuous
 62
     4
100
AcDbLine
 10
268.1467506855353
 20
60.08913608739557
 30
0.0
 11
266.6908683325942
 21
60.38913608739557
 31
0.0
  0
LINE
  5
B6
330
1F
100
AcDbEntity
  8
1
  6
Continuous
 62
     4
100
AcDbLine
 10
268.1467506855353
 20
64.73913608739556
 30
0.0
 11
268.1467506855353
 21
60.08913608739557
 31
0.0
  0
LINE
  5
B7
330
1F
100
AcDbEntity
  8
1
  6
Continuous
 62
     4
100
AcDbLine
 10
265.8967506855353
 20
63.68913608739558
 30
0.0
 11
268.8085153914177
 21
63.68913608739558
 31
0.0
  0
LINE
  5
B8
330
1F
100
AcDbEntity
  8
1
  6
Continuous
 62
     4
100
AcDbLine
 10
265.234985979653
 20
63.23913608739557
 30
0.0
 11
265.234985979653
 21
60.23913608739557
 31
0.0
  0
LINE
  5
B9
330
1F
100
AcDbEntity
  8
1
  6
Continuous
 62
     4
100
AcDbLine
 10
265.6320448031824
 20
64.58913608739557
 30
0.0
 11
265.234985979653
 21
63.23913608739557
 31
0.0
  0
LINE
  5
BA
330
1F
100
AcDbEntity
  8
1
  6
Continuous
 62
     4
100
AcDbLine
 10
261.2643977443589
 20
60.08913608739557
 30
0.0
 11
260.3379271561236
 21
60.53913608739557
 31
0.0
  0
LINE
  5
BB
330
1F
100
AcDbEntity
  8
1
  6
Continuous
 62
     4
100
AcDbLine
 10
261.7938095090647
 20
61.13913608739557
 30
0.0
 11
261.2643977443589
 21
60.08913608739557
 31
0.0
  0
LINE
  5
BC
330
1F
100
AcDbEntity
  8
1
  6
Continuous
 62
     4
100
AcDbLine
 10
261.7938095090647
 20
62.63913608739557
 30
0.0
 11
261.7938095090647
 21
61.13913608739557
 31
0.0
  0
LINE
  5
BD
330
1F
100
AcDbEntity
  8
1
  6
Continuous
 62
     4
100
AcDbLine
 10
261.2643977443589
 20
64.28913608739558
 30
0.0
 11
261.7938095090647
 21
62.63913608739557
 31
0.0
  0
LINE
  5
BE
330
1F
100
AcDbEntity
  8
1
  6
Continuous
 62
     4
100
AcDbLine
 10
259.5438095090647
 20
61.88913608739557
 30
0.0
 11
263.5143977443589
 21
61.88913608739557
 31
0.0
  0
LINE
  5
BF
330
1F
100
AcDbEntity
  8
1
  6
Continuous
 62
     4
100
AcDbLine
 10
259.6761624502412
 20
63.23913608739557
 30
0.0
 11
263.2496918620059
 21
63.23913608739557
 31
0.0
  0
LINE
  5
C0
330
1F
100
AcDbEntity
  8
1
  6
Continuous
 62
     4
100
AcDbLine
 10
261.2643977443589
 20
64.28913608739558
 30
0.0
 11
259.8085153914176
 21
64.28913608739558
 31
0.0
  0
LINE
  5
C1
330
1F
100
AcDbEntity
  8
1
  6
Continuous
 62
     4
100
AcDbLine
 10
262.984985979653
 20
64.73913608739556
 30
0.0
 11
261.2643977443589
 21
64.28913608739558
 31
0.0
  0
LINE
  5
C2
330
1F
100
AcDbEntity
  8
1
  6
Continuous
 62
     4
100
AcDbLine
 10
257.1614565678883
 20
62.93913608739558
 30
0.0
 11
258.0879271561236
 21
62.93913608739558
 31
0.0
  0
LINE
  5
C3
330
1F
100
AcDbEntity
  8
1
  6
Continuous
 62
     4
100
AcDbLine
 10
257.1614565678883
 20
62.93913608739558
 30
0.0
 11
257.1614565678883
 21
60.68913608739558
 31
0.0
  0
LINE
  5
C4
330
1F
100
AcDbEntity
  8
1
  6
Continuous
 62
     4
100
AcDbLine
 10
255.9702800973
 20
60.23913608739557
 30
0.0
 11
258.2202800973
 21
60.23913608739557
 31
0.0
  0
LINE
  5
C5
330
1F
100
AcDbEntity
  8
1
  6
Continuous
 62
     4
100
AcDbLine
 10
255.9702800973
 20
64.43913608739557
 30
0.0
 11
255.9702800973
 21
60.23913608739557
 31
0.0
  0
LINE
  5
C6
330
1F
100
AcDbEntity
  8
1
  6
Continuous
 62
     4
100
AcDbLine
 10
257.1614565678883
 20
62.93913608739558
 30
0.0
 11
258.0879271561236
 21
61.13913608739557
 31
0.0
  0
LINE
  5
C7
330
1F
100
AcDbEntity
  8
1
  6
Continuous
 62
     4
100
AcDbLine
 10
257.1614565678883
 20
62.93913608739558
 30
0.0
 11
256.234985979653
 21
61.13913608739557
 31
0.0
  0
LINE
  5
C8
330
1F
100
AcDbEntity
  8
1
  6
Continuous
 62
     4
100
AcDbLine
 10
257.1614565678883
 20
64.73913608739556
 30
0.0
 11
257.1614565678883
 21
62.93913608739558
 31
0.0
  0
LINE
  5
C9
330
1F
100
AcDbEntity
  8
1
  6
Continuous
 62
     4
100
AcDbLine
 10
256.234985979653
 20
62.93913608739558
 30
0.0
 11
257.1614565678883
 21
62.93913608739558
 31
0.0
  0
LINE
  5
CA
330
1F
100
AcDbEntity
  8
1
  6
Continuous
 62
     4
100
AcDbLine
 10
257.955574214947
 20
64.28913608739558
 30
0.0
 11
257.4261624502412
 21
63.23913608739557
 31
0.0
  0
LINE
  5
CB
330
1F
100
AcDbEntity
  8
1
  6
Continuous
 62
     4
100
AcDbLine
 10
256.3673389208294
 20
64.28913608739558
 30
0.0
 11
256.7643977443588
 21
63.23913608739557
 31
0.0
  0
LINE
  5
CC
330
1F
100
AcDbEntity
  8
1
  6
Continuous
 62
     4
100
AcDbLine
 10
255.4408683325941
 20
61.88913608739557
 30
0.0
 11
255.8379271561235
 21
60.68913608739558
 31
0.0
  0
LINE
  5
CD
330
1F
100
AcDbEntity
  8
1
  6
Continuous
 62
     4
100
AcDbLine
 10
254.6467506855353
 20
61.88913608739557
 30
0.0
 11
254.2496918620059
 21
60.53913608739557
 31
0.0
  0
LINE
  5
CE
330
1F
100
AcDbEntity
  8
1
  6
Continuous
 62
     4
100
AcDbLine
 10
255.0438095090647
 20
62.33913608739557
 30
0.0
 11
255.0438095090647
 21
60.23913608739557
 31
0.0
  0
LINE
  5
CF
330
1F
100
AcDbEntity
  8
1
  6
Continuous
 62
     4
100
AcDbLine
 10
255.5732212737706
 20
62.48913608739557
 30
0.0
 11
255.7055742149471
 21
62.03913608739557
 31
0.0
  0
LINE
  5
D0
330
1F
100
AcDbEntity
  8
1
  6
Continuous
 62
     4
100
AcDbLine
 10
255.4408683325941
 20
62.93913608739558
 30
0.0
 11
255.5732212737706
 21
62.48913608739557
 31
0.0
  0
LINE
  5
D1
330
1F
100
AcDbEntity
  8
1
  6
Continuous
 62
     4
100
AcDbLine
 10
254.5143977443588
 20
62.33913608739557
 30
0.0
 11
255.5732212737706
 21
62.48913608739557
 31
0.0
  0
LINE
  5
D2
330
1F
100
AcDbEntity
  8
1
  6
Continuous
 62
     4
100
AcDbLine
 10
254.2496918620059
 20
62.33913608739557
 30
0.0
 11
254.5143977443588
 21
62.33913608739557
 31
0.0
  0
LINE
  5
D3
330
1F
100
AcDbEntity
  8
1
  6
Continuous
 62
     4
100
AcDbLine
 10
255.0438095090647
 20
63.08913608739557
 30
0.0
 11
254.5143977443588
 21
62.33913608739557
 31
0.0
  0
LINE
  5
D4
330
1F
100
AcDbEntity
  8
1
  6
Continuous
 62
     4
100
AcDbLine
 10
255.5732212737706
 20
63.98913608739557
 30
0.0
 11
255.0438095090647
 21
63.08913608739557
 31
0.0
  0
LINE
  5
D5
330
1F
100
AcDbEntity
  8
1
  6
Continuous
 62
     4
100
AcDbLine
 10
254.5143977443588
 20
63.68913608739558
 30
0.0
 11
255.0438095090647
 21
63.08913608739557
 31
0.0
  0
LINE
  5
D6
330
1F
100
AcDbEntity
  8
1
  6
Continuous
 62
     4
100
AcDbLine
 10
254.2496918620059
 20
63.98913608739557
 30
0.0
 11
254.5143977443588
 21
63.68913608739558
 31
0.0
  0
LINE
  5
D7
330
1F
100
AcDbEntity
  8
1
  6
Continuous
 62
     4
100
AcDbLine
 10
255.0438095090647
 20
64.58913608739557
 30
0.0
 11
254.5143977443588
 21
63.68913608739558
 31
0.0
  0
LINE
  5
D8
330
1F
100
AcDbEntity
  8
1
  6
Continuous
 62
     4
100
AcDbLine
 10
251.734985979653
 20
64.28913608739558
 30
0.0
 11
253.0585153914177
 21
64.28913608739558
 31
0.0
  0
LINE
  5
D9
330
1F
100
AcDbEntity
  8
1
  6
Continuous
 62
     4
100
AcDbLine
 10
250.8085153914177
 20
62.48913608739557
 30
0.0
 11
250.5438095090647
 21
61.58913608739557
 31
0.0
  0
LINE
  5
DA
330
1F
100
AcDbEntity
  8
1
  6
Continuous
 62
     4
100
AcDbLine
 10
252.1320448031824
 20
63.53913608739557
 30
0.0
 11
252.7938095090647
 21
63.53913608739557
 31
0.0
  0
LINE
  5
DB
330
1F
100
AcDbEntity
  8
1
  6
Continuous
 62
     4
100
AcDbLine
 10
251.3379271561235
 20
61.43913608739558
 30
0.0
 11
251.3379271561235
 21
62.63913608739557
 31
0.0
  0
LINE
  5
DC
330
1F
100
AcDbEntity
  8
1
  6
Continuous
 62
     4
100
AcDbLine
 10
252.9261624502412
 20
61.43913608739558
 30
0.0
 11
252.9261624502412
 21
60.23913608739557
 31
0.0
  0
LINE
  5
DD
330
1F
100
AcDbEntity
  8
1
  6
Continuous
 62
     4
100
AcDbLine
 10
251.3379271561235
 20
61.43913608739558
 30
0.0
 11
252.9261624502412
 21
61.43913608739558
 31
0.0
  0
LINE
  5
DE
330
1F
100
AcDbEntity
  8
1
  6
Continuous
 62
     4
100
AcDbLine
 10
251.3379271561235
 20
62.63913608739557
 30
0.0
 11
251.8673389208294
 21
62.63913608739557
 31
0.0
  0
LINE
  5
DF
330
1F
100
AcDbEntity
  8
1
  6
Continuous
 62
     4
100
AcDbLine
 10
251.3379271561235
 20
60.23913608739557
 30
0.0
 11
251.3379271561235
 21
61.43913608739558
 31
0.0
  0
LINE
  5
E0
330
1F
100
AcDbEntity
  8
1
  6
Continuous
 62
     4
100
AcDbLine
 10
252.9261624502412
 20
60.23913608739557
 30
0.0
 11
251.3379271561235
 21
60.23913608739557
 31
0.0
  0
LINE
  5
E1
330
1F
100
AcDbEntity
  8
1
  6
Continuous
 62
     4
100
AcDbLine
 10
252.9261624502412
 20
62.63913608739557
 30
0.0
 11
252.9261624502412
 21
61.43913608739558
 31
0.0
  0
LINE
  5
E2
330
1F
100
AcDbEntity
  8
1
  6
Continuous
 62
     4
100
AcDbLine
 10
251.8673389208294
 20
62.63913608739557
 30
0.0
 11
252.9261624502412
 21
62.63913608739557
 31
0.0
  0
LINE
  5
E3
330
1F
100
AcDbEntity
  8
1
  6
Continuous
 62
     4
100
AcDbLine
 10
252.1320448031824
 20
63.53913608739557
 30
0.0
 11
251.8673389208294
 21
62.63913608739557
 31
0.0
  0
LINE
  5
E4
330
1F
100
AcDbEntity
  8
1
  6
Continuous
 62
     4
100
AcDbLine
 10
251.2055742149471
 20
63.53913608739557
 30
0.0
 11
252.1320448031824
 21
63.53913608739557
 31
0.0
  0
LINE
  5
E5
330
1F
100
AcDbEntity
  8
1
  6
Continuous
 62
     4
100
AcDbLine
 10
250.8085153914177
 20
62.48913608739557
 30
0.0
 11
250.8085153914177
 21
60.23913608739557
 31
0.0
  0
LINE
  5
E6
330
1F
100
AcDbEntity
  8
1
  6
Continuous
 62
     4
100
AcDbLine
 10
251.0732212737706
 20
63.38913608739557
 30
0.0
 11
250.8085153914177
 21
62.48913608739557
 31
0.0
  0
LINE
  5
E7
330
1F
100
AcDbEntity
  8
1
  6
Continuous
 62
     4
100
AcDbLine
 10
253.0585153914177
 20
64.28913608739558
 30
0.0
 11
252.9261624502412
 21
63.53913608739557
 31
0.0
  0
LINE
  5
E8
330
1F
100
AcDbEntity
  8
1
  6
Continuous
 62
     4
100
AcDbLine
 10
250.5438095090647
 20
64.28913608739558
 30
0.0
 11
251.734985979653
 21
64.28913608739558
 31
0.0
  0
LINE
  5
E9
330
1F
100
AcDbEntity
  8
1
  6
Continuous
 62
     4
100
AcDbLine
 10
250.5438095090647
 20
63.53913608739557
 30
0.0
 11
250.5438095090647
 21
64.28913608739558
 31
0.0
  0
LINE
  5
EA
330
1F
100
AcDbEntity
  8
1
  6
Continuous
 62
     4
100
AcDbLine
 10
251.734985979653
 20
64.73913608739556
 30
0.0
 11
251.734985979653
 21
64.28913608739558
 31
0.0
  0
LINE
  5
EB
330
1F
100
AcDbEntity
  8
1
  6
Continuous
 62
     4
100
AcDbLine
 10
249.8820448031824
 20
62.03913608739557
 30
0.0
 11
250.2791036267118
 21
60.83913608739557
 31
0.0
  0
LINE
  5
EC
330
1F
100
AcDbEntity
  8
1
  6
Continuous
 62
     4
100
AcDbLine
 10
249.3526330384765
 20
62.03913608739557
 30
0.0
 11
248.9555742149471
 21
60.53913608739557
 31
0.0
  0
LINE
  5
ED
330
1F
100
AcDbEntity
  8
1
  6
Continuous
 62
     4
100
AcDbLine
 10
249.6173389208294
 20
62.33913608739557
 30
0.0
 11
249.6173389208294
 21
60.23913608739557
 31
0.0
  0
LINE
  5
EE
330
1F
100
AcDbEntity
  8
1
  6
Continuous
 62
     4
100
AcDbLine
 10
250.1467506855353
 20
62.48913608739557
 30
0.0
 11
250.2791036267118
 21
62.03913608739557
 31
0.0
  0
LINE
  5
EF
330
1F
100
AcDbEntity
  8
1
  6
Continuous
 62
     4
100
AcDbLine
 10
250.0143977443588
 20
62.93913608739558
 30
0.0
 11
250.1467506855353
 21
62.48913608739557
 31
0.0
  0
LINE
  5
F0
330
1F
100
AcDbEntity
  8
1
  6
Continuous
 62
     4
100
AcDbLine
 10
249.0879271561235
 20
62.33913608739557
 30
0.0
 11
250.1467506855353
 21
62.48913608739557
 31
0.0
  0
LINE
  5
F1
330
1F
100
AcDbEntity
  8
1
  6
Continuous
 62
     4
100
AcDbLine
 10
248.9555742149471
 20
62.33913608739557
 30
0.0
 11
249.0879271561235
 21
62.33913608739557
 31
0.0
  0
LINE
  5
F2
330
1F
100
AcDbEntity
  8
1
  6
Continuous
 62
     4
100
AcDbLine
 10
249.484985979653
 20
62.93913608739558
 30
0.0
 11
249.0879271561235
 21
62.33913608739557
 31
0.0
  0
LINE
  5
F3
330
1F
100
AcDbEntity
  8
1
  6
Continuous
 62
     4
100
AcDbLine
 10
250.0143977443588
 20
63.83913608739557
 30
0.0
 11
249.484985979653
 21
62.93913608739558
 31
0.0
  0
LINE
  5
F4
330
1F
100
AcDbEntity
  8
1
  6
Continuous
 62
     4
100
AcDbLine
 10
249.2202800973
 20
63.68913608739558
 30
0.0
 11
249.484985979653
 21
62.93913608739558
 31
0.0
  0
LINE
  5
F5
330
1F
100
AcDbEntity
  8
1
  6
Continuous
 62
     4
100
AcDbLine
 10
249.0879271561235
 20
63.98913608739557
 30
0.0
 11
249.2202800973
 21
63.68913608739558
 31
0.0
  0
LINE
  5
F6
330
1F
100
AcDbEntity
  8
1
  6
Continuous
 62
     4
100
AcDbLine
 10
249.6173389208294
 20
64.58913608739557
 30
0.0
 11
249.2202800973
 21
63.68913608739558
 31
0.0
  0
LINE
  5
F7
330
1F
100
AcDbEntity
  8
1
  6
Continuous
 62
     4
100
AcDbLine
 10
244.0585153914177
 20
63.23913608739557
 30
0.0
 11
243.6614565678883
 21
61.88913608739557
 31
0.0
  0
LINE
  5
F8
330
1F
100
AcDbEntity
  8
1
  6
Continuous
 62
     4
100
AcDbLine
 10
247.4996918620059
 20
62.78913608739557
 30
0.0
 11
247.4996918620059
 21
61.28913608739557
 31
0.0
  0
LINE
  5
F9
330
1F
100
AcDbEntity
  8
1
  6
Continuous
 62
     4
100
AcDbLine
 10
246.1761624502412
 20
64.73913608739556
 30
0.0
 11
246.1761624502412
 21
60.23913608739557
 31
0.0
  0
LINE
  5
FA
330
1F
100
AcDbEntity
  8
1
  6
Continuous
 62
     4
100
AcDbLine
 10
244.8526330384765
 20
62.78913608739557
 30
0.0
 11
247.4996918620059
 21
62.78913608739557
 31
0.0
  0
LINE
  5
FB
330
1F
100
AcDbEntity
  8
1
  6
Continuous
 62
     4
100
AcDbLine
 10
244.8526330384765
 20
61.28913608739557
 30
0.0
 11
244.8526330384765
 21
62.78913608739557
 31
0.0
  0
LINE
  5
FC
330
1F
100
AcDbEntity
  8
1
  6
Continuous
 62
     4
100
AcDbLine
 10
247.4996918620059
 20
61.28913608739557
 30
0.0
 11
244.8526330384765
 21
61.28913608739557
 31
0.0
  0
LINE
  5
FD
330
1F
100
AcDbEntity
  8
1
  6
Continuous
 62
     4
100
AcDbLine
 10
247.4996918620059
 20
64.13913608739557
 30
0.0
 11
247.4996918620059
 21
62.78913608739557
 31
0.0
  0
LINE
  5
FE
330
1F
100
AcDbEntity
  8
1
  6
Continuous
 62
     4
100
AcDbLine
 10
244.8526330384765
 20
64.13913608739557
 30
0.0
 11
247.4996918620059
 21
64.13913608739557
 31
0.0
  0
LINE
  5
FF
330
1F
100
AcDbEntity
  8
1
  6
Continuous
 62
     4
100
AcDbLine
 10
244.8526330384765
 20
62.78913608739557
 30
0.0
 11
244.8526330384765
 21
64.13913608739557
 31
0.0
  0
LINE
  5
100
330
1F
100
AcDbEntity
  8
1
  6
Continuous
 62
     4
100
AcDbLine
 10
244.0585153914177
 20
63.23913608739557
 30
0.0
 11
244.0585153914177
 21
60.23913608739557
 31
0.0
  0
LINE
  5
101
330
1F
100
AcDbEntity
  8
1
  6
Continuous
 62
     4
100
AcDbLine
 10
244.4555742149471
 20
64.58913608739557
 30
0.0
 11
244.0585153914177
 21
63.23913608739557
 31
0.0
  0
LINE
  5
102
330
1F
100
AcDbEntity
  8
1
  6
Continuous
 62
     4
100
AcDbLine
 10
242.0732212737706
 20
62.33913608739557
 30
0.0
 11
242.2055742149471
 21
62.18913608739558
 31
0.0
  0
LINE
  5
103
330
1F
100
AcDbEntity
  8
1
  6
Continuous
 62
     4
100
AcDbLine
 10
241.8085153914176
 20
62.33913608739557
 30
0.0
 11
241.9408683325941
 21
62.48913608739557
 31
0.0
  0
LINE
  5
104
330
1F
100
AcDbEntity
  8
1
  6
Continuous
 62
     4
100
AcDbLine
 10
242.0732212737706
 20
62.18913608739558
 30
0.0
 11
242.0732212737706
 21
62.03913608739557
 31
0.0
  0
LINE
  5
105
330
1F
100
AcDbEntity
  8
1
  6
Continuous
 62
     4
100
AcDbLine
 10
241.9408683325941
 20
62.33913608739557
 30
0.0
 11
242.0732212737706
 21
62.33913608739557
 31
0.0
  0
LINE
  5
106
330
1F
100
AcDbEntity
  8
1
  6
Continuous
 62
     4
100
AcDbLine
 10
241.8085153914176
 20
62.18913608739558
 30
0.0
 11
241.9408683325941
 21
62.33913608739557
 31
0.0
  0
LINE
  5
107
330
1F
100
AcDbEntity
  8
1
  6
Continuous
 62
     4
100
AcDbLine
 10
241.9408683325941
 20
62.03913608739557
 30
0.0
 11
241.8085153914176
 21
62.18913608739558
 31
0.0
  0
LINE
  5
108
330
1F
100
AcDbEntity
  8
1
  6
Continuous
 62
     4
100
AcDbLine
 10
242.0732212737706
 20
62.18913608739558
 30
0.0
 11
241.9408683325941
 21
62.03913608739557
 31
0.0
  0
LINE
  5
109
330
1F
100
AcDbEntity
  8
1
  6
Continuous
 62
     4
100
AcDbLine
 10
241.9408683325941
 20
62.33913608739557
 30
0.0
 11
242.0732212737706
 21
62.18913608739558
 31
0.0
  0
LINE
  5
10A
330
1F
100
AcDbEntity
  8
1
  6
Continuous
 62
     4
100
AcDbLine
 10
241.8085153914176
 20
62.03913608739557
 30
0.0
 11
241.8085153914176
 21
62.33913608739557
 31
0.0
  0
LINE
  5
10B
330
1F
100
AcDbEntity
  8
1
  6
Continuous
 62
     4
100
AcDbLine
 10
242.0732212737706
 20
62.03913608739557
 30
0.0
 11
241.8085153914176
 21
62.03913608739557
 31
0.0
  0
LINE
  5
10C
330
1F
100
AcDbEntity
  8
1
  6
Continuous
 62
     4
100
AcDbLine
 10
242.0732212737706
 20
62.33913608739557
 30
0.0
 11
242.0732212737706
 21
62.18913608739558
 31
0.0
  0
LINE
  5
10D
330
1F
100
AcDbEntity
  8
1
  6
Continuous
 62
     4
100
AcDbLine
 10
241.8085153914176
 20
62.33913608739557
 30
0.0
 11
241.9408683325941
 21
62.33913608739557
 31
0.0
  0
LINE
  5
10E
330
1F
100
AcDbEntity
  8
1
  6
Continuous
 62
     4
100
AcDbLine
 10
241.6761624502412
 20
62.18913608739558
 30
0.0
 11
241.8085153914176
 21
62.33913608739557
 31
0.0
  0
LINE
  5
10F
330
1F
100
AcDbEntity
  8
1
  6
Continuous
 62
     4
100
AcDbLine
 10
241.9408683325941
 20
61.88913608739557
 30
0.0
 11
241.6761624502412
 21
62.18913608739558
 31
0.0
  0
LINE
  5
110
330
1F
100
AcDbEntity
  8
1
  6
Continuous
 62
     4
100
AcDbLine
 10
242.2055742149471
 20
62.18913608739558
 30
0.0
 11
241.9408683325941
 21
61.88913608739557
 31
0.0
  0
LINE
  5
111
330
1F
100
AcDbEntity
  8
1
  6
Continuous
 62
     4
100
AcDbLine
 10
241.9408683325941
 20
62.48913608739557
 30
0.0
 11
242.0732212737706
 21
62.33913608739557
 31
0.0
  0
LINE
  5
112
330
1F
100
AcDbEntity
  8
1
  6
Continuous
 62
     4
100
AcDbLine
 10
238.6320448031823
 20
63.38913608739557
 30
0.0
 11
238.6320448031823
 21
60.38913608739557
 31
0.0
  0
LINE
  5
113
330
1F
100
AcDbEntity
  8
1
  6
Continuous
 62
     4
100
AcDbLine
 10
237.1761624502412
 20
60.38913608739557
 30
0.0
 11
240.4849859796529
 21
60.38913608739557
 31
0.0
  0
LINE
  5
114
330
1F
100
AcDbEntity
  8
1
  6
Continuous
 62
     4
100
AcDbLine
 10
236.5143977443588
 20
60.38913608739557
 30
0.0
 11
237.1761624502412
 21
60.38913608739557
 31
0.0
  0
LINE
  5
115
330
1F
100
AcDbEntity
  8
1
  6
Continuous
 62
     4
100
AcDbLine
 10
237.1761624502412
 20
63.98913608739557
 30
0.0
 11
237.1761624502412
 21
60.38913608739557
 31
0.0
  0
LINE
  5
116
330
1F
100
AcDbEntity
  8
1
  6
Continuous
 62
     4
100
AcDbLine
 10
238.6320448031823
 20
63.38913608739557
 30
0.0
 11
240.3526330384765
 21
63.38913608739557
 31
0.0
  0
LINE
  5
117
330
1F
100
AcDbEntity
  8
1
  6
Continuous
 62
     4
100
AcDbLine
 10
238.6320448031823
 20
64.73913608739556
 30
0.0
 11
238.6320448031823
 21
63.38913608739557
 31
0.0
  0
LINE
  5
118
330
1F
100
AcDbEntity
  8
1
  6
Continuous
 62
     4
100
AcDbLine
 10
233.2055742149471
 20
63.98913608739557
 30
0.0
 11
235.1908683325941
 21
63.98913608739557
 31
0.0
  0
LINE
  5
119
330
1F
100
AcDbEntity
  8
1
  6
Continuous
 62
     4
100
AcDbLine
 10
234.3967506855353
 20
60.23913608739557
 30
0.0
 11
233.4702800973
 21
60.53913608739557
 31
0.0
  0
LINE
  5
11A
330
1F
100
AcDbEntity
  8
1
  6
Continuous
 62
     4
100
AcDbLine
 10
234.9261624502412
 20
60.98913608739557
 30
0.0
 11
234.3967506855353
 21
60.23913608739557
 31
0.0
  0
LINE
  5
11B
330
1F
100
AcDbEntity
  8
1
  6
Continuous
 62
     4
100
AcDbLine
 10
234.9261624502412
 20
62.93913608739558
 30
0.0
 11
234.9261624502412
 21
60.98913608739557
 31
0.0
  0
LINE
  5
11C
330
1F
100
AcDbEntity
  8
1
  6
Continuous
 62
     4
100
AcDbLine
 10
233.2055742149471
 20
62.93913608739558
 30
0.0
 11
234.9261624502412
 21
62.93913608739558
 31
0.0
  0
LINE
  5
11D
330
1F
100
AcDbEntity
  8
1
  6
Continuous
 62
     4
100
AcDbLine
 10
232.9408683325941
 20
61.43913608739558
 30
0.0
 11
232.1467506855353
 21
60.38913608739557
 31
0.0
  0
LINE
  5
11E
330
1F
100
AcDbEntity
  8
1
  6
Continuous
 62
     4
100
AcDbLine
 10
233.2055742149471
 20
62.93913608739558
 30
0.0
 11
232.9408683325941
 21
61.43913608739558
 31
0.0
  0
LINE
  5
11F
330
1F
100
AcDbEntity
  8
1
  6
Continuous
 62
     4
100
AcDbLine
 10
233.2055742149471
 20
63.98913608739557
 30
0.0
 11
233.2055742149471
 21
62.93913608739558
 31
0.0
  0
LINE
  5
120
330
1F
100
AcDbEntity
  8
1
  6
Continuous
 62
     4
100
AcDbLine
 10
232.4114565678882
 20
63.98913608739557
 30
0.0
 11
233.2055742149471
 21
63.98913608739557
 31
0.0
  0
LINE
  5
121
330
1F
100
AcDbEntity
  8
1
  6
Continuous
 62
     4
100
AcDbLine
 10
233.734985979653
 20
64.88913608739557
 30
0.0
 11
233.734985979653
 21
63.98913608739557
 31
0.0
  0
LINE
  5
122
330
1F
100
AcDbEntity
  8
1
  6
Continuous
 62
     4
100
AcDbLine
 10
231.8820448031823
 20
61.43913608739558
 30
0.0
 11
231.3526330384765
 21
61.73913608739557
 31
0.0
  0
LINE
  5
123
330
1F
100
AcDbEntity
  8
1
  6
Continuous
 62
     4
100
AcDbLine
 10
232.4114565678882
 20
62.03913608739557
 30
0.0
 11
231.8820448031823
 21
61.43913608739558
 31
0.0
  0
LINE
  5
124
330
1F
100
AcDbEntity
  8
1
  6
Continuous
 62
     4
100
AcDbLine
 10
231.8820448031823
 20
63.08913608739557
 30
0.0
 11
232.4114565678882
 21
62.03913608739557
 31
0.0
  0
LINE
  5
125
330
1F
100
AcDbEntity
  8
1
  6
Continuous
 62
     4
100
AcDbLine
 10
232.4114565678882
 20
64.73913608739556
 30
0.0
 11
231.8820448031823
 21
63.08913608739557
 31
0.0
  0
LINE
  5
126
330
1F
100
AcDbEntity
  8
1
  6
Continuous
 62
     4
100
AcDbLine
 10
231.2202800973
 20
64.73913608739556
 30
0.0
 11
232.4114565678882
 21
64.73913608739556
 31
0.0
  0
LINE
  5
127
330
1F
100
AcDbEntity
  8
1
  6
Continuous
 62
     4
100
AcDbLine
 10
231.2202800973
 20
60.23913608739557
 30
0.0
 11
231.2202800973
 21
64.73913608739556
 31
0.0
  0
LINE
  5
128
330
1F
100
AcDbEntity
  8
1
  6
Continuous
 62
     4
100
AcDbLine
 10
226.0585153914176
 20
62.78913608739557
 30
0.0
 11
226.0585153914176
 21
63.68913608739558
 31
0.0
  0
LINE
  5
129
330
1F
100
AcDbEntity
  8
1
  6
Continuous
 62
     4
100
AcDbLine
 10
226.0585153914176
 20
63.68913608739558
 30
0.0
 11
226.0585153914176
 21
64.58913608739557
 31
0.0
  0
LINE
  5
12A
330
1F
100
AcDbEntity
  8
1
  6
Continuous
 62
     4
100
AcDbLine
 10
227.7791036267118
 20
63.68913608739558
 30
0.0
 11
227.7791036267118
 21
62.78913608739557
 31
0.0
  0
LINE
  5
12B
330
1F
100
AcDbEntity
  8
1
  6
Continuous
 62
     4
100
AcDbLine
 10
228.1761624502412
 20
63.68913608739558
 30
0.0
 11
228.1761624502412
 21
64.58913608739557
 31
0.0
  0
LINE
  5
12C
330
1F
100
AcDbEntity
  8
1
  6
Continuous
 62
     4
100
AcDbLine
 10
229.8967506855353
 20
63.68913608739558
 30
0.0
 11
229.8967506855353
 21
60.23913608739557
 31
0.0
  0
LINE
  5
12D
330
1F
100
AcDbEntity
  8
1
  6
Continuous
 62
     4
100
AcDbLine
 10
228.4408683325941
 20
62.18913608739558
 30
0.0
 11
228.4408683325941
 21
60.23913608739557
 31
0.0
  0
LINE
  5
12E
330
1F
100
AcDbEntity
  8
1
  6
Continuous
 62
     4
100
AcDbLine
 10
228.4408683325941
 20
62.18913608739558
 30
0.0
 11
226.4555742149471
 21
60.68913608739558
 31
0.0
  0
LINE
  5
12F
330
1F
100
AcDbEntity
  8
1
  6
Continuous
 62
     4
100
AcDbLine
 10
228.4408683325941
 20
60.23913608739557
 30
0.0
 11
227.5143977443588
 21
60.53913608739557
 31
0.0
  0
LINE
  5
130
330
1F
100
AcDbEntity
  8
1
  6
Continuous
 62
     4
100
AcDbLine
 10
228.4408683325941
 20
62.63913608739557
 30
0.0
 11
228.4408683325941
 21
62.18913608739558
 31
0.0
  0
LINE
  5
131
330
1F
100
AcDbEntity
  8
1
  6
Continuous
 62
     4
100
AcDbLine
 10
226.4555742149471
 20
62.18913608739558
 30
0.0
 11
229.4996918620059
 21
62.18913608739558
 31
0.0
  0
LINE
  5
132
330
1F
100
AcDbEntity
  8
1
  6
Continuous
 62
     4
100
AcDbLine
 10
228.1761624502412
 20
63.68913608739558
 30
0.0
 11
229.8967506855353
 21
63.68913608739558
 31
0.0
  0
LINE
  5
133
330
1F
100
AcDbEntity
  8
1
  6
Continuous
 62
     4
100
AcDbLine
 10
229.8967506855353
 20
60.23913608739557
 30
0.0
 11
228.9702800973
 21
60.53913608739557
 31
0.0
  0
LINE
  5
134
330
1F
100
AcDbEntity
  8
1
  6
Continuous
 62
     4
100
AcDbLine
 10
229.8967506855353
 20
64.58913608739557
 30
0.0
 11
229.8967506855353
 21
63.68913608739558
 31
0.0
  0
LINE
  5
135
330
1F
100
AcDbEntity
  8
1
  6
Continuous
 62
     4
100
AcDbLine
 10
228.1761624502412
 20
64.58913608739557
 30
0.0
 11
229.8967506855353
 21
64.58913608739557
 31
0.0
  0
LINE
  5
136
330
1F
100
AcDbEntity
  8
1
  6
Continuous
 62
     4
100
AcDbLine
 10
228.1761624502412
 20
62.78913608739557
 30
0.0
 11
228.1761624502412
 21
63.68913608739558
 31
0.0
  0
LINE
  5
137
330
1F
100
AcDbEntity
  8
1
  6
Continuous
 62
     4
100
AcDbLine
 10
229.8967506855353
 20
62.78913608739557
 30
0.0
 11
228.1761624502412
 21
62.78913608739557
 31
0.0
  0
LINE
  5
138
330
1F
100
AcDbEntity
  8
1
  6
Continuous
 62
     4
100
AcDbLine
 10
226.0585153914176
 20
63.68913608739558
 30
0.0
 11
227.7791036267118
 21
63.68913608739558
 31
0.0
  0
LINE
  5
139
330
1F
100
AcDbEntity
  8
1
  6
Continuous
 62
     4
100
AcDbLine
 10
227.7791036267118
 20
62.78913608739557
 30
0.0
 11
226.0585153914176
 21
62.78913608739557
 31
0.0
  0
LINE
  5
13A
330
1F
100
AcDbEntity
  8
1
  6
Continuous
 62
     4
100
AcDbLine
 10
227.7791036267118
 20
64.58913608739557
 30
0.0
 11
227.7791036267118
 21
63.68913608739558
 31
0.0
  0
LINE
  5
13B
330
1F
100
AcDbEntity
  8
1
  6
Continuous
 62
     4
100
AcDbLine
 10
226.0585153914176
 20
64.58913608739557
 30
0.0
 11
227.7791036267118
 21
64.58913608739557
 31
0.0
  0
LINE
  5
13C
330
1F
100
AcDbEntity
  8
1
  6
Continuous
 62
     4
100
AcDbLine
 10
226.0585153914176
 20
60.23913608739557
 30
0.0
 11
226.0585153914176
 21
62.78913608739557
 31
0.0
  0
LINE
  5
13D
330
1F
100
AcDbEntity
  8
1
  6
Continuous
 62
     4
100
AcDbLine
 10
220.7643977443588
 20
63.08913608739557
 30
0.0
 11
220.7643977443588
 21
63.83913608739557
 31
0.0
  0
LINE
  5
13E
330
1F
100
AcDbEntity
  8
1
  6
Continuous
 62
     4
100
AcDbLine
 10
220.7643977443588
 20
63.83913608739557
 30
0.0
 11
220.7643977443588
 21
64.58913608739557
 31
0.0
  0
LINE
  5
13F
330
1F
100
AcDbEntity
  8
1
  6
Continuous
 62
     4
100
AcDbLine
 10
222.484985979653
 20
63.83913608739557
 30
0.0
 11
222.484985979653
 21
63.08913608739557
 31
0.0
  0
LINE
  5
140
330
1F
100
AcDbEntity
  8
1
  6
Continuous
 62
     4
100
AcDbLine
 10
222.8820448031823
 20
63.83913608739557
 30
0.0
 11
222.8820448031823
 21
64.58913608739557
 31
0.0
  0
LINE
  5
141
330
1F
100
AcDbEntity
  8
1
  6
Continuous
 62
     4
100
AcDbLine
 10
224.6026330384765
 20
63.83913608739557
 30
0.0
 11
224.6026330384765
 21
60.08913608739557
 31
0.0
  0
LINE
  5
142
330
1F
100
AcDbEntity
  8
1
  6
Continuous
 62
     4
100
AcDbLine
 10
222.0879271561235
 20
62.48913608739557
 30
0.0
 11
223.2791036267118
 21
62.48913608739557
 31
0.0
  0
LINE
  5
143
330
1F
100
AcDbEntity
  8
1
  6
Continuous
 62
     4
100
AcDbLine
 10
223.2791036267118
 20
62.48913608739557
 30
0.0
 11
223.9408683325941
 21
62.48913608739557
 31
0.0
  0
LINE
  5
144
330
1F
100
AcDbEntity
  8
1
  6
Continuous
 62
     4
100
AcDbLine
 10
223.2791036267118
 20
62.48913608739557
 30
0.0
 11
223.2791036267118
 21
60.23913608739557
 31
0.0
  0
LINE
  5
145
330
1F
100
AcDbEntity
  8
1
  6
Continuous
 62
     4
100
AcDbLine
 10
222.0879271561235
 20
61.58913608739557
 30
0.0
 11
221.6908683325941
 21
60.23913608739557
 31
0.0
  0
LINE
  5
146
330
1F
100
AcDbEntity
  8
1
  6
Continuous
 62
     4
100
AcDbLine
 10
222.0879271561235
 20
62.48913608739557
 30
0.0
 11
222.0879271561235
 21
61.58913608739557
 31
0.0
  0
LINE
  5
147
330
1F
100
AcDbEntity
  8
1
  6
Continuous
 62
     4
100
AcDbLine
 10
221.2938095090647
 20
61.73913608739557
 30
0.0
 11
224.0732212737706
 21
61.73913608739557
 31
0.0
  0
LINE
  5
148
330
1F
100
AcDbEntity
  8
1
  6
Continuous
 62
     4
100
AcDbLine
 10
221.4261624502412
 20
62.48913608739557
 30
0.0
 11
222.0879271561235
 21
62.48913608739557
 31
0.0
  0
LINE
  5
149
330
1F
100
AcDbEntity
  8
1
  6
Continuous
 62
     4
100
AcDbLine
 10
222.8820448031823
 20
63.83913608739557
 30
0.0
 11
224.6026330384765
 21
63.83913608739557
 31
0.0
  0
LINE
  5
14A
330
1F
100
AcDbEntity
  8
1
  6
Continuous
 62
     4
100
AcDbLine
 10
224.6026330384765
 20
60.08913608739557
 30
0.0
 11
223.8085153914176
 21
60.38913608739557
 31
0.0
  0
LINE
  5
14B
330
1F
100
AcDbEntity
  8
1
  6
Continuous
 62
     4
100
AcDbLine
 10
224.6026330384765
 20
64.58913608739557
 30
0.0
 11
224.6026330384765
 21
63.83913608739557
 31
0.0
  0
LINE
  5
14C
330
1F
100
AcDbEntity
  8
1
  6
Continuous
 62
     4
100
AcDbLine
 10
222.8820448031823
 20
64.58913608739557
 30
0.0
 11
224.6026330384765
 21
64.58913608739557
 31
0.0
  0
LINE
  5
14D
330
1F
100
AcDbEntity
  8
1
  6
Continuous
 62
     4
100
AcDbLine
 10
222.8820448031823
 20
63.08913608739557
 30
0.0
 11
222.8820448031823
 21
63.83913608739557
 31
0.0
  0
LINE
  5
14E
330
1F
100
AcDbEntity
  8
1
  6
Continuous
 62
     4
100
AcDbLine
 10
224.6026330384765
 20
63.08913608739557
 30
0.0
 11
222.8820448031823
 21
63.08913608739557
 31
0.0
  0
LINE
  5
14F
330
1F
100
AcDbEntity
  8
1
  6
Continuous
 62
     4
100
AcDbLine
 10
220.7643977443588
 20
63.83913608739557
 30
0.0
 11
222.484985979653
 21
63.83913608739557
 31
0.0
  0
LINE
  5
150
330
1F
100
AcDbEntity
  8
1
  6
Continuous
 62
     4
100
AcDbLine
 10
222.484985979653
 20
63.08913608739557
 30
0.0
 11
220.7643977443588
 21
63.08913608739557
 31
0.0
  0
LINE
  5
151
330
1F
100
AcDbEntity
  8
1
  6
Continuous
 62
     4
100
AcDbLine
 10
222.484985979653
 20
64.58913608739557
 30
0.0
 11
222.484985979653
 21
63.83913608739557
 31
0.0
  0
LINE
  5
152
330
1F
100
AcDbEntity
  8
1
  6
Continuous
 62
     4
100
AcDbLine
 10
220.7643977443588
 20
64.58913608739557
 30
0.0
 11
222.484985979653
 21
64.58913608739557
 31
0.0
  0
LINE
  5
153
330
1F
100
AcDbEntity
  8
1
  6
Continuous
 62
     4
100
AcDbLine
 10
220.7643977443588
 20
60.08913608739557
 30
0.0
 11
220.7643977443588
 21
63.08913608739557
 31
0.0
  0
LINE
  5
154
330
1F
100
AcDbEntity
  8
1
  6
Continuous
 62
     4
100
AcDbLine
 10
219.0438095090647
 20
62.33913608739557
 30
0.0
 11
219.1761624502412
 21
62.18913608739558
 31
0.0
  0
LINE
  5
155
330
1F
100
AcDbEntity
  8
1
  6
Continuous
 62
     4
100
AcDbLine
 10
218.7791036267118
 20
62.33913608739557
 30
0.0
 11
218.9114565678882
 21
62.48913608739557
 31
0.0
  0
LINE
  5
156
330
1F
100
AcDbEntity
  8
1
  6
Continuous
 62
     4
100
AcDbLine
 10
219.0438095090647
 20
62.18913608739558
 30
0.0
 11
219.0438095090647
 21
62.03913608739557
 31
0.0
  0
LINE
  5
157
330
1F
100
AcDbEntity
  8
1
  6
Continuous
 62
     4
100
AcDbLine
 10
218.9114565678882
 20
62.33913608739557
 30
0.0
 11
219.0438095090647
 21
62.33913608739557
 31
0.0
  0
LINE
  5
158
330
1F
100
AcDbEntity
  8
1
  6
Continuous
 62
     4
100
AcDbLine
 10
218.7791036267118
 20
62.18913608739558
 30
0.0
 11
218.9114565678882
 21
62.33913608739557
 31
0.0
  0
LINE
  5
159
330
1F
100
AcDbEntity
  8
1
  6
Continuous
 62
     4
100
AcDbLine
 10
218.9114565678882
 20
62.03913608739557
 30
0.0
 11
218.7791036267118
 21
62.18913608739558
 31
0.0
  0
LINE
  5
15A
330
1F
100
AcDbEntity
  8
1
  6
Continuous
 62
     4
100
AcDbLine
 10
219.0438095090647
 20
62.18913608739558
 30
0.0
 11
218.9114565678882
 21
62.03913608739557
 31
0.0
  0
LINE
  5
15B
330
1F
100
AcDbEntity
  8
1
  6
Continuous
 62
     4
100
AcDbLine
 10
218.9114565678882
 20
62.33913608739557
 30
0.0
 11
219.0438095090647
 21
62.18913608739558
 31
0.0
  0
LINE
  5
15C
330
1F
100
AcDbEntity
  8
1
  6
Continuous
 62
     4
100
AcDbLine
 10
218.7791036267118
 20
62.03913608739557
 30
0.0
 11
218.7791036267118
 21
62.33913608739557
 31
0.0
  0
LINE
  5
15D
330
1F
100
AcDbEntity
  8
1
  6
Continuous
 62
     4
100
AcDbLine
 10
219.0438095090647
 20
62.03913608739557
 30
0.0
 11
218.7791036267118
 21
62.03913608739557
 31
0.0
  0
LINE
  5
15E
330
1F
100
AcDbEntity
  8
1
  6
Continuous
 62
     4
100
AcDbLine
 10
219.0438095090647
 20
62.33913608739557
 30
0.0
 11
219.0438095090647
 21
62.18913608739558
 31
0.0
  0
LINE
  5
15F
330
1F
100
AcDbEntity
  8
1
  6
Continuous
 62
     4
100
AcDbLine
 10
218.7791036267118
 20
62.33913608739557
 30
0.0
 11
218.9114565678882
 21
62.33913608739557
 31
0.0
  0
LINE
  5
160
330
1F
100
AcDbEntity
  8
1
  6
Continuous
 62
     4
100
AcDbLine
 10
218.6467506855353
 20
62.18913608739558
 30
0.0
 11
218.7791036267118
 21
62.33913608739557
 31
0.0
  0
LINE
  5
161
330
1F
100
AcDbEntity
  8
1
  6
Continuous
 62
     4
100
AcDbLine
 10
218.9114565678882
 20
61.88913608739557
 30
0.0
 11
218.6467506855353
 21
62.18913608739558
 31
0.0
  0
LINE
  5
162
330
1F
100
AcDbEntity
  8
1
  6
Continuous
 62
     4
100
AcDbLine
 10
219.1761624502412
 20
62.18913608739558
 30
0.0
 11
218.9114565678882
 21
61.88913608739557
 31
0.0
  0
LINE
  5
163
330
1F
100
AcDbEntity
  8
1
  6
Continuous
 62
     4
100
AcDbLine
 10
218.9114565678882
 20
62.48913608739557
 30
0.0
 11
219.0438095090647
 21
62.33913608739557
 31
0.0
  0
LINE
  5
164
330
1F
100
AcDbEntity
  8
1
  6
Continuous
 62
     4
100
AcDbLine
 10
214.1467506855353
 20
61.58913608739557
 30
0.0
 11
215.0732212737706
 21
61.58913608739557
 31
0.0
  0
LINE
  5
165
330
1F
100
AcDbEntity
  8
1
  6
Continuous
 62
     4
100
AcDbLine
 10
215.0732212737706
 20
64.13913608739557
 30
0.0
 11
215.9996918620059
 21
64.13913608739557
 31
0.0
  0
LINE
  5
166
330
1F
100
AcDbEntity
  8
1
  6
Continuous
 62
     4
100
AcDbLine
 10
215.0732212737706
 20
61.58913608739557
 30
0.0
 11
215.9996918620059
 21
61.58913608739557
 31
0.0
  0
LINE
  5
167
330
1F
100
AcDbEntity
  8
1
  6
Continuous
 62
     4
100
AcDbLine
 10
215.9996918620059
 20
64.13913608739557
 30
0.0
 11
216.9261624502412
 21
64.13913608739557
 31
0.0
  0
LINE
  5
168
330
1F
100
AcDbEntity
  8
1
  6
Continuous
 62
     4
100
AcDbLine
 10
215.9996918620059
 20
61.58913608739557
 30
0.0
 11
216.9261624502412
 21
61.58913608739557
 31
0.0
  0
LINE
  5
169
330
1F
100
AcDbEntity
  8
1
  6
Continuous
 62
     4
100
AcDbLine
 10
216.9261624502412
 20
64.13913608739557
 30
0.0
 11
217.3232212737706
 21
64.13913608739557
 31
0.0
  0
LINE
  5
16A
330
1F
100
AcDbEntity
  8
1
  6
Continuous
 62
     4
100
AcDbLine
 10
216.9261624502412
 20
61.58913608739557
 30
0.0
 11
217.3232212737706
 21
61.58913608739557
 31
0.0
  0
LINE
  5
16B
330
1F
100
AcDbEntity
  8
1
  6
Continuous
 62
     4
100
AcDbLine
 10
216.7938095090647
 20
61.28913608739557
 30
0.0
 11
217.4555742149471
 21
60.23913608739557
 31
0.0
  0
LINE
  5
16C
330
1F
100
AcDbEntity
  8
1
  6
Continuous
 62
     4
100
AcDbLine
 10
215.8673389208294
 20
61.28913608739557
 30
0.0
 11
216.2643977443588
 21
60.23913608739557
 31
0.0
  0
LINE
  5
16D
330
1F
100
AcDbEntity
  8
1
  6
Continuous
 62
     4
100
AcDbLine
 10
214.8085153914177
 20
61.28913608739557
 30
0.0
 11
215.0732212737706
 21
60.23913608739557
 31
0.0
  0
LINE
  5
16E
330
1F
100
AcDbEntity
  8
1
  6
Continuous
 62
     4
100
AcDbLine
 10
214.1467506855353
 20
61.28913608739557
 30
0.0
 11
213.6173389208294
 21
60.23913608739557
 31
0.0
  0
LINE
  5
16F
330
1F
100
AcDbEntity
  8
1
  6
Continuous
 62
     4
100
AcDbLine
 10
213.6173389208294
 20
61.58913608739557
 30
0.0
 11
214.1467506855353
 21
61.58913608739557
 31
0.0
  0
LINE
  5
170
330
1F
100
AcDbEntity
  8
1
  6
Continuous
 62
     4
100
AcDbLine
 10
213.484985979653
 20
62.93913608739558
 30
0.0
 11
217.4555742149471
 21
62.93913608739558
 31
0.0
  0
LINE
  5
171
330
1F
100
AcDbEntity
  8
1
  6
Continuous
 62
     4
100
AcDbLine
 10
216.9261624502412
 20
64.13913608739557
 30
0.0
 11
216.9261624502412
 21
61.58913608739557
 31
0.0
  0
LINE
  5
172
330
1F
100
AcDbEntity
  8
1
  6
Continuous
 62
     4
100
AcDbLine
 10
215.9996918620059
 20
64.13913608739557
 30
0.0
 11
215.9996918620059
 21
61.58913608739557
 31
0.0
  0
LINE
  5
173
330
1F
100
AcDbEntity
  8
1
  6
Continuous
 62
     4
100
AcDbLine
 10
215.0732212737706
 20
64.13913608739557
 30
0.0
 11
215.0732212737706
 21
61.58913608739557
 31
0.0
  0
LINE
  5
174
330
1F
100
AcDbEntity
  8
1
  6
Continuous
 62
     4
100
AcDbLine
 10
214.1467506855353
 20
64.13913608739557
 30
0.0
 11
214.1467506855353
 21
61.58913608739557
 31
0.0
  0
LINE
  5
175
330
1F
100
AcDbEntity
  8
1
  6
Continuous
 62
     4
100
AcDbLine
 10
214.1467506855353
 20
64.13913608739557
 30
0.0
 11
215.0732212737706
 21
64.13913608739557
 31
0.0
  0
LINE
  5
176
330
1F
100
AcDbEntity
  8
1
  6
Continuous
 62
     4
100
AcDbLine
 10
214.1467506855353
 20
64.13913608739557
 30
0.0
 11
213.7496918620059
 21
63.53913608739557
 31
0.0
  0
LINE
  5
177
330
1F
100
AcDbEntity
  8
1
  6
Continuous
 62
     4
100
AcDbLine
 10
214.2791036267118
 20
64.73913608739556
 30
0.0
 11
214.1467506855353
 21
64.13913608739557
 31
0.0
  0
LINE
  5
178
330
1F
100
AcDbEntity
  8
1
  6
Continuous
 62
     4
100
AcDbLine
 10
210.1761624502412
 20
64.28913608739558
 30
0.0
 11
210.1761624502412
 21
60.08913608739557
 31
0.0
  0
LINE
  5
179
330
1F
100
AcDbEntity
  8
1
  6
Continuous
 62
     4
100
AcDbLine
 10
211.3673389208294
 20
61.43913608739558
 30
0.0
 11
212.2938095090647
 21
60.38913608739557
 31
0.0
  0
LINE
  5
17A
330
1F
100
AcDbEntity
  8
1
  6
Continuous
 62
     4
100
AcDbLine
 10
210.7055742149471
 20
62.63913608739557
 30
0.0
 11
211.3673389208294
 21
61.43913608739558
 31
0.0
  0
LINE
  5
17B
330
1F
100
AcDbEntity
  8
1
  6
Continuous
 62
     4
100
AcDbLine
 10
210.1761624502412
 20
64.28913608739558
 30
0.0
 11
210.7055742149471
 21
62.63913608739557
 31
0.0
  0
LINE
  5
17C
330
1F
100
AcDbEntity
  8
1
  6
Continuous
 62
     4
100
AcDbLine
 10
212.0291036267118
 20
64.28913608739558
 30
0.0
 11
210.9702800973
 21
62.78913608739557
 31
0.0
  0
LINE
  5
17D
330
1F
100
AcDbEntity
  8
1
  6
Continuous
 62
     4
100
AcDbLine
 10
208.984985979653
 20
61.58913608739557
 30
0.0
 11
208.1908683325941
 21
60.53913608739557
 31
0.0
  0
LINE
  5
17E
330
1F
100
AcDbEntity
  8
1
  6
Continuous
 62
     4
100
AcDbLine
 10
209.3820448031823
 20
62.63913608739557
 30
0.0
 11
208.984985979653
 21
61.58913608739557
 31
0.0
  0
LINE
  5
17F
330
1F
100
AcDbEntity
  8
1
  6
Continuous
 62
     4
100
AcDbLine
 10
209.5143977443588
 20
63.83913608739557
 30
0.0
 11
209.3820448031823
 21
62.63913608739557
 31
0.0
  0
LINE
  5
180
330
1F
100
AcDbEntity
  8
1
  6
Continuous
 62
     4
100
AcDbLine
 10
208.1908683325941
 20
63.83913608739557
 30
0.0
 11
209.5143977443588
 21
63.83913608739557
 31
0.0
  0
LINE
  5
181
330
1F
100
AcDbEntity
  8
1
  6
Continuous
 62
     4
100
AcDbLine
 10
210.1761624502412
 20
60.08913608739557
 30
0.0
 11
209.2496918620059
 21
60.68913608739558
 31
0.0
  0
LINE
  5
182
330
1F
100
AcDbEntity
  8
1
  6
Continuous
 62
     4
100
AcDbLine
 10
210.1761624502412
 20
64.73913608739556
 30
0.0
 11
210.1761624502412
 21
64.28913608739558
 31
0.0
  0
LINE
  5
183
330
1F
100
AcDbEntity
  8
1
  6
Continuous
 62
     4
100
AcDbLine
 10
205.0143977443588
 20
63.83913608739557
 30
0.0
 11
205.0143977443588
 21
62.63913608739557
 31
0.0
  0
LINE
  5
184
330
1F
100
AcDbEntity
  8
1
  6
Continuous
 62
     4
100
AcDbLine
 10
205.0143977443588
 20
62.63913608739557
 30
0.0
 11
205.0143977443588
 21
61.88913608739557
 31
0.0
  0
LINE
  5
185
330
1F
100
AcDbEntity
  8
1
  6
Continuous
 62
     4
100
AcDbLine
 10
205.6761624502412
 20
63.83913608739557
 30
0.0
 11
205.6761624502412
 21
62.63913608739557
 31
0.0
  0
LINE
  5
186
330
1F
100
AcDbEntity
  8
1
  6
Continuous
 62
     4
100
AcDbLine
 10
205.6761624502412
 20
62.63913608739557
 30
0.0
 11
205.6761624502412
 21
61.43913608739558
 31
0.0
  0
LINE
  5
187
330
1F
100
AcDbEntity
  8
1
  6
Continuous
 62
     4
100
AcDbLine
 10
205.6761624502412
 20
61.43913608739558
 30
0.0
 11
205.6761624502412
 21
60.08913608739557
 31
0.0
  0
LINE
  5
188
330
1F
100
AcDbEntity
  8
1
  6
Continuous
 62
     4
100
AcDbLine
 10
205.6761624502412
 20
61.43913608739558
 30
0.0
 11
206.7349859796529
 21
61.43913608739558
 31
0.0
  0
LINE
  5
189
330
1F
100
AcDbEntity
  8
1
  6
Continuous
 62
     4
100
AcDbLine
 10
205.6761624502412
 20
62.63913608739557
 30
0.0
 11
206.4702800973
 21
62.63913608739557
 31
0.0
  0
LINE
  5
18A
330
1F
100
AcDbEntity
  8
1
  6
Continuous
 62
     4
100
AcDbLine
 10
205.6761624502412
 20
63.83913608739557
 30
0.0
 11
206.6026330384765
 21
63.83913608739557
 31
0.0
  0
LINE
  5
18B
330
1F
100
AcDbEntity
  8
1
  6
Continuous
 62
     4
100
AcDbLine
 10
205.6761624502412
 20
64.58913608739557
 30
0.0
 11
205.6761624502412
 21
63.83913608739557
 31
0.0
  0
LINE
  5
18C
330
1F
100
AcDbEntity
  8
1
  6
Continuous
 62
     4
100
AcDbLine
 10
205.0143977443588
 20
61.88913608739557
 30
0.0
 11
204.4849859796529
 21
60.23913608739557
 31
0.0
  0
LINE
  5
18D
330
1F
100
AcDbEntity
  8
1
  6
Continuous
 62
     4
100
AcDbLine
 10
205.0143977443588
 20
64.58913608739557
 30
0.0
 11
205.0143977443588
 21
63.83913608739557
 31
0.0
  0
LINE
  5
18E
330
1F
100
AcDbEntity
  8
1
  6
Continuous
 62
     4
100
AcDbLine
 10
203.955574214947
 20
61.13913608739557
 30
0.0
 11
205.0143977443588
 21
61.88913608739557
 31
0.0
  0
LINE
  5
18F
330
1F
100
AcDbEntity
  8
1
  6
Continuous
 62
     4
100
AcDbLine
 10
204.2202800973
 20
62.63913608739557
 30
0.0
 11
205.0143977443588
 21
62.63913608739557
 31
0.0
  0
LINE
  5
190
330
1F
100
AcDbEntity
  8
1
  6
Continuous
 62
     4
100
AcDbLine
 10
204.0879271561235
 20
63.83913608739557
 30
0.0
 11
205.0143977443588
 21
63.83913608739557
 31
0.0
  0
LINE
  5
191
330
1F
100
AcDbEntity
  8
1
  6
Continuous
 62
     4
100
AcDbLine
 10
202.8967506855353
 20
61.88913608739557
 30
0.0
 11
203.955574214947
 21
62.48913608739557
 31
0.0
  0
LINE
  5
192
330
1F
100
AcDbEntity
  8
1
  6
Continuous
 62
     4
100
AcDbLine
 10
203.4261624502412
 20
60.23913608739557
 30
0.0
 11
202.8967506855353
 21
60.53913608739557
 31
0.0
  0
LINE
  5
193
330
1F
100
AcDbEntity
  8
1
  6
Continuous
 62
     4
100
AcDbLine
 10
203.4261624502412
 20
64.73913608739556
 30
0.0
 11
203.4261624502412
 21
60.23913608739557
 31
0.0
  0
LINE
  5
194
330
1F
100
AcDbEntity
  8
1
  6
Continuous
 62
     4
100
AcDbLine
 10
202.8967506855353
 20
63.68913608739558
 30
0.0
 11
203.955574214947
 21
63.68913608739558
 31
0.0
  0
LINE
  5
195
330
1F
100
AcDbEntity
  8
1
  6
Continuous
 62
     4
100
AcDbLine
 10
197.205574214947
 20
60.23913608739557
 30
0.0
 11
201.4408683325941
 21
60.23913608739557
 31
0.0
  0
LINE
  5
196
330
1F
100
AcDbEntity
  8
1
  6
Continuous
 62
     4
100
AcDbLine
 10
195.2202800973
 20
64.43913608739557
 30
0.0
 11
194.4261624502412
 21
64.73913608739556
 31
0.0
  0
LINE
  5
197
330
1F
100
AcDbEntity
  8
1
  6
Continuous
 62
     4
100
AcDbLine
 10
195.7496918620059
 20
63.68913608739558
 30
0.0
 11
195.2202800973
 21
64.43913608739557
 31
0.0
  0
LINE
  5
198
330
1F
100
AcDbEntity
  8
1
  6
Continuous
 62
     4
100
AcDbLine
 10
195.8820448031823
 20
62.48913608739557
 30
0.0
 11
195.7496918620059
 21
63.68913608739558
 31
0.0
  0
LINE
  5
199
330
1F
100
AcDbEntity
  8
1
  6
Continuous
 62
     4
100
AcDbLine
 10
195.7496918620059
 20
61.28913608739557
 30
0.0
 11
195.8820448031823
 21
62.48913608739557
 31
0.0
  0
LINE
  5
19A
330
1F
100
AcDbEntity
  8
1
  6
Continuous
 62
     4
100
AcDbLine
 10
195.2202800973
 20
60.53913608739557
 30
0.0
 11
195.7496918620059
 21
61.28913608739557
 31
0.0
  0
LINE
  5
19B
330
1F
100
AcDbEntity
  8
1
  6
Continuous
 62
     4
100
AcDbLine
 10
194.4261624502412
 20
60.23913608739557
 30
0.0
 11
195.2202800973
 21
60.53913608739557
 31
0.0
  0
LINE
  5
19C
330
1F
100
AcDbEntity
  8
1
  6
Continuous
 62
     4
100
AcDbLine
 10
193.6320448031823
 20
60.53913608739557
 30
0.0
 11
194.4261624502412
 21
60.23913608739557
 31
0.0
  0
LINE
  5
19D
330
1F
100
AcDbEntity
  8
1
  6
Continuous
 62
     4
100
AcDbLine
 10
193.2349859796529
 20
61.28913608739557
 30
0.0
 11
193.6320448031823
 21
60.53913608739557
 31
0.0
  0
LINE
  5
19E
330
1F
100
AcDbEntity
  8
1
  6
Continuous
 62
     4
100
AcDbLine
 10
192.9702800973
 20
62.48913608739557
 30
0.0
 11
193.2349859796529
 21
61.28913608739557
 31
0.0
  0
LINE
  5
19F
330
1F
100
AcDbEntity
  8
1
  6
Continuous
 62
     4
100
AcDbLine
 10
193.2349859796529
 20
63.68913608739558
 30
0.0
 11
192.9702800973
 21
62.48913608739557
 31
0.0
  0
LINE
  5
1A0
330
1F
100
AcDbEntity
  8
1
  6
Continuous
 62
     4
100
AcDbLine
 10
193.6320448031823
 20
64.43913608739557
 30
0.0
 11
193.2349859796529
 21
63.68913608739558
 31
0.0
  0
LINE
  5
1A1
330
1F
100
AcDbEntity
  8
1
  6
Continuous
 62
     4
100
AcDbLine
 10
194.4261624502412
 20
64.73913608739556
 30
0.0
 11
193.6320448031823
 21
64.43913608739557
 31
0.0
  0
LINE
  5
1A2
330
1F
100
AcDbEntity
  8
1
  6
Continuous
 62
     4
100
AcDbLine
 10
188.7349859796529
 20
60.23913608739557
 30
0.0
 11
191.6467506855353
 21
60.23913608739557
 31
0.0
  0
LINE
  5
1A3
330
1F
100
AcDbEntity
  8
1
  6
Continuous
 62
     4
100
AcDbLine
 10
188.9996918620059
 20
60.98913608739557
 30
0.0
 11
188.7349859796529
 21
60.23913608739557
 31
0.0
  0
LINE
  5
1A4
330
1F
100
AcDbEntity
  8
1
  6
Continuous
 62
     4
100
AcDbLine
 10
189.2643977443588
 20
61.43913608739558
 30
0.0
 11
188.9996918620059
 21
60.98913608739557
 31
0.0
  0
LINE
  5
1A5
330
1F
100
AcDbEntity
  8
1
  6
Continuous
 62
     4
100
AcDbLine
 10
189.7938095090647
 20
61.88913608739557
 30
0.0
 11
189.2643977443588
 21
61.43913608739558
 31
0.0
  0
LINE
  5
1A6
330
1F
100
AcDbEntity
  8
1
  6
Continuous
 62
     4
100
AcDbLine
 10
190.3232212737706
 20
62.18913608739558
 30
0.0
 11
189.7938095090647
 21
61.88913608739557
 31
0.0
  0
LINE
  5
1A7
330
1F
100
AcDbEntity
  8
1
  6
Continuous
 62
     4
100
AcDbLine
 10
190.9849859796529
 20
62.63913608739557
 30
0.0
 11
190.3232212737706
 21
62.18913608739558
 31
0.0
  0
LINE
  5
1A8
330
1F
100
AcDbEntity
  8
1
  6
Continuous
 62
     4
100
AcDbLine
 10
191.3820448031823
 20
63.23913608739557
 30
0.0
 11
190.9849859796529
 21
62.63913608739557
 31
0.0
  0
LINE
  5
1A9
330
1F
100
AcDbEntity
  8
1
  6
Continuous
 62
     4
100
AcDbLine
 10
191.5143977443588
 20
63.83913608739557
 30
0.0
 11
191.3820448031823
 21
63.23913608739557
 31
0.0
  0
LINE
  5
1AA
330
1F
100
AcDbEntity
  8
1
  6
Continuous
 62
     4
100
AcDbLine
 10
190.9849859796529
 20
64.43913608739557
 30
0.0
 11
191.5143977443588
 21
63.83913608739557
 31
0.0
  0
LINE
  5
1AB
330
1F
100
AcDbEntity
  8
1
  6
Continuous
 62
     4
100
AcDbLine
 10
190.1908683325941
 20
64.73913608739556
 30
0.0
 11
190.9849859796529
 21
64.43913608739557
 31
0.0
  0
LINE
  5
1AC
330
1F
100
AcDbEntity
  8
1
  6
Continuous
 62
     4
100
AcDbLine
 10
189.3967506855353
 20
64.43913608739557
 30
0.0
 11
190.1908683325941
 21
64.73913608739556
 31
0.0
  0
LINE
  5
1AD
330
1F
100
AcDbEntity
  8
1
  6
Continuous
 62
     4
100
AcDbLine
 10
188.8673389208294
 20
63.83913608739557
 30
0.0
 11
189.3967506855353
 21
64.43913608739557
 31
0.0
  0
LINE
  5
1AE
330
1F
100
AcDbEntity
  8
1
  6
Continuous
 62
     4
100
AcDbLine
 10
183.1761624502412
 20
60.23913608739557
 30
0.0
 11
187.4114565678883
 21
60.23913608739557
 31
0.0
  0
LINE
  5
1AF
330
1F
100
AcDbEntity
  8
1
  6
Continuous
 62
     4
100
AcDbLine
 10
181.5879271561235
 20
60.83913608739557
 30
0.0
 11
181.8526330384765
 21
61.28913608739557
 31
0.0
  0
LINE
  5
1B0
330
1F
100
AcDbEntity
  8
1
  6
Continuous
 62
     4
100
AcDbLine
 10
181.0585153914176
 20
60.38913608739557
 30
0.0
 11
181.5879271561235
 21
60.83913608739557
 31
0.0
  0
LINE
  5
1B1
330
1F
100
AcDbEntity
  8
1
  6
Continuous
 62
     4
100
AcDbLine
 10
180.3967506855353
 20
60.23913608739557
 30
0.0
 11
181.0585153914176
 21
60.38913608739557
 31
0.0
  0
LINE
  5
1B2
330
1F
100
AcDbEntity
  8
1
  6
Continuous
 62
     4
100
AcDbLine
 10
179.6026330384765
 20
60.53913608739557
 30
0.0
 11
180.3967506855353
 21
60.23913608739557
 31
0.0
  0
LINE
  5
1B3
330
1F
100
AcDbEntity
  8
1
  6
Continuous
 62
     4
100
AcDbLine
 10
179.205574214947
 20
61.43913608739558
 30
0.0
 11
179.6026330384765
 21
60.53913608739557
 31
0.0
  0
LINE
  5
1B4
330
1F
100
AcDbEntity
  8
1
  6
Continuous
 62
     4
100
AcDbLine
 10
179.0732212737706
 20
62.48913608739557
 30
0.0
 11
179.205574214947
 21
61.43913608739558
 31
0.0
  0
LINE
  5
1B5
330
1F
100
AcDbEntity
  8
1
  6
Continuous
 62
     4
100
AcDbLine
 10
179.205574214947
 20
63.53913608739557
 30
0.0
 11
179.0732212737706
 21
62.48913608739557
 31
0.0
  0
LINE
  5
1B6
330
1F
100
AcDbEntity
  8
1
  6
Continuous
 62
     4
100
AcDbLine
 10
179.6026330384765
 20
64.28913608739558
 30
0.0
 11
179.205574214947
 21
63.53913608739557
 31
0.0
  0
LINE
  5
1B7
330
1F
100
AcDbEntity
  8
1
  6
Continuous
 62
     4
100
AcDbLine
 10
180.3967506855353
 20
64.73913608739556
 30
0.0
 11
179.6026330384765
 21
64.28913608739558
 31
0.0
  0
LINE
  5
1B8
330
1F
100
AcDbEntity
  8
1
  6
Continuous
 62
     4
100
AcDbLine
 10
181.0585153914176
 20
64.58913608739557
 30
0.0
 11
180.3967506855353
 21
64.73913608739556
 31
0.0
  0
LINE
  5
1B9
330
1F
100
AcDbEntity
  8
1
  6
Continuous
 62
     4
100
AcDbLine
 10
181.455574214947
 20
64.28913608739558
 30
0.0
 11
181.0585153914176
 21
64.58913608739557
 31
0.0
  0
LINE
  5
1BA
330
1F
100
AcDbEntity
  8
1
  6
Continuous
 62
     4
100
AcDbLine
 10
181.8526330384765
 20
63.83913608739557
 30
0.0
 11
181.455574214947
 21
64.28913608739558
 31
0.0
  0
LINE
  5
1BB
330
1F
100
AcDbEntity
  8
1
  6
Continuous
 62
     4
100
AcDbLine
 10
176.4261624502412
 20
61.43913608739558
 30
0.0
 11
177.7496918620059
 21
60.23913608739557
 31
0.0
  0
LINE
  5
1BC
330
1F
100
AcDbEntity
  8
1
  6
Continuous
 62
     4
100
AcDbLine
 10
176.955574214947
 20
64.43913608739557
 30
0.0
 11
176.1614565678882
 21
64.73913608739556
 31
0.0
  0
LINE
  5
1BD
330
1F
100
AcDbEntity
  8
1
  6
Continuous
 62
     4
100
AcDbLine
 10
177.4849859796529
 20
63.53913608739557
 30
0.0
 11
176.955574214947
 21
64.43913608739557
 31
0.0
  0
LINE
  5
1BE
330
1F
100
AcDbEntity
  8
1
  6
Continuous
 62
     4
100
AcDbLine
 10
177.6173389208294
 20
62.48913608739557
 30
0.0
 11
177.4849859796529
 21
63.53913608739557
 31
0.0
  0
LINE
  5
1BF
330
1F
100
AcDbEntity
  8
1
  6
Continuous
 62
     4
100
AcDbLine
 10
177.4849859796529
 20
61.43913608739558
 30
0.0
 11
177.6173389208294
 21
62.48913608739557
 31
0.0
  0
LINE
  5
1C0
330
1F
100
AcDbEntity
  8
1
  6
Continuous
 62
     4
100
AcDbLine
 10
176.955574214947
 20
60.53913608739557
 30
0.0
 11
177.4849859796529
 21
61.43913608739558
 31
0.0
  0
LINE
  5
1C1
330
1F
100
AcDbEntity
  8
1
  6
Continuous
 62
     4
100
AcDbLine
 10
176.1614565678882
 20
60.23913608739557
 30
0.0
 11
176.955574214947
 21
60.53913608739557
 31
0.0
  0
LINE
  5
1C2
330
1F
100
AcDbEntity
  8
1
  6
Continuous
 62
     4
100
AcDbLine
 10
175.3673389208294
 20
60.53913608739557
 30
0.0
 11
176.1614565678882
 21
60.23913608739557
 31
0.0
  0
LINE
  5
1C3
330
1F
100
AcDbEntity
  8
1
  6
Continuous
 62
     4
100
AcDbLine
 10
174.8379271561235
 20
61.43913608739558
 30
0.0
 11
175.3673389208294
 21
60.53913608739557
 31
0.0
  0
LINE
  5
1C4
330
1F
100
AcDbEntity
  8
1
  6
Continuous
 62
     4
100
AcDbLine
 10
174.705574214947
 20
62.48913608739557
 30
0.0
 11
174.8379271561235
 21
61.43913608739558
 31
0.0
  0
LINE
  5
1C5
330
1F
100
AcDbEntity
  8
1
  6
Continuous
 62
     4
100
AcDbLine
 10
174.8379271561235
 20
63.53913608739557
 30
0.0
 11
174.705574214947
 21
62.48913608739557
 31
0.0
  0
LINE
  5
1C6
330
1F
100
AcDbEntity
  8
1
  6
Continuous
 62
     4
100
AcDbLine
 10
175.3673389208294
 20
64.43913608739557
 30
0.0
 11
174.8379271561235
 21
63.53913608739557
 31
0.0
  0
LINE
  5
1C7
330
1F
100
AcDbEntity
  8
1
  6
Continuous
 62
     4
100
AcDbLine
 10
176.1614565678882
 20
64.73913608739556
 30
0.0
 11
175.3673389208294
 21
64.43913608739557
 31
0.0
  0
LINE
  5
1C8
330
1F
100
AcDbEntity
  8
1
  6
Continuous
 62
     4
100
AcDbLine
 10
170.9996918620059
 20
62.48913608739557
 30
0.0
 11
173.3820448031823
 21
62.48913608739557
 31
0.0
  0
LINE
  5
1C9
330
1F
100
AcDbEntity
  8
1
  6
Continuous
 62
     4
100
AcDbLine
 10
169.6761624502412
 20
60.23913608739557
 30
0.0
 11
169.6761624502412
 21
64.73913608739556
 31
0.0
  0
LINE
  5
1CA
330
1F
100
AcDbEntity
  8
1
  6
Continuous
 62
     4
100
AcDbLine
 10
167.0291036267118
 20
64.73913608739556
 30
0.0
 11
169.6761624502412
 21
60.23913608739557
 31
0.0
  0
LINE
  5
1CB
330
1F
100
AcDbEntity
  8
1
  6
Continuous
 62
     4
100
AcDbLine
 10
167.0291036267118
 20
60.23913608739557
 30
0.0
 11
167.0291036267118
 21
64.73913608739556
 31
0.0
  0
LINE
  5
1CC
330
1F
100
AcDbEntity
  8
1
  6
Continuous
 62
     4
100
AcDbLine
 10
163.3232212737706
 20
62.48913608739557
 30
0.0
 11
165.705574214947
 21
62.48913608739557
 31
0.0
  0
LINE
  5
1CD
330
1F
100
AcDbEntity
  8
1
  6
Continuous
 62
     4
100
AcDbLine
 10
159.2202800973
 20
62.03913608739557
 30
0.0
 11
159.2202800973
 21
60.23913608739557
 31
0.0
  0
LINE
  5
1CE
330
1F
100
AcDbEntity
  8
1
  6
Continuous
 62
     4
100
AcDbLine
 10
159.8820448031823
 20
62.78913608739557
 30
0.0
 11
161.9996918620059
 21
60.23913608739557
 31
0.0
  0
LINE
  5
1CF
330
1F
100
AcDbEntity
  8
1
  6
Continuous
 62
     4
100
AcDbLine
 10
161.7349859796529
 20
64.73913608739556
 30
0.0
 11
159.2202800973
 21
62.03913608739557
 31
0.0
  0
LINE
  5
1D0
330
1F
100
AcDbEntity
  8
1
  6
Continuous
 62
     4
100
AcDbLine
 10
159.2202800973
 20
64.73913608739556
 30
0.0
 11
159.2202800973
 21
62.03913608739557
 31
0.0
  0
LINE
  5
1D1
330
1F
100
AcDbEntity
  8
1
  6
Continuous
 62
     4
100
AcDbLine
 10
303.0528315242576
 20
93.7186650161416
 30
0.0
 11
303.0528315242576
 21
89.2186650161416
 31
0.0
  0
LINE
  5
1D2
330
1F
100
AcDbEntity
  8
1
  6
Continuous
 62
     4
100
AcDbLine
 10
302.3910668183752
 20
93.2686650161416
 30
0.0
 11
303.0528315242576
 21
93.7186650161416
 31
0.0
  0
LINE
  5
1D3
330
1F
100
AcDbEntity
  8
1
  6
Continuous
 62
     4
100
AcDbLine
 10
301.0675374066105
 20
91.3186650161416
 30
0.0
 11
299.8763609360223
 21
91.3186650161416
 31
0.0
  0
LINE
  5
1D4
330
1F
100
AcDbEntity
  8
1
  6
Continuous
 62
     4
100
AcDbLine
 10
301.0675374066105
 20
90.4186650161416
 30
0.0
 11
301.0675374066105
 21
91.3186650161416
 31
0.0
  0
LINE
  5
1D5
330
1F
100
AcDbEntity
  8
1
  6
Continuous
 62
     4
100
AcDbLine
 10
300.935184465434
 20
89.9686650161416
 30
0.0
 11
301.0675374066105
 21
90.4186650161416
 31
0.0
  0
LINE
  5
1D6
330
1F
100
AcDbEntity
  8
1
  6
Continuous
 62
     4
100
AcDbLine
 10
300.670478583081
 20
89.6686650161416
 30
0.0
 11
300.935184465434
 21
89.9686650161416
 31
0.0
  0
LINE
  5
1D7
330
1F
100
AcDbEntity
  8
1
  6
Continuous
 62
     4
100
AcDbLine
 10
300.2734197595516
 20
89.3686650161416
 30
0.0
 11
300.670478583081
 21
89.6686650161416
 31
0.0
  0
LINE
  5
1D8
330
1F
100
AcDbEntity
  8
1
  6
Continuous
 62
     4
100
AcDbLine
 10
299.6116550536693
 20
89.2186650161416
 30
0.0
 11
300.2734197595516
 21
89.3686650161416
 31
0.0
  0
LINE
  5
1D9
330
1F
100
AcDbEntity
  8
1
  6
Continuous
 62
     4
100
AcDbLine
 10
298.949890347787
 20
89.3686650161416
 30
0.0
 11
299.6116550536693
 21
89.2186650161416
 31
0.0
  0
LINE
  5
1DA
330
1F
100
AcDbEntity
  8
1
  6
Continuous
 62
     4
100
AcDbLine
 10
298.5528315242575
 20
89.9686650161416
 30
0.0
 11
298.949890347787
 21
89.3686650161416
 31
0.0
  0
LINE
  5
1DB
330
1F
100
AcDbEntity
  8
1
  6
Continuous
 62
     4
100
AcDbLine
 10
298.420478583081
 20
90.2686650161416
 30
0.0
 11
298.5528315242575
 21
89.9686650161416
 31
0.0
  0
LINE
  5
1DC
330
1F
100
AcDbEntity
  8
1
  6
Continuous
 62
     4
100
AcDbLine
 10
298.2881256419046
 20
90.8686650161416
 30
0.0
 11
298.420478583081
 21
90.2686650161416
 31
0.0
  0
LINE
  5
1DD
330
1F
100
AcDbEntity
  8
1
  6
Continuous
 62
     4
100
AcDbLine
 10
298.1557727007281
 20
91.4686650161416
 30
0.0
 11
298.2881256419046
 21
90.8686650161416
 31
0.0
  0
LINE
  5
1DE
330
1F
100
AcDbEntity
  8
1
  6
Continuous
 62
     4
100
AcDbLine
 10
298.2881256419046
 20
92.0686650161416
 30
0.0
 11
298.1557727007281
 21
91.4686650161416
 31
0.0
  0
LINE
  5
1DF
330
1F
100
AcDbEntity
  8
1
  6
Continuous
 62
     4
100
AcDbLine
 10
298.5528315242575
 20
92.9686650161416
 30
0.0
 11
298.2881256419046
 21
92.0686650161416
 31
0.0
  0
LINE
  5
1E0
330
1F
100
AcDbEntity
  8
1
  6
Continuous
 62
     4
100
AcDbLine
 10
298.685184465434
 20
93.2686650161416
 30
0.0
 11
298.5528315242575
 21
92.9686650161416
 31
0.0
  0
LINE
  5
1E1
330
1F
100
AcDbEntity
  8
1
  6
Continuous
 62
     4
100
AcDbLine
 10
299.0822432889634
 20
93.5686650161416
 30
0.0
 11
298.685184465434
 21
93.2686650161416
 31
0.0
  0
LINE
  5
1E2
330
1F
100
AcDbEntity
  8
1
  6
Continuous
 62
     4
100
AcDbLine
 10
299.6116550536693
 20
93.7186650161416
 30
0.0
 11
299.0822432889634
 21
93.5686650161416
 31
0.0
  0
LINE
  5
1E3
330
1F
100
AcDbEntity
  8
1
  6
Continuous
 62
     4
100
AcDbLine
 10
300.2734197595516
 20
93.5686650161416
 30
0.0
 11
299.6116550536693
 21
93.7186650161416
 31
0.0
  0
LINE
  5
1E4
330
1F
100
AcDbEntity
  8
1
  6
Continuous
 62
     4
100
AcDbLine
 10
300.5381256419046
 20
93.4186650161416
 30
0.0
 11
300.2734197595516
 21
93.5686650161416
 31
0.0
  0
LINE
  5
1E5
330
1F
100
AcDbEntity
  8
1
  6
Continuous
 62
     4
100
AcDbLine
 10
300.8028315242575
 20
93.1186650161416
 30
0.0
 11
300.5381256419046
 21
93.4186650161416
 31
0.0
  0
LINE
  5
1E6
330
1F
100
AcDbEntity
  8
1
  6
Continuous
 62
     4
100
AcDbLine
 10
301.0675374066105
 20
92.6686650161416
 30
0.0
 11
300.8028315242575
 21
93.1186650161416
 31
0.0
  0
LINE
  5
1E7
330
1F
100
AcDbEntity
  8
1
  6
Continuous
 62
     4
100
AcDbLine
 10
240.3630257874644
 20
133.271651165032
 30
0.0
 11
240.3630257874644
 21
128.771651165032
 31
0.0
  0
LINE
  5
1E8
330
1F
100
AcDbEntity
  8
1
  6
Continuous
 62
     4
100
AcDbLine
 10
239.7012610815821
 20
132.821651165032
 30
0.0
 11
240.3630257874644
 21
133.271651165032
 31
0.0
  0
LINE
  5
1E9
330
1F
100
AcDbEntity
  8
1
  6
Continuous
 62
     4
100
AcDbLine
 10
238.3777316698173
 20
130.871651165032
 30
0.0
 11
237.1865551992291
 21
130.871651165032
 31
0.0
  0
LINE
  5
1EA
330
1F
100
AcDbEntity
  8
1
  6
Continuous
 62
     4
100
AcDbLine
 10
238.3777316698173
 20
129.971651165032
 30
0.0
 11
238.3777316698173
 21
130.871651165032
 31
0.0
  0
LINE
  5
1EB
330
1F
100
AcDbEntity
  8
1
  6
Continuous
 62
     4
100
AcDbLine
 10
238.2453787286409
 20
129.521651165032
 30
0.0
 11
238.3777316698173
 21
129.971651165032
 31
0.0
  0
LINE
  5
1EC
330
1F
100
AcDbEntity
  8
1
  6
Continuous
 62
     4
100
AcDbLine
 10
237.9806728462879
 20
129.221651165032
 30
0.0
 11
238.2453787286409
 21
129.521651165032
 31
0.0
  0
LINE
  5
1ED
330
1F
100
AcDbEntity
  8
1
  6
Continuous
 62
     4
100
AcDbLine
 10
237.5836140227585
 20
128.921651165032
 30
0.0
 11
237.9806728462879
 21
129.221651165032
 31
0.0
  0
LINE
  5
1EE
330
1F
100
AcDbEntity
  8
1
  6
Continuous
 62
     4
100
AcDbLine
 10
236.9218493168762
 20
128.771651165032
 30
0.0
 11
237.5836140227585
 21
128.921651165032
 31
0.0
  0
LINE
  5
1EF
330
1F
100
AcDbEntity
  8
1
  6
Continuous
 62
     4
100
AcDbLine
 10
236.2600846109938
 20
128.921651165032
 30
0.0
 11
236.9218493168762
 21
128.771651165032
 31
0.0
  0
LINE
  5
1F0
330
1F
100
AcDbEntity
  8
1
  6
Continuous
 62
     4
100
AcDbLine
 10
235.8630257874644
 20
129.521651165032
 30
0.0
 11
236.2600846109938
 21
128.921651165032
 31
0.0
  0
LINE
  5
1F1
330
1F
100
AcDbEntity
  8
1
  6
Continuous
 62
     4
100
AcDbLine
 10
235.7306728462879
 20
129.821651165032
 30
0.0
 11
235.8630257874644
 21
129.521651165032
 31
0.0
  0
LINE
  5
1F2
330
1F
100
AcDbEntity
  8
1
  6
Continuous
 62
     4
100
AcDbLine
 10
235.5983199051115
 20
130.421651165032
 30
0.0
 11
235.7306728462879
 21
129.821651165032
 31
0.0
  0
LINE
  5
1F3
330
1F
100
AcDbEntity
  8
1
  6
Continuous
 62
     4
100
AcDbLine
 10
235.465966963935
 20
131.021651165032
 30
0.0
 11
235.5983199051115
 21
130.421651165032
 31
0.0
  0
LINE
  5
1F4
330
1F
100
AcDbEntity
  8
1
  6
Continuous
 62
     4
100
AcDbLine
 10
235.5983199051115
 20
131.621651165032
 30
0.0
 11
235.465966963935
 21
131.021651165032
 31
0.0
  0
LINE
  5
1F5
330
1F
100
AcDbEntity
  8
1
  6
Continuous
 62
     4
100
AcDbLine
 10
235.8630257874644
 20
132.521651165032
 30
0.0
 11
235.5983199051115
 21
131.621651165032
 31
0.0
  0
LINE
  5
1F6
330
1F
100
AcDbEntity
  8
1
  6
Continuous
 62
     4
100
AcDbLine
 10
235.9953787286409
 20
132.821651165032
 30
0.0
 11
235.8630257874644
 21
132.521651165032
 31
0.0
  0
LINE
  5
1F7
330
1F
100
AcDbEntity
  8
1
  6
Continuous
 62
     4
100
AcDbLine
 10
236.3924375521703
 20
133.121651165032
 30
0.0
 11
235.9953787286409
 21
132.821651165032
 31
0.0
  0
LINE
  5
1F8
330
1F
100
AcDbEntity
  8
1
  6
Continuous
 62
     4
100
AcDbLine
 10
236.9218493168762
 20
133.271651165032
 30
0.0
 11
236.3924375521703
 21
133.121651165032
 31
0.0
  0
LINE
  5
1F9
330
1F
100
AcDbEntity
  8
1
  6
Continuous
 62
     4
100
AcDbLine
 10
237.5836140227585
 20
133.121651165032
 30
0.0
 11
236.9218493168762
 21
133.271651165032
 31
0.0
  0
LINE
  5
1FA
330
1F
100
AcDbEntity
  8
1
  6
Continuous
 62
     4
100
AcDbLine
 10
237.8483199051115
 20
132.971651165032
 30
0.0
 11
237.5836140227585
 21
133.121651165032
 31
0.0
  0
LINE
  5
1FB
330
1F
100
AcDbEntity
  8
1
  6
Continuous
 62
     4
100
AcDbLine
 10
238.1130257874644
 20
132.671651165032
 30
0.0
 11
237.8483199051115
 21
132.971651165032
 31
0.0
  0
LINE
  5
1FC
330
1F
100
AcDbEntity
  8
1
  6
Continuous
 62
     4
100
AcDbLine
 10
238.3777316698173
 20
132.221651165032
 30
0.0
 11
238.1130257874644
 21
132.671651165032
 31
0.0
  0
LINE
  5
1FD
330
1F
100
AcDbEntity
  8
1
  6
Continuous
 62
     4
100
AcDbLine
 10
198.0316407147575
 20
77.84883780619373
 30
0.0
 11
200.0169348324046
 21
77.84883780619373
 31
0.0
  0
LINE
  5
1FE
330
1F
100
AcDbEntity
  8
1
  6
Continuous
 62
     4
100
AcDbLine
 10
197.1051701265222
 20
74.99883780619372
 30
0.0
 11
197.1051701265222
 21
77.09883780619373
 31
0.0
  0
LINE
  5
1FF
330
1F
100
AcDbEntity
  8
1
  6
Continuous
 62
     4
100
AcDbLine
 10
199.3551701265222
 20
74.99883780619372
 30
0.0
 11
197.1051701265222
 21
74.99883780619372
 31
0.0
  0
LINE
  5
200
330
1F
100
AcDbEntity
  8
1
  6
Continuous
 62
     4
100
AcDbLine
 10
199.3551701265222
 20
77.09883780619373
 30
0.0
 11
199.3551701265222
 21
74.99883780619372
 31
0.0
  0
LINE
  5
201
330
1F
100
AcDbEntity
  8
1
  6
Continuous
 62
     4
100
AcDbLine
 10
197.1051701265222
 20
77.09883780619373
 30
0.0
 11
199.3551701265222
 21
77.09883780619373
 31
0.0
  0
LINE
  5
202
330
1F
100
AcDbEntity
  8
1
  6
Continuous
 62
     4
100
AcDbLine
 10
199.6198760088752
 20
73.94883780619372
 30
0.0
 11
198.9581113029928
 21
74.09883780619373
 31
0.0
  0
LINE
  5
203
330
1F
100
AcDbEntity
  8
1
  6
Continuous
 62
     4
100
AcDbLine
 10
200.0169348324046
 20
74.39883780619373
 30
0.0
 11
199.6198760088752
 21
73.94883780619372
 31
0.0
  0
LINE
  5
204
330
1F
100
AcDbEntity
  8
1
  6
Continuous
 62
     4
100
AcDbLine
 10
200.0169348324046
 20
77.84883780619373
 30
0.0
 11
200.0169348324046
 21
74.39883780619373
 31
0.0
  0
LINE
  5
205
330
1F
100
AcDbEntity
  8
1
  6
Continuous
 62
     4
100
AcDbLine
 10
196.4434054206399
 20
77.84883780619373
 30
0.0
 11
198.0316407147575
 21
77.84883780619373
 31
0.0
  0
LINE
  5
206
330
1F
100
AcDbEntity
  8
1
  6
Continuous
 62
     4
100
AcDbLine
 10
196.4434054206399
 20
73.94883780619372
 30
0.0
 11
196.4434054206399
 21
77.84883780619373
 31
0.0
  0
LINE
  5
207
330
1F
100
AcDbEntity
  8
1
  6
Continuous
 62
     4
100
AcDbLine
 10
198.2963465971105
 20
78.44883780619372
 30
0.0
 11
198.0316407147575
 21
77.84883780619373
 31
0.0
  0
LINE
  5
208
330
1F
100
AcDbEntity
  8
1
  6
Continuous
 62
     4
100
AcDbLine
 10
192.0757583618164
 20
77.84883780619373
 30
0.0
 11
194.8551701265222
 21
77.84883780619373
 31
0.0
  0
LINE
  5
209
330
1F
100
AcDbEntity
  8
1
  6
Continuous
 62
     4
100
AcDbLine
 10
192.0757583618164
 20
76.79883780619372
 30
0.0
 11
192.0757583618164
 21
76.34883780619373
 31
0.0
  0
LINE
  5
20A
330
1F
100
AcDbEntity
  8
1
  6
Continuous
 62
     4
100
AcDbLine
 10
193.7963465971105
 20
73.94883780619372
 30
0.0
 11
192.6051701265222
 21
74.09883780619373
 31
0.0
  0
LINE
  5
20B
330
1F
100
AcDbEntity
  8
1
  6
Continuous
 62
     4
100
AcDbLine
 10
194.5904642441693
 20
74.99883780619372
 30
0.0
 11
193.7963465971105
 21
73.94883780619372
 31
0.0
  0
LINE
  5
20C
330
1F
100
AcDbEntity
  8
1
  6
Continuous
 62
     4
100
AcDbLine
 10
194.5904642441693
 20
76.79883780619372
 30
0.0
 11
194.5904642441693
 21
74.99883780619372
 31
0.0
  0
LINE
  5
20D
330
1F
100
AcDbEntity
  8
1
  6
Continuous
 62
     4
100
AcDbLine
 10
192.0757583618164
 20
76.79883780619372
 30
0.0
 11
194.5904642441693
 21
76.79883780619372
 31
0.0
  0
LINE
  5
20E
330
1F
100
AcDbEntity
  8
1
  6
Continuous
 62
     4
100
AcDbLine
 10
191.678699538287
 20
74.99883780619372
 30
0.0
 11
190.8845818912281
 21
73.94883780619372
 31
0.0
  0
LINE
  5
20F
330
1F
100
AcDbEntity
  8
1
  6
Continuous
 62
     4
100
AcDbLine
 10
192.0757583618164
 20
76.34883780619373
 30
0.0
 11
191.678699538287
 21
74.99883780619372
 31
0.0
  0
LINE
  5
210
330
1F
100
AcDbEntity
  8
1
  6
Continuous
 62
     4
100
AcDbLine
 10
192.0757583618164
 20
77.84883780619373
 30
0.0
 11
192.0757583618164
 21
76.79883780619372
 31
0.0
  0
LINE
  5
211
330
1F
100
AcDbEntity
  8
1
  6
Continuous
 62
     4
100
AcDbLine
 10
190.8845818912281
 20
77.84883780619373
 30
0.0
 11
192.0757583618164
 21
77.84883780619373
 31
0.0
  0
LINE
  5
212
330
1F
100
AcDbEntity
  8
1
  6
Continuous
 62
     4
100
AcDbLine
 10
193.0022289500517
 20
78.44883780619372
 30
0.0
 11
193.0022289500517
 21
77.84883780619373
 31
0.0
  0
LINE
  5
213
330
1F
100
AcDbEntity
  8
1
  6
Continuous
 62
     4
100
AcDbLine
 10
187.5757583618164
 20
77.99883780619372
 30
0.0
 11
187.5757583618164
 21
73.79883780619372
 31
0.0
  0
LINE
  5
214
330
1F
100
AcDbEntity
  8
1
  6
Continuous
 62
     4
100
AcDbLine
 10
188.7669348324046
 20
75.14883780619373
 30
0.0
 11
189.6934054206399
 21
74.09883780619373
 31
0.0
  0
LINE
  5
215
330
1F
100
AcDbEntity
  8
1
  6
Continuous
 62
     4
100
AcDbLine
 10
188.1051701265222
 20
76.34883780619373
 30
0.0
 11
188.7669348324046
 21
75.14883780619373
 31
0.0
  0
LINE
  5
216
330
1F
100
AcDbEntity
  8
1
  6
Continuous
 62
     4
100
AcDbLine
 10
187.5757583618164
 20
77.99883780619372
 30
0.0
 11
188.1051701265222
 21
76.34883780619373
 31
0.0
  0
LINE
  5
217
330
1F
100
AcDbEntity
  8
1
  6
Continuous
 62
     4
100
AcDbLine
 10
189.4286995382869
 20
77.99883780619372
 30
0.0
 11
188.3698760088752
 21
76.49883780619372
 31
0.0
  0
LINE
  5
218
330
1F
100
AcDbEntity
  8
1
  6
Continuous
 62
     4
100
AcDbLine
 10
186.3845818912281
 20
75.29883780619372
 30
0.0
 11
185.5904642441693
 21
74.24883780619372
 31
0.0
  0
LINE
  5
219
330
1F
100
AcDbEntity
  8
1
  6
Continuous
 62
     4
100
AcDbLine
 10
186.7816407147575
 20
76.34883780619373
 30
0.0
 11
186.3845818912281
 21
75.29883780619372
 31
0.0
  0
LINE
  5
21A
330
1F
100
AcDbEntity
  8
1
  6
Continuous
 62
     4
100
AcDbLine
 10
186.913993655934
 20
77.54883780619372
 30
0.0
 11
186.7816407147575
 21
76.34883780619373
 31
0.0
  0
LINE
  5
21B
330
1F
100
AcDbEntity
  8
1
  6
Continuous
 62
     4
100
AcDbLine
 10
185.5904642441693
 20
77.54883780619372
 30
0.0
 11
186.913993655934
 21
77.54883780619372
 31
0.0
  0
LINE
  5
21C
330
1F
100
AcDbEntity
  8
1
  6
Continuous
 62
     4
100
AcDbLine
 10
187.5757583618164
 20
73.79883780619372
 30
0.0
 11
186.6492877735811
 21
74.39883780619373
 31
0.0
  0
LINE
  5
21D
330
1F
100
AcDbEntity
  8
1
  6
Continuous
 62
     4
100
AcDbLine
 10
187.5757583618164
 20
78.44883780619372
 30
0.0
 11
187.5757583618164
 21
77.99883780619372
 31
0.0
  0
LINE
  5
21E
330
1F
100
AcDbEntity
  8
1
  6
Continuous
 62
     4
100
AcDbLine
 10
182.6786995382869
 20
77.99883780619372
 30
0.0
 11
184.1345818912281
 21
77.99883780619372
 31
0.0
  0
LINE
  5
21F
330
1F
100
AcDbEntity
  8
1
  6
Continuous
 62
     4
100
AcDbLine
 10
184.2669348324046
 20
73.94883780619372
 30
0.0
 11
184.2669348324046
 21
74.99883780619372
 31
0.0
  0
LINE
  5
220
330
1F
100
AcDbEntity
  8
1
  6
Continuous
 62
     4
100
AcDbLine
 10
183.6051701265222
 20
73.94883780619372
 30
0.0
 11
184.2669348324046
 21
73.94883780619372
 31
0.0
  0
LINE
  5
221
330
1F
100
AcDbEntity
  8
1
  6
Continuous
 62
     4
100
AcDbLine
 10
183.6051701265222
 20
76.34883780619373
 30
0.0
 11
183.6051701265222
 21
73.94883780619372
 31
0.0
  0
LINE
  5
222
330
1F
100
AcDbEntity
  8
1
  6
Continuous
 62
     4
100
AcDbLine
 10
182.6786995382869
 20
76.34883780619373
 30
0.0
 11
182.6786995382869
 21
73.94883780619372
 31
0.0
  0
LINE
  5
223
330
1F
100
AcDbEntity
  8
1
  6
Continuous
 62
     4
100
AcDbLine
 10
181.4875230676987
 20
74.69883780619372
 30
0.0
 11
180.9581113029928
 21
73.94883780619372
 31
0.0
  0
LINE
  5
224
330
1F
100
AcDbEntity
  8
1
  6
Continuous
 62
     4
100
AcDbLine
 10
181.7522289500517
 20
75.44883780619372
 30
0.0
 11
181.4875230676987
 21
74.69883780619372
 31
0.0
  0
LINE
  5
225
330
1F
100
AcDbEntity
  8
1
  6
Continuous
 62
     4
100
AcDbLine
 10
181.8845818912281
 20
76.34883780619373
 30
0.0
 11
181.7522289500517
 21
75.44883780619372
 31
0.0
  0
LINE
  5
226
330
1F
100
AcDbEntity
  8
1
  6
Continuous
 62
     4
100
AcDbLine
 10
184.0022289500517
 20
76.49883780619372
 30
0.0
 11
184.2669348324046
 21
75.89883780619373
 31
0.0
  0
LINE
  5
227
330
1F
100
AcDbEntity
  8
1
  6
Continuous
 62
     4
100
AcDbLine
 10
183.4728171853458
 20
77.39883780619373
 30
0.0
 11
184.0022289500517
 21
76.49883780619372
 31
0.0
  0
LINE
  5
228
330
1F
100
AcDbEntity
  8
1
  6
Continuous
 62
     4
100
AcDbLine
 10
181.6198760088752
 20
76.34883780619373
 30
0.0
 11
184.0022289500517
 21
76.49883780619372
 31
0.0
  0
LINE
  5
229
330
1F
100
AcDbEntity
  8
1
  6
Continuous
 62
     4
100
AcDbLine
 10
181.2228171853458
 20
76.34883780619373
 30
0.0
 11
181.6198760088752
 21
76.34883780619373
 31
0.0
  0
LINE
  5
22A
330
1F
100
AcDbEntity
  8
1
  6
Continuous
 62
     4
100
AcDbLine
 10
182.6786995382869
 20
77.99883780619372
 30
0.0
 11
181.6198760088752
 21
76.34883780619373
 31
0.0
  0
LINE
  5
22B
330
1F
100
AcDbEntity
  8
1
  6
Continuous
 62
     4
100
AcDbLine
 10
182.6786995382869
 20
78.59883780619373
 30
0.0
 11
182.6786995382869
 21
77.99883780619372
 31
0.0
  0
LINE
  5
22C
330
1F
100
AcDbEntity
  8
1
  6
Continuous
 62
     4
100
AcDbLine
 10
181.2228171853458
 20
77.99883780619372
 30
0.0
 11
182.6786995382869
 21
77.99883780619372
 31
0.0
  0
LINE
  5
22D
330
1F
100
AcDbEntity
  8
1
  6
Continuous
 62
     4
100
AcDbLine
 10
180.4286995382869
 20
73.94883780619372
 30
0.0
 11
181.0904642441693
 21
75.74883780619372
 31
0.0
  0
LINE
  5
22E
330
1F
100
AcDbEntity
  8
1
  6
Continuous
 62
     4
100
AcDbLine
 10
180.4286995382869
 20
76.79883780619372
 30
0.0
 11
181.0904642441693
 21
76.19883780619372
 31
0.0
  0
LINE
  5
22F
330
1F
100
AcDbEntity
  8
1
  6
Continuous
 62
     4
100
AcDbLine
 10
180.5610524794634
 20
78.14883780619373
 30
0.0
 11
181.2228171853458
 21
77.54883780619372
 31
0.0
  0
LINE
  5
230
330
1F
100
AcDbEntity
  8
1
  6
Continuous
 62
     4
100
AcDbLine
 10
207.4909891210675
 20
75.709863401215
 30
0.0
 11
205.9027538269498
 21
74.509863401215
 31
0.0
  0
LINE
  5
231
330
1F
100
AcDbEntity
  8
1
  6
Continuous
 62
     4
100
AcDbLine
 10
205.9027538269498
 20
76.909863401215
 30
0.0
 11
207.4909891210675
 21
75.709863401215
 31
0.0
  0
LINE
  5
232
330
1F
100
AcDbEntity
  8
1
  6
Continuous
 62
     4
100
AcDbLine
 10
201.6674597093028
 20
75.709863401215
 30
0.0
 11
207.4909891210675
 21
75.709863401215
 31
0.0
  0
LINE
  5
233
330
1F
100
AcDbEntity
  8
2
  6
Continuous
 62
     3
100
AcDbLine
 10
335.75
 20
177.0
 30
0.0
 11
354.25
 21
177.0
 31
0.0
  0
LINE
  5
238
330
1F
100
AcDbEntity
  8
3
  6
Continuous
 62
     3
100
AcDbLine
 10
349.6000000000007
 20
184.4999999999685
 30
0.0
 11
351.0000000000007
 21
183.0999999999685
 31
0.0
  0
LINE
  5
239
330
1F
100
AcDbEntity
  8
3
  6
Continuous
 62
     3
100
AcDbLine
 10
340.3999999999998
 20
184.4999999999685
 30
0.0
 11
339.0
 21
183.0999999999685
 31
0.0
  0
LINE
  5
23A
330
1F
100
AcDbEntity
  8
3
  6
Continuous
 62
     3
100
AcDbLine
 10
348.5000000000007
 20
184.9999999999685
 30
0.0
 11
348.5
 21
184.4999999999685
 31
0.0
  0
LINE
  5
23B
330
1F
100
AcDbEntity
  8
3
  6
Continuous
 62
     3
100
AcDbLine
 10
341.5000000000007
 20
184.9999999999685
 30
0.0
 11
341.5000000000007
 21
184.4999999999685
 31
0.0
  0
LINE
  5
23C
330
1F
100
AcDbEntity
  8
3
  6
Continuous
 62
     3
100
AcDbLine
 10
340.3999999999998
 20
184.4999999999685
 30
0.0
 11
349.6000000000007
 21
184.4999999999685
 31
0.0
  0
LINE
  5
23D
330
1F
100
AcDbEntity
  8
3
  6
Continuous
 62
     3
100
AcDbLine
 10
318.5000000000007
 20
184.9999999999685
 30
0.0
 11
371.5
 21
184.9999999999685
 31
0.0
  0
LINE
  5
23E
330
1F
100
AcDbEntity
  8
3
  6
Continuous
 62
     3
100
AcDbLine
 10
351.0000000000007
 20
183.0999999999685
 30
0.0
 11
339.0
 21
183.0999999999685
 31
0.0
  0
LINE
  5
23F
330
1F
100
AcDbEntity
  8
3
  6
Continuous
 62
     3
100
AcDbLine
 10
316.0
 20
193.9769910292194
 30
0.0
 11
316.0000000000007
 21
187.4999999999685
 31
0.0
  0
LINE
  5
240
330
1F
100
AcDbEntity
  8
3
  6
Continuous
 62
     3
100
AcDbLine
 10
374.0
 20
187.4999999999685
 30
0.0
 11
374.0
 21
193.9769910292194
 31
0.0
  0
LINE
  5
241
330
1F
100
AcDbEntity
  8
3
  6
Continuous
 62
     3
100
AcDbLine
 10
348.75
 20
194.9999999999685
 30
0.0
 11
341.25
 21
194.9999999999685
 31
0.0
  0
LINE
  5
242
330
1F
100
AcDbEntity
  8
3
  6
Continuous
 62
     3
100
AcDbLine
 10
321.0580463799128
 20
193.9769910292194
 30
0.0
 11
321.0580463799128
 21
187.4999999999685
 31
0.0
  0
LINE
  5
243
330
1F
100
AcDbEntity
  8
3
  6
Continuous
 62
     3
100
AcDbLine
 10
329.0387020515449
 20
193.9769910292194
 30
0.0
 11
329.0387020515449
 21
187.4999999999685
 31
0.0
  0
LINE
  5
244
330
1F
100
AcDbEntity
  8
3
  6
Continuous
 62
     3
100
AcDbLine
 10
339.3568242562739
 20
193.9769910292194
 30
0.0
 11
339.3568242562739
 21
187.4999999999685
 31
0.0
  0
LINE
  5
245
330
1F
100
AcDbEntity
  8
3
  6
Continuous
 62
     3
100
AcDbLine
 10
350.643175743725
 20
193.9769910292194
 30
0.0
 11
350.6431757437256
 21
187.4999999999685
 31
0.0
  0
LINE
  5
246
330
1F
100
AcDbEntity
  8
3
  6
Continuous
 62
     3
100
AcDbLine
 10
360.9612979484566
 20
193.9769910292194
 30
0.0
 11
360.9612979484559
 21
187.4999999999685
 31
0.0
  0
LINE
  5
247
330
1F
100
AcDbEntity
  8
3
  6
Continuous
 62
     3
100
AcDbLine
 10
368.9419536200869
 20
193.9769910292194
 30
0.0
 11
368.9419536200869
 21
187.4999999999685
 31
0.0
  0
LINE
  5
248
330
1F
100
AcDbEntity
  8
3
  6
Continuous
 62
     3
100
AcDbLine
 10
316.784140224491
 20
193.9769910292194
 30
0.0
 11
316.7841402244918
 21
187.4999999999685
 31
0.0
  0
LINE
  5
249
330
1F
100
AcDbEntity
  8
3
  6
Continuous
 62
     3
100
AcDbLine
 10
373.2158597755091
 20
193.9769910292194
 30
0.0
 11
373.2158597755091
 21
187.4999999999685
 31
0.0
  0
LINE
  5
24A
330
1F
100
AcDbEntity
  8
3
  6
Continuous
 62
     3
100
AcDbLine
 10
351.0000000000007
 20
183.0999999999685
 30
0.0
 11
351.0000000000007
 21
177.0
 31
0.0
  0
LINE
  5
24B
330
1F
100
AcDbEntity
  8
3
  6
Continuous
 62
     3
100
AcDbLine
 10
339.0
 20
183.0999999999685
 30
0.0
 11
339.0000000000003
 21
177.0
 31
0.0
  0
LINE
  5
24C
330
1F
100
AcDbEntity
  8
2
  6
Continuous
 62
     3
100
AcDbLine
 10
348.7500000000005
 20
196.6477267507094
 30
0.0
 11
341.2500000000007
 21
196.6477267507094
 31
0.0
  0
LINE
  5
24D
330
1F
100
AcDbEntity
  8
2
  6
Continuous
 62
     3
100
AcDbLine
 10
348.7500000000005
 20
196.2999999999684
 30
0.0
 11
341.2500000000007
 21
196.2999999999684
 31
0.0
  0
LINE
  5
24E
330
1F
100
AcDbEntity
  8
2
  6
Continuous
 62
     3
100
AcDbLine
 10
164.0
 20
289.0240565744213
 30
0.0
 11
164.0
 21
299.4500000000004
 31
0.0
  0
LINE
  5
24F
330
1F
100
AcDbEntity
  8
2
  6
Continuous
 62
     3
100
AcDbLine
 10
220.0
 20
276.9759434255808
 30
0.0
 11
220.0
 21
266.5500000000005
 31
0.0
  0
LINE
  5
250
330
1F
100
AcDbEntity
  8
1
  6
DOT_CENTER
 62
     1
100
AcDbLine
 10
192.0
 20
315.0000000000006
 30
0.0
 11
192.0
 21
251.0000000000005
 31
0.0
  0
LINE
  5
251
330
1F
100
AcDbEntity
  8
1
  6
Continuous
 62
     3
100
AcDbLine
 10
189.5
 20
283.5000000000005
 30
0.0
 11
189.5
 21
282.5000000000005
 31
0.0
  0
LINE
  5
252
330
1F
100
AcDbEntity
  8
1
  6
Continuous
 62
     3
100
AcDbLine
 10
194.5
 20
283.5000000000005
 30
0.0
 11
194.5
 21
282.5000000000005
 31
0.0
  0
LINE
  5
253
330
1F
100
AcDbEntity
  8
1
  6
Continuous
 62
     3
100
AcDbLine
 10
192.5
 20
280.5000000000005
 30
0.0
 11
191.5
 21
280.5000000000005
 31
0.0
  0
LINE
  5
254
330
1F
100
AcDbEntity
  8
1
  6
Continuous
 62
     3
100
AcDbLine
 10
192.5
 20
285.5000000000005
 30
0.0
 11
191.5
 21
285.5000000000005
 31
0.0
  0
LINE
  5
255
330
1F
100
AcDbEntity
  8
1
  6
Continuous
 62
     3
100
AcDbLine
 10
194.5
 20
283.5000000000005
 30
0.0
 11
193.5
 21
283.5000000000005
 31
0.0
  0
LINE
  5
256
330
1F
100
AcDbEntity
  8
1
  6
Continuous
 62
     3
100
AcDbLine
 10
194.5
 20
282.5000000000005
 30
0.0
 11
193.5
 21
282.5000000000005
 31
0.0
  0
LINE
  5
257
330
1F
100
AcDbEntity
  8
1
  6
Continuous
 62
     3
100
AcDbLine
 10
191.5
 20
281.5000000000005
 30
0.0
 11
191.5
 21
280.5000000000005
 31
0.0
  0
LINE
  5
258
330
1F
100
AcDbEntity
  8
1
  6
Continuous
 62
     3
100
AcDbLine
 10
191.5
 20
285.5000000000005
 30
0.0
 11
191.5
 21
284.5000000000005
 31
0.0
  0
LINE
  5
259
330
1F
100
AcDbEntity
  8
1
  6
Continuous
 62
     3
100
AcDbLine
 10
192.5
 20
281.5000000000005
 30
0.0
 11
192.5
 21
280.5000000000005
 31
0.0
  0
LINE
  5
25A
330
1F
100
AcDbEntity
  8
1
  6
Continuous
 62
     3
100
AcDbLine
 10
192.5
 20
285.5000000000005
 30
0.0
 11
192.5
 21
284.5000000000005
 31
0.0
  0
LINE
  5
25B
330
1F
100
AcDbEntity
  8
1
  6
Continuous
 62
     3
100
AcDbLine
 10
190.5
 20
282.5000000000005
 30
0.0
 11
189.5
 21
282.5000000000005
 31
0.0
  0
LINE
  5
25C
330
1F
100
AcDbEntity
  8
1
  6
Continuous
 62
     3
100
AcDbLine
 10
190.5
 20
283.5000000000005
 30
0.0
 11
189.5
 21
283.5000000000005
 31
0.0
  0
LINE
  5
25D
330
1F
100
AcDbEntity
  8
2
  6
Continuous
 62
     3
100
AcDbLine
 10
188.471091189507
 20
273.2639790744686
 30
0.0
 11
187.279321328239
 21
258.0715272587256
 31
0.0
  0
LINE
  5
25E
330
1F
100
AcDbEntity
  8
2
  6
Continuous
 62
     3
100
AcDbLine
 10
167.071527258726
 20
278.2793213282395
 30
0.0
 11
182.263979074468
 21
279.4710911895066
 31
0.0
  0
LINE
  5
25F
330
1F
100
AcDbEntity
  8
2
  6
Continuous
 62
     3
100
AcDbLine
 10
196.7206786717609
 20
258.0715272587256
 30
0.0
 11
195.5289088104931
 21
273.2639790744686
 31
0.0
  0
LINE
  5
260
330
1F
100
AcDbEntity
  8
2
  6
Continuous
 62
     3
100
AcDbLine
 10
201.7360209255319
 20
279.4710911895076
 30
0.0
 11
216.9284727412739
 21
278.2793213282395
 31
0.0
  0
LINE
  5
261
330
1F
100
AcDbEntity
  8
2
  6
Continuous
 62
     3
100
AcDbLine
 10
216.9284727412739
 20
287.7206786717616
 30
0.0
 11
201.7360209255319
 21
286.5289088104936
 31
0.0
  0
LINE
  5
262
330
1F
100
AcDbEntity
  8
2
  6
Continuous
 62
     3
100
AcDbLine
 10
195.5289088104931
 20
292.7360209255326
 30
0.0
 11
196.7206786717609
 21
307.9284727412745
 31
0.0
  0
LINE
  5
263
330
1F
100
AcDbEntity
  8
2
  6
Continuous
 62
     3
100
AcDbLine
 10
187.279321328239
 20
307.9284727412745
 30
0.0
 11
188.471091189507
 21
292.7360209255326
 31
0.0
  0
LINE
  5
264
330
1F
100
AcDbEntity
  8
2
  6
Continuous
 62
     3
100
AcDbLine
 10
182.263979074468
 20
286.5289088104936
 30
0.0
 11
167.0715272587249
 21
287.7206786717605
 31
0.0
  0
LINE
  5
265
330
1F
100
AcDbEntity
  8
1
  6
DOT_CENTER
 62
     1
100
AcDbLine
 10
192.0
 20
205.9999999999698
 30
0.0
 11
192.0
 21
80.00000000000009
 31
0.0
  0
LINE
  5
266
330
1F
100
AcDbEntity
  8
2
  6
DASHED
 62
     4
100
AcDbLine
 10
267.7
 20
88.84999999999992
 30
0.0
 11
267.2
 21
89.35
 31
0.0
  0
LINE
  5
267
330
1F
100
AcDbEntity
  8
2
  6
DASHED
 62
     4
100
AcDbLine
 10
267.7
 20
115.1499999999999
 30
0.0
 11
267.2
 21
114.65
 31
0.0
  0
LINE
  5
268
330
1F
100
AcDbEntity
  8
2
  6
DOTTED
 62
     6
100
AcDbLine
 10
261.0
 20
87.0
 30
0.0
 11
261.0
 21
117.0
 31
0.0
  0
LINE
  5
269
330
1F
100
AcDbEntity
  8
2
  6
DOTTED
 62
     6
100
AcDbLine
 10
261.0
 20
87.0
 30
0.0
 11
257.0
 21
87.0
 31
0.0
  0
LINE
  5
26A
330
1F
100
AcDbEntity
  8
2
  6
DOTTED
 62
     6
100
AcDbLine
 10
257.0
 20
88.85
 30
0.0
 11
253.0
 21
88.85
 31
0.0
  0
LINE
  5
26B
330
1F
100
AcDbEntity
  8
2
  6
DOTTED
 62
     6
100
AcDbLine
 10
257.0
 20
87.0
 30
0.0
 11
257.0
 21
88.85
 31
0.0
  0
LINE
  5
26C
330
1F
100
AcDbEntity
  8
2
  6
DOTTED
 62
     6
100
AcDbLine
 10
261.0
 20
117.0
 30
0.0
 11
257.0
 21
117.0
 31
0.0
  0
LINE
  5
26D
330
1F
100
AcDbEntity
  8
2
  6
DOTTED
 62
     6
100
AcDbLine
 10
257.0
 20
115.15
 30
0.0
 11
257.0
 21
117.0
 31
0.0
  0
LINE
  5
26E
330
1F
100
AcDbEntity
  8
2
  6
DOTTED
 62
     6
100
AcDbLine
 10
257.0
 20
115.15
 30
0.0
 11
253.0
 21
115.15
 31
0.0
  0
LINE
  5
26F
330
1F
100
AcDbEntity
  8
2
  6
DOTTED
 62
     4
100
AcDbLine
 10
271.2
 20
115.15
 30
0.0
 11
267.7
 21
115.1499999999999
 31
0.0
  0
LINE
  5
270
330
1F
100
AcDbEntity
  8
2
  6
DOTTED
 62
     4
100
AcDbLine
 10
271.2
 20
115.15
 30
0.0
 11
271.2
 21
117.0
 31
0.0
  0
LINE
  5
271
330
1F
100
AcDbEntity
  8
2
  6
DOTTED
 62
     4
100
AcDbLine
 10
275.2
 20
117.0
 30
0.0
 11
271.2
 21
117.0
 31
0.0
  0
LINE
  5
272
330
1F
100
AcDbEntity
  8
2
  6
DOTTED
 62
     4
100
AcDbLine
 10
271.2
 20
87.0
 30
0.0
 11
271.2
 21
88.85
 31
0.0
  0
LINE
  5
273
330
1F
100
AcDbEntity
  8
2
  6
DOTTED
 62
     4
100
AcDbLine
 10
271.2
 20
88.85
 30
0.0
 11
267.7
 21
88.84999999999992
 31
0.0
  0
LINE
  5
274
330
1F
100
AcDbEntity
  8
2
  6
DOTTED
 62
     4
100
AcDbLine
 10
275.2
 20
87.0
 30
0.0
 11
271.2
 21
87.0
 31
0.0
  0
LINE
  5
275
330
1F
100
AcDbEntity
  8
1
  6
DOTTED
 62
     4
100
AcDbLine
 10
232.0
 20
116.95
 30
0.0
 11
232.0
 21
87.05
 31
0.0
  0
LINE
  5
276
330
1F
100
AcDbEntity
  8
1
  6
DOTTED
 62
     4
100
AcDbLine
 10
221.1875
 20
85.55
 30
0.0
 11
230.5
 21
85.55
 31
0.0
  0
LINE
  5
277
330
1F
100
AcDbEntity
  8
1
  6
DOTTED
 62
     4
100
AcDbLine
 10
221.187501034502
 20
118.45
 30
0.0
 11
230.5
 21
118.45
 31
0.0
  0
LINE
  5
278
330
1F
100
AcDbEntity
  8
2
  6
Continuous
 62
     3
100
AcDbLine
 10
345.0
 20
123.939310229206
 30
0.0
 11
326.0
 21
112.969655114603
 31
0.0
  0
LINE
  5
279
330
1F
100
AcDbEntity
  8
2
  6
Continuous
 62
     3
100
AcDbLine
 10
325.999999999998
 20
129.999999999998
 30
0.0
 11
326.0
 21
91.0303448853971
 31
0.0
  0
LINE
  5
27A
330
1F
100
AcDbEntity
  8
2
  6
Continuous
 62
     3
100
AcDbLine
 10
326.0
 20
91.0303448853971
 30
0.0
 11
345.0
 21
80.0606897707942
 31
0.0
  0
LINE
  5
27B
330
1F
100
AcDbEntity
  8
2
  6
Continuous
 62
     3
100
AcDbLine
 10
345.0
 20
80.0606897707942
 30
0.0
 11
364.0
 21
91.0303448853971
 31
0.0
  0
LINE
  5
27C
330
1F
100
AcDbEntity
  8
2
  6
Continuous
 62
     3
100
AcDbLine
 10
364.0
 20
91.0303448853971
 30
0.0
 11
364.0
 21
130.0
 31
0.0
  0
LINE
  5
27D
330
1F
100
AcDbEntity
  8
2
  6
Continuous
 62
     3
100
AcDbLine
 10
364.0
 20
112.969655114603
 30
0.0
 11
345.0
 21
123.939310229206
 31
0.0
  0
LINE
  5
27E
330
1F
100
AcDbEntity
  8
2
  6
Continuous
 62
     3
100
AcDbLine
 10
221.1875
 20
85.55
 30
0.0
 11
220.0
 21
85.55
 31
0.0
  0
LINE
  5
27F
330
1F
100
AcDbEntity
  8
2
  6
Continuous
 62
     3
100
AcDbLine
 10
221.1875
 20
86.65
 30
0.0
 11
218.9
 21
86.65
 31
0.0
  0
LINE
  5
280
330
1F
100
AcDbEntity
  8
2
  6
Continuous
 62
     3
100
AcDbLine
 10
221.1875
 20
117.35
 30
0.0
 11
218.9
 21
117.35
 31
0.0
  0
LINE
  5
281
330
1F
100
AcDbEntity
  8
2
  6
Continuous
 62
     3
100
AcDbLine
 10
221.187501034502
 20
118.45
 30
0.0
 11
220.0
 21
118.45
 31
0.0
  0
LINE
  5
282
330
1F
100
AcDbEntity
  8
3
  6
Continuous
 62
     3
100
AcDbLine
 10
266.0499999999999
 20
113.5
 30
0.0
 11
244.1875
 21
113.5
 31
0.0
  0
LINE
  5
283
330
1F
100
AcDbEntity
  8
3
  6
Continuous
 62
     3
100
AcDbLine
 10
266.0499999999999
 20
90.5
 30
0.0
 11
244.1875
 21
90.5
 31
0.0
  0
LINE
  5
284
330
1F
100
AcDbEntity
  8
3
  6
Continuous
 62
     3
100
AcDbLine
 10
244.1875
 20
113.7
 30
0.0
 11
243.1875
 21
114.425
 31
0.0
  0
LINE
  5
285
330
1F
100
AcDbEntity
  8
3
  6
Continuous
 62
     3
100
AcDbLine
 10
244.1875
 20
90.3
 30
0.0
 11
243.1875
 21
89.575
 31
0.0
  0
LINE
  5
286
330
1F
100
AcDbEntity
  8
3
  6
Continuous
 62
     3
100
AcDbLine
 10
244.1875
 20
90.3
 30
0.0
 11
244.1875
 21
113.7
 31
0.0
  0
LINE
  5
287
330
1F
100
AcDbEntity
  8
3
  6
Continuous
 62
     3
100
AcDbLine
 10
244.1875
 20
271.3000000000005
 30
0.0
 11
244.1875
 21
294.7000000000004
 31
0.0
  0
LINE
  5
288
330
1F
100
AcDbEntity
  8
3
  6
Continuous
 62
     3
100
AcDbLine
 10
244.1875
 20
271.3000000000005
 30
0.0
 11
243.1875
 21
270.5750000000004
 31
0.0
  0
LINE
  5
289
330
1F
100
AcDbEntity
  8
3
  6
Continuous
 62
     3
100
AcDbLine
 10
244.1875
 20
294.7000000000004
 30
0.0
 11
243.1875
 21
295.4250000000005
 31
0.0
  0
LINE
  5
28A
330
1F
100
AcDbEntity
  8
3
  6
Continuous
 62
     3
100
AcDbLine
 10
266.0499999999999
 20
271.5000000000005
 30
0.0
 11
244.1875
 21
271.5000000000005
 31
0.0
  0
LINE
  5
28B
330
1F
100
AcDbEntity
  8
3
  6
Continuous
 62
     3
100
AcDbLine
 10
266.0499999999999
 20
294.5000000000005
 30
0.0
 11
244.1875
 21
294.5000000000005
 31
0.0
  0
LINE
  5
28C
330
1F
100
AcDbEntity
  8
2
  6
Continuous
 62
     3
100
AcDbLine
 10
220.0
 20
299.4500000000004
 30
0.0
 11
220.0
 21
289.0240565744202
 31
0.0
  0
LINE
  5
28D
330
1F
100
AcDbEntity
  8
2
  6
Continuous
 62
     3
100
AcDbLine
 10
164.0
 20
266.5500000000005
 30
0.0
 11
164.0
 21
276.9759434255784
 31
0.0
  0
LINE
  5
28E
330
1F
100
AcDbEntity
  8
2
  6
Continuous
 62
     3
100
AcDbLine
 10
365.0
 20
133.77029414592
 30
0.0
 11
364.999999999997
 21
132.64575131106
 31
0.0
  0
LINE
  5
28F
330
1F
100
AcDbEntity
  8
2
  6
Continuous
 62
     3
100
AcDbLine
 10
325.0
 20
133.77029414592
 30
0.0
 11
325.0
 21
132.64575131106
 31
0.0
  0
LINE
  5
290
330
1F
100
AcDbEntity
  8
2
  6
Continuous
 62
     3
100
AcDbLine
 10
183.339745962174
 20
145.665063509467
 30
0.0
 11
183.339745962162
 21
135.53589838486
 31
0.0
  0
LINE
  5
291
330
1F
100
AcDbEntity
  8
2
  6
Continuous
 62
     3
100
AcDbLine
 10
200.660254037819
 20
145.665063509463
 30
0.0
 11
200.660254037835
 21
135.53589838486
 31
0.0
  0
LINE
  5
292
330
1F
100
AcDbEntity
  8
2
  6
Continuous
 62
     3
100
AcDbLine
 10
172.0
 20
133.77029414592
 30
0.0
 11
172.0
 21
132.64575131106
 31
0.0
  0
LINE
  5
293
330
1F
100
AcDbEntity
  8
2
  6
Continuous
 62
     3
100
AcDbLine
 10
173.205825797291
 20
135.241165159456
 30
0.0
 11
174.679491924273
 21
135.535898384853
 31
0.0
  0
LINE
  5
294
330
1F
100
AcDbEntity
  8
2
  6
Continuous
 62
     3
100
AcDbLine
 10
209.32050807569
 20
135.53589838486
 30
0.0
 11
210.794174202709
 21
135.241165159456
 31
0.0
  0
LINE
  5
295
330
1F
100
AcDbEntity
  8
2
  6
Continuous
 62
     3
100
AcDbLine
 10
174.67949192431
 20
145.665063509463
 30
0.0
 11
174.679491924273
 21
135.535898384853
 31
0.0
  0
LINE
  5
296
330
1F
100
AcDbEntity
  8
2
  6
Continuous
 62
     3
100
AcDbLine
 10
212.0
 20
133.77029414592
 30
0.0
 11
211.999999999997
 21
132.64575131106
 31
0.0
  0
LINE
  5
297
330
1F
100
AcDbEntity
  8
2
  6
Continuous
 62
     3
100
AcDbLine
 10
209.32050807569
 20
145.665063509463
 30
0.0
 11
209.32050807569
 21
135.53589838486
 31
0.0
  0
LINE
  5
298
330
1F
100
AcDbEntity
  8
2
  6
DOT_CENTER
 62
     1
100
AcDbLine
 10
149.0
 20
283.0000000000004
 30
0.0
 11
292.2
 21
283.0000000000005
 31
0.0
  0
LINE
  5
299
330
1F
100
AcDbEntity
  8
2
  6
Continuous
 62
     3
100
AcDbLine
 10
152.0
 20
268.0500000000005
 30
0.0
 11
152.0
 21
297.9500000000004
 31
0.0
  0
LINE
  5
29A
330
1F
100
AcDbEntity
  8
2
  6
Continuous
 62
     3
100
AcDbLine
 10
153.5
 20
299.4500000000004
 30
0.0
 11
164.0
 21
299.4500000000004
 31
0.0
  0
LINE
  5
29B
330
1F
100
AcDbEntity
  8
2
  6
Continuous
 62
     3
100
AcDbLine
 10
152.4
 20
298.3500000000005
 30
0.0
 11
165.1
 21
298.3500000000005
 31
0.0
  0
LINE
  5
29C
330
1F
100
AcDbEntity
  8
2
  6
Continuous
 62
     3
100
AcDbLine
 10
164.0
 20
299.4500000000004
 30
0.0
 11
165.26066017178
 21
298.1893398282205
 31
0.0
  0
LINE
  5
29D
330
1F
100
AcDbEntity
  8
2
  6
Continuous
 62
     3
100
AcDbLine
 10
166.32132034356
 20
297.7500000000005
 30
0.0
 11
167.8251829837052
 21
297.7500000000005
 31
0.0
  0
LINE
  5
29E
330
1F
100
AcDbEntity
  8
2
  6
Continuous
 62
     3
100
AcDbLine
 10
164.0
 20
266.5500000000005
 30
0.0
 11
165.26066017178
 21
267.8106601717805
 31
0.0
  0
LINE
  5
29F
330
1F
100
AcDbEntity
  8
2
  6
Continuous
 62
     3
100
AcDbLine
 10
153.5
 20
266.5500000000005
 30
0.0
 11
164.0
 21
266.5500000000005
 31
0.0
  0
LINE
  5
2A0
330
1F
100
AcDbEntity
  8
2
  6
Continuous
 62
     3
100
AcDbLine
 10
152.4
 20
267.6500000000004
 30
0.0
 11
165.1
 21
267.6500000000004
 31
0.0
  0
LINE
  5
2A1
330
1F
100
AcDbEntity
  8
2
  6
Continuous
 62
     3
100
AcDbLine
 10
166.32132034356
 20
268.2500000000005
 30
0.0
 11
167.7989949578514
 21
268.2500000000005
 31
0.0
  0
LINE
  5
2A2
330
1F
100
AcDbEntity
  8
2
  6
Continuous
 62
     3
100
AcDbLine
 10
217.67867965644
 20
297.7500000000005
 30
0.0
 11
216.1748170162947
 21
297.7500000000005
 31
0.0
  0
LINE
  5
2A3
330
1F
100
AcDbEntity
  8
2
  6
Continuous
 62
     3
100
AcDbLine
 10
220.0
 20
299.4500000000004
 30
0.0
 11
218.73933982822
 21
298.1893398282205
 31
0.0
  0
LINE
  5
2A4
330
1F
100
AcDbEntity
  8
2
  6
Continuous
 62
     3
100
AcDbLine
 10
221.1875
 20
299.4500000000004
 30
0.0
 11
220.0
 21
299.4500000000004
 31
0.0
  0
LINE
  5
2A5
330
1F
100
AcDbEntity
  8
2
  6
Continuous
 62
     3
100
AcDbLine
 10
221.1875
 20
298.3500000000005
 30
0.0
 11
218.9
 21
298.3500000000005
 31
0.0
  0
LINE
  5
2A6
330
1F
100
AcDbEntity
  8
2
  6
Continuous
 62
     3
100
AcDbLine
 10
220.0
 20
266.5500000000005
 30
0.0
 11
218.73933982822
 21
267.8106601717805
 31
0.0
  0
LINE
  5
2A7
330
1F
100
AcDbEntity
  8
2
  6
Continuous
 62
     3
100
AcDbLine
 10
221.1875
 20
266.5500000000005
 30
0.0
 11
220.0
 21
266.5500000000005
 31
0.0
  0
LINE
  5
2A8
330
1F
100
AcDbEntity
  8
2
  6
Continuous
 62
     3
100
AcDbLine
 10
221.1875
 20
267.6500000000004
 30
0.0
 11
218.9
 21
267.6500000000004
 31
0.0
  0
LINE
  5
2A9
330
1F
100
AcDbEntity
  8
2
  6
Continuous
 62
     3
100
AcDbLine
 10
217.67867965644
 20
268.2500000000005
 30
0.0
 11
216.1748170162948
 21
268.2500000000005
 31
0.0
  0
LINE
  5
2AA
330
1F
100
AcDbEntity
  8
2
  6
Continuous
 62
     3
100
AcDbLine
 10
164.0
 20
118.45
 30
0.0
 11
164.0
 21
85.55
 31
0.0
  0
LINE
  5
2AB
330
1F
100
AcDbEntity
  8
2
  6
Continuous
 62
     3
100
AcDbLine
 10
220.0
 20
85.55
 30
0.0
 11
220.0
 21
118.45
 31
0.0
  0
LINE
  5
2AC
330
1F
100
AcDbEntity
  8
2
  6
Continuous
 62
     3
100
AcDbLine
 10
336.5330052557
 20
104.0
 30
0.0
 11
353.4669947443
 21
104.0
 31
0.0
  0
LINE
  5
2AD
330
1F
100
AcDbEntity
  8
2
  6
Continuous
 62
     3
100
AcDbLine
 10
325.999999999998
 20
129.999999999998
 30
0.0
 11
364.0
 21
130.0
 31
0.0
  0
LINE
  5
2AE
330
1F
100
AcDbEntity
  8
2
  6
DOT_CENTER
 62
     1
100
AcDbLine
 10
322.9999999999994
 20
102.0
 30
0.0
 11
367.0
 21
102.0
 31
0.0
  0
LINE
  5
2AF
330
1F
100
AcDbEntity
  8
2
  6
Continuous
 62
     3
100
AcDbLine
 10
211.0
 20
130.0
 30
0.0
 11
172.999999999998
 21
129.999999999998
 31
0.0
  0
LINE
  5
2B0
330
1F
100
AcDbEntity
  8
2
  6
Continuous
 62
     3
100
AcDbLine
 10
211.0
 20
119.26136261574
 30
0.0
 11
211.0
 21
130.0
 31
0.0
  0
LINE
  5
2B1
330
1F
100
AcDbEntity
  8
2
  6
Continuous
 62
     3
100
AcDbLine
 10
217.67867965644
 20
87.2500000000003
 30
0.0
 11
216.88850136107
 21
87.25
 31
0.0
  0
LINE
  5
2B2
330
1F
100
AcDbEntity
  8
2
  6
Continuous
 62
     3
100
AcDbLine
 10
220.0
 20
85.55
 30
0.0
 11
218.73933982822
 21
86.81066017178
 31
0.0
  0
LINE
  5
2B3
330
1F
100
AcDbEntity
  8
2
  6
Continuous
 62
     3
100
AcDbLine
 10
220.0
 20
118.45
 30
0.0
 11
218.73933982822
 21
117.18933982822
 31
0.0
  0
LINE
  5
2B4
330
1F
100
AcDbEntity
  8
2
  6
Continuous
 62
     3
100
AcDbLine
 10
217.67867965644
 20
116.75
 30
0.0
 11
216.88850136107
 21
116.75
 31
0.0
  0
LINE
  5
2B5
330
1F
100
AcDbEntity
  8
2
  6
Continuous
 62
     3
100
AcDbLine
 10
173.000000000001
 20
119.26136261574
 30
0.0
 11
172.999999999998
 21
129.999999999998
 31
0.0
  0
LINE
  5
2B6
330
1F
100
AcDbEntity
  8
2
  6
Continuous
 62
     3
100
AcDbLine
 10
166.32132034356
 20
87.25
 30
0.0
 11
167.11149863893
 21
87.2499999999999
 31
0.0
  0
LINE
  5
2B7
330
1F
100
AcDbEntity
  8
2
  6
Continuous
 62
     3
100
AcDbLine
 10
152.4
 20
86.65
 30
0.0
 11
165.1
 21
86.65
 31
0.0
  0
LINE
  5
2B8
330
1F
100
AcDbEntity
  8
2
  6
Continuous
 62
     3
100
AcDbLine
 10
153.5
 20
85.55
 30
0.0
 11
164.0
 21
85.55
 31
0.0
  0
LINE
  5
2B9
330
1F
100
AcDbEntity
  8
2
  6
Continuous
 62
     3
100
AcDbLine
 10
164.0
 20
85.55
 30
0.0
 11
165.26066017178
 21
86.8106601717798
 31
0.0
  0
LINE
  5
2BA
330
1F
100
AcDbEntity
  8
2
  6
Continuous
 62
     3
100
AcDbLine
 10
166.32132034356
 20
116.75
 30
0.0
 11
167.11149863893
 21
116.75
 31
0.0
  0
LINE
  5
2BB
330
1F
100
AcDbEntity
  8
2
  6
Continuous
 62
     3
100
AcDbLine
 10
164.0
 20
118.45
 30
0.0
 11
165.26066017178
 21
117.18933982822
 31
0.0
  0
LINE
  5
2BC
330
1F
100
AcDbEntity
  8
2
  6
Continuous
 62
     3
100
AcDbLine
 10
152.4
 20
117.35
 30
0.0
 11
165.1
 21
117.35
 31
0.0
  0
LINE
  5
2BD
330
1F
100
AcDbEntity
  8
2
  6
Continuous
 62
     3
100
AcDbLine
 10
153.5
 20
118.45
 30
0.0
 11
164.0
 21
118.45
 31
0.0
  0
LINE
  5
2BE
330
1F
100
AcDbEntity
  8
2
  6
Continuous
 62
     3
100
AcDbLine
 10
152.0
 20
87.05
 30
0.0
 11
152.0
 21
116.95
 31
0.0
  0
LINE
  5
2BF
330
1F
100
AcDbEntity
  8
2
  6
DOT_CENTER
 62
     1
100
AcDbLine
 10
149.0
 20
102.0
 30
0.0
 11
292.2
 21
102.0
 31
0.0
  0
LINE
  5
2C0
330
1F
100
AcDbEntity
  8
2
  6
Continuous
 62
     3
100
AcDbLine
 10
201.75
 20
168.13397459622
 30
0.0
 11
201.75
 21
150.86602540378
 31
0.0
  0
LINE
  5
2C1
330
1F
100
AcDbEntity
  8
2
  6
Continuous
 62
     3
100
AcDbLine
 10
182.25
 20
168.13397459622
 30
0.0
 11
182.25
 21
150.86602540378
 31
0.0
  0
LINE
  5
2C2
330
1F
100
AcDbEntity
  8
2
  6
Continuous
 62
     3
100
AcDbLine
 10
181.75
 20
169.0
 30
0.0
 11
182.25
 21
168.13397459622
 31
0.0
  0
LINE
  5
2C3
330
1F
100
AcDbEntity
  8
2
  6
Continuous
 62
     3
100
AcDbLine
 10
182.6845
 20
176.9345
 30
0.0
 11
182.6845
 21
169.0
 31
0.0
  0
LINE
  5
2C4
330
1F
100
AcDbEntity
  8
2
  6
Continuous
 62
     3
100
AcDbLine
 10
202.25
 20
169.0
 30
0.0
 11
201.75
 21
168.13397459622
 31
0.0
  0
LINE
  5
2C5
330
1F
100
AcDbEntity
  8
2
  6
Continuous
 62
     3
100
AcDbLine
 10
201.3155
 20
176.9345
 30
0.0
 11
201.3155
 21
169.0
 31
0.0
  0
LINE
  5
2C6
330
1F
100
AcDbEntity
  8
2
  6
Continuous
 62
     3
100
AcDbLine
 10
202.25
 20
176.0
 30
0.0
 11
201.25
 21
177.0
 31
0.0
  0
LINE
  5
2C7
330
1F
100
AcDbEntity
  8
2
  6
Continuous
 62
     3
100
AcDbLine
 10
202.25
 20
176.0
 30
0.0
 11
202.25
 21
169.0
 31
0.0
  0
LINE
  5
2C8
330
1F
100
AcDbEntity
  8
2
  6
Continuous
 62
     3
100
AcDbLine
 10
181.75
 20
176.0
 30
0.0
 11
181.75
 21
169.0
 31
0.0
  0
LINE
  5
2C9
330
1F
100
AcDbEntity
  8
2
  6
Continuous
 62
     3
100
AcDbLine
 10
182.75
 20
177.0
 30
0.0
 11
181.75
 21
176.0
 31
0.0
  0
LINE
  5
2CA
330
1F
100
AcDbEntity
  8
2
  6
Continuous
 62
     3
100
AcDbLine
 10
182.75
 20
177.0
 30
0.0
 11
201.25
 21
177.0
 31
0.0
  0
LINE
  5
2CB
330
1F
100
AcDbEntity
  8
1
  6
Continuous
 62
     3
100
AcDbLine
 10
202.25
 20
169.0
 30
0.0
 11
181.75
 21
169.0
 31
0.0
  0
LINE
  5
2CC
330
1F
100
AcDbEntity
  8
2
  6
Continuous
 62
     3
100
AcDbLine
 10
209.32050807569
 20
145.6291651246
 30
0.0
 11
202.5
 21
149.56698729811
 31
0.0
  0
LINE
  5
2CD
330
1F
100
AcDbEntity
  8
2
  6
Continuous
 62
     3
100
AcDbLine
 10
174.67949192431
 20
145.6291651246
 30
0.0
 11
181.5
 21
149.56698729811
 31
0.0
  0
LINE
  5
2CE
330
1F
100
AcDbEntity
  8
2
  6
Continuous
 62
     3
100
AcDbLine
 10
354.75
 20
168.13397459622
 30
0.0
 11
354.75
 21
150.86602540378
 31
0.0
  0
LINE
  5
2CF
330
1F
100
AcDbEntity
  8
2
  6
Continuous
 62
     3
100
AcDbLine
 10
335.25
 20
168.13397459622
 30
0.0
 11
335.25
 21
150.86602540378
 31
0.0
  0
LINE
  5
2D0
330
1F
100
AcDbEntity
  8
2
  6
Continuous
 62
     3
100
AcDbLine
 10
334.75
 20
169.0
 30
0.0
 11
335.25
 21
168.13397459622
 31
0.0
  0
LINE
  5
2D1
330
1F
100
AcDbEntity
  8
2
  6
Continuous
 62
     3
100
AcDbLine
 10
335.6845
 20
176.9345
 30
0.0
 11
335.6845
 21
169.0
 31
0.0
  0
LINE
  5
2D2
330
1F
100
AcDbEntity
  8
2
  6
Continuous
 62
     3
100
AcDbLine
 10
355.25
 20
169.0
 30
0.0
 11
354.75
 21
168.13397459622
 31
0.0
  0
LINE
  5
2D3
330
1F
100
AcDbEntity
  8
2
  6
Continuous
 62
     3
100
AcDbLine
 10
354.3155
 20
176.9345
 30
0.0
 11
354.3155
 21
169.0
 31
0.0
  0
LINE
  5
2D4
330
1F
100
AcDbEntity
  8
2
  6
Continuous
 62
     3
100
AcDbLine
 10
355.25
 20
176.0
 30
0.0
 11
354.25
 21
177.0
 31
0.0
  0
LINE
  5
2D5
330
1F
100
AcDbEntity
  8
2
  6
Continuous
 62
     3
100
AcDbLine
 10
355.25
 20
176.0
 30
0.0
 11
355.25
 21
169.0
 31
0.0
  0
LINE
  5
2D6
330
1F
100
AcDbEntity
  8
2
  6
Continuous
 62
     3
100
AcDbLine
 10
334.75
 20
176.0
 30
0.0
 11
334.75
 21
169.0
 31
0.0
  0
LINE
  5
2D7
330
1F
100
AcDbEntity
  8
2
  6
Continuous
 62
     3
100
AcDbLine
 10
335.75
 20
177.0
 30
0.0
 11
334.75
 21
176.0
 31
0.0
  0
LINE
  5
2D8
330
1F
100
AcDbEntity
  8
1
  6
Continuous
 62
     3
100
AcDbLine
 10
355.25
 20
169.0
 30
0.0
 11
334.75
 21
169.0
 31
0.0
  0
LINE
  5
2D9
330
1F
100
AcDbEntity
  8
2
  6
Continuous
 62
     3
100
AcDbLine
 10
360.0
 20
146.968911086756
 30
0.0
 11
355.5
 21
149.56698729811
 31
0.0
  0
LINE
  5
2DA
330
1F
100
AcDbEntity
  8
2
  6
Continuous
 62
     3
100
AcDbLine
 10
330.0
 20
146.968911086756
 30
0.0
 11
334.5
 21
149.56698729811
 31
0.0
  0
LINE
  5
2DB
330
1F
100
AcDbEntity
  8
1
  6
Continuous
 62
     3
100
AcDbLine
 10
355.0252551286138
 20
149.999999999998
 30
0.0
 11
334.9747448713933
 21
149.999999999998
 31
0.0
  0
LINE
  5
2DC
330
1F
100
AcDbEntity
  8
2
  6
Continuous
 62
     3
100
AcDbLine
 10
325.0
 20
132.64575131106
 30
0.0
 11
325.0
 21
133.77029414592
 31
0.0
  0
LINE
  5
2DD
330
1F
100
AcDbEntity
  8
2
  6
Continuous
 62
     3
100
AcDbLine
 10
360.0
 20
135.53589838486
 30
0.0
 11
360.0
 21
146.968911086756
 31
0.0
  0
LINE
  5
2DE
330
1F
100
AcDbEntity
  8
2
  6
Continuous
 62
     3
100
AcDbLine
 10
329.999999999997
 20
135.53589838486
 30
0.0
 11
330.0
 21
146.968911086756
 31
0.0
  0
LINE
  5
2DF
330
1F
100
AcDbEntity
  8
2
  6
Continuous
 62
     3
100
AcDbLine
 10
326.205825797291
 20
135.241165159456
 30
0.0
 11
330.0
 21
135.999999999998
 31
0.0
  0
LINE
  5
2E0
330
1F
100
AcDbEntity
  8
2
  6
Continuous
 62
     3
100
AcDbLine
 10
360.0
 20
135.999999999998
 30
0.0
 11
363.794174202709
 21
135.241165159456
 31
0.0
  0
LINE
  5
2E1
330
1F
100
AcDbEntity
  8
2
  6
Continuous
 62
     3
100
AcDbLine
 10
364.999999999997
 20
132.64575131106
 30
0.0
 11
365.0
 21
133.77029414592
 31
0.0
  0
LINE
  5
2E2
330
1F
100
AcDbEntity
  8
1
  6
Continuous
 62
     3
100
AcDbLine
 10
153.5
 20
118.45
 30
0.0
 11
152.0
 21
116.95
 31
0.0
  0
LINE
  5
2E3
330
1F
100
AcDbEntity
  8
1
  6
Continuous
 62
     3
100
AcDbLine
 10
153.5
 20
85.55
 30
0.0
 11
152.0
 21
87.05
 31
0.0
  0
LINE
  5
2E4
330
1F
100
AcDbEntity
  8
1
  6
DOTTED
 62
     4
100
AcDbLine
 10
230.5
 20
85.55
 30
0.0
 11
232.0
 21
87.05
 31
0.0
  0
LINE
  5
2E5
330
1F
100
AcDbEntity
  8
1
  6
DOTTED
 62
     4
100
AcDbLine
 10
230.5
 20
118.45
 30
0.0
 11
232.0
 21
116.95
 31
0.0
  0
LINE
  5
2E6
330
1F
100
AcDbEntity
  8
1
  6
Continuous
 62
     3
100
AcDbLine
 10
153.5
 20
299.4500000000004
 30
0.0
 11
152.0
 21
297.9500000000004
 31
0.0
  0
LINE
  5
2E7
330
1F
100
AcDbEntity
  8
1
  6
Continuous
 62
     3
100
AcDbLine
 10
153.5
 20
266.5500000000005
 30
0.0
 11
152.0
 21
268.0500000000005
 31
0.0
  0
LINE
  5
2E8
330
1F
100
AcDbEntity
  8
1
  6
Continuous
 62
     3
100
AcDbLine
 10
153.5
 20
85.55
 30
0.0
 11
153.5
 21
118.45
 31
0.0
  0
LINE
  5
2E9
330
1F
100
AcDbEntity
  8
1
  6
Continuous
 62
     3
100
AcDbLine
 10
153.5
 20
266.5500000000005
 30
0.0
 11
153.5
 21
299.4500000000004
 31
0.0
  0
LINE
  5
2EA
330
1F
100
AcDbEntity
  8
3
  6
Continuous
 62
     3
100
AcDbLine
 10
182.25
 20
150.11602540378
 30
0.0
 11
201.7499999999999
 21
150.11602540378
 31
0.0
  0
LINE
  5
2EB
330
1F
100
AcDbEntity
  8
2
  6
DOT_CENTER
 62
     1
100
AcDbLine
 10
345.0
 20
76.59658815565645
 30
0.0
 11
345.0
 21
206.0
 31
0.0
  0
LINE
  5
2EC
330
1F
100
AcDbEntity
  8
2
  6
Continuous
 62
     3
100
AcDbLine
 10
344.9999999999851
 20
145.6291651245945
 30
0.0
 11
345.000000000004
 21
135.53589838486
 31
0.0
  0
LINE
  5
2ED
330
1F
100
AcDbEntity
  8
1
  6
Continuous
 62
     3
100
AcDbLine
 10
181.75
 20
176.0
 30
0.0
 11
202.25
 21
176.0
 31
0.0
  0
LINE
  5
2EE
330
1F
100
AcDbEntity
  8
1
  6
Continuous
 62
     3
100
AcDbLine
 10
334.75
 20
176.0
 30
0.0
 11
355.25
 21
176.0
 31
0.0
  0
LINE
  5
2EF
330
1F
100
AcDbEntity
  8
1
  6
Continuous
 62
     3
100
AcDbLine
 10
289.2
 20
302.0000000000005
 30
0.0
 11
289.2
 21
283.0000000000005
 31
0.0
  0
LINE
  5
2F0
330
1F
100
AcDbEntity
  8
1
  6
Continuous
 62
     3
100
AcDbLine
 10
289.2
 20
283.0000000000005
 30
0.0
 11
289.2
 21
264.0000000000005
 31
0.0
  0
LINE
  5
2F1
330
1F
100
AcDbEntity
  8
1
  6
Continuous
 62
     3
100
AcDbLine
 10
267.2
 20
264.0000000000005
 30
0.0
 11
267.2
 21
283.0000000000005
 31
0.0
  0
LINE
  5
2F2
330
1F
100
AcDbEntity
  8
1
  6
Continuous
 62
     3
100
AcDbLine
 10
267.2
 20
283.0000000000005
 30
0.0
 11
267.2
 21
302.0000000000005
 31
0.0
  0
LINE
  5
2F3
330
1F
100
AcDbEntity
  8
1
  6
Continuous
 62
     3
100
AcDbLine
 10
267.2
 20
302.0000000000005
 30
0.0
 11
289.2
 21
302.0000000000005
 31
0.0
  0
LINE
  5
2F4
330
1F
100
AcDbEntity
  8
1
  6
Continuous
 62
     3
100
AcDbLine
 10
268.897011552064
 20
283.0000000000005
 30
0.0
 11
287.502988447936
 21
283.0000000000005
 31
0.0
  0
LINE
  5
2F5
330
1F
100
AcDbEntity
  8
1
  6
Continuous
 62
     3
100
AcDbLine
 10
267.2
 20
264.0000000000005
 30
0.0
 11
289.2
 21
264.0000000000005
 31
0.0
  0
LINE
  5
2F6
330
1F
100
AcDbEntity
  8
2
  6
Continuous
 62
     3
100
AcDbLine
 10
267.2
 20
89.35
 30
0.0
 11
266.0499999999999
 21
90.5
 31
0.0
  0
LINE
  5
2F7
330
1F
100
AcDbEntity
  8
2
  6
Continuous
 62
     3
100
AcDbLine
 10
267.2
 20
114.65
 30
0.0
 11
266.0499999999999
 21
113.5
 31
0.0
  0
LINE
  5
2F8
330
1F
100
AcDbEntity
  8
2
  6
DOTTED
 62
     4
100
AcDbLine
 10
275.2
 20
87.0
 30
0.0
 11
275.2
 21
117.0
 31
0.0
  0
LINE
  5
2F9
330
1F
100
AcDbEntity
  8
1
  6
Continuous
 62
     3
100
AcDbLine
 10
266.0499999999999
 20
90.5
 30
0.0
 11
266.0499999999999
 21
113.5
 31
0.0
  0
LINE
  5
2FA
330
1F
100
AcDbEntity
  8
2
  6
Continuous
 62
     3
100
AcDbLine
 10
267.2
 20
270.3500000000005
 30
0.0
 11
266.0499999999999
 21
271.5000000000005
 31
0.0
  0
LINE
  5
2FB
330
1F
100
AcDbEntity
  8
1
  6
Continuous
 62
     3
100
AcDbLine
 10
266.0499999999999
 20
271.5000000000005
 30
0.0
 11
266.0499999999999
 21
294.5000000000005
 31
0.0
  0
LINE
  5
2FC
330
1F
100
AcDbEntity
  8
2
  6
Continuous
 62
     3
100
AcDbLine
 10
267.2
 20
295.6500000000004
 30
0.0
 11
266.0499999999999
 21
294.5000000000005
 31
0.0
  0
LINE
  5
2FD
330
1F
100
AcDbEntity
  8
1
  6
Continuous
 62
     3
100
AcDbLine
 10
221.1875
 20
264.0000000000005
 30
0.0
 11
243.1875
 21
264.0000000000005
 31
0.0
  0
LINE
  5
2FE
330
1F
100
AcDbEntity
  8
1
  6
Continuous
 62
     3
100
AcDbLine
 10
222.884511552064
 20
283.0000000000005
 30
0.0
 11
241.490488447936
 21
283.0000000000005
 31
0.0
  0
LINE
  5
2FF
330
1F
100
AcDbEntity
  8
1
  6
Continuous
 62
     3
100
AcDbLine
 10
221.1875
 20
302.0000000000005
 30
0.0
 11
243.1875
 21
302.0000000000003
 31
0.0
  0
LINE
  5
300
330
1F
100
AcDbEntity
  8
1
  6
Continuous
 62
     3
100
AcDbLine
 10
221.1875
 20
283.0000000000005
 30
0.0
 11
221.1875
 21
302.0000000000005
 31
0.0
  0
LINE
  5
301
330
1F
100
AcDbEntity
  8
1
  6
Continuous
 62
     3
100
AcDbLine
 10
221.1875
 20
264.0000000000005
 30
0.0
 11
221.1875
 21
283.0000000000005
 31
0.0
  0
LINE
  5
302
330
1F
100
AcDbEntity
  8
1
  6
Continuous
 62
     3
100
AcDbLine
 10
243.1875
 20
283.0000000000005
 30
0.0
 11
243.1875
 21
264.0000000000005
 31
0.0
  0
LINE
  5
303
330
1F
100
AcDbEntity
  8
1
  6
Continuous
 62
     3
100
AcDbLine
 10
243.1875
 20
302.0000000000003
 30
0.0
 11
243.1875
 21
283.0000000000005
 31
0.0
  0
LINE
  5
304
330
1F
100
AcDbEntity
  8
1
  6
Continuous
 62
     3
100
AcDbLine
 10
243.1875
 20
121.0
 30
0.0
 11
243.1875
 21
102.0
 31
0.0
  0
LINE
  5
305
330
1F
100
AcDbEntity
  8
1
  6
Continuous
 62
     3
100
AcDbLine
 10
222.8845115520641
 20
112.969655114603
 30
0.0
 11
241.4904884479361
 21
112.969655114603
 31
0.0
  0
LINE
  5
306
330
1F
100
AcDbEntity
  8
1
  6
Continuous
 62
     3
100
AcDbLine
 10
241.4904884479361
 20
123.939310229206
 30
0.0
 11
243.1875
 21
121.0
 31
0.0
  0
LINE
  5
307
330
1F
100
AcDbEntity
  8
1
  6
Continuous
 62
     3
100
AcDbLine
 10
222.8845115520641
 20
123.939310229206
 30
0.0
 11
241.4904884479361
 21
123.939310229206
 31
0.0
  0
LINE
  5
308
330
1F
100
AcDbEntity
  8
1
  6
Continuous
 62
     3
100
AcDbLine
 10
221.1875
 20
121.0
 30
0.0
 11
222.8845115520641
 21
123.939310229206
 31
0.0
  0
LINE
  5
309
330
1F
100
AcDbEntity
  8
1
  6
Continuous
 62
     3
100
AcDbLine
 10
221.1875
 20
102.0
 30
0.0
 11
221.1875
 21
121.0
 31
0.0
  0
LINE
  5
30A
330
1F
100
AcDbEntity
  8
1
  6
Continuous
 62
     3
100
AcDbLine
 10
221.1875
 20
83.00000000000011
 30
0.0
 11
221.1875
 21
102.0
 31
0.0
  0
LINE
  5
30B
330
1F
100
AcDbEntity
  8
1
  6
Continuous
 62
     3
100
AcDbLine
 10
222.8845115520641
 20
80.06068977079411
 30
0.0
 11
221.1875
 21
83.00000000000011
 31
0.0
  0
LINE
  5
30C
330
1F
100
AcDbEntity
  8
1
  6
Continuous
 62
     3
100
AcDbLine
 10
241.490488447936
 20
80.0606897707942
 30
0.0
 11
222.8845115520641
 21
80.06068977079411
 31
0.0
  0
LINE
  5
30D
330
1F
100
AcDbEntity
  8
1
  6
Continuous
 62
     3
100
AcDbLine
 10
243.1875
 20
83.0
 30
0.0
 11
241.490488447936
 21
80.0606897707942
 31
0.0
  0
LINE
  5
30E
330
1F
100
AcDbEntity
  8
1
  6
Continuous
 62
     3
100
AcDbLine
 10
241.4904884479361
 20
91.03034488539711
 30
0.0
 11
222.8845115520641
 21
91.03034488539711
 31
0.0
  0
LINE
  5
30F
330
1F
100
AcDbEntity
  8
1
  6
Continuous
 62
     3
100
AcDbLine
 10
243.1875
 20
102.0
 30
0.0
 11
243.1875
 21
83.0
 31
0.0
  0
LINE
  5
310
330
1F
100
AcDbEntity
  8
1
  6
Continuous
 62
     3
100
AcDbLine
 10
289.2
 20
102.0
 30
0.0
 11
289.2
 21
83.00000000000011
 31
0.0
  0
LINE
  5
311
330
1F
100
AcDbEntity
  8
1
  6
Continuous
 62
     3
100
AcDbLine
 10
287.5029884479361
 20
91.03034488539711
 30
0.0
 11
268.897011552064
 21
91.03034488539711
 31
0.0
  0
LINE
  5
312
330
1F
100
AcDbEntity
  8
1
  6
Continuous
 62
     3
100
AcDbLine
 10
289.2
 20
83.00000000000011
 30
0.0
 11
287.5029884479361
 21
80.06068977079411
 31
0.0
  0
LINE
  5
313
330
1F
100
AcDbEntity
  8
1
  6
Continuous
 62
     3
100
AcDbLine
 10
287.5029884479361
 20
80.06068977079411
 30
0.0
 11
268.897011552064
 21
80.0606897707942
 31
0.0
  0
LINE
  5
314
330
1F
100
AcDbEntity
  8
1
  6
Continuous
 62
     3
100
AcDbLine
 10
268.897011552064
 20
80.0606897707942
 30
0.0
 11
267.2
 21
83.00000000000011
 31
0.0
  0
LINE
  5
315
330
1F
100
AcDbEntity
  8
1
  6
Continuous
 62
     3
100
AcDbLine
 10
267.2
 20
83.00000000000011
 30
0.0
 11
267.2
 21
102.0
 31
0.0
  0
LINE
  5
316
330
1F
100
AcDbEntity
  8
1
  6
Continuous
 62
     3
100
AcDbLine
 10
267.2
 20
102.0
 30
0.0
 11
267.2
 21
121.0
 31
0.0
  0
LINE
  5
317
330
1F
100
AcDbEntity
  8
1
  6
Continuous
 62
     3
100
AcDbLine
 10
267.2
 20
121.0
 30
0.0
 11
268.897011552064
 21
123.939310229206
 31
0.0
  0
LINE
  5
318
330
1F
100
AcDbEntity
  8
1
  6
Continuous
 62
     3
100
AcDbLine
 10
268.897011552064
 20
123.939310229206
 30
0.0
 11
287.5029884479361
 21
123.939310229206
 31
0.0
  0
LINE
  5
319
330
1F
100
AcDbEntity
  8
1
  6
Continuous
 62
     3
100
AcDbLine
 10
287.5029884479361
 20
123.939310229206
 30
0.0
 11
289.2
 21
121.0
 31
0.0
  0
LINE
  5
31A
330
1F
100
AcDbEntity
  8
1
  6
Continuous
 62
     3
100
AcDbLine
 10
268.897011552064
 20
112.969655114603
 30
0.0
 11
287.5029884479361
 21
112.969655114603
 31
0.0
  0
LINE
  5
31B
330
1F
100
AcDbEntity
  8
1
  6
Continuous
 62
     3
100
AcDbLine
 10
289.2
 20
121.0
 30
0.0
 11
289.2
 21
102.0
 31
0.0
  0
LINE
  5
31C
330
1F
100
AcDbEntity
  8
2
  6
Continuous
 62
     3
100
AcDbLine
 10
191.75
 20
194.9999999999685
 30
0.0
 11
191.4016660498396
 21
196.2999999999684
 31
0.0
  0
LINE
  5
31D
330
1F
100
AcDbEntity
  8
2
  6
Continuous
 62
     3
100
AcDbLine
 10
192.25
 20
196.2999999999684
 30
0.0
 11
192.5983339501607
 21
194.9999999999685
 31
0.0
  0
LINE
  5
31E
330
1F
100
AcDbEntity
  8
2
  6
Continuous
 62
     3
100
AcDbLine
 10
195.7500000000005
 20
196.2999999999684
 30
0.0
 11
188.2500000000007
 21
196.2999999999684
 31
0.0
  0
LINE
  5
31F
330
1F
100
AcDbEntity
  8
2
  6
Continuous
 62
     3
100
AcDbLine
 10
195.7500000000005
 20
196.6477267507094
 30
0.0
 11
188.2500000000007
 21
196.6477267507094
 31
0.0
  0
LINE
  5
320
330
1F
100
AcDbEntity
  8
3
  6
DOTTED
 62
     6
100
AcDbLine
 10
221.0
 20
181.4999999999686
 30
0.0
 11
221.0000000000007
 21
187.9769910292195
 31
0.0
  0
LINE
  5
321
330
1F
100
AcDbEntity
  8
3
  6
DOTTED
 62
     6
100
AcDbLine
 10
195.7499999999988
 20
194.4999999999685
 30
0.0
 11
195.75
 21
192.5188753282915
 31
0.0
  0
LINE
  5
322
330
1F
100
AcDbEntity
  8
3
  6
DOTTED
 62
     6
100
AcDbLine
 10
203.1836847107049
 20
196.9999999999675
 30
0.0
 11
198.25
 21
196.9999999999685
 31
0.0
  0
LINE
  5
323
330
1F
100
AcDbEntity
  8
3
  6
DOTTED
 62
     6
100
AcDbLine
 10
188.25
 20
194.4999999999686
 30
0.0
 11
188.25
 21
192.5188979003173
 31
0.0
  0
LINE
  5
324
330
1F
100
AcDbEntity
  8
3
  6
DOTTED
 62
     6
100
AcDbLine
 10
180.816315289295
 20
196.9999999999686
 30
0.0
 11
185.75
 21
196.9999999999685
 31
0.0
  0
LINE
  5
325
330
1F
100
AcDbEntity
  8
3
  6
DOTTED
 62
     6
100
AcDbLine
 10
163.0000000000007
 20
187.9769910292195
 30
0.0
 11
163.0000000000007
 21
181.4999999999686
 31
0.0
  0
LINE
  5
326
330
1F
100
AcDbEntity
  8
3
  6
DOTTED
 62
     6
100
AcDbLine
 10
165.5000000000007
 20
178.9999999999685
 30
0.0
 11
218.5
 21
178.9999999999685
 31
0.0
  0
LINE
  5
327
330
1F
100
AcDbEntity
  8
3
  6
Continuous
 62
     3
100
AcDbLine
 10
195.6000000000007
 20
168.9999999999684
 30
0.0
 11
198.0000000000007
 21
168.9999999999684
 31
0.0
  0
LINE
  5
328
330
1F
100
AcDbEntity
  8
3
  6
Continuous
 62
     3
100
AcDbLine
 10
186.0000000000007
 20
168.9999999999684
 30
0.0
 11
188.4000000000006
 21
168.9999999999684
 31
0.0
  0
LINE
  5
329
330
1F
100
AcDbEntity
  8
3
  6
Continuous
 62
     3
100
AcDbLine
 10
186.0
 20
183.0999999999685
 30
0.0
 11
186.0000000000003
 21
177.0
 31
0.0
  0
LINE
  5
32A
330
1F
100
AcDbEntity
  8
3
  6
Continuous
 62
     3
100
AcDbLine
 10
198.0000000000007
 20
183.0999999999685
 30
0.0
 11
198.0000000000007
 21
177.0
 31
0.0
  0
LINE
  5
32B
330
1F
100
AcDbEntity
  8
3
  6
Continuous
 62
     3
100
AcDbLine
 10
220.2158597755091
 20
193.9769910292194
 30
0.0
 11
220.2158597755091
 21
187.4999999999685
 31
0.0
  0
LINE
  5
32C
330
1F
100
AcDbEntity
  8
3
  6
Continuous
 62
     3
100
AcDbLine
 10
163.784140224491
 20
193.9769910292194
 30
0.0
 11
163.7841402244918
 21
187.4999999999685
 31
0.0
  0
LINE
  5
32D
330
1F
100
AcDbEntity
  8
3
  6
Continuous
 62
     3
100
AcDbLine
 10
215.9419536200869
 20
193.9769910292194
 30
0.0
 11
215.9419536200869
 21
187.4999999999685
 31
0.0
  0
LINE
  5
32E
330
1F
100
AcDbEntity
  8
3
  6
Continuous
 62
     3
100
AcDbLine
 10
207.9612979484566
 20
193.9769910292194
 30
0.0
 11
207.9612979484559
 21
187.4999999999685
 31
0.0
  0
LINE
  5
32F
330
1F
100
AcDbEntity
  8
3
  6
Continuous
 62
     3
100
AcDbLine
 10
197.643175743725
 20
193.9769910292194
 30
0.0
 11
197.6431757437256
 21
187.4999999999685
 31
0.0
  0
LINE
  5
330
330
1F
100
AcDbEntity
  8
3
  6
Continuous
 62
     3
100
AcDbLine
 10
186.3568242562739
 20
193.9769910292194
 30
0.0
 11
186.3568242562739
 21
187.4999999999685
 31
0.0
  0
LINE
  5
331
330
1F
100
AcDbEntity
  8
3
  6
Continuous
 62
     3
100
AcDbLine
 10
176.0387020515449
 20
193.9769910292194
 30
0.0
 11
176.0387020515449
 21
187.4999999999685
 31
0.0
  0
LINE
  5
332
330
1F
100
AcDbEntity
  8
3
  6
Continuous
 62
     3
100
AcDbLine
 10
168.0580463799128
 20
193.9769910292194
 30
0.0
 11
168.0580463799128
 21
187.4999999999685
 31
0.0
  0
LINE
  5
333
330
1F
100
AcDbEntity
  8
3
  6
Continuous
 62
     3
100
AcDbLine
 10
195.75
 20
194.9999999999685
 30
0.0
 11
188.25
 21
194.9999999999685
 31
0.0
  0
LINE
  5
334
330
1F
100
AcDbEntity
  8
3
  6
Continuous
 62
     3
100
AcDbLine
 10
221.0
 20
187.4999999999685
 30
0.0
 11
221.0
 21
193.9769910292194
 31
0.0
  0
LINE
  5
335
330
1F
100
AcDbEntity
  8
3
  6
Continuous
 62
     3
100
AcDbLine
 10
163.0
 20
193.9769910292194
 30
0.0
 11
163.0000000000007
 21
187.4999999999685
 31
0.0
  0
LINE
  5
336
330
1F
100
AcDbEntity
  8
3
  6
Continuous
 62
     3
100
AcDbLine
 10
198.0000000000007
 20
183.0999999999685
 30
0.0
 11
186.0
 21
183.0999999999685
 31
0.0
  0
LINE
  5
337
330
1F
100
AcDbEntity
  8
3
  6
Continuous
 62
     3
100
AcDbLine
 10
165.5000000000007
 20
184.9999999999685
 30
0.0
 11
218.5
 21
184.9999999999685
 31
0.0
  0
LINE
  5
338
330
1F
100
AcDbEntity
  8
3
  6
Continuous
 62
     3
100
AcDbLine
 10
187.3999999999998
 20
184.4999999999685
 30
0.0
 11
196.6000000000007
 21
184.4999999999685
 31
0.0
  0
LINE
  5
339
330
1F
100
AcDbEntity
  8
3
  6
Continuous
 62
     3
100
AcDbLine
 10
188.5000000000007
 20
184.9999999999685
 30
0.0
 11
188.5000000000007
 21
184.4999999999685
 31
0.0
  0
LINE
  5
33A
330
1F
100
AcDbEntity
  8
3
  6
Continuous
 62
     3
100
AcDbLine
 10
195.5000000000007
 20
184.9999999999685
 30
0.0
 11
195.5
 21
184.4999999999685
 31
0.0
  0
LINE
  5
33B
330
1F
100
AcDbEntity
  8
3
  6
Continuous
 62
     3
100
AcDbLine
 10
187.3999999999998
 20
184.4999999999685
 30
0.0
 11
186.0
 21
183.0999999999685
 31
0.0
  0
LINE
  5
33C
330
1F
100
AcDbEntity
  8
3
  6
Continuous
 62
     3
100
AcDbLine
 10
196.6000000000007
 20
184.4999999999685
 30
0.0
 11
198.0000000000007
 21
183.0999999999685
 31
0.0
  0
ARC
  5
343
330
1F
100
AcDbEntity
  8
3
  6
Continuous
 62
     3
100
AcDbCircle
 10
344.4712800225441
 20
134.0516910787944
 30
0.0
 40
70.0000000000001
100
AcDbArc
 50
101.2741638648797
 51
110.5554521953945
  0
ARC
  5
344
330
1F
100
AcDbEntity
  8
3
  6
Continuous
 62
     3
100
AcDbCircle
 10
322.0000000000007
 20
193.9769910292194
 30
0.0
 40
6.000000000000156
100
AcDbArc
 50
110.5554521954048
 51
180.0
  0
ARC
  5
345
330
1F
100
AcDbEntity
  8
3
  6
Continuous
 62
     3
100
AcDbCircle
 10
318.5
 20
187.4999999999685
 30
0.0
 40
2.499999999999318
100
AcDbArc
 50
180.0
 51
270.0000000000156
  0
ARC
  5
346
330
1F
100
AcDbEntity
  8
3
  6
Continuous
 62
     3
100
AcDbCircle
 10
371.5
 20
187.4999999999685
 30
0.0
 40
2.5
100
AcDbArc
 50
270.0
 51
0.0
  0
ARC
  5
347
330
1F
100
AcDbEntity
  8
3
  6
Continuous
 62
     3
100
AcDbCircle
 10
368.0
 20
193.9769910292194
 30
0.0
 40
6.0
100
AcDbArc
 50
0.0
 51
69.44454780460948
  0
ARC
  5
348
330
1F
100
AcDbEntity
  8
3
  6
Continuous
 62
     3
100
AcDbCircle
 10
345.528719977455
 20
134.0516910787944
 30
0.0
 40
69.99999999999987
100
AcDbArc
 50
69.44454780460553
 51
78.72583613511883
  0
ARC
  5
349
330
1F
100
AcDbEntity
  8
3
  6
Continuous
 62
     3
100
AcDbCircle
 10
370.7158597755091
 20
187.4999999999685
 30
0.0
 40
2.5
100
AcDbArc
 50
270.0
 51
0.0
  0
ARC
  5
34A
330
1F
100
AcDbEntity
  8
3
  6
Continuous
 62
     3
100
AcDbCircle
 10
366.4419536200869
 20
187.4999999999685
 30
0.0
 40
2.5
100
AcDbArc
 50
270.0
 51
0.0
  0
ARC
  5
34B
330
1F
100
AcDbEntity
  8
3
  6
Continuous
 62
     3
100
AcDbCircle
 10
358.4612979484559
 20
187.4999999999685
 30
0.0
 40
2.5
100
AcDbArc
 50
270.0
 51
0.0
  0
ARC
  5
34C
330
1F
100
AcDbEntity
  8
3
  6
Continuous
 62
     3
100
AcDbCircle
 10
348.143175743725
 20
187.4999999999685
 30
0.0
 40
2.5
100
AcDbArc
 50
270.0
 51
0.0
  0
ARC
  5
34D
330
1F
100
AcDbEntity
  8
3
  6
Continuous
 62
     3
100
AcDbCircle
 10
319.2841402244918
 20
187.4999999999685
 30
0.0
 40
2.5
100
AcDbArc
 50
180.0
 51
269.9999999999818
  0
ARC
  5
34E
330
1F
100
AcDbEntity
  8
3
  6
Continuous
 62
     3
100
AcDbCircle
 10
323.5580463799136
 20
187.4999999999685
 30
0.0
 40
2.500000000000796
100
AcDbArc
 50
180.0
 51
270.0
  0
ARC
  5
34F
330
1F
100
AcDbEntity
  8
3
  6
Continuous
 62
     3
100
AcDbCircle
 10
331.5387020515441
 20
187.4999999999685
 30
0.0
 40
2.499999999999204
100
AcDbArc
 50
180.0
 51
270.0
  0
ARC
  5
350
330
1F
100
AcDbEntity
  8
3
  6
Continuous
 62
     3
100
AcDbCircle
 10
341.8568242562739
 20
187.4999999999685
 30
0.0
 40
2.5
100
AcDbArc
 50
180.0
 51
270.0
  0
ARC
  5
351
330
1F
100
AcDbEntity
  8
3
  6
Continuous
 62
     3
100
AcDbCircle
 10
356.1836847107049
 20
187.4999999999685
 30
0.0
 40
15.4999999999989
100
AcDbArc
 50
78.72583613511883
 51
90.0
  0
ARC
  5
352
330
1F
100
AcDbEntity
  8
3
  6
Continuous
 62
     3
100
AcDbCircle
 10
333.816315289295
 20
187.4999999999685
 30
0.0
 40
15.5
100
AcDbArc
 50
90.0
 51
101.2741638648776
  0
ARC
  5
353
330
1F
100
AcDbEntity
  8
2
  6
Continuous
 62
     3
100
AcDbCircle
 10
345.0
 20
191.6999999999684
 30
0.0
 40
7.699999999999914
100
AcDbArc
 50
60.8555577722158
 51
119.1444422277783
  0
ARC
  5
354
330
1F
100
AcDbEntity
  8
1
  6
Continuous
 62
     3
100
AcDbCircle
 10
190.5
 20
284.5000000000005
 30
0.0
 40
1.0
100
AcDbArc
 50
270.0
 51
0.0
  0
ARC
  5
355
330
1F
100
AcDbEntity
  8
1
  6
Continuous
 62
     3
100
AcDbCircle
 10
190.5
 20
281.5000000000005
 30
0.0
 40
1.0
100
AcDbArc
 50
0.0
 51
90.0
  0
ARC
  5
356
330
1F
100
AcDbEntity
  8
1
  6
Continuous
 62
     3
100
AcDbCircle
 10
193.5
 20
281.5000000000005
 30
0.0
 40
1.0
100
AcDbArc
 50
90.0
 51
180.0
  0
ARC
  5
357
330
1F
100
AcDbEntity
  8
1
  6
Continuous
 62
     3
100
AcDbCircle
 10
193.5
 20
284.5000000000005
 30
0.0
 40
1.0
100
AcDbArc
 50
180.0
 51
270.0
  0
ARC
  5
358
330
1F
100
AcDbEntity
  8
2
  6
Continuous
 62
     3
100
AcDbCircle
 10
185.285446670176
 20
258.2279364909845
 30
0.0
 40
1.999999999999658
100
AcDbArc
 50
231.6550533435205
 51
355.514625546339
  0
ARC
  5
359
330
1F
100
AcDbEntity
  8
2
  6
Continuous
 62
     3
100
AcDbCircle
 10
187.972622524991
 20
273.3030813825326
 30
0.0
 40
0.5000000000002935
100
AcDbArc
 50
355.514625546424
 51
67.44564256377156
  0
ARC
  5
35A
330
1F
100
AcDbEntity
  8
2
  6
Continuous
 62
     3
100
AcDbCircle
 10
192.0
 20
283.0000000000005
 30
0.0
 40
10.00000000000088
100
AcDbArc
 50
202.5543574361511
 51
247.4456425638535
  0
ARC
  5
35B
330
1F
100
AcDbEntity
  8
2
  6
Continuous
 62
     3
100
AcDbCircle
 10
182.3030813825319
 20
278.9726225249916
 30
0.0
 40
0.4999999999995245
100
AcDbArc
 50
22.55435743611943
 51
94.48537445357219
  0
ARC
  5
35C
330
1F
100
AcDbEntity
  8
2
  6
Continuous
 62
     3
100
AcDbCircle
 10
167.227936490984
 20
276.2854466701765
 30
0.0
 40
2.000000000000366
100
AcDbArc
 50
94.485374453635
 51
218.3449466564619
  0
ARC
  5
35D
330
1F
100
AcDbEntity
  8
2
  6
Continuous
 62
     3
100
AcDbCircle
 10
192.0
 20
283.0000000000005
 30
0.0
 40
11.49999999999999
100
AcDbArc
 50
341.6450253534818
 51
359.9999907415655
  0
ARC
  5
35E
330
1F
100
AcDbEntity
  8
2
  6
Continuous
 62
     3
100
AcDbCircle
 10
226.183542702918
 20
297.1592869975086
 30
0.0
 40
10.00000000000066
100
AcDbArc
 50
179.008197751113
 51
202.5000000000004
  0
ARC
  5
35F
330
1F
100
AcDbEntity
  8
2
  6
Continuous
 62
     3
100
AcDbCircle
 10
192.0
 20
283.0000000000005
 30
0.0
 40
25.00000000000008
100
AcDbArc
 50
259.1838626983028
 51
280.8161373016974
  0
ARC
  5
360
330
1F
100
AcDbEntity
  8
2
  6
Continuous
 62
     3
100
AcDbCircle
 10
192.0
 20
283.0000000000005
 30
0.0
 40
25.00000000000017
100
AcDbArc
 50
349.1838626983028
 51
10.81613730169756
  0
ARC
  5
361
330
1F
100
AcDbEntity
  8
2
  6
Continuous
 62
     3
100
AcDbCircle
 10
192.0
 20
283.0000000000005
 30
0.0
 40
25.0000000000001
100
AcDbArc
 50
79.1838626983026
 51
100.8161373016972
  0
ARC
  5
362
330
1F
100
AcDbEntity
  8
2
  6
Continuous
 62
     3
100
AcDbCircle
 10
192.0
 20
283.0000000000005
 30
0.0
 40
25.0000000000002
100
AcDbArc
 50
169.1838626983024
 51
190.8161373016972
  0
ARC
  5
363
330
1F
100
AcDbEntity
  8
2
  6
Continuous
 62
     3
100
AcDbCircle
 10
192.0
 20
283.0000000000005
 30
0.0
 40
11.50000000000015
100
AcDbArc
 50
359.9999907415655
 51
18.35497464651845
  0
ARC
  5
364
330
1F
100
AcDbEntity
  8
2
  6
Continuous
 62
     3
100
AcDbCircle
 10
192.0
 20
283.0000000000005
 30
0.0
 40
11.50000000000002
100
AcDbArc
 50
71.64502535348142
 51
108.354974646518
  0
ARC
  5
365
330
1F
100
AcDbEntity
  8
2
  6
Continuous
 62
     3
100
AcDbCircle
 10
192.0
 20
283.0000000000005
 30
0.0
 40
11.4999999999999
100
AcDbArc
 50
161.6450253534814
 51
198.3549746465183
  0
ARC
  5
366
330
1F
100
AcDbEntity
  8
2
  6
Continuous
 62
     3
100
AcDbCircle
 10
192.0
 20
283.0000000000005
 30
0.0
 40
11.49999999999998
100
AcDbArc
 50
251.645025353482
 51
288.3549746465186
  0
ARC
  5
367
330
1F
100
AcDbEntity
  8
2
  6
Continuous
 62
     3
100
AcDbCircle
 10
196.0273774750089
 20
292.6969186174684
 30
0.0
 40
0.5000000000001129
100
AcDbArc
 50
175.5146255463962
 51
247.4456425639193
  0
ARC
  5
368
330
1F
100
AcDbEntity
  8
2
  6
Continuous
 62
     3
100
AcDbCircle
 10
192.0
 20
283.0000000000005
 30
0.0
 40
29.00000000000007
100
AcDbArc
 50
351.9264004075586
 51
8.07359959244148
  0
ARC
  5
369
330
1F
100
AcDbEntity
  8
2
  6
Continuous
 62
     3
100
AcDbCircle
 10
215.7621234299099
 20
286.3706809551976
 30
0.0
 40
5.000000000000044
100
AcDbArc
 50
8.07359959244613
 51
45.9918022488891
  0
ARC
  5
36A
330
1F
100
AcDbEntity
  8
2
  6
Continuous
 62
     3
100
AcDbCircle
 10
226.183542702918
 20
297.1592869975086
 30
0.0
 40
10.00000000000019
100
AcDbArc
 50
202.5000000000004
 51
225.9918022488873
  0
ARC
  5
36B
330
1F
100
AcDbEntity
  8
2
  6
Continuous
 62
     3
100
AcDbCircle
 10
211.185789973317
 20
297.4189272520446
 30
0.0
 40
5.000000000000348
100
AcDbArc
 50
359.0081977511111
 51
36.92640040755106
  0
ARC
  5
36C
330
1F
100
AcDbEntity
  8
2
  6
Continuous
 62
     3
100
AcDbCircle
 10
192.0
 20
283.0000000000005
 30
0.0
 40
28.99999999999958
100
AcDbArc
 50
36.92640040755722
 51
53.07359959244285
  0
ARC
  5
36D
330
1F
100
AcDbEntity
  8
2
  6
Continuous
 62
     3
100
AcDbCircle
 10
206.4189272520439
 20
302.1857899733186
 30
0.0
 40
4.999999999999523
100
AcDbArc
 50
53.07359959243956
 51
90.99180224888522
  0
ARC
  5
36E
330
1F
100
AcDbEntity
  8
2
  6
Continuous
 62
     3
100
AcDbCircle
 10
206.1592869975079
 20
317.1835427029175
 30
0.0
 40
9.99999999999995
100
AcDbArc
 50
224.0081977511128
 51
270.9918022488889
  0
ARC
  5
36F
330
1F
100
AcDbEntity
  8
2
  6
Continuous
 62
     3
100
AcDbCircle
 10
195.370680955197
 20
306.7621234299096
 30
0.0
 40
5.00000000000033
100
AcDbArc
 50
44.00819775111021
 51
81.92640040755498
  0
ARC
  5
370
330
1F
100
AcDbEntity
  8
2
  6
Continuous
 62
     3
100
AcDbCircle
 10
192.0
 20
283.0000000000005
 30
0.0
 40
28.99999999999993
100
AcDbArc
 50
81.92640040755865
 51
98.07359959244158
  0
ARC
  5
371
330
1F
100
AcDbEntity
  8
2
  6
Continuous
 62
     3
100
AcDbCircle
 10
188.629319044802
 20
306.7621234299096
 30
0.0
 40
5.000000000000596
100
AcDbArc
 50
98.07359959243503
 51
135.9918022488905
  0
ARC
  5
372
330
1F
100
AcDbEntity
  8
2
  6
Continuous
 62
     3
100
AcDbCircle
 10
177.840713002492
 20
317.1835427029175
 30
0.0
 40
9.999999999999556
100
AcDbArc
 50
269.0081977511123
 51
315.9918022488832
  0
ARC
  5
373
330
1F
100
AcDbEntity
  8
2
  6
Continuous
 62
     3
100
AcDbCircle
 10
177.5810727479559
 20
302.1857899733186
 30
0.0
 40
4.999999999999353
100
AcDbArc
 50
89.00819775111088
 51
126.9264004075745
  0
ARC
  5
374
330
1F
100
AcDbEntity
  8
2
  6
Continuous
 62
     3
100
AcDbCircle
 10
192.0
 20
283.0000000000005
 30
0.0
 40
28.99999999999945
100
AcDbArc
 50
126.92640040756
 51
143.0735995924445
  0
ARC
  5
375
330
1F
100
AcDbEntity
  8
2
  6
Continuous
 62
     3
100
AcDbCircle
 10
172.8142100266829
 20
297.4189272520446
 30
0.0
 40
4.999999999999607
100
AcDbArc
 50
143.0735995924578
 51
180.9918022488889
  0
ARC
  5
376
330
1F
100
AcDbEntity
  8
2
  6
Continuous
 62
     3
100
AcDbCircle
 10
157.8164572970829
 20
297.1592869975086
 30
0.0
 40
9.999999999999499
100
AcDbArc
 50
314.0081977511089
 51
0.99180224888706
  0
ARC
  5
377
330
1F
100
AcDbEntity
  8
2
  6
Continuous
 62
     3
100
AcDbCircle
 10
157.8164572970829
 20
268.8407130024915
 30
0.0
 40
9.999999999999737
100
AcDbArc
 50
359.0081977511181
 51
45.99180224889471
  0
ARC
  5
378
330
1F
100
AcDbEntity
  8
2
  6
Continuous
 62
     3
100
AcDbCircle
 10
172.8142100266821
 20
268.5810727479556
 30
0.0
 40
4.999999999999453
100
AcDbArc
 50
179.0081977511018
 51
216.9264004075586
  0
ARC
  5
379
330
1F
100
AcDbEntity
  8
2
  6
Continuous
 62
     3
100
AcDbCircle
 10
192.0
 20
283.0000000000005
 30
0.0
 40
29.00000000000029
100
AcDbArc
 50
216.9264004075587
 51
233.0735995924426
  0
ARC
  5
37A
330
1F
100
AcDbEntity
  8
2
  6
Continuous
 62
     3
100
AcDbCircle
 10
177.5810727479559
 20
263.8142100266826
 30
0.0
 40
4.999999999999528
100
AcDbArc
 50
233.0735995924416
 51
270.9918022488889
  0
ARC
  5
37B
330
1F
100
AcDbEntity
  8
2
  6
Continuous
 62
     3
100
AcDbCircle
 10
177.840713002492
 20
248.8164572970826
 30
0.0
 40
9.99999999999995
100
AcDbArc
 50
44.00819775111279
 51
90.99180224888774
  0
ARC
  5
37C
330
1F
100
AcDbEntity
  8
2
  6
Continuous
 62
     3
100
AcDbCircle
 10
188.629319044802
 20
259.2378765700905
 30
0.0
 40
4.999999999999677
100
AcDbArc
 50
224.0081977511174
 51
261.9264004075634
  0
ARC
  5
37D
330
1F
100
AcDbEntity
  8
2
  6
Continuous
 62
     3
100
AcDbCircle
 10
192.0
 20
283.0000000000005
 30
0.0
 40
28.99999999999989
100
AcDbArc
 50
261.9264004075584
 51
278.0735995924414
  0
ARC
  5
37E
330
1F
100
AcDbEntity
  8
2
  6
Continuous
 62
     3
100
AcDbCircle
 10
195.3706809551979
 20
259.2378765700905
 30
0.0
 40
4.999999999999635
100
AcDbArc
 50
278.0735995924362
 51
315.9918022488753
  0
ARC
  5
37F
330
1F
100
AcDbEntity
  8
2
  6
Continuous
 62
     3
100
AcDbCircle
 10
206.1592869975079
 20
248.8164572970826
 30
0.0
 40
10.00000000000058
100
AcDbArc
 50
89.00819775111123
 51
135.9918022488908
  0
ARC
  5
380
330
1F
100
AcDbEntity
  8
2
  6
Continuous
 62
     3
100
AcDbCircle
 10
206.4189272520439
 20
263.8142100266826
 30
0.0
 40
4.999999999999405
100
AcDbArc
 50
269.0081977511148
 51
306.9264004075596
  0
ARC
  5
381
330
1F
100
AcDbEntity
  8
2
  6
Continuous
 62
     3
100
AcDbCircle
 10
192.0
 20
283.0000000000005
 30
0.0
 40
28.99999999999962
100
AcDbArc
 50
306.9264004075572
 51
323.0735995924412
  0
ARC
  5
382
330
1F
100
AcDbEntity
  8
2
  6
Continuous
 62
     3
100
AcDbCircle
 10
211.185789973317
 20
268.5810727479565
 30
0.0
 40
5.00000000000087
100
AcDbArc
 50
323.0735995924385
 51
0.99180224888762
  0
ARC
  5
383
330
1F
100
AcDbEntity
  8
2
  6
Continuous
 62
     3
100
AcDbCircle
 10
226.183542702918
 20
268.8407130024915
 30
0.0
 40
10.00000000000083
100
AcDbArc
 50
134.0081977511089
 51
180.9918022488818
  0
ARC
  5
384
330
1F
100
AcDbEntity
  8
2
  6
Continuous
 62
     3
100
AcDbCircle
 10
215.7621234299099
 20
279.6293190448025
 30
0.0
 40
4.999999999999654
100
AcDbArc
 50
314.0081977511186
 51
351.9264004075649
  0
ARC
  5
385
330
1F
100
AcDbEntity
  8
2
  6
Continuous
 62
     3
100
AcDbCircle
 10
198.7145533298239
 20
258.2279364909845
 30
0.0
 40
2.000000000000409
100
AcDbArc
 50
184.4853744536611
 51
308.3449466564664
  0
ARC
  5
386
330
1F
100
AcDbEntity
  8
2
  6
Continuous
 62
     3
100
AcDbCircle
 10
196.0273774750089
 20
273.3030813825326
 30
0.0
 40
0.4999999999999146
100
AcDbArc
 50
112.5543574362525
 51
184.4853744535778
  0
ARC
  5
387
330
1F
100
AcDbEntity
  8
2
  6
Continuous
 62
     3
100
AcDbCircle
 10
192.0
 20
283.0000000000005
 30
0.0
 40
10.00000000000033
100
AcDbArc
 50
292.5543574361449
 51
337.4456425638464
  0
ARC
  5
388
330
1F
100
AcDbEntity
  8
2
  6
Continuous
 62
     3
100
AcDbCircle
 10
201.6969186174678
 20
278.9726225249916
 30
0.0
 40
0.5000000000003024
100
AcDbArc
 50
85.51462554641098
 51
157.4456425639156
  0
ARC
  5
389
330
1F
100
AcDbEntity
  8
2
  6
Continuous
 62
     3
100
AcDbCircle
 10
216.7720635090159
 20
276.2854466701765
 30
0.0
 40
1.999999999999635
100
AcDbArc
 50
321.65505334352
 51
85.51462554636501
  0
ARC
  5
38A
330
1F
100
AcDbEntity
  8
2
  6
Continuous
 62
     3
100
AcDbCircle
 10
216.7720635090159
 20
289.7145533298236
 30
0.0
 40
1.999999999999346
100
AcDbArc
 50
274.4853744536373
 51
38.34494665649571
  0
ARC
  5
38B
330
1F
100
AcDbEntity
  8
2
  6
Continuous
 62
     3
100
AcDbCircle
 10
201.6969186174678
 20
287.0273774750095
 30
0.0
 40
0.50000000000063
100
AcDbArc
 50
202.5543574361867
 51
274.48537445359
  0
ARC
  5
38C
330
1F
100
AcDbEntity
  8
2
  6
Continuous
 62
     3
100
AcDbCircle
 10
192.0
 20
283.0000000000005
 30
0.0
 40
9.99999999999951
100
AcDbArc
 50
22.55435743614875
 51
67.44564256384643
  0
ARC
  5
38D
330
1F
100
AcDbEntity
  8
2
  6
Continuous
 62
     3
100
AcDbCircle
 10
196.0273774750089
 20
292.6969186174684
 30
0.0
 40
0.5000000000001129
100
AcDbArc
 50
175.5146255463962
 51
247.4456425639193
  0
ARC
  5
38E
330
1F
100
AcDbEntity
  8
2
  6
Continuous
 62
     3
100
AcDbCircle
 10
198.7145533298239
 20
307.7720635090166
 30
0.0
 40
1.999999999999799
100
AcDbArc
 50
51.65505334351536
 51
175.5146255463682
  0
ARC
  5
38F
330
1F
100
AcDbEntity
  8
2
  6
Continuous
 62
     3
100
AcDbCircle
 10
185.285446670176
 20
307.7720635090166
 30
0.0
 40
2.000000000000357
100
AcDbArc
 50
4.48537445363176
 51
128.3449466564624
  0
ARC
  5
390
330
1F
100
AcDbEntity
  8
2
  6
Continuous
 62
     3
100
AcDbCircle
 10
187.972622524991
 20
292.6969186174675
 30
0.0
 40
0.4999999999998798
100
AcDbArc
 50
292.5543574362259
 51
4.4853744537059
  0
ARC
  5
391
330
1F
100
AcDbEntity
  8
2
  6
Continuous
 62
     3
100
AcDbCircle
 10
192.0
 20
283.0000000000005
 30
0.0
 40
9.99999999999951
100
AcDbArc
 50
112.5543574361487
 51
157.4456425638537
  0
ARC
  5
392
330
1F
100
AcDbEntity
  8
2
  6
Continuous
 62
     3
100
AcDbCircle
 10
182.3030813825319
 20
287.0273774750095
 30
0.0
 40
0.5000000000001713
100
AcDbArc
 50
265.514625546436
 51
337.4456425637783
  0
ARC
  5
393
330
1F
100
AcDbEntity
  8
2
  6
Continuous
 62
     3
100
AcDbCircle
 10
167.227936490984
 20
289.7145533298236
 30
0.0
 40
2.000000000000449
100
AcDbArc
 50
141.655053343501
 51
265.5146255463335
  0
ARC
  5
394
330
1F
100
AcDbEntity
  8
2
  6
Continuous
 62
     3
100
AcDbCircle
 10
192.0
 20
283.0000000000005
 30
0.0
 40
29.00000000000098
100
AcDbArc
 50
171.9264004075588
 51
188.0735995924411
  0
ARC
  5
395
330
1F
100
AcDbEntity
  8
2
  6
Continuous
 62
     3
100
AcDbCircle
 10
168.23787657009
 20
286.3706809551976
 30
0.0
 40
5.00000000000029
100
AcDbArc
 50
134.0081977511102
 51
171.9264004075552
  0
ARC
  5
396
330
1F
100
AcDbEntity
  8
2
  6
Continuous
 62
     3
100
AcDbCircle
 10
168.23787657009
 20
279.6293190448025
 30
0.0
 40
5.000000000000725
100
AcDbArc
 50
188.0735995924338
 51
225.9918022488825
  0
ARC
  5
397
330
1F
100
AcDbEntity
  8
2
  6
Continuous
 62
     3
100
AcDbCircle
 10
361.0
 20
132.64575131106
 30
0.0
 40
3.999999999996961
100
AcDbArc
 50
318.5903778907785
 51
0.0
  0
ARC
  5
398
330
1F
100
AcDbEntity
  8
2
  6
Continuous
 62
     3
100
AcDbCircle
 10
329.0
 20
132.64575131106
 30
0.0
 40
4.0
100
AcDbArc
 50
180.0
 51
221.409622109224
  0
ARC
  5
399
330
1F
100
AcDbEntity
  8
2
  6
Continuous
 62
     3
100
AcDbCircle
 10
179.009618943234
 20
115.567631645176
 30
0.0
 40
20.43236835482418
100
AcDbArc
 50
77.7648215274436
 51
102.2351784726509
  0
ARC
  5
39A
330
1F
100
AcDbEntity
  8
2
  6
Continuous
 62
     3
100
AcDbCircle
 10
191.999999999998
 20
54.9666790037686
 30
0.0
 40
81.03332099623157
100
AcDbArc
 50
83.86492541601268
 51
96.13507458398665
  0
ARC
  5
39B
330
1F
100
AcDbEntity
  8
2
  6
Continuous
 62
     3
100
AcDbCircle
 10
204.990381056765
 20
115.567631645161
 30
0.0
 40
20.43236835483819
100
AcDbArc
 50
77.76482152746077
 51
102.235178472553
  0
ARC
  5
39C
330
1F
100
AcDbEntity
  8
2
  6
Continuous
 62
     3
100
AcDbCircle
 10
210.5
 20
133.77029414592
 30
0.0
 40
1.5
100
AcDbArc
 50
0.0
 51
78.6900675259123
  0
ARC
  5
39D
330
1F
100
AcDbEntity
  8
2
  6
Continuous
 62
     3
100
AcDbCircle
 10
173.5
 20
133.77029414592
 30
0.0
 40
1.499999999999964
100
AcDbArc
 50
101.3099324740877
 51
180.0
  0
ARC
  5
39E
330
1F
100
AcDbEntity
  8
2
  6
Continuous
 62
     3
100
AcDbCircle
 10
176.0
 20
132.64575131106
 30
0.0
 40
4.0
100
AcDbArc
 50
180.0
 51
221.409622109224
  0
ARC
  5
39F
330
1F
100
AcDbEntity
  8
2
  6
Continuous
 62
     3
100
AcDbCircle
 10
208.0
 20
132.64575131106
 30
0.0
 40
3.999999999996961
100
AcDbArc
 50
318.5903778907785
 51
0.0
  0
ARC
  5
3A0
330
1F
100
AcDbEntity
  8
2
  6
Continuous
 62
     3
100
AcDbCircle
 10
166.32132034356
 20
299.2500000000005
 30
0.0
 40
1.500000000000253
100
AcDbArc
 50
225.0
 51
270.0
  0
ARC
  5
3A1
330
1F
100
AcDbEntity
  8
2
  6
Continuous
 62
     3
100
AcDbCircle
 10
166.32132034356
 20
266.7500000000005
 30
0.0
 40
1.5
100
AcDbArc
 50
90.0
 51
135.0
  0
ARC
  5
3A2
330
1F
100
AcDbEntity
  8
2
  6
Continuous
 62
     3
100
AcDbCircle
 10
217.67867965644
 20
299.2500000000005
 30
0.0
 40
1.5
100
AcDbArc
 50
270.0
 51
315.0
  0
ARC
  5
3A3
330
1F
100
AcDbEntity
  8
2
  6
Continuous
 62
     3
100
AcDbCircle
 10
217.67867965644
 20
266.7500000000005
 30
0.0
 40
1.500000000000253
100
AcDbArc
 50
45.0
 51
90.0
  0
ARC
  5
3A4
330
1F
100
AcDbEntity
  8
2
  6
Continuous
 62
     3
100
AcDbCircle
 10
216.88850136107
 20
77.2500000000003
 30
0.0
 40
9.999999999999702
100
AcDbArc
 50
90.0
 51
109.3809001271266
  0
ARC
  5
3A5
330
1F
100
AcDbEntity
  8
2
  6
Continuous
 62
     3
100
AcDbCircle
 10
217.67867965644
 20
85.7499999999999
 30
0.0
 40
1.500000000000324
100
AcDbArc
 50
45.00000000000269
 51
90.0
  0
ARC
  5
3A6
330
1F
100
AcDbEntity
  8
2
  6
Continuous
 62
     3
100
AcDbCircle
 10
217.67867965644
 20
118.25
 30
0.0
 40
1.5
100
AcDbArc
 50
270.0
 51
315.0
  0
ARC
  5
3A7
330
1F
100
AcDbEntity
  8
2
  6
Continuous
 62
     3
100
AcDbCircle
 10
212.5
 20
119.26136261574
 30
0.0
 40
1.5
100
AcDbArc
 50
180.0
 51
252.0449556961042
  0
ARC
  5
3A8
330
1F
100
AcDbEntity
  8
2
  6
Continuous
 62
     3
100
AcDbCircle
 10
192.000000000027
 20
56.0000000000777
 30
0.0
 40
64.99999999991756
100
AcDbArc
 50
70.61909987286211
 51
72.0449556961635
  0
ARC
  5
3A9
330
1F
100
AcDbEntity
  8
2
  6
Continuous
 62
     3
100
AcDbCircle
 10
216.88850136107
 20
126.75
 30
0.0
 40
10.00000000000007
100
AcDbArc
 50
250.6190998728742
 51
270.0
  0
ARC
  5
3AA
330
1F
100
AcDbEntity
  8
2
  6
Continuous
 62
     3
100
AcDbCircle
 10
171.5
 20
119.26136261574
 30
0.0
 40
1.500000000000965
100
AcDbArc
 50
287.9550443038839
 51
0.0
  0
ARC
  5
3AB
330
1F
100
AcDbEntity
  8
2
  6
Continuous
 62
     3
100
AcDbCircle
 10
167.11149863893
 20
126.75
 30
0.0
 40
10.0
100
AcDbArc
 50
270.0
 51
289.3809001271258
  0
ARC
  5
3AC
330
1F
100
AcDbEntity
  8
2
  6
Continuous
 62
     3
100
AcDbCircle
 10
192.000000000027
 20
56.0000000000777
 30
0.0
 40
64.99999999993454
100
AcDbArc
 50
107.9550443038821
 51
109.3809001271828
  0
ARC
  5
3AD
330
1F
100
AcDbEntity
  8
2
  6
Continuous
 62
     3
100
AcDbCircle
 10
167.11149863893
 20
77.2500000000003
 30
0.0
 40
9.999999999999506
100
AcDbArc
 50
70.61909987287304
 51
90.0
  0
ARC
  5
3AE
330
1F
100
AcDbEntity
  8
2
  6
Continuous
 62
     3
100
AcDbCircle
 10
166.32132034356
 20
85.7500000000001
 30
0.0
 40
1.499999999999901
100
AcDbArc
 50
90.0
 51
135.0000000000081
  0
ARC
  5
3AF
330
1F
100
AcDbEntity
  8
2
  6
Continuous
 62
     3
100
AcDbCircle
 10
192.0
 20
148.0
 30
0.0
 40
65.0000000000001
100
AcDbArc
 50
250.6190998728625
 51
289.3809001271376
  0
ARC
  5
3B0
330
1F
100
AcDbEntity
  8
2
  6
Continuous
 62
     3
100
AcDbCircle
 10
166.32132034356
 20
118.25
 30
0.0
 40
1.500000000000253
100
AcDbArc
 50
225.0
 51
270.0
  0
ARC
  5
3B1
330
1F
100
AcDbEntity
  8
2
  6
Continuous
 62
     3
100
AcDbCircle
 10
203.25
 20
150.86602540378
 30
0.0
 40
1.5
100
AcDbArc
 50
180.0
 51
239.9999999998724
  0
ARC
  5
3B2
330
1F
100
AcDbEntity
  8
2
  6
Continuous
 62
     3
100
AcDbCircle
 10
180.75
 20
150.86602540378
 30
0.0
 40
1.499999999994216
100
AcDbArc
 50
300.0000000001276
 51
0.0
  0
ARC
  5
3B3
330
1F
100
AcDbEntity
  8
2
  6
Continuous
 62
     3
100
AcDbCircle
 10
356.25
 20
150.86602540378
 30
0.0
 40
1.5
100
AcDbArc
 50
180.0
 51
239.9999999998724
  0
ARC
  5
3B4
330
1F
100
AcDbEntity
  8
2
  6
Continuous
 62
     3
100
AcDbCircle
 10
333.75
 20
150.86602540378
 30
0.0
 40
1.499999999994216
100
AcDbArc
 50
300.0000000001276
 51
0.0
  0
ARC
  5
3B5
330
1F
100
AcDbEntity
  8
2
  6
Continuous
 62
     3
100
AcDbCircle
 10
337.5
 20
75.1669965505528
 30
0.0
 40
60.83300344944575
100
AcDbArc
 50
82.91807970946273
 51
97.08192029053636
  0
ARC
  5
3B6
330
1F
100
AcDbEntity
  8
2
  6
Continuous
 62
     3
100
AcDbCircle
 10
352.500000000002
 20
75.1669965506771
 30
0.0
 40
60.83300344932166
100
AcDbArc
 50
82.91807970945388
 51
97.08192029054612
  0
ARC
  5
3B7
330
1F
100
AcDbEntity
  8
2
  6
Continuous
 62
     3
100
AcDbCircle
 10
363.5
 20
133.77029414592
 30
0.0
 40
1.5
100
AcDbArc
 50
0.0
 51
78.69006752591336
  0
ARC
  5
3B8
330
1F
100
AcDbEntity
  8
2
  6
Continuous
 62
     3
100
AcDbCircle
 10
326.5
 20
133.77029414592
 30
0.0
 40
1.499999999999958
100
AcDbArc
 50
101.3099324740867
 51
180.0
  0
ARC
  5
3B9
330
1F
100
AcDbEntity
  8
3
  6
Continuous
 62
     3
100
AcDbCircle
 10
192.0
 20
118.3086570489314
 30
0.0
 40
28.66025403782505
100
AcDbArc
 50
72.4120462259948
 51
107.5879537740052
  0
ARC
  5
3BA
330
1F
100
AcDbEntity
  8
3
  6
Continuous
 62
     3
100
AcDbCircle
 10
179.009618943233
 20
139.3014428414883
 30
0.0
 40
7.667468245268156
100
AcDbArc
 50
55.61575253194405
 51
124.3842474680558
  0
ARC
  5
3BB
330
1F
100
AcDbEntity
  8
3
  6
Continuous
 62
     3
100
AcDbCircle
 10
204.9903810567671
 20
139.3014428414883
 30
0.0
 40
7.667468245268092
100
AcDbArc
 50
55.61575253194474
 51
124.3842474680565
  0
ARC
  5
3BC
330
1F
100
AcDbEntity
  8
1
  6
Continuous
 62
     3
100
AcDbCircle
 10
352.5
 20
125.3062523131122
 30
0.0
 40
21.662658773644
100
AcDbArc
 50
69.74384199957512
 51
110.2561580004249
  0
ARC
  5
3BD
330
1F
100
AcDbEntity
  8
1
  6
Continuous
 62
     3
100
AcDbCircle
 10
337.5
 20
125.3062523131122
 30
0.0
 40
21.662658773644
100
AcDbArc
 50
69.74384199957512
 51
110.2561580004249
  0
ARC
  5
3BE
330
1F
100
AcDbEntity
  8
1
  6
Continuous
 62
     3
100
AcDbCircle
 10
294.6393677799569
 20
292.5000000000005
 30
0.0
 40
27.4393677799569
100
AcDbArc
 50
159.7438419995812
 51
200.2561580004188
  0
ARC
  5
3BF
330
1F
100
AcDbEntity
  8
1
  6
Continuous
 62
     3
100
AcDbCircle
 10
294.6393677799569
 20
273.5000000000005
 30
0.0
 40
27.4393677799569
100
AcDbArc
 50
159.7438419995812
 51
200.2561580004188
  0
ARC
  5
3C0
330
1F
100
AcDbEntity
  8
1
  6
Continuous
 62
     3
100
AcDbCircle
 10
261.7606322200431
 20
273.5000000000005
 30
0.0
 40
27.4393677799569
100
AcDbArc
 50
339.7438419995812
 51
20.25615800041885
  0
ARC
  5
3C1
330
1F
100
AcDbEntity
  8
1
  6
Continuous
 62
     3
100
AcDbCircle
 10
261.7606322200431
 20
292.5000000000005
 30
0.0
 40
27.4393677799569
100
AcDbArc
 50
339.7438419995812
 51
20.25615800041885
  0
ARC
  5
3C2
330
1F
100
AcDbEntity
  8
1
  6
Continuous
 62
     3
100
AcDbCircle
 10
215.7481322200432
 20
292.5000000000005
 30
0.0
 40
27.4393677799568
100
AcDbArc
 50
339.743841999581
 51
20.25615800041893
  0
ARC
  5
3C3
330
1F
100
AcDbEntity
  8
1
  6
Continuous
 62
     3
100
AcDbCircle
 10
215.7481322200432
 20
273.5000000000005
 30
0.0
 40
27.4393677799568
100
AcDbArc
 50
339.743841999581
 51
20.25615800041893
  0
ARC
  5
3C4
330
1F
100
AcDbEntity
  8
1
  6
Continuous
 62
     3
100
AcDbCircle
 10
248.6268677799569
 20
273.5000000000005
 30
0.0
 40
27.4393677799569
100
AcDbArc
 50
159.7438419995812
 51
200.2561580004188
  0
ARC
  5
3C5
330
1F
100
AcDbEntity
  8
1
  6
Continuous
 62
     3
100
AcDbCircle
 10
248.6268677799569
 20
292.5000000000005
 30
0.0
 40
27.4393677799569
100
AcDbArc
 50
159.7438419995812
 51
200.2561580004188
  0
ARC
  5
3C6
330
1F
100
AcDbEntity
  8
1
  6
Continuous
 62
     3
100
AcDbCircle
 10
206.8845115520641
 20
102.0
 30
0.0
 40
36.30298844793589
100
AcDbArc
 50
0.0
 51
17.58795377399416
  0
ARC
  5
3C7
330
1F
100
AcDbEntity
  8
1
  6
Continuous
 62
     3
100
AcDbCircle
 10
233.4753735559921
 20
118.454482671904
 30
0.0
 40
9.712126444007557
100
AcDbArc
 50
325.6157525319595
 51
25.6157525319587
  0
ARC
  5
3C8
330
1F
100
AcDbEntity
  8
1
  6
Continuous
 62
     3
100
AcDbCircle
 10
257.4904884479361
 20
102.0
 30
0.0
 40
36.30298844793584
100
AcDbArc
 50
162.4120462260059
 51
180.0
  0
ARC
  5
3C9
330
1F
100
AcDbEntity
  8
1
  6
Continuous
 62
     3
100
AcDbCircle
 10
230.8996264440081
 20
118.454482671904
 30
0.0
 40
9.712126444007914
100
AcDbArc
 50
154.3842474680413
 51
214.3842474680405
  0
ARC
  5
3CA
330
1F
100
AcDbEntity
  8
1
  6
Continuous
 62
     3
100
AcDbCircle
 10
230.8996264440081
 20
85.54551732809614
 30
0.0
 40
9.712126444007541
100
AcDbArc
 50
145.6157525319597
 51
205.6157525319589
  0
ARC
  5
3CB
330
1F
100
AcDbEntity
  8
1
  6
Continuous
 62
     3
100
AcDbCircle
 10
257.4904884479361
 20
102.0
 30
0.0
 40
36.30298844793612
100
AcDbArc
 50
180.0
 51
197.587953773994
  0
ARC
  5
3CC
330
1F
100
AcDbEntity
  8
1
  6
Continuous
 62
     3
100
AcDbCircle
 10
233.4753735559921
 20
85.54551732809614
 30
0.0
 40
9.712126444007932
100
AcDbArc
 50
334.3842474680411
 51
34.38424746804034
  0
ARC
  5
3CD
330
1F
100
AcDbEntity
  8
1
  6
Continuous
 62
     3
100
AcDbCircle
 10
206.8845115520641
 20
102.0
 30
0.0
 40
36.30298844793577
100
AcDbArc
 50
342.4120462260061
 51
0.0
  0
ARC
  5
3CE
330
1F
100
AcDbEntity
  8
1
  6
Continuous
 62
     3
100
AcDbCircle
 10
252.897011552064
 20
102.0
 30
0.0
 40
36.30298844793591
100
AcDbArc
 50
342.4120462260061
 51
0.0
  0
ARC
  5
3CF
330
1F
100
AcDbEntity
  8
1
  6
Continuous
 62
     3
100
AcDbCircle
 10
279.4878735559921
 20
85.54551732809614
 30
0.0
 40
9.712126444007932
100
AcDbArc
 50
334.3842474680411
 51
34.38424746804034
  0
ARC
  5
3D0
330
1F
100
AcDbEntity
  8
1
  6
Continuous
 62
     3
100
AcDbCircle
 10
303.5029884479361
 20
102.0
 30
0.0
 40
36.30298844793612
100
AcDbArc
 50
180.0
 51
197.5879537739939
  0
ARC
  5
3D1
330
1F
100
AcDbEntity
  8
1
  6
Continuous
 62
     3
100
AcDbCircle
 10
276.912126444008
 20
85.54551732809614
 30
0.0
 40
9.712126444007541
100
AcDbArc
 50
145.6157525319597
 51
205.6157525319589
  0
ARC
  5
3D2
330
1F
100
AcDbEntity
  8
1
  6
Continuous
 62
     3
100
AcDbCircle
 10
276.912126444008
 20
118.454482671904
 30
0.0
 40
9.712126444007914
100
AcDbArc
 50
154.3842474680413
 51
214.3842474680405
  0
ARC
  5
3D3
330
1F
100
AcDbEntity
  8
1
  6
Continuous
 62
     3
100
AcDbCircle
 10
303.5029884479361
 20
102.0
 30
0.0
 40
36.30298844793595
100
AcDbArc
 50
162.4120462260059
 51
180.0
  0
ARC
  5
3D4
330
1F
100
AcDbEntity
  8
1
  6
Continuous
 62
     3
100
AcDbCircle
 10
279.4878735559921
 20
118.454482671904
 30
0.0
 40
9.712126444007557
100
AcDbArc
 50
325.6157525319595
 51
25.6157525319587
  0
ARC
  5
3D5
330
1F
100
AcDbEntity
  8
1
  6
Continuous
 62
     3
100
AcDbCircle
 10
252.897011552064
 20
102.0
 30
0.0
 40
36.302988447936
100
AcDbArc
 50
0.0
 51
17.5879537739941
  0
ARC
  5
3D6
330
1F
100
AcDbEntity
  8
2
  6
Continuous
 62
     3
100
AcDbCircle
 10
192.0
 20
191.6999999999684
 30
0.0
 40
7.699999999999914
100
AcDbArc
 50
60.8555577722158
 51
119.1444422277781
  0
ARC
  5
3DA
330
1F
100
AcDbEntity
  8
3
  6
DOTTED
 62
     6
100
AcDbCircle
 10
215.0
 20
187.9769910292195
 30
0.0
 40
6.000000000000711
100
AcDbArc
 50
0.0
 51
69.44454780460937
  0
ARC
  5
3DB
330
1F
100
AcDbEntity
  8
3
  6
DOTTED
 62
     6
100
AcDbCircle
 10
192.528719977455
 20
128.0516910787945
 30
0.0
 40
69.99999999999977
100
AcDbArc
 50
69.44454780460552
 51
78.72583613511884
  0
ARC
  5
3DC
330
1F
100
AcDbEntity
  8
3
  6
DOTTED
 62
     6
100
AcDbCircle
 10
203.1836847107049
 20
181.4999999999686
 30
0.0
 40
15.499999999999
100
AcDbArc
 50
78.72583613511901
 51
90.0
  0
ARC
  5
3DD
330
1F
100
AcDbEntity
  8
3
  6
DOTTED
 62
     6
100
AcDbCircle
 10
198.2499999999988
 20
194.4999999999685
 30
0.0
 40
2.5
100
AcDbArc
 50
89.99999999997266
 51
180.0
  0
ARC
  5
3DE
330
1F
100
AcDbEntity
  8
3
  6
DOTTED
 62
     6
100
AcDbCircle
 10
185.7499999999988
 20
194.4999999999675
 30
0.0
 40
2.500000000001194
100
AcDbArc
 50
0.00000000002475
 51
89.99999999997266
  0
ARC
  5
3DF
330
1F
100
AcDbEntity
  8
3
  6
DOTTED
 62
     6
100
AcDbCircle
 10
180.8163152892958
 20
181.4999999999686
 30
0.0
 40
15.5
100
AcDbArc
 50
90.00000000000296
 51
101.2741638648824
  0
ARC
  5
3E0
330
1F
100
AcDbEntity
  8
3
  6
DOTTED
 62
     6
100
AcDbCircle
 10
191.4712800225441
 20
128.0516910787945
 30
0.0
 40
70.0000000000003
100
AcDbArc
 50
101.2741638648802
 51
110.555452195394
  0
ARC
  5
3E1
330
1F
100
AcDbEntity
  8
3
  6
DOTTED
 62
     6
100
AcDbCircle
 10
169.0
 20
187.9769910292195
 30
0.0
 40
5.999999999999551
100
AcDbArc
 50
110.5554521953924
 51
180.0
  0
ARC
  5
3E2
330
1F
100
AcDbEntity
  8
3
  6
DOTTED
 62
     6
100
AcDbCircle
 10
165.5000000000007
 20
181.4999999999685
 30
0.0
 40
2.5
100
AcDbArc
 50
179.999999999998
 51
270.0
  0
ARC
  5
3E3
330
1F
100
AcDbEntity
  8
3
  6
DOTTED
 62
     6
100
AcDbCircle
 10
218.5
 20
181.4999999999685
 30
0.0
 40
2.5
100
AcDbArc
 50
270.0
 51
0.00000000000195
  0
ARC
  5
3E4
330
1F
100
AcDbEntity
  8
3
  6
Continuous
 62
     3
100
AcDbCircle
 10
180.816315289295
 20
187.4999999999685
 30
0.0
 40
15.5
100
AcDbArc
 50
90.0
 51
101.2741638648775
  0
ARC
  5
3E5
330
1F
100
AcDbEntity
  8
3
  6
Continuous
 62
     3
100
AcDbCircle
 10
203.1836847107049
 20
187.4999999999685
 30
0.0
 40
15.49999999999889
100
AcDbArc
 50
78.72583613511893
 51
90.0
  0
ARC
  5
3E6
330
1F
100
AcDbEntity
  8
3
  6
Continuous
 62
     3
100
AcDbCircle
 10
188.8568242562739
 20
187.4999999999685
 30
0.0
 40
2.5
100
AcDbArc
 50
180.0
 51
270.0
  0
ARC
  5
3E7
330
1F
100
AcDbEntity
  8
3
  6
Continuous
 62
     3
100
AcDbCircle
 10
178.5387020515441
 20
187.4999999999685
 30
0.0
 40
2.499999999999204
100
AcDbArc
 50
180.0
 51
270.0
  0
ARC
  5
3E8
330
1F
100
AcDbEntity
  8
3
  6
Continuous
 62
     3
100
AcDbCircle
 10
170.5580463799136
 20
187.4999999999685
 30
0.0
 40
2.500000000000796
100
AcDbArc
 50
180.0
 51
270.0
  0
ARC
  5
3E9
330
1F
100
AcDbEntity
  8
3
  6
Continuous
 62
     3
100
AcDbCircle
 10
166.2841402244918
 20
187.4999999999685
 30
0.0
 40
2.5
100
AcDbArc
 50
180.0
 51
269.9999999999818
  0
ARC
  5
3EA
330
1F
100
AcDbEntity
  8
3
  6
Continuous
 62
     3
100
AcDbCircle
 10
195.143175743725
 20
187.4999999999685
 30
0.0
 40
2.5
100
AcDbArc
 50
270.0
 51
0.0
  0
ARC
  5
3EB
330
1F
100
AcDbEntity
  8
3
  6
Continuous
 62
     3
100
AcDbCircle
 10
205.4612979484559
 20
187.4999999999685
 30
0.0
 40
2.5
100
AcDbArc
 50
270.0
 51
0.0
  0
ARC
  5
3EC
330
1F
100
AcDbEntity
  8
3
  6
Continuous
 62
     3
100
AcDbCircle
 10
213.4419536200869
 20
187.4999999999685
 30
0.0
 40
2.5
100
AcDbArc
 50
270.0
 51
0.0
  0
ARC
  5
3ED
330
1F
100
AcDbEntity
  8
3
  6
Continuous
 62
     3
100
AcDbCircle
 10
217.7158597755091
 20
187.4999999999685
 30
0.0
 40
2.5
100
AcDbArc
 50
270.0
 51
0.0
  0
ARC
  5
3EE
330
1F
100
AcDbEntity
  8
3
  6
Continuous
 62
     3
100
AcDbCircle
 10
192.528719977455
 20
134.0516910787944
 30
0.0
 40
69.99999999999987
100
AcDbArc
 50
69.44454780460555
 51
78.72583613511883
  0
ARC
  5
3EF
330
1F
100
AcDbEntity
  8
3
  6
Continuous
 62
     3
100
AcDbCircle
 10
215.0
 20
193.9769910292194
 30
0.0
 40
6.0
100
AcDbArc
 50
0.0
 51
69.44454780460975
  0
ARC
  5
3F0
330
1F
100
AcDbEntity
  8
3
  6
Continuous
 62
     3
100
AcDbCircle
 10
218.5
 20
187.4999999999685
 30
0.0
 40
2.5
100
AcDbArc
 50
270.0
 51
0.0
  0
ARC
  5
3F1
330
1F
100
AcDbEntity
  8
3
  6
Continuous
 62
     3
100
AcDbCircle
 10
165.5
 20
187.4999999999685
 30
0.0
 40
2.499999999999289
100
AcDbArc
 50
180.0
 51
270.0000000000163
  0
ARC
  5
3F2
330
1F
100
AcDbEntity
  8
3
  6
Continuous
 62
     3
100
AcDbCircle
 10
169.0000000000007
 20
193.9769910292194
 30
0.0
 40
6.000000000000156
100
AcDbArc
 50
110.5554521954048
 51
180.0
  0
ARC
  5
3F3
330
1F
100
AcDbEntity
  8
3
  6
Continuous
 62
     3
100
AcDbCircle
 10
191.4712800225441
 20
134.0516910787944
 30
0.0
 40
70.0000000000001
100
AcDbArc
 50
101.2741638648797
 51
110.5554521953945
  0
CIRCLE
  5
3F6
330
1F
100
AcDbEntity
  8
1
  6
Continuous
 62
     3
100
AcDbCircle
 10
192.0
 20
283.0000000000005
 30
0.0
 40
5.900000000000006
  0
CIRCLE
  5
3F7
330
1F
100
AcDbEntity
  8
2
  6
Continuous
 62
     3
100
AcDbCircle
 10
345.0
 20
102.0
 30
0.0
 40
15.35000000000002
  0
CIRCLE
  5
3F8
330
1F
100
AcDbEntity
  8
2
  6
Continuous
 62
     3
100
AcDbCircle
 10
345.0
 20
102.0
 30
0.0
 40
16.62450000000001
  0
CIRCLE
  5
3F9
330
1F
100
AcDbEntity
  8
2
  6
Continuous
 62
     3
100
AcDbCircle
 10
345.0
 20
102.0
 30
0.0
 40
8.699999999999989
  0
CIRCLE
  5
3FA
330
1F
100
AcDbEntity
  8
1
  6
Continuous
 62
     3
100
AcDbCircle
 10
345.0
 20
102.0
 30
0.0
 40
15.0
  0
CIRCLE
  5
3FB
330
1F
100
AcDbEntity
  8
1
  6
Continuous
 62
     3
100
AcDbCircle
 10
345.0
 20
102.0
 30
0.0
 40
19.00000000000011
  0
LWPOLYLINE
  5
3FC
330
1F
100
AcDbEntity
  8
3
  6
Continuous
 62
     3
100
AcDbPolyline
 90
        4
 70
     0
 43
0.0
 10
356.1836847107049
 20
202.9999999999675
 10
351.25
 20
202.9999999999685
 42
0.41421356237323
 10
348.7499999999988
 20
200.4999999999685
 10
348.75
 20
194.9999999999685
  0
LWPOLYLINE
  5
3FD
330
1F
100
AcDbEntity
  8
3
  6
Continuous
 62
     3
100
AcDbPolyline
 90
        4
 70
     0
 43
0.0
 10
333.816315289295
 20
202.9999999999685
 10
338.75
 20
202.9999999999685
 42
-0.41421356237284
 10
341.25
 20
200.4999999999685
 10
341.25
 20
194.9999999999685
  0
LWPOLYLINE
  5
3FE
330
1F
100
AcDbEntity
  8
3
  6
Continuous
 62
     3
100
AcDbPolyline
 90
        4
 70
     0
 43
0.0
 10
203.1836847107049
 20
202.9999999999675
 10
198.25
 20
202.9999999999685
 42
0.41421356237323
 10
195.7499999999988
 20
200.4999999999685
 10
195.75
 20
194.9999999999685
  0
LWPOLYLINE
  5
3FF
330
1F
100
AcDbEntity
  8
3
  6
Continuous
 62
     3
100
AcDbPolyline
 90
        4
 70
     0
 43
0.0
 10
180.816315289295
 20
202.9999999999685
 10
185.75
 20
202.9999999999685
 42
-0.41421356237284
 10
188.25
 20
200.4999999999685
 10
188.25
 20
194.9999999999685
  0
LWPOLYLINE
  5
400
330
1F
100
AcDbEntity
  8
3
  6
DOTTED
 62
     6
100
AcDbPolyline
 90
        4
 70
     0
 43
0.0
 10
195.7499988060899
 20
192.5188778875016
 42
0.23183944477191
 10
194.653837917418
 20
193.4028805730485
 42
0.11195535934319
 10
189.3461596947621
 20
193.4028653142592
 42
0.2318747639112
 10
188.2499835473007
 20
192.5188626287126
  0
LINE
  5
401
330
1F
100
AcDbEntity
  8
1
 62
     4
100
AcDbLine
 10
157.583948009329
 20
118.45
 30
0.0
 11
154.5053831810488
 21
120.5506962497481
 31
0.0
  0
LINE
  5
402
330
1F
100
AcDbEntity
  8
1
 62
     4
100
AcDbLine
 10
157.583948009329
 20
118.45
 30
0.0
 11
155.9681807857152
 21
121.8085387320566
 31
0.0
  0
LEADER
  5
403
330
1F
100
AcDbEntity
  8
1
  6
Continuous
 62
     4
100
AcDbLeader
  3
Standard
 71
     0
 76
     3
 10
157.583948009329
 20
118.45
 30
0.0
 10
149.183987677464
 20
128.2186650161416
 30
0.0
 10
142.432457983964
 20
128.2186650161416
 30
0.0
  0
LINE
  5
404
330
1F
100
AcDbEntity
  8
1
 62
     4
100
AcDbLine
 10
289.2
 20
102.0
 30
0.0
 11
291.9263449259375
 21
99.45883304750674
 31
0.0
  0
LINE
  5
405
330
1F
100
AcDbEntity
  8
1
 62
     4
100
AcDbLine
 10
289.2
 20
102.0
 30
0.0
 11
290.2905004890941
 21
98.43611240091457
 31
0.0
  0
LEADER
  5
406
330
1F
100
AcDbEntity
  8
1
  6
Continuous
 62
     4
100
AcDbLeader
  3
Standard
 71
     0
 76
     3
 10
289.2
 20
102.0
 30
0.0
 10
297.816012322536
 20
88.2186650161416
 30
0.0
 10
304.743407980054
 20
88.2186650161416
 30
0.0
  0
LINE
  5
407
330
1F
100
AcDbEntity
  8
1
 62
     4
100
AcDbLine
 10
226.416051990671
 20
118.45
 30
0.0
 11
228.0318192142848
 21
121.8085387320566
 31
0.0
  0
LINE
  5
408
330
1F
100
AcDbEntity
  8
1
 62
     4
100
AcDbLine
 10
226.416051990671
 20
118.45
 30
0.0
 11
229.4946168189512
 21
120.5506962497481
 31
0.0
  0
LEADER
  5
409
330
1F
100
AcDbEntity
  8
1
  6
Continuous
 62
     4
100
AcDbLeader
  3
Standard
 71
     0
 76
     3
 10
226.416051990671
 20
118.45
 30
0.0
 10
234.816012322536
 20
128.2186650161416
 30
0.0
 10
241.567542016036
 20
128.2186650161416
 30
0.0
  0
ENDSEC
  0
SECTION
  2
OBJECTS
  0
DICTIONARY
  5
C
330
0
100
AcDbDictionary
281
     1
  3
ACAD_GROUP
350
D
  3
ACAD_LAYOUT
350
1A
  3
ACAD_MATERIAL
350
3B
  3
ACAD_MLEADERSTYLE
350
40C
  3
ACAD_MLINESTYLE
350
17
  3
ACAD_PLOTSETTINGS
350
19
  3
ACAD_PLOTSTYLENAME
350
E
  3
ACAD_VISUALSTYLE
350
2A
  3
AcDbVariableDictionary
350
40A
  0
DICTIONARY
  5
D
102
{ACAD_REACTORS
330
C
102
}
330
C
100
AcDbDictionary
281
     1
  0
DICTIONARY
  5
1A
102
{ACAD_REACTORS
330
C
102
}
330
C
100
AcDbDictionary
281
     1
  3
Layout1
350
1E
  3
Layout2
350
26
  3
Model
350
22
  0
DICTIONARY
  5
3B
102
{ACAD_REACTORS
330
C
102
}
330
C
100
AcDbDictionary
281
     1
  3
ByBlock
350
3D
  3
ByLayer
350
3C
  3
Global
350
3E
  0
DICTIONARY
  5
40C
102
{ACAD_REACTORS
330
C
102
}
330
C
100
AcDbDictionary
281
     1
  0
DICTIONARY
  5
17
102
{ACAD_REACTORS
330
C
102
}
330
C
100
AcDbDictionary
281
     1
  3
Standard
350
18
  0
DICTIONARY
  5
19
102
{ACAD_REACTORS
330
C
102
}
330
C
100
AcDbDictionary
281
     1
  0
ACDBDICTIONARYWDFLT
  5
E
102
{ACAD_REACTORS
330
C
102
}
330
C
100
AcDbDictionary
281
     1
  3
Normal
350
F
100
AcDbDictionaryWithDefault
340
F
  0
DICTIONARY
  5
2A
102
{ACAD_REACTORS
330
C
102
}
330
C
100
AcDbDictionary
281
     1
  3
2dWireframe
350
2F
  3
3D Hidden
350
31
  3
3dWireframe
350
30
  3
Basic
350
32
  3
Brighten
350
36
  3
ColorChange
350
3A
  3
Conceptual
350
34
  3
Dim
350
35
  3
Facepattern
350
39
  3
Flat
350
2B
  3
FlatWithEdges
350
2C
  3
Gouraud
350
2D
  3
GouraudWithEdges
350
2E
  3
Linepattern
350
38
  3
Realistic
350
33
  3
Thicken
350
37
  0
DICTIONARY
  5
40A
102
{ACAD_REACTORS
330
C
102
}
330
C
100
AcDbDictionary
281
     1
  3
DIMASSOC
350
40D
  3
HIDETEXT
350
40E
  0
LAYOUT
  5
1E
102
{ACAD_REACTORS
330
1A
102
}
330
1A
100
AcDbPlotSettings
  1

  2
none_device
  4

  6

 40
0.0
 41
0.0
 42
0.0
 43
0.0
 44
0.0
 45
0.0
 46
0.0
 47
0.0
 48
0.0
 49
0.0
140
0.0
141
0.0
142
1.0
143
1.0
 70
   688
 72
     0
 73
     0
 74
     5
  7

 75
    16
147
1.0
148
0.0
149
0.0
100
AcDbLayout
  1
Layout1
 70
     1
 71
     1
 10
0.0
 20
0.0
 11
12.0
 21
9.0
 12
0.0
 22
0.0
 32
0.0
 14
1.00000000000000E+20
 24
1.00000000000000E+20
 34
1.00000000000000E+20
 15
-1.00000000000000E+20
 25
-1.00000000000000E+20
 35
-1.00000000000000E+20
146
0.0
 13
0.0
 23
0.0
 33
0.0
 16
1.0
 26
0.0
 36
0.0
 17
0.0
 27
1.0
 37
0.0
 76
     0
330
1B
  0
LAYOUT
  5
26
102
{ACAD_REACTORS
330
1A
102
}
330
1A
100
AcDbPlotSettings
  1

  2
none_device
  4

  6

 40
0.0
 41
0.0
 42
0.0
 43
0.0
 44
0.0
 45
0.0
 46
0.0
 47
0.0
 48
0.0
 49
0.0
140
0.0
141
0.0
142
1.0
143
1.0
 70
   688
 72
     0
 73
     0
 74
     5
  7

 75
    16
147
1.0
148
0.0
149
0.0
100
AcDbLayout
  1
Layout2
 70
     1
 71
     2
 10
0.0
 20
0.0
 11
0.0
 21
0.0
 12
0.0
 22
0.0
 32
0.0
 14
0.0
 24
0.0
 34
0.0
 15
0.0
 25
0.0
 35
0.0
146
0.0
 13
0.0
 23
0.0
 33
0.0
 16
1.0
 26
0.0
 36
0.0
 17
0.0
 27
1.0
 37
0.0
 76
     0
330
23
  0
LAYOUT
  5
22
102
{ACAD_REACTORS
330
1A
102
}
330
1A
100
AcDbPlotSettings
  1

  2
none_device
  4

  6

 40
0.0
 41
0.0
 42
0.0
 43
0.0
 44
0.0
 45
0.0
 46
0.0
 47
0.0
 48
0.0
 49
0.0
140
0.0
141
0.0
142
1.0
143
1.0
 70
  1712
 72
     0
 73
     0
 74
     0
  7

 75
     0
147
1.0
148
0.0
149
0.0
100
AcDbLayout
  1
Model
 70
     1
 71
     0
 10
0.0
 20
0.0
 11
12.0
 21
9.0
 12
0.0
 22
0.0
 32
0.0
 14
142.432457983964
 24
60.08913608739557
 34
0.0
 15
374.0
 25
315.0000000000006
 35
0.0
146
0.0
 13
0.0
 23
0.0
 33
0.0
 16
1.0
 26
0.0
 36
0.0
 17
0.0
 27
1.0
 37
0.0
 76
     0
330
1F
331
29
  0
MATERIAL
  5
3D
102
{ACAD_REACTORS
330
3B
102
}
102
{ACAD_XDICTIONARY
360
431
102
}
330
3B
100
AcDbMaterial
  1
ByBlock
  0
MATERIAL
  5
3C
102
{ACAD_REACTORS
330
3B
102
}
102
{ACAD_XDICTIONARY
360
42F
102
}
330
3B
100
AcDbMaterial
  1
ByLayer
  0
MATERIAL
  5
3E
102
{ACAD_REACTORS
330
3B
102
}
102
{ACAD_XDICTIONARY
360
433
102
}
330
3B
100
AcDbMaterial
  1
Global
  0
MLINESTYLE
  5
18
102
{ACAD_REACTORS
330
17
102
}
330
17
100
AcDbMlineStyle
  2
Standard
 70
     0
  3

 62
   256
 51
90.0
 52
90.0
 71
     2
 49
0.5
 62
   256
  6
BYLAYER
 49
-0.5
 62
   256
  6
BYLAYER
  0
ACDBPLACEHOLDER
  5
F
102
{ACAD_REACTORS
330
E
102
}
330
E
  0
VISUALSTYLE
  5
2F
102
{ACAD_REACTORS
330
2A
102
}
102
{ACAD_XDICTIONARY
360
417
102
}
330
2A
100
AcDbVisualStyle
  2
2dWireframe
 70
     4
 71
     0
 72
     2
 73
     0
 90
        0
 40
-0.6
 41
-30.0
 62
     5
 63
     7
 74
     1
 91
        4
 64
     7
 65
   257
 75
     1
175
     1
 42
1.0
 92
        0
 66
   257
 43
1.0
 76
     1
 77
     6
 78
     2
 67
     7
 79
     5
170
     0
171
     0
290
     0
174
     0
 93
        1
 44
0.0
173
     0
291
     0
 45
0.0
1001
ACAD
1000
AcDbSavedByObjectVersion
1070
     0
  0
VISUALSTYLE
  5
31
102
{ACAD_REACTORS
330
2A
102
}
102
{ACAD_XDICTIONARY
360
41B
102
}
330
2A
100
AcDbVisualStyle
  2
3D Hidden
 70
     6
 71
     1
 72
     2
 73
     2
 90
        0
 40
-0.6
 41
-30.0
 62
     5
 63
     7
 74
     2
 91
        2
 64
     7
 65
   257
 75
     2
175
     1
 42
40.0
 92
        0
 66
   257
 43
1.0
 76
     1
 77
     6
 78
     2
 67
     7
 79
     3
170
     0
171
     0
290
     0
174
     0
 93
        1
 44
0.0
173
     0
291
     0
 45
0.0
1001
ACAD
1000
AcDbSavedByObjectVersion
1070
     0
  0
VISUALSTYLE
  5
30
102
{ACAD_REACTORS
330
2A
102
}
102
{ACAD_XDICTIONARY
360
419
102
}
330
2A
100
AcDbVisualStyle
  2
3dWireframe
 70
     5
 71
     0
 72
     2
 73
     0
 90
        0
 40
-0.6
 41
-30.0
 62
     5
 63
     7
 74
     1
 91
        4
 64
     7
 65
   257
 75
     1
175
     1
 42
1.0
 92
        0
 66
   257
 43
1.0
 76
     1
 77
     6
 78
     2
 67
     7
 79
     5
170
     0
171
     0
290
     0
174
     0
 93
        1
 44
0.0
173
     0
291
     0
 45
0.0
1001
ACAD
1000
AcDbSavedByObjectVersion
1070
     0
  0
VISUALSTYLE
  5
32
102
{ACAD_REACTORS
330
2A
102
}
102
{ACAD_XDICTIONARY
360
41D
102
}
330
2A
100
AcDbVisualStyle
  2
Basic
 70
     7
 71
     1
 72
     0
 73
     1
 90
        0
 40
-0.6
 41
-30.0
 62
     5
 63
     7
 74
     0
 91
        4
 64
     7
 65
   257
 75
     1
175
     1
 42
1.0
 92
        8
 66
     7
 43
1.0
 76
     1
 77
     6
 78
     2
 67
     7
 79
     5
170
     0
171
     0
290
     0
174
     0
 93
        1
 44
0.0
173
     0
291
     1
 45
0.0
1001
ACAD
1000
AcDbSavedByObjectVersion
1070
     0
  0
VISUALSTYLE
  5
36
102
{ACAD_REACTORS
330
2A
102
}
102
{ACAD_XDICTIONARY
360
425
102
}
330
2A
100
AcDbVisualStyle
  2
Brighten
 70
    12
 71
     2
 72
     2
 73
     0
 90
        0
 40
-0.6
 41
-30.0
 62
     5
 63
     7
 74
     1
 91
        4
 64
     7
 65
   257
 75
     1
175
     1
 42
1.0
 92
        8
 66
     7
 43
1.0
 76
     1
 77
     6
 78
     2
 67
     7
 79
     5
170
     0
171
     0
290
     0
174
     0
 93
        1
 44
50.0
173
     0
291
     1
 45
0.0
1001
ACAD
1000
AcDbSavedByObjectVersion
1070
     0
  0
VISUALSTYLE
  5
3A
102
{ACAD_REACTORS
330
2A
102
}
102
{ACAD_XDICTIONARY
360
42D
102
}
330
2A
100
AcDbVisualStyle
  2
ColorChange
 70
    16
 71
     2
 72
     2
 73
     3
 90
        0
 40
-0.6
 41
-30.0
 62
     5
 63
     8
 74
     1
 91
        4
 64
     7
 65
   257
 75
     1
175
     1
 42
1.0
 92
        8
 66
     8
 43
1.0
 76
     1
 77
     6
 78
     2
 67
     7
 79
     5
170
     0
171
     0
290
     0
174
     0
 93
        1
 44
0.0
173
     0
291
     1
 45
0.0
1001
ACAD
1000
AcDbSavedByObjectVersion
1070
     0
  0
VISUALSTYLE
  5
34
102
{ACAD_REACTORS
330
2A
102
}
102
{ACAD_XDICTIONARY
360
421
102
}
330
2A
100
AcDbVisualStyle
  2
Conceptual
 70
     9
 71
     3
 72
     2
 73
     0
 90
        0
 40
-0.6
 41
-30.0
 62
     5
 63
     7
 74
     2
 91
        2
 64
     7
 65
   257
 75
     1
175
     1
 42
40.0
 92
        8
 66
     7
 43
1.0
 76
     1
 77
     6
 78
     2
 67
     7
 79
     3
170
     0
171
     0
290
     0
174
     0
 93
        1
 44
0.0
173
     0
291
     0
 45
0.0
1001
ACAD
1000
AcDbSavedByObjectVersion
1070
     0
  0
VISUALSTYLE
  5
35
102
{ACAD_REACTORS
330
2A
102
}
102
{ACAD_XDICTIONARY
360
423
102
}
330
2A
100
AcDbVisualStyle
  2
Dim
 70
    11
 71
     2
 72
     2
 73
     0
 90
        0
 40
-0.6
 41
-30.0
 62
     5
 63
     7
 74
     1
 91
        4
 64
     7
 65
   257
 75
     1
175
     1
 42
1.0
 92
        8
 66
     7
 43
1.0
 76
     1
 77
     6
 78
     2
 67
     7
 79
     5
170
     0
171
     0
290
     0
174
     0
 93
        1
 44
-50.0
173
     0
291
     1
 45
0.0
1001
ACAD
1000
AcDbSavedByObjectVersion
1070
     0
  0
VISUALSTYLE
  5
39
102
{ACAD_REACTORS
330
2A
102
}
102
{ACAD_XDICTIONARY
360
42B
102
}
330
2A
100
AcDbVisualStyle
  2
Facepattern
 70
    15
 71
     2
 72
     2
 73
     0
 90
        0
 40
-0.6
 41
-30.0
 62
     5
 63
     7
 74
     1
 91
        4
 64
     7
 65
   257
 75
     1
175
     1
 42
1.0
 92
        8
 66
     7
 43
1.0
 76
     1
 77
     6
 78
     2
 67
     7
 79
     5
170
     0
171
     0
290
     0
174
     0
 93
        1
 44
0.0
173
     0
291
     1
 45
0.0
1001
ACAD
1000
AcDbSavedByObjectVersion
1070
     0
  0
VISUALSTYLE
  5
2B
102
{ACAD_REACTORS
330
2A
102
}
102
{ACAD_XDICTIONARY
360
40F
102
}
330
2A
100
AcDbVisualStyle
  2
Flat
 70
     0
 71
     2
 72
     1
 73
     1
 90
        2
 40
-0.6
 41
30.0
 62
     5
 63
     7
 74
     0
 91
        4
 64
     7
 65
   257
 75
     1
175
     1
 42
1.0
 92
        8
 66
     7
 43
1.0
 76
     1
 77
     6
 78
     2
 67
     7
 79
     5
170
     0
171
     0
290
     0
174
     0
 93
       13
 44
0.0
173
     0
291
     1
 45
0.0
1001
ACAD
1000
AcDbSavedByObjectVersion
1070
     0
  0
VISUALSTYLE
  5
2C
102
{ACAD_REACTORS
330
2A
102
}
102
{ACAD_XDICTIONARY
360
411
102
}
330
2A
100
AcDbVisualStyle
  2
FlatWithEdges
 70
     1
 71
     2
 72
     1
 73
     1
 90
        2
 40
-0.6
 41
30.0
 62
     5
 63
     7
 74
     1
 91
        4
 64
     7
 65
   257
 75
     1
175
     1
 42
1.0
 92
        0
 66
   257
 43
1.0
 76
     1
 77
     6
 78
     2
 67
     7
 79
     5
170
     0
171
     0
290
     0
174
     0
 93
       13
 44
0.0
173
     0
291
     1
 45
0.0
1001
ACAD
1000
AcDbSavedByObjectVersion
1070
     0
  0
VISUALSTYLE
  5
2D
102
{ACAD_REACTORS
330
2A
102
}
102
{ACAD_XDICTIONARY
360
413
102
}
330
2A
100
AcDbVisualStyle
  2
Gouraud
 70
     2
 71
     2
 72
     2
 73
     1
 90
        2
 40
-0.6
 41
30.0
 62
     5
 63
     7
 74
     0
 91
        4
 64
     7
 65
   257
 75
     1
175
     1
 42
1.0
 92
        0
 66
     7
 43
1.0
 76
     1
 77
     6
 78
     2
 67
     7
 79
     5
170
     0
171
     0
290
     0
174
     0
 93
       13
 44
0.0
173
     0
291
     1
 45
0.0
1001
ACAD
1000
AcDbSavedByObjectVersion
1070
     0
  0
VISUALSTYLE
  5
2E
102
{ACAD_REACTORS
330
2A
102
}
102
{ACAD_XDICTIONARY
360
415
102
}
330
2A
100
AcDbVisualStyle
  2
GouraudWithEdges
 70
     3
 71
     2
 72
     2
 73
     1
 90
        2
 40
-0.6
 41
30.0
 62
     5
 63
     7
 74
     1
 91
        4
 64
     7
 65
   257
 75
     1
175
     1
 42
1.0
 92
        0
 66
   257
 43
1.0
 76
     1
 77
     6
 78
     2
 67
     7
 79
     5
170
     0
171
     0
290
     0
174
     0
 93
       13
 44
0.0
173
     0
291
     1
 45
0.0
1001
ACAD
1000
AcDbSavedByObjectVersion
1070
     0
  0
VISUALSTYLE
  5
38
102
{ACAD_REACTORS
330
2A
102
}
102
{ACAD_XDICTIONARY
360
429
102
}
330
2A
100
AcDbVisualStyle
  2
Linepattern
 70
    14
 71
     2
 72
     2
 73
     0
 90
        0
 40
-0.6
 41
-30.0
 62
     5
 63
     7
 74
     1
 91
        4
 64
     7
 65
   257
 75
     7
175
     7
 42
1.0
 92
        8
 66
     7
 43
1.0
 76
     1
 77
     6
 78
     2
 67
     7
 79
     5
170
     0
171
     0
290
     0
174
     0
 93
        1
 44
0.0
173
     0
291
     1
 45
0.0
1001
ACAD
1000
AcDbSavedByObjectVersion
1070
     0
  0
VISUALSTYLE
  5
33
102
{ACAD_REACTORS
330
2A
102
}
102
{ACAD_XDICTIONARY
360
41F
102
}
330
2A
100
AcDbVisualStyle
  2
Realistic
 70
     8
 71
     2
 72
     2
 73
     0
 90
        0
 40
-0.6
 41
-30.0
 62
     5
 63
     7
 74
     1
 91
        0
 64
     7
 65
   257
 75
     1
175
     1
 42
1.0
 92
        8
 66
     8
 43
1.0
 76
     1
 77
     6
 78
     2
 67
     7
 79
     5
170
     0
171
     0
290
     0
174
     0
 93
       13
 44
0.0
173
     0
291
     0
 45
0.0
1001
ACAD
1000
AcDbSavedByObjectVersion
1070
     0
  0
VISUALSTYLE
  5
37
102
{ACAD_REACTORS
330
2A
102
}
102
{ACAD_XDICTIONARY
360
427
102
}
330
2A
100
AcDbVisualStyle
  2
Thicken
 70
    13
 71
     2
 72
     2
 73
     0
 90
        0
 40
-0.6
 41
-30.0
 62
     5
 63
     7
 74
     1
 91
        4
 64
     7
 65
   257
 75
     1
175
     1
 42
1.0
 92
       12
 66
     7
 43
1.0
 76
     1
 77
     6
 78
     2
 67
     7
 79
     5
170
     0
171
     0
290
     0
174
     0
 93
        1
 44
0.0
173
     0
291
     1
 45
0.0
1001
ACAD
1000
AcDbSavedByObjectVersion
1070
     0
  0
DICTIONARYVAR
  5
40D
102
{ACAD_REACTORS
330
40A
102
}
330
40A
100
DictionaryVariables
280
     0
  1
2
  0
DICTIONARYVAR
  5
40E
102
{ACAD_REACTORS
330
40A
102
}
330
40A
100
DictionaryVariables
280
     0
  1
1
  0
DICTIONARY
  5
431
330
3D
100
AcDbDictionary
280
     1
281
     1
  3
ACAD_XREC_ROUNDTRIP
360
432
  0
DICTIONARY
  5
42F
330
3C
100
AcDbDictionary
280
     1
281
     1
  3
ACAD_XREC_ROUNDTRIP
360
430
  0
DICTIONARY
  5
433
330
3E
100
AcDbDictionary
280
     1
281
     1
  3
ACAD_XREC_ROUNDTRIP
360
434
  0
DICTIONARY
  5
417
330
2F
100
AcDbDictionary
280
     1
281
     1
  3
ACAD_XREC_ROUNDTRIP
360
418
  0
DICTIONARY
  5
41B
330
31
100
AcDbDictionary
280
     1
281
     1
  3
ACAD_XREC_ROUNDTRIP
360
41C
  0
DICTIONARY
  5
419
330
30
100
AcDbDictionary
280
     1
281
     1
  3
ACAD_XREC_ROUNDTRIP
360
41A
  0
DICTIONARY
  5
41D
330
32
100
AcDbDictionary
280
     1
281
     1
  3
ACAD_XREC_ROUNDTRIP
360
41E
  0
DICTIONARY
  5
425
330
36
100
AcDbDictionary
280
     1
281
     1
  3
ACAD_XREC_ROUNDTRIP
360
426
  0
DICTIONARY
  5
42D
330
3A
100
AcDbDictionary
280
     1
281
     1
  3
ACAD_XREC_ROUNDTRIP
360
42E
  0
DICTIONARY
  5
421
330
34
100
AcDbDictionary
280
     1
281
     1
  3
ACAD_XREC_ROUNDTRIP
360
422
  0
DICTIONARY
  5
423
330
35
100
AcDbDictionary
280
     1
281
     1
  3
ACAD_XREC_ROUNDTRIP
360
424
  0
DICTIONARY
  5
42B
330
39
100
AcDbDictionary
280
     1
281
     1
  3
ACAD_XREC_ROUNDTRIP
360
42C
  0
DICTIONARY
  5
40F
330
2B
100
AcDbDictionary
280
     1
281
     1
  3
ACAD_XREC_ROUNDTRIP
360
410
  0
DICTIONARY
  5
411
330
2C
100
AcDbDictionary
280
     1
281
     1
  3
ACAD_XREC_ROUNDTRIP
360
412
  0
DICTIONARY
  5
413
330
2D
100
AcDbDictionary
280
     1
281
     1
  3
ACAD_XREC_ROUNDTRIP
360
414
  0
DICTIONARY
  5
415
330
2E
100
AcDbDictionary
280
     1
281
     1
  3
ACAD_XREC_ROUNDTRIP
360
416
  0
DICTIONARY
  5
429
330
38
100
AcDbDictionary
280
     1
281
     1
  3
ACAD_XREC_ROUNDTRIP
360
42A
  0
DICTIONARY
  5
41F
330
33
100
AcDbDictionary
280
     1
281
     1
  3
ACAD_XREC_ROUNDTRIP
360
420
  0
DICTIONARY
  5
427
330
37
100
AcDbDictionary
280
     1
281
     1
  3
ACAD_XREC_ROUNDTRIP
360
428
  0
XRECORD
  5
432
102
{ACAD_REACTORS
330
431
102
}
330
431
100
AcDbXrecord
280
     1
102
MATERIAL
148
0.0
149
0.0
149
0.0
 93
        0
 94
      127
282
     0
 72
     1
 77
     1
171
     1
175
     1
179
     1
273
     0
  0
XRECORD
  5
430
102
{ACAD_REACTORS
330
42F
102
}
330
42F
100
AcDbXrecord
280
     1
102
MATERIAL
148
0.0
149
0.0
149
0.0
 93
        0
 94
      127
282
     0
 72
     1
 77
     1
171
     1
175
     1
179
     1
273
     0
  0
XRECORD
  5
434
102
{ACAD_REACTORS
330
433
102
}
330
433
100
AcDbXrecord
280
     1
102
MATERIAL
148
0.0
149
0.0
149
0.0
 93
        0
 94
      127
282
     0
 72
     1
 77
     1
171
     1
175
     1
179
     1
273
     0
  0
XRECORD
  5
418
102
{ACAD_REACTORS
330
417
102
}
330
417
100
AcDbXrecord
280
     1
102
RTVSPropertyOp0
 70
     1
102
RTVSPropertyOp1
 70
     1
102
RTVSPropertyOp2
 70
     1
102
RTVSPropertyOp3
 70
     1
102
RTVSPropertyOp4
 70
     1
102
RTVSPropertyOp5
 70
     1
102
RTVSPropertyOp6
 70
     1
102
RTVSPropertyOp7
 70
     1
102
RTVSPropertyOp8
 70
     1
102
RTVSPropertyOp9
 70
     1
102
RTVSPropertyOp10
 70
     1
102
RTVSPropertyOp11
 70
     1
102
RTVSPropertyOp12
 70
     1
102
RTVSPropertyOp13
 70
     1
102
RTVSPropertyOp14
 70
     1
102
RTVSPropertyOp15
 70
     1
102
RTVSPropertyOp16
 70
     1
102
RTVSPropertyOp17
 70
     1
102
RTVSPropertyOp18
 70
     1
102
RTVSPropertyOp19
 70
     1
102
RTVSPropertyOp20
 70
     1
102
RTVSPropertyOp21
 70
     1
102
RTVSPropertyOp22
 70
     1
102
RTVSPropertyOp23
 70
     1
102
RTVSPropertyOp24
 70
     1
102
RTVSPropertyOp25
 70
     1
102
RTVSPropertyOp26
 70
     1
102
RTVSPropertyOp27
 70
     1
  0
XRECORD
  5
41C
102
{ACAD_REACTORS
330
41B
102
}
330
41B
100
AcDbXrecord
280
     1
102
RTVSPropertyOp0
 70
     1
102
RTVSPropertyOp1
 70
     1
102
RTVSPropertyOp2
 70
     1
102
RTVSPropertyOp3
 70
     1
102
RTVSPropertyOp4
 70
     1
102
RTVSPropertyOp5
 70
     1
102
RTVSPropertyOp6
 70
     1
102
RTVSPropertyOp7
 70
     1
102
RTVSPropertyOp8
 70
     1
102
RTVSPropertyOp9
 70
     1
102
RTVSPropertyOp10
 70
     1
102
RTVSPropertyOp11
 70
     1
102
RTVSPropertyOp12
 70
     1
102
RTVSPropertyOp13
 70
     1
102
RTVSPropertyOp14
 70
     1
102
RTVSPropertyOp15
 70
     1
102
RTVSPropertyOp16
 70
     1
102
RTVSPropertyOp17
 70
     1
102
RTVSPropertyOp18
 70
     1
102
RTVSPropertyOp19
 70
     1
102
RTVSPropertyOp20
 70
     1
102
RTVSPropertyOp21
 70
     1
102
RTVSPropertyOp22
 70
     1
102
RTVSPropertyOp23
 70
     1
102
RTVSPropertyOp24
 70
     1
102
RTVSPropertyOp25
 70
     1
102
RTVSPropertyOp26
 70
     1
102
RTVSPropertyOp27
 70
     1
  0
XRECORD
  5
41A
102
{ACAD_REACTORS
330
419
102
}
330
419
100
AcDbXrecord
280
     1
102
RTVSPropertyOp0
 70
     1
102
RTVSPropertyOp1
 70
     1
102
RTVSPropertyOp2
 70
     1
102
RTVSPropertyOp3
 70
     1
102
RTVSPropertyOp4
 70
     1
102
RTVSPropertyOp5
 70
     1
102
RTVSPropertyOp6
 70
     1
102
RTVSPropertyOp7
 70
     1
102
RTVSPropertyOp8
 70
     1
102
RTVSPropertyOp9
 70
     1
102
RTVSPropertyOp10
 70
     1
102
RTVSPropertyOp11
 70
     1
102
RTVSPropertyOp12
 70
     1
102
RTVSPropertyOp13
 70
     1
102
RTVSPropertyOp14
 70
     1
102
RTVSPropertyOp15
 70
     1
102
RTVSPropertyOp16
 70
     1
102
RTVSPropertyOp17
 70
     1
102
RTVSPropertyOp18
 70
     1
102
RTVSPropertyOp19
 70
     1
102
RTVSPropertyOp20
 70
     1
102
RTVSPropertyOp21
 70
     1
102
RTVSPropertyOp22
 70
     1
102
RTVSPropertyOp23
 70
     1
102
RTVSPropertyOp24
 70
     1
102
RTVSPropertyOp25
 70
     1
102
RTVSPropertyOp26
 70
     1
102
RTVSPropertyOp27
 70
     1
  0
XRECORD
  5
41E
102
{ACAD_REACTORS
330
41D
102
}
330
41D
100
AcDbXrecord
280
     1
102
RTVSPropertyOp0
 70
     1
102
RTVSPropertyOp1
 70
     1
102
RTVSPropertyOp2
 70
     1
102
RTVSPropertyOp3
 70
     1
102
RTVSPropertyOp4
 70
     1
102
RTVSPropertyOp5
 70
     1
102
RTVSPropertyOp6
 70
     1
102
RTVSPropertyOp7
 70
     1
102
RTVSPropertyOp8
 70
     1
102
RTVSPropertyOp9
 70
     1
102
RTVSPropertyOp10
 70
     1
102
RTVSPropertyOp11
 70
     1
102
RTVSPropertyOp12
 70
     1
102
RTVSPropertyOp13
 70
     1
102
RTVSPropertyOp14
 70
     1
102
RTVSPropertyOp15
 70
     1
102
RTVSPropertyOp16
 70
     1
102
RTVSPropertyOp17
 70
     1
102
RTVSPropertyOp18
 70
     1
102
RTVSPropertyOp19
 70
     1
102
RTVSPropertyOp20
 70
     1
102
RTVSPropertyOp21
 70
     1
102
RTVSPropertyOp22
 70
     1
102
RTVSPropertyOp23
 70
     1
102
RTVSPropertyOp24
 70
     1
102
RTVSPropertyOp25
 70
     1
102
RTVSPropertyOp26
 70
     1
102
RTVSPropertyOp27
 70
     1
  0
XRECORD
  5
426
102
{ACAD_REACTORS
330
425
102
}
330
425
100
AcDbXrecord
280
     1
102
RTVSPropertyOp0
 70
     1
102
RTVSPropertyOp1
 70
     1
102
RTVSPropertyOp2
 70
     1
102
RTVSPropertyOp3
 70
     1
102
RTVSPropertyOp4
 70
     1
102
RTVSPropertyOp5
 70
     1
102
RTVSPropertyOp6
 70
     1
102
RTVSPropertyOp7
 70
     1
102
RTVSPropertyOp8
 70
     1
102
RTVSPropertyOp9
 70
     1
102
RTVSPropertyOp10
 70
     1
102
RTVSPropertyOp11
 70
     1
102
RTVSPropertyOp12
 70
     1
102
RTVSPropertyOp13
 70
     1
102
RTVSPropertyOp14
 70
     1
102
RTVSPropertyOp15
 70
     1
102
RTVSPropertyOp16
 70
     1
102
RTVSPropertyOp17
 70
     1
102
RTVSPropertyOp18
 70
     1
102
RTVSPropertyOp19
 70
     1
102
RTVSPropertyOp20
 70
     1
102
RTVSPropertyOp21
 70
     1
102
RTVSPropertyOp22
 70
     1
102
RTVSPropertyOp23
 70
     1
102
RTVSPropertyOp24
 70
     1
102
RTVSPropertyOp25
 70
     1
102
RTVSPropertyOp26
 70
     1
102
RTVSPropertyOp27
 70
     1
  0
XRECORD
  5
42E
102
{ACAD_REACTORS
330
42D
102
}
330
42D
100
AcDbXrecord
280
     1
102
RTVSPropertyOp0
 70
     1
102
RTVSPropertyOp1
 70
     1
102
RTVSPropertyOp2
 70
     1
102
RTVSPropertyOp3
 70
     1
102
RTVSPropertyOp4
 70
     1
102
RTVSPropertyOp5
 70
     1
102
RTVSPropertyOp6
 70
     1
102
RTVSPropertyOp7
 70
     1
102
RTVSPropertyOp8
 70
     1
102
RTVSPropertyOp9
 70
     1
102
RTVSPropertyOp10
 70
     1
102
RTVSPropertyOp11
 70
     1
102
RTVSPropertyOp12
 70
     1
102
RTVSPropertyOp13
 70
     1
102
RTVSPropertyOp14
 70
     1
102
RTVSPropertyOp15
 70
     1
102
RTVSPropertyOp16
 70
     1
102
RTVSPropertyOp17
 70
     1
102
RTVSPropertyOp18
 70
     1
102
RTVSPropertyOp19
 70
     1
102
RTVSPropertyOp20
 70
     1
102
RTVSPropertyOp21
 70
     1
102
RTVSPropertyOp22
 70
     1
102
RTVSPropertyOp23
 70
     1
102
RTVSPropertyOp24
 70
     1
102
RTVSPropertyOp25
 70
     1
102
RTVSPropertyOp26
 70
     1
102
RTVSPropertyOp27
 70
     1
  0
XRECORD
  5
422
102
{ACAD_REACTORS
330
421
102
}
330
421
100
AcDbXrecord
280
     1
102
RTVSPropertyOp0
 70
     1
102
RTVSPropertyOp1
 70
     1
102
RTVSPropertyOp2
 70
     1
102
RTVSPropertyOp3
 70
     1
102
RTVSPropertyOp4
 70
     1
102
RTVSPropertyOp5
 70
     1
102
RTVSPropertyOp6
 70
     1
102
RTVSPropertyOp7
 70
     1
102
RTVSPropertyOp8
 70
     1
102
RTVSPropertyOp9
 70
     1
102
RTVSPropertyOp10
 70
     1
102
RTVSPropertyOp11
 70
     1
102
RTVSPropertyOp12
 70
     1
102
RTVSPropertyOp13
 70
     1
102
RTVSPropertyOp14
 70
     1
102
RTVSPropertyOp15
 70
     1
102
RTVSPropertyOp16
 70
     1
102
RTVSPropertyOp17
 70
     1
102
RTVSPropertyOp18
 70
     1
102
RTVSPropertyOp19
 70
     1
102
RTVSPropertyOp20
 70
     1
102
RTVSPropertyOp21
 70
     1
102
RTVSPropertyOp22
 70
     1
102
RTVSPropertyOp23
 70
     1
102
RTVSPropertyOp24
 70
     1
102
RTVSPropertyOp25
 70
     1
102
RTVSPropertyOp26
 70
     1
102
RTVSPropertyOp27
 70
     1
  0
XRECORD
  5
424
102
{ACAD_REACTORS
330
423
102
}
330
423
100
AcDbXrecord
280
     1
102
RTVSPropertyOp0
 70
     1
102
RTVSPropertyOp1
 70
     1
102
RTVSPropertyOp2
 70
     1
102
RTVSPropertyOp3
 70
     1
102
RTVSPropertyOp4
 70
     1
102
RTVSPropertyOp5
 70
     1
102
RTVSPropertyOp6
 70
     1
102
RTVSPropertyOp7
 70
     1
102
RTVSPropertyOp8
 70
     1
102
RTVSPropertyOp9
 70
     1
102
RTVSPropertyOp10
 70
     1
102
RTVSPropertyOp11
 70
     1
102
RTVSPropertyOp12
 70
     1
102
RTVSPropertyOp13
 70
     1
102
RTVSPropertyOp14
 70
     1
102
RTVSPropertyOp15
 70
     1
102
RTVSPropertyOp16
 70
     1
102
RTVSPropertyOp17
 70
     1
102
RTVSPropertyOp18
 70
     1
102
RTVSPropertyOp19
 70
     1
102
RTVSPropertyOp20
 70
     1
102
RTVSPropertyOp21
 70
     1
102
RTVSPropertyOp22
 70
     1
102
RTVSPropertyOp23
 70
     1
102
RTVSPropertyOp24
 70
     1
102
RTVSPropertyOp25
 70
     1
102
RTVSPropertyOp26
 70
     1
102
RTVSPropertyOp27
 70
     1
  0
XRECORD
  5
42C
102
{ACAD_REACTORS
330
42B
102
}
330
42B
100
AcDbXrecord
280
     1
102
RTVSPropertyOp0
 70
     1
102
RTVSPropertyOp1
 70
     1
102
RTVSPropertyOp2
 70
     1
102
RTVSPropertyOp3
 70
     1
102
RTVSPropertyOp4
 70
     1
102
RTVSPropertyOp5
 70
     1
102
RTVSPropertyOp6
 70
     1
102
RTVSPropertyOp7
 70
     1
102
RTVSPropertyOp8
 70
     1
102
RTVSPropertyOp9
 70
     1
102
RTVSPropertyOp10
 70
     1
102
RTVSPropertyOp11
 70
     1
102
RTVSPropertyOp12
 70
     1
102
RTVSPropertyOp13
 70
     1
102
RTVSPropertyOp14
 70
     1
102
RTVSPropertyOp15
 70
     1
102
RTVSPropertyOp16
 70
     1
102
RTVSPropertyOp17
 70
     1
102
RTVSPropertyOp18
 70
     1
102
RTVSPropertyOp19
 70
     1
102
RTVSPropertyOp20
 70
     1
102
RTVSPropertyOp21
 70
     1
102
RTVSPropertyOp22
 70
     1
102
RTVSPropertyOp23
 70
     1
102
RTVSPropertyOp24
 70
     1
102
RTVSPropertyOp25
 70
     1
102
RTVSPropertyOp26
 70
     1
102
RTVSPropertyOp27
 70
     1
  0
XRECORD
  5
410
102
{ACAD_REACTORS
330
40F
102
}
330
40F
100
AcDbXrecord
280
     1
102
RTVSPropertyOp0
 70
     1
102
RTVSPropertyOp1
 70
     1
102
RTVSPropertyOp2
 70
     1
102
RTVSPropertyOp3
 70
     1
102
RTVSPropertyOp4
 70
     1
102
RTVSPropertyOp5
 70
     1
102
RTVSPropertyOp6
 70
     1
102
RTVSPropertyOp7
 70
     1
102
RTVSPropertyOp8
 70
     1
102
RTVSPropertyOp9
 70
     1
102
RTVSPropertyOp10
 70
     1
102
RTVSPropertyOp11
 70
     1
102
RTVSPropertyOp12
 70
     1
102
RTVSPropertyOp13
 70
     1
102
RTVSPropertyOp14
 70
     1
102
RTVSPropertyOp15
 70
     1
102
RTVSPropertyOp16
 70
     1
102
RTVSPropertyOp17
 70
     1
102
RTVSPropertyOp18
 70
     1
102
RTVSPropertyOp19
 70
     1
102
RTVSPropertyOp20
 70
     1
102
RTVSPropertyOp21
 70
     1
102
RTVSPropertyOp22
 70
     1
102
RTVSPropertyOp23
 70
     1
102
RTVSPropertyOp24
 70
     1
102
RTVSPropertyOp25
 70
     1
102
RTVSPropertyOp26
 70
     1
102
RTVSPropertyOp27
 70
     1
  0
XRECORD
  5
412
102
{ACAD_REACTORS
330
411
102
}
330
411
100
AcDbXrecord
280
     1
102
RTVSPropertyOp0
 70
     1
102
RTVSPropertyOp1
 70
     1
102
RTVSPropertyOp2
 70
     1
102
RTVSPropertyOp3
 70
     1
102
RTVSPropertyOp4
 70
     1
102
RTVSPropertyOp5
 70
     1
102
RTVSPropertyOp6
 70
     1
102
RTVSPropertyOp7
 70
     1
102
RTVSPropertyOp8
 70
     1
102
RTVSPropertyOp9
 70
     1
102
RTVSPropertyOp10
 70
     1
102
RTVSPropertyOp11
 70
     1
102
RTVSPropertyOp12
 70
     1
102
RTVSPropertyOp13
 70
     1
102
RTVSPropertyOp14
 70
     1
102
RTVSPropertyOp15
 70
     1
102
RTVSPropertyOp16
 70
     1
102
RTVSPropertyOp17
 70
     1
102
RTVSPropertyOp18
 70
     1
102
RTVSPropertyOp19
 70
     1
102
RTVSPropertyOp20
 70
     1
102
RTVSPropertyOp21
 70
     1
102
RTVSPropertyOp22
 70
     1
102
RTVSPropertyOp23
 70
     1
102
RTVSPropertyOp24
 70
     1
102
RTVSPropertyOp25
 70
     1
102
RTVSPropertyOp26
 70
     1
102
RTVSPropertyOp27
 70
     1
  0
XRECORD
  5
414
102
{ACAD_REACTORS
330
413
102
}
330
413
100
AcDbXrecord
280
     1
102
RTVSPropertyOp0
 70
     1
102
RTVSPropertyOp1
 70
     1
102
RTVSPropertyOp2
 70
     1
102
RTVSPropertyOp3
 70
     1
102
RTVSPropertyOp4
 70
     1
102
RTVSPropertyOp5
 70
     1
102
RTVSPropertyOp6
 70
     1
102
RTVSPropertyOp7
 70
     1
102
RTVSPropertyOp8
 70
     1
102
RTVSPropertyOp9
 70
     1
102
RTVSPropertyOp10
 70
     1
102
RTVSPropertyOp11
 70
     1
102
RTVSPropertyOp12
 70
     1
102
RTVSPropertyOp13
 70
     1
102
RTVSPropertyOp14
 70
     1
102
RTVSPropertyOp15
 70
     1
102
RTVSPropertyOp16
 70
     1
102
RTVSPropertyOp17
 70
     1
102
RTVSPropertyOp18
 70
     1
102
RTVSPropertyOp19
 70
     1
102
RTVSPropertyOp20
 70
     1
102
RTVSPropertyOp21
 70
     1
102
RTVSPropertyOp22
 70
     1
102
RTVSPropertyOp23
 70
     1
102
RTVSPropertyOp24
 70
     1
102
RTVSPropertyOp25
 70
     1
102
RTVSPropertyOp26
 70
     1
102
RTVSPropertyOp27
 70
     1
  0
XRECORD
  5
416
102
{ACAD_REACTORS
330
415
102
}
330
415
100
AcDbXrecord
280
     1
102
RTVSPropertyOp0
 70
     1
102
RTVSPropertyOp1
 70
     1
102
RTVSPropertyOp2
 70
     1
102
RTVSPropertyOp3
 70
     1
102
RTVSPropertyOp4
 70
     1
102
RTVSPropertyOp5
 70
     1
102
RTVSPropertyOp6
 70
     1
102
RTVSPropertyOp7
 70
     1
102
RTVSPropertyOp8
 70
     1
102
RTVSPropertyOp9
 70
     1
102
RTVSPropertyOp10
 70
     1
102
RTVSPropertyOp11
 70
     1
102
RTVSPropertyOp12
 70
     1
102
RTVSPropertyOp13
 70
     1
102
RTVSPropertyOp14
 70
     1
102
RTVSPropertyOp15
 70
     1
102
RTVSPropertyOp16
 70
     1
102
RTVSPropertyOp17
 70
     1
102
RTVSPropertyOp18
 70
     1
102
RTVSPropertyOp19
 70
     1
102
RTVSPropertyOp20
 70
     1
102
RTVSPropertyOp21
 70
     1
102
RTVSPropertyOp22
 70
     1
102
RTVSPropertyOp23
 70
     1
102
RTVSPropertyOp24
 70
     1
102
RTVSPropertyOp25
 70
     1
102
RTVSPropertyOp26
 70
     1
102
RTVSPropertyOp27
 70
     1
  0
XRECORD
  5
42A
102
{ACAD_REACTORS
330
429
102
}
330
429
100
AcDbXrecord
280
     1
102
RTVSPropertyOp0
 70
     1
102
RTVSPropertyOp1
 70
     1
102
RTVSPropertyOp2
 70
     1
102
RTVSPropertyOp3
 70
     1
102
RTVSPropertyOp4
 70
     1
102
RTVSPropertyOp5
 70
     1
102
RTVSPropertyOp6
 70
     1
102
RTVSPropertyOp7
 70
     1
102
RTVSPropertyOp8
 70
     1
102
RTVSPropertyOp9
 70
     1
102
RTVSPropertyOp10
 70
     1
102
RTVSPropertyOp11
 70
     1
102
RTVSPropertyOp12
 70
     1
102
RTVSPropertyOp13
 70
     1
102
RTVSPropertyOp14
 70
     1
102
RTVSPropertyOp15
 70
     1
102
RTVSPropertyOp16
 70
     1
102
RTVSPropertyOp17
 70
     1
102
RTVSPropertyOp18
 70
     1
102
RTVSPropertyOp19
 70
     1
102
RTVSPropertyOp20
 70
     1
102
RTVSPropertyOp21
 70
     1
102
RTVSPropertyOp22
 70
     1
102
RTVSPropertyOp23
 70
     1
102
RTVSPropertyOp24
 70
     1
102
RTVSPropertyOp25
 70
     1
102
RTVSPropertyOp26
 70
     1
102
RTVSPropertyOp27
 70
     1
  0
XRECORD
  5
420
102
{ACAD_REACTORS
330
41F
102
}
330
41F
100
AcDbXrecord
280
     1
102
RTVSPropertyOp0
 70
     1
102
RTVSPropertyOp1
 70
     1
102
RTVSPropertyOp2
 70
     1
102
RTVSPropertyOp3
 70
     1
102
RTVSPropertyOp4
 70
     1
102
RTVSPropertyOp5
 70
     1
102
RTVSPropertyOp6
 70
     1
102
RTVSPropertyOp7
 70
     1
102
RTVSPropertyOp8
 70
     1
102
RTVSPropertyOp9
 70
     1
102
RTVSPropertyOp10
 70
     1
102
RTVSPropertyOp11
 70
     1
102
RTVSPropertyOp12
 70
     1
102
RTVSPropertyOp13
 70
     1
102
RTVSPropertyOp14
 70
     1
102
RTVSPropertyOp15
 70
     1
102
RTVSPropertyOp16
 70
     1
102
RTVSPropertyOp17
 70
     1
102
RTVSPropertyOp18
 70
     1
102
RTVSPropertyOp19
 70
     1
102
RTVSPropertyOp20
 70
     1
102
RTVSPropertyOp21
 70
     1
102
RTVSPropertyOp22
 70
     1
102
RTVSPropertyOp23
 70
     1
102
RTVSPropertyOp24
 70
     1
102
RTVSPropertyOp25
 70
     1
102
RTVSPropertyOp26
 70
     1
102
RTVSPropertyOp27
 70
     1
  0
XRECORD
  5
428
102
{ACAD_REACTORS
330
427
102
}
330
427
100
AcDbXrecord
280
     1
102
RTVSPropertyOp0
 70
     1
102
RTVSPropertyOp1
 70
     1
102
RTVSPropertyOp2
 70
     1
102
RTVSPropertyOp3
 70
     1
102
RTVSPropertyOp4
 70
     1
102
RTVSPropertyOp5
 70
     1
102
RTVSPropertyOp6
 70
     1
102
RTVSPropertyOp7
 70
     1
102
RTVSPropertyOp8
 70
     1
102
RTVSPropertyOp9
 70
     1
102
RTVSPropertyOp10
 70
     1
102
RTVSPropertyOp11
 70
     1
102
RTVSPropertyOp12
 70
     1
102
RTVSPropertyOp13
 70
     1
102
RTVSPropertyOp14
 70
     1
102
RTVSPropertyOp15
 70
     1
102
RTVSPropertyOp16
 70
     1
102
RTVSPropertyOp17
 70
     1
102
RTVSPropertyOp18
 70
     1
102
RTVSPropertyOp19
 70
     1
102
RTVSPropertyOp20
 70
     1
102
RTVSPropertyOp21
 70
     1
102
RTVSPropertyOp22
 70
     1
102
RTVSPropertyOp23
 70
     1
102
RTVSPropertyOp24
 70
     1
102
RTVSPropertyOp25
 70
     1
102
RTVSPropertyOp26
 70
     1
102
RTVSPropertyOp27
 70
     1
  0
ENDSEC
  0
EOF
