  0
SECTION
  2
HEADER
  9
$ACADVER
  1
AC1015
  9
$ACADMAINTVER
 70
     6
  9
$DWGCODEPAGE
  3
ANSI_932
  9
$INSBASE
 10
0.0
 20
0.0
 30
0.0
  9
$EXTMIN
 10
69.5555210030451
 20
14.7449937651971
 30
0.0
  9
$EXTMAX
 10
284.1827381022896
 20
265.328826274442
 30
0.0
  9
$LIMMIN
 10
0.0
 20
0.0
  9
$LIMMAX
 10
12.0
 20
9.0
  9
$ORTHOMODE
 70
     0
  9
$REGENMODE
 70
     1
  9
$FILLMODE
 70
     1
  9
$QTEXTMODE
 70
     0
  9
$MIRRTEXT
 70
     1
  9
$LTSCALE
 40
1.0
  9
$ATTMODE
 70
     1
  9
$TEXTSIZE
 40
0.2
  9
$TRACEWID
 40
0.05
  9
$TEXTSTYLE
  7
Standard
  9
$CLAYER
  8
0
  9
$CELTYPE
  6
ByLayer
  9
$CECOLOR
 62
   256
  9
$CELTSCALE
 40
1.0
  9
$DISPSILH
 70
     0
  9
$DIMSCALE
 40
1.0
  9
$DIMASZ
 40
0.18
  9
$DIMEXO
 40
0.0625
  9
$DIMDLI
 40
0.38
  9
$DIMRND
 40
0.0
  9
$DIMDLE
 40
0.0
  9
$DIMEXE
 40
0.18
  9
$DIMTP
 40
0.0
  9
$DIMTM
 40
0.0
  9
$DIMTXT
 40
0.18
  9
$DIMCEN
 40
0.09
  9
$DIMTSZ
 40
0.0
  9
$DIMTOL
 70
     0
  9
$DIMLIM
 70
     0
  9
$DIMTIH
 70
     1
  9
$DIMTOH
 70
     1
  9
$DIMSE1
 70
     0
  9
$DIMSE2
 70
     0
  9
$DIMTAD
 70
     0
  9
$DIMZIN
 70
     0
  9
$DIMBLK
  1

  9
$DIMASO
 70
     1
  9
$DIMSHO
 70
     1
  9
$DIMPOST
  1

  9
$DIMAPOST
  1

  9
$DIMALT
 70
     0
  9
$DIMALTD
 70
     2
  9
$DIMALTF
 40
25.4
  9
$DIMLFAC
 40
1.0
  9
$DIMTOFL
 70
     0
  9
$DIMTVP
 40
0.0
  9
$DIMTIX
 70
     0
  9
$DIMSOXD
 70
     0
  9
$DIMSAH
 70
     0
  9
$DIMBLK1
  1

  9
$DIMBLK2
  1

  9
$DIMSTYLE
  2
Standard
  9
$DIMCLRD
 70
     0
  9
$DIMCLRE
 70
     0
  9
$DIMCLRT
 70
     0
  9
$DIMTFAC
 40
1.0
  9
$DIMGAP
 40
0.09
  9
$DIMJUST
 70
     0
  9
$DIMSD1
 70
     0
  9
$DIMSD2
 70
     0
  9
$DIMTOLJ
 70
     1
  9
$DIMTZIN
 70
     0
  9
$DIMALTZ
 70
     0
  9
$DIMALTTZ
 70
     0
  9
$DIMUPT
 70
     0
  9
$DIMDEC
 70
     4
  9
$DIMTDEC
 70
     4
  9
$DIMALTU
 70
     2
  9
$DIMALTTD
 70
     2
  9
$DIMTXSTY
  7
Standard
  9
$DIMAUNIT
 70
     0
  9
$DIMADEC
 70
     0
  9
$DIMALTRND
 40
0.0
  9
$DIMAZIN
 70
     0
  9
$DIMDSEP
 70
    46
  9
$DIMATFIT
 70
     3
  9
$DIMFRAC
 70
     0
  9
$DIMLDRBLK
  1

  9
$DIMLUNIT
 70
     2
  9
$DIMLWD
 70
    -2
  9
$DIMLWE
 70
    -2
  9
$DIMTMOVE
 70
     0
  9
$LUNITS
 70
     2
  9
$LUPREC
 70
     4
  9
$SKETCHINC
 40
0.1
  9
$FILLETRAD
 40
0.5
  9
$AUNITS
 70
     0
  9
$AUPREC
 70
     0
  9
$MENU
  1
.
  9
$ELEVATION
 40
0.0
  9
$PELEVATION
 40
0.0
  9
$THICKNESS
 40
0.0
  9
$LIMCHECK
 70
     0
  9
$CHAMFERA
 40
0.5
  9
$CHAMFERB
 40
0.5
  9
$CHAMFERC
 40
1.0
  9
$CHAMFERD
 40
0.0
  9
$SKPOLY
 70
     0
  9
$TDCREATE
 40
2458179.46399206
  9
$TDUCREATE
 40
2458179.08899206
  9
$TDUPDATE
 40
2458179.463992072
  9
$TDUUPDATE
 40
2458179.088992072
  9
$TDINDWG
 40
0.0000000116
  9
$TDUSRTIMER
 40
0.0000000116
  9
$USRTIMER
 70
     1
  9
$ANGBASE
 50
0.0
  9
$ANGDIR
 70
     0
  9
$PDMODE
 70
     0
  9
$PDSIZE
 40
0.0
  9
$PLINEWID
 40
0.0
  9
$SPLFRAME
 70
     0
  9
$SPLINETYPE
 70
     6
  9
$SPLINESEGS
 70
     8
  9
$HANDSEED
  5
45B
  9
$SURFTAB1
 70
     6
  9
$SURFTAB2
 70
     6
  9
$SURFTYPE
 70
     6
  9
$SURFU
 70
     6
  9
$SURFV
 70
     6
  9
$UCSBASE
  2

  9
$UCSNAME
  2

  9
$UCSORG
 10
0.0
 20
0.0
 30
0.0
  9
$UCSXDIR
 10
1.0
 20
0.0
 30
0.0
  9
$UCSYDIR
 10
0.0
 20
1.0
 30
0.0
  9
$UCSORTHOREF
  2

  9
$UCSORTHOVIEW
 70
     0
  9
$UCSORGTOP
 10
0.0
 20
0.0
 30
0.0
  9
$UCSORGBOTTOM
 10
0.0
 20
0.0
 30
0.0
  9
$UCSORGLEFT
 10
0.0
 20
0.0
 30
0.0
  9
$UCSORGRIGHT
 10
0.0
 20
0.0
 30
0.0
  9
$UCSORGFRONT
 10
0.0
 20
0.0
 30
0.0
  9
$UCSORGBACK
 10
0.0
 20
0.0
 30
0.0
  9
$PUCSBASE
  2

  9
$PUCSNAME
  2

  9
$PUCSORG
 10
0.0
 20
0.0
 30
0.0
  9
$PUCSXDIR
 10
1.0
 20
0.0
 30
0.0
  9
$PUCSYDIR
 10
0.0
 20
1.0
 30
0.0
  9
$PUCSORTHOREF
  2

  9
$PUCSORTHOVIEW
 70
     0
  9
$PUCSORGTOP
 10
0.0
 20
0.0
 30
0.0
  9
$PUCSORGBOTTOM
 10
0.0
 20
0.0
 30
0.0
  9
$PUCSORGLEFT
 10
0.0
 20
0.0
 30
0.0
  9
$PUCSORGRIGHT
 10
0.0
 20
0.0
 30
0.0
  9
$PUCSORGFRONT
 10
0.0
 20
0.0
 30
0.0
  9
$PUCSORGBACK
 10
0.0
 20
0.0
 30
0.0
  9
$USERI1
 70
     0
  9
$USERI2
 70
     0
  9
$USERI3
 70
     0
  9
$USERI4
 70
     0
  9
$USERI5
 70
     0
  9
$USERR1
 40
18.0
  9
$USERR2
 40
0.0
  9
$USERR3
 40
0.0
  9
$USERR4
 40
0.0
  9
$USERR5
 40
0.0
  9
$WORLDVIEW
 70
     1
  9
$SHADEDGE
 70
     3
  9
$SHADEDIF
 70
    70
  9
$TILEMODE
 70
     1
  9
$MAXACTVP
 70
    64
  9
$PINSBASE
 10
0.0
 20
0.0
 30
0.0
  9
$PLIMCHECK
 70
     0
  9
$PEXTMIN
 10
1.00000000000000E+20
 20
1.00000000000000E+20
 30
1.00000000000000E+20
  9
$PEXTMAX
 10
-1.00000000000000E+20
 20
-1.00000000000000E+20
 30
-1.00000000000000E+20
  9
$PLIMMIN
 10
0.0
 20
0.0
  9
$PLIMMAX
 10
12.0
 20
9.0
  9
$UNITMODE
 70
     0
  9
$VISRETAIN
 70
     1
  9
$PLINEGEN
 70
     0
  9
$PSLTSCALE
 70
     1
  9
$TREEDEPTH
 70
  3020
  9
$CMLSTYLE
  2
Standard
  9
$CMLJUST
 70
     0
  9
$CMLSCALE
 40
1.0
  9
$PROXYGRAPHICS
 70
     1
  9
$MEASUREMENT
 70
     1
  9
$CELWEIGHT
370
    -1
  9
$ENDCAPS
280
     0
  9
$JOINSTYLE
280
     0
  9
$LWDISPLAY
290
     0
  9
$INSUNITS
 70
     1
  9
$HYPERLINKBASE
  1

  9
$STYLESHEET
  1

  9
$XEDIT
290
     1
  9
$CEPSNTYPE
380
     0
  9
$PSTYLEMODE
290
     1
  9
$FINGERPRINTGUID
  2
{924C5F98-7C79-4F5A-84AA-4D58400A6FCA}
  9
$VERSIONGUID
  2
{FAEB1C32-E019-11D5-929B-00C0DF256EC4}
  9
$EXTNAMES
290
     1
  9
$PSVPSCALE
 40
0.0
  9
$OLESTARTUP
290
     0
  0
ENDSEC
  0
SECTION
  2
CLASSES
  0
CLASS
  1
ACDBDICTIONARYWDFLT
  2
AcDbDictionaryWithDefault
  3
ObjectDBX Classes
 90
        0
280
     0
281
     0
  0
CLASS
  1
VISUALSTYLE
  2
AcDbVisualStyle
  3
ObjectDBX Classes
 90
     4095
280
     0
281
     0
  0
CLASS
  1
MATERIAL
  2
AcDbMaterial
  3
ObjectDBX Classes
 90
     1153
280
     0
281
     0
  0
CLASS
  1

  2
exOdDbCircle
  3

 90
        0
280
     0
281
     1
  0
CLASS
  1

  2
exOdDbPolyline
  3

 90
        0
280
     0
281
     1
  0
CLASS
  1
DICTIONARYVAR
  2
AcDbDictionaryVar
  3
ObjectDBX Classes
 90
        0
280
     0
281
     0
  0
CLASS
  1
ACDBPLACEHOLDER
  2
AcDbPlaceHolder
  3
ObjectDBX Classes
 90
        0
280
     0
281
     0
  0
CLASS
  1
LAYOUT
  2
AcDbLayout
  3
ObjectDBX Classes
 90
        0
280
     0
281
     0
  0
ENDSEC
  0
SECTION
  2
TABLES
  0
TABLE
  2
VPORT
  5
8
330
0
100
AcDbSymbolTable
 70
     1
  0
VPORT
  5
29
330
8
100
AcDbSymbolTableRecord
100
AcDbViewportTableRecord
  2
*Active
 70
     0
 10
0.0
 20
0.0
 11
1.0
 21
1.0
 12
176.8691295526673
 22
140.0369100198195
 13
0.0
 23
0.0
 14
0.5
 24
0.5
 15
0.5
 25
0.5
 16
0.0
 26
0.0
 36
1.0
 17
0.0
 27
0.0
 37
0.0
 40
275.6422157601694
 41
1.60267857142857
 42
50.0
 43
0.0
 44
0.0
 50
0.0
 51
0.0
 71
     0
 72
   100
 73
     1
 74
     3
 75
     0
 76
     0
 77
     0
 78
     0
281
     0
 65
     1
110
0.0
120
0.0
130
0.0
111
1.0
121
0.0
131
0.0
112
0.0
122
1.0
132
0.0
 79
     0
146
0.0
  0
ENDTAB
  0
TABLE
  2
LTYPE
  5
5
330
0
100
AcDbSymbolTable
 70
     8
  0
LTYPE
  5
14
330
5
100
AcDbSymbolTableRecord
100
AcDbLinetypeTableRecord
  2
ByBlock
 70
     0
  3

 72
    65
 73
     0
 40
0.0
  0
LTYPE
  5
15
330
5
100
AcDbSymbolTableRecord
100
AcDbLinetypeTableRecord
  2
ByLayer
 70
     0
  3

 72
    65
 73
     0
 40
0.0
  0
LTYPE
  5
16
330
5
100
AcDbSymbolTableRecord
100
AcDbLinetypeTableRecord
  2
Continuous
 70
     0
  3
Solid line
 72
    65
 73
     0
 40
0.0
  0
LTYPE
  5
3F
330
5
100
AcDbSymbolTableRecord
100
AcDbLinetypeTableRecord
  2
DASHED
 70
     0
  3
Dashed
 72
    65
 73
     2
 40
15.0
 49
7.0
 74
     0
 49
-8.0
 74
     0
  0
LTYPE
  5
40
330
5
100
AcDbSymbolTableRecord
100
AcDbLinetypeTableRecord
  2
DOTTED
 70
     0
  3
Dotted
 72
    65
 73
     2
 40
1.0
 49
0.0
 74
     0
 49
-1.0
 74
     0
  0
LTYPE
  5
41
330
5
100
AcDbSymbolTableRecord
100
AcDbLinetypeTableRecord
  2
DOT_CENTER
 70
     0
  3
Dot_Center
 72
    65
 73
     4
 40
14.0
 49
12.0
 74
     0
 49
-1.0
 74
     0
 49
0.0
 74
     0
 49
-1.0
 74
     0
  0
LTYPE
  5
42
330
5
100
AcDbSymbolTableRecord
100
AcDbLinetypeTableRecord
  2
LONG_DASHED
 70
     0
  3
Long_Dashed
 72
    65
 73
     2
 40
15.0
 49
10.0
 74
     0
 49
-5.0
 74
     0
  0
LTYPE
  5
43
330
5
100
AcDbSymbolTableRecord
100
AcDbLinetypeTableRecord
  2
DASH_CENTER
 70
     0
  3
Dash_Center
 72
    65
 73
     4
 40
14.0
 49
11.0
 74
     0
 49
-1.0
 74
     0
 49
1.0
 74
     0
 49
-1.0
 74
     0
  0
LTYPE
  5
44
330
5
100
AcDbSymbolTableRecord
100
AcDbLinetypeTableRecord
  2
PHANTOM
 70
     0
  3
Phantom
 72
    65
 73
     6
 40
13.0
 49
10.0
 74
     0
 49
-1.0
 74
     0
 49
0.0
 74
     0
 49
-1.0
 74
     0
 49
0.0
 74
     0
 49
-1.0
 74
     0
  0
LTYPE
  5
45
330
5
100
AcDbSymbolTableRecord
100
AcDbLinetypeTableRecord
  2
CENTER_DASH_DASH
 70
     0
  3
Center_Dash_Dash
 72
    65
 73
     6
 40
14.0
 49
9.0
 74
     0
 49
-1.0
 74
     0
 49
1.0
 74
     0
 49
-1.0
 74
     0
 49
1.0
 74
     0
 49
-1.0
 74
     0
  0
ENDTAB
  0
TABLE
  2
LAYER
  5
2
330
0
100
AcDbSymbolTable
 70
     4
  0
LAYER
  5
10
330
2
100
AcDbSymbolTableRecord
100
AcDbLayerTableRecord
  2
0
 70
     0
 62
     7
  6
Continuous
370
    -3
390
F
  0
LAYER
  5
46
330
2
100
AcDbSymbolTableRecord
100
AcDbLayerTableRecord
  2
1
 70
     0
 62
     7
  6
Continuous
370
    -3
390
F
  0
LAYER
  5
47
330
2
100
AcDbSymbolTableRecord
100
AcDbLayerTableRecord
  2
2
 70
     0
 62
     7
  6
Continuous
370
    -3
390
F
  0
LAYER
  5
48
330
2
100
AcDbSymbolTableRecord
100
AcDbLayerTableRecord
  2
3
 70
     0
 62
     7
  6
Continuous
370
    -3
390
F
  0
ENDTAB
  0
TABLE
  2
STYLE
  5
3
330
0
100
AcDbSymbolTable
 70
     1
  0
STYLE
  5
11
330
3
100
AcDbSymbolTableRecord
100
AcDbTextStyleTableRecord
  2
Standard
 70
     0
 40
0.0
 41
1.0
 50
0.0
 71
     0
 42
0.2
  3
txt
  4

  0
ENDTAB
  0
TABLE
  2
VIEW
  5
6
330
0
100
AcDbSymbolTable
 70
     0
  0
ENDTAB
  0
TABLE
  2
UCS
  5
7
330
0
100
AcDbSymbolTable
 70
     0
  0
ENDTAB
  0
TABLE
  2
APPID
  5
9
330
0
100
AcDbSymbolTable
 70
     1
  0
APPID
  5
12
330
9
100
AcDbSymbolTableRecord
100
AcDbRegAppTableRecord
  2
ACAD
 70
     0
  0
ENDTAB
  0
TABLE
  2
DIMSTYLE
  5
A
330
0
100
AcDbSymbolTable
 70
     1
100
AcDbDimStyleTable
  0
DIMSTYLE
105
27
330
A
100
AcDbSymbolTableRecord
100
AcDbDimStyleTableRecord
  2
Standard
 70
     0
340
11
  0
ENDTAB
  0
TABLE
  2
BLOCK_RECORD
  5
1
330
0
100
AcDbSymbolTable
 70
     1
  0
BLOCK_RECORD
  5
1F
330
1
100
AcDbSymbolTableRecord
100
AcDbBlockTableRecord
  2
*Model_Space
340
22
  0
BLOCK_RECORD
  5
1B
330
1
100
AcDbSymbolTableRecord
100
AcDbBlockTableRecord
  2
*Paper_Space
340
1E
  0
BLOCK_RECORD
  5
23
330
1
100
AcDbSymbolTableRecord
100
AcDbBlockTableRecord
  2
*Paper_Space0
340
26
  0
ENDTAB
  0
ENDSEC
  0
SECTION
  2
BLOCKS
  0
BLOCK
  5
20
330
1F
100
AcDbEntity
  8
0
100
AcDbBlockBegin
  2
*Model_Space
 70
     0
 10
0.0
 20
0.0
 30
0.0
  3
*Model_Space
  1

  0
ENDBLK
  5
21
330
1F
100
AcDbEntity
  8
0
100
AcDbBlockEnd
  0
BLOCK
  5
1C
330
1B
100
AcDbEntity
 67
     1
  8
0
100
AcDbBlockBegin
  2
*Paper_Space
 70
     0
 10
0.0
 20
0.0
 30
0.0
  3
*Paper_Space
  1

  0
ENDBLK
  5
1D
330
1B
100
AcDbEntity
 67
     1
  8
0
100
AcDbBlockEnd
  0
BLOCK
  5
24
330
23
100
AcDbEntity
  8
0
100
AcDbBlockBegin
  2
*Paper_Space0
 70
     0
 10
0.0
 20
0.0
 30
0.0
  3
*Paper_Space0
  1

  0
ENDBLK
  5
25
330
23
100
AcDbEntity
  8
0
100
AcDbBlockEnd
  0
ENDSEC
  0
SECTION
  2
ENTITIES
  0
POINT
  5
49
330
1F
100
AcDbEntity
  8
1
 62
     3
100
AcDbPoint
 10
120.1279166495292
 20
232.328826274442
 30
0.0
  0
POINT
  5
4A
330
1F
100
AcDbEntity
  8
1
 62
     3
100
AcDbPoint
 10
115.2279166495293
 20
232.328826274442
 30
0.0
  0
LINE
  5
4B
330
1F
100
AcDbEntity
  8
1
  6
Continuous
 62
     4
100
AcDbLine
 10
132.1921089271705
 20
31.68652957158824
 30
0.0
 11
130.6038736330528
 21
30.48652957158824
 31
0.0
  0
LINE
  5
4C
330
1F
100
AcDbEntity
  8
1
  6
Continuous
 62
     4
100
AcDbLine
 10
130.6038736330528
 20
32.88652957158824
 30
0.0
 11
132.1921089271705
 21
31.68652957158824
 31
0.0
  0
LINE
  5
4D
330
1F
100
AcDbEntity
  8
1
  6
Continuous
 62
     4
100
AcDbLine
 10
126.3685795154058
 20
31.68652957158824
 30
0.0
 11
132.1921089271705
 21
31.68652957158824
 31
0.0
  0
LINE
  5
4E
330
1F
100
AcDbEntity
  8
1
  6
Continuous
 62
     4
100
AcDbLine
 10
122.7327605208605
 20
33.56799882045643
 30
0.0
 11
124.7180546385076
 21
33.56799882045643
 31
0.0
  0
LINE
  5
4F
330
1F
100
AcDbEntity
  8
1
  6
Continuous
 62
     4
100
AcDbLine
 10
121.8062899326253
 20
30.71799882045643
 30
0.0
 11
121.8062899326253
 21
32.81799882045643
 31
0.0
  0
LINE
  5
50
330
1F
100
AcDbEntity
  8
1
  6
Continuous
 62
     4
100
AcDbLine
 10
124.0562899326253
 20
30.71799882045643
 30
0.0
 11
121.8062899326253
 21
30.71799882045643
 31
0.0
  0
LINE
  5
51
330
1F
100
AcDbEntity
  8
1
  6
Continuous
 62
     4
100
AcDbLine
 10
124.0562899326253
 20
32.81799882045643
 30
0.0
 11
124.0562899326253
 21
30.71799882045643
 31
0.0
  0
LINE
  5
52
330
1F
100
AcDbEntity
  8
1
  6
Continuous
 62
     4
100
AcDbLine
 10
121.8062899326253
 20
32.81799882045643
 30
0.0
 11
124.0562899326253
 21
32.81799882045643
 31
0.0
  0
LINE
  5
53
330
1F
100
AcDbEntity
  8
1
  6
Continuous
 62
     4
100
AcDbLine
 10
124.3209958149782
 20
29.66799882045643
 30
0.0
 11
123.6592311090958
 21
29.81799882045643
 31
0.0
  0
LINE
  5
54
330
1F
100
AcDbEntity
  8
1
  6
Continuous
 62
     4
100
AcDbLine
 10
124.7180546385076
 20
30.11799882045643
 30
0.0
 11
124.3209958149782
 21
29.66799882045643
 31
0.0
  0
LINE
  5
55
330
1F
100
AcDbEntity
  8
1
  6
Continuous
 62
     4
100
AcDbLine
 10
124.7180546385076
 20
33.56799882045643
 30
0.0
 11
124.7180546385076
 21
30.11799882045643
 31
0.0
  0
LINE
  5
56
330
1F
100
AcDbEntity
  8
1
  6
Continuous
 62
     4
100
AcDbLine
 10
121.1445252267429
 20
33.56799882045643
 30
0.0
 11
122.7327605208605
 21
33.56799882045643
 31
0.0
  0
LINE
  5
57
330
1F
100
AcDbEntity
  8
1
  6
Continuous
 62
     4
100
AcDbLine
 10
121.1445252267429
 20
29.66799882045643
 30
0.0
 11
121.1445252267429
 21
33.56799882045643
 31
0.0
  0
LINE
  5
58
330
1F
100
AcDbEntity
  8
1
  6
Continuous
 62
     4
100
AcDbLine
 10
122.9974664032135
 20
34.16799882045643
 30
0.0
 11
122.7327605208605
 21
33.56799882045643
 31
0.0
  0
LINE
  5
59
330
1F
100
AcDbEntity
  8
1
  6
Continuous
 62
     4
100
AcDbLine
 10
116.7768781679194
 20
33.56799882045643
 30
0.0
 11
119.5562899326253
 21
33.56799882045643
 31
0.0
  0
LINE
  5
5A
330
1F
100
AcDbEntity
  8
1
  6
Continuous
 62
     4
100
AcDbLine
 10
116.7768781679194
 20
32.51799882045643
 30
0.0
 11
116.7768781679194
 21
32.06799882045643
 31
0.0
  0
LINE
  5
5B
330
1F
100
AcDbEntity
  8
1
  6
Continuous
 62
     4
100
AcDbLine
 10
118.4974664032135
 20
29.66799882045643
 30
0.0
 11
117.3062899326253
 21
29.81799882045643
 31
0.0
  0
LINE
  5
5C
330
1F
100
AcDbEntity
  8
1
  6
Continuous
 62
     4
100
AcDbLine
 10
119.2915840502723
 20
30.71799882045643
 30
0.0
 11
118.4974664032135
 21
29.66799882045643
 31
0.0
  0
LINE
  5
5D
330
1F
100
AcDbEntity
  8
1
  6
Continuous
 62
     4
100
AcDbLine
 10
119.2915840502723
 20
32.51799882045643
 30
0.0
 11
119.2915840502723
 21
30.71799882045643
 31
0.0
  0
LINE
  5
5E
330
1F
100
AcDbEntity
  8
1
  6
Continuous
 62
     4
100
AcDbLine
 10
116.7768781679194
 20
32.51799882045643
 30
0.0
 11
119.2915840502723
 21
32.51799882045643
 31
0.0
  0
LINE
  5
5F
330
1F
100
AcDbEntity
  8
1
  6
Continuous
 62
     4
100
AcDbLine
 10
116.3798193443899
 20
30.71799882045643
 30
0.0
 11
115.5857016973311
 21
29.66799882045643
 31
0.0
  0
LINE
  5
60
330
1F
100
AcDbEntity
  8
1
  6
Continuous
 62
     4
100
AcDbLine
 10
116.7768781679194
 20
32.06799882045643
 30
0.0
 11
116.3798193443899
 21
30.71799882045643
 31
0.0
  0
LINE
  5
61
330
1F
100
AcDbEntity
  8
1
  6
Continuous
 62
     4
100
AcDbLine
 10
116.7768781679194
 20
33.56799882045643
 30
0.0
 11
116.7768781679194
 21
32.51799882045643
 31
0.0
  0
LINE
  5
62
330
1F
100
AcDbEntity
  8
1
  6
Continuous
 62
     4
100
AcDbLine
 10
115.5857016973311
 20
33.56799882045643
 30
0.0
 11
116.7768781679194
 21
33.56799882045643
 31
0.0
  0
LINE
  5
63
330
1F
100
AcDbEntity
  8
1
  6
Continuous
 62
     4
100
AcDbLine
 10
117.7033487561547
 20
34.16799882045643
 30
0.0
 11
117.7033487561547
 21
33.56799882045643
 31
0.0
  0
LINE
  5
64
330
1F
100
AcDbEntity
  8
1
  6
Continuous
 62
     4
100
AcDbLine
 10
112.2768781679194
 20
33.71799882045643
 30
0.0
 11
112.2768781679194
 21
29.51799882045643
 31
0.0
  0
LINE
  5
65
330
1F
100
AcDbEntity
  8
1
  6
Continuous
 62
     4
100
AcDbLine
 10
113.4680546385076
 20
30.86799882045643
 30
0.0
 11
114.3945252267429
 21
29.81799882045643
 31
0.0
  0
LINE
  5
66
330
1F
100
AcDbEntity
  8
1
  6
Continuous
 62
     4
100
AcDbLine
 10
112.8062899326252
 20
32.06799882045643
 30
0.0
 11
113.4680546385076
 21
30.86799882045643
 31
0.0
  0
LINE
  5
67
330
1F
100
AcDbEntity
  8
1
  6
Continuous
 62
     4
100
AcDbLine
 10
112.2768781679194
 20
33.71799882045643
 30
0.0
 11
112.8062899326252
 21
32.06799882045643
 31
0.0
  0
LINE
  5
68
330
1F
100
AcDbEntity
  8
1
  6
Continuous
 62
     4
100
AcDbLine
 10
114.1298193443899
 20
33.71799882045643
 30
0.0
 11
113.0709958149782
 21
32.21799882045643
 31
0.0
  0
LINE
  5
69
330
1F
100
AcDbEntity
  8
1
  6
Continuous
 62
     4
100
AcDbLine
 10
111.0857016973311
 20
31.01799882045643
 30
0.0
 11
110.2915840502723
 21
29.96799882045643
 31
0.0
  0
LINE
  5
6A
330
1F
100
AcDbEntity
  8
1
  6
Continuous
 62
     4
100
AcDbLine
 10
111.4827605208605
 20
32.06799882045643
 30
0.0
 11
111.0857016973311
 21
31.01799882045643
 31
0.0
  0
LINE
  5
6B
330
1F
100
AcDbEntity
  8
1
  6
Continuous
 62
     4
100
AcDbLine
 10
111.615113462037
 20
33.26799882045643
 30
0.0
 11
111.4827605208605
 21
32.06799882045643
 31
0.0
  0
LINE
  5
6C
330
1F
100
AcDbEntity
  8
1
  6
Continuous
 62
     4
100
AcDbLine
 10
110.2915840502723
 20
33.26799882045643
 30
0.0
 11
111.615113462037
 21
33.26799882045643
 31
0.0
  0
LINE
  5
6D
330
1F
100
AcDbEntity
  8
1
  6
Continuous
 62
     4
100
AcDbLine
 10
112.2768781679194
 20
29.51799882045643
 30
0.0
 11
111.3504075796841
 21
30.11799882045643
 31
0.0
  0
LINE
  5
6E
330
1F
100
AcDbEntity
  8
1
  6
Continuous
 62
     4
100
AcDbLine
 10
112.2768781679194
 20
34.16799882045643
 30
0.0
 11
112.2768781679194
 21
33.71799882045643
 31
0.0
  0
LINE
  5
6F
330
1F
100
AcDbEntity
  8
1
  6
Continuous
 62
     4
100
AcDbLine
 10
107.3798193443899
 20
33.71799882045643
 30
0.0
 11
108.8357016973311
 21
33.71799882045643
 31
0.0
  0
LINE
  5
70
330
1F
100
AcDbEntity
  8
1
  6
Continuous
 62
     4
100
AcDbLine
 10
108.9680546385076
 20
29.66799882045643
 30
0.0
 11
108.9680546385076
 21
30.71799882045643
 31
0.0
  0
LINE
  5
71
330
1F
100
AcDbEntity
  8
1
  6
Continuous
 62
     4
100
AcDbLine
 10
108.3062899326252
 20
29.66799882045643
 30
0.0
 11
108.9680546385076
 21
29.66799882045643
 31
0.0
  0
LINE
  5
72
330
1F
100
AcDbEntity
  8
1
  6
Continuous
 62
     4
100
AcDbLine
 10
108.3062899326252
 20
32.06799882045643
 30
0.0
 11
108.3062899326252
 21
29.66799882045643
 31
0.0
  0
LINE
  5
73
330
1F
100
AcDbEntity
  8
1
  6
Continuous
 62
     4
100
AcDbLine
 10
107.3798193443899
 20
32.06799882045643
 30
0.0
 11
107.3798193443899
 21
29.66799882045643
 31
0.0
  0
LINE
  5
74
330
1F
100
AcDbEntity
  8
1
  6
Continuous
 62
     4
100
AcDbLine
 10
106.1886428738017
 20
30.41799882045643
 30
0.0
 11
105.6592311090958
 21
29.66799882045643
 31
0.0
  0
LINE
  5
75
330
1F
100
AcDbEntity
  8
1
  6
Continuous
 62
     4
100
AcDbLine
 10
106.4533487561547
 20
31.16799882045643
 30
0.0
 11
106.1886428738017
 21
30.41799882045643
 31
0.0
  0
LINE
  5
76
330
1F
100
AcDbEntity
  8
1
  6
Continuous
 62
     4
100
AcDbLine
 10
106.5857016973311
 20
32.06799882045643
 30
0.0
 11
106.4533487561547
 21
31.16799882045643
 31
0.0
  0
LINE
  5
77
330
1F
100
AcDbEntity
  8
1
  6
Continuous
 62
     4
100
AcDbLine
 10
108.7033487561547
 20
32.21799882045643
 30
0.0
 11
108.9680546385076
 21
31.61799882045643
 31
0.0
  0
LINE
  5
78
330
1F
100
AcDbEntity
  8
1
  6
Continuous
 62
     4
100
AcDbLine
 10
108.1739369914488
 20
33.11799882045643
 30
0.0
 11
108.7033487561547
 21
32.21799882045643
 31
0.0
  0
LINE
  5
79
330
1F
100
AcDbEntity
  8
1
  6
Continuous
 62
     4
100
AcDbLine
 10
106.3209958149782
 20
32.06799882045643
 30
0.0
 11
108.7033487561547
 21
32.21799882045643
 31
0.0
  0
LINE
  5
7A
330
1F
100
AcDbEntity
  8
1
  6
Continuous
 62
     4
100
AcDbLine
 10
105.9239369914488
 20
32.06799882045643
 30
0.0
 11
106.3209958149782
 21
32.06799882045643
 31
0.0
  0
LINE
  5
7B
330
1F
100
AcDbEntity
  8
1
  6
Continuous
 62
     4
100
AcDbLine
 10
107.3798193443899
 20
33.71799882045643
 30
0.0
 11
106.3209958149782
 21
32.06799882045643
 31
0.0
  0
LINE
  5
7C
330
1F
100
AcDbEntity
  8
1
  6
Continuous
 62
     4
100
AcDbLine
 10
107.3798193443899
 20
34.31799882045643
 30
0.0
 11
107.3798193443899
 21
33.71799882045643
 31
0.0
  0
LINE
  5
7D
330
1F
100
AcDbEntity
  8
1
  6
Continuous
 62
     4
100
AcDbLine
 10
105.9239369914488
 20
33.71799882045643
 30
0.0
 11
107.3798193443899
 21
33.71799882045643
 31
0.0
  0
LINE
  5
7E
330
1F
100
AcDbEntity
  8
1
  6
Continuous
 62
     4
100
AcDbLine
 10
105.1298193443899
 20
29.66799882045643
 30
0.0
 11
105.7915840502723
 21
31.46799882045643
 31
0.0
  0
LINE
  5
7F
330
1F
100
AcDbEntity
  8
1
  6
Continuous
 62
     4
100
AcDbLine
 10
105.1298193443899
 20
32.51799882045643
 30
0.0
 11
105.7915840502723
 21
31.91799882045643
 31
0.0
  0
LINE
  5
80
330
1F
100
AcDbEntity
  8
1
  6
Continuous
 62
     4
100
AcDbLine
 10
105.2621722855664
 20
33.86799882045643
 30
0.0
 11
105.9239369914488
 21
33.26799882045643
 31
0.0
  0
LINE
  5
81
330
1F
100
AcDbEntity
  8
1
  6
Continuous
 62
     4
100
AcDbLine
 10
235.158412355322
 20
19.0949937651971
 30
0.0
 11
234.3642947082632
 21
19.3949937651971
 31
0.0
  0
LINE
  5
82
330
1F
100
AcDbEntity
  8
1
  6
Continuous
 62
     4
100
AcDbLine
 10
235.6878241200279
 20
18.3449937651971
 30
0.0
 11
235.158412355322
 21
19.0949937651971
 31
0.0
  0
LINE
  5
83
330
1F
100
AcDbEntity
  8
1
  6
Continuous
 62
     4
100
AcDbLine
 10
235.8201770612044
 20
17.1449937651971
 30
0.0
 11
235.6878241200279
 21
18.3449937651971
 31
0.0
  0
LINE
  5
84
330
1F
100
AcDbEntity
  8
1
  6
Continuous
 62
     4
100
AcDbLine
 10
235.6878241200279
 20
15.9449937651971
 30
0.0
 11
235.8201770612044
 21
17.1449937651971
 31
0.0
  0
LINE
  5
85
330
1F
100
AcDbEntity
  8
1
  6
Continuous
 62
     4
100
AcDbLine
 10
235.158412355322
 20
15.1949937651971
 30
0.0
 11
235.6878241200279
 21
15.9449937651971
 31
0.0
  0
LINE
  5
86
330
1F
100
AcDbEntity
  8
1
  6
Continuous
 62
     4
100
AcDbLine
 10
234.3642947082632
 20
14.8949937651971
 30
0.0
 11
235.158412355322
 21
15.1949937651971
 31
0.0
  0
LINE
  5
87
330
1F
100
AcDbEntity
  8
1
  6
Continuous
 62
     4
100
AcDbLine
 10
233.5701770612044
 20
15.1949937651971
 30
0.0
 11
234.3642947082632
 21
14.8949937651971
 31
0.0
  0
LINE
  5
88
330
1F
100
AcDbEntity
  8
1
  6
Continuous
 62
     4
100
AcDbLine
 10
233.1731182376749
 20
15.9449937651971
 30
0.0
 11
233.5701770612044
 21
15.1949937651971
 31
0.0
  0
LINE
  5
89
330
1F
100
AcDbEntity
  8
1
  6
Continuous
 62
     4
100
AcDbLine
 10
232.908412355322
 20
17.1449937651971
 30
0.0
 11
233.1731182376749
 21
15.9449937651971
 31
0.0
  0
LINE
  5
8A
330
1F
100
AcDbEntity
  8
1
  6
Continuous
 62
     4
100
AcDbLine
 10
233.1731182376749
 20
18.3449937651971
 30
0.0
 11
232.908412355322
 21
17.1449937651971
 31
0.0
  0
LINE
  5
8B
330
1F
100
AcDbEntity
  8
1
  6
Continuous
 62
     4
100
AcDbLine
 10
233.5701770612044
 20
19.0949937651971
 30
0.0
 11
233.1731182376749
 21
18.3449937651971
 31
0.0
  0
LINE
  5
8C
330
1F
100
AcDbEntity
  8
1
  6
Continuous
 62
     4
100
AcDbLine
 10
234.3642947082632
 20
19.3949937651971
 30
0.0
 11
233.5701770612044
 21
19.0949937651971
 31
0.0
  0
LINE
  5
8D
330
1F
100
AcDbEntity
  8
1
  6
Continuous
 62
     4
100
AcDbLine
 10
229.2025300023808
 20
17.1449937651971
 30
0.0
 11
231.5848829435573
 21
17.1449937651971
 31
0.0
  0
LINE
  5
8E
330
1F
100
AcDbEntity
  8
1
  6
Continuous
 62
     4
100
AcDbLine
 10
227.8790005906161
 20
19.3949937651971
 30
0.0
 11
227.8790005906161
 21
14.8949937651971
 31
0.0
  0
LINE
  5
8F
330
1F
100
AcDbEntity
  8
1
  6
Continuous
 62
     4
100
AcDbLine
 10
227.2172358847338
 20
18.9449937651971
 30
0.0
 11
227.8790005906161
 21
19.3949937651971
 31
0.0
  0
LINE
  5
90
330
1F
100
AcDbEntity
  8
1
  6
Continuous
 62
     4
100
AcDbLine
 10
225.2319417670867
 20
19.0949937651971
 30
0.0
 11
224.4378241200279
 21
19.3949937651971
 31
0.0
  0
LINE
  5
91
330
1F
100
AcDbEntity
  8
1
  6
Continuous
 62
     4
100
AcDbLine
 10
225.7613535317926
 20
18.3449937651971
 30
0.0
 11
225.2319417670867
 21
19.0949937651971
 31
0.0
  0
LINE
  5
92
330
1F
100
AcDbEntity
  8
1
  6
Continuous
 62
     4
100
AcDbLine
 10
225.893706472969
 20
17.1449937651971
 30
0.0
 11
225.7613535317926
 21
18.3449937651971
 31
0.0
  0
LINE
  5
93
330
1F
100
AcDbEntity
  8
1
  6
Continuous
 62
     4
100
AcDbLine
 10
225.7613535317926
 20
15.9449937651971
 30
0.0
 11
225.893706472969
 21
17.1449937651971
 31
0.0
  0
LINE
  5
94
330
1F
100
AcDbEntity
  8
1
  6
Continuous
 62
     4
100
AcDbLine
 10
225.2319417670867
 20
15.1949937651971
 30
0.0
 11
225.7613535317926
 21
15.9449937651971
 31
0.0
  0
LINE
  5
95
330
1F
100
AcDbEntity
  8
1
  6
Continuous
 62
     4
100
AcDbLine
 10
224.4378241200279
 20
14.8949937651971
 30
0.0
 11
225.2319417670867
 21
15.1949937651971
 31
0.0
  0
LINE
  5
96
330
1F
100
AcDbEntity
  8
1
  6
Continuous
 62
     4
100
AcDbLine
 10
223.643706472969
 20
15.1949937651971
 30
0.0
 11
224.4378241200279
 21
14.8949937651971
 31
0.0
  0
LINE
  5
97
330
1F
100
AcDbEntity
  8
1
  6
Continuous
 62
     4
100
AcDbLine
 10
223.2466476494396
 20
15.9449937651971
 30
0.0
 11
223.643706472969
 21
15.1949937651971
 31
0.0
  0
LINE
  5
98
330
1F
100
AcDbEntity
  8
1
  6
Continuous
 62
     4
100
AcDbLine
 10
222.9819417670867
 20
17.1449937651971
 30
0.0
 11
223.2466476494396
 21
15.9449937651971
 31
0.0
  0
LINE
  5
99
330
1F
100
AcDbEntity
  8
1
  6
Continuous
 62
     4
100
AcDbLine
 10
223.2466476494396
 20
18.3449937651971
 30
0.0
 11
222.9819417670867
 21
17.1449937651971
 31
0.0
  0
LINE
  5
9A
330
1F
100
AcDbEntity
  8
1
  6
Continuous
 62
     4
100
AcDbLine
 10
223.643706472969
 20
19.0949937651971
 30
0.0
 11
223.2466476494396
 21
18.3449937651971
 31
0.0
  0
LINE
  5
9B
330
1F
100
AcDbEntity
  8
1
  6
Continuous
 62
     4
100
AcDbLine
 10
224.4378241200279
 20
19.3949937651971
 30
0.0
 11
223.643706472969
 21
19.0949937651971
 31
0.0
  0
LINE
  5
9C
330
1F
100
AcDbEntity
  8
1
  6
Continuous
 62
     4
100
AcDbLine
 10
219.143706472969
 20
17.1449937651971
 30
0.0
 11
219.143706472969
 21
14.8949937651971
 31
0.0
  0
LINE
  5
9D
330
1F
100
AcDbEntity
  8
1
  6
Continuous
 62
     4
100
AcDbLine
 10
219.143706472969
 20
17.1449937651971
 30
0.0
 11
221.393706472969
 21
17.1449937651971
 31
0.0
  0
LINE
  5
9E
330
1F
100
AcDbEntity
  8
1
  6
Continuous
 62
     4
100
AcDbLine
 10
219.143706472969
 20
19.3949937651971
 30
0.0
 11
219.143706472969
 21
17.1449937651971
 31
0.0
  0
LINE
  5
9F
330
1F
100
AcDbEntity
  8
1
  6
Continuous
 62
     4
100
AcDbLine
 10
221.658412355322
 20
19.3949937651971
 30
0.0
 11
219.143706472969
 21
19.3949937651971
 31
0.0
  0
LINE
  5
A0
330
1F
100
AcDbEntity
  8
1
  6
Continuous
 62
     4
100
AcDbLine
 10
216.893706472969
 20
14.8949937651971
 30
0.0
 11
217.8201770612043
 21
19.3949937651971
 31
0.0
  0
LINE
  5
A1
330
1F
100
AcDbEntity
  8
1
  6
Continuous
 62
     4
100
AcDbLine
 10
215.8348829435573
 20
19.2449937651971
 30
0.0
 11
216.893706472969
 21
14.8949937651971
 31
0.0
  0
LINE
  5
A2
330
1F
100
AcDbEntity
  8
1
  6
Continuous
 62
     4
100
AcDbLine
 10
214.908412355322
 20
14.8949937651971
 30
0.0
 11
215.8348829435573
 21
19.2449937651971
 31
0.0
  0
LINE
  5
A3
330
1F
100
AcDbEntity
  8
1
  6
Continuous
 62
     4
100
AcDbLine
 10
213.8495888259102
 20
19.3949937651971
 30
0.0
 11
214.908412355322
 21
14.8949937651971
 31
0.0
  0
LINE
  5
A4
330
1F
100
AcDbEntity
  8
1
  6
Continuous
 62
     4
100
AcDbLine
 10
209.8790005906161
 20
15.3449937651971
 30
0.0
 11
209.6142947082632
 21
15.6449937651971
 31
0.0
  0
LINE
  5
A5
330
1F
100
AcDbEntity
  8
1
  6
Continuous
 62
     4
100
AcDbLine
 10
210.408412355322
 20
15.0449937651971
 30
0.0
 11
209.8790005906161
 21
15.3449937651971
 31
0.0
  0
LINE
  5
A6
330
1F
100
AcDbEntity
  8
1
  6
Continuous
 62
     4
100
AcDbLine
 10
211.0701770612043
 20
14.8949937651971
 30
0.0
 11
210.408412355322
 21
15.0449937651971
 31
0.0
  0
LINE
  5
A7
330
1F
100
AcDbEntity
  8
1
  6
Continuous
 62
     4
100
AcDbLine
 10
211.8642947082632
 20
15.0449937651971
 30
0.0
 11
211.0701770612043
 21
14.8949937651971
 31
0.0
  0
LINE
  5
A8
330
1F
100
AcDbEntity
  8
1
  6
Continuous
 62
     4
100
AcDbLine
 10
212.2613535317926
 20
15.3449937651971
 30
0.0
 11
211.8642947082632
 21
15.0449937651971
 31
0.0
  0
LINE
  5
A9
330
1F
100
AcDbEntity
  8
1
  6
Continuous
 62
     4
100
AcDbLine
 10
212.5260594141455
 20
16.0949937651971
 30
0.0
 11
212.2613535317926
 21
15.3449937651971
 31
0.0
  0
LINE
  5
AA
330
1F
100
AcDbEntity
  8
1
  6
Continuous
 62
     4
100
AcDbLine
 10
212.2613535317926
 20
16.8449937651971
 30
0.0
 11
212.5260594141455
 21
16.0949937651971
 31
0.0
  0
LINE
  5
AB
330
1F
100
AcDbEntity
  8
1
  6
Continuous
 62
     4
100
AcDbLine
 10
211.5995888259102
 20
17.2949937651971
 30
0.0
 11
212.2613535317926
 21
16.8449937651971
 31
0.0
  0
LINE
  5
AC
330
1F
100
AcDbEntity
  8
1
  6
Continuous
 62
     4
100
AcDbLine
 10
210.9378241200278
 20
17.2949937651971
 30
0.0
 11
211.5995888259102
 21
17.2949937651971
 31
0.0
  0
LINE
  5
AD
330
1F
100
AcDbEntity
  8
1
  6
Continuous
 62
     4
100
AcDbLine
 10
211.5995888259102
 20
17.2949937651971
 30
0.0
 11
210.9378241200278
 21
17.2949937651971
 31
0.0
  0
LINE
  5
AE
330
1F
100
AcDbEntity
  8
1
  6
Continuous
 62
     4
100
AcDbLine
 10
212.1290005906161
 20
17.5949937651971
 30
0.0
 11
211.5995888259102
 21
17.2949937651971
 31
0.0
  0
LINE
  5
AF
330
1F
100
AcDbEntity
  8
1
  6
Continuous
 62
     4
100
AcDbLine
 10
212.393706472969
 20
18.1949937651971
 30
0.0
 11
212.1290005906161
 21
17.5949937651971
 31
0.0
  0
LINE
  5
B0
330
1F
100
AcDbEntity
  8
1
  6
Continuous
 62
     4
100
AcDbLine
 10
212.2613535317926
 20
18.6449937651971
 30
0.0
 11
212.393706472969
 21
18.1949937651971
 31
0.0
  0
LINE
  5
B1
330
1F
100
AcDbEntity
  8
1
  6
Continuous
 62
     4
100
AcDbLine
 10
211.8642947082632
 20
19.2449937651971
 30
0.0
 11
212.2613535317926
 21
18.6449937651971
 31
0.0
  0
LINE
  5
B2
330
1F
100
AcDbEntity
  8
1
  6
Continuous
 62
     4
100
AcDbLine
 10
211.0701770612043
 20
19.3949937651971
 30
0.0
 11
211.8642947082632
 21
19.2449937651971
 31
0.0
  0
LINE
  5
B3
330
1F
100
AcDbEntity
  8
1
  6
Continuous
 62
     4
100
AcDbLine
 10
210.2760594141455
 20
19.2449937651971
 30
0.0
 11
211.0701770612043
 21
19.3949937651971
 31
0.0
  0
LINE
  5
B4
330
1F
100
AcDbEntity
  8
1
  6
Continuous
 62
     4
100
AcDbLine
 10
209.7466476494396
 20
18.6449937651971
 30
0.0
 11
210.2760594141455
 21
19.2449937651971
 31
0.0
  0
LINE
  5
B5
330
1F
100
AcDbEntity
  8
1
  6
Continuous
 62
     4
100
AcDbLine
 10
206.1731182376749
 20
15.1949937651971
 30
0.0
 11
205.7760594141455
 21
15.6449937651971
 31
0.0
  0
LINE
  5
B6
330
1F
100
AcDbEntity
  8
1
  6
Continuous
 62
     4
100
AcDbLine
 10
207.0995888259102
 20
14.8949937651971
 30
0.0
 11
206.1731182376749
 21
15.1949937651971
 31
0.0
  0
LINE
  5
B7
330
1F
100
AcDbEntity
  8
1
  6
Continuous
 62
     4
100
AcDbLine
 10
207.7613535317926
 20
15.1949937651971
 30
0.0
 11
207.0995888259102
 21
14.8949937651971
 31
0.0
  0
LINE
  5
B8
330
1F
100
AcDbEntity
  8
1
  6
Continuous
 62
     4
100
AcDbLine
 10
208.158412355322
 20
15.6449937651971
 30
0.0
 11
207.7613535317926
 21
15.1949937651971
 31
0.0
  0
LINE
  5
B9
330
1F
100
AcDbEntity
  8
1
  6
Continuous
 62
     4
100
AcDbLine
 10
208.2907652964984
 20
16.2449937651971
 30
0.0
 11
208.158412355322
 21
15.6449937651971
 31
0.0
  0
LINE
  5
BA
330
1F
100
AcDbEntity
  8
1
  6
Continuous
 62
     4
100
AcDbLine
 10
208.2907652964984
 20
18.0449937651971
 30
0.0
 11
208.2907652964984
 21
16.2449937651971
 31
0.0
  0
LINE
  5
BB
330
1F
100
AcDbEntity
  8
1
  6
Continuous
 62
     4
100
AcDbLine
 10
208.0260594141455
 20
17.1449937651971
 30
0.0
 11
208.2907652964984
 21
18.0449937651971
 31
0.0
  0
LINE
  5
BC
330
1F
100
AcDbEntity
  8
1
  6
Continuous
 62
     4
100
AcDbLine
 10
207.6290005906161
 20
16.6949937651971
 30
0.0
 11
208.0260594141455
 21
17.1449937651971
 31
0.0
  0
LINE
  5
BD
330
1F
100
AcDbEntity
  8
1
  6
Continuous
 62
     4
100
AcDbLine
 10
207.0995888259102
 20
16.5449937651971
 30
0.0
 11
207.6290005906161
 21
16.6949937651971
 31
0.0
  0
LINE
  5
BE
330
1F
100
AcDbEntity
  8
1
  6
Continuous
 62
     4
100
AcDbLine
 10
206.5701770612043
 20
16.6949937651971
 30
0.0
 11
207.0995888259102
 21
16.5449937651971
 31
0.0
  0
LINE
  5
BF
330
1F
100
AcDbEntity
  8
1
  6
Continuous
 62
     4
100
AcDbLine
 10
206.0407652964984
 20
17.1449937651971
 30
0.0
 11
206.5701770612043
 21
16.6949937651971
 31
0.0
  0
LINE
  5
C0
330
1F
100
AcDbEntity
  8
1
  6
Continuous
 62
     4
100
AcDbLine
 10
205.908412355322
 20
17.4449937651971
 30
0.0
 11
206.0407652964984
 21
17.1449937651971
 31
0.0
  0
LINE
  5
C1
330
1F
100
AcDbEntity
  8
1
  6
Continuous
 62
     4
100
AcDbLine
 10
205.7760594141455
 20
18.0449937651971
 30
0.0
 11
205.908412355322
 21
17.4449937651971
 31
0.0
  0
LINE
  5
C2
330
1F
100
AcDbEntity
  8
1
  6
Continuous
 62
     4
100
AcDbLine
 10
206.0407652964984
 20
18.7949937651971
 30
0.0
 11
205.7760594141455
 21
18.0449937651971
 31
0.0
  0
LINE
  5
C3
330
1F
100
AcDbEntity
  8
1
  6
Continuous
 62
     4
100
AcDbLine
 10
206.4378241200278
 20
19.2449937651971
 30
0.0
 11
206.0407652964984
 21
18.7949937651971
 31
0.0
  0
LINE
  5
C4
330
1F
100
AcDbEntity
  8
1
  6
Continuous
 62
     4
100
AcDbLine
 10
207.0995888259102
 20
19.3949937651971
 30
0.0
 11
206.4378241200278
 21
19.2449937651971
 31
0.0
  0
LINE
  5
C5
330
1F
100
AcDbEntity
  8
1
  6
Continuous
 62
     4
100
AcDbLine
 10
207.7613535317926
 20
19.2449937651971
 30
0.0
 11
207.0995888259102
 21
19.3949937651971
 31
0.0
  0
LINE
  5
C6
330
1F
100
AcDbEntity
  8
1
  6
Continuous
 62
     4
100
AcDbLine
 10
208.158412355322
 20
18.7949937651971
 30
0.0
 11
207.7613535317926
 21
19.2449937651971
 31
0.0
  0
LINE
  5
C7
330
1F
100
AcDbEntity
  8
1
  6
Continuous
 62
     4
100
AcDbLine
 10
208.2907652964984
 20
18.0449937651971
 30
0.0
 11
208.158412355322
 21
18.7949937651971
 31
0.0
  0
LINE
  5
C8
330
1F
100
AcDbEntity
  8
1
  6
Continuous
 62
     4
100
AcDbLine
 10
203.7907652964984
 20
19.0949937651971
 30
0.0
 11
202.9966476494396
 21
19.3949937651971
 31
0.0
  0
LINE
  5
C9
330
1F
100
AcDbEntity
  8
1
  6
Continuous
 62
     4
100
AcDbLine
 10
204.3201770612043
 20
18.3449937651971
 30
0.0
 11
203.7907652964984
 21
19.0949937651971
 31
0.0
  0
LINE
  5
CA
330
1F
100
AcDbEntity
  8
1
  6
Continuous
 62
     4
100
AcDbLine
 10
204.4525300023808
 20
17.1449937651971
 30
0.0
 11
204.3201770612043
 21
18.3449937651971
 31
0.0
  0
LINE
  5
CB
330
1F
100
AcDbEntity
  8
1
  6
Continuous
 62
     4
100
AcDbLine
 10
204.3201770612043
 20
15.9449937651971
 30
0.0
 11
204.4525300023808
 21
17.1449937651971
 31
0.0
  0
LINE
  5
CC
330
1F
100
AcDbEntity
  8
1
  6
Continuous
 62
     4
100
AcDbLine
 10
203.7907652964984
 20
15.1949937651971
 30
0.0
 11
204.3201770612043
 21
15.9449937651971
 31
0.0
  0
LINE
  5
CD
330
1F
100
AcDbEntity
  8
1
  6
Continuous
 62
     4
100
AcDbLine
 10
202.9966476494396
 20
14.8949937651971
 30
0.0
 11
203.7907652964984
 21
15.1949937651971
 31
0.0
  0
LINE
  5
CE
330
1F
100
AcDbEntity
  8
1
  6
Continuous
 62
     4
100
AcDbLine
 10
202.2025300023808
 20
15.1949937651971
 30
0.0
 11
202.9966476494396
 21
14.8949937651971
 31
0.0
  0
LINE
  5
CF
330
1F
100
AcDbEntity
  8
1
  6
Continuous
 62
     4
100
AcDbLine
 10
201.8054711788514
 20
15.9449937651971
 30
0.0
 11
202.2025300023808
 21
15.1949937651971
 31
0.0
  0
LINE
  5
D0
330
1F
100
AcDbEntity
  8
1
  6
Continuous
 62
     4
100
AcDbLine
 10
201.5407652964984
 20
17.1449937651971
 30
0.0
 11
201.8054711788514
 21
15.9449937651971
 31
0.0
  0
LINE
  5
D1
330
1F
100
AcDbEntity
  8
1
  6
Continuous
 62
     4
100
AcDbLine
 10
201.8054711788514
 20
18.3449937651971
 30
0.0
 11
201.5407652964984
 21
17.1449937651971
 31
0.0
  0
LINE
  5
D2
330
1F
100
AcDbEntity
  8
1
  6
Continuous
 62
     4
100
AcDbLine
 10
202.2025300023808
 20
19.0949937651971
 30
0.0
 11
201.8054711788514
 21
18.3449937651971
 31
0.0
  0
LINE
  5
D3
330
1F
100
AcDbEntity
  8
1
  6
Continuous
 62
     4
100
AcDbLine
 10
202.9966476494396
 20
19.3949937651971
 30
0.0
 11
202.2025300023808
 21
19.0949937651971
 31
0.0
  0
LINE
  5
D4
330
1F
100
AcDbEntity
  8
1
  6
Continuous
 62
     4
100
AcDbLine
 10
199.5554711788514
 20
19.0949937651971
 30
0.0
 11
198.7613535317926
 21
19.3949937651971
 31
0.0
  0
LINE
  5
D5
330
1F
100
AcDbEntity
  8
1
  6
Continuous
 62
     4
100
AcDbLine
 10
200.0848829435573
 20
18.3449937651971
 30
0.0
 11
199.5554711788514
 21
19.0949937651971
 31
0.0
  0
LINE
  5
D6
330
1F
100
AcDbEntity
  8
1
  6
Continuous
 62
     4
100
AcDbLine
 10
200.2172358847337
 20
17.1449937651971
 30
0.0
 11
200.0848829435573
 21
18.3449937651971
 31
0.0
  0
LINE
  5
D7
330
1F
100
AcDbEntity
  8
1
  6
Continuous
 62
     4
100
AcDbLine
 10
200.0848829435573
 20
15.9449937651971
 30
0.0
 11
200.2172358847337
 21
17.1449937651971
 31
0.0
  0
LINE
  5
D8
330
1F
100
AcDbEntity
  8
1
  6
Continuous
 62
     4
100
AcDbLine
 10
199.5554711788514
 20
15.1949937651971
 30
0.0
 11
200.0848829435573
 21
15.9449937651971
 31
0.0
  0
LINE
  5
D9
330
1F
100
AcDbEntity
  8
1
  6
Continuous
 62
     4
100
AcDbLine
 10
198.7613535317926
 20
14.8949937651971
 30
0.0
 11
199.5554711788514
 21
15.1949937651971
 31
0.0
  0
LINE
  5
DA
330
1F
100
AcDbEntity
  8
1
  6
Continuous
 62
     4
100
AcDbLine
 10
197.9672358847337
 20
15.1949937651971
 30
0.0
 11
198.7613535317926
 21
14.8949937651971
 31
0.0
  0
LINE
  5
DB
330
1F
100
AcDbEntity
  8
1
  6
Continuous
 62
     4
100
AcDbLine
 10
197.5701770612043
 20
15.9449937651971
 30
0.0
 11
197.9672358847337
 21
15.1949937651971
 31
0.0
  0
LINE
  5
DC
330
1F
100
AcDbEntity
  8
1
  6
Continuous
 62
     4
100
AcDbLine
 10
197.3054711788514
 20
17.1449937651971
 30
0.0
 11
197.5701770612043
 21
15.9449937651971
 31
0.0
  0
LINE
  5
DD
330
1F
100
AcDbEntity
  8
1
  6
Continuous
 62
     4
100
AcDbLine
 10
197.5701770612043
 20
18.3449937651971
 30
0.0
 11
197.3054711788514
 21
17.1449937651971
 31
0.0
  0
LINE
  5
DE
330
1F
100
AcDbEntity
  8
1
  6
Continuous
 62
     4
100
AcDbLine
 10
197.9672358847337
 20
19.0949937651971
 30
0.0
 11
197.5701770612043
 21
18.3449937651971
 31
0.0
  0
LINE
  5
DF
330
1F
100
AcDbEntity
  8
1
  6
Continuous
 62
     4
100
AcDbLine
 10
198.7613535317926
 20
19.3949937651971
 30
0.0
 11
197.9672358847337
 21
19.0949937651971
 31
0.0
  0
LINE
  5
E0
330
1F
100
AcDbEntity
  8
1
  6
Continuous
 62
     4
100
AcDbLine
 10
191.7466476494396
 20
14.8949937651971
 30
0.0
 11
195.9819417670867
 21
14.8949937651971
 31
0.0
  0
LINE
  5
E1
330
1F
100
AcDbEntity
  8
1
  6
Continuous
 62
     4
100
AcDbLine
 10
186.9819417670867
 20
17.8949937651971
 30
0.0
 11
186.5848829435573
 21
16.5449937651971
 31
0.0
  0
LINE
  5
E2
330
1F
100
AcDbEntity
  8
1
  6
Continuous
 62
     4
100
AcDbLine
 10
188.0407652964985
 20
17.5949937651971
 30
0.0
 11
188.7025300023808
 21
15.9449937651971
 31
0.0
  0
LINE
  5
E3
330
1F
100
AcDbEntity
  8
1
  6
Continuous
 62
     4
100
AcDbLine
 10
189.893706472969
 20
14.7449937651971
 30
0.0
 11
188.4378241200279
 21
15.0449937651971
 31
0.0
  0
LINE
  5
E4
330
1F
100
AcDbEntity
  8
1
  6
Continuous
 62
     4
100
AcDbLine
 10
189.893706472969
 20
19.3949937651971
 30
0.0
 11
189.893706472969
 21
14.7449937651971
 31
0.0
  0
LINE
  5
E5
330
1F
100
AcDbEntity
  8
1
  6
Continuous
 62
     4
100
AcDbLine
 10
187.643706472969
 20
18.3449937651971
 30
0.0
 11
190.5554711788514
 21
18.3449937651971
 31
0.0
  0
LINE
  5
E6
330
1F
100
AcDbEntity
  8
1
  6
Continuous
 62
     4
100
AcDbLine
 10
186.9819417670867
 20
17.8949937651971
 30
0.0
 11
186.9819417670867
 21
14.8949937651971
 31
0.0
  0
LINE
  5
E7
330
1F
100
AcDbEntity
  8
1
  6
Continuous
 62
     4
100
AcDbLine
 10
187.3790005906161
 20
19.2449937651971
 30
0.0
 11
186.9819417670867
 21
17.8949937651971
 31
0.0
  0
LINE
  5
E8
330
1F
100
AcDbEntity
  8
1
  6
Continuous
 62
     4
100
AcDbLine
 10
183.0113535317925
 20
14.7449937651971
 30
0.0
 11
182.0848829435573
 21
15.1949937651971
 31
0.0
  0
LINE
  5
E9
330
1F
100
AcDbEntity
  8
1
  6
Continuous
 62
     4
100
AcDbLine
 10
183.5407652964984
 20
15.7949937651971
 30
0.0
 11
183.0113535317925
 21
14.7449937651971
 31
0.0
  0
LINE
  5
EA
330
1F
100
AcDbEntity
  8
1
  6
Continuous
 62
     4
100
AcDbLine
 10
183.5407652964984
 20
17.2949937651971
 30
0.0
 11
183.5407652964984
 21
15.7949937651971
 31
0.0
  0
LINE
  5
EB
330
1F
100
AcDbEntity
  8
1
  6
Continuous
 62
     4
100
AcDbLine
 10
183.0113535317925
 20
18.9449937651971
 30
0.0
 11
183.5407652964984
 21
17.2949937651971
 31
0.0
  0
LINE
  5
EC
330
1F
100
AcDbEntity
  8
1
  6
Continuous
 62
     4
100
AcDbLine
 10
181.2907652964984
 20
16.5449937651971
 30
0.0
 11
185.2613535317925
 21
16.5449937651971
 31
0.0
  0
LINE
  5
ED
330
1F
100
AcDbEntity
  8
1
  6
Continuous
 62
     4
100
AcDbLine
 10
181.4231182376749
 20
17.8949937651971
 30
0.0
 11
184.9966476494396
 21
17.8949937651971
 31
0.0
  0
LINE
  5
EE
330
1F
100
AcDbEntity
  8
1
  6
Continuous
 62
     4
100
AcDbLine
 10
183.0113535317925
 20
18.9449937651971
 30
0.0
 11
181.5554711788514
 21
18.9449937651971
 31
0.0
  0
LINE
  5
EF
330
1F
100
AcDbEntity
  8
1
  6
Continuous
 62
     4
100
AcDbLine
 10
184.7319417670867
 20
19.3949937651971
 30
0.0
 11
183.0113535317925
 21
18.9449937651971
 31
0.0
  0
LINE
  5
F0
330
1F
100
AcDbEntity
  8
1
  6
Continuous
 62
     4
100
AcDbLine
 10
178.9084123553219
 20
17.5949937651971
 30
0.0
 11
179.8348829435572
 21
17.5949937651971
 31
0.0
  0
LINE
  5
F1
330
1F
100
AcDbEntity
  8
1
  6
Continuous
 62
     4
100
AcDbLine
 10
178.9084123553219
 20
17.5949937651971
 30
0.0
 11
178.9084123553219
 21
15.3449937651971
 31
0.0
  0
LINE
  5
F2
330
1F
100
AcDbEntity
  8
1
  6
Continuous
 62
     4
100
AcDbLine
 10
177.7172358847337
 20
14.8949937651971
 30
0.0
 11
179.9672358847337
 21
14.8949937651971
 31
0.0
  0
LINE
  5
F3
330
1F
100
AcDbEntity
  8
1
  6
Continuous
 62
     4
100
AcDbLine
 10
177.7172358847337
 20
19.0949937651971
 30
0.0
 11
177.7172358847337
 21
14.8949937651971
 31
0.0
  0
LINE
  5
F4
330
1F
100
AcDbEntity
  8
1
  6
Continuous
 62
     4
100
AcDbLine
 10
178.9084123553219
 20
17.5949937651971
 30
0.0
 11
179.8348829435572
 21
15.7949937651971
 31
0.0
  0
LINE
  5
F5
330
1F
100
AcDbEntity
  8
1
  6
Continuous
 62
     4
100
AcDbLine
 10
178.9084123553219
 20
17.5949937651971
 30
0.0
 11
177.9819417670867
 21
15.7949937651971
 31
0.0
  0
LINE
  5
F6
330
1F
100
AcDbEntity
  8
1
  6
Continuous
 62
     4
100
AcDbLine
 10
178.9084123553219
 20
19.3949937651971
 30
0.0
 11
178.9084123553219
 21
17.5949937651971
 31
0.0
  0
LINE
  5
F7
330
1F
100
AcDbEntity
  8
1
  6
Continuous
 62
     4
100
AcDbLine
 10
177.9819417670867
 20
17.5949937651971
 30
0.0
 11
178.9084123553219
 21
17.5949937651971
 31
0.0
  0
LINE
  5
F8
330
1F
100
AcDbEntity
  8
1
  6
Continuous
 62
     4
100
AcDbLine
 10
179.7025300023808
 20
18.9449937651971
 30
0.0
 11
179.1731182376749
 21
17.8949937651971
 31
0.0
  0
LINE
  5
F9
330
1F
100
AcDbEntity
  8
1
  6
Continuous
 62
     4
100
AcDbLine
 10
178.1142947082631
 20
18.9449937651971
 30
0.0
 11
178.5113535317925
 21
17.8949937651971
 31
0.0
  0
LINE
  5
FA
330
1F
100
AcDbEntity
  8
1
  6
Continuous
 62
     4
100
AcDbLine
 10
177.1878241200278
 20
16.5449937651971
 30
0.0
 11
177.5848829435572
 21
15.3449937651971
 31
0.0
  0
LINE
  5
FB
330
1F
100
AcDbEntity
  8
1
  6
Continuous
 62
     4
100
AcDbLine
 10
176.393706472969
 20
16.5449937651971
 30
0.0
 11
175.9966476494396
 21
15.1949937651971
 31
0.0
  0
LINE
  5
FC
330
1F
100
AcDbEntity
  8
1
  6
Continuous
 62
     4
100
AcDbLine
 10
176.7907652964984
 20
16.9949937651971
 30
0.0
 11
176.7907652964984
 21
14.8949937651971
 31
0.0
  0
LINE
  5
FD
330
1F
100
AcDbEntity
  8
1
  6
Continuous
 62
     4
100
AcDbLine
 10
177.3201770612043
 20
17.1449937651971
 30
0.0
 11
177.4525300023808
 21
16.6949937651971
 31
0.0
  0
LINE
  5
FE
330
1F
100
AcDbEntity
  8
1
  6
Continuous
 62
     4
100
AcDbLine
 10
177.1878241200278
 20
17.5949937651971
 30
0.0
 11
177.3201770612043
 21
17.1449937651971
 31
0.0
  0
LINE
  5
FF
330
1F
100
AcDbEntity
  8
1
  6
Continuous
 62
     4
100
AcDbLine
 10
176.2613535317925
 20
16.9949937651971
 30
0.0
 11
177.3201770612043
 21
17.1449937651971
 31
0.0
  0
LINE
  5
100
330
1F
100
AcDbEntity
  8
1
  6
Continuous
 62
     4
100
AcDbLine
 10
175.9966476494396
 20
16.9949937651971
 30
0.0
 11
176.2613535317925
 21
16.9949937651971
 31
0.0
  0
LINE
  5
101
330
1F
100
AcDbEntity
  8
1
  6
Continuous
 62
     4
100
AcDbLine
 10
176.7907652964984
 20
17.7449937651971
 30
0.0
 11
176.2613535317925
 21
16.9949937651971
 31
0.0
  0
LINE
  5
102
330
1F
100
AcDbEntity
  8
1
  6
Continuous
 62
     4
100
AcDbLine
 10
177.3201770612043
 20
18.6449937651971
 30
0.0
 11
176.7907652964984
 21
17.7449937651971
 31
0.0
  0
LINE
  5
103
330
1F
100
AcDbEntity
  8
1
  6
Continuous
 62
     4
100
AcDbLine
 10
176.2613535317925
 20
18.3449937651971
 30
0.0
 11
176.7907652964984
 21
17.7449937651971
 31
0.0
  0
LINE
  5
104
330
1F
100
AcDbEntity
  8
1
  6
Continuous
 62
     4
100
AcDbLine
 10
175.9966476494396
 20
18.6449937651971
 30
0.0
 11
176.2613535317925
 21
18.3449937651971
 31
0.0
  0
LINE
  5
105
330
1F
100
AcDbEntity
  8
1
  6
Continuous
 62
     4
100
AcDbLine
 10
176.7907652964984
 20
19.2449937651971
 30
0.0
 11
176.2613535317925
 21
18.3449937651971
 31
0.0
  0
LINE
  5
106
330
1F
100
AcDbEntity
  8
1
  6
Continuous
 62
     4
100
AcDbLine
 10
173.4819417670867
 20
18.9449937651971
 30
0.0
 11
174.8054711788514
 21
18.9449937651971
 31
0.0
  0
LINE
  5
107
330
1F
100
AcDbEntity
  8
1
  6
Continuous
 62
     4
100
AcDbLine
 10
172.5554711788514
 20
17.1449937651971
 30
0.0
 11
172.2907652964984
 21
16.2449937651971
 31
0.0
  0
LINE
  5
108
330
1F
100
AcDbEntity
  8
1
  6
Continuous
 62
     4
100
AcDbLine
 10
173.8790005906161
 20
18.1949937651971
 30
0.0
 11
174.5407652964984
 21
18.1949937651971
 31
0.0
  0
LINE
  5
109
330
1F
100
AcDbEntity
  8
1
  6
Continuous
 62
     4
100
AcDbLine
 10
173.0848829435572
 20
16.0949937651971
 30
0.0
 11
173.0848829435572
 21
17.2949937651971
 31
0.0
  0
LINE
  5
10A
330
1F
100
AcDbEntity
  8
1
  6
Continuous
 62
     4
100
AcDbLine
 10
174.6731182376749
 20
16.0949937651971
 30
0.0
 11
174.6731182376749
 21
14.8949937651971
 31
0.0
  0
LINE
  5
10B
330
1F
100
AcDbEntity
  8
1
  6
Continuous
 62
     4
100
AcDbLine
 10
173.0848829435572
 20
16.0949937651971
 30
0.0
 11
174.6731182376749
 21
16.0949937651971
 31
0.0
  0
LINE
  5
10C
330
1F
100
AcDbEntity
  8
1
  6
Continuous
 62
     4
100
AcDbLine
 10
173.0848829435572
 20
17.2949937651971
 30
0.0
 11
173.6142947082631
 21
17.2949937651971
 31
0.0
  0
LINE
  5
10D
330
1F
100
AcDbEntity
  8
1
  6
Continuous
 62
     4
100
AcDbLine
 10
173.0848829435572
 20
14.8949937651971
 30
0.0
 11
173.0848829435572
 21
16.0949937651971
 31
0.0
  0
LINE
  5
10E
330
1F
100
AcDbEntity
  8
1
  6
Continuous
 62
     4
100
AcDbLine
 10
174.6731182376749
 20
14.8949937651971
 30
0.0
 11
173.0848829435572
 21
14.8949937651971
 31
0.0
  0
LINE
  5
10F
330
1F
100
AcDbEntity
  8
1
  6
Continuous
 62
     4
100
AcDbLine
 10
174.6731182376749
 20
17.2949937651971
 30
0.0
 11
174.6731182376749
 21
16.0949937651971
 31
0.0
  0
LINE
  5
110
330
1F
100
AcDbEntity
  8
1
  6
Continuous
 62
     4
100
AcDbLine
 10
173.6142947082631
 20
17.2949937651971
 30
0.0
 11
174.6731182376749
 21
17.2949937651971
 31
0.0
  0
LINE
  5
111
330
1F
100
AcDbEntity
  8
1
  6
Continuous
 62
     4
100
AcDbLine
 10
173.8790005906161
 20
18.1949937651971
 30
0.0
 11
173.6142947082631
 21
17.2949937651971
 31
0.0
  0
LINE
  5
112
330
1F
100
AcDbEntity
  8
1
  6
Continuous
 62
     4
100
AcDbLine
 10
172.9525300023808
 20
18.1949937651971
 30
0.0
 11
173.8790005906161
 21
18.1949937651971
 31
0.0
  0
LINE
  5
113
330
1F
100
AcDbEntity
  8
1
  6
Continuous
 62
     4
100
AcDbLine
 10
172.5554711788514
 20
17.1449937651971
 30
0.0
 11
172.5554711788514
 21
14.8949937651971
 31
0.0
  0
LINE
  5
114
330
1F
100
AcDbEntity
  8
1
  6
Continuous
 62
     4
100
AcDbLine
 10
172.8201770612043
 20
18.0449937651971
 30
0.0
 11
172.5554711788514
 21
17.1449937651971
 31
0.0
  0
LINE
  5
115
330
1F
100
AcDbEntity
  8
1
  6
Continuous
 62
     4
100
AcDbLine
 10
174.8054711788514
 20
18.9449937651971
 30
0.0
 11
174.6731182376749
 21
18.1949937651971
 31
0.0
  0
LINE
  5
116
330
1F
100
AcDbEntity
  8
1
  6
Continuous
 62
     4
100
AcDbLine
 10
172.2907652964984
 20
18.9449937651971
 30
0.0
 11
173.4819417670867
 21
18.9449937651971
 31
0.0
  0
LINE
  5
117
330
1F
100
AcDbEntity
  8
1
  6
Continuous
 62
     4
100
AcDbLine
 10
172.2907652964984
 20
18.1949937651971
 30
0.0
 11
172.2907652964984
 21
18.9449937651971
 31
0.0
  0
LINE
  5
118
330
1F
100
AcDbEntity
  8
1
  6
Continuous
 62
     4
100
AcDbLine
 10
173.4819417670867
 20
19.3949937651971
 30
0.0
 11
173.4819417670867
 21
18.9449937651971
 31
0.0
  0
LINE
  5
119
330
1F
100
AcDbEntity
  8
1
  6
Continuous
 62
     4
100
AcDbLine
 10
171.6290005906161
 20
16.6949937651971
 30
0.0
 11
172.0260594141455
 21
15.4949937651971
 31
0.0
  0
LINE
  5
11A
330
1F
100
AcDbEntity
  8
1
  6
Continuous
 62
     4
100
AcDbLine
 10
171.0995888259102
 20
16.6949937651971
 30
0.0
 11
170.7025300023808
 21
15.1949937651971
 31
0.0
  0
LINE
  5
11B
330
1F
100
AcDbEntity
  8
1
  6
Continuous
 62
     4
100
AcDbLine
 10
171.3642947082631
 20
16.9949937651971
 30
0.0
 11
171.3642947082631
 21
14.8949937651971
 31
0.0
  0
LINE
  5
11C
330
1F
100
AcDbEntity
  8
1
  6
Continuous
 62
     4
100
AcDbLine
 10
171.893706472969
 20
17.1449937651971
 30
0.0
 11
172.0260594141455
 21
16.6949937651971
 31
0.0
  0
LINE
  5
11D
330
1F
100
AcDbEntity
  8
1
  6
Continuous
 62
     4
100
AcDbLine
 10
171.7613535317925
 20
17.5949937651971
 30
0.0
 11
171.893706472969
 21
17.1449937651971
 31
0.0
  0
LINE
  5
11E
330
1F
100
AcDbEntity
  8
1
  6
Continuous
 62
     4
100
AcDbLine
 10
170.8348829435572
 20
16.9949937651971
 30
0.0
 11
171.893706472969
 21
17.1449937651971
 31
0.0
  0
LINE
  5
11F
330
1F
100
AcDbEntity
  8
1
  6
Continuous
 62
     4
100
AcDbLine
 10
170.7025300023808
 20
16.9949937651971
 30
0.0
 11
170.8348829435572
 21
16.9949937651971
 31
0.0
  0
LINE
  5
120
330
1F
100
AcDbEntity
  8
1
  6
Continuous
 62
     4
100
AcDbLine
 10
171.2319417670867
 20
17.5949937651971
 30
0.0
 11
170.8348829435572
 21
16.9949937651971
 31
0.0
  0
LINE
  5
121
330
1F
100
AcDbEntity
  8
1
  6
Continuous
 62
     4
100
AcDbLine
 10
171.7613535317925
 20
18.4949937651971
 30
0.0
 11
171.2319417670867
 21
17.5949937651971
 31
0.0
  0
LINE
  5
122
330
1F
100
AcDbEntity
  8
1
  6
Continuous
 62
     4
100
AcDbLine
 10
170.9672358847337
 20
18.3449937651971
 30
0.0
 11
171.2319417670867
 21
17.5949937651971
 31
0.0
  0
LINE
  5
123
330
1F
100
AcDbEntity
  8
1
  6
Continuous
 62
     4
100
AcDbLine
 10
170.8348829435572
 20
18.6449937651971
 30
0.0
 11
170.9672358847337
 21
18.3449937651971
 31
0.0
  0
LINE
  5
124
330
1F
100
AcDbEntity
  8
1
  6
Continuous
 62
     4
100
AcDbLine
 10
171.3642947082631
 20
19.2449937651971
 30
0.0
 11
170.9672358847337
 21
18.3449937651971
 31
0.0
  0
LINE
  5
125
330
1F
100
AcDbEntity
  8
1
  6
Continuous
 62
     4
100
AcDbLine
 10
165.8054711788514
 20
17.8949937651971
 30
0.0
 11
165.408412355322
 21
16.5449937651971
 31
0.0
  0
LINE
  5
126
330
1F
100
AcDbEntity
  8
1
  6
Continuous
 62
     4
100
AcDbLine
 10
169.2466476494396
 20
17.4449937651971
 30
0.0
 11
169.2466476494396
 21
15.9449937651971
 31
0.0
  0
LINE
  5
127
330
1F
100
AcDbEntity
  8
1
  6
Continuous
 62
     4
100
AcDbLine
 10
167.9231182376749
 20
19.3949937651971
 30
0.0
 11
167.9231182376749
 21
14.8949937651971
 31
0.0
  0
LINE
  5
128
330
1F
100
AcDbEntity
  8
1
  6
Continuous
 62
     4
100
AcDbLine
 10
166.5995888259102
 20
17.4449937651971
 30
0.0
 11
169.2466476494396
 21
17.4449937651971
 31
0.0
  0
LINE
  5
129
330
1F
100
AcDbEntity
  8
1
  6
Continuous
 62
     4
100
AcDbLine
 10
166.5995888259102
 20
15.9449937651971
 30
0.0
 11
166.5995888259102
 21
17.4449937651971
 31
0.0
  0
LINE
  5
12A
330
1F
100
AcDbEntity
  8
1
  6
Continuous
 62
     4
100
AcDbLine
 10
169.2466476494396
 20
15.9449937651971
 30
0.0
 11
166.5995888259102
 21
15.9449937651971
 31
0.0
  0
LINE
  5
12B
330
1F
100
AcDbEntity
  8
1
  6
Continuous
 62
     4
100
AcDbLine
 10
169.2466476494396
 20
18.7949937651971
 30
0.0
 11
169.2466476494396
 21
17.4449937651971
 31
0.0
  0
LINE
  5
12C
330
1F
100
AcDbEntity
  8
1
  6
Continuous
 62
     4
100
AcDbLine
 10
166.5995888259102
 20
18.7949937651971
 30
0.0
 11
169.2466476494396
 21
18.7949937651971
 31
0.0
  0
LINE
  5
12D
330
1F
100
AcDbEntity
  8
1
  6
Continuous
 62
     4
100
AcDbLine
 10
166.5995888259102
 20
17.4449937651971
 30
0.0
 11
166.5995888259102
 21
18.7949937651971
 31
0.0
  0
LINE
  5
12E
330
1F
100
AcDbEntity
  8
1
  6
Continuous
 62
     4
100
AcDbLine
 10
165.8054711788514
 20
17.8949937651971
 30
0.0
 11
165.8054711788514
 21
14.8949937651971
 31
0.0
  0
LINE
  5
12F
330
1F
100
AcDbEntity
  8
1
  6
Continuous
 62
     4
100
AcDbLine
 10
166.2025300023808
 20
19.2449937651971
 30
0.0
 11
165.8054711788514
 21
17.8949937651971
 31
0.0
  0
LINE
  5
130
330
1F
100
AcDbEntity
  8
1
  6
Continuous
 62
     4
100
AcDbLine
 10
163.8201770612043
 20
16.9949937651971
 30
0.0
 11
163.9525300023808
 21
16.8449937651971
 31
0.0
  0
LINE
  5
131
330
1F
100
AcDbEntity
  8
1
  6
Continuous
 62
     4
100
AcDbLine
 10
163.5554711788514
 20
16.9949937651971
 30
0.0
 11
163.6878241200278
 21
17.1449937651971
 31
0.0
  0
LINE
  5
132
330
1F
100
AcDbEntity
  8
1
  6
Continuous
 62
     4
100
AcDbLine
 10
163.8201770612043
 20
16.8449937651971
 30
0.0
 11
163.8201770612043
 21
16.6949937651971
 31
0.0
  0
LINE
  5
133
330
1F
100
AcDbEntity
  8
1
  6
Continuous
 62
     4
100
AcDbLine
 10
163.6878241200278
 20
16.9949937651971
 30
0.0
 11
163.8201770612043
 21
16.9949937651971
 31
0.0
  0
LINE
  5
134
330
1F
100
AcDbEntity
  8
1
  6
Continuous
 62
     4
100
AcDbLine
 10
163.5554711788514
 20
16.8449937651971
 30
0.0
 11
163.6878241200278
 21
16.9949937651971
 31
0.0
  0
LINE
  5
135
330
1F
100
AcDbEntity
  8
1
  6
Continuous
 62
     4
100
AcDbLine
 10
163.6878241200278
 20
16.6949937651971
 30
0.0
 11
163.5554711788514
 21
16.8449937651971
 31
0.0
  0
LINE
  5
136
330
1F
100
AcDbEntity
  8
1
  6
Continuous
 62
     4
100
AcDbLine
 10
163.8201770612043
 20
16.8449937651971
 30
0.0
 11
163.6878241200278
 21
16.6949937651971
 31
0.0
  0
LINE
  5
137
330
1F
100
AcDbEntity
  8
1
  6
Continuous
 62
     4
100
AcDbLine
 10
163.6878241200278
 20
16.9949937651971
 30
0.0
 11
163.8201770612043
 21
16.8449937651971
 31
0.0
  0
LINE
  5
138
330
1F
100
AcDbEntity
  8
1
  6
Continuous
 62
     4
100
AcDbLine
 10
163.5554711788514
 20
16.6949937651971
 30
0.0
 11
163.5554711788514
 21
16.9949937651971
 31
0.0
  0
LINE
  5
139
330
1F
100
AcDbEntity
  8
1
  6
Continuous
 62
     4
100
AcDbLine
 10
163.8201770612043
 20
16.6949937651971
 30
0.0
 11
163.5554711788514
 21
16.6949937651971
 31
0.0
  0
LINE
  5
13A
330
1F
100
AcDbEntity
  8
1
  6
Continuous
 62
     4
100
AcDbLine
 10
163.8201770612043
 20
16.9949937651971
 30
0.0
 11
163.8201770612043
 21
16.8449937651971
 31
0.0
  0
LINE
  5
13B
330
1F
100
AcDbEntity
  8
1
  6
Continuous
 62
     4
100
AcDbLine
 10
163.5554711788514
 20
16.9949937651971
 30
0.0
 11
163.6878241200278
 21
16.9949937651971
 31
0.0
  0
LINE
  5
13C
330
1F
100
AcDbEntity
  8
1
  6
Continuous
 62
     4
100
AcDbLine
 10
163.4231182376749
 20
16.8449937651971
 30
0.0
 11
163.5554711788514
 21
16.9949937651971
 31
0.0
  0
LINE
  5
13D
330
1F
100
AcDbEntity
  8
1
  6
Continuous
 62
     4
100
AcDbLine
 10
163.6878241200278
 20
16.5449937651971
 30
0.0
 11
163.4231182376749
 21
16.8449937651971
 31
0.0
  0
LINE
  5
13E
330
1F
100
AcDbEntity
  8
1
  6
Continuous
 62
     4
100
AcDbLine
 10
163.9525300023808
 20
16.8449937651971
 30
0.0
 11
163.6878241200278
 21
16.5449937651971
 31
0.0
  0
LINE
  5
13F
330
1F
100
AcDbEntity
  8
1
  6
Continuous
 62
     4
100
AcDbLine
 10
163.6878241200278
 20
17.1449937651971
 30
0.0
 11
163.8201770612043
 21
16.9949937651971
 31
0.0
  0
LINE
  5
140
330
1F
100
AcDbEntity
  8
1
  6
Continuous
 62
     4
100
AcDbLine
 10
160.379000590616
 20
18.0449937651971
 30
0.0
 11
160.379000590616
 21
15.0449937651971
 31
0.0
  0
LINE
  5
141
330
1F
100
AcDbEntity
  8
1
  6
Continuous
 62
     4
100
AcDbLine
 10
158.9231182376749
 20
15.0449937651971
 30
0.0
 11
162.2319417670866
 21
15.0449937651971
 31
0.0
  0
LINE
  5
142
330
1F
100
AcDbEntity
  8
1
  6
Continuous
 62
     4
100
AcDbLine
 10
158.2613535317925
 20
15.0449937651971
 30
0.0
 11
158.9231182376749
 21
15.0449937651971
 31
0.0
  0
LINE
  5
143
330
1F
100
AcDbEntity
  8
1
  6
Continuous
 62
     4
100
AcDbLine
 10
158.9231182376749
 20
18.6449937651971
 30
0.0
 11
158.9231182376749
 21
15.0449937651971
 31
0.0
  0
LINE
  5
144
330
1F
100
AcDbEntity
  8
1
  6
Continuous
 62
     4
100
AcDbLine
 10
160.379000590616
 20
18.0449937651971
 30
0.0
 11
162.0995888259102
 21
18.0449937651971
 31
0.0
  0
LINE
  5
145
330
1F
100
AcDbEntity
  8
1
  6
Continuous
 62
     4
100
AcDbLine
 10
160.379000590616
 20
19.3949937651971
 30
0.0
 11
160.379000590616
 21
18.0449937651971
 31
0.0
  0
LINE
  5
146
330
1F
100
AcDbEntity
  8
1
  6
Continuous
 62
     4
100
AcDbLine
 10
154.9525300023808
 20
18.6449937651971
 30
0.0
 11
156.9378241200278
 21
18.6449937651971
 31
0.0
  0
LINE
  5
147
330
1F
100
AcDbEntity
  8
1
  6
Continuous
 62
     4
100
AcDbLine
 10
156.143706472969
 20
14.8949937651971
 30
0.0
 11
155.2172358847337
 21
15.1949937651971
 31
0.0
  0
LINE
  5
148
330
1F
100
AcDbEntity
  8
1
  6
Continuous
 62
     4
100
AcDbLine
 10
156.6731182376749
 20
15.6449937651971
 30
0.0
 11
156.143706472969
 21
14.8949937651971
 31
0.0
  0
LINE
  5
149
330
1F
100
AcDbEntity
  8
1
  6
Continuous
 62
     4
100
AcDbLine
 10
156.6731182376749
 20
17.5949937651971
 30
0.0
 11
156.6731182376749
 21
15.6449937651971
 31
0.0
  0
LINE
  5
14A
330
1F
100
AcDbEntity
  8
1
  6
Continuous
 62
     4
100
AcDbLine
 10
154.9525300023808
 20
17.5949937651971
 30
0.0
 11
156.6731182376749
 21
17.5949937651971
 31
0.0
  0
LINE
  5
14B
330
1F
100
AcDbEntity
  8
1
  6
Continuous
 62
     4
100
AcDbLine
 10
154.6878241200278
 20
16.0949937651971
 30
0.0
 11
153.893706472969
 21
15.0449937651971
 31
0.0
  0
LINE
  5
14C
330
1F
100
AcDbEntity
  8
1
  6
Continuous
 62
     4
100
AcDbLine
 10
154.9525300023808
 20
17.5949937651971
 30
0.0
 11
154.6878241200278
 21
16.0949937651971
 31
0.0
  0
LINE
  5
14D
330
1F
100
AcDbEntity
  8
1
  6
Continuous
 62
     4
100
AcDbLine
 10
154.9525300023808
 20
18.6449937651971
 30
0.0
 11
154.9525300023808
 21
17.5949937651971
 31
0.0
  0
LINE
  5
14E
330
1F
100
AcDbEntity
  8
1
  6
Continuous
 62
     4
100
AcDbLine
 10
154.1584123553219
 20
18.6449937651971
 30
0.0
 11
154.9525300023808
 21
18.6449937651971
 31
0.0
  0
LINE
  5
14F
330
1F
100
AcDbEntity
  8
1
  6
Continuous
 62
     4
100
AcDbLine
 10
155.4819417670867
 20
19.5449937651971
 30
0.0
 11
155.4819417670867
 21
18.6449937651971
 31
0.0
  0
LINE
  5
150
330
1F
100
AcDbEntity
  8
1
  6
Continuous
 62
     4
100
AcDbLine
 10
153.629000590616
 20
16.0949937651971
 30
0.0
 11
153.0995888259102
 21
16.3949937651971
 31
0.0
  0
LINE
  5
151
330
1F
100
AcDbEntity
  8
1
  6
Continuous
 62
     4
100
AcDbLine
 10
154.1584123553219
 20
16.6949937651971
 30
0.0
 11
153.629000590616
 21
16.0949937651971
 31
0.0
  0
LINE
  5
152
330
1F
100
AcDbEntity
  8
1
  6
Continuous
 62
     4
100
AcDbLine
 10
153.629000590616
 20
17.7449937651971
 30
0.0
 11
154.1584123553219
 21
16.6949937651971
 31
0.0
  0
LINE
  5
153
330
1F
100
AcDbEntity
  8
1
  6
Continuous
 62
     4
100
AcDbLine
 10
154.1584123553219
 20
19.3949937651971
 30
0.0
 11
153.629000590616
 21
17.7449937651971
 31
0.0
  0
LINE
  5
154
330
1F
100
AcDbEntity
  8
1
  6
Continuous
 62
     4
100
AcDbLine
 10
152.9672358847337
 20
19.3949937651971
 30
0.0
 11
154.1584123553219
 21
19.3949937651971
 31
0.0
  0
LINE
  5
155
330
1F
100
AcDbEntity
  8
1
  6
Continuous
 62
     4
100
AcDbLine
 10
152.9672358847337
 20
14.8949937651971
 30
0.0
 11
152.9672358847337
 21
19.3949937651971
 31
0.0
  0
LINE
  5
156
330
1F
100
AcDbEntity
  8
1
  6
Continuous
 62
     4
100
AcDbLine
 10
147.8054711788514
 20
17.4449937651971
 30
0.0
 11
147.8054711788514
 21
18.3449937651971
 31
0.0
  0
LINE
  5
157
330
1F
100
AcDbEntity
  8
1
  6
Continuous
 62
     4
100
AcDbLine
 10
147.8054711788514
 20
18.3449937651971
 30
0.0
 11
147.8054711788514
 21
19.2449937651971
 31
0.0
  0
LINE
  5
158
330
1F
100
AcDbEntity
  8
1
  6
Continuous
 62
     4
100
AcDbLine
 10
149.5260594141455
 20
18.3449937651971
 30
0.0
 11
149.5260594141455
 21
17.4449937651971
 31
0.0
  0
LINE
  5
159
330
1F
100
AcDbEntity
  8
1
  6
Continuous
 62
     4
100
AcDbLine
 10
149.9231182376749
 20
18.3449937651971
 30
0.0
 11
149.9231182376749
 21
19.2449937651971
 31
0.0
  0
LINE
  5
15A
330
1F
100
AcDbEntity
  8
1
  6
Continuous
 62
     4
100
AcDbLine
 10
151.643706472969
 20
18.3449937651971
 30
0.0
 11
151.643706472969
 21
14.8949937651971
 31
0.0
  0
LINE
  5
15B
330
1F
100
AcDbEntity
  8
1
  6
Continuous
 62
     4
100
AcDbLine
 10
150.1878241200278
 20
16.8449937651971
 30
0.0
 11
150.1878241200278
 21
14.8949937651971
 31
0.0
  0
LINE
  5
15C
330
1F
100
AcDbEntity
  8
1
  6
Continuous
 62
     4
100
AcDbLine
 10
150.1878241200278
 20
16.8449937651971
 30
0.0
 11
148.2025300023808
 21
15.3449937651971
 31
0.0
  0
LINE
  5
15D
330
1F
100
AcDbEntity
  8
1
  6
Continuous
 62
     4
100
AcDbLine
 10
150.1878241200278
 20
14.8949937651971
 30
0.0
 11
149.2613535317925
 21
15.1949937651971
 31
0.0
  0
LINE
  5
15E
330
1F
100
AcDbEntity
  8
1
  6
Continuous
 62
     4
100
AcDbLine
 10
150.1878241200278
 20
17.2949937651971
 30
0.0
 11
150.1878241200278
 21
16.8449937651971
 31
0.0
  0
LINE
  5
15F
330
1F
100
AcDbEntity
  8
1
  6
Continuous
 62
     4
100
AcDbLine
 10
148.2025300023808
 20
16.8449937651971
 30
0.0
 11
151.2466476494396
 21
16.8449937651971
 31
0.0
  0
LINE
  5
160
330
1F
100
AcDbEntity
  8
1
  6
Continuous
 62
     4
100
AcDbLine
 10
149.9231182376749
 20
18.3449937651971
 30
0.0
 11
151.643706472969
 21
18.3449937651971
 31
0.0
  0
LINE
  5
161
330
1F
100
AcDbEntity
  8
1
  6
Continuous
 62
     4
100
AcDbLine
 10
151.643706472969
 20
14.8949937651971
 30
0.0
 11
150.7172358847337
 21
15.1949937651971
 31
0.0
  0
LINE
  5
162
330
1F
100
AcDbEntity
  8
1
  6
Continuous
 62
     4
100
AcDbLine
 10
151.643706472969
 20
19.2449937651971
 30
0.0
 11
151.643706472969
 21
18.3449937651971
 31
0.0
  0
LINE
  5
163
330
1F
100
AcDbEntity
  8
1
  6
Continuous
 62
     4
100
AcDbLine
 10
149.9231182376749
 20
19.2449937651971
 30
0.0
 11
151.643706472969
 21
19.2449937651971
 31
0.0
  0
LINE
  5
164
330
1F
100
AcDbEntity
  8
1
  6
Continuous
 62
     4
100
AcDbLine
 10
149.9231182376749
 20
17.4449937651971
 30
0.0
 11
149.9231182376749
 21
18.3449937651971
 31
0.0
  0
LINE
  5
165
330
1F
100
AcDbEntity
  8
1
  6
Continuous
 62
     4
100
AcDbLine
 10
151.643706472969
 20
17.4449937651971
 30
0.0
 11
149.9231182376749
 21
17.4449937651971
 31
0.0
  0
LINE
  5
166
330
1F
100
AcDbEntity
  8
1
  6
Continuous
 62
     4
100
AcDbLine
 10
147.8054711788514
 20
18.3449937651971
 30
0.0
 11
149.5260594141455
 21
18.3449937651971
 31
0.0
  0
LINE
  5
167
330
1F
100
AcDbEntity
  8
1
  6
Continuous
 62
     4
100
AcDbLine
 10
149.5260594141455
 20
17.4449937651971
 30
0.0
 11
147.8054711788514
 21
17.4449937651971
 31
0.0
  0
LINE
  5
168
330
1F
100
AcDbEntity
  8
1
  6
Continuous
 62
     4
100
AcDbLine
 10
149.5260594141455
 20
19.2449937651971
 30
0.0
 11
149.5260594141455
 21
18.3449937651971
 31
0.0
  0
LINE
  5
169
330
1F
100
AcDbEntity
  8
1
  6
Continuous
 62
     4
100
AcDbLine
 10
147.8054711788514
 20
19.2449937651971
 30
0.0
 11
149.5260594141455
 21
19.2449937651971
 31
0.0
  0
LINE
  5
16A
330
1F
100
AcDbEntity
  8
1
  6
Continuous
 62
     4
100
AcDbLine
 10
147.8054711788514
 20
14.8949937651971
 30
0.0
 11
147.8054711788514
 21
17.4449937651971
 31
0.0
  0
LINE
  5
16B
330
1F
100
AcDbEntity
  8
1
  6
Continuous
 62
     4
100
AcDbLine
 10
142.5113535317925
 20
17.7449937651971
 30
0.0
 11
142.5113535317925
 21
18.4949937651971
 31
0.0
  0
LINE
  5
16C
330
1F
100
AcDbEntity
  8
1
  6
Continuous
 62
     4
100
AcDbLine
 10
142.5113535317925
 20
18.4949937651971
 30
0.0
 11
142.5113535317925
 21
19.2449937651971
 31
0.0
  0
LINE
  5
16D
330
1F
100
AcDbEntity
  8
1
  6
Continuous
 62
     4
100
AcDbLine
 10
144.2319417670867
 20
18.4949937651971
 30
0.0
 11
144.2319417670867
 21
17.7449937651971
 31
0.0
  0
LINE
  5
16E
330
1F
100
AcDbEntity
  8
1
  6
Continuous
 62
     4
100
AcDbLine
 10
144.629000590616
 20
18.4949937651971
 30
0.0
 11
144.629000590616
 21
19.2449937651971
 31
0.0
  0
LINE
  5
16F
330
1F
100
AcDbEntity
  8
1
  6
Continuous
 62
     4
100
AcDbLine
 10
146.3495888259102
 20
18.4949937651971
 30
0.0
 11
146.3495888259102
 21
14.7449937651971
 31
0.0
  0
LINE
  5
170
330
1F
100
AcDbEntity
  8
1
  6
Continuous
 62
     4
100
AcDbLine
 10
143.8348829435572
 20
17.1449937651971
 30
0.0
 11
145.0260594141455
 21
17.1449937651971
 31
0.0
  0
LINE
  5
171
330
1F
100
AcDbEntity
  8
1
  6
Continuous
 62
     4
100
AcDbLine
 10
145.0260594141455
 20
17.1449937651971
 30
0.0
 11
145.6878241200278
 21
17.1449937651971
 31
0.0
  0
LINE
  5
172
330
1F
100
AcDbEntity
  8
1
  6
Continuous
 62
     4
100
AcDbLine
 10
145.0260594141455
 20
17.1449937651971
 30
0.0
 11
145.0260594141455
 21
14.8949937651971
 31
0.0
  0
LINE
  5
173
330
1F
100
AcDbEntity
  8
1
  6
Continuous
 62
     4
100
AcDbLine
 10
143.8348829435572
 20
16.2449937651971
 30
0.0
 11
143.4378241200278
 21
14.8949937651971
 31
0.0
  0
LINE
  5
174
330
1F
100
AcDbEntity
  8
1
  6
Continuous
 62
     4
100
AcDbLine
 10
143.8348829435572
 20
17.1449937651971
 30
0.0
 11
143.8348829435572
 21
16.2449937651971
 31
0.0
  0
LINE
  5
175
330
1F
100
AcDbEntity
  8
1
  6
Continuous
 62
     4
100
AcDbLine
 10
143.0407652964984
 20
16.3949937651971
 30
0.0
 11
145.8201770612043
 21
16.3949937651971
 31
0.0
  0
LINE
  5
176
330
1F
100
AcDbEntity
  8
1
  6
Continuous
 62
     4
100
AcDbLine
 10
143.1731182376749
 20
17.1449937651971
 30
0.0
 11
143.8348829435572
 21
17.1449937651971
 31
0.0
  0
LINE
  5
177
330
1F
100
AcDbEntity
  8
1
  6
Continuous
 62
     4
100
AcDbLine
 10
144.629000590616
 20
18.4949937651971
 30
0.0
 11
146.3495888259102
 21
18.4949937651971
 31
0.0
  0
LINE
  5
178
330
1F
100
AcDbEntity
  8
1
  6
Continuous
 62
     4
100
AcDbLine
 10
146.3495888259102
 20
14.7449937651971
 30
0.0
 11
145.5554711788514
 21
15.0449937651971
 31
0.0
  0
LINE
  5
179
330
1F
100
AcDbEntity
  8
1
  6
Continuous
 62
     4
100
AcDbLine
 10
146.3495888259102
 20
19.2449937651971
 30
0.0
 11
146.3495888259102
 21
18.4949937651971
 31
0.0
  0
LINE
  5
17A
330
1F
100
AcDbEntity
  8
1
  6
Continuous
 62
     4
100
AcDbLine
 10
144.629000590616
 20
19.2449937651971
 30
0.0
 11
146.3495888259102
 21
19.2449937651971
 31
0.0
  0
LINE
  5
17B
330
1F
100
AcDbEntity
  8
1
  6
Continuous
 62
     4
100
AcDbLine
 10
144.629000590616
 20
17.7449937651971
 30
0.0
 11
144.629000590616
 21
18.4949937651971
 31
0.0
  0
LINE
  5
17C
330
1F
100
AcDbEntity
  8
1
  6
Continuous
 62
     4
100
AcDbLine
 10
146.3495888259102
 20
17.7449937651971
 30
0.0
 11
144.629000590616
 21
17.7449937651971
 31
0.0
  0
LINE
  5
17D
330
1F
100
AcDbEntity
  8
1
  6
Continuous
 62
     4
100
AcDbLine
 10
142.5113535317925
 20
18.4949937651971
 30
0.0
 11
144.2319417670867
 21
18.4949937651971
 31
0.0
  0
LINE
  5
17E
330
1F
100
AcDbEntity
  8
1
  6
Continuous
 62
     4
100
AcDbLine
 10
144.2319417670867
 20
17.7449937651971
 30
0.0
 11
142.5113535317925
 21
17.7449937651971
 31
0.0
  0
LINE
  5
17F
330
1F
100
AcDbEntity
  8
1
  6
Continuous
 62
     4
100
AcDbLine
 10
144.2319417670867
 20
19.2449937651971
 30
0.0
 11
144.2319417670867
 21
18.4949937651971
 31
0.0
  0
LINE
  5
180
330
1F
100
AcDbEntity
  8
1
  6
Continuous
 62
     4
100
AcDbLine
 10
142.5113535317925
 20
19.2449937651971
 30
0.0
 11
144.2319417670867
 21
19.2449937651971
 31
0.0
  0
LINE
  5
181
330
1F
100
AcDbEntity
  8
1
  6
Continuous
 62
     4
100
AcDbLine
 10
142.5113535317925
 20
14.7449937651971
 30
0.0
 11
142.5113535317925
 21
17.7449937651971
 31
0.0
  0
LINE
  5
182
330
1F
100
AcDbEntity
  8
1
  6
Continuous
 62
     4
100
AcDbLine
 10
140.7907652964984
 20
16.9949937651971
 30
0.0
 11
140.9231182376749
 21
16.8449937651971
 31
0.0
  0
LINE
  5
183
330
1F
100
AcDbEntity
  8
1
  6
Continuous
 62
     4
100
AcDbLine
 10
140.5260594141455
 20
16.9949937651971
 30
0.0
 11
140.6584123553219
 21
17.1449937651971
 31
0.0
  0
LINE
  5
184
330
1F
100
AcDbEntity
  8
1
  6
Continuous
 62
     4
100
AcDbLine
 10
140.7907652964984
 20
16.8449937651971
 30
0.0
 11
140.7907652964984
 21
16.6949937651971
 31
0.0
  0
LINE
  5
185
330
1F
100
AcDbEntity
  8
1
  6
Continuous
 62
     4
100
AcDbLine
 10
140.6584123553219
 20
16.9949937651971
 30
0.0
 11
140.7907652964984
 21
16.9949937651971
 31
0.0
  0
LINE
  5
186
330
1F
100
AcDbEntity
  8
1
  6
Continuous
 62
     4
100
AcDbLine
 10
140.5260594141455
 20
16.8449937651971
 30
0.0
 11
140.6584123553219
 21
16.9949937651971
 31
0.0
  0
LINE
  5
187
330
1F
100
AcDbEntity
  8
1
  6
Continuous
 62
     4
100
AcDbLine
 10
140.6584123553219
 20
16.6949937651971
 30
0.0
 11
140.5260594141455
 21
16.8449937651971
 31
0.0
  0
LINE
  5
188
330
1F
100
AcDbEntity
  8
1
  6
Continuous
 62
     4
100
AcDbLine
 10
140.7907652964984
 20
16.8449937651971
 30
0.0
 11
140.6584123553219
 21
16.6949937651971
 31
0.0
  0
LINE
  5
189
330
1F
100
AcDbEntity
  8
1
  6
Continuous
 62
     4
100
AcDbLine
 10
140.6584123553219
 20
16.9949937651971
 30
0.0
 11
140.7907652964984
 21
16.8449937651971
 31
0.0
  0
LINE
  5
18A
330
1F
100
AcDbEntity
  8
1
  6
Continuous
 62
     4
100
AcDbLine
 10
140.5260594141455
 20
16.6949937651971
 30
0.0
 11
140.5260594141455
 21
16.9949937651971
 31
0.0
  0
LINE
  5
18B
330
1F
100
AcDbEntity
  8
1
  6
Continuous
 62
     4
100
AcDbLine
 10
140.7907652964984
 20
16.6949937651971
 30
0.0
 11
140.5260594141455
 21
16.6949937651971
 31
0.0
  0
LINE
  5
18C
330
1F
100
AcDbEntity
  8
1
  6
Continuous
 62
     4
100
AcDbLine
 10
140.7907652964984
 20
16.9949937651971
 30
0.0
 11
140.7907652964984
 21
16.8449937651971
 31
0.0
  0
LINE
  5
18D
330
1F
100
AcDbEntity
  8
1
  6
Continuous
 62
     4
100
AcDbLine
 10
140.5260594141455
 20
16.9949937651971
 30
0.0
 11
140.6584123553219
 21
16.9949937651971
 31
0.0
  0
LINE
  5
18E
330
1F
100
AcDbEntity
  8
1
  6
Continuous
 62
     4
100
AcDbLine
 10
140.393706472969
 20
16.8449937651971
 30
0.0
 11
140.5260594141455
 21
16.9949937651971
 31
0.0
  0
LINE
  5
18F
330
1F
100
AcDbEntity
  8
1
  6
Continuous
 62
     4
100
AcDbLine
 10
140.6584123553219
 20
16.5449937651971
 30
0.0
 11
140.393706472969
 21
16.8449937651971
 31
0.0
  0
LINE
  5
190
330
1F
100
AcDbEntity
  8
1
  6
Continuous
 62
     4
100
AcDbLine
 10
140.9231182376749
 20
16.8449937651971
 30
0.0
 11
140.6584123553219
 21
16.5449937651971
 31
0.0
  0
LINE
  5
191
330
1F
100
AcDbEntity
  8
1
  6
Continuous
 62
     4
100
AcDbLine
 10
140.6584123553219
 20
17.1449937651971
 30
0.0
 11
140.7907652964984
 21
16.9949937651971
 31
0.0
  0
LINE
  5
192
330
1F
100
AcDbEntity
  8
1
  6
Continuous
 62
     4
100
AcDbLine
 10
135.893706472969
 20
16.2449937651971
 30
0.0
 11
136.8201770612043
 21
16.2449937651971
 31
0.0
  0
LINE
  5
193
330
1F
100
AcDbEntity
  8
1
  6
Continuous
 62
     4
100
AcDbLine
 10
136.8201770612043
 20
18.7949937651971
 30
0.0
 11
137.7466476494396
 21
18.7949937651971
 31
0.0
  0
LINE
  5
194
330
1F
100
AcDbEntity
  8
1
  6
Continuous
 62
     4
100
AcDbLine
 10
136.8201770612043
 20
16.2449937651971
 30
0.0
 11
137.7466476494396
 21
16.2449937651971
 31
0.0
  0
LINE
  5
195
330
1F
100
AcDbEntity
  8
1
  6
Continuous
 62
     4
100
AcDbLine
 10
137.7466476494396
 20
18.7949937651971
 30
0.0
 11
138.6731182376749
 21
18.7949937651971
 31
0.0
  0
LINE
  5
196
330
1F
100
AcDbEntity
  8
1
  6
Continuous
 62
     4
100
AcDbLine
 10
137.7466476494396
 20
16.2449937651971
 30
0.0
 11
138.6731182376749
 21
16.2449937651971
 31
0.0
  0
LINE
  5
197
330
1F
100
AcDbEntity
  8
1
  6
Continuous
 62
     4
100
AcDbLine
 10
138.6731182376749
 20
18.7949937651971
 30
0.0
 11
139.0701770612043
 21
18.7949937651971
 31
0.0
  0
LINE
  5
198
330
1F
100
AcDbEntity
  8
1
  6
Continuous
 62
     4
100
AcDbLine
 10
138.6731182376749
 20
16.2449937651971
 30
0.0
 11
139.0701770612043
 21
16.2449937651971
 31
0.0
  0
LINE
  5
199
330
1F
100
AcDbEntity
  8
1
  6
Continuous
 62
     4
100
AcDbLine
 10
138.5407652964984
 20
15.9449937651971
 30
0.0
 11
139.2025300023808
 21
14.8949937651971
 31
0.0
  0
LINE
  5
19A
330
1F
100
AcDbEntity
  8
1
  6
Continuous
 62
     4
100
AcDbLine
 10
137.6142947082631
 20
15.9449937651971
 30
0.0
 11
138.0113535317925
 21
14.8949937651971
 31
0.0
  0
LINE
  5
19B
330
1F
100
AcDbEntity
  8
1
  6
Continuous
 62
     4
100
AcDbLine
 10
136.5554711788514
 20
15.9449937651971
 30
0.0
 11
136.8201770612043
 21
14.8949937651971
 31
0.0
  0
LINE
  5
19C
330
1F
100
AcDbEntity
  8
1
  6
Continuous
 62
     4
100
AcDbLine
 10
135.893706472969
 20
15.9449937651971
 30
0.0
 11
135.3642947082631
 21
14.8949937651971
 31
0.0
  0
LINE
  5
19D
330
1F
100
AcDbEntity
  8
1
  6
Continuous
 62
     4
100
AcDbLine
 10
135.3642947082631
 20
16.2449937651971
 30
0.0
 11
135.893706472969
 21
16.2449937651971
 31
0.0
  0
LINE
  5
19E
330
1F
100
AcDbEntity
  8
1
  6
Continuous
 62
     4
100
AcDbLine
 10
135.2319417670867
 20
17.5949937651971
 30
0.0
 11
139.2025300023808
 21
17.5949937651971
 31
0.0
  0
LINE
  5
19F
330
1F
100
AcDbEntity
  8
1
  6
Continuous
 62
     4
100
AcDbLine
 10
138.6731182376749
 20
18.7949937651971
 30
0.0
 11
138.6731182376749
 21
16.2449937651971
 31
0.0
  0
LINE
  5
1A0
330
1F
100
AcDbEntity
  8
1
  6
Continuous
 62
     4
100
AcDbLine
 10
137.7466476494396
 20
18.7949937651971
 30
0.0
 11
137.7466476494396
 21
16.2449937651971
 31
0.0
  0
LINE
  5
1A1
330
1F
100
AcDbEntity
  8
1
  6
Continuous
 62
     4
100
AcDbLine
 10
136.8201770612043
 20
18.7949937651971
 30
0.0
 11
136.8201770612043
 21
16.2449937651971
 31
0.0
  0
LINE
  5
1A2
330
1F
100
AcDbEntity
  8
1
  6
Continuous
 62
     4
100
AcDbLine
 10
135.893706472969
 20
18.7949937651971
 30
0.0
 11
135.893706472969
 21
16.2449937651971
 31
0.0
  0
LINE
  5
1A3
330
1F
100
AcDbEntity
  8
1
  6
Continuous
 62
     4
100
AcDbLine
 10
135.893706472969
 20
18.7949937651971
 30
0.0
 11
136.8201770612043
 21
18.7949937651971
 31
0.0
  0
LINE
  5
1A4
330
1F
100
AcDbEntity
  8
1
  6
Continuous
 62
     4
100
AcDbLine
 10
135.893706472969
 20
18.7949937651971
 30
0.0
 11
135.4966476494396
 21
18.1949937651971
 31
0.0
  0
LINE
  5
1A5
330
1F
100
AcDbEntity
  8
1
  6
Continuous
 62
     4
100
AcDbLine
 10
136.0260594141455
 20
19.3949937651971
 30
0.0
 11
135.893706472969
 21
18.7949937651971
 31
0.0
  0
LINE
  5
1A6
330
1F
100
AcDbEntity
  8
1
  6
Continuous
 62
     4
100
AcDbLine
 10
131.9231182376749
 20
18.9449937651971
 30
0.0
 11
131.9231182376749
 21
14.7449937651971
 31
0.0
  0
LINE
  5
1A7
330
1F
100
AcDbEntity
  8
1
  6
Continuous
 62
     4
100
AcDbLine
 10
133.1142947082631
 20
16.0949937651971
 30
0.0
 11
134.0407652964984
 21
15.0449937651971
 31
0.0
  0
LINE
  5
1A8
330
1F
100
AcDbEntity
  8
1
  6
Continuous
 62
     4
100
AcDbLine
 10
132.4525300023808
 20
17.2949937651971
 30
0.0
 11
133.1142947082631
 21
16.0949937651971
 31
0.0
  0
LINE
  5
1A9
330
1F
100
AcDbEntity
  8
1
  6
Continuous
 62
     4
100
AcDbLine
 10
131.9231182376749
 20
18.9449937651971
 30
0.0
 11
132.4525300023808
 21
17.2949937651971
 31
0.0
  0
LINE
  5
1AA
330
1F
100
AcDbEntity
  8
1
  6
Continuous
 62
     4
100
AcDbLine
 10
133.7760594141455
 20
18.9449937651971
 30
0.0
 11
132.7172358847337
 21
17.4449937651971
 31
0.0
  0
LINE
  5
1AB
330
1F
100
AcDbEntity
  8
1
  6
Continuous
 62
     4
100
AcDbLine
 10
130.7319417670867
 20
16.2449937651971
 30
0.0
 11
129.9378241200278
 21
15.1949937651971
 31
0.0
  0
LINE
  5
1AC
330
1F
100
AcDbEntity
  8
1
  6
Continuous
 62
     4
100
AcDbLine
 10
131.129000590616
 20
17.2949937651971
 30
0.0
 11
130.7319417670867
 21
16.2449937651971
 31
0.0
  0
LINE
  5
1AD
330
1F
100
AcDbEntity
  8
1
  6
Continuous
 62
     4
100
AcDbLine
 10
131.2613535317925
 20
18.4949937651971
 30
0.0
 11
131.129000590616
 21
17.2949937651971
 31
0.0
  0
LINE
  5
1AE
330
1F
100
AcDbEntity
  8
1
  6
Continuous
 62
     4
100
AcDbLine
 10
129.9378241200278
 20
18.4949937651971
 30
0.0
 11
131.2613535317925
 21
18.4949937651971
 31
0.0
  0
LINE
  5
1AF
330
1F
100
AcDbEntity
  8
1
  6
Continuous
 62
     4
100
AcDbLine
 10
131.9231182376749
 20
14.7449937651971
 30
0.0
 11
130.9966476494396
 21
15.3449937651971
 31
0.0
  0
LINE
  5
1B0
330
1F
100
AcDbEntity
  8
1
  6
Continuous
 62
     4
100
AcDbLine
 10
131.9231182376749
 20
19.3949937651971
 30
0.0
 11
131.9231182376749
 21
18.9449937651971
 31
0.0
  0
LINE
  5
1B1
330
1F
100
AcDbEntity
  8
1
  6
Continuous
 62
     4
100
AcDbLine
 10
126.7613535317925
 20
18.4949937651971
 30
0.0
 11
126.7613535317925
 21
17.2949937651971
 31
0.0
  0
LINE
  5
1B2
330
1F
100
AcDbEntity
  8
1
  6
Continuous
 62
     4
100
AcDbLine
 10
126.7613535317925
 20
17.2949937651971
 30
0.0
 11
126.7613535317925
 21
16.5449937651971
 31
0.0
  0
LINE
  5
1B3
330
1F
100
AcDbEntity
  8
1
  6
Continuous
 62
     4
100
AcDbLine
 10
127.4231182376749
 20
18.4949937651971
 30
0.0
 11
127.4231182376749
 21
17.2949937651971
 31
0.0
  0
LINE
  5
1B4
330
1F
100
AcDbEntity
  8
1
  6
Continuous
 62
     4
100
AcDbLine
 10
127.4231182376749
 20
17.2949937651971
 30
0.0
 11
127.4231182376749
 21
16.0949937651971
 31
0.0
  0
LINE
  5
1B5
330
1F
100
AcDbEntity
  8
1
  6
Continuous
 62
     4
100
AcDbLine
 10
127.4231182376749
 20
16.0949937651971
 30
0.0
 11
127.4231182376749
 21
14.7449937651971
 31
0.0
  0
LINE
  5
1B6
330
1F
100
AcDbEntity
  8
1
  6
Continuous
 62
     4
100
AcDbLine
 10
127.4231182376749
 20
16.0949937651971
 30
0.0
 11
128.4819417670867
 21
16.0949937651971
 31
0.0
  0
LINE
  5
1B7
330
1F
100
AcDbEntity
  8
1
  6
Continuous
 62
     4
100
AcDbLine
 10
127.4231182376749
 20
17.2949937651971
 30
0.0
 11
128.2172358847337
 21
17.2949937651971
 31
0.0
  0
LINE
  5
1B8
330
1F
100
AcDbEntity
  8
1
  6
Continuous
 62
     4
100
AcDbLine
 10
127.4231182376749
 20
18.4949937651971
 30
0.0
 11
128.3495888259102
 21
18.4949937651971
 31
0.0
  0
LINE
  5
1B9
330
1F
100
AcDbEntity
  8
1
  6
Continuous
 62
     4
100
AcDbLine
 10
127.4231182376749
 20
19.2449937651971
 30
0.0
 11
127.4231182376749
 21
18.4949937651971
 31
0.0
  0
LINE
  5
1BA
330
1F
100
AcDbEntity
  8
1
  6
Continuous
 62
     4
100
AcDbLine
 10
126.7613535317925
 20
16.5449937651971
 30
0.0
 11
126.2319417670866
 21
14.8949937651971
 31
0.0
  0
LINE
  5
1BB
330
1F
100
AcDbEntity
  8
1
  6
Continuous
 62
     4
100
AcDbLine
 10
126.7613535317925
 20
19.2449937651971
 30
0.0
 11
126.7613535317925
 21
18.4949937651971
 31
0.0
  0
LINE
  5
1BC
330
1F
100
AcDbEntity
  8
1
  6
Continuous
 62
     4
100
AcDbLine
 10
125.7025300023808
 20
15.7949937651971
 30
0.0
 11
126.7613535317925
 21
16.5449937651971
 31
0.0
  0
LINE
  5
1BD
330
1F
100
AcDbEntity
  8
1
  6
Continuous
 62
     4
100
AcDbLine
 10
125.9672358847337
 20
17.2949937651971
 30
0.0
 11
126.7613535317925
 21
17.2949937651971
 31
0.0
  0
LINE
  5
1BE
330
1F
100
AcDbEntity
  8
1
  6
Continuous
 62
     4
100
AcDbLine
 10
125.8348829435572
 20
18.4949937651971
 30
0.0
 11
126.7613535317925
 21
18.4949937651971
 31
0.0
  0
LINE
  5
1BF
330
1F
100
AcDbEntity
  8
1
  6
Continuous
 62
     4
100
AcDbLine
 10
124.643706472969
 20
16.5449937651971
 30
0.0
 11
125.7025300023808
 21
17.1449937651971
 31
0.0
  0
LINE
  5
1C0
330
1F
100
AcDbEntity
  8
1
  6
Continuous
 62
     4
100
AcDbLine
 10
125.1731182376749
 20
14.8949937651971
 30
0.0
 11
124.643706472969
 21
15.1949937651971
 31
0.0
  0
LINE
  5
1C1
330
1F
100
AcDbEntity
  8
1
  6
Continuous
 62
     4
100
AcDbLine
 10
125.1731182376749
 20
19.3949937651971
 30
0.0
 11
125.1731182376749
 21
14.8949937651971
 31
0.0
  0
LINE
  5
1C2
330
1F
100
AcDbEntity
  8
1
  6
Continuous
 62
     4
100
AcDbLine
 10
124.643706472969
 20
18.3449937651971
 30
0.0
 11
125.7025300023808
 21
18.3449937651971
 31
0.0
  0
LINE
  5
1C3
330
1F
100
AcDbEntity
  8
1
  6
Continuous
 62
     4
100
AcDbLine
 10
118.9525300023808
 20
14.8949937651971
 30
0.0
 11
123.1878241200278
 21
14.8949937651971
 31
0.0
  0
LINE
  5
1C4
330
1F
100
AcDbEntity
  8
1
  6
Continuous
 62
     4
100
AcDbLine
 10
114.9819417670866
 20
15.3449937651971
 30
0.0
 11
114.7172358847337
 21
15.6449937651971
 31
0.0
  0
LINE
  5
1C5
330
1F
100
AcDbEntity
  8
1
  6
Continuous
 62
     4
100
AcDbLine
 10
115.5113535317925
 20
15.0449937651971
 30
0.0
 11
114.9819417670866
 21
15.3449937651971
 31
0.0
  0
LINE
  5
1C6
330
1F
100
AcDbEntity
  8
1
  6
Continuous
 62
     4
100
AcDbLine
 10
116.1731182376749
 20
14.8949937651971
 30
0.0
 11
115.5113535317925
 21
15.0449937651971
 31
0.0
  0
LINE
  5
1C7
330
1F
100
AcDbEntity
  8
1
  6
Continuous
 62
     4
100
AcDbLine
 10
116.9672358847337
 20
15.0449937651971
 30
0.0
 11
116.1731182376749
 21
14.8949937651971
 31
0.0
  0
LINE
  5
1C8
330
1F
100
AcDbEntity
  8
1
  6
Continuous
 62
     4
100
AcDbLine
 10
117.3642947082631
 20
15.3449937651971
 30
0.0
 11
116.9672358847337
 21
15.0449937651971
 31
0.0
  0
LINE
  5
1C9
330
1F
100
AcDbEntity
  8
1
  6
Continuous
 62
     4
100
AcDbLine
 10
117.629000590616
 20
16.0949937651971
 30
0.0
 11
117.3642947082631
 21
15.3449937651971
 31
0.0
  0
LINE
  5
1CA
330
1F
100
AcDbEntity
  8
1
  6
Continuous
 62
     4
100
AcDbLine
 10
117.3642947082631
 20
16.8449937651971
 30
0.0
 11
117.629000590616
 21
16.0949937651971
 31
0.0
  0
LINE
  5
1CB
330
1F
100
AcDbEntity
  8
1
  6
Continuous
 62
     4
100
AcDbLine
 10
116.7025300023808
 20
17.2949937651971
 30
0.0
 11
117.3642947082631
 21
16.8449937651971
 31
0.0
  0
LINE
  5
1CC
330
1F
100
AcDbEntity
  8
1
  6
Continuous
 62
     4
100
AcDbLine
 10
116.0407652964984
 20
17.2949937651971
 30
0.0
 11
116.7025300023808
 21
17.2949937651971
 31
0.0
  0
LINE
  5
1CD
330
1F
100
AcDbEntity
  8
1
  6
Continuous
 62
     4
100
AcDbLine
 10
116.7025300023808
 20
17.2949937651971
 30
0.0
 11
116.0407652964984
 21
17.2949937651971
 31
0.0
  0
LINE
  5
1CE
330
1F
100
AcDbEntity
  8
1
  6
Continuous
 62
     4
100
AcDbLine
 10
117.2319417670866
 20
17.5949937651971
 30
0.0
 11
116.7025300023808
 21
17.2949937651971
 31
0.0
  0
LINE
  5
1CF
330
1F
100
AcDbEntity
  8
1
  6
Continuous
 62
     4
100
AcDbLine
 10
117.4966476494396
 20
18.1949937651971
 30
0.0
 11
117.2319417670866
 21
17.5949937651971
 31
0.0
  0
LINE
  5
1D0
330
1F
100
AcDbEntity
  8
1
  6
Continuous
 62
     4
100
AcDbLine
 10
117.3642947082631
 20
18.6449937651971
 30
0.0
 11
117.4966476494396
 21
18.1949937651971
 31
0.0
  0
LINE
  5
1D1
330
1F
100
AcDbEntity
  8
1
  6
Continuous
 62
     4
100
AcDbLine
 10
116.9672358847337
 20
19.2449937651971
 30
0.0
 11
117.3642947082631
 21
18.6449937651971
 31
0.0
  0
LINE
  5
1D2
330
1F
100
AcDbEntity
  8
1
  6
Continuous
 62
     4
100
AcDbLine
 10
116.1731182376749
 20
19.3949937651971
 30
0.0
 11
116.9672358847337
 21
19.2449937651971
 31
0.0
  0
LINE
  5
1D3
330
1F
100
AcDbEntity
  8
1
  6
Continuous
 62
     4
100
AcDbLine
 10
115.379000590616
 20
19.2449937651971
 30
0.0
 11
116.1731182376749
 21
19.3949937651971
 31
0.0
  0
LINE
  5
1D4
330
1F
100
AcDbEntity
  8
1
  6
Continuous
 62
     4
100
AcDbLine
 10
114.8495888259102
 20
18.6449937651971
 30
0.0
 11
115.379000590616
 21
19.2449937651971
 31
0.0
  0
LINE
  5
1D5
330
1F
100
AcDbEntity
  8
1
  6
Continuous
 62
     4
100
AcDbLine
 10
113.393706472969
 20
19.3949937651971
 30
0.0
 11
113.393706472969
 21
14.8949937651971
 31
0.0
  0
LINE
  5
1D6
330
1F
100
AcDbEntity
  8
1
  6
Continuous
 62
     4
100
AcDbLine
 10
112.7319417670866
 20
18.9449937651971
 30
0.0
 11
113.393706472969
 21
19.3949937651971
 31
0.0
  0
LINE
  5
1D7
330
1F
100
AcDbEntity
  8
1
  6
Continuous
 62
     4
100
AcDbLine
 10
107.1731182376749
 20
14.8949937651971
 30
0.0
 11
111.4084123553219
 21
14.8949937651971
 31
0.0
  0
LINE
  5
1D8
330
1F
100
AcDbEntity
  8
1
  6
Continuous
 62
     4
100
AcDbLine
 10
105.5848829435572
 20
15.4949937651971
 30
0.0
 11
105.8495888259102
 21
15.9449937651971
 31
0.0
  0
LINE
  5
1D9
330
1F
100
AcDbEntity
  8
1
  6
Continuous
 62
     4
100
AcDbLine
 10
105.0554711788513
 20
15.0449937651971
 30
0.0
 11
105.5848829435572
 21
15.4949937651971
 31
0.0
  0
LINE
  5
1DA
330
1F
100
AcDbEntity
  8
1
  6
Continuous
 62
     4
100
AcDbLine
 10
104.393706472969
 20
14.8949937651971
 30
0.0
 11
105.0554711788513
 21
15.0449937651971
 31
0.0
  0
LINE
  5
1DB
330
1F
100
AcDbEntity
  8
1
  6
Continuous
 62
     4
100
AcDbLine
 10
103.5995888259102
 20
15.1949937651971
 30
0.0
 11
104.393706472969
 21
14.8949937651971
 31
0.0
  0
LINE
  5
1DC
330
1F
100
AcDbEntity
  8
1
  6
Continuous
 62
     4
100
AcDbLine
 10
103.2025300023807
 20
16.0949937651971
 30
0.0
 11
103.5995888259102
 21
15.1949937651971
 31
0.0
  0
LINE
  5
1DD
330
1F
100
AcDbEntity
  8
1
  6
Continuous
 62
     4
100
AcDbLine
 10
103.0701770612043
 20
17.1449937651971
 30
0.0
 11
103.2025300023807
 21
16.0949937651971
 31
0.0
  0
LINE
  5
1DE
330
1F
100
AcDbEntity
  8
1
  6
Continuous
 62
     4
100
AcDbLine
 10
103.2025300023807
 20
18.1949937651971
 30
0.0
 11
103.0701770612043
 21
17.1449937651971
 31
0.0
  0
LINE
  5
1DF
330
1F
100
AcDbEntity
  8
1
  6
Continuous
 62
     4
100
AcDbLine
 10
103.5995888259102
 20
18.9449937651971
 30
0.0
 11
103.2025300023807
 21
18.1949937651971
 31
0.0
  0
LINE
  5
1E0
330
1F
100
AcDbEntity
  8
1
  6
Continuous
 62
     4
100
AcDbLine
 10
104.393706472969
 20
19.3949937651971
 30
0.0
 11
103.5995888259102
 21
18.9449937651971
 31
0.0
  0
LINE
  5
1E1
330
1F
100
AcDbEntity
  8
1
  6
Continuous
 62
     4
100
AcDbLine
 10
105.0554711788513
 20
19.2449937651971
 30
0.0
 11
104.393706472969
 21
19.3949937651971
 31
0.0
  0
LINE
  5
1E2
330
1F
100
AcDbEntity
  8
1
  6
Continuous
 62
     4
100
AcDbLine
 10
105.4525300023807
 20
18.9449937651971
 30
0.0
 11
105.0554711788513
 21
19.2449937651971
 31
0.0
  0
LINE
  5
1E3
330
1F
100
AcDbEntity
  8
1
  6
Continuous
 62
     4
100
AcDbLine
 10
105.8495888259102
 20
18.4949937651971
 30
0.0
 11
105.4525300023807
 21
18.9449937651971
 31
0.0
  0
LINE
  5
1E4
330
1F
100
AcDbEntity
  8
1
  6
Continuous
 62
     4
100
AcDbLine
 10
100.4231182376749
 20
16.0949937651971
 30
0.0
 11
101.7466476494396
 21
14.8949937651971
 31
0.0
  0
LINE
  5
1E5
330
1F
100
AcDbEntity
  8
1
  6
Continuous
 62
     4
100
AcDbLine
 10
100.9525300023808
 20
19.0949937651971
 30
0.0
 11
100.1584123553219
 21
19.3949937651971
 31
0.0
  0
LINE
  5
1E6
330
1F
100
AcDbEntity
  8
1
  6
Continuous
 62
     4
100
AcDbLine
 10
101.4819417670866
 20
18.1949937651971
 30
0.0
 11
100.9525300023808
 21
19.0949937651971
 31
0.0
  0
LINE
  5
1E7
330
1F
100
AcDbEntity
  8
1
  6
Continuous
 62
     4
100
AcDbLine
 10
101.6142947082631
 20
17.1449937651971
 30
0.0
 11
101.4819417670866
 21
18.1949937651971
 31
0.0
  0
LINE
  5
1E8
330
1F
100
AcDbEntity
  8
1
  6
Continuous
 62
     4
100
AcDbLine
 10
101.4819417670866
 20
16.0949937651971
 30
0.0
 11
101.6142947082631
 21
17.1449937651971
 31
0.0
  0
LINE
  5
1E9
330
1F
100
AcDbEntity
  8
1
  6
Continuous
 62
     4
100
AcDbLine
 10
100.9525300023808
 20
15.1949937651971
 30
0.0
 11
101.4819417670866
 21
16.0949937651971
 31
0.0
  0
LINE
  5
1EA
330
1F
100
AcDbEntity
  8
1
  6
Continuous
 62
     4
100
AcDbLine
 10
100.1584123553219
 20
14.8949937651971
 30
0.0
 11
100.9525300023808
 21
15.1949937651971
 31
0.0
  0
LINE
  5
1EB
330
1F
100
AcDbEntity
  8
1
  6
Continuous
 62
     4
100
AcDbLine
 10
99.3642947082631
 20
15.1949937651971
 30
0.0
 11
100.1584123553219
 21
14.8949937651971
 31
0.0
  0
LINE
  5
1EC
330
1F
100
AcDbEntity
  8
1
  6
Continuous
 62
     4
100
AcDbLine
 10
98.83488294355722
 20
16.0949937651971
 30
0.0
 11
99.3642947082631
 21
15.1949937651971
 31
0.0
  0
LINE
  5
1ED
330
1F
100
AcDbEntity
  8
1
  6
Continuous
 62
     4
100
AcDbLine
 10
98.70253000238075
 20
17.1449937651971
 30
0.0
 11
98.83488294355722
 21
16.0949937651971
 31
0.0
  0
LINE
  5
1EE
330
1F
100
AcDbEntity
  8
1
  6
Continuous
 62
     4
100
AcDbLine
 10
98.83488294355722
 20
18.1949937651971
 30
0.0
 11
98.70253000238075
 21
17.1449937651971
 31
0.0
  0
LINE
  5
1EF
330
1F
100
AcDbEntity
  8
1
  6
Continuous
 62
     4
100
AcDbLine
 10
99.3642947082631
 20
19.0949937651971
 30
0.0
 11
98.83488294355722
 21
18.1949937651971
 31
0.0
  0
LINE
  5
1F0
330
1F
100
AcDbEntity
  8
1
  6
Continuous
 62
     4
100
AcDbLine
 10
100.1584123553219
 20
19.3949937651971
 30
0.0
 11
99.3642947082631
 21
19.0949937651971
 31
0.0
  0
LINE
  5
1F1
330
1F
100
AcDbEntity
  8
1
  6
Continuous
 62
     4
100
AcDbLine
 10
94.99664764943958
 20
17.1449937651971
 30
0.0
 11
97.37900059061604
 21
17.1449937651971
 31
0.0
  0
LINE
  5
1F2
330
1F
100
AcDbEntity
  8
1
  6
Continuous
 62
     4
100
AcDbLine
 10
93.67311823767487
 20
14.8949937651971
 30
0.0
 11
93.67311823767487
 21
19.3949937651971
 31
0.0
  0
LINE
  5
1F3
330
1F
100
AcDbEntity
  8
1
  6
Continuous
 62
     4
100
AcDbLine
 10
91.02605941414546
 20
19.3949937651971
 30
0.0
 11
93.67311823767487
 21
14.8949937651971
 31
0.0
  0
LINE
  5
1F4
330
1F
100
AcDbEntity
  8
1
  6
Continuous
 62
     4
100
AcDbLine
 10
91.02605941414546
 20
14.8949937651971
 30
0.0
 11
91.02605941414546
 21
19.3949937651971
 31
0.0
  0
LINE
  5
1F5
330
1F
100
AcDbEntity
  8
1
  6
Continuous
 62
     4
100
AcDbLine
 10
87.32017706120429
 20
17.1449937651971
 30
0.0
 11
89.70253000238075
 21
17.1449937651971
 31
0.0
  0
LINE
  5
1F6
330
1F
100
AcDbEntity
  8
1
  6
Continuous
 62
     4
100
AcDbLine
 10
83.2172358847337
 20
16.6949937651971
 30
0.0
 11
83.2172358847337
 21
14.8949937651971
 31
0.0
  0
LINE
  5
1F7
330
1F
100
AcDbEntity
  8
1
  6
Continuous
 62
     4
100
AcDbLine
 10
83.87900059061604
 20
17.4449937651971
 30
0.0
 11
85.99664764943958
 21
14.8949937651971
 31
0.0
  0
LINE
  5
1F8
330
1F
100
AcDbEntity
  8
1
  6
Continuous
 62
     4
100
AcDbLine
 10
85.73194176708664
 20
19.3949937651971
 30
0.0
 11
83.2172358847337
 21
16.6949937651971
 31
0.0
  0
LINE
  5
1F9
330
1F
100
AcDbEntity
  8
1
  6
Continuous
 62
     4
100
AcDbLine
 10
83.2172358847337
 20
19.3949937651971
 30
0.0
 11
83.2172358847337
 21
16.6949937651971
 31
0.0
  0
LINE
  5
1FA
330
1F
100
AcDbEntity
  8
1
  6
Continuous
 62
     4
100
AcDbLine
 10
163.3072396696019
 20
82.09721549526327
 30
0.0
 11
166.4837102578372
 21
82.09721549526327
 31
0.0
  0
LINE
  5
1FB
330
1F
100
AcDbEntity
  8
1
  6
Continuous
 62
     4
100
AcDbLine
 10
165.6895926107784
 20
85.54721549526327
 30
0.0
 11
163.3072396696019
 21
82.09721549526327
 31
0.0
  0
LINE
  5
1FC
330
1F
100
AcDbEntity
  8
1
  6
Continuous
 62
     4
100
AcDbLine
 10
165.6895926107784
 20
81.04721549526327
 30
0.0
 11
165.6895926107784
 21
85.54721549526327
 31
0.0
  0
LINE
  5
1FD
330
1F
100
AcDbEntity
  8
1
  6
Continuous
 62
     4
100
AcDbLine
 10
161.9837102578372
 20
85.09721549526327
 30
0.0
 11
159.2042984931313
 21
81.79721549526327
 31
0.0
  0
LINE
  5
1FE
330
1F
100
AcDbEntity
  8
1
  6
Continuous
 62
     4
100
AcDbLine
 10
155.2337102578372
 20
81.49721549526328
 30
0.0
 11
154.9690043754843
 21
81.79721549526327
 31
0.0
  0
LINE
  5
1FF
330
1F
100
AcDbEntity
  8
1
  6
Continuous
 62
     4
100
AcDbLine
 10
155.7631220225431
 20
81.19721549526328
 30
0.0
 11
155.2337102578372
 21
81.49721549526328
 31
0.0
  0
LINE
  5
200
330
1F
100
AcDbEntity
  8
1
  6
Continuous
 62
     4
100
AcDbLine
 10
156.4248867284255
 20
81.04721549526327
 30
0.0
 11
155.7631220225431
 21
81.19721549526328
 31
0.0
  0
LINE
  5
201
330
1F
100
AcDbEntity
  8
1
  6
Continuous
 62
     4
100
AcDbLine
 10
157.2190043754843
 20
81.19721549526328
 30
0.0
 11
156.4248867284255
 21
81.04721549526327
 31
0.0
  0
LINE
  5
202
330
1F
100
AcDbEntity
  8
1
  6
Continuous
 62
     4
100
AcDbLine
 10
157.6160631990137
 20
81.49721549526328
 30
0.0
 11
157.2190043754843
 21
81.19721549526328
 31
0.0
  0
LINE
  5
203
330
1F
100
AcDbEntity
  8
1
  6
Continuous
 62
     4
100
AcDbLine
 10
157.8807690813666
 20
82.24721549526328
 30
0.0
 11
157.6160631990137
 21
81.49721549526328
 31
0.0
  0
LINE
  5
204
330
1F
100
AcDbEntity
  8
1
  6
Continuous
 62
     4
100
AcDbLine
 10
157.6160631990137
 20
82.99721549526328
 30
0.0
 11
157.8807690813666
 21
82.24721549526328
 31
0.0
  0
LINE
  5
205
330
1F
100
AcDbEntity
  8
1
  6
Continuous
 62
     4
100
AcDbLine
 10
156.9542984931314
 20
83.44721549526328
 30
0.0
 11
157.6160631990137
 21
82.99721549526328
 31
0.0
  0
LINE
  5
206
330
1F
100
AcDbEntity
  8
1
  6
Continuous
 62
     4
100
AcDbLine
 10
156.292533787249
 20
83.44721549526328
 30
0.0
 11
156.9542984931314
 21
83.44721549526328
 31
0.0
  0
LINE
  5
207
330
1F
100
AcDbEntity
  8
1
  6
Continuous
 62
     4
100
AcDbLine
 10
156.9542984931314
 20
83.44721549526328
 30
0.0
 11
156.292533787249
 21
83.44721549526328
 31
0.0
  0
LINE
  5
208
330
1F
100
AcDbEntity
  8
1
  6
Continuous
 62
     4
100
AcDbLine
 10
157.4837102578372
 20
83.74721549526328
 30
0.0
 11
156.9542984931314
 21
83.44721549526328
 31
0.0
  0
LINE
  5
209
330
1F
100
AcDbEntity
  8
1
  6
Continuous
 62
     4
100
AcDbLine
 10
157.7484161401902
 20
84.34721549526327
 30
0.0
 11
157.4837102578372
 21
83.74721549526328
 31
0.0
  0
LINE
  5
20A
330
1F
100
AcDbEntity
  8
1
  6
Continuous
 62
     4
100
AcDbLine
 10
157.6160631990137
 20
84.79721549526327
 30
0.0
 11
157.7484161401902
 21
84.34721549526327
 31
0.0
  0
LINE
  5
20B
330
1F
100
AcDbEntity
  8
1
  6
Continuous
 62
     4
100
AcDbLine
 10
157.2190043754843
 20
85.39721549526327
 30
0.0
 11
157.6160631990137
 21
84.79721549526327
 31
0.0
  0
LINE
  5
20C
330
1F
100
AcDbEntity
  8
1
  6
Continuous
 62
     4
100
AcDbLine
 10
156.4248867284255
 20
85.54721549526327
 30
0.0
 11
157.2190043754843
 21
85.39721549526327
 31
0.0
  0
LINE
  5
20D
330
1F
100
AcDbEntity
  8
1
  6
Continuous
 62
     4
100
AcDbLine
 10
155.6307690813666
 20
85.39721549526327
 30
0.0
 11
156.4248867284255
 21
85.54721549526327
 31
0.0
  0
LINE
  5
20E
330
1F
100
AcDbEntity
  8
1
  6
Continuous
 62
     4
100
AcDbLine
 10
155.1013573166607
 20
84.79721549526327
 30
0.0
 11
155.6307690813666
 21
85.39721549526327
 31
0.0
  0
LINE
  5
20F
330
1F
100
AcDbEntity
  8
1
  6
Continuous
 62
     4
100
AcDbLine
 10
153.6454749637196
 20
83.14721549526327
 30
0.0
 11
152.4542984931313
 21
83.14721549526327
 31
0.0
  0
LINE
  5
210
330
1F
100
AcDbEntity
  8
1
  6
Continuous
 62
     4
100
AcDbLine
 10
153.6454749637196
 20
82.24721549526328
 30
0.0
 11
153.6454749637196
 21
83.14721549526327
 31
0.0
  0
LINE
  5
211
330
1F
100
AcDbEntity
  8
1
  6
Continuous
 62
     4
100
AcDbLine
 10
153.5131220225431
 20
81.79721549526327
 30
0.0
 11
153.6454749637196
 21
82.24721549526328
 31
0.0
  0
LINE
  5
212
330
1F
100
AcDbEntity
  8
1
  6
Continuous
 62
     4
100
AcDbLine
 10
153.2484161401901
 20
81.49721549526328
 30
0.0
 11
153.5131220225431
 21
81.79721549526327
 31
0.0
  0
LINE
  5
213
330
1F
100
AcDbEntity
  8
1
  6
Continuous
 62
     4
100
AcDbLine
 10
152.8513573166607
 20
81.19721549526328
 30
0.0
 11
153.2484161401901
 21
81.49721549526328
 31
0.0
  0
LINE
  5
214
330
1F
100
AcDbEntity
  8
1
  6
Continuous
 62
     4
100
AcDbLine
 10
152.1895926107784
 20
81.04721549526327
 30
0.0
 11
152.8513573166607
 21
81.19721549526328
 31
0.0
  0
LINE
  5
215
330
1F
100
AcDbEntity
  8
1
  6
Continuous
 62
     4
100
AcDbLine
 10
151.527827904896
 20
81.19721549526328
 30
0.0
 11
152.1895926107784
 21
81.04721549526327
 31
0.0
  0
LINE
  5
216
330
1F
100
AcDbEntity
  8
1
  6
Continuous
 62
     4
100
AcDbLine
 10
151.1307690813666
 20
81.79721549526327
 30
0.0
 11
151.527827904896
 21
81.19721549526328
 31
0.0
  0
LINE
  5
217
330
1F
100
AcDbEntity
  8
1
  6
Continuous
 62
     4
100
AcDbLine
 10
150.9984161401901
 20
82.09721549526327
 30
0.0
 11
151.1307690813666
 21
81.79721549526327
 31
0.0
  0
LINE
  5
218
330
1F
100
AcDbEntity
  8
1
  6
Continuous
 62
     4
100
AcDbLine
 10
150.8660631990137
 20
82.69721549526328
 30
0.0
 11
150.9984161401901
 21
82.09721549526327
 31
0.0
  0
LINE
  5
219
330
1F
100
AcDbEntity
  8
1
  6
Continuous
 62
     4
100
AcDbLine
 10
150.7337102578372
 20
83.29721549526327
 30
0.0
 11
150.8660631990137
 21
82.69721549526328
 31
0.0
  0
LINE
  5
21A
330
1F
100
AcDbEntity
  8
1
  6
Continuous
 62
     4
100
AcDbLine
 10
150.8660631990137
 20
83.89721549526327
 30
0.0
 11
150.7337102578372
 21
83.29721549526327
 31
0.0
  0
LINE
  5
21B
330
1F
100
AcDbEntity
  8
1
  6
Continuous
 62
     4
100
AcDbLine
 10
151.1307690813666
 20
84.79721549526327
 30
0.0
 11
150.8660631990137
 21
83.89721549526327
 31
0.0
  0
LINE
  5
21C
330
1F
100
AcDbEntity
  8
1
  6
Continuous
 62
     4
100
AcDbLine
 10
151.2631220225431
 20
85.09721549526327
 30
0.0
 11
151.1307690813666
 21
84.79721549526327
 31
0.0
  0
LINE
  5
21D
330
1F
100
AcDbEntity
  8
1
  6
Continuous
 62
     4
100
AcDbLine
 10
151.6601808460725
 20
85.39721549526327
 30
0.0
 11
151.2631220225431
 21
85.09721549526327
 31
0.0
  0
LINE
  5
21E
330
1F
100
AcDbEntity
  8
1
  6
Continuous
 62
     4
100
AcDbLine
 10
152.1895926107784
 20
85.54721549526327
 30
0.0
 11
151.6601808460725
 21
85.39721549526327
 31
0.0
  0
LINE
  5
21F
330
1F
100
AcDbEntity
  8
1
  6
Continuous
 62
     4
100
AcDbLine
 10
152.8513573166607
 20
85.39721549526327
 30
0.0
 11
152.1895926107784
 21
85.54721549526327
 31
0.0
  0
LINE
  5
220
330
1F
100
AcDbEntity
  8
1
  6
Continuous
 62
     4
100
AcDbLine
 10
153.1160631990137
 20
85.24721549526328
 30
0.0
 11
152.8513573166607
 21
85.39721549526327
 31
0.0
  0
LINE
  5
221
330
1F
100
AcDbEntity
  8
1
  6
Continuous
 62
     4
100
AcDbLine
 10
153.3807690813666
 20
84.94721549526328
 30
0.0
 11
153.1160631990137
 21
85.24721549526328
 31
0.0
  0
LINE
  5
222
330
1F
100
AcDbEntity
  8
1
  6
Continuous
 62
     4
100
AcDbLine
 10
153.6454749637196
 20
84.49721549526328
 30
0.0
 11
153.3807690813666
 21
84.94721549526328
 31
0.0
  0
LINE
  5
223
330
1F
100
AcDbEntity
  8
1
  6
Continuous
 62
     4
100
AcDbLine
 10
223.2608869570964
 20
45.57419154410571
 30
0.0
 11
226.4373575453317
 21
45.57419154410571
 31
0.0
  0
LINE
  5
224
330
1F
100
AcDbEntity
  8
1
  6
Continuous
 62
     4
100
AcDbLine
 10
225.6432398982729
 20
49.02419154410571
 30
0.0
 11
223.2608869570964
 21
45.57419154410571
 31
0.0
  0
LINE
  5
225
330
1F
100
AcDbEntity
  8
1
  6
Continuous
 62
     4
100
AcDbLine
 10
225.6432398982729
 20
44.52419154410571
 30
0.0
 11
225.6432398982729
 21
49.02419154410571
 31
0.0
  0
LINE
  5
226
330
1F
100
AcDbEntity
  8
1
  6
Continuous
 62
     4
100
AcDbLine
 10
221.9373575453317
 20
48.57419154410571
 30
0.0
 11
219.1579457806258
 21
45.27419154410571
 31
0.0
  0
LINE
  5
227
330
1F
100
AcDbEntity
  8
1
  6
Continuous
 62
     4
100
AcDbLine
 10
215.1873575453317
 20
44.97419154410572
 30
0.0
 11
214.9226516629788
 21
45.27419154410571
 31
0.0
  0
LINE
  5
228
330
1F
100
AcDbEntity
  8
1
  6
Continuous
 62
     4
100
AcDbLine
 10
215.7167693100376
 20
44.67419154410571
 30
0.0
 11
215.1873575453317
 21
44.97419154410572
 31
0.0
  0
LINE
  5
229
330
1F
100
AcDbEntity
  8
1
  6
Continuous
 62
     4
100
AcDbLine
 10
216.37853401592
 20
44.52419154410571
 30
0.0
 11
215.7167693100376
 21
44.67419154410571
 31
0.0
  0
LINE
  5
22A
330
1F
100
AcDbEntity
  8
1
  6
Continuous
 62
     4
100
AcDbLine
 10
217.1726516629788
 20
44.67419154410571
 30
0.0
 11
216.37853401592
 21
44.52419154410571
 31
0.0
  0
LINE
  5
22B
330
1F
100
AcDbEntity
  8
1
  6
Continuous
 62
     4
100
AcDbLine
 10
217.5697104865082
 20
44.97419154410572
 30
0.0
 11
217.1726516629788
 21
44.67419154410571
 31
0.0
  0
LINE
  5
22C
330
1F
100
AcDbEntity
  8
1
  6
Continuous
 62
     4
100
AcDbLine
 10
217.8344163688611
 20
45.72419154410572
 30
0.0
 11
217.5697104865082
 21
44.97419154410572
 31
0.0
  0
LINE
  5
22D
330
1F
100
AcDbEntity
  8
1
  6
Continuous
 62
     4
100
AcDbLine
 10
217.5697104865082
 20
46.47419154410572
 30
0.0
 11
217.8344163688611
 21
45.72419154410572
 31
0.0
  0
LINE
  5
22E
330
1F
100
AcDbEntity
  8
1
  6
Continuous
 62
     4
100
AcDbLine
 10
216.9079457806259
 20
46.92419154410571
 30
0.0
 11
217.5697104865082
 21
46.47419154410572
 31
0.0
  0
LINE
  5
22F
330
1F
100
AcDbEntity
  8
1
  6
Continuous
 62
     4
100
AcDbLine
 10
216.2461810747435
 20
46.92419154410571
 30
0.0
 11
216.9079457806259
 21
46.92419154410571
 31
0.0
  0
LINE
  5
230
330
1F
100
AcDbEntity
  8
1
  6
Continuous
 62
     4
100
AcDbLine
 10
216.9079457806259
 20
46.92419154410571
 30
0.0
 11
216.2461810747435
 21
46.92419154410571
 31
0.0
  0
LINE
  5
231
330
1F
100
AcDbEntity
  8
1
  6
Continuous
 62
     4
100
AcDbLine
 10
217.4373575453317
 20
47.22419154410572
 30
0.0
 11
216.9079457806259
 21
46.92419154410571
 31
0.0
  0
LINE
  5
232
330
1F
100
AcDbEntity
  8
1
  6
Continuous
 62
     4
100
AcDbLine
 10
217.7020634276847
 20
47.82419154410571
 30
0.0
 11
217.4373575453317
 21
47.22419154410572
 31
0.0
  0
LINE
  5
233
330
1F
100
AcDbEntity
  8
1
  6
Continuous
 62
     4
100
AcDbLine
 10
217.5697104865082
 20
48.27419154410571
 30
0.0
 11
217.7020634276847
 21
47.82419154410571
 31
0.0
  0
LINE
  5
234
330
1F
100
AcDbEntity
  8
1
  6
Continuous
 62
     4
100
AcDbLine
 10
217.1726516629788
 20
48.87419154410571
 30
0.0
 11
217.5697104865082
 21
48.27419154410571
 31
0.0
  0
LINE
  5
235
330
1F
100
AcDbEntity
  8
1
  6
Continuous
 62
     4
100
AcDbLine
 10
216.37853401592
 20
49.02419154410571
 30
0.0
 11
217.1726516629788
 21
48.87419154410571
 31
0.0
  0
LINE
  5
236
330
1F
100
AcDbEntity
  8
1
  6
Continuous
 62
     4
100
AcDbLine
 10
215.5844163688611
 20
48.87419154410571
 30
0.0
 11
216.37853401592
 21
49.02419154410571
 31
0.0
  0
LINE
  5
237
330
1F
100
AcDbEntity
  8
1
  6
Continuous
 62
     4
100
AcDbLine
 10
215.0550046041552
 20
48.27419154410571
 30
0.0
 11
215.5844163688611
 21
48.87419154410571
 31
0.0
  0
LINE
  5
238
330
1F
100
AcDbEntity
  8
1
  6
Continuous
 62
     4
100
AcDbLine
 10
213.5991222512141
 20
46.62419154410571
 30
0.0
 11
212.4079457806258
 21
46.62419154410571
 31
0.0
  0
LINE
  5
239
330
1F
100
AcDbEntity
  8
1
  6
Continuous
 62
     4
100
AcDbLine
 10
213.5991222512141
 20
45.72419154410572
 30
0.0
 11
213.5991222512141
 21
46.62419154410571
 31
0.0
  0
LINE
  5
23A
330
1F
100
AcDbEntity
  8
1
  6
Continuous
 62
     4
100
AcDbLine
 10
213.4667693100376
 20
45.27419154410571
 30
0.0
 11
213.5991222512141
 21
45.72419154410572
 31
0.0
  0
LINE
  5
23B
330
1F
100
AcDbEntity
  8
1
  6
Continuous
 62
     4
100
AcDbLine
 10
213.2020634276846
 20
44.97419154410572
 30
0.0
 11
213.4667693100376
 21
45.27419154410571
 31
0.0
  0
LINE
  5
23C
330
1F
100
AcDbEntity
  8
1
  6
Continuous
 62
     4
100
AcDbLine
 10
212.8050046041552
 20
44.67419154410571
 30
0.0
 11
213.2020634276846
 21
44.97419154410572
 31
0.0
  0
LINE
  5
23D
330
1F
100
AcDbEntity
  8
1
  6
Continuous
 62
     4
100
AcDbLine
 10
212.1432398982729
 20
44.52419154410571
 30
0.0
 11
212.8050046041552
 21
44.67419154410571
 31
0.0
  0
LINE
  5
23E
330
1F
100
AcDbEntity
  8
1
  6
Continuous
 62
     4
100
AcDbLine
 10
211.4814751923905
 20
44.67419154410571
 30
0.0
 11
212.1432398982729
 21
44.52419154410571
 31
0.0
  0
LINE
  5
23F
330
1F
100
AcDbEntity
  8
1
  6
Continuous
 62
     4
100
AcDbLine
 10
211.0844163688611
 20
45.27419154410571
 30
0.0
 11
211.4814751923905
 21
44.67419154410571
 31
0.0
  0
LINE
  5
240
330
1F
100
AcDbEntity
  8
1
  6
Continuous
 62
     4
100
AcDbLine
 10
210.9520634276846
 20
45.57419154410571
 30
0.0
 11
211.0844163688611
 21
45.27419154410571
 31
0.0
  0
LINE
  5
241
330
1F
100
AcDbEntity
  8
1
  6
Continuous
 62
     4
100
AcDbLine
 10
210.8197104865082
 20
46.17419154410571
 30
0.0
 11
210.9520634276846
 21
45.57419154410571
 31
0.0
  0
LINE
  5
242
330
1F
100
AcDbEntity
  8
1
  6
Continuous
 62
     4
100
AcDbLine
 10
210.6873575453317
 20
46.77419154410571
 30
0.0
 11
210.8197104865082
 21
46.17419154410571
 31
0.0
  0
LINE
  5
243
330
1F
100
AcDbEntity
  8
1
  6
Continuous
 62
     4
100
AcDbLine
 10
210.8197104865082
 20
47.37419154410571
 30
0.0
 11
210.6873575453317
 21
46.77419154410571
 31
0.0
  0
LINE
  5
244
330
1F
100
AcDbEntity
  8
1
  6
Continuous
 62
     4
100
AcDbLine
 10
211.0844163688611
 20
48.27419154410571
 30
0.0
 11
210.8197104865082
 21
47.37419154410571
 31
0.0
  0
LINE
  5
245
330
1F
100
AcDbEntity
  8
1
  6
Continuous
 62
     4
100
AcDbLine
 10
211.2167693100376
 20
48.57419154410571
 30
0.0
 11
211.0844163688611
 21
48.27419154410571
 31
0.0
  0
LINE
  5
246
330
1F
100
AcDbEntity
  8
1
  6
Continuous
 62
     4
100
AcDbLine
 10
211.613828133567
 20
48.87419154410571
 30
0.0
 11
211.2167693100376
 21
48.57419154410571
 31
0.0
  0
LINE
  5
247
330
1F
100
AcDbEntity
  8
1
  6
Continuous
 62
     4
100
AcDbLine
 10
212.1432398982729
 20
49.02419154410571
 30
0.0
 11
211.613828133567
 21
48.87419154410571
 31
0.0
  0
LINE
  5
248
330
1F
100
AcDbEntity
  8
1
  6
Continuous
 62
     4
100
AcDbLine
 10
212.8050046041552
 20
48.87419154410571
 30
0.0
 11
212.1432398982729
 21
49.02419154410571
 31
0.0
  0
LINE
  5
249
330
1F
100
AcDbEntity
  8
1
  6
Continuous
 62
     4
100
AcDbLine
 10
213.0697104865082
 20
48.72419154410572
 30
0.0
 11
212.8050046041552
 21
48.87419154410571
 31
0.0
  0
LINE
  5
24A
330
1F
100
AcDbEntity
  8
1
  6
Continuous
 62
     4
100
AcDbLine
 10
213.3344163688611
 20
48.42419154410571
 30
0.0
 11
213.0697104865082
 21
48.72419154410572
 31
0.0
  0
LINE
  5
24B
330
1F
100
AcDbEntity
  8
1
  6
Continuous
 62
     4
100
AcDbLine
 10
213.5991222512141
 20
47.97419154410572
 30
0.0
 11
213.3344163688611
 21
48.42419154410571
 31
0.0
  0
LINE
  5
24C
330
1F
100
AcDbEntity
  8
1
  6
Continuous
 62
     4
100
AcDbLine
 10
82.30723966960194
 20
80.2050472350723
 30
0.0
 11
85.48371025783723
 21
80.2050472350723
 31
0.0
  0
LINE
  5
24D
330
1F
100
AcDbEntity
  8
1
  6
Continuous
 62
     4
100
AcDbLine
 10
84.6895926107784
 20
83.6550472350723
 30
0.0
 11
82.30723966960194
 21
80.2050472350723
 31
0.0
  0
LINE
  5
24E
330
1F
100
AcDbEntity
  8
1
  6
Continuous
 62
     4
100
AcDbLine
 10
84.6895926107784
 20
79.1550472350723
 30
0.0
 11
84.6895926107784
 21
83.6550472350723
 31
0.0
  0
LINE
  5
24F
330
1F
100
AcDbEntity
  8
1
  6
Continuous
 62
     4
100
AcDbLine
 10
80.98371025783723
 20
83.2050472350723
 30
0.0
 11
78.20429849313135
 21
79.9050472350723
 31
0.0
  0
LINE
  5
250
330
1F
100
AcDbEntity
  8
1
  6
Continuous
 62
     4
100
AcDbLine
 10
74.23371025783723
 20
79.6050472350723
 30
0.0
 11
73.96900437548429
 21
79.9050472350723
 31
0.0
  0
LINE
  5
251
330
1F
100
AcDbEntity
  8
1
  6
Continuous
 62
     4
100
AcDbLine
 10
74.76312202254312
 20
79.30504723507231
 30
0.0
 11
74.23371025783723
 21
79.6050472350723
 31
0.0
  0
LINE
  5
252
330
1F
100
AcDbEntity
  8
1
  6
Continuous
 62
     4
100
AcDbLine
 10
75.42488672842546
 20
79.1550472350723
 30
0.0
 11
74.76312202254312
 21
79.30504723507231
 31
0.0
  0
LINE
  5
253
330
1F
100
AcDbEntity
  8
1
  6
Continuous
 62
     4
100
AcDbLine
 10
76.21900437548429
 20
79.30504723507231
 30
0.0
 11
75.42488672842546
 21
79.1550472350723
 31
0.0
  0
LINE
  5
254
330
1F
100
AcDbEntity
  8
1
  6
Continuous
 62
     4
100
AcDbLine
 10
76.6160631990137
 20
79.6050472350723
 30
0.0
 11
76.21900437548429
 21
79.30504723507231
 31
0.0
  0
LINE
  5
255
330
1F
100
AcDbEntity
  8
1
  6
Continuous
 62
     4
100
AcDbLine
 10
76.88076908136664
 20
80.3550472350723
 30
0.0
 11
76.6160631990137
 21
79.6050472350723
 31
0.0
  0
LINE
  5
256
330
1F
100
AcDbEntity
  8
1
  6
Continuous
 62
     4
100
AcDbLine
 10
76.6160631990137
 20
81.1050472350723
 30
0.0
 11
76.88076908136664
 21
80.3550472350723
 31
0.0
  0
LINE
  5
257
330
1F
100
AcDbEntity
  8
1
  6
Continuous
 62
     4
100
AcDbLine
 10
75.95429849313135
 20
81.55504723507231
 30
0.0
 11
76.6160631990137
 21
81.1050472350723
 31
0.0
  0
LINE
  5
258
330
1F
100
AcDbEntity
  8
1
  6
Continuous
 62
     4
100
AcDbLine
 10
75.292533787249
 20
81.55504723507231
 30
0.0
 11
75.95429849313135
 21
81.55504723507231
 31
0.0
  0
LINE
  5
259
330
1F
100
AcDbEntity
  8
1
  6
Continuous
 62
     4
100
AcDbLine
 10
75.95429849313135
 20
81.55504723507231
 30
0.0
 11
75.292533787249
 21
81.55504723507231
 31
0.0
  0
LINE
  5
25A
330
1F
100
AcDbEntity
  8
1
  6
Continuous
 62
     4
100
AcDbLine
 10
76.48371025783723
 20
81.8550472350723
 30
0.0
 11
75.95429849313135
 21
81.55504723507231
 31
0.0
  0
LINE
  5
25B
330
1F
100
AcDbEntity
  8
1
  6
Continuous
 62
     4
100
AcDbLine
 10
76.74841614019017
 20
82.4550472350723
 30
0.0
 11
76.48371025783723
 21
81.8550472350723
 31
0.0
  0
LINE
  5
25C
330
1F
100
AcDbEntity
  8
1
  6
Continuous
 62
     4
100
AcDbLine
 10
76.6160631990137
 20
82.9050472350723
 30
0.0
 11
76.74841614019017
 21
82.4550472350723
 31
0.0
  0
LINE
  5
25D
330
1F
100
AcDbEntity
  8
1
  6
Continuous
 62
     4
100
AcDbLine
 10
76.21900437548429
 20
83.5050472350723
 30
0.0
 11
76.6160631990137
 21
82.9050472350723
 31
0.0
  0
LINE
  5
25E
330
1F
100
AcDbEntity
  8
1
  6
Continuous
 62
     4
100
AcDbLine
 10
75.42488672842546
 20
83.6550472350723
 30
0.0
 11
76.21900437548429
 21
83.5050472350723
 31
0.0
  0
LINE
  5
25F
330
1F
100
AcDbEntity
  8
1
  6
Continuous
 62
     4
100
AcDbLine
 10
74.63076908136664
 20
83.5050472350723
 30
0.0
 11
75.42488672842546
 21
83.6550472350723
 31
0.0
  0
LINE
  5
260
330
1F
100
AcDbEntity
  8
1
  6
Continuous
 62
     4
100
AcDbLine
 10
74.10135731666075
 20
82.9050472350723
 30
0.0
 11
74.63076908136664
 21
83.5050472350723
 31
0.0
  0
LINE
  5
261
330
1F
100
AcDbEntity
  8
1
  6
Continuous
 62
     4
100
AcDbLine
 10
72.64547496371958
 20
81.2550472350723
 30
0.0
 11
71.45429849313135
 21
81.2550472350723
 31
0.0
  0
LINE
  5
262
330
1F
100
AcDbEntity
  8
1
  6
Continuous
 62
     4
100
AcDbLine
 10
72.64547496371958
 20
80.3550472350723
 30
0.0
 11
72.64547496371958
 21
81.2550472350723
 31
0.0
  0
LINE
  5
263
330
1F
100
AcDbEntity
  8
1
  6
Continuous
 62
     4
100
AcDbLine
 10
72.51312202254312
 20
79.9050472350723
 30
0.0
 11
72.64547496371958
 21
80.3550472350723
 31
0.0
  0
LINE
  5
264
330
1F
100
AcDbEntity
  8
1
  6
Continuous
 62
     4
100
AcDbLine
 10
72.24841614019017
 20
79.6050472350723
 30
0.0
 11
72.51312202254312
 21
79.9050472350723
 31
0.0
  0
LINE
  5
265
330
1F
100
AcDbEntity
  8
1
  6
Continuous
 62
     4
100
AcDbLine
 10
71.85135731666077
 20
79.30504723507231
 30
0.0
 11
72.24841614019017
 21
79.6050472350723
 31
0.0
  0
LINE
  5
266
330
1F
100
AcDbEntity
  8
1
  6
Continuous
 62
     4
100
AcDbLine
 10
71.1895926107784
 20
79.1550472350723
 30
0.0
 11
71.85135731666077
 21
79.30504723507231
 31
0.0
  0
LINE
  5
267
330
1F
100
AcDbEntity
  8
1
  6
Continuous
 62
     4
100
AcDbLine
 10
70.52782790489606
 20
79.30504723507231
 30
0.0
 11
71.1895926107784
 21
79.1550472350723
 31
0.0
  0
LINE
  5
268
330
1F
100
AcDbEntity
  8
1
  6
Continuous
 62
     4
100
AcDbLine
 10
70.13076908136664
 20
79.9050472350723
 30
0.0
 11
70.52782790489606
 21
79.30504723507231
 31
0.0
  0
LINE
  5
269
330
1F
100
AcDbEntity
  8
1
  6
Continuous
 62
     4
100
AcDbLine
 10
69.99841614019017
 20
80.2050472350723
 30
0.0
 11
70.13076908136664
 21
79.9050472350723
 31
0.0
  0
LINE
  5
26A
330
1F
100
AcDbEntity
  8
1
  6
Continuous
 62
     4
100
AcDbLine
 10
69.8660631990137
 20
80.80504723507231
 30
0.0
 11
69.99841614019017
 21
80.2050472350723
 31
0.0
  0
LINE
  5
26B
330
1F
100
AcDbEntity
  8
1
  6
Continuous
 62
     4
100
AcDbLine
 10
69.73371025783723
 20
81.4050472350723
 30
0.0
 11
69.8660631990137
 21
80.80504723507231
 31
0.0
  0
LINE
  5
26C
330
1F
100
AcDbEntity
  8
1
  6
Continuous
 62
     4
100
AcDbLine
 10
69.8660631990137
 20
82.0050472350723
 30
0.0
 11
69.73371025783723
 21
81.4050472350723
 31
0.0
  0
LINE
  5
26D
330
1F
100
AcDbEntity
  8
1
  6
Continuous
 62
     4
100
AcDbLine
 10
70.13076908136664
 20
82.9050472350723
 30
0.0
 11
69.8660631990137
 21
82.0050472350723
 31
0.0
  0
LINE
  5
26E
330
1F
100
AcDbEntity
  8
1
  6
Continuous
 62
     4
100
AcDbLine
 10
70.26312202254312
 20
83.2050472350723
 30
0.0
 11
70.13076908136664
 21
82.9050472350723
 31
0.0
  0
LINE
  5
26F
330
1F
100
AcDbEntity
  8
1
  6
Continuous
 62
     4
100
AcDbLine
 10
70.66018084607252
 20
83.5050472350723
 30
0.0
 11
70.26312202254312
 21
83.2050472350723
 31
0.0
  0
LINE
  5
270
330
1F
100
AcDbEntity
  8
1
  6
Continuous
 62
     4
100
AcDbLine
 10
71.1895926107784
 20
83.6550472350723
 30
0.0
 11
70.66018084607252
 21
83.5050472350723
 31
0.0
  0
LINE
  5
271
330
1F
100
AcDbEntity
  8
1
  6
Continuous
 62
     4
100
AcDbLine
 10
71.85135731666077
 20
83.5050472350723
 30
0.0
 11
71.1895926107784
 21
83.6550472350723
 31
0.0
  0
LINE
  5
272
330
1F
100
AcDbEntity
  8
1
  6
Continuous
 62
     4
100
AcDbLine
 10
72.1160631990137
 20
83.3550472350723
 30
0.0
 11
71.85135731666077
 21
83.5050472350723
 31
0.0
  0
LINE
  5
273
330
1F
100
AcDbEntity
  8
1
  6
Continuous
 62
     4
100
AcDbLine
 10
72.38076908136664
 20
83.05504723507231
 30
0.0
 11
72.1160631990137
 21
83.3550472350723
 31
0.0
  0
LINE
  5
274
330
1F
100
AcDbEntity
  8
1
  6
Continuous
 62
     4
100
AcDbLine
 10
72.64547496371958
 20
82.6050472350723
 30
0.0
 11
72.38076908136664
 21
83.05504723507231
 31
0.0
  0
LINE
  5
275
330
1F
100
AcDbEntity
  8
2
  6
DOT_CENTER
 62
     1
100
AcDbLine
 10
80.67791664952915
 20
231.828826274442
 30
0.0
 11
205.3779166495291
 21
231.8288262744421
 31
0.0
  0
LINE
  5
276
330
1F
100
AcDbEntity
  8
1
  6
Continuous
 62
     3
100
AcDbLine
 10
184.2623208104233
 20
231.8288262744421
 30
0.0
 11
199.4935124886353
 21
231.8288262744421
 31
0.0
  0
LINE
  5
277
330
1F
100
AcDbEntity
  8
1
  6
DOT_CENTER
 62
     1
100
AcDbLine
 10
117.6779166495292
 20
154.6529293254146
 30
0.0
 11
117.6779166495292
 21
111.64784627461
 31
0.0
  0
LINE
  5
278
330
1F
100
AcDbEntity
  8
2
  6
Continuous
 62
     3
100
AcDbLine
 10
117.4279166495292
 20
142.1529293254133
 30
0.0
 11
117.0795826993688
 21
143.4529293254133
 31
0.0
  0
LINE
  5
279
330
1F
100
AcDbEntity
  8
2
  6
Continuous
 62
     3
100
AcDbLine
 10
117.9279166495292
 20
143.4529293254133
 30
0.0
 11
118.2762505996898
 21
142.1529293254133
 31
0.0
  0
LINE
  5
27A
330
1F
100
AcDbEntity
  8
2
  6
Continuous
 62
     3
100
AcDbLine
 10
121.4279166495296
 20
143.4529293254133
 30
0.0
 11
113.9279166495299
 21
143.4529293254133
 31
0.0
  0
LINE
  5
27B
330
1F
100
AcDbEntity
  8
2
  6
Continuous
 62
     3
100
AcDbLine
 10
121.4279166495296
 20
143.8006560761543
 30
0.0
 11
113.9279166495299
 21
143.8006560761543
 31
0.0
  0
LINE
  5
27C
330
1F
100
AcDbEntity
  8
3
  6
DOTTED
 62
     6
100
AcDbLine
 10
146.6779166495292
 20
128.8029293254134
 30
0.0
 11
146.6779166495299
 21
135.2799203546643
 31
0.0
  0
LINE
  5
27D
330
1F
100
AcDbEntity
  8
3
  6
DOTTED
 62
     6
100
AcDbLine
 10
121.427916649528
 20
141.8029293254133
 30
0.0
 11
121.4279166495292
 21
139.8218046537363
 31
0.0
  0
LINE
  5
27E
330
1F
100
AcDbEntity
  8
3
  6
DOTTED
 62
     6
100
AcDbLine
 10
128.8616013602341
 20
144.3029293254123
 30
0.0
 11
123.9279166495292
 21
144.3029293254133
 31
0.0
  0
LINE
  5
27F
330
1F
100
AcDbEntity
  8
3
  6
DOTTED
 62
     6
100
AcDbLine
 10
113.9279166495292
 20
141.8029293254134
 30
0.0
 11
113.9279166495292
 21
139.8218272257622
 31
0.0
  0
LINE
  5
280
330
1F
100
AcDbEntity
  8
3
  6
DOTTED
 62
     6
100
AcDbLine
 10
106.4942319388242
 20
144.3029293254134
 30
0.0
 11
111.4279166495292
 21
144.3029293254133
 31
0.0
  0
LINE
  5
281
330
1F
100
AcDbEntity
  8
3
  6
DOTTED
 62
     6
100
AcDbLine
 10
88.6779166495299
 20
135.2799203546643
 30
0.0
 11
88.6779166495299
 21
128.8029293254134
 31
0.0
  0
LINE
  5
282
330
1F
100
AcDbEntity
  8
3
  6
DOTTED
 62
     6
100
AcDbLine
 10
91.1779166495292
 20
126.3029293254133
 30
0.0
 11
144.1779166495292
 21
126.3029293254133
 31
0.0
  0
LINE
  5
283
330
1F
100
AcDbEntity
  8
3
  6
Continuous
 62
     3
100
AcDbLine
 10
111.6779166495292
 20
130.2529293254133
 30
0.0
 11
111.6779166495295
 21
124.5529293254133
 31
0.0
  0
LINE
  5
284
330
1F
100
AcDbEntity
  8
3
  6
Continuous
 62
     3
100
AcDbLine
 10
123.6779166495299
 20
130.2529293254133
 30
0.0
 11
123.6779166495299
 21
124.5529293254133
 31
0.0
  0
LINE
  5
285
330
1F
100
AcDbEntity
  8
3
  6
Continuous
 62
     3
100
AcDbLine
 10
145.8937764250382
 20
141.1299203546643
 30
0.0
 11
145.8937764250382
 21
134.6529293254133
 31
0.0
  0
LINE
  5
286
330
1F
100
AcDbEntity
  8
3
  6
Continuous
 62
     3
100
AcDbLine
 10
89.4620568740202
 20
141.1299203546643
 30
0.0
 11
89.46205687402092
 21
134.6529293254133
 31
0.0
  0
LINE
  5
287
330
1F
100
AcDbEntity
  8
3
  6
Continuous
 62
     3
100
AcDbLine
 10
141.6198702696161
 20
141.1299203546643
 30
0.0
 11
141.6198702696161
 21
134.6529293254133
 31
0.0
  0
LINE
  5
288
330
1F
100
AcDbEntity
  8
3
  6
Continuous
 62
     3
100
AcDbLine
 10
133.6392145979858
 20
141.1299203546643
 30
0.0
 11
133.6392145979851
 21
134.6529293254133
 31
0.0
  0
LINE
  5
289
330
1F
100
AcDbEntity
  8
3
  6
Continuous
 62
     3
100
AcDbLine
 10
123.3210923932541
 20
141.1299203546643
 30
0.0
 11
123.3210923932548
 21
134.6529293254133
 31
0.0
  0
LINE
  5
28A
330
1F
100
AcDbEntity
  8
3
  6
Continuous
 62
     3
100
AcDbLine
 10
112.0347409058031
 20
141.1299203546643
 30
0.0
 11
112.0347409058031
 21
134.6529293254133
 31
0.0
  0
LINE
  5
28B
330
1F
100
AcDbEntity
  8
3
  6
Continuous
 62
     3
100
AcDbLine
 10
101.716618701074
 20
141.1299203546643
 30
0.0
 11
101.716618701074
 21
134.6529293254133
 31
0.0
  0
LINE
  5
28C
330
1F
100
AcDbEntity
  8
3
  6
Continuous
 62
     3
100
AcDbLine
 10
93.735963029442
 20
141.1299203546643
 30
0.0
 11
93.735963029442
 21
134.6529293254133
 31
0.0
  0
LINE
  5
28D
330
1F
100
AcDbEntity
  8
3
  6
Continuous
 62
     3
100
AcDbLine
 10
121.4279166495292
 20
142.1529293254133
 30
0.0
 11
113.9279166495292
 21
142.1529293254133
 31
0.0
  0
LINE
  5
28E
330
1F
100
AcDbEntity
  8
3
  6
Continuous
 62
     3
100
AcDbLine
 10
146.6779166495292
 20
134.6529293254133
 30
0.0
 11
146.6779166495292
 21
141.1299203546643
 31
0.0
  0
LINE
  5
28F
330
1F
100
AcDbEntity
  8
3
  6
Continuous
 62
     3
100
AcDbLine
 10
88.6779166495292
 20
141.1299203546643
 30
0.0
 11
88.6779166495299
 21
134.6529293254133
 31
0.0
  0
LINE
  5
290
330
1F
100
AcDbEntity
  8
3
  6
Continuous
 62
     3
100
AcDbLine
 10
123.6779166495299
 20
130.2529293254133
 30
0.0
 11
111.6779166495292
 21
130.2529293254133
 31
0.0
  0
LINE
  5
291
330
1F
100
AcDbEntity
  8
3
  6
Continuous
 62
     3
100
AcDbLine
 10
91.1779166495299
 20
132.1529293254133
 30
0.0
 11
144.1779166495292
 21
132.1529293254133
 31
0.0
  0
LINE
  5
292
330
1F
100
AcDbEntity
  8
3
  6
Continuous
 62
     3
100
AcDbLine
 10
113.077916649529
 20
131.6529293254133
 30
0.0
 11
122.2779166495298
 21
131.6529293254133
 31
0.0
  0
LINE
  5
293
330
1F
100
AcDbEntity
  8
3
  6
Continuous
 62
     3
100
AcDbLine
 10
114.1779166495299
 20
132.1529293254133
 30
0.0
 11
114.1779166495299
 21
131.6529293254133
 31
0.0
  0
LINE
  5
294
330
1F
100
AcDbEntity
  8
3
  6
Continuous
 62
     3
100
AcDbLine
 10
121.1779166495299
 20
132.1529293254133
 30
0.0
 11
121.1779166495292
 21
131.6529293254133
 31
0.0
  0
LINE
  5
295
330
1F
100
AcDbEntity
  8
3
  6
Continuous
 62
     3
100
AcDbLine
 10
113.077916649529
 20
131.6529293254133
 30
0.0
 11
111.6779166495292
 21
130.2529293254133
 31
0.0
  0
LINE
  5
296
330
1F
100
AcDbEntity
  8
3
  6
Continuous
 62
     3
100
AcDbLine
 10
122.2779166495298
 20
131.6529293254133
 30
0.0
 11
123.6779166495299
 21
130.2529293254133
 31
0.0
  0
LINE
  5
29B
330
1F
100
AcDbEntity
  8
1
  6
Continuous
 62
     3
100
AcDbLine
 10
86.67791664952915
 20
218.7288262744421
 30
0.0
 11
86.67791664952915
 21
244.9288262744421
 31
0.0
  0
LINE
  5
29C
330
1F
100
AcDbEntity
  8
3
  6
Continuous
 62
     3
100
AcDbLine
 10
200.8779166495291
 20
41.0529293254133
 30
0.0
 11
200.8779166495291
 21
72.0529293254133
 31
0.0
  0
LINE
  5
29D
330
1F
100
AcDbEntity
  8
3
  6
Continuous
 62
     3
100
AcDbLine
 10
199.4935124886351
 20
74.4507876702917
 30
0.0
 11
200.8779166495291
 21
72.0529293254133
 31
0.0
  0
LINE
  5
29E
330
1F
100
AcDbEntity
  8
3
  6
Continuous
 62
     3
100
AcDbLine
 10
184.2623208104232
 20
74.4507876702917
 30
0.0
 11
199.4935124886351
 21
74.4507876702917
 31
0.0
  0
LINE
  5
29F
330
1F
100
AcDbEntity
  8
3
  6
Continuous
 62
     3
100
AcDbLine
 10
184.2623208104232
 20
38.65507098053492
 30
0.0
 11
199.4935124886351
 21
38.65507098053492
 31
0.0
  0
LINE
  5
2A0
330
1F
100
AcDbEntity
  8
3
  6
Continuous
 62
     3
100
AcDbLine
 10
199.4935124886351
 20
38.65507098053492
 30
0.0
 11
200.8779166495291
 21
41.0529293254133
 31
0.0
  0
LINE
  5
2A1
330
1F
100
AcDbEntity
  8
3
  6
Continuous
 62
     3
100
AcDbLine
 10
182.8779166495291
 20
41.0529293254133
 30
0.0
 11
184.2623208104232
 21
38.65507098053492
 31
0.0
  0
LINE
  5
2A2
330
1F
100
AcDbEntity
  8
3
  6
Continuous
 62
     3
100
AcDbLine
 10
182.8779166495291
 20
41.0529293254133
 30
0.0
 11
182.8779166495291
 21
72.0529293254133
 31
0.0
  0
LINE
  5
2A3
330
1F
100
AcDbEntity
  8
3
  6
Continuous
 62
     3
100
AcDbLine
 10
182.8779166495291
 20
72.0529293254133
 30
0.0
 11
184.2623208104232
 21
74.4507876702917
 31
0.0
  0
LINE
  5
2A4
330
1F
100
AcDbEntity
  8
3
  6
Continuous
 62
     3
100
AcDbLine
 10
162.2493452209578
 20
65.0529293254133
 30
0.0
 11
182.7279166495291
 21
65.0529293254133
 31
0.0
  0
LINE
  5
2A5
330
1F
100
AcDbEntity
  8
3
  6
Continuous
 62
     3
100
AcDbLine
 10
162.2493452209578
 20
48.0529293254133
 30
0.0
 11
182.7279166495291
 21
48.0529293254133
 31
0.0
  0
LINE
  5
2A6
330
1F
100
AcDbEntity
  8
3
  6
Continuous
 62
     3
100
AcDbLine
 10
160.7493452209578
 20
41.0529293254133
 30
0.0
 11
160.7493452209578
 21
72.0529293254133
 31
0.0
  0
LINE
  5
2A7
330
1F
100
AcDbEntity
  8
3
  6
Continuous
 62
     3
100
AcDbLine
 10
160.7493452209578
 20
72.0529293254133
 30
0.0
 11
159.3649410600638
 21
74.4507876702917
 31
0.0
  0
LINE
  5
2A8
330
1F
100
AcDbEntity
  8
3
  6
Continuous
 62
     3
100
AcDbLine
 10
159.3649410600638
 20
74.4507876702917
 30
0.0
 11
144.133749381852
 21
74.4507876702917
 31
0.0
  0
LINE
  5
2A9
330
1F
100
AcDbEntity
  8
3
  6
Continuous
 62
     3
100
AcDbLine
 10
144.133749381852
 20
74.4507876702917
 30
0.0
 11
142.7493452209578
 21
72.0529293254133
 31
0.0
  0
LINE
  5
2AA
330
1F
100
AcDbEntity
  8
3
  6
Continuous
 62
     3
100
AcDbLine
 10
142.7493452209578
 20
41.0529293254133
 30
0.0
 11
142.7493452209578
 21
72.0529293254133
 31
0.0
  0
LINE
  5
2AB
330
1F
100
AcDbEntity
  8
3
  6
Continuous
 62
     3
100
AcDbLine
 10
144.133749381852
 20
38.65507098053492
 30
0.0
 11
142.7493452209578
 21
41.0529293254133
 31
0.0
  0
LINE
  5
2AC
330
1F
100
AcDbEntity
  8
3
  6
Continuous
 62
     3
100
AcDbLine
 10
159.3649410600638
 20
38.65507098053492
 30
0.0
 11
144.133749381852
 21
38.65507098053492
 31
0.0
  0
LINE
  5
2AD
330
1F
100
AcDbEntity
  8
3
  6
Continuous
 62
     3
100
AcDbLine
 10
160.7493452209578
 20
41.0529293254133
 30
0.0
 11
159.3649410600638
 21
38.65507098053492
 31
0.0
  0
LINE
  5
2AE
330
1F
100
AcDbEntity
  8
3
  6
Continuous
 62
     3
100
AcDbLine
 10
162.2493452209578
 20
47.85292932541337
 30
0.0
 11
160.7493452209578
 21
46.4279293254133
 31
0.0
  0
LINE
  5
2AF
330
1F
100
AcDbEntity
  8
3
  6
Continuous
 62
     3
100
AcDbLine
 10
162.2493452209578
 20
65.0529293254133
 30
0.0
 11
162.2493452209578
 21
65.2529293254134
 31
0.0
  0
LINE
  5
2B0
330
1F
100
AcDbEntity
  8
3
  6
Continuous
 62
     3
100
AcDbLine
 10
160.7493452209578
 20
66.6779293254133
 30
0.0
 11
162.2493452209578
 21
65.2529293254134
 31
0.0
  0
LINE
  5
2B1
330
1F
100
AcDbEntity
  8
3
  6
DOTTED
 62
     4
100
AcDbLine
 10
148.6779166495292
 20
69.6529293254132
 30
0.0
 11
150.1779166495292
 21
68.1529293254132
 31
0.0
  0
LINE
  5
2B2
330
1F
100
AcDbEntity
  8
3
  6
DOTTED
 62
     4
100
AcDbLine
 10
148.6779166495292
 20
43.45292932541328
 30
0.0
 11
150.1779166495292
 21
44.95292932541328
 31
0.0
  0
LINE
  5
2B3
330
1F
100
AcDbEntity
  8
3
  6
DOTTED
 62
     4
100
AcDbLine
 10
150.1779166495292
 20
68.1529293254132
 30
0.0
 11
150.1779166495292
 21
44.95292932541328
 31
0.0
  0
LINE
  5
2B4
330
1F
100
AcDbEntity
  8
3
  6
Continuous
 62
     3
100
AcDbLine
 10
159.3649410600639
 20
47.60400015297411
 30
0.0
 11
144.1337493818517
 21
47.60400015297411
 31
0.0
  0
LINE
  5
2B5
330
1F
100
AcDbEntity
  8
3
  6
Continuous
 62
     3
100
AcDbLine
 10
159.3649410600639
 20
65.5018584978525
 30
0.0
 11
144.1337493818517
 21
65.5018584978525
 31
0.0
  0
LINE
  5
2B6
330
1F
100
AcDbEntity
  8
3
  6
Continuous
 62
     3
100
AcDbLine
 10
184.2623208104232
 20
65.5018584978525
 30
0.0
 11
199.4935124886351
 21
65.5018584978525
 31
0.0
  0
LINE
  5
2B7
330
1F
100
AcDbEntity
  8
3
  6
Continuous
 62
     3
100
AcDbLine
 10
184.2623208104232
 20
47.60400015297422
 30
0.0
 11
199.4935124886351
 21
47.60400015297411
 31
0.0
  0
LINE
  5
2B8
330
1F
100
AcDbEntity
  8
3
  6
Continuous
 62
     3
100
AcDbLine
 10
162.2493452209578
 20
65.0529293254133
 30
0.0
 11
162.2493452209578
 21
47.85292932541337
 31
0.0
  0
LINE
  5
2B9
330
1F
100
AcDbEntity
  8
3
  6
DOTTED
 62
     4
100
AcDbLine
 10
142.6779166495292
 20
69.6529293254132
 30
0.0
 11
148.6779166495292
 21
69.6529293254132
 31
0.0
  0
LINE
  5
2BA
330
1F
100
AcDbEntity
  8
3
  6
DOTTED
 62
     4
100
AcDbLine
 10
142.6779166495292
 20
43.45292932541328
 30
0.0
 11
148.6779166495292
 21
43.45292932541328
 31
0.0
  0
LINE
  5
2BB
330
1F
100
AcDbEntity
  8
3
  6
DOTTED
 62
     4
100
AcDbLine
 10
183.3779166495291
 20
65.70292932541328
 30
0.0
 11
186.3779166495291
 21
65.70292932541328
 31
0.0
  0
LINE
  5
2BC
330
1F
100
AcDbEntity
  8
3
  6
DOTTED
 62
     4
100
AcDbLine
 10
186.3779166495291
 20
65.70292932541328
 30
0.0
 11
186.3779166495291
 21
68.0529293254133
 31
0.0
  0
LINE
  5
2BD
330
1F
100
AcDbEntity
  8
3
  6
DOTTED
 62
     4
100
AcDbLine
 10
186.3779166495291
 20
68.0529293254133
 30
0.0
 11
189.3779166495291
 21
68.0529293254133
 31
0.0
  0
LINE
  5
2BE
330
1F
100
AcDbEntity
  8
3
  6
DOTTED
 62
     4
100
AcDbLine
 10
189.3779166495291
 20
45.0529293254133
 30
0.0
 11
189.3779166495291
 21
68.0529293254133
 31
0.0
  0
LINE
  5
2BF
330
1F
100
AcDbEntity
  8
3
  6
DOTTED
 62
     4
100
AcDbLine
 10
186.3779166495291
 20
45.0529293254133
 30
0.0
 11
189.3779166495291
 21
45.0529293254133
 31
0.0
  0
LINE
  5
2C0
330
1F
100
AcDbEntity
  8
3
  6
DOTTED
 62
     4
100
AcDbLine
 10
186.3779166495291
 20
45.0529293254133
 30
0.0
 11
186.3779166495291
 21
47.40292932541333
 31
0.0
  0
LINE
  5
2C1
330
1F
100
AcDbEntity
  8
3
  6
DOTTED
 62
     4
100
AcDbLine
 10
183.3779166495291
 20
47.40292932541333
 30
0.0
 11
186.3779166495291
 21
47.40292932541333
 31
0.0
  0
LINE
  5
2C2
330
1F
100
AcDbEntity
  8
3
  6
Continuous
 62
     3
100
AcDbLine
 10
182.7279166495291
 20
48.0529293254133
 30
0.0
 11
182.8779166495291
 21
47.90292932541333
 31
0.0
  0
LINE
  5
2C3
330
1F
100
AcDbEntity
  8
3
  6
DOTTED
 62
     4
100
AcDbLine
 10
182.8779166495291
 20
47.90292932541333
 30
0.0
 11
183.3779166495291
 21
47.40292932541333
 31
0.0
  0
LINE
  5
2C4
330
1F
100
AcDbEntity
  8
3
  6
Continuous
 62
     3
100
AcDbLine
 10
182.7279166495291
 20
65.0529293254133
 30
0.0
 11
182.8779166495291
 21
65.20292932541328
 31
0.0
  0
LINE
  5
2C5
330
1F
100
AcDbEntity
  8
3
  6
DOTTED
 62
     4
100
AcDbLine
 10
182.8779166495291
 20
65.20292932541328
 30
0.0
 11
183.3779166495291
 21
65.70292932541328
 31
0.0
  0
LINE
  5
2C6
330
1F
100
AcDbEntity
  8
3
  6
DOT_CENTER
 62
     1
100
AcDbLine
 10
80.67791664952915
 20
56.5529293254133
 30
0.0
 11
205.3779166495291
 21
56.5529293254133
 31
0.0
  0
LINE
  5
2C7
330
1F
100
AcDbEntity
  8
3
  6
Continuous
 62
     3
100
AcDbLine
 10
132.6779166495292
 20
70.3029293254133
 30
0.0
 11
132.6779166495292
 21
78.5529293254133
 31
0.0
  0
LINE
  5
2C8
330
1F
100
AcDbEntity
  8
3
  6
Continuous
 62
     3
100
AcDbLine
 10
102.6779166495292
 20
70.3029293254133
 30
0.0
 11
102.6779166495292
 21
78.5529293254133
 31
0.0
  0
LINE
  5
2C9
330
1F
100
AcDbEntity
  8
3
  6
Continuous
 62
     3
100
AcDbLine
 10
97.35634377427539
 20
68.3029293254133
 30
0.0
 11
100.6779166495292
 21
68.3029293254133
 31
0.0
  0
LINE
  5
2CA
330
1F
100
AcDbEntity
  8
3
  6
Continuous
 62
     3
100
AcDbLine
 10
134.6779166495292
 20
68.3029293254133
 30
0.0
 11
137.9994895247829
 21
68.3029293254133
 31
0.0
  0
LINE
  5
2CB
330
1F
100
AcDbEntity
  8
3
  6
Continuous
 62
     3
100
AcDbLine
 10
135.7731508287268
 20
44.8029293254133
 30
0.0
 11
137.9994895247829
 21
44.8029293254133
 31
0.0
  0
LINE
  5
2CC
330
1F
100
AcDbEntity
  8
3
  6
Continuous
 62
     3
100
AcDbLine
 10
97.35634377427539
 20
44.8029293254133
 30
0.0
 11
99.58268247033152
 21
44.8029293254133
 31
0.0
  0
LINE
  5
2CD
330
1F
100
AcDbEntity
  8
3
  6
Continuous
 62
     3
100
AcDbLine
 10
140.1779166495292
 20
69.6529293254132
 30
0.0
 11
142.6779166495292
 21
69.6529293254132
 31
0.0
  0
LINE
  5
2CE
330
1F
100
AcDbEntity
  8
3
  6
Continuous
 62
     3
100
AcDbLine
 10
140.177916649529
 20
43.45292932541328
 30
0.0
 11
142.6779166495292
 21
43.45292932541328
 31
0.0
  0
LINE
  5
2CF
330
1F
100
AcDbEntity
  8
3
  6
Continuous
 62
     3
100
AcDbLine
 10
139.0666482524331
 20
68.6114293254133
 30
0.0
 11
142.7493452209578
 21
68.6114293254133
 31
0.0
  0
LINE
  5
2D0
330
1F
100
AcDbEntity
  8
3
  6
Continuous
 62
     3
100
AcDbLine
 10
139.0666482524331
 20
44.49442932541332
 30
0.0
 11
142.7493452209578
 21
44.49442932541332
 31
0.0
  0
LINE
  5
2D1
330
1F
100
AcDbEntity
  8
3
  6
Continuous
 62
     3
100
AcDbLine
 10
140.1779166495292
 20
69.6529293254132
 30
0.0
 11
139.413703087156
 21
68.8887157630402
 31
0.0
  0
LINE
  5
2D2
330
1F
100
AcDbEntity
  8
3
  6
Continuous
 62
     3
100
AcDbLine
 10
140.177916649529
 20
43.45292932541328
 30
0.0
 11
139.413703087156
 21
44.21714288778641
 31
0.0
  0
LINE
  5
2D3
330
1F
100
AcDbEntity
  8
3
  6
Continuous
 62
     3
100
AcDbLine
 10
102.6779166495292
 20
78.5529293254133
 30
0.0
 11
132.6779166495292
 21
78.5529293254133
 31
0.0
  0
LINE
  5
2D4
330
1F
100
AcDbEntity
  8
3
  6
Continuous
 62
     3
100
AcDbLine
 10
95.17791664952927
 20
43.45292932541328
 30
0.0
 11
86.67791664952915
 21
43.45292932541328
 31
0.0
  0
LINE
  5
2D5
330
1F
100
AcDbEntity
  8
3
  6
Continuous
 62
     3
100
AcDbLine
 10
96.28918504662511
 20
44.49442932541332
 30
0.0
 11
85.63641664952922
 21
44.49442932541332
 31
0.0
  0
LINE
  5
2D6
330
1F
100
AcDbEntity
  8
3
  6
Continuous
 62
     3
100
AcDbLine
 10
86.67791664952915
 20
43.45292932541328
 30
0.0
 11
85.17791664952915
 21
44.95292932541328
 31
0.0
  0
LINE
  5
2D7
330
1F
100
AcDbEntity
  8
3
  6
Continuous
 62
     3
100
AcDbLine
 10
85.17791664952915
 20
68.1529293254132
 30
0.0
 11
85.17791664952915
 21
44.95292932541328
 31
0.0
  0
LINE
  5
2D8
330
1F
100
AcDbEntity
  8
3
  6
Continuous
 62
     3
100
AcDbLine
 10
95.17791664952927
 20
43.45292932541328
 30
0.0
 11
95.94213021190228
 21
44.21714288778641
 31
0.0
  0
LINE
  5
2D9
330
1F
100
AcDbEntity
  8
3
  6
Continuous
 62
     3
100
AcDbLine
 10
95.17791664952915
 20
69.6529293254132
 30
0.0
 11
86.67791664952915
 21
69.6529293254132
 31
0.0
  0
LINE
  5
2DA
330
1F
100
AcDbEntity
  8
3
  6
Continuous
 62
     3
100
AcDbLine
 10
96.28918504662511
 20
68.6114293254133
 30
0.0
 11
85.63641664952922
 21
68.6114293254133
 31
0.0
  0
LINE
  5
2DB
330
1F
100
AcDbEntity
  8
3
  6
Continuous
 62
     3
100
AcDbLine
 10
86.67791664952915
 20
69.6529293254132
 30
0.0
 11
85.17791664952915
 21
68.1529293254132
 31
0.0
  0
LINE
  5
2DC
330
1F
100
AcDbEntity
  8
3
  6
Continuous
 62
     3
100
AcDbLine
 10
95.17791664952915
 20
69.6529293254132
 30
0.0
 11
95.94213021190228
 21
68.8887157630402
 31
0.0
  0
LINE
  5
2DD
330
1F
100
AcDbEntity
  8
3
  6
Continuous
 62
     3
100
AcDbLine
 10
140.1779166495292
 20
69.6529293254132
 30
0.0
 11
140.177916649529
 21
43.45292932541328
 31
0.0
  0
LINE
  5
2DE
330
1F
100
AcDbEntity
  8
3
  6
Continuous
 62
     3
100
AcDbLine
 10
95.17791664952927
 20
43.45292932541328
 30
0.0
 11
95.17791664952915
 21
69.6529293254132
 31
0.0
  0
LINE
  5
2DF
330
1F
100
AcDbEntity
  8
3
  6
Continuous
 62
     3
100
AcDbLine
 10
86.67791664952915
 20
69.6529293254132
 30
0.0
 11
86.67791664952915
 21
43.45292932541328
 31
0.0
  0
LINE
  5
2E0
330
1F
100
AcDbEntity
  8
3
  6
DOT_CENTER
 62
     1
100
AcDbLine
 10
117.6779166495292
 20
37.05292932541331
 30
0.0
 11
117.6779166495292
 21
129.0529293254133
 31
0.0
  0
LINE
  5
2E1
330
1F
100
AcDbEntity
  8
3
  6
Continuous
 62
     3
100
AcDbLine
 10
102.6779166495292
 20
78.5529293254133
 30
0.0
 11
132.6779166495292
 21
78.5529293254133
 31
0.0
  0
LINE
  5
2E2
330
1F
100
AcDbEntity
  8
3
  6
Continuous
 62
     3
100
AcDbLine
 10
130.9569728408891
 20
95.5154277833433
 30
0.0
 11
127.9279166495292
 21
97.26425419082331
 31
0.0
  0
LINE
  5
2E3
330
1F
100
AcDbEntity
  8
3
  6
Continuous
 62
     3
100
AcDbLine
 10
104.3988604581691
 20
95.5154277833433
 30
0.0
 11
107.4279166495292
 21
97.26425419082331
 31
0.0
  0
LINE
  5
2E4
330
1F
100
AcDbEntity
  8
3
  6
Continuous
 62
     3
100
AcDbLine
 10
130.9569728408891
 20
95.5154277833433
 30
0.0
 11
130.9569728408891
 21
84.0446275564533
 31
0.0
  0
LINE
  5
2E5
330
1F
100
AcDbEntity
  8
3
  6
Continuous
 62
     3
100
AcDbLine
 10
101.6779166495292
 20
82.5129136269433
 30
0.0
 11
101.6779166495292
 21
81.1986806364733
 31
0.0
  0
LINE
  5
2E6
330
1F
100
AcDbEntity
  8
3
  6
Continuous
 62
     3
100
AcDbLine
 10
133.6779166495292
 20
82.5129136269433
 30
0.0
 11
133.6779166495292
 21
81.1986806364732
 31
0.0
  0
LINE
  5
2E7
330
1F
100
AcDbEntity
  8
3
  6
Continuous
 62
     3
100
AcDbLine
 10
104.3988604581691
 20
95.5154277833433
 30
0.0
 11
104.3988604581691
 21
84.0446275564533
 31
0.0
  0
LINE
  5
2E8
330
1F
100
AcDbEntity
  8
3
  6
Continuous
 62
     3
100
AcDbLine
 10
130.9569728408891
 20
84.0446275564533
 30
0.0
 11
132.9526377774291
 21
83.4744375745833
 31
0.0
  0
LINE
  5
2E9
330
1F
100
AcDbEntity
  8
3
  6
Continuous
 62
     3
100
AcDbLine
 10
104.3988604581691
 20
84.0446275564533
 30
0.0
 11
102.4031955216291
 21
83.4744375745833
 31
0.0
  0
LINE
  5
2EA
330
1F
100
AcDbEntity
  8
3
  6
Continuous
 62
     3
100
AcDbLine
 10
107.9279166495292
 20
97.6302795946033
 30
0.0
 11
127.4279166495292
 21
97.6302795946033
 31
0.0
  0
LINE
  5
2EB
330
1F
100
AcDbEntity
  8
3
  6
Continuous
 62
     3
100
AcDbLine
 10
124.3174447452092
 20
95.51542778334341
 30
0.0
 11
124.3174447452092
 21
84.0446275564533
 31
0.0
  0
LINE
  5
2EC
330
1F
100
AcDbEntity
  8
3
  6
Continuous
 62
     3
100
AcDbLine
 10
111.0383885538491
 20
95.51542778334421
 30
0.0
 11
111.0383885538491
 21
84.0446275564533
 31
0.0
  0
LINE
  5
2ED
330
1F
100
AcDbEntity
  8
3
  6
Continuous
 62
     3
100
AcDbLine
 10
127.4279166495292
 20
115.6869039216293
 30
0.0
 11
127.4279166495292
 21
98.1302795946033
 31
0.0
  0
LINE
  5
2EE
330
1F
100
AcDbEntity
  8
3
  6
Continuous
 62
     3
100
AcDbLine
 10
108.4279166495292
 20
124.5529293254133
 30
0.0
 11
126.9279166495292
 21
124.5529293254133
 31
0.0
  0
LINE
  5
2EF
330
1F
100
AcDbEntity
  8
3
  6
Continuous
 62
     3
100
AcDbLine
 10
127.9279166495292
 20
116.5529293254133
 30
0.0
 11
127.9279166495292
 21
123.5529293254133
 31
0.0
  0
LINE
  5
2F0
330
1F
100
AcDbEntity
  8
3
  6
Continuous
 62
     3
100
AcDbLine
 10
107.4279166495292
 20
116.5529293254133
 30
0.0
 11
127.9279166495292
 21
116.5529293254133
 31
0.0
  0
LINE
  5
2F1
330
1F
100
AcDbEntity
  8
3
  6
Continuous
 62
     3
100
AcDbLine
 10
126.9934166495292
 20
116.5529293254133
 30
0.0
 11
126.9934166495292
 21
124.4874293254133
 31
0.0
  0
LINE
  5
2F2
330
1F
100
AcDbEntity
  8
3
  6
Continuous
 62
     3
100
AcDbLine
 10
127.9279166495292
 20
123.5529293254133
 30
0.0
 11
126.9279166495292
 21
124.5529293254133
 31
0.0
  0
LINE
  5
2F3
330
1F
100
AcDbEntity
  8
3
  6
Continuous
 62
     3
100
AcDbLine
 10
107.9279166495292
 20
115.6869039216293
 30
0.0
 11
107.9279166495292
 21
98.1302795946033
 31
0.0
  0
LINE
  5
2F4
330
1F
100
AcDbEntity
  8
3
  6
Continuous
 62
     3
100
AcDbLine
 10
107.4279166495292
 20
116.5529293254133
 30
0.0
 11
107.4279166495292
 21
123.5529293254133
 31
0.0
  0
LINE
  5
2F5
330
1F
100
AcDbEntity
  8
3
  6
Continuous
 62
     3
100
AcDbLine
 10
108.3624166495291
 20
116.5529293254133
 30
0.0
 11
108.3624166495291
 21
124.4874293254133
 31
0.0
  0
LINE
  5
2F6
330
1F
100
AcDbEntity
  8
3
  6
Continuous
 62
     3
100
AcDbLine
 10
107.4279166495292
 20
116.5529293254133
 30
0.0
 11
107.9279166495292
 21
115.6869039216293
 31
0.0
  0
LINE
  5
2F7
330
1F
100
AcDbEntity
  8
3
  6
Continuous
 62
     3
100
AcDbLine
 10
107.4279166495292
 20
123.5529293254133
 30
0.0
 11
108.4279166495292
 21
124.5529293254133
 31
0.0
  0
LINE
  5
2F8
330
1F
100
AcDbEntity
  8
3
  6
Continuous
 62
     3
100
AcDbLine
 10
127.9279166495292
 20
123.5529293254133
 30
0.0
 11
107.4279166495292
 21
123.5529293254133
 31
0.0
  0
LINE
  5
2F9
330
1F
100
AcDbEntity
  8
3
  6
DOTTED
 62
     6
100
AcDbLine
 10
171.8458236262733
 20
65.70292932541328
 30
0.0
 11
174.8458236262733
 21
65.70292932541328
 31
0.0
  0
LINE
  5
2FA
330
1F
100
AcDbEntity
  8
3
  6
DOTTED
 62
     6
100
AcDbLine
 10
174.8458236262733
 20
65.70292932541328
 30
0.0
 11
174.8458236262733
 21
68.0529293254133
 31
0.0
  0
LINE
  5
2FB
330
1F
100
AcDbEntity
  8
3
  6
DOTTED
 62
     6
100
AcDbLine
 10
174.8458236262733
 20
68.0529293254133
 30
0.0
 11
177.8458236262733
 21
68.0529293254133
 31
0.0
  0
LINE
  5
2FC
330
1F
100
AcDbEntity
  8
3
  6
DOTTED
 62
     6
100
AcDbLine
 10
177.8458236262733
 20
45.0529293254133
 30
0.0
 11
177.8458236262733
 21
68.0529293254133
 31
0.0
  0
LINE
  5
2FD
330
1F
100
AcDbEntity
  8
3
  6
DOTTED
 62
     6
100
AcDbLine
 10
174.8458236262733
 20
45.0529293254133
 30
0.0
 11
177.8458236262733
 21
45.0529293254133
 31
0.0
  0
LINE
  5
2FE
330
1F
100
AcDbEntity
  8
3
  6
DOTTED
 62
     6
100
AcDbLine
 10
174.8458236262733
 20
45.0529293254133
 30
0.0
 11
174.8458236262733
 21
47.40292932541333
 31
0.0
  0
LINE
  5
2FF
330
1F
100
AcDbEntity
  8
3
  6
DOTTED
 62
     6
100
AcDbLine
 10
171.8458236262733
 20
47.40292932541333
 30
0.0
 11
174.8458236262733
 21
47.40292932541333
 31
0.0
  0
LINE
  5
300
330
1F
100
AcDbEntity
  8
3
  6
DOTTED
 62
     6
100
AcDbLine
 10
171.3458236262733
 20
47.90292932541333
 30
0.0
 11
171.8458236262733
 21
47.40292932541333
 31
0.0
  0
LINE
  5
301
330
1F
100
AcDbEntity
  8
3
  6
DOTTED
 62
     6
100
AcDbLine
 10
171.3458236262733
 20
65.20292932541328
 30
0.0
 11
171.8458236262733
 21
65.70292932541328
 31
0.0
  0
LINE
  5
302
330
1F
100
AcDbEntity
  8
3
  6
Continuous
 62
     3
100
AcDbLine
 10
127.4279166495292
 20
115.6869039216293
 30
0.0
 11
127.9279166495292
 21
116.5529293254133
 31
0.0
  0
LINE
  5
303
330
1F
100
AcDbEntity
  8
3
  6
Continuous
 62
     3
100
AcDbLine
 10
244.9327381022896
 20
116.5529293254133
 30
0.0
 11
265.4327381022896
 21
116.5529293254133
 31
0.0
  0
LINE
  5
304
330
1F
100
AcDbEntity
  8
3
  6
Continuous
 62
     3
100
AcDbLine
 10
245.8672381022896
 20
116.5529293254133
 30
0.0
 11
245.8672381022896
 21
124.4874293254133
 31
0.0
  0
LINE
  5
305
330
1F
100
AcDbEntity
  8
3
  6
Continuous
 62
     3
100
AcDbLine
 10
264.4982381022896
 20
116.5529293254133
 30
0.0
 11
264.4982381022896
 21
124.4874293254133
 31
0.0
  0
LINE
  5
306
330
1F
100
AcDbEntity
  8
3
  6
Continuous
 62
     3
100
AcDbLine
 10
265.4327381022896
 20
123.5529293254133
 30
0.0
 11
244.9327381022896
 21
123.5529293254133
 31
0.0
  0
LINE
  5
307
330
1F
100
AcDbEntity
  8
2
  6
DOT_CENTER
 62
     1
100
AcDbLine
 10
255.1827381022896
 20
33.45891855782823
 30
0.0
 11
255.1827381022896
 21
154.6529293254146
 31
0.0
  0
LINE
  5
308
330
1F
100
AcDbEntity
  8
2
  6
Continuous
 62
     3
100
AcDbLine
 10
270.1827381022896
 20
65.79053363244726
 30
0.0
 11
270.1827381022896
 21
78.5529293254133
 31
0.0
  0
LINE
  5
309
330
1F
100
AcDbEntity
  8
2
  6
Continuous
 62
     3
100
AcDbLine
 10
240.1827381022896
 20
65.79053363244726
 30
0.0
 11
240.1827381022896
 21
78.5529293254133
 31
0.0
  0
LINE
  5
30A
330
1F
100
AcDbEntity
  8
2
  6
Continuous
 62
     3
100
AcDbLine
 10
240.1827381022896
 20
78.5529293254133
 30
0.0
 11
270.1827381022896
 21
78.5529293254133
 31
0.0
  0
LINE
  5
30B
330
1F
100
AcDbEntity
  8
2
  6
Continuous
 62
     3
100
AcDbLine
 10
249.5800601711566
 20
58.0529293254133
 30
0.0
 11
260.7854160334226
 21
58.0529293254133
 31
0.0
  0
LINE
  5
30C
330
1F
100
AcDbEntity
  8
2
  6
DOT_CENTER
 62
     1
100
AcDbLine
 10
235.1827381022896
 20
56.5529293254133
 30
0.0
 11
275.1827381022896
 21
56.5529293254133
 31
0.0
  0
LINE
  5
30D
330
1F
100
AcDbEntity
  8
2
  6
Continuous
 62
     3
100
AcDbLine
 10
270.6827381022896
 20
65.5018584978525
 30
0.0
 11
255.1827381022896
 21
74.4507876702913
 31
0.0
  0
LINE
  5
30E
330
1F
100
AcDbEntity
  8
2
  6
Continuous
 62
     3
100
AcDbLine
 10
270.6827381022896
 20
47.60400015297411
 30
0.0
 11
270.6827381022896
 21
65.5018584978525
 31
0.0
  0
LINE
  5
30F
330
1F
100
AcDbEntity
  8
2
  6
Continuous
 62
     3
100
AcDbLine
 10
255.1827381022896
 20
38.65507098053486
 30
0.0
 11
270.6827381022896
 21
47.60400015297411
 31
0.0
  0
LINE
  5
310
330
1F
100
AcDbEntity
  8
2
  6
Continuous
 62
     3
100
AcDbLine
 10
239.6827381022896
 20
47.60400015297411
 30
0.0
 11
255.1827381022896
 21
38.65507098053486
 31
0.0
  0
LINE
  5
311
330
1F
100
AcDbEntity
  8
2
  6
Continuous
 62
     3
100
AcDbLine
 10
239.6827381022896
 20
65.5018584978525
 30
0.0
 11
239.6827381022896
 21
47.60400015297411
 31
0.0
  0
LINE
  5
312
330
1F
100
AcDbEntity
  8
2
  6
Continuous
 62
     3
100
AcDbLine
 10
255.1827381022896
 20
74.4507876702913
 30
0.0
 11
239.6827381022896
 21
65.5018584978525
 31
0.0
  0
LINE
  5
313
330
1F
100
AcDbEntity
  8
3
  6
Continuous
 62
     3
100
AcDbLine
 10
266.6827381022896
 20
96.54256635433431
 30
0.0
 11
265.4327381022896
 21
97.26425419082331
 31
0.0
  0
LINE
  5
314
330
1F
100
AcDbEntity
  8
3
  6
Continuous
 62
     3
100
AcDbLine
 10
243.6827381022896
 20
96.54256635433431
 30
0.0
 11
244.9327381022896
 21
97.26425419082331
 31
0.0
  0
LINE
  5
315
330
1F
100
AcDbEntity
  8
3
  6
Continuous
 62
     3
100
AcDbLine
 10
245.4327381022896
 20
97.6302795946033
 30
0.0
 11
264.9327381022896
 21
97.6302795946033
 31
0.0
  0
LINE
  5
316
330
1F
100
AcDbEntity
  8
3
  6
Continuous
 62
     3
100
AcDbLine
 10
264.9327381022896
 20
115.6869039216293
 30
0.0
 11
264.9327381022896
 21
98.1302795946033
 31
0.0
  0
LINE
  5
317
330
1F
100
AcDbEntity
  8
3
  6
Continuous
 62
     3
100
AcDbLine
 10
245.4327381022896
 20
115.6869039216293
 30
0.0
 11
245.4327381022896
 21
98.1302795946033
 31
0.0
  0
LINE
  5
318
330
1F
100
AcDbEntity
  8
3
  6
Continuous
 62
     3
100
AcDbLine
 10
244.9327381022896
 20
116.5529293254133
 30
0.0
 11
245.4327381022896
 21
115.6869039216293
 31
0.0
  0
LINE
  5
319
330
1F
100
AcDbEntity
  8
3
  6
Continuous
 62
     3
100
AcDbLine
 10
244.9327381022896
 20
116.5529293254133
 30
0.0
 11
244.9327381022896
 21
123.5529293254133
 31
0.0
  0
LINE
  5
31A
330
1F
100
AcDbEntity
  8
3
  6
Continuous
 62
     3
100
AcDbLine
 10
244.9327381022896
 20
123.5529293254133
 30
0.0
 11
245.9327381022896
 21
124.5529293254133
 31
0.0
  0
LINE
  5
31B
330
1F
100
AcDbEntity
  8
3
  6
Continuous
 62
     3
100
AcDbLine
 10
245.9327381022896
 20
124.5529293254133
 30
0.0
 11
264.4327381022896
 21
124.5529293254133
 31
0.0
  0
LINE
  5
31C
330
1F
100
AcDbEntity
  8
3
  6
Continuous
 62
     3
100
AcDbLine
 10
265.4327381022896
 20
123.5529293254133
 30
0.0
 11
264.4327381022896
 21
124.5529293254133
 31
0.0
  0
LINE
  5
31D
330
1F
100
AcDbEntity
  8
3
  6
Continuous
 62
     3
100
AcDbLine
 10
265.4327381022896
 20
116.5529293254133
 30
0.0
 11
265.4327381022896
 21
123.5529293254133
 31
0.0
  0
LINE
  5
31E
330
1F
100
AcDbEntity
  8
3
  6
Continuous
 62
     3
100
AcDbLine
 10
264.9327381022896
 20
115.6869039216293
 30
0.0
 11
265.4327381022896
 21
116.5529293254133
 31
0.0
  0
LINE
  5
31F
330
1F
100
AcDbEntity
  8
2
  6
Continuous
 62
     3
100
AcDbLine
 10
266.6827381022896
 20
83.15758350511331
 30
0.0
 11
266.6827381022896
 21
96.54256635433431
 31
0.0
  0
LINE
  5
320
330
1F
100
AcDbEntity
  8
2
  6
Continuous
 62
     3
100
AcDbLine
 10
271.1827381022946
 20
81.0088724530433
 30
0.0
 11
271.1827381022896
 21
81.7507577190433
 31
0.0
  0
LINE
  5
321
330
1F
100
AcDbEntity
  8
2
  6
Continuous
 62
     3
100
AcDbLine
 10
239.1827381022896
 20
81.1986806364732
 30
0.0
 11
239.1827381022896
 21
81.7507577190433
 31
0.0
  0
LINE
  5
322
330
1F
100
AcDbEntity
  8
2
  6
Continuous
 62
     3
100
AcDbLine
 10
243.6827381022896
 20
83.15758350511331
 30
0.0
 11
243.6827381022896
 21
96.54256635433431
 31
0.0
  0
LINE
  5
323
330
1F
100
AcDbEntity
  8
2
  6
Continuous
 62
     3
100
AcDbLine
 10
270.3996685601086
 20
82.7269447792273
 30
0.0
 11
266.6827381022896
 21
83.5529293254213
 31
0.0
  0
LINE
  5
324
330
1F
100
AcDbEntity
  8
2
  6
Continuous
 62
     3
100
AcDbLine
 10
239.9658076444715
 20
82.7269447792273
 30
0.0
 11
243.6827381022896
 21
83.5529293254213
 31
0.0
  0
LINE
  5
325
330
1F
100
AcDbEntity
  8
2
  6
Continuous
 62
     3
100
AcDbLine
 10
255.1827381022896
 20
95.5154277833443
 30
0.0
 11
255.1827381022896
 21
83.15758350511331
 31
0.0
  0
LINE
  5
326
330
1F
100
AcDbEntity
  8
2
  6
Continuous
 62
     3
100
AcDbLine
 10
85.63641664952911
 20
219.7703262744421
 30
0.0
 11
93.27121873371354
 21
219.7703262744421
 31
0.0
  0
LINE
  5
327
330
1F
100
AcDbEntity
  8
2
  6
Continuous
 62
     3
100
AcDbLine
 10
85.63641664952911
 20
243.8873262744421
 30
0.0
 11
93.27121873371476
 21
243.8873262744421
 31
0.0
  0
LINE
  5
328
330
1F
100
AcDbEntity
  8
2
  6
Continuous
 62
     3
100
AcDbLine
 10
86.67791664952915
 20
244.9288262744421
 30
0.0
 11
93.43811122476389
 21
244.9288262744421
 31
0.0
  0
LINE
  5
329
330
1F
100
AcDbEntity
  8
2
  6
Continuous
 62
     3
100
AcDbLine
 10
142.0846145653441
 20
243.8873262744421
 30
0.0
 11
142.7493452209582
 21
243.8873262744421
 31
0.0
  0
LINE
  5
32A
330
1F
100
AcDbEntity
  8
2
  6
Continuous
 62
     3
100
AcDbLine
 10
85.17791664952915
 20
220.2288262744421
 30
0.0
 11
85.17791664952915
 21
243.4288262744421
 31
0.0
  0
LINE
  5
32B
330
1F
100
AcDbEntity
  8
3
  6
Continuous
 62
     3
100
AcDbLine
 10
162.2493452209582
 20
223.1288262744421
 30
0.0
 11
162.2493452209582
 21
240.5288262744421
 31
0.0
  0
LINE
  5
32C
330
1F
100
AcDbEntity
  8
3
  6
Continuous
 62
     3
100
AcDbLine
 10
162.2493452209582
 20
223.1288262744421
 30
0.0
 11
160.7493452209582
 21
221.7038262744421
 31
0.0
  0
LINE
  5
32D
330
1F
100
AcDbEntity
  8
3
  6
Continuous
 62
     3
100
AcDbLine
 10
160.7493452209582
 20
241.9538262744421
 30
0.0
 11
162.2493452209582
 21
240.5288262744421
 31
0.0
  0
LINE
  5
32E
330
1F
100
AcDbEntity
  8
3
  6
Continuous
 62
     3
100
AcDbLine
 10
182.7279166495291
 20
223.3288262744421
 30
0.0
 11
182.8779166495292
 21
223.1788262744421
 31
0.0
  0
LINE
  5
32F
330
1F
100
AcDbEntity
  8
3
  6
Continuous
 62
     3
100
AcDbLine
 10
162.2493452209582
 20
223.3288262744421
 30
0.0
 11
182.7279166495291
 21
223.3288262744421
 31
0.0
  0
LINE
  5
330
330
1F
100
AcDbEntity
  8
3
  6
Continuous
 62
     3
100
AcDbLine
 10
162.2493452209582
 20
240.3288262744421
 30
0.0
 11
182.7279166495291
 21
240.3288262744421
 31
0.0
  0
LINE
  5
331
330
1F
100
AcDbEntity
  8
3
  6
Continuous
 62
     3
100
AcDbLine
 10
182.7279166495291
 20
240.3288262744421
 30
0.0
 11
182.8779166495292
 21
240.4788262744421
 31
0.0
  0
LINE
  5
332
330
1F
100
AcDbEntity
  8
2
  6
Continuous
 62
     3
100
AcDbLine
 10
141.917722074295
 20
244.9288262744421
 30
0.0
 11
142.7493452209582
 21
244.9288262744421
 31
0.0
  0
LINE
  5
333
330
1F
100
AcDbEntity
  8
2
  6
Continuous
 62
     3
100
AcDbLine
 10
142.7493452209582
 20
219.7703262744421
 30
0.0
 11
142.0846145653439
 21
219.7703262744421
 31
0.0
  0
LINE
  5
334
330
1F
100
AcDbEntity
  8
2
  6
Continuous
 62
     3
100
AcDbLine
 10
142.7493452209582
 20
218.7288262744421
 30
0.0
 11
141.9177220742947
 21
218.7288262744421
 31
0.0
  0
LINE
  5
335
330
1F
100
AcDbEntity
  8
1
  6
Continuous
 62
     3
100
AcDbLine
 10
86.67791664952915
 20
244.9288262744421
 30
0.0
 11
85.17791664952915
 21
243.4288262744421
 31
0.0
  0
LINE
  5
336
330
1F
100
AcDbEntity
  8
1
  6
Continuous
 62
     3
100
AcDbLine
 10
85.17791664952915
 20
220.2288262744421
 30
0.0
 11
86.67791664952915
 21
218.7288262744421
 31
0.0
  0
LINE
  5
337
330
1F
100
AcDbEntity
  8
1
  6
Continuous
 62
     3
100
AcDbLine
 10
182.8779166495292
 20
216.3288262744421
 30
0.0
 11
182.8779166495292
 21
247.3288262744421
 31
0.0
  0
LINE
  5
338
330
1F
100
AcDbEntity
  8
1
  6
Continuous
 62
     3
100
AcDbLine
 10
182.8779166495292
 20
247.3288262744421
 30
0.0
 11
200.8779166495292
 21
247.3288262744421
 31
0.0
  0
LINE
  5
339
330
1F
100
AcDbEntity
  8
1
  6
Continuous
 62
     3
100
AcDbLine
 10
200.8779166495292
 20
247.3288262744421
 30
0.0
 11
200.8779166495292
 21
216.3288262744421
 31
0.0
  0
LINE
  5
33A
330
1F
100
AcDbEntity
  8
1
  6
Continuous
 62
     3
100
AcDbLine
 10
200.8779166495292
 20
216.3288262744421
 30
0.0
 11
182.8779166495292
 21
216.3288262744421
 31
0.0
  0
LINE
  5
33B
330
1F
100
AcDbEntity
  8
1
  6
Continuous
 62
     3
100
AcDbLine
 10
146.6779166495292
 20
231.8288262744421
 30
0.0
 11
159.3649410600642
 21
231.8288262744421
 31
0.0
  0
LINE
  5
33C
330
1F
100
AcDbEntity
  8
1
  6
Continuous
 62
     3
100
AcDbLine
 10
160.7493452209582
 20
216.3288262744421
 30
0.0
 11
142.7493452209582
 21
216.3288262744421
 31
0.0
  0
LINE
  5
33D
330
1F
100
AcDbEntity
  8
1
  6
Continuous
 62
     3
100
AcDbLine
 10
160.7493452209582
 20
247.3288262744421
 30
0.0
 11
160.7493452209582
 21
216.3288262744421
 31
0.0
  0
LINE
  5
33E
330
1F
100
AcDbEntity
  8
1
  6
Continuous
 62
     3
100
AcDbLine
 10
142.7493452209582
 20
247.3288262744421
 30
0.0
 11
160.7493452209582
 21
247.3288262744421
 31
0.0
  0
LINE
  5
33F
330
1F
100
AcDbEntity
  8
1
  6
Continuous
 62
     3
100
AcDbLine
 10
142.7493452209582
 20
216.3288262744421
 30
0.0
 11
142.7493452209582
 21
221.7889295297169
 31
0.0
  0
LINE
  5
340
330
1F
100
AcDbEntity
  8
2
  6
Continuous
 62
     3
100
AcDbLine
 10
86.67791664952915
 20
218.7288262744421
 30
0.0
 11
93.43811122476282
 21
218.7288262744421
 31
0.0
  0
LINE
  5
341
330
1F
100
AcDbEntity
  8
1
  6
Continuous
 62
     3
100
AcDbLine
 10
115.1779166495292
 20
232.328826274442
 30
0.0
 11
115.1779166495292
 21
231.328826274442
 31
0.0
  0
LINE
  5
342
330
1F
100
AcDbEntity
  8
1
  6
Continuous
 62
     3
100
AcDbLine
 10
120.1779166495292
 20
232.328826274442
 30
0.0
 11
120.1779166495292
 21
231.328826274442
 31
0.0
  0
LINE
  5
343
330
1F
100
AcDbEntity
  8
1
  6
Continuous
 62
     3
100
AcDbLine
 10
118.1779166495292
 20
229.328826274442
 30
0.0
 11
117.1779166495292
 21
229.328826274442
 31
0.0
  0
LINE
  5
344
330
1F
100
AcDbEntity
  8
1
  6
Continuous
 62
     3
100
AcDbLine
 10
118.1779166495292
 20
234.328826274442
 30
0.0
 11
117.1779166495292
 21
234.328826274442
 31
0.0
  0
LINE
  5
345
330
1F
100
AcDbEntity
  8
1
  6
Continuous
 62
     3
100
AcDbLine
 10
120.1779166495292
 20
232.328826274442
 30
0.0
 11
119.1779166495292
 21
232.328826274442
 31
0.0
  0
LINE
  5
346
330
1F
100
AcDbEntity
  8
1
  6
Continuous
 62
     3
100
AcDbLine
 10
120.1779166495292
 20
231.328826274442
 30
0.0
 11
119.1779166495292
 21
231.328826274442
 31
0.0
  0
LINE
  5
347
330
1F
100
AcDbEntity
  8
1
  6
Continuous
 62
     3
100
AcDbLine
 10
117.1779166495292
 20
230.328826274442
 30
0.0
 11
117.1779166495292
 21
229.328826274442
 31
0.0
  0
LINE
  5
348
330
1F
100
AcDbEntity
  8
1
  6
Continuous
 62
     3
100
AcDbLine
 10
117.1779166495292
 20
234.328826274442
 30
0.0
 11
117.1779166495292
 21
233.328826274442
 31
0.0
  0
LINE
  5
349
330
1F
100
AcDbEntity
  8
1
  6
Continuous
 62
     3
100
AcDbLine
 10
118.1779166495292
 20
230.328826274442
 30
0.0
 11
118.1779166495292
 21
229.328826274442
 31
0.0
  0
LINE
  5
34A
330
1F
100
AcDbEntity
  8
1
  6
Continuous
 62
     3
100
AcDbLine
 10
118.1779166495292
 20
234.328826274442
 30
0.0
 11
118.1779166495292
 21
233.328826274442
 31
0.0
  0
LINE
  5
34B
330
1F
100
AcDbEntity
  8
1
  6
Continuous
 62
     3
100
AcDbLine
 10
116.1779166495292
 20
231.328826274442
 30
0.0
 11
115.1779166495292
 21
231.328826274442
 31
0.0
  0
LINE
  5
34C
330
1F
100
AcDbEntity
  8
1
  6
Continuous
 62
     3
100
AcDbLine
 10
116.1779166495292
 20
232.328826274442
 30
0.0
 11
115.1779166495292
 21
232.328826274442
 31
0.0
  0
LINE
  5
34D
330
1F
100
AcDbEntity
  8
2
  6
Continuous
 62
     3
100
AcDbLine
 10
114.1490078390361
 20
222.0928053489101
 30
0.0
 11
112.9572379777681
 21
206.9003535331671
 31
0.0
  0
LINE
  5
34E
330
1F
100
AcDbEntity
  8
2
  6
Continuous
 62
     3
100
AcDbLine
 10
92.7494439082552
 20
227.1081476026811
 30
0.0
 11
107.9418957239971
 21
228.2999174639481
 31
0.0
  0
LINE
  5
34F
330
1F
100
AcDbEntity
  8
2
  6
Continuous
 62
     3
100
AcDbLine
 10
122.39859532129
 20
206.9003535331671
 30
0.0
 11
121.2068254600222
 21
222.0928053489101
 31
0.0
  0
LINE
  5
350
330
1F
100
AcDbEntity
  8
2
  6
Continuous
 62
     3
100
AcDbLine
 10
127.413937575061
 20
228.299917463949
 30
0.0
 11
142.6063893908031
 21
227.1081476026811
 31
0.0
  0
LINE
  5
351
330
1F
100
AcDbEntity
  8
2
  6
Continuous
 62
     3
100
AcDbLine
 10
142.6063893908031
 20
236.549504946203
 30
0.0
 11
127.413937575061
 21
235.3577350849351
 31
0.0
  0
LINE
  5
352
330
1F
100
AcDbEntity
  8
2
  6
Continuous
 62
     3
100
AcDbLine
 10
121.2068254600222
 20
241.564847199974
 30
0.0
 11
122.39859532129
 21
256.757299015716
 31
0.0
  0
LINE
  5
353
330
1F
100
AcDbEntity
  8
2
  6
Continuous
 62
     3
100
AcDbLine
 10
112.9572379777681
 20
256.757299015716
 30
0.0
 11
114.1490078390361
 21
241.564847199974
 31
0.0
  0
LINE
  5
354
330
1F
100
AcDbEntity
  8
2
  6
Continuous
 62
     3
100
AcDbLine
 10
107.9418957239971
 20
235.3577350849351
 30
0.0
 11
92.7494439082541
 21
236.549504946202
 31
0.0
  0
LINE
  5
355
330
1F
100
AcDbEntity
  8
1
  6
DOT_CENTER
 62
     1
100
AcDbLine
 10
117.6779166495292
 20
265.328826274442
 30
0.0
 11
117.6779166495292
 21
198.328826274442
 31
0.0
  0
LINE
  5
356
330
1F
100
AcDbEntity
  8
1
  6
Continuous
 62
     3
100
AcDbLine
 10
142.7493452209582
 20
241.8687230191675
 30
0.0
 11
142.7493452209582
 21
247.3288262744421
 31
0.0
  0
LINE
  5
35B
330
1F
100
AcDbEntity
  8
3
  6
Continuous
 62
     3
100
AcDbLine
 10
259.7827381022902
 20
131.6529293254133
 30
0.0
 11
261.1827381022903
 21
130.2529293254133
 31
0.0
  0
LINE
  5
35C
330
1F
100
AcDbEntity
  8
3
  6
Continuous
 62
     3
100
AcDbLine
 10
250.5827381022894
 20
131.6529293254133
 30
0.0
 11
249.1827381022896
 21
130.2529293254133
 31
0.0
  0
LINE
  5
35D
330
1F
100
AcDbEntity
  8
3
  6
Continuous
 62
     3
100
AcDbLine
 10
258.6827381022903
 20
132.1529293254133
 30
0.0
 11
258.6827381022896
 21
131.6529293254133
 31
0.0
  0
LINE
  5
35E
330
1F
100
AcDbEntity
  8
3
  6
Continuous
 62
     3
100
AcDbLine
 10
251.6827381022903
 20
132.1529293254133
 30
0.0
 11
251.6827381022903
 21
131.6529293254133
 31
0.0
  0
LINE
  5
35F
330
1F
100
AcDbEntity
  8
3
  6
Continuous
 62
     3
100
AcDbLine
 10
250.5827381022894
 20
131.6529293254133
 30
0.0
 11
259.7827381022902
 21
131.6529293254133
 31
0.0
  0
LINE
  5
360
330
1F
100
AcDbEntity
  8
3
  6
Continuous
 62
     3
100
AcDbLine
 10
228.6827381022903
 20
132.1529293254133
 30
0.0
 11
281.6827381022896
 21
132.1529293254133
 31
0.0
  0
LINE
  5
361
330
1F
100
AcDbEntity
  8
3
  6
Continuous
 62
     3
100
AcDbLine
 10
261.1827381022903
 20
130.2529293254133
 30
0.0
 11
249.1827381022896
 21
130.2529293254133
 31
0.0
  0
LINE
  5
362
330
1F
100
AcDbEntity
  8
3
  6
Continuous
 62
     3
100
AcDbLine
 10
226.1827381022896
 20
141.1299203546643
 30
0.0
 11
226.1827381022903
 21
134.6529293254133
 31
0.0
  0
LINE
  5
363
330
1F
100
AcDbEntity
  8
3
  6
Continuous
 62
     3
100
AcDbLine
 10
284.1827381022896
 20
134.6529293254133
 30
0.0
 11
284.1827381022896
 21
141.1299203546643
 31
0.0
  0
LINE
  5
364
330
1F
100
AcDbEntity
  8
3
  6
Continuous
 62
     3
100
AcDbLine
 10
258.9327381022896
 20
142.1529293254133
 30
0.0
 11
251.4327381022896
 21
142.1529293254133
 31
0.0
  0
LINE
  5
365
330
1F
100
AcDbEntity
  8
3
  6
Continuous
 62
     3
100
AcDbLine
 10
231.2407844822024
 20
141.1299203546643
 30
0.0
 11
231.2407844822024
 21
134.6529293254133
 31
0.0
  0
LINE
  5
366
330
1F
100
AcDbEntity
  8
3
  6
Continuous
 62
     3
100
AcDbLine
 10
239.2214401538344
 20
141.1299203546643
 30
0.0
 11
239.2214401538344
 21
134.6529293254133
 31
0.0
  0
LINE
  5
367
330
1F
100
AcDbEntity
  8
3
  6
Continuous
 62
     3
100
AcDbLine
 10
249.5395623585635
 20
141.1299203546643
 30
0.0
 11
249.5395623585635
 21
134.6529293254133
 31
0.0
  0
LINE
  5
368
330
1F
100
AcDbEntity
  8
3
  6
Continuous
 62
     3
100
AcDbLine
 10
260.8259138460145
 20
141.1299203546643
 30
0.0
 11
260.8259138460152
 21
134.6529293254133
 31
0.0
  0
LINE
  5
369
330
1F
100
AcDbEntity
  8
3
  6
Continuous
 62
     3
100
AcDbLine
 10
271.1440360507462
 20
141.1299203546643
 30
0.0
 11
271.1440360507455
 21
134.6529293254133
 31
0.0
  0
LINE
  5
36A
330
1F
100
AcDbEntity
  8
3
  6
Continuous
 62
     3
100
AcDbLine
 10
279.1246917223765
 20
141.1299203546643
 30
0.0
 11
279.1246917223765
 21
134.6529293254133
 31
0.0
  0
LINE
  5
36B
330
1F
100
AcDbEntity
  8
3
  6
Continuous
 62
     3
100
AcDbLine
 10
226.9668783267806
 20
141.1299203546643
 30
0.0
 11
226.9668783267813
 21
134.6529293254133
 31
0.0
  0
LINE
  5
36C
330
1F
100
AcDbEntity
  8
3
  6
Continuous
 62
     3
100
AcDbLine
 10
283.3985978777986
 20
141.1299203546643
 30
0.0
 11
283.3985978777986
 21
134.6529293254133
 31
0.0
  0
LINE
  5
36D
330
1F
100
AcDbEntity
  8
2
  6
Continuous
 62
     3
100
AcDbLine
 10
258.93273810229
 20
143.8006560761543
 30
0.0
 11
251.4327381022903
 21
143.8006560761543
 31
0.0
  0
LINE
  5
36E
330
1F
100
AcDbEntity
  8
2
  6
Continuous
 62
     3
100
AcDbLine
 10
258.93273810229
 20
143.4529293254133
 30
0.0
 11
251.4327381022903
 21
143.4529293254133
 31
0.0
  0
LINE
  5
36F
330
1F
100
AcDbEntity
  8
3
  6
Continuous
 62
     3
100
AcDbLine
 10
261.1827381022903
 20
130.2529293254133
 30
0.0
 11
261.1827381022903
 21
124.5529293254133
 31
0.0
  0
LINE
  5
370
330
1F
100
AcDbEntity
  8
3
  6
Continuous
 62
     3
100
AcDbLine
 10
249.1827381022896
 20
130.2529293254133
 30
0.0
 11
249.1827381022899
 21
124.5529293254133
 31
0.0
  0
ARC
  5
371
330
1F
100
AcDbEntity
  8
2
  6
Continuous
 62
     3
100
AcDbCircle
 10
117.6779166495292
 20
138.8529293254133
 30
0.0
 40
7.699999999999839
100
AcDbArc
 50
60.85555777221549
 51
119.1444422277785
  0
ARC
  5
375
330
1F
100
AcDbEntity
  8
3
  6
DOTTED
 62
     6
100
AcDbCircle
 10
140.6779166495292
 20
135.2799203546643
 30
0.0
 40
6.000000000000682
100
AcDbArc
 50
0.0
 51
69.44454780460937
  0
ARC
  5
376
330
1F
100
AcDbEntity
  8
3
  6
DOTTED
 62
     6
100
AcDbCircle
 10
118.2066366269842
 20
75.35462040423928
 30
0.0
 40
69.99999999999979
100
AcDbArc
 50
69.44454780460552
 51
78.72583613511883
  0
ARC
  5
377
330
1F
100
AcDbEntity
  8
3
  6
DOTTED
 62
     6
100
AcDbCircle
 10
128.8616013602341
 20
128.8029293254133
 30
0.0
 40
15.49999999999892
100
AcDbArc
 50
78.72583613511895
 51
90.0
  0
ARC
  5
378
330
1F
100
AcDbEntity
  8
3
  6
DOTTED
 62
     6
100
AcDbCircle
 10
123.927916649528
 20
141.8029293254133
 30
0.0
 40
2.5
100
AcDbArc
 50
89.99999999997266
 51
180.0
  0
ARC
  5
379
330
1F
100
AcDbEntity
  8
3
  6
DOTTED
 62
     6
100
AcDbCircle
 10
111.427916649528
 20
141.8029293254123
 30
0.0
 40
2.500000000001194
100
AcDbArc
 50
0.0000000000254
 51
89.99999999997266
  0
ARC
  5
37A
330
1F
100
AcDbEntity
  8
3
  6
DOTTED
 62
     6
100
AcDbCircle
 10
106.494231938825
 20
128.8029293254134
 30
0.0
 40
15.5
100
AcDbArc
 50
90.00000000000296
 51
101.2741638648828
  0
ARC
  5
37B
330
1F
100
AcDbEntity
  8
3
  6
DOTTED
 62
     6
100
AcDbCircle
 10
117.1491966720732
 20
75.35462040423928
 30
0.0
 40
70.00000000000033
100
AcDbArc
 50
101.2741638648802
 51
110.5554521953939
  0
ARC
  5
37C
330
1F
100
AcDbEntity
  8
3
  6
DOTTED
 62
     6
100
AcDbCircle
 10
94.6779166495292
 20
135.2799203546644
 30
0.0
 40
5.999999999999471
100
AcDbArc
 50
110.5554521953927
 51
180.0000000000008
  0
ARC
  5
37D
330
1F
100
AcDbEntity
  8
3
  6
DOTTED
 62
     6
100
AcDbCircle
 10
91.1779166495292
 20
128.8029293254133
 30
0.0
 40
2.499999999999289
100
AcDbArc
 50
179.9999999999974
 51
270.0
  0
ARC
  5
37E
330
1F
100
AcDbEntity
  8
3
  6
DOTTED
 62
     6
100
AcDbCircle
 10
144.1779166495292
 20
128.8029293254133
 30
0.0
 40
2.499999999999986
100
AcDbArc
 50
270.0
 51
0.00000000000261
  0
ARC
  5
37F
330
1F
100
AcDbEntity
  8
3
  6
Continuous
 62
     3
100
AcDbCircle
 10
106.4942319388242
 20
134.6529293254133
 30
0.0
 40
15.5
100
AcDbArc
 50
90.0
 51
101.2741638648774
  0
ARC
  5
380
330
1F
100
AcDbEntity
  8
3
  6
Continuous
 62
     3
100
AcDbCircle
 10
128.8616013602341
 20
134.6529293254133
 30
0.0
 40
15.49999999999889
100
AcDbArc
 50
78.72583613511893
 51
90.0
  0
ARC
  5
381
330
1F
100
AcDbEntity
  8
3
  6
Continuous
 62
     3
100
AcDbCircle
 10
114.5347409058031
 20
134.6529293254133
 30
0.0
 40
2.5
100
AcDbArc
 50
180.0
 51
270.0
  0
ARC
  5
382
330
1F
100
AcDbEntity
  8
3
  6
Continuous
 62
     3
100
AcDbCircle
 10
104.2166187010732
 20
134.6529293254133
 30
0.0
 40
2.499999999999204
100
AcDbArc
 50
180.0
 51
270.0
  0
ARC
  5
383
330
1F
100
AcDbEntity
  8
3
  6
Continuous
 62
     3
100
AcDbCircle
 10
96.2359630294428
 20
134.6529293254133
 30
0.0
 40
2.500000000000796
100
AcDbArc
 50
180.0
 51
270.0
  0
ARC
  5
384
330
1F
100
AcDbEntity
  8
3
  6
Continuous
 62
     3
100
AcDbCircle
 10
91.96205687402092
 20
134.6529293254133
 30
0.0
 40
2.5
100
AcDbArc
 50
180.0
 51
269.9999999999837
  0
ARC
  5
385
330
1F
100
AcDbEntity
  8
3
  6
Continuous
 62
     3
100
AcDbCircle
 10
120.8210923932541
 20
134.6529293254133
 30
0.0
 40
2.5
100
AcDbArc
 50
270.0
 51
0.0
  0
ARC
  5
386
330
1F
100
AcDbEntity
  8
3
  6
Continuous
 62
     3
100
AcDbCircle
 10
131.1392145979851
 20
134.6529293254133
 30
0.0
 40
2.5
100
AcDbArc
 50
270.0
 51
0.0
  0
ARC
  5
387
330
1F
100
AcDbEntity
  8
3
  6
Continuous
 62
     3
100
AcDbCircle
 10
139.1198702696161
 20
134.6529293254133
 30
0.0
 40
2.5
100
AcDbArc
 50
270.0
 51
0.0
  0
ARC
  5
388
330
1F
100
AcDbEntity
  8
3
  6
Continuous
 62
     3
100
AcDbCircle
 10
143.3937764250382
 20
134.6529293254133
 30
0.0
 40
2.5
100
AcDbArc
 50
270.0
 51
0.0
  0
ARC
  5
389
330
1F
100
AcDbEntity
  8
3
  6
Continuous
 62
     3
100
AcDbCircle
 10
118.2066366269842
 20
81.20462040423928
 30
0.0
 40
69.99999999999979
100
AcDbArc
 50
69.44454780460552
 51
78.72583613511883
  0
ARC
  5
38A
330
1F
100
AcDbEntity
  8
3
  6
Continuous
 62
     3
100
AcDbCircle
 10
140.6779166495292
 20
141.1299203546643
 30
0.0
 40
6.0
100
AcDbArc
 50
0.0
 51
69.44454780460937
  0
ARC
  5
38B
330
1F
100
AcDbEntity
  8
3
  6
Continuous
 62
     3
100
AcDbCircle
 10
144.1779166495292
 20
134.6529293254133
 30
0.0
 40
2.5
100
AcDbArc
 50
270.0
 51
0.0
  0
ARC
  5
38C
330
1F
100
AcDbEntity
  8
3
  6
Continuous
 62
     3
100
AcDbCircle
 10
91.1779166495292
 20
134.6529293254133
 30
0.0
 40
2.499999999999289
100
AcDbArc
 50
180.0
 51
270.0000000000163
  0
ARC
  5
38D
330
1F
100
AcDbEntity
  8
3
  6
Continuous
 62
     3
100
AcDbCircle
 10
94.6779166495299
 20
141.1299203546643
 30
0.0
 40
6.000000000000079
100
AcDbArc
 50
110.5554521954059
 51
180.0
  0
ARC
  5
38E
330
1F
100
AcDbEntity
  8
3
  6
Continuous
 62
     3
100
AcDbCircle
 10
117.1491966720732
 20
81.20462040423928
 30
0.0
 40
70.00000000000011
100
AcDbArc
 50
101.2741638648797
 51
110.5554521953945
  0
ARC
  5
391
330
1F
100
AcDbEntity
  8
3
  6
Continuous
 62
     3
100
AcDbCircle
 10
152.826294700846
 20
43.12953556675451
 30
0.0
 40
7.923050520111859
100
AcDbArc
 50
334.384247468042
 51
34.38424746804088
  0
ARC
  5
392
330
1F
100
AcDbEntity
  8
3
  6
Continuous
 62
     3
100
AcDbCircle
 10
150.6723957410696
 20
43.12953556675451
 30
0.0
 40
7.923050520112003
100
AcDbArc
 50
145.6157525319592
 51
205.6157525319583
  0
ARC
  5
393
330
1F
100
AcDbEntity
  8
3
  6
Continuous
 62
     3
100
AcDbCircle
 10
152.826294700846
 20
69.9763230840721
 30
0.0
 40
7.923050520111988
100
AcDbArc
 50
325.615752531959
 51
25.61575253195779
  0
ARC
  5
394
330
1F
100
AcDbEntity
  8
3
  6
Continuous
 62
     3
100
AcDbCircle
 10
150.6723957410696
 20
69.9763230840721
 30
0.0
 40
7.92305052011177
100
AcDbArc
 50
154.384247468042
 51
214.3842474680408
  0
ARC
  5
395
330
1F
100
AcDbEntity
  8
3
  6
Continuous
 62
     3
100
AcDbCircle
 10
131.1337493818525
 20
56.55292932541342
 30
0.0
 40
29.61559583910557
100
AcDbArc
 50
342.4120462260058
 51
17.58795377399374
  0
ARC
  5
396
330
1F
100
AcDbEntity
  8
3
  6
Continuous
 62
     3
100
AcDbCircle
 10
172.3649410600639
 20
56.5529293254133
 30
0.0
 40
29.61559583910632
100
AcDbArc
 50
162.4120462260065
 51
197.5879537739935
  0
ARC
  5
397
330
1F
100
AcDbEntity
  8
3
  6
Continuous
 62
     3
100
AcDbCircle
 10
190.8009671696411
 20
69.9763230840721
 30
0.0
 40
7.923050520111847
100
AcDbArc
 50
154.3842474680422
 51
214.384247468041
  0
ARC
  5
398
330
1F
100
AcDbEntity
  8
3
  6
Continuous
 62
     3
100
AcDbCircle
 10
212.4935124886341
 20
56.55292932541319
 30
0.0
 40
29.61559583910511
100
AcDbArc
 50
162.4120462260055
 51
197.5879537739938
  0
ARC
  5
399
330
1F
100
AcDbEntity
  8
3
  6
Continuous
 62
     3
100
AcDbCircle
 10
192.9548661294172
 20
69.9763230840721
 30
0.0
 40
7.923050520111988
100
AcDbArc
 50
325.615752531959
 51
25.61575253195752
  0
ARC
  5
39A
330
1F
100
AcDbEntity
  8
3
  6
Continuous
 62
     3
100
AcDbCircle
 10
171.2623208104232
 20
56.5529293254133
 30
0.0
 40
29.61559583910602
100
AcDbArc
 50
342.4120462260063
 51
17.58795377399366
  0
ARC
  5
39B
330
1F
100
AcDbEntity
  8
3
  6
Continuous
 62
     3
100
AcDbCircle
 10
192.9548661294172
 20
43.12953556675451
 30
0.0
 40
7.923050520111936
100
AcDbArc
 50
334.3842474680422
 51
34.38424746804088
  0
ARC
  5
39C
330
1F
100
AcDbEntity
  8
3
  6
Continuous
 62
     3
100
AcDbCircle
 10
190.8009671696411
 20
43.12953556675451
 30
0.0
 40
7.923050520112044
100
AcDbArc
 50
145.6157525319585
 51
205.615752531958
  0
ARC
  5
39D
330
1F
100
AcDbEntity
  8
3
  6
Continuous
 62
     3
100
AcDbCircle
 10
134.6779166495292
 20
70.3029293254133
 30
0.0
 40
2.0
100
AcDbArc
 50
180.0
 51
270.0
  0
ARC
  5
39E
330
1F
100
AcDbEntity
  8
3
  6
Continuous
 62
     3
100
AcDbCircle
 10
100.6779166495292
 20
70.3029293254133
 30
0.0
 40
2.0
100
AcDbArc
 50
270.0
 51
0.0
  0
ARC
  5
39F
330
1F
100
AcDbEntity
  8
3
  6
Continuous
 62
     3
100
AcDbCircle
 10
117.6779166495292
 20
91.5529293254133
 30
0.0
 40
50.00000000000003
100
AcDbArc
 50
249.6358651936821
 51
290.3641348063178
  0
ARC
  5
3A0
330
1F
100
AcDbEntity
  8
3
  6
Continuous
 62
     3
100
AcDbCircle
 10
135.7731508287268
 20
42.8029293254133
 30
0.0
 40
2.0
100
AcDbArc
 50
90.0
 51
110.3641348063195
  0
ARC
  5
3A1
330
1F
100
AcDbEntity
  8
3
  6
Continuous
 62
     3
100
AcDbCircle
 10
99.58268247033152
 20
42.8029293254133
 30
0.0
 40
2.000000000000007
100
AcDbArc
 50
69.63586519368164
 51
90.0
  0
ARC
  5
3A2
330
1F
100
AcDbEntity
  8
3
  6
Continuous
 62
     3
100
AcDbCircle
 10
137.9994895247829
 20
70.3029293254133
 30
0.0
 40
2.0
100
AcDbArc
 50
270.0
 51
315.0
  0
ARC
  5
3A3
330
1F
100
AcDbEntity
  8
3
  6
Continuous
 62
     3
100
AcDbCircle
 10
137.9994895247829
 20
42.8029293254133
 30
0.0
 40
2.000000000000016
100
AcDbArc
 50
45.0
 51
90.0
  0
ARC
  5
3A4
330
1F
100
AcDbEntity
  8
3
  6
Continuous
 62
     3
100
AcDbCircle
 10
97.35634377427539
 20
70.3029293254133
 30
0.0
 40
2.000000000000016
100
AcDbArc
 50
225.0
 51
270.0
  0
ARC
  5
3A5
330
1F
100
AcDbEntity
  8
3
  6
Continuous
 62
     3
100
AcDbCircle
 10
97.35634377427539
 20
42.8029293254133
 30
0.0
 40
2.0
100
AcDbArc
 50
90.0
 51
135.0
  0
ARC
  5
3A6
330
1F
100
AcDbEntity
  8
3
  6
Continuous
 62
     3
100
AcDbCircle
 10
129.6779166495292
 20
81.1986806364732
 30
0.0
 40
3.999999999996895
100
AcDbArc
 50
318.5903778907796
 51
0.0
  0
ARC
  5
3A7
330
1F
100
AcDbEntity
  8
3
  6
Continuous
 62
     3
100
AcDbCircle
 10
102.6779166495292
 20
82.5129136269433
 30
0.0
 40
0.9999999999999578
100
AcDbArc
 50
105.9453959010854
 51
180.0
  0
ARC
  5
3A8
330
1F
100
AcDbEntity
  8
3
  6
Continuous
 62
     3
100
AcDbCircle
 10
132.6779166495292
 20
82.5129136269433
 30
0.0
 40
1.0
100
AcDbArc
 50
0.0
 51
74.05460409892639
  0
ARC
  5
3A9
330
1F
100
AcDbEntity
  8
3
  6
Continuous
 62
     3
100
AcDbCircle
 10
128.4279166495292
 20
98.1302795946033
 30
0.0
 40
1.000000000000014
100
AcDbArc
 50
180.0
 51
239.9999999998717
  0
ARC
  5
3AA
330
1F
100
AcDbEntity
  8
3
  6
Continuous
 62
     3
100
AcDbCircle
 10
106.9279166495292
 20
98.1302795946033
 30
0.0
 40
0.9999999999961439
100
AcDbArc
 50
300.0000000001276
 51
0.0
  0
ARC
  5
3AB
330
1F
100
AcDbEntity
  8
3
  6
Continuous
 62
     3
100
AcDbCircle
 10
129.6779166495292
 20
81.1986806364732
 30
0.0
 40
3.999999999996895
100
AcDbArc
 50
318.5903778907796
 51
0.0
  0
ARC
  5
3AC
330
1F
100
AcDbEntity
  8
3
  6
Continuous
 62
     3
100
AcDbCircle
 10
105.6779166495292
 20
81.1986806364733
 30
0.0
 40
4.0
100
AcDbArc
 50
180.0
 51
221.4096221092215
  0
ARC
  5
3AD
330
1F
100
AcDbEntity
  8
3
  6
Continuous
 62
     3
100
AcDbCircle
 10
127.6372087930491
 20
90.6641740329788
 30
0.0
 40
5.878392321354252
100
AcDbArc
 50
55.61575253183535
 51
124.3842474681631
  0
ARC
  5
3AE
330
1F
100
AcDbEntity
  8
3
  6
Continuous
 62
     3
100
AcDbCircle
 10
117.6779166495292
 20
74.5697049254002
 30
0.0
 40
21.97286142893294
100
AcDbArc
 50
72.4120462259411
 51
107.5879537740585
  0
ARC
  5
3AF
330
1F
100
AcDbEntity
  8
3
  6
Continuous
 62
     3
100
AcDbCircle
 10
107.7186245060092
 20
90.6641740329787
 30
0.0
 40
5.878392321355022
100
AcDbArc
 50
55.61575253184182
 51
124.3842474681649
  0
ARC
  5
3B0
330
1F
100
AcDbEntity
  8
3
  6
Continuous
 62
     3
100
AcDbCircle
 10
127.6372087930491
 20
73.45794135720661
 30
0.0
 40
11.09498796820671
100
AcDbArc
 50
72.58966295624954
 51
107.4103370437499
  0
ARC
  5
3B1
330
1F
100
AcDbEntity
  8
3
  6
Continuous
 62
     3
100
AcDbCircle
 10
117.6779166495292
 20
40.93543010602549
 30
0.0
 40
43.61749921938781
100
AcDbArc
 50
81.24430303150088
 51
98.75569696849924
  0
ARC
  5
3B2
330
1F
100
AcDbEntity
  8
3
  6
Continuous
 62
     3
100
AcDbCircle
 10
107.7186245060092
 20
73.45794135720631
 30
0.0
 40
11.09498796820696
100
AcDbArc
 50
72.58966295625058
 51
107.4103370437505
  0
ARC
  5
3B3
330
1F
100
AcDbEntity
  8
1
  6
Continuous
 62
     3
100
AcDbCircle
 10
249.4327381022896
 20
79.934527961266
 30
0.0
 40
16.60803839306856
100
AcDbArc
 50
69.74384199950063
 51
110.2561580004994
  0
ARC
  5
3B4
330
1F
100
AcDbEntity
  8
1
  6
Continuous
 62
     3
100
AcDbCircle
 10
260.9327381022896
 20
79.934527961266
 30
0.0
 40
16.60803839306856
100
AcDbArc
 50
69.74384199950063
 51
110.2561580004994
  0
ARC
  5
3B5
330
1F
100
AcDbEntity
  8
2
  6
Continuous
 62
     3
100
AcDbCircle
 10
267.1827381022896
 20
81.1986806364732
 30
0.0
 40
3.999999999996895
100
AcDbArc
 50
318.5903778907796
 51
0.0
  0
ARC
  5
3B6
330
1F
100
AcDbEntity
  8
2
  6
Continuous
 62
     3
100
AcDbCircle
 10
243.1796481974996
 20
81.1660656169133
 30
0.0
 40
3.999999999994896
100
AcDbArc
 50
182.2522061696068
 51
220.7896669763097
  0
ARC
  5
3B7
330
1F
100
AcDbEntity
  8
3
  6
Continuous
 62
     3
100
AcDbCircle
 10
265.9327381022896
 20
98.1302795946033
 30
0.0
 40
1.0
100
AcDbArc
 50
180.0
 51
239.9999999998724
  0
ARC
  5
3B8
330
1F
100
AcDbEntity
  8
3
  6
Continuous
 62
     3
100
AcDbCircle
 10
244.4327381022896
 20
98.1302795946033
 30
0.0
 40
0.9999999999961439
100
AcDbArc
 50
300.0000000001276
 51
0.0
  0
ARC
  5
3B9
330
1F
100
AcDbEntity
  8
2
  6
Continuous
 62
     3
100
AcDbCircle
 10
240.1827381022896
 20
81.7507577190433
 30
0.0
 40
0.9999999999999102
100
AcDbArc
 50
102.5288077091189
 51
180.0
  0
ARC
  5
3BA
330
1F
100
AcDbEntity
  8
2
  6
Continuous
 62
     3
100
AcDbCircle
 10
270.1827381022896
 20
81.7507577190433
 30
0.0
 40
1.0
100
AcDbArc
 50
0.0
 51
77.4711922908303
  0
ARC
  5
3BB
330
1F
100
AcDbEntity
  8
2
  6
Continuous
 62
     3
100
AcDbCircle
 10
260.9327381022896
 20
41.54059909205161
 30
0.0
 40
42.0123302333615
100
AcDbArc
 50
82.13354654051044
 51
97.86645345948958
  0
ARC
  5
3BC
330
1F
100
AcDbEntity
  8
2
  6
Continuous
 62
     3
100
AcDbCircle
 10
249.4327381022896
 20
41.54059909207105
 30
0.0
 40
42.01233023334224
100
AcDbArc
 50
82.1335465405068
 51
97.86645345949319
  0
ARC
  5
3BD
330
1F
100
AcDbEntity
  8
1
  6
Continuous
 62
     3
100
AcDbCircle
 10
205.0258815587501
 20
239.5788262744421
 30
0.0
 40
22.16276054442355
100
AcDbArc
 50
159.5319088673306
 51
200.4680911326694
  0
ARC
  5
3BE
330
1F
100
AcDbEntity
  8
1
  6
Continuous
 62
     3
100
AcDbCircle
 10
204.9501723105118
 20
224.0788262744421
 30
0.0
 40
22.0918469053566
100
AcDbArc
 50
159.463246702259
 51
200.536753297741
  0
ARC
  5
3BF
330
1F
100
AcDbEntity
  8
1
  6
Continuous
 62
     3
100
AcDbCircle
 10
178.4931692500858
 20
239.5788262744421
 30
0.0
 40
22.38474739944349
100
AcDbArc
 50
339.7438419995859
 51
20.25615800041417
  0
ARC
  5
3C0
330
1F
100
AcDbEntity
  8
1
  6
Continuous
 62
     3
100
AcDbCircle
 10
178.8056609885447
 20
224.0788262744421
 30
0.0
 40
22.09184690535857
100
AcDbArc
 50
339.4632467022609
 51
20.53675329773908
  0
ARC
  5
3C1
330
1F
100
AcDbEntity
  8
1
  6
Continuous
 62
     3
100
AcDbCircle
 10
138.6770895599736
 20
224.0788262744421
 30
0.0
 40
22.09184690535857
100
AcDbArc
 50
339.4632467022609
 51
20.53675329773908
  0
ARC
  5
3C2
330
1F
100
AcDbEntity
  8
1
  6
Continuous
 62
     3
100
AcDbCircle
 10
138.3645978215147
 20
239.5788262744421
 30
0.0
 40
22.38474739944349
100
AcDbArc
 50
339.7438419995859
 51
20.25615800041417
  0
ARC
  5
3C3
330
1F
100
AcDbEntity
  8
1
  6
Continuous
 62
     3
100
AcDbCircle
 10
164.8216008819408
 20
224.0788262744421
 30
0.0
 40
22.09184690535668
100
AcDbArc
 50
185.4901813073421
 51
200.5367532977409
  0
ARC
  5
3C4
330
1F
100
AcDbEntity
  8
1
  6
Continuous
 62
     3
100
AcDbCircle
 10
164.8973101301791
 20
239.5788262744421
 30
0.0
 40
22.16276054442366
100
AcDbArc
 50
159.5319088673307
 51
174.5477388587735
  0
ARC
  5
3C5
330
1F
100
AcDbEntity
  8
1
  6
Continuous
 62
     3
100
AcDbCircle
 10
116.1779166495292
 20
233.328826274442
 30
0.0
 40
1.0
100
AcDbArc
 50
270.0
 51
0.0
  0
ARC
  5
3C6
330
1F
100
AcDbEntity
  8
1
  6
Continuous
 62
     3
100
AcDbCircle
 10
116.1779166495292
 20
230.328826274442
 30
0.0
 40
1.0
100
AcDbArc
 50
0.0
 51
90.0
  0
ARC
  5
3C7
330
1F
100
AcDbEntity
  8
1
  6
Continuous
 62
     3
100
AcDbCircle
 10
119.1779166495292
 20
230.328826274442
 30
0.0
 40
1.0
100
AcDbArc
 50
90.0
 51
180.0
  0
ARC
  5
3C8
330
1F
100
AcDbEntity
  8
1
  6
Continuous
 62
     3
100
AcDbCircle
 10
119.1779166495292
 20
233.328826274442
 30
0.0
 40
1.0
100
AcDbArc
 50
180.0
 51
270.0
  0
ARC
  5
3C9
330
1F
100
AcDbEntity
  8
2
  6
Continuous
 62
     3
100
AcDbCircle
 10
110.9633633197052
 20
207.0567627654261
 30
0.0
 40
1.999999999999795
100
AcDbArc
 50
231.6550533435194
 51
355.5146255463363
  0
ARC
  5
3CA
330
1F
100
AcDbEntity
  8
2
  6
Continuous
 62
     3
100
AcDbCircle
 10
113.6505391745202
 20
222.1319076569741
 30
0.0
 40
0.5000000000001943
100
AcDbArc
 50
355.5146255464231
 51
67.44564256377156
  0
ARC
  5
3CB
330
1F
100
AcDbEntity
  8
2
  6
Continuous
 62
     3
100
AcDbCircle
 10
117.6779166495292
 20
231.828826274442
 30
0.0
 40
10.00000000000087
100
AcDbArc
 50
202.5543574361512
 51
247.4456425638534
  0
ARC
  5
3CC
330
1F
100
AcDbEntity
  8
2
  6
Continuous
 62
     3
100
AcDbCircle
 10
107.9809980320611
 20
227.8014487994331
 30
0.0
 40
0.4999999999995376
100
AcDbArc
 50
22.55435743611881
 51
94.48537445358333
  0
ARC
  5
3CD
330
1F
100
AcDbEntity
  8
2
  6
Continuous
 62
     3
100
AcDbCircle
 10
92.90585314051312
 20
225.114272944618
 30
0.0
 40
2.000000000000445
100
AcDbArc
 50
94.48537445363239
 51
218.3449466564619
  0
ARC
  5
3CE
330
1F
100
AcDbEntity
  8
2
  6
Continuous
 62
     3
100
AcDbCircle
 10
117.6779166495292
 20
231.828826274442
 30
0.0
 40
11.49999999999989
100
AcDbArc
 50
341.6450253534817
 51
359.9999907415655
  0
ARC
  5
3CF
330
1F
100
AcDbEntity
  8
2
  6
Continuous
 62
     3
100
AcDbCircle
 10
151.8614593524471
 20
245.9881132719501
 30
0.0
 40
10.00000000000055
100
AcDbArc
 50
179.008197751113
 51
202.5000000000005
  0
ARC
  5
3D0
330
1F
100
AcDbEntity
  8
2
  6
Continuous
 62
     3
100
AcDbCircle
 10
117.6779166495292
 20
231.828826274442
 30
0.0
 40
25.0000000000001
100
AcDbArc
 50
259.1838626983026
 51
280.8161373016972
  0
ARC
  5
3D1
330
1F
100
AcDbEntity
  8
2
  6
Continuous
 62
     3
100
AcDbCircle
 10
117.6779166495292
 20
231.828826274442
 30
0.0
 40
25.00000000000007
100
AcDbArc
 50
349.1838626983028
 51
10.8161373016976
  0
ARC
  5
3D2
330
1F
100
AcDbEntity
  8
2
  6
Continuous
 62
     3
100
AcDbCircle
 10
117.6779166495292
 20
231.828826274442
 30
0.0
 40
25.0000000000002
100
AcDbArc
 50
79.18386269830287
 51
100.8161373016973
  0
ARC
  5
3D3
330
1F
100
AcDbEntity
  8
2
  6
Continuous
 62
     3
100
AcDbCircle
 10
117.6779166495292
 20
231.828826274442
 30
0.0
 40
25.0000000000002
100
AcDbArc
 50
169.1838626983024
 51
190.8161373016971
  0
ARC
  5
3D4
330
1F
100
AcDbEntity
  8
2
  6
Continuous
 62
     3
100
AcDbCircle
 10
117.6779166495292
 20
231.828826274442
 30
0.0
 40
11.50000000000017
100
AcDbArc
 50
359.9999907415655
 51
18.35497464651914
  0
ARC
  5
3D5
330
1F
100
AcDbEntity
  8
2
  6
Continuous
 62
     3
100
AcDbCircle
 10
117.6779166495292
 20
231.828826274442
 30
0.0
 40
11.50000000000007
100
AcDbArc
 50
71.64502535348203
 51
108.3549746465184
  0
ARC
  5
3D6
330
1F
100
AcDbEntity
  8
2
  6
Continuous
 62
     3
100
AcDbCircle
 10
117.6779166495292
 20
231.828826274442
 30
0.0
 40
11.50000000000003
100
AcDbArc
 50
161.645025353481
 51
198.3549746465181
  0
ARC
  5
3D7
330
1F
100
AcDbEntity
  8
2
  6
Continuous
 62
     3
100
AcDbCircle
 10
117.6779166495292
 20
231.828826274442
 30
0.0
 40
11.50000000000001
100
AcDbArc
 50
251.6450253534815
 51
288.3549746465181
  0
ARC
  5
3D8
330
1F
100
AcDbEntity
  8
2
  6
Continuous
 62
     3
100
AcDbCircle
 10
121.7052941245381
 20
241.5257448919099
 30
0.0
 40
0.500000000000201
100
AcDbArc
 50
175.5146255464134
 51
247.4456425639255
  0
ARC
  5
3D9
330
1F
100
AcDbEntity
  8
2
  6
Continuous
 62
     3
100
AcDbCircle
 10
117.6779166495292
 20
231.828826274442
 30
0.0
 40
28.99999999999997
100
AcDbArc
 50
351.9264004075586
 51
8.07359959244156
  0
ARC
  5
3DA
330
1F
100
AcDbEntity
  8
2
  6
Continuous
 62
     3
100
AcDbCircle
 10
141.4400400794391
 20
235.1995072296391
 30
0.0
 40
4.999999999999964
100
AcDbArc
 50
8.07359959244659
 51
45.9918022488891
  0
ARC
  5
3DB
330
1F
100
AcDbEntity
  8
2
  6
Continuous
 62
     3
100
AcDbCircle
 10
151.8614593524471
 20
245.9881132719501
 30
0.0
 40
10.00000000000008
100
AcDbArc
 50
202.5000000000005
 51
225.9918022488877
  0
ARC
  5
3DC
330
1F
100
AcDbEntity
  8
2
  6
Continuous
 62
     3
100
AcDbCircle
 10
136.8637066228462
 20
246.247753526486
 30
0.0
 40
5.000000000000346
100
AcDbArc
 50
359.0081977511124
 51
36.92640040755235
  0
ARC
  5
3DD
330
1F
100
AcDbEntity
  8
2
  6
Continuous
 62
     3
100
AcDbCircle
 10
117.6779166495292
 20
231.828826274442
 30
0.0
 40
28.99999999999961
100
AcDbArc
 50
36.92640040755725
 51
53.07359959244282
  0
ARC
  5
3DE
330
1F
100
AcDbEntity
  8
2
  6
Continuous
 62
     3
100
AcDbCircle
 10
132.0968439015731
 20
251.0146162477601
 30
0.0
 40
4.999999999999523
100
AcDbArc
 50
53.07359959243956
 51
90.99180224888651
  0
ARC
  5
3DF
330
1F
100
AcDbEntity
  8
2
  6
Continuous
 62
     3
100
AcDbCircle
 10
131.8372036470371
 20
266.0123689773591
 30
0.0
 40
9.999999999999979
100
AcDbArc
 50
224.0081977511131
 51
270.9918022488884
  0
ARC
  5
3E0
330
1F
100
AcDbEntity
  8
2
  6
Continuous
 62
     3
100
AcDbCircle
 10
121.0485976047262
 20
255.5909497043512
 30
0.0
 40
5.000000000000251
100
AcDbArc
 50
44.00819775110927
 51
81.92640040755481
  0
ARC
  5
3E1
330
1F
100
AcDbEntity
  8
2
  6
Continuous
 62
     3
100
AcDbCircle
 10
117.6779166495292
 20
231.828826274442
 30
0.0
 40
29.00000000000004
100
AcDbArc
 50
81.92640040755865
 51
98.07359959244155
  0
ARC
  5
3E2
330
1F
100
AcDbEntity
  8
2
  6
Continuous
 62
     3
100
AcDbCircle
 10
114.3072356943312
 20
255.5909497043512
 30
0.0
 40
5.000000000000596
100
AcDbArc
 50
98.07359959243503
 51
135.9918022488922
  0
ARC
  5
3E3
330
1F
100
AcDbEntity
  8
2
  6
Continuous
 62
     3
100
AcDbCircle
 10
103.5186296520212
 20
266.0123689773591
 30
0.0
 40
9.999999999999615
100
AcDbArc
 50
269.0081977511117
 51
315.9918022488826
  0
ARC
  5
3E4
330
1F
100
AcDbEntity
  8
2
  6
Continuous
 62
     3
100
AcDbCircle
 10
103.2589893974851
 20
251.0146162477601
 30
0.0
 40
4.999999999999352
100
AcDbArc
 50
89.00819775111218
 51
126.9264004075745
  0
ARC
  5
3E5
330
1F
100
AcDbEntity
  8
2
  6
Continuous
 62
     3
100
AcDbCircle
 10
117.6779166495292
 20
231.828826274442
 30
0.0
 40
28.99999999999947
100
AcDbArc
 50
126.9264004075599
 51
143.0735995924443
  0
ARC
  5
3E6
330
1F
100
AcDbEntity
  8
2
  6
Continuous
 62
     3
100
AcDbCircle
 10
98.4921266762121
 20
246.247753526486
 30
0.0
 40
4.999999999999703
100
AcDbArc
 50
143.0735995924558
 51
180.9918022488876
  0
ARC
  5
3E7
330
1F
100
AcDbEntity
  8
2
  6
Continuous
 62
     3
100
AcDbCircle
 10
83.4943739466121
 20
245.9881132719501
 30
0.0
 40
9.99999999999942
100
AcDbArc
 50
314.0081977511086
 51
0.99180224888706
  0
ARC
  5
3E8
330
1F
100
AcDbEntity
  8
2
  6
Continuous
 62
     3
100
AcDbCircle
 10
83.4943739466121
 20
217.669539276933
 30
0.0
 40
9.999999999999735
100
AcDbArc
 50
359.0081977511186
 51
45.99180224889504
  0
ARC
  5
3E9
330
1F
100
AcDbEntity
  8
2
  6
Continuous
 62
     3
100
AcDbCircle
 10
98.49212667621121
 20
217.409899022397
 30
0.0
 40
4.99999999999937
100
AcDbArc
 50
179.0081977510998
 51
216.9264004075578
  0
ARC
  5
3EA
330
1F
100
AcDbEntity
  8
2
  6
Continuous
 62
     3
100
AcDbCircle
 10
117.6779166495292
 20
231.828826274442
 30
0.0
 40
29.00000000000022
100
AcDbArc
 50
216.9264004075586
 51
233.0735995924425
  0
ARC
  5
3EB
330
1F
100
AcDbEntity
  8
2
  6
Continuous
 62
     3
100
AcDbCircle
 10
103.2589893974851
 20
212.6430363011241
 30
0.0
 40
4.999999999999477
100
AcDbArc
 50
233.0735995924408
 51
270.9918022488876
  0
ARC
  5
3EC
330
1F
100
AcDbEntity
  8
2
  6
Continuous
 62
     3
100
AcDbCircle
 10
103.5186296520212
 20
197.645283571524
 30
0.0
 40
10.00000000000009
100
AcDbArc
 50
44.00819775111361
 51
90.99180224888829
  0
ARC
  5
3ED
330
1F
100
AcDbEntity
  8
2
  6
Continuous
 62
     3
100
AcDbCircle
 10
114.3072356943312
 20
208.0667028445321
 30
0.0
 40
4.999999999999657
100
AcDbArc
 50
224.0081977511172
 51
261.9264004075636
  0
ARC
  5
3EE
330
1F
100
AcDbEntity
  8
2
  6
Continuous
 62
     3
100
AcDbCircle
 10
117.6779166495292
 20
231.828826274442
 30
0.0
 40
28.99999999999989
100
AcDbArc
 50
261.9264004075584
 51
278.0735995924414
  0
ARC
  5
3EF
330
1F
100
AcDbEntity
  8
2
  6
Continuous
 62
     3
100
AcDbCircle
 10
121.0485976047271
 20
208.0667028445321
 30
0.0
 40
4.999999999999722
100
AcDbArc
 50
278.0735995924363
 51
315.9918022488756
  0
ARC
  5
3F0
330
1F
100
AcDbEntity
  8
2
  6
Continuous
 62
     3
100
AcDbCircle
 10
131.8372036470371
 20
197.645283571524
 30
0.0
 40
10.00000000000067
100
AcDbArc
 50
89.00819775111174
 51
135.99180224889
  0
ARC
  5
3F1
330
1F
100
AcDbEntity
  8
2
  6
Continuous
 62
     3
100
AcDbCircle
 10
132.0968439015731
 20
212.6430363011241
 30
0.0
 40
4.999999999999435
100
AcDbArc
 50
269.0081977511135
 51
306.9264004075603
  0
ARC
  5
3F2
330
1F
100
AcDbEntity
  8
2
  6
Continuous
 62
     3
100
AcDbCircle
 10
117.6779166495292
 20
231.828826274442
 30
0.0
 40
28.99999999999954
100
AcDbArc
 50
306.9264004075574
 51
323.0735995924413
  0
ARC
  5
3F3
330
1F
100
AcDbEntity
  8
2
  6
Continuous
 62
     3
100
AcDbCircle
 10
136.8637066228462
 20
217.409899022398
 30
0.0
 40
5.000000000000819
100
AcDbArc
 50
323.0735995924393
 51
0.9918022488886
  0
ARC
  5
3F4
330
1F
100
AcDbEntity
  8
2
  6
Continuous
 62
     3
100
AcDbCircle
 10
151.8614593524471
 20
217.669539276933
 30
0.0
 40
10.00000000000075
100
AcDbArc
 50
134.0081977511084
 51
180.9918022488813
  0
ARC
  5
3F5
330
1F
100
AcDbEntity
  8
2
  6
Continuous
 62
     3
100
AcDbCircle
 10
141.4400400794391
 20
228.4581453192441
 30
0.0
 40
4.999999999999735
100
AcDbArc
 50
314.0081977511181
 51
351.9264004075637
  0
ARC
  5
3F6
330
1F
100
AcDbEntity
  8
2
  6
Continuous
 62
     3
100
AcDbCircle
 10
124.3924699793531
 20
207.0567627654261
 30
0.0
 40
2.000000000000515
100
AcDbArc
 50
184.4853744536632
 51
308.3449466564647
  0
ARC
  5
3F7
330
1F
100
AcDbEntity
  8
2
  6
Continuous
 62
     3
100
AcDbCircle
 10
121.7052941245381
 20
222.1319076569741
 30
0.0
 40
0.4999999999999091
100
AcDbArc
 50
112.554357436251
 51
184.4853744535769
  0
ARC
  5
3F8
330
1F
100
AcDbEntity
  8
2
  6
Continuous
 62
     3
100
AcDbCircle
 10
117.6779166495292
 20
231.828826274442
 30
0.0
 40
10.00000000000031
100
AcDbArc
 50
292.554357436145
 51
337.4456425638463
  0
ARC
  5
3F9
330
1F
100
AcDbEntity
  8
2
  6
Continuous
 62
     3
100
AcDbCircle
 10
127.374835266997
 20
227.8014487994331
 30
0.0
 40
0.5000000000001802
100
AcDbArc
 50
85.51462554642296
 51
157.4456425639206
  0
ARC
  5
3FA
330
1F
100
AcDbEntity
  8
2
  6
Continuous
 62
     3
100
AcDbCircle
 10
142.449980158545
 20
225.114272944618
 30
0.0
 40
1.999999999999724
100
AcDbArc
 50
321.655053343522
 51
85.51462554636275
  0
ARC
  5
3FB
330
1F
100
AcDbEntity
  8
2
  6
Continuous
 62
     3
100
AcDbCircle
 10
142.449980158545
 20
238.5433796042651
 30
0.0
 40
1.999999999999466
100
AcDbArc
 50
274.4853744536395
 51
38.34494665649571
  0
ARC
  5
3FC
330
1F
100
AcDbEntity
  8
2
  6
Continuous
 62
     3
100
AcDbCircle
 10
127.374835266997
 20
235.8562037494511
 30
0.0
 40
0.5000000000008332
100
AcDbArc
 50
202.5543574362088
 51
274.4853744535757
  0
ARC
  5
3FD
330
1F
100
AcDbEntity
  8
2
  6
Continuous
 62
     3
100
AcDbCircle
 10
117.6779166495292
 20
231.828826274442
 30
0.0
 40
9.999999999999375
100
AcDbArc
 50
22.55435743614837
 51
67.44564256384619
  0
ARC
  5
3FE
330
1F
100
AcDbEntity
  8
2
  6
Continuous
 62
     3
100
AcDbCircle
 10
121.7052941245381
 20
241.5257448919099
 30
0.0
 40
0.500000000000201
100
AcDbArc
 50
175.5146255464134
 51
247.4456425639255
  0
ARC
  5
3FF
330
1F
100
AcDbEntity
  8
2
  6
Continuous
 62
     3
100
AcDbCircle
 10
124.3924699793531
 20
256.600889783458
 30
0.0
 40
1.999999999999826
100
AcDbArc
 50
51.65505334351961
 51
175.5146255463652
  0
ARC
  5
400
330
1F
100
AcDbEntity
  8
2
  6
Continuous
 62
     3
100
AcDbCircle
 10
110.9633633197052
 20
256.600889783458
 30
0.0
 40
2.000000000000253
100
AcDbArc
 50
4.48537445363526
 51
128.3449466564609
  0
ARC
  5
401
330
1F
100
AcDbEntity
  8
2
  6
Continuous
 62
     3
100
AcDbCircle
 10
113.6505391745202
 20
241.5257448919091
 30
0.0
 40
0.500000000000116
100
AcDbArc
 50
292.5543574362147
 51
4.48537445367757
  0
ARC
  5
402
330
1F
100
AcDbEntity
  8
2
  6
Continuous
 62
     3
100
AcDbCircle
 10
117.6779166495292
 20
231.828826274442
 30
0.0
 40
9.999999999999405
100
AcDbArc
 50
112.554357436149
 51
157.4456425638542
  0
ARC
  5
403
330
1F
100
AcDbEntity
  8
2
  6
Continuous
 62
     3
100
AcDbCircle
 10
107.9809980320611
 20
235.8562037494511
 30
0.0
 40
0.5000000000003207
100
AcDbArc
 50
265.5146255464259
 51
337.4456425637518
  0
ARC
  5
404
330
1F
100
AcDbEntity
  8
2
  6
Continuous
 62
     3
100
AcDbCircle
 10
92.90585314051312
 20
238.5433796042651
 30
0.0
 40
2.000000000000434
100
AcDbArc
 50
141.6550533434976
 51
265.5146255463359
  0
ARC
  5
405
330
1F
100
AcDbEntity
  8
2
  6
Continuous
 62
     3
100
AcDbCircle
 10
117.6779166495292
 20
231.828826274442
 30
0.0
 40
29.00000000000096
100
AcDbArc
 50
171.9264004075587
 51
188.0735995924411
  0
ARC
  5
406
330
1F
100
AcDbEntity
  8
2
  6
Continuous
 62
     3
100
AcDbCircle
 10
93.9157932196192
 20
235.1995072296391
 30
0.0
 40
5.00000000000037
100
AcDbArc
 50
134.0081977511107
 51
171.9264004075548
  0
ARC
  5
407
330
1F
100
AcDbEntity
  8
2
  6
Continuous
 62
     3
100
AcDbCircle
 10
93.9157932196192
 20
228.4581453192441
 30
0.0
 40
5.000000000000709
100
AcDbArc
 50
188.0735995924348
 51
225.9918022488825
  0
ARC
  5
40A
330
1F
100
AcDbEntity
  8
3
  6
Continuous
 62
     3
100
AcDbCircle
 10
254.6540181248336
 20
81.20462040423928
 30
0.0
 40
70.00000000000011
100
AcDbArc
 50
101.2741638648797
 51
110.5554521953945
  0
ARC
  5
40B
330
1F
100
AcDbEntity
  8
3
  6
Continuous
 62
     3
100
AcDbCircle
 10
232.1827381022903
 20
141.1299203546643
 30
0.0
 40
6.000000000000079
100
AcDbArc
 50
110.5554521954059
 51
180.0
  0
ARC
  5
40C
330
1F
100
AcDbEntity
  8
3
  6
Continuous
 62
     3
100
AcDbCircle
 10
228.6827381022896
 20
134.6529293254133
 30
0.0
 40
2.499999999999289
100
AcDbArc
 50
180.0
 51
270.0000000000163
  0
ARC
  5
40D
330
1F
100
AcDbEntity
  8
3
  6
Continuous
 62
     3
100
AcDbCircle
 10
281.6827381022896
 20
134.6529293254133
 30
0.0
 40
2.5
100
AcDbArc
 50
270.0
 51
0.0
  0
ARC
  5
40E
330
1F
100
AcDbEntity
  8
3
  6
Continuous
 62
     3
100
AcDbCircle
 10
278.1827381022896
 20
141.1299203546643
 30
0.0
 40
6.0
100
AcDbArc
 50
0.0
 51
69.44454780460912
  0
ARC
  5
40F
330
1F
100
AcDbEntity
  8
3
  6
Continuous
 62
     3
100
AcDbCircle
 10
255.7114580797446
 20
81.20462040423928
 30
0.0
 40
69.9999999999998
100
AcDbArc
 50
69.44454780460552
 51
78.72583613511881
  0
ARC
  5
410
330
1F
100
AcDbEntity
  8
3
  6
Continuous
 62
     3
100
AcDbCircle
 10
280.8985978777986
 20
134.6529293254133
 30
0.0
 40
2.5
100
AcDbArc
 50
270.0
 51
0.0
  0
ARC
  5
411
330
1F
100
AcDbEntity
  8
3
  6
Continuous
 62
     3
100
AcDbCircle
 10
276.6246917223765
 20
134.6529293254133
 30
0.0
 40
2.5
100
AcDbArc
 50
270.0
 51
0.0
  0
ARC
  5
412
330
1F
100
AcDbEntity
  8
3
  6
Continuous
 62
     3
100
AcDbCircle
 10
268.6440360507455
 20
134.6529293254133
 30
0.0
 40
2.5
100
AcDbArc
 50
270.0
 51
0.0
  0
ARC
  5
413
330
1F
100
AcDbEntity
  8
3
  6
Continuous
 62
     3
100
AcDbCircle
 10
258.3259138460145
 20
134.6529293254133
 30
0.0
 40
2.5
100
AcDbArc
 50
270.0
 51
0.0
  0
ARC
  5
414
330
1F
100
AcDbEntity
  8
3
  6
Continuous
 62
     3
100
AcDbCircle
 10
229.4668783267813
 20
134.6529293254133
 30
0.0
 40
2.5
100
AcDbArc
 50
180.0
 51
269.9999999999837
  0
ARC
  5
415
330
1F
100
AcDbEntity
  8
3
  6
Continuous
 62
     3
100
AcDbCircle
 10
233.7407844822032
 20
134.6529293254133
 30
0.0
 40
2.500000000000796
100
AcDbArc
 50
180.0
 51
270.0
  0
ARC
  5
416
330
1F
100
AcDbEntity
  8
3
  6
Continuous
 62
     3
100
AcDbCircle
 10
241.7214401538336
 20
134.6529293254133
 30
0.0
 40
2.499999999999204
100
AcDbArc
 50
180.0
 51
270.0
  0
ARC
  5
417
330
1F
100
AcDbEntity
  8
3
  6
Continuous
 62
     3
100
AcDbCircle
 10
252.0395623585635
 20
134.6529293254133
 30
0.0
 40
2.5
100
AcDbArc
 50
180.0
 51
270.0
  0
ARC
  5
418
330
1F
100
AcDbEntity
  8
3
  6
Continuous
 62
     3
100
AcDbCircle
 10
266.3664228129945
 20
134.6529293254133
 30
0.0
 40
15.4999999999989
100
AcDbArc
 50
78.72583613511883
 51
90.0
  0
ARC
  5
419
330
1F
100
AcDbEntity
  8
3
  6
Continuous
 62
     3
100
AcDbCircle
 10
243.9990533915846
 20
134.6529293254133
 30
0.0
 40
15.5
100
AcDbArc
 50
90.0
 51
101.2741638648774
  0
ARC
  5
41A
330
1F
100
AcDbEntity
  8
2
  6
Continuous
 62
     3
100
AcDbCircle
 10
255.1827381022896
 20
138.8529293254133
 30
0.0
 40
7.699999999999839
100
AcDbArc
 50
60.85555777221549
 51
119.1444422277785
  0
CIRCLE
  5
41B
330
1F
100
AcDbEntity
  8
2
  6
Continuous
 62
     3
100
AcDbCircle
 10
255.1827381022896
 20
56.5529293254133
 30
0.0
 40
5.800000000000011
  0
CIRCLE
  5
41C
330
1F
100
AcDbEntity
  8
2
  6
Continuous
 62
     3
100
AcDbCircle
 10
255.1827381022896
 20
56.5529293254133
 30
0.0
 40
13.09999999999991
  0
CIRCLE
  5
41D
330
1F
100
AcDbEntity
  8
1
  6
Continuous
 62
     3
100
AcDbCircle
 10
255.1827381022896
 20
56.5529293254133
 30
0.0
 40
6.800000000000011
  0
CIRCLE
  5
41E
330
1F
100
AcDbEntity
  8
1
  6
Continuous
 62
     3
100
AcDbCircle
 10
255.1827381022896
 20
56.5529293254133
 30
0.0
 40
11.5
  0
CIRCLE
  5
41F
330
1F
100
AcDbEntity
  8
1
  6
Continuous
 62
     3
100
AcDbCircle
 10
255.1827381022896
 20
56.5529293254133
 30
0.0
 40
12.25
  0
CIRCLE
  5
420
330
1F
100
AcDbEntity
  8
1
  6
Continuous
 62
     3
100
AcDbCircle
 10
117.6779166495292
 20
231.828826274442
 30
0.0
 40
5.900000000000006
  0
CIRCLE
  5
421
330
1F
100
AcDbEntity
  8
1
  6
Continuous
 62
     3
100
AcDbCircle
 10
255.1827381022896
 20
56.5529293254133
 30
0.0
 40
15.5
  0
LWPOLYLINE
  5
422
330
1F
100
AcDbEntity
  8
3
  6
Continuous
 62
     3
100
AcDbPolyline
 90
        4
 70
     0
 43
0.0
 10
128.8616013602341
 20
150.1529293254123
 10
123.9279166495292
 20
150.1529293254133
 42
0.41421356237323
 10
121.427916649528
 20
147.6529293254133
 10
121.4279166495292
 20
142.1529293254133
  0
LWPOLYLINE
  5
423
330
1F
100
AcDbEntity
  8
3
  6
Continuous
 62
     3
100
AcDbPolyline
 90
        4
 70
     0
 43
0.0
 10
106.4942319388242
 20
150.1529293254133
 10
111.4279166495292
 20
150.1529293254133
 42
-0.41421356237284
 10
113.9279166495292
 20
147.6529293254133
 10
113.9279166495292
 20
142.1529293254133
  0
LWPOLYLINE
  5
424
330
1F
100
AcDbEntity
  8
3
  6
DOTTED
 62
     6
100
AcDbPolyline
 90
        4
 70
     0
 43
0.0
 10
121.4279154556191
 20
139.8218072129464
 42
0.2318394447719
 10
120.3317545669472
 20
140.7058098984934
 42
0.11195535934319
 10
115.0240763442913
 20
140.705794639704
 42
0.23187476391119
 10
113.9279001968299
 20
139.8217919541574
  0
LWPOLYLINE
  5
425
330
1F
100
AcDbEntity
  8
3
  6
Continuous
 62
     3
100
AcDbPolyline
 90
        4
 70
     0
 43
0.0
 10
266.3664228129945
 20
150.1529293254123
 10
261.4327381022896
 20
150.1529293254133
 42
0.41421356237323
 10
258.9327381022884
 20
147.6529293254133
 10
258.9327381022896
 20
142.1529293254133
  0
LWPOLYLINE
  5
426
330
1F
100
AcDbEntity
  8
3
  6
Continuous
 62
     3
100
AcDbPolyline
 90
        4
 70
     0
 43
0.0
 10
243.9990533915846
 20
150.1529293254133
 10
248.9327381022896
 20
150.1529293254133
 42
-0.41421356237284
 10
251.4327381022896
 20
147.6529293254133
 10
251.4327381022896
 20
142.1529293254133
  0
LINE
  5
427
330
1F
100
AcDbEntity
  8
1
 62
     4
100
AcDbLine
 10
145.974796444149
 20
69.6529293254132
 30
0.0
 11
146.3033761389644
 21
73.36541117988527
 31
0.0
  0
LINE
  5
428
330
1F
100
AcDbEntity
  8
1
 62
     4
100
AcDbLine
 10
145.974796444149
 20
69.6529293254132
 30
0.0
 11
148.1155957342629
 21
72.70374307506707
 31
0.0
  0
LEADER
  5
429
330
1F
100
AcDbEntity
  8
1
  6
Continuous
 62
     4
100
AcDbLeader
  3
Standard
 71
     0
 76
     3
 10
145.974796444149
 20
69.6529293254132
 30
0.0
 10
149.9171727606415
 20
80.45056572463344
 30
0.0
 10
167.5555210030451
 20
80.45056572463344
 30
0.0
  0
LINE
  5
42A
330
1F
100
AcDbEntity
  8
1
 62
     4
100
AcDbLine
 10
200.8779166495293
 20
56.5529293254133
 30
0.0
 11
203.7484237153284
 21
54.17581441005331
 31
0.0
  0
LINE
  5
42B
330
1F
100
AcDbEntity
  8
1
 62
     4
100
AcDbLine
 10
200.8779166495293
 20
56.5529293254133
 30
0.0
 11
202.175291232574
 21
53.05903388809711
 31
0.0
  0
LEADER
  5
42C
330
1F
100
AcDbEntity
  8
1
  6
Continuous
 62
     4
100
AcDbLeader
  3
Standard
 71
     0
 76
     3
 10
200.8779166495293
 20
56.5529293254133
 30
0.0
 10
209.9630656776886
 20
43.75530009937098
 30
0.0
 10
228.0015053995477
 20
43.75530009937098
 30
0.0
  0
LINE
  5
42D
330
1F
100
AcDbEntity
  8
1
 62
     4
100
AcDbLine
 10
90.78158942194551
 20
69.6529293254133
 30
0.0
 11
88.2215500144499
 21
72.36156078201623
 31
0.0
  0
LINE
  5
42E
330
1F
100
AcDbEntity
  8
1
 62
     4
100
AcDbLine
 10
90.78158942194551
 20
69.6529293254133
 30
0.0
 11
89.91884598866652
 21
73.27869268006889
 31
0.0
  0
LEADER
  5
42F
330
1F
100
AcDbEntity
  8
1
  6
Continuous
 62
     4
100
AcDbLeader
  3
Standard
 71
     0
 76
     3
 10
90.78158942194551
 20
69.6529293254133
 30
0.0
 10
85.91717276064162
 20
78.6552929261932
 30
0.0
 10
69.5555210030451
 20
78.6552929261932
 30
0.0
  0
ENDSEC
  0
SECTION
  2
OBJECTS
  0
DICTIONARY
  5
C
330
0
100
AcDbDictionary
281
     1
  3
ACAD_GROUP
350
D
  3
ACAD_LAYOUT
350
1A
  3
ACAD_MATERIAL
350
3B
  3
ACAD_MLEADERSTYLE
350
432
  3
ACAD_MLINESTYLE
350
17
  3
ACAD_PLOTSETTINGS
350
19
  3
ACAD_PLOTSTYLENAME
350
E
  3
ACAD_VISUALSTYLE
350
2A
  3
AcDbVariableDictionary
350
430
  0
DICTIONARY
  5
D
102
{ACAD_REACTORS
330
C
102
}
330
C
100
AcDbDictionary
281
     1
  0
DICTIONARY
  5
1A
102
{ACAD_REACTORS
330
C
102
}
330
C
100
AcDbDictionary
281
     1
  3
Layout1
350
1E
  3
Layout2
350
26
  3
Model
350
22
  0
DICTIONARY
  5
3B
102
{ACAD_REACTORS
330
C
102
}
330
C
100
AcDbDictionary
281
     1
  3
ByBlock
350
3D
  3
ByLayer
350
3C
  3
Global
350
3E
  0
DICTIONARY
  5
432
102
{ACAD_REACTORS
330
C
102
}
330
C
100
AcDbDictionary
281
     1
  0
DICTIONARY
  5
17
102
{ACAD_REACTORS
330
C
102
}
330
C
100
AcDbDictionary
281
     1
  3
Standard
350
18
  0
DICTIONARY
  5
19
102
{ACAD_REACTORS
330
C
102
}
330
C
100
AcDbDictionary
281
     1
  0
ACDBDICTIONARYWDFLT
  5
E
102
{ACAD_REACTORS
330
C
102
}
330
C
100
AcDbDictionary
281
     1
  3
Normal
350
F
100
AcDbDictionaryWithDefault
340
F
  0
DICTIONARY
  5
2A
102
{ACAD_REACTORS
330
C
102
}
330
C
100
AcDbDictionary
281
     1
  3
2dWireframe
350
2F
  3
3D Hidden
350
31
  3
3dWireframe
350
30
  3
Basic
350
32
  3
Brighten
350
36
  3
ColorChange
350
3A
  3
Conceptual
350
34
  3
Dim
350
35
  3
Facepattern
350
39
  3
Flat
350
2B
  3
FlatWithEdges
350
2C
  3
Gouraud
350
2D
  3
GouraudWithEdges
350
2E
  3
Linepattern
350
38
  3
Realistic
350
33
  3
Thicken
350
37
  0
DICTIONARY
  5
430
102
{ACAD_REACTORS
330
C
102
}
330
C
100
AcDbDictionary
281
     1
  3
DIMASSOC
350
433
  3
HIDETEXT
350
434
  0
LAYOUT
  5
1E
102
{ACAD_REACTORS
330
1A
102
}
330
1A
100
AcDbPlotSettings
  1

  2
none_device
  4

  6

 40
0.0
 41
0.0
 42
0.0
 43
0.0
 44
0.0
 45
0.0
 46
0.0
 47
0.0
 48
0.0
 49
0.0
140
0.0
141
0.0
142
1.0
143
1.0
 70
   688
 72
     0
 73
     0
 74
     5
  7

 75
    16
147
1.0
148
0.0
149
0.0
100
AcDbLayout
  1
Layout1
 70
     1
 71
     1
 10
0.0
 20
0.0
 11
12.0
 21
9.0
 12
0.0
 22
0.0
 32
0.0
 14
1.00000000000000E+20
 24
1.00000000000000E+20
 34
1.00000000000000E+20
 15
-1.00000000000000E+20
 25
-1.00000000000000E+20
 35
-1.00000000000000E+20
146
0.0
 13
0.0
 23
0.0
 33
0.0
 16
1.0
 26
0.0
 36
0.0
 17
0.0
 27
1.0
 37
0.0
 76
     0
330
1B
  0
LAYOUT
  5
26
102
{ACAD_REACTORS
330
1A
102
}
330
1A
100
AcDbPlotSettings
  1

  2
none_device
  4

  6

 40
0.0
 41
0.0
 42
0.0
 43
0.0
 44
0.0
 45
0.0
 46
0.0
 47
0.0
 48
0.0
 49
0.0
140
0.0
141
0.0
142
1.0
143
1.0
 70
   688
 72
     0
 73
     0
 74
     5
  7

 75
    16
147
1.0
148
0.0
149
0.0
100
AcDbLayout
  1
Layout2
 70
     1
 71
     2
 10
0.0
 20
0.0
 11
0.0
 21
0.0
 12
0.0
 22
0.0
 32
0.0
 14
0.0
 24
0.0
 34
0.0
 15
0.0
 25
0.0
 35
0.0
146
0.0
 13
0.0
 23
0.0
 33
0.0
 16
1.0
 26
0.0
 36
0.0
 17
0.0
 27
1.0
 37
0.0
 76
     0
330
23
  0
LAYOUT
  5
22
102
{ACAD_REACTORS
330
1A
102
}
330
1A
100
AcDbPlotSettings
  1

  2
none_device
  4

  6

 40
0.0
 41
0.0
 42
0.0
 43
0.0
 44
0.0
 45
0.0
 46
0.0
 47
0.0
 48
0.0
 49
0.0
140
0.0
141
0.0
142
1.0
143
1.0
 70
  1712
 72
     0
 73
     0
 74
     0
  7

 75
     0
147
1.0
148
0.0
149
0.0
100
AcDbLayout
  1
Model
 70
     1
 71
     0
 10
0.0
 20
0.0
 11
12.0
 21
9.0
 12
0.0
 22
0.0
 32
0.0
 14
69.5555210030451
 24
14.7449937651971
 34
0.0
 15
284.1827381022896
 25
265.328826274442
 35
0.0
146
0.0
 13
0.0
 23
0.0
 33
0.0
 16
1.0
 26
0.0
 36
0.0
 17
0.0
 27
1.0
 37
0.0
 76
     0
330
1F
331
29
  0
MATERIAL
  5
3D
102
{ACAD_REACTORS
330
3B
102
}
102
{ACAD_XDICTIONARY
360
457
102
}
330
3B
100
AcDbMaterial
  1
ByBlock
  0
MATERIAL
  5
3C
102
{ACAD_REACTORS
330
3B
102
}
102
{ACAD_XDICTIONARY
360
455
102
}
330
3B
100
AcDbMaterial
  1
ByLayer
  0
MATERIAL
  5
3E
102
{ACAD_REACTORS
330
3B
102
}
102
{ACAD_XDICTIONARY
360
459
102
}
330
3B
100
AcDbMaterial
  1
Global
  0
MLINESTYLE
  5
18
102
{ACAD_REACTORS
330
17
102
}
330
17
100
AcDbMlineStyle
  2
Standard
 70
     0
  3

 62
   256
 51
90.0
 52
90.0
 71
     2
 49
0.5
 62
   256
  6
BYLAYER
 49
-0.5
 62
   256
  6
BYLAYER
  0
ACDBPLACEHOLDER
  5
F
102
{ACAD_REACTORS
330
E
102
}
330
E
  0
VISUALSTYLE
  5
2F
102
{ACAD_REACTORS
330
2A
102
}
102
{ACAD_XDICTIONARY
360
43D
102
}
330
2A
100
AcDbVisualStyle
  2
2dWireframe
 70
     4
 71
     0
 72
     2
 73
     0
 90
        0
 40
-0.6
 41
-30.0
 62
     5
 63
     7
 74
     1
 91
        4
 64
     7
 65
   257
 75
     1
175
     1
 42
1.0
 92
        0
 66
   257
 43
1.0
 76
     1
 77
     6
 78
     2
 67
     7
 79
     5
170
     0
171
     0
290
     0
174
     0
 93
        1
 44
0.0
173
     0
291
     0
 45
0.0
1001
ACAD
1000
AcDbSavedByObjectVersion
1070
     0
  0
VISUALSTYLE
  5
31
102
{ACAD_REACTORS
330
2A
102
}
102
{ACAD_XDICTIONARY
360
441
102
}
330
2A
100
AcDbVisualStyle
  2
3D Hidden
 70
     6
 71
     1
 72
     2
 73
     2
 90
        0
 40
-0.6
 41
-30.0
 62
     5
 63
     7
 74
     2
 91
        2
 64
     7
 65
   257
 75
     2
175
     1
 42
40.0
 92
        0
 66
   257
 43
1.0
 76
     1
 77
     6
 78
     2
 67
     7
 79
     3
170
     0
171
     0
290
     0
174
     0
 93
        1
 44
0.0
173
     0
291
     0
 45
0.0
1001
ACAD
1000
AcDbSavedByObjectVersion
1070
     0
  0
VISUALSTYLE
  5
30
102
{ACAD_REACTORS
330
2A
102
}
102
{ACAD_XDICTIONARY
360
43F
102
}
330
2A
100
AcDbVisualStyle
  2
3dWireframe
 70
     5
 71
     0
 72
     2
 73
     0
 90
        0
 40
-0.6
 41
-30.0
 62
     5
 63
     7
 74
     1
 91
        4
 64
     7
 65
   257
 75
     1
175
     1
 42
1.0
 92
        0
 66
   257
 43
1.0
 76
     1
 77
     6
 78
     2
 67
     7
 79
     5
170
     0
171
     0
290
     0
174
     0
 93
        1
 44
0.0
173
     0
291
     0
 45
0.0
1001
ACAD
1000
AcDbSavedByObjectVersion
1070
     0
  0
VISUALSTYLE
  5
32
102
{ACAD_REACTORS
330
2A
102
}
102
{ACAD_XDICTIONARY
360
443
102
}
330
2A
100
AcDbVisualStyle
  2
Basic
 70
     7
 71
     1
 72
     0
 73
     1
 90
        0
 40
-0.6
 41
-30.0
 62
     5
 63
     7
 74
     0
 91
        4
 64
     7
 65
   257
 75
     1
175
     1
 42
1.0
 92
        8
 66
     7
 43
1.0
 76
     1
 77
     6
 78
     2
 67
     7
 79
     5
170
     0
171
     0
290
     0
174
     0
 93
        1
 44
0.0
173
     0
291
     1
 45
0.0
1001
ACAD
1000
AcDbSavedByObjectVersion
1070
     0
  0
VISUALSTYLE
  5
36
102
{ACAD_REACTORS
330
2A
102
}
102
{ACAD_XDICTIONARY
360
44B
102
}
330
2A
100
AcDbVisualStyle
  2
Brighten
 70
    12
 71
     2
 72
     2
 73
     0
 90
        0
 40
-0.6
 41
-30.0
 62
     5
 63
     7
 74
     1
 91
        4
 64
     7
 65
   257
 75
     1
175
     1
 42
1.0
 92
        8
 66
     7
 43
1.0
 76
     1
 77
     6
 78
     2
 67
     7
 79
     5
170
     0
171
     0
290
     0
174
     0
 93
        1
 44
50.0
173
     0
291
     1
 45
0.0
1001
ACAD
1000
AcDbSavedByObjectVersion
1070
     0
  0
VISUALSTYLE
  5
3A
102
{ACAD_REACTORS
330
2A
102
}
102
{ACAD_XDICTIONARY
360
453
102
}
330
2A
100
AcDbVisualStyle
  2
ColorChange
 70
    16
 71
     2
 72
     2
 73
     3
 90
        0
 40
-0.6
 41
-30.0
 62
     5
 63
     8
 74
     1
 91
        4
 64
     7
 65
   257
 75
     1
175
     1
 42
1.0
 92
        8
 66
     8
 43
1.0
 76
     1
 77
     6
 78
     2
 67
     7
 79
     5
170
     0
171
     0
290
     0
174
     0
 93
        1
 44
0.0
173
     0
291
     1
 45
0.0
1001
ACAD
1000
AcDbSavedByObjectVersion
1070
     0
  0
VISUALSTYLE
  5
34
102
{ACAD_REACTORS
330
2A
102
}
102
{ACAD_XDICTIONARY
360
447
102
}
330
2A
100
AcDbVisualStyle
  2
Conceptual
 70
     9
 71
     3
 72
     2
 73
     0
 90
        0
 40
-0.6
 41
-30.0
 62
     5
 63
     7
 74
     2
 91
        2
 64
     7
 65
   257
 75
     1
175
     1
 42
40.0
 92
        8
 66
     7
 43
1.0
 76
     1
 77
     6
 78
     2
 67
     7
 79
     3
170
     0
171
     0
290
     0
174
     0
 93
        1
 44
0.0
173
     0
291
     0
 45
0.0
1001
ACAD
1000
AcDbSavedByObjectVersion
1070
     0
  0
VISUALSTYLE
  5
35
102
{ACAD_REACTORS
330
2A
102
}
102
{ACAD_XDICTIONARY
360
449
102
}
330
2A
100
AcDbVisualStyle
  2
Dim
 70
    11
 71
     2
 72
     2
 73
     0
 90
        0
 40
-0.6
 41
-30.0
 62
     5
 63
     7
 74
     1
 91
        4
 64
     7
 65
   257
 75
     1
175
     1
 42
1.0
 92
        8
 66
     7
 43
1.0
 76
     1
 77
     6
 78
     2
 67
     7
 79
     5
170
     0
171
     0
290
     0
174
     0
 93
        1
 44
-50.0
173
     0
291
     1
 45
0.0
1001
ACAD
1000
AcDbSavedByObjectVersion
1070
     0
  0
VISUALSTYLE
  5
39
102
{ACAD_REACTORS
330
2A
102
}
102
{ACAD_XDICTIONARY
360
451
102
}
330
2A
100
AcDbVisualStyle
  2
Facepattern
 70
    15
 71
     2
 72
     2
 73
     0
 90
        0
 40
-0.6
 41
-30.0
 62
     5
 63
     7
 74
     1
 91
        4
 64
     7
 65
   257
 75
     1
175
     1
 42
1.0
 92
        8
 66
     7
 43
1.0
 76
     1
 77
     6
 78
     2
 67
     7
 79
     5
170
     0
171
     0
290
     0
174
     0
 93
        1
 44
0.0
173
     0
291
     1
 45
0.0
1001
ACAD
1000
AcDbSavedByObjectVersion
1070
     0
  0
VISUALSTYLE
  5
2B
102
{ACAD_REACTORS
330
2A
102
}
102
{ACAD_XDICTIONARY
360
435
102
}
330
2A
100
AcDbVisualStyle
  2
Flat
 70
     0
 71
     2
 72
     1
 73
     1
 90
        2
 40
-0.6
 41
30.0
 62
     5
 63
     7
 74
     0
 91
        4
 64
     7
 65
   257
 75
     1
175
     1
 42
1.0
 92
        8
 66
     7
 43
1.0
 76
     1
 77
     6
 78
     2
 67
     7
 79
     5
170
     0
171
     0
290
     0
174
     0
 93
       13
 44
0.0
173
     0
291
     1
 45
0.0
1001
ACAD
1000
AcDbSavedByObjectVersion
1070
     0
  0
VISUALSTYLE
  5
2C
102
{ACAD_REACTORS
330
2A
102
}
102
{ACAD_XDICTIONARY
360
437
102
}
330
2A
100
AcDbVisualStyle
  2
FlatWithEdges
 70
     1
 71
     2
 72
     1
 73
     1
 90
        2
 40
-0.6
 41
30.0
 62
     5
 63
     7
 74
     1
 91
        4
 64
     7
 65
   257
 75
     1
175
     1
 42
1.0
 92
        0
 66
   257
 43
1.0
 76
     1
 77
     6
 78
     2
 67
     7
 79
     5
170
     0
171
     0
290
     0
174
     0
 93
       13
 44
0.0
173
     0
291
     1
 45
0.0
1001
ACAD
1000
AcDbSavedByObjectVersion
1070
     0
  0
VISUALSTYLE
  5
2D
102
{ACAD_REACTORS
330
2A
102
}
102
{ACAD_XDICTIONARY
360
439
102
}
330
2A
100
AcDbVisualStyle
  2
Gouraud
 70
     2
 71
     2
 72
     2
 73
     1
 90
        2
 40
-0.6
 41
30.0
 62
     5
 63
     7
 74
     0
 91
        4
 64
     7
 65
   257
 75
     1
175
     1
 42
1.0
 92
        0
 66
     7
 43
1.0
 76
     1
 77
     6
 78
     2
 67
     7
 79
     5
170
     0
171
     0
290
     0
174
     0
 93
       13
 44
0.0
173
     0
291
     1
 45
0.0
1001
ACAD
1000
AcDbSavedByObjectVersion
1070
     0
  0
VISUALSTYLE
  5
2E
102
{ACAD_REACTORS
330
2A
102
}
102
{ACAD_XDICTIONARY
360
43B
102
}
330
2A
100
AcDbVisualStyle
  2
GouraudWithEdges
 70
     3
 71
     2
 72
     2
 73
     1
 90
        2
 40
-0.6
 41
30.0
 62
     5
 63
     7
 74
     1
 91
        4
 64
     7
 65
   257
 75
     1
175
     1
 42
1.0
 92
        0
 66
   257
 43
1.0
 76
     1
 77
     6
 78
     2
 67
     7
 79
     5
170
     0
171
     0
290
     0
174
     0
 93
       13
 44
0.0
173
     0
291
     1
 45
0.0
1001
ACAD
1000
AcDbSavedByObjectVersion
1070
     0
  0
VISUALSTYLE
  5
38
102
{ACAD_REACTORS
330
2A
102
}
102
{ACAD_XDICTIONARY
360
44F
102
}
330
2A
100
AcDbVisualStyle
  2
Linepattern
 70
    14
 71
     2
 72
     2
 73
     0
 90
        0
 40
-0.6
 41
-30.0
 62
     5
 63
     7
 74
     1
 91
        4
 64
     7
 65
   257
 75
     7
175
     7
 42
1.0
 92
        8
 66
     7
 43
1.0
 76
     1
 77
     6
 78
     2
 67
     7
 79
     5
170
     0
171
     0
290
     0
174
     0
 93
        1
 44
0.0
173
     0
291
     1
 45
0.0
1001
ACAD
1000
AcDbSavedByObjectVersion
1070
     0
  0
VISUALSTYLE
  5
33
102
{ACAD_REACTORS
330
2A
102
}
102
{ACAD_XDICTIONARY
360
445
102
}
330
2A
100
AcDbVisualStyle
  2
Realistic
 70
     8
 71
     2
 72
     2
 73
     0
 90
        0
 40
-0.6
 41
-30.0
 62
     5
 63
     7
 74
     1
 91
        0
 64
     7
 65
   257
 75
     1
175
     1
 42
1.0
 92
        8
 66
     8
 43
1.0
 76
     1
 77
     6
 78
     2
 67
     7
 79
     5
170
     0
171
     0
290
     0
174
     0
 93
       13
 44
0.0
173
     0
291
     0
 45
0.0
1001
ACAD
1000
AcDbSavedByObjectVersion
1070
     0
  0
VISUALSTYLE
  5
37
102
{ACAD_REACTORS
330
2A
102
}
102
{ACAD_XDICTIONARY
360
44D
102
}
330
2A
100
AcDbVisualStyle
  2
Thicken
 70
    13
 71
     2
 72
     2
 73
     0
 90
        0
 40
-0.6
 41
-30.0
 62
     5
 63
     7
 74
     1
 91
        4
 64
     7
 65
   257
 75
     1
175
     1
 42
1.0
 92
       12
 66
     7
 43
1.0
 76
     1
 77
     6
 78
     2
 67
     7
 79
     5
170
     0
171
     0
290
     0
174
     0
 93
        1
 44
0.0
173
     0
291
     1
 45
0.0
1001
ACAD
1000
AcDbSavedByObjectVersion
1070
     0
  0
DICTIONARYVAR
  5
433
102
{ACAD_REACTORS
330
430
102
}
330
430
100
DictionaryVariables
280
     0
  1
2
  0
DICTIONARYVAR
  5
434
102
{ACAD_REACTORS
330
430
102
}
330
430
100
DictionaryVariables
280
     0
  1
1
  0
DICTIONARY
  5
457
330
3D
100
AcDbDictionary
280
     1
281
     1
  3
ACAD_XREC_ROUNDTRIP
360
458
  0
DICTIONARY
  5
455
330
3C
100
AcDbDictionary
280
     1
281
     1
  3
ACAD_XREC_ROUNDTRIP
360
456
  0
DICTIONARY
  5
459
330
3E
100
AcDbDictionary
280
     1
281
     1
  3
ACAD_XREC_ROUNDTRIP
360
45A
  0
DICTIONARY
  5
43D
330
2F
100
AcDbDictionary
280
     1
281
     1
  3
ACAD_XREC_ROUNDTRIP
360
43E
  0
DICTIONARY
  5
441
330
31
100
AcDbDictionary
280
     1
281
     1
  3
ACAD_XREC_ROUNDTRIP
360
442
  0
DICTIONARY
  5
43F
330
30
100
AcDbDictionary
280
     1
281
     1
  3
ACAD_XREC_ROUNDTRIP
360
440
  0
DICTIONARY
  5
443
330
32
100
AcDbDictionary
280
     1
281
     1
  3
ACAD_XREC_ROUNDTRIP
360
444
  0
DICTIONARY
  5
44B
330
36
100
AcDbDictionary
280
     1
281
     1
  3
ACAD_XREC_ROUNDTRIP
360
44C
  0
DICTIONARY
  5
453
330
3A
100
AcDbDictionary
280
     1
281
     1
  3
ACAD_XREC_ROUNDTRIP
360
454
  0
DICTIONARY
  5
447
330
34
100
AcDbDictionary
280
     1
281
     1
  3
ACAD_XREC_ROUNDTRIP
360
448
  0
DICTIONARY
  5
449
330
35
100
AcDbDictionary
280
     1
281
     1
  3
ACAD_XREC_ROUNDTRIP
360
44A
  0
DICTIONARY
  5
451
330
39
100
AcDbDictionary
280
     1
281
     1
  3
ACAD_XREC_ROUNDTRIP
360
452
  0
DICTIONARY
  5
435
330
2B
100
AcDbDictionary
280
     1
281
     1
  3
ACAD_XREC_ROUNDTRIP
360
436
  0
DICTIONARY
  5
437
330
2C
100
AcDbDictionary
280
     1
281
     1
  3
ACAD_XREC_ROUNDTRIP
360
438
  0
DICTIONARY
  5
439
330
2D
100
AcDbDictionary
280
     1
281
     1
  3
ACAD_XREC_ROUNDTRIP
360
43A
  0
DICTIONARY
  5
43B
330
2E
100
AcDbDictionary
280
     1
281
     1
  3
ACAD_XREC_ROUNDTRIP
360
43C
  0
DICTIONARY
  5
44F
330
38
100
AcDbDictionary
280
     1
281
     1
  3
ACAD_XREC_ROUNDTRIP
360
450
  0
DICTIONARY
  5
445
330
33
100
AcDbDictionary
280
     1
281
     1
  3
ACAD_XREC_ROUNDTRIP
360
446
  0
DICTIONARY
  5
44D
330
37
100
AcDbDictionary
280
     1
281
     1
  3
ACAD_XREC_ROUNDTRIP
360
44E
  0
XRECORD
  5
458
102
{ACAD_REACTORS
330
457
102
}
330
457
100
AcDbXrecord
280
     1
102
MATERIAL
148
0.0
149
0.0
149
0.0
 93
        0
 94
      127
282
     0
 72
     1
 77
     1
171
     1
175
     1
179
     1
273
     0
  0
XRECORD
  5
456
102
{ACAD_REACTORS
330
455
102
}
330
455
100
AcDbXrecord
280
     1
102
MATERIAL
148
0.0
149
0.0
149
0.0
 93
        0
 94
      127
282
     0
 72
     1
 77
     1
171
     1
175
     1
179
     1
273
     0
  0
XRECORD
  5
45A
102
{ACAD_REACTORS
330
459
102
}
330
459
100
AcDbXrecord
280
     1
102
MATERIAL
148
0.0
149
0.0
149
0.0
 93
        0
 94
      127
282
     0
 72
     1
 77
     1
171
     1
175
     1
179
     1
273
     0
  0
XRECORD
  5
43E
102
{ACAD_REACTORS
330
43D
102
}
330
43D
100
AcDbXrecord
280
     1
102
RTVSPropertyOp0
 70
     1
102
RTVSPropertyOp1
 70
     1
102
RTVSPropertyOp2
 70
     1
102
RTVSPropertyOp3
 70
     1
102
RTVSPropertyOp4
 70
     1
102
RTVSPropertyOp5
 70
     1
102
RTVSPropertyOp6
 70
     1
102
RTVSPropertyOp7
 70
     1
102
RTVSPropertyOp8
 70
     1
102
RTVSPropertyOp9
 70
     1
102
RTVSPropertyOp10
 70
     1
102
RTVSPropertyOp11
 70
     1
102
RTVSPropertyOp12
 70
     1
102
RTVSPropertyOp13
 70
     1
102
RTVSPropertyOp14
 70
     1
102
RTVSPropertyOp15
 70
     1
102
RTVSPropertyOp16
 70
     1
102
RTVSPropertyOp17
 70
     1
102
RTVSPropertyOp18
 70
     1
102
RTVSPropertyOp19
 70
     1
102
RTVSPropertyOp20
 70
     1
102
RTVSPropertyOp21
 70
     1
102
RTVSPropertyOp22
 70
     1
102
RTVSPropertyOp23
 70
     1
102
RTVSPropertyOp24
 70
     1
102
RTVSPropertyOp25
 70
     1
102
RTVSPropertyOp26
 70
     1
102
RTVSPropertyOp27
 70
     1
  0
XRECORD
  5
442
102
{ACAD_REACTORS
330
441
102
}
330
441
100
AcDbXrecord
280
     1
102
RTVSPropertyOp0
 70
     1
102
RTVSPropertyOp1
 70
     1
102
RTVSPropertyOp2
 70
     1
102
RTVSPropertyOp3
 70
     1
102
RTVSPropertyOp4
 70
     1
102
RTVSPropertyOp5
 70
     1
102
RTVSPropertyOp6
 70
     1
102
RTVSPropertyOp7
 70
     1
102
RTVSPropertyOp8
 70
     1
102
RTVSPropertyOp9
 70
     1
102
RTVSPropertyOp10
 70
     1
102
RTVSPropertyOp11
 70
     1
102
RTVSPropertyOp12
 70
     1
102
RTVSPropertyOp13
 70
     1
102
RTVSPropertyOp14
 70
     1
102
RTVSPropertyOp15
 70
     1
102
RTVSPropertyOp16
 70
     1
102
RTVSPropertyOp17
 70
     1
102
RTVSPropertyOp18
 70
     1
102
RTVSPropertyOp19
 70
     1
102
RTVSPropertyOp20
 70
     1
102
RTVSPropertyOp21
 70
     1
102
RTVSPropertyOp22
 70
     1
102
RTVSPropertyOp23
 70
     1
102
RTVSPropertyOp24
 70
     1
102
RTVSPropertyOp25
 70
     1
102
RTVSPropertyOp26
 70
     1
102
RTVSPropertyOp27
 70
     1
  0
XRECORD
  5
440
102
{ACAD_REACTORS
330
43F
102
}
330
43F
100
AcDbXrecord
280
     1
102
RTVSPropertyOp0
 70
     1
102
RTVSPropertyOp1
 70
     1
102
RTVSPropertyOp2
 70
     1
102
RTVSPropertyOp3
 70
     1
102
RTVSPropertyOp4
 70
     1
102
RTVSPropertyOp5
 70
     1
102
RTVSPropertyOp6
 70
     1
102
RTVSPropertyOp7
 70
     1
102
RTVSPropertyOp8
 70
     1
102
RTVSPropertyOp9
 70
     1
102
RTVSPropertyOp10
 70
     1
102
RTVSPropertyOp11
 70
     1
102
RTVSPropertyOp12
 70
     1
102
RTVSPropertyOp13
 70
     1
102
RTVSPropertyOp14
 70
     1
102
RTVSPropertyOp15
 70
     1
102
RTVSPropertyOp16
 70
     1
102
RTVSPropertyOp17
 70
     1
102
RTVSPropertyOp18
 70
     1
102
RTVSPropertyOp19
 70
     1
102
RTVSPropertyOp20
 70
     1
102
RTVSPropertyOp21
 70
     1
102
RTVSPropertyOp22
 70
     1
102
RTVSPropertyOp23
 70
     1
102
RTVSPropertyOp24
 70
     1
102
RTVSPropertyOp25
 70
     1
102
RTVSPropertyOp26
 70
     1
102
RTVSPropertyOp27
 70
     1
  0
XRECORD
  5
444
102
{ACAD_REACTORS
330
443
102
}
330
443
100
AcDbXrecord
280
     1
102
RTVSPropertyOp0
 70
     1
102
RTVSPropertyOp1
 70
     1
102
RTVSPropertyOp2
 70
     1
102
RTVSPropertyOp3
 70
     1
102
RTVSPropertyOp4
 70
     1
102
RTVSPropertyOp5
 70
     1
102
RTVSPropertyOp6
 70
     1
102
RTVSPropertyOp7
 70
     1
102
RTVSPropertyOp8
 70
     1
102
RTVSPropertyOp9
 70
     1
102
RTVSPropertyOp10
 70
     1
102
RTVSPropertyOp11
 70
     1
102
RTVSPropertyOp12
 70
     1
102
RTVSPropertyOp13
 70
     1
102
RTVSPropertyOp14
 70
     1
102
RTVSPropertyOp15
 70
     1
102
RTVSPropertyOp16
 70
     1
102
RTVSPropertyOp17
 70
     1
102
RTVSPropertyOp18
 70
     1
102
RTVSPropertyOp19
 70
     1
102
RTVSPropertyOp20
 70
     1
102
RTVSPropertyOp21
 70
     1
102
RTVSPropertyOp22
 70
     1
102
RTVSPropertyOp23
 70
     1
102
RTVSPropertyOp24
 70
     1
102
RTVSPropertyOp25
 70
     1
102
RTVSPropertyOp26
 70
     1
102
RTVSPropertyOp27
 70
     1
  0
XRECORD
  5
44C
102
{ACAD_REACTORS
330
44B
102
}
330
44B
100
AcDbXrecord
280
     1
102
RTVSPropertyOp0
 70
     1
102
RTVSPropertyOp1
 70
     1
102
RTVSPropertyOp2
 70
     1
102
RTVSPropertyOp3
 70
     1
102
RTVSPropertyOp4
 70
     1
102
RTVSPropertyOp5
 70
     1
102
RTVSPropertyOp6
 70
     1
102
RTVSPropertyOp7
 70
     1
102
RTVSPropertyOp8
 70
     1
102
RTVSPropertyOp9
 70
     1
102
RTVSPropertyOp10
 70
     1
102
RTVSPropertyOp11
 70
     1
102
RTVSPropertyOp12
 70
     1
102
RTVSPropertyOp13
 70
     1
102
RTVSPropertyOp14
 70
     1
102
RTVSPropertyOp15
 70
     1
102
RTVSPropertyOp16
 70
     1
102
RTVSPropertyOp17
 70
     1
102
RTVSPropertyOp18
 70
     1
102
RTVSPropertyOp19
 70
     1
102
RTVSPropertyOp20
 70
     1
102
RTVSPropertyOp21
 70
     1
102
RTVSPropertyOp22
 70
     1
102
RTVSPropertyOp23
 70
     1
102
RTVSPropertyOp24
 70
     1
102
RTVSPropertyOp25
 70
     1
102
RTVSPropertyOp26
 70
     1
102
RTVSPropertyOp27
 70
     1
  0
XRECORD
  5
454
102
{ACAD_REACTORS
330
453
102
}
330
453
100
AcDbXrecord
280
     1
102
RTVSPropertyOp0
 70
     1
102
RTVSPropertyOp1
 70
     1
102
RTVSPropertyOp2
 70
     1
102
RTVSPropertyOp3
 70
     1
102
RTVSPropertyOp4
 70
     1
102
RTVSPropertyOp5
 70
     1
102
RTVSPropertyOp6
 70
     1
102
RTVSPropertyOp7
 70
     1
102
RTVSPropertyOp8
 70
     1
102
RTVSPropertyOp9
 70
     1
102
RTVSPropertyOp10
 70
     1
102
RTVSPropertyOp11
 70
     1
102
RTVSPropertyOp12
 70
     1
102
RTVSPropertyOp13
 70
     1
102
RTVSPropertyOp14
 70
     1
102
RTVSPropertyOp15
 70
     1
102
RTVSPropertyOp16
 70
     1
102
RTVSPropertyOp17
 70
     1
102
RTVSPropertyOp18
 70
     1
102
RTVSPropertyOp19
 70
     1
102
RTVSPropertyOp20
 70
     1
102
RTVSPropertyOp21
 70
     1
102
RTVSPropertyOp22
 70
     1
102
RTVSPropertyOp23
 70
     1
102
RTVSPropertyOp24
 70
     1
102
RTVSPropertyOp25
 70
     1
102
RTVSPropertyOp26
 70
     1
102
RTVSPropertyOp27
 70
     1
  0
XRECORD
  5
448
102
{ACAD_REACTORS
330
447
102
}
330
447
100
AcDbXrecord
280
     1
102
RTVSPropertyOp0
 70
     1
102
RTVSPropertyOp1
 70
     1
102
RTVSPropertyOp2
 70
     1
102
RTVSPropertyOp3
 70
     1
102
RTVSPropertyOp4
 70
     1
102
RTVSPropertyOp5
 70
     1
102
RTVSPropertyOp6
 70
     1
102
RTVSPropertyOp7
 70
     1
102
RTVSPropertyOp8
 70
     1
102
RTVSPropertyOp9
 70
     1
102
RTVSPropertyOp10
 70
     1
102
RTVSPropertyOp11
 70
     1
102
RTVSPropertyOp12
 70
     1
102
RTVSPropertyOp13
 70
     1
102
RTVSPropertyOp14
 70
     1
102
RTVSPropertyOp15
 70
     1
102
RTVSPropertyOp16
 70
     1
102
RTVSPropertyOp17
 70
     1
102
RTVSPropertyOp18
 70
     1
102
RTVSPropertyOp19
 70
     1
102
RTVSPropertyOp20
 70
     1
102
RTVSPropertyOp21
 70
     1
102
RTVSPropertyOp22
 70
     1
102
RTVSPropertyOp23
 70
     1
102
RTVSPropertyOp24
 70
     1
102
RTVSPropertyOp25
 70
     1
102
RTVSPropertyOp26
 70
     1
102
RTVSPropertyOp27
 70
     1
  0
XRECORD
  5
44A
102
{ACAD_REACTORS
330
449
102
}
330
449
100
AcDbXrecord
280
     1
102
RTVSPropertyOp0
 70
     1
102
RTVSPropertyOp1
 70
     1
102
RTVSPropertyOp2
 70
     1
102
RTVSPropertyOp3
 70
     1
102
RTVSPropertyOp4
 70
     1
102
RTVSPropertyOp5
 70
     1
102
RTVSPropertyOp6
 70
     1
102
RTVSPropertyOp7
 70
     1
102
RTVSPropertyOp8
 70
     1
102
RTVSPropertyOp9
 70
     1
102
RTVSPropertyOp10
 70
     1
102
RTVSPropertyOp11
 70
     1
102
RTVSPropertyOp12
 70
     1
102
RTVSPropertyOp13
 70
     1
102
RTVSPropertyOp14
 70
     1
102
RTVSPropertyOp15
 70
     1
102
RTVSPropertyOp16
 70
     1
102
RTVSPropertyOp17
 70
     1
102
RTVSPropertyOp18
 70
     1
102
RTVSPropertyOp19
 70
     1
102
RTVSPropertyOp20
 70
     1
102
RTVSPropertyOp21
 70
     1
102
RTVSPropertyOp22
 70
     1
102
RTVSPropertyOp23
 70
     1
102
RTVSPropertyOp24
 70
     1
102
RTVSPropertyOp25
 70
     1
102
RTVSPropertyOp26
 70
     1
102
RTVSPropertyOp27
 70
     1
  0
XRECORD
  5
452
102
{ACAD_REACTORS
330
451
102
}
330
451
100
AcDbXrecord
280
     1
102
RTVSPropertyOp0
 70
     1
102
RTVSPropertyOp1
 70
     1
102
RTVSPropertyOp2
 70
     1
102
RTVSPropertyOp3
 70
     1
102
RTVSPropertyOp4
 70
     1
102
RTVSPropertyOp5
 70
     1
102
RTVSPropertyOp6
 70
     1
102
RTVSPropertyOp7
 70
     1
102
RTVSPropertyOp8
 70
     1
102
RTVSPropertyOp9
 70
     1
102
RTVSPropertyOp10
 70
     1
102
RTVSPropertyOp11
 70
     1
102
RTVSPropertyOp12
 70
     1
102
RTVSPropertyOp13
 70
     1
102
RTVSPropertyOp14
 70
     1
102
RTVSPropertyOp15
 70
     1
102
RTVSPropertyOp16
 70
     1
102
RTVSPropertyOp17
 70
     1
102
RTVSPropertyOp18
 70
     1
102
RTVSPropertyOp19
 70
     1
102
RTVSPropertyOp20
 70
     1
102
RTVSPropertyOp21
 70
     1
102
RTVSPropertyOp22
 70
     1
102
RTVSPropertyOp23
 70
     1
102
RTVSPropertyOp24
 70
     1
102
RTVSPropertyOp25
 70
     1
102
RTVSPropertyOp26
 70
     1
102
RTVSPropertyOp27
 70
     1
  0
XRECORD
  5
436
102
{ACAD_REACTORS
330
435
102
}
330
435
100
AcDbXrecord
280
     1
102
RTVSPropertyOp0
 70
     1
102
RTVSPropertyOp1
 70
     1
102
RTVSPropertyOp2
 70
     1
102
RTVSPropertyOp3
 70
     1
102
RTVSPropertyOp4
 70
     1
102
RTVSPropertyOp5
 70
     1
102
RTVSPropertyOp6
 70
     1
102
RTVSPropertyOp7
 70
     1
102
RTVSPropertyOp8
 70
     1
102
RTVSPropertyOp9
 70
     1
102
RTVSPropertyOp10
 70
     1
102
RTVSPropertyOp11
 70
     1
102
RTVSPropertyOp12
 70
     1
102
RTVSPropertyOp13
 70
     1
102
RTVSPropertyOp14
 70
     1
102
RTVSPropertyOp15
 70
     1
102
RTVSPropertyOp16
 70
     1
102
RTVSPropertyOp17
 70
     1
102
RTVSPropertyOp18
 70
     1
102
RTVSPropertyOp19
 70
     1
102
RTVSPropertyOp20
 70
     1
102
RTVSPropertyOp21
 70
     1
102
RTVSPropertyOp22
 70
     1
102
RTVSPropertyOp23
 70
     1
102
RTVSPropertyOp24
 70
     1
102
RTVSPropertyOp25
 70
     1
102
RTVSPropertyOp26
 70
     1
102
RTVSPropertyOp27
 70
     1
  0
XRECORD
  5
438
102
{ACAD_REACTORS
330
437
102
}
330
437
100
AcDbXrecord
280
     1
102
RTVSPropertyOp0
 70
     1
102
RTVSPropertyOp1
 70
     1
102
RTVSPropertyOp2
 70
     1
102
RTVSPropertyOp3
 70
     1
102
RTVSPropertyOp4
 70
     1
102
RTVSPropertyOp5
 70
     1
102
RTVSPropertyOp6
 70
     1
102
RTVSPropertyOp7
 70
     1
102
RTVSPropertyOp8
 70
     1
102
RTVSPropertyOp9
 70
     1
102
RTVSPropertyOp10
 70
     1
102
RTVSPropertyOp11
 70
     1
102
RTVSPropertyOp12
 70
     1
102
RTVSPropertyOp13
 70
     1
102
RTVSPropertyOp14
 70
     1
102
RTVSPropertyOp15
 70
     1
102
RTVSPropertyOp16
 70
     1
102
RTVSPropertyOp17
 70
     1
102
RTVSPropertyOp18
 70
     1
102
RTVSPropertyOp19
 70
     1
102
RTVSPropertyOp20
 70
     1
102
RTVSPropertyOp21
 70
     1
102
RTVSPropertyOp22
 70
     1
102
RTVSPropertyOp23
 70
     1
102
RTVSPropertyOp24
 70
     1
102
RTVSPropertyOp25
 70
     1
102
RTVSPropertyOp26
 70
     1
102
RTVSPropertyOp27
 70
     1
  0
XRECORD
  5
43A
102
{ACAD_REACTORS
330
439
102
}
330
439
100
AcDbXrecord
280
     1
102
RTVSPropertyOp0
 70
     1
102
RTVSPropertyOp1
 70
     1
102
RTVSPropertyOp2
 70
     1
102
RTVSPropertyOp3
 70
     1
102
RTVSPropertyOp4
 70
     1
102
RTVSPropertyOp5
 70
     1
102
RTVSPropertyOp6
 70
     1
102
RTVSPropertyOp7
 70
     1
102
RTVSPropertyOp8
 70
     1
102
RTVSPropertyOp9
 70
     1
102
RTVSPropertyOp10
 70
     1
102
RTVSPropertyOp11
 70
     1
102
RTVSPropertyOp12
 70
     1
102
RTVSPropertyOp13
 70
     1
102
RTVSPropertyOp14
 70
     1
102
RTVSPropertyOp15
 70
     1
102
RTVSPropertyOp16
 70
     1
102
RTVSPropertyOp17
 70
     1
102
RTVSPropertyOp18
 70
     1
102
RTVSPropertyOp19
 70
     1
102
RTVSPropertyOp20
 70
     1
102
RTVSPropertyOp21
 70
     1
102
RTVSPropertyOp22
 70
     1
102
RTVSPropertyOp23
 70
     1
102
RTVSPropertyOp24
 70
     1
102
RTVSPropertyOp25
 70
     1
102
RTVSPropertyOp26
 70
     1
102
RTVSPropertyOp27
 70
     1
  0
XRECORD
  5
43C
102
{ACAD_REACTORS
330
43B
102
}
330
43B
100
AcDbXrecord
280
     1
102
RTVSPropertyOp0
 70
     1
102
RTVSPropertyOp1
 70
     1
102
RTVSPropertyOp2
 70
     1
102
RTVSPropertyOp3
 70
     1
102
RTVSPropertyOp4
 70
     1
102
RTVSPropertyOp5
 70
     1
102
RTVSPropertyOp6
 70
     1
102
RTVSPropertyOp7
 70
     1
102
RTVSPropertyOp8
 70
     1
102
RTVSPropertyOp9
 70
     1
102
RTVSPropertyOp10
 70
     1
102
RTVSPropertyOp11
 70
     1
102
RTVSPropertyOp12
 70
     1
102
RTVSPropertyOp13
 70
     1
102
RTVSPropertyOp14
 70
     1
102
RTVSPropertyOp15
 70
     1
102
RTVSPropertyOp16
 70
     1
102
RTVSPropertyOp17
 70
     1
102
RTVSPropertyOp18
 70
     1
102
RTVSPropertyOp19
 70
     1
102
RTVSPropertyOp20
 70
     1
102
RTVSPropertyOp21
 70
     1
102
RTVSPropertyOp22
 70
     1
102
RTVSPropertyOp23
 70
     1
102
RTVSPropertyOp24
 70
     1
102
RTVSPropertyOp25
 70
     1
102
RTVSPropertyOp26
 70
     1
102
RTVSPropertyOp27
 70
     1
  0
XRECORD
  5
450
102
{ACAD_REACTORS
330
44F
102
}
330
44F
100
AcDbXrecord
280
     1
102
RTVSPropertyOp0
 70
     1
102
RTVSPropertyOp1
 70
     1
102
RTVSPropertyOp2
 70
     1
102
RTVSPropertyOp3
 70
     1
102
RTVSPropertyOp4
 70
     1
102
RTVSPropertyOp5
 70
     1
102
RTVSPropertyOp6
 70
     1
102
RTVSPropertyOp7
 70
     1
102
RTVSPropertyOp8
 70
     1
102
RTVSPropertyOp9
 70
     1
102
RTVSPropertyOp10
 70
     1
102
RTVSPropertyOp11
 70
     1
102
RTVSPropertyOp12
 70
     1
102
RTVSPropertyOp13
 70
     1
102
RTVSPropertyOp14
 70
     1
102
RTVSPropertyOp15
 70
     1
102
RTVSPropertyOp16
 70
     1
102
RTVSPropertyOp17
 70
     1
102
RTVSPropertyOp18
 70
     1
102
RTVSPropertyOp19
 70
     1
102
RTVSPropertyOp20
 70
     1
102
RTVSPropertyOp21
 70
     1
102
RTVSPropertyOp22
 70
     1
102
RTVSPropertyOp23
 70
     1
102
RTVSPropertyOp24
 70
     1
102
RTVSPropertyOp25
 70
     1
102
RTVSPropertyOp26
 70
     1
102
RTVSPropertyOp27
 70
     1
  0
XRECORD
  5
446
102
{ACAD_REACTORS
330
445
102
}
330
445
100
AcDbXrecord
280
     1
102
RTVSPropertyOp0
 70
     1
102
RTVSPropertyOp1
 70
     1
102
RTVSPropertyOp2
 70
     1
102
RTVSPropertyOp3
 70
     1
102
RTVSPropertyOp4
 70
     1
102
RTVSPropertyOp5
 70
     1
102
RTVSPropertyOp6
 70
     1
102
RTVSPropertyOp7
 70
     1
102
RTVSPropertyOp8
 70
     1
102
RTVSPropertyOp9
 70
     1
102
RTVSPropertyOp10
 70
     1
102
RTVSPropertyOp11
 70
     1
102
RTVSPropertyOp12
 70
     1
102
RTVSPropertyOp13
 70
     1
102
RTVSPropertyOp14
 70
     1
102
RTVSPropertyOp15
 70
     1
102
RTVSPropertyOp16
 70
     1
102
RTVSPropertyOp17
 70
     1
102
RTVSPropertyOp18
 70
     1
102
RTVSPropertyOp19
 70
     1
102
RTVSPropertyOp20
 70
     1
102
RTVSPropertyOp21
 70
     1
102
RTVSPropertyOp22
 70
     1
102
RTVSPropertyOp23
 70
     1
102
RTVSPropertyOp24
 70
     1
102
RTVSPropertyOp25
 70
     1
102
RTVSPropertyOp26
 70
     1
102
RTVSPropertyOp27
 70
     1
  0
XRECORD
  5
44E
102
{ACAD_REACTORS
330
44D
102
}
330
44D
100
AcDbXrecord
280
     1
102
RTVSPropertyOp0
 70
     1
102
RTVSPropertyOp1
 70
     1
102
RTVSPropertyOp2
 70
     1
102
RTVSPropertyOp3
 70
     1
102
RTVSPropertyOp4
 70
     1
102
RTVSPropertyOp5
 70
     1
102
RTVSPropertyOp6
 70
     1
102
RTVSPropertyOp7
 70
     1
102
RTVSPropertyOp8
 70
     1
102
RTVSPropertyOp9
 70
     1
102
RTVSPropertyOp10
 70
     1
102
RTVSPropertyOp11
 70
     1
102
RTVSPropertyOp12
 70
     1
102
RTVSPropertyOp13
 70
     1
102
RTVSPropertyOp14
 70
     1
102
RTVSPropertyOp15
 70
     1
102
RTVSPropertyOp16
 70
     1
102
RTVSPropertyOp17
 70
     1
102
RTVSPropertyOp18
 70
     1
102
RTVSPropertyOp19
 70
     1
102
RTVSPropertyOp20
 70
     1
102
RTVSPropertyOp21
 70
     1
102
RTVSPropertyOp22
 70
     1
102
RTVSPropertyOp23
 70
     1
102
RTVSPropertyOp24
 70
     1
102
RTVSPropertyOp25
 70
     1
102
RTVSPropertyOp26
 70
     1
102
RTVSPropertyOp27
 70
     1
  0
ENDSEC
  0
EOF
