  0
SECTION
  2
HEADER
  9
$ACADVER
  1
AC1015
  9
$ACADMAINTVER
 70
     6
  9
$DWGCODEPAGE
  3
ANSI_932
  9
$INSBASE
 10
0.0
 20
0.0
 30
0.0
  9
$EXTMIN
 10
537.4831804529581
 20
-25.2538754191926
 30
0.0
  9
$EXTMAX
 10
743.183180452958
 20
198.040968517816
 30
0.0
  9
$LIMMIN
 10
0.0
 20
0.0
  9
$LIMMAX
 10
12.0
 20
9.0
  9
$ORTHOMODE
 70
     0
  9
$REGENMODE
 70
     1
  9
$FILLMODE
 70
     1
  9
$QTEXTMODE
 70
     0
  9
$MIRRTEXT
 70
     1
  9
$LTSCALE
 40
1.0
  9
$ATTMODE
 70
     1
  9
$TEXTSIZE
 40
0.2
  9
$TRACEWID
 40
0.05
  9
$TEXTSTYLE
  7
Standard
  9
$CLAYER
  8
0
  9
$CELTYPE
  6
ByLayer
  9
$CECOLOR
 62
   256
  9
$CELTSCALE
 40
1.0
  9
$DISPSILH
 70
     0
  9
$DIMSCALE
 40
1.0
  9
$DIMASZ
 40
0.18
  9
$DIMEXO
 40
0.0625
  9
$DIMDLI
 40
0.38
  9
$DIMRND
 40
0.0
  9
$DIMDLE
 40
0.0
  9
$DIMEXE
 40
0.18
  9
$DIMTP
 40
0.0
  9
$DIMTM
 40
0.0
  9
$DIMTXT
 40
0.18
  9
$DIMCEN
 40
0.09
  9
$DIMTSZ
 40
0.0
  9
$DIMTOL
 70
     0
  9
$DIMLIM
 70
     0
  9
$DIMTIH
 70
     1
  9
$DIMTOH
 70
     1
  9
$DIMSE1
 70
     0
  9
$DIMSE2
 70
     0
  9
$DIMTAD
 70
     0
  9
$DIMZIN
 70
     0
  9
$DIMBLK
  1

  9
$DIMASO
 70
     1
  9
$DIMSHO
 70
     1
  9
$DIMPOST
  1

  9
$DIMAPOST
  1

  9
$DIMALT
 70
     0
  9
$DIMALTD
 70
     2
  9
$DIMALTF
 40
25.4
  9
$DIMLFAC
 40
1.0
  9
$DIMTOFL
 70
     0
  9
$DIMTVP
 40
0.0
  9
$DIMTIX
 70
     0
  9
$DIMSOXD
 70
     0
  9
$DIMSAH
 70
     0
  9
$DIMBLK1
  1

  9
$DIMBLK2
  1

  9
$DIMSTYLE
  2
Standard
  9
$DIMCLRD
 70
     0
  9
$DIMCLRE
 70
     0
  9
$DIMCLRT
 70
     0
  9
$DIMTFAC
 40
1.0
  9
$DIMGAP
 40
0.09
  9
$DIMJUST
 70
     0
  9
$DIMSD1
 70
     0
  9
$DIMSD2
 70
     0
  9
$DIMTOLJ
 70
     1
  9
$DIMTZIN
 70
     0
  9
$DIMALTZ
 70
     0
  9
$DIMALTTZ
 70
     0
  9
$DIMUPT
 70
     0
  9
$DIMDEC
 70
     4
  9
$DIMTDEC
 70
     4
  9
$DIMALTU
 70
     2
  9
$DIMALTTD
 70
     2
  9
$DIMTXSTY
  7
Standard
  9
$DIMAUNIT
 70
     0
  9
$DIMADEC
 70
     0
  9
$DIMALTRND
 40
0.0
  9
$DIMAZIN
 70
     0
  9
$DIMDSEP
 70
    46
  9
$DIMATFIT
 70
     3
  9
$DIMFRAC
 70
     0
  9
$DIMLDRBLK
  1

  9
$DIMLUNIT
 70
     2
  9
$DIMLWD
 70
    -2
  9
$DIMLWE
 70
    -2
  9
$DIMTMOVE
 70
     0
  9
$LUNITS
 70
     2
  9
$LUPREC
 70
     4
  9
$SKETCHINC
 40
0.1
  9
$FILLETRAD
 40
0.5
  9
$AUNITS
 70
     0
  9
$AUPREC
 70
     0
  9
$MENU
  1
.
  9
$ELEVATION
 40
0.0
  9
$PELEVATION
 40
0.0
  9
$THICKNESS
 40
0.0
  9
$LIMCHECK
 70
     0
  9
$CHAMFERA
 40
0.5
  9
$CHAMFERB
 40
0.5
  9
$CHAMFERC
 40
1.0
  9
$CHAMFERD
 40
0.0
  9
$SKPOLY
 70
     0
  9
$TDCREATE
 40
2458442.488602697
  9
$TDUCREATE
 40
2458442.113602697
  9
$TDUPDATE
 40
2458442.488602709
  9
$TDUUPDATE
 40
2458442.113602709
  9
$TDINDWG
 40
0.0000000116
  9
$TDUSRTIMER
 40
0.0000000116
  9
$USRTIMER
 70
     1
  9
$ANGBASE
 50
0.0
  9
$ANGDIR
 70
     0
  9
$PDMODE
 70
     0
  9
$PDSIZE
 40
0.0
  9
$PLINEWID
 40
0.0
  9
$SPLFRAME
 70
     0
  9
$SPLINETYPE
 70
     6
  9
$SPLINESEGS
 70
     8
  9
$HANDSEED
  5
2F5
  9
$SURFTAB1
 70
     6
  9
$SURFTAB2
 70
     6
  9
$SURFTYPE
 70
     6
  9
$SURFU
 70
     6
  9
$SURFV
 70
     6
  9
$UCSBASE
  2

  9
$UCSNAME
  2

  9
$UCSORG
 10
0.0
 20
0.0
 30
0.0
  9
$UCSXDIR
 10
1.0
 20
0.0
 30
0.0
  9
$UCSYDIR
 10
0.0
 20
1.0
 30
0.0
  9
$UCSORTHOREF
  2

  9
$UCSORTHOVIEW
 70
     0
  9
$UCSORGTOP
 10
0.0
 20
0.0
 30
0.0
  9
$UCSORGBOTTOM
 10
0.0
 20
0.0
 30
0.0
  9
$UCSORGLEFT
 10
0.0
 20
0.0
 30
0.0
  9
$UCSORGRIGHT
 10
0.0
 20
0.0
 30
0.0
  9
$UCSORGFRONT
 10
0.0
 20
0.0
 30
0.0
  9
$UCSORGBACK
 10
0.0
 20
0.0
 30
0.0
  9
$PUCSBASE
  2

  9
$PUCSNAME
  2

  9
$PUCSORG
 10
0.0
 20
0.0
 30
0.0
  9
$PUCSXDIR
 10
1.0
 20
0.0
 30
0.0
  9
$PUCSYDIR
 10
0.0
 20
1.0
 30
0.0
  9
$PUCSORTHOREF
  2

  9
$PUCSORTHOVIEW
 70
     0
  9
$PUCSORGTOP
 10
0.0
 20
0.0
 30
0.0
  9
$PUCSORGBOTTOM
 10
0.0
 20
0.0
 30
0.0
  9
$PUCSORGLEFT
 10
0.0
 20
0.0
 30
0.0
  9
$PUCSORGRIGHT
 10
0.0
 20
0.0
 30
0.0
  9
$PUCSORGFRONT
 10
0.0
 20
0.0
 30
0.0
  9
$PUCSORGBACK
 10
0.0
 20
0.0
 30
0.0
  9
$USERI1
 70
     0
  9
$USERI2
 70
     0
  9
$USERI3
 70
     0
  9
$USERI4
 70
     0
  9
$USERI5
 70
     0
  9
$USERR1
 40
18.0
  9
$USERR2
 40
0.0
  9
$USERR3
 40
0.0
  9
$USERR4
 40
0.0
  9
$USERR5
 40
0.0
  9
$WORLDVIEW
 70
     1
  9
$SHADEDGE
 70
     3
  9
$SHADEDIF
 70
    70
  9
$TILEMODE
 70
     1
  9
$MAXACTVP
 70
    64
  9
$PINSBASE
 10
0.0
 20
0.0
 30
0.0
  9
$PLIMCHECK
 70
     0
  9
$PEXTMIN
 10
1.00000000000000E+20
 20
1.00000000000000E+20
 30
1.00000000000000E+20
  9
$PEXTMAX
 10
-1.00000000000000E+20
 20
-1.00000000000000E+20
 30
-1.00000000000000E+20
  9
$PLIMMIN
 10
0.0
 20
0.0
  9
$PLIMMAX
 10
12.0
 20
9.0
  9
$UNITMODE
 70
     0
  9
$VISRETAIN
 70
     1
  9
$PLINEGEN
 70
     0
  9
$PSLTSCALE
 70
     1
  9
$TREEDEPTH
 70
  3020
  9
$CMLSTYLE
  2
Standard
  9
$CMLJUST
 70
     0
  9
$CMLSCALE
 40
1.0
  9
$PROXYGRAPHICS
 70
     1
  9
$MEASUREMENT
 70
     1
  9
$CELWEIGHT
370
    -1
  9
$ENDCAPS
280
     0
  9
$JOINSTYLE
280
     0
  9
$LWDISPLAY
290
     0
  9
$INSUNITS
 70
     1
  9
$HYPERLINKBASE
  1

  9
$STYLESHEET
  1

  9
$XEDIT
290
     1
  9
$CEPSNTYPE
380
     0
  9
$PSTYLEMODE
290
     1
  9
$FINGERPRINTGUID
  2
{BCDD1244-2743-4E13-8207-12A9EBF439CF}
  9
$VERSIONGUID
  2
{FAEB1C32-E019-11D5-929B-00C0DF256EC4}
  9
$EXTNAMES
290
     1
  9
$PSVPSCALE
 40
0.0
  9
$OLESTARTUP
290
     0
  0
ENDSEC
  0
SECTION
  2
CLASSES
  0
CLASS
  1
ACDBDICTIONARYWDFLT
  2
AcDbDictionaryWithDefault
  3
ObjectDBX Classes
 90
        0
280
     0
281
     0
  0
CLASS
  1
VISUALSTYLE
  2
AcDbVisualStyle
  3
ObjectDBX Classes
 90
     4095
280
     0
281
     0
  0
CLASS
  1
MATERIAL
  2
AcDbMaterial
  3
ObjectDBX Classes
 90
     1153
280
     0
281
     0
  0
CLASS
  1

  2
exOdDbCircle
  3

 90
        0
280
     0
281
     1
  0
CLASS
  1

  2
exOdDbPolyline
  3

 90
        0
280
     0
281
     1
  0
CLASS
  1
DICTIONARYVAR
  2
AcDbDictionaryVar
  3
ObjectDBX Classes
 90
        0
280
     0
281
     0
  0
CLASS
  1
ACDBPLACEHOLDER
  2
AcDbPlaceHolder
  3
ObjectDBX Classes
 90
        0
280
     0
281
     0
  0
CLASS
  1
LAYOUT
  2
AcDbLayout
  3
ObjectDBX Classes
 90
        0
280
     0
281
     0
  0
ENDSEC
  0
SECTION
  2
TABLES
  0
TABLE
  2
VPORT
  5
8
330
0
100
AcDbSymbolTable
 70
     1
  0
VPORT
  5
29
330
8
100
AcDbSymbolTableRecord
100
AcDbViewportTableRecord
  2
*Active
 70
     0
 10
0.0
 20
0.0
 11
1.0
 21
1.0
 12
640.333180452958
 22
86.3935465493117
 13
0.0
 23
0.0
 14
0.5
 24
0.5
 15
0.5
 25
0.5
 16
0.0
 26
0.0
 36
1.0
 17
0.0
 27
0.0
 37
0.0
 40
245.6243283307095
 41
1.60267857142857
 42
50.0
 43
0.0
 44
0.0
 50
0.0
 51
0.0
 71
     0
 72
   100
 73
     1
 74
     3
 75
     0
 76
     0
 77
     0
 78
     0
281
     0
 65
     1
110
0.0
120
0.0
130
0.0
111
1.0
121
0.0
131
0.0
112
0.0
122
1.0
132
0.0
 79
     0
146
0.0
  0
ENDTAB
  0
TABLE
  2
LTYPE
  5
5
330
0
100
AcDbSymbolTable
 70
     8
  0
LTYPE
  5
14
330
5
100
AcDbSymbolTableRecord
100
AcDbLinetypeTableRecord
  2
ByBlock
 70
     0
  3

 72
    65
 73
     0
 40
0.0
  0
LTYPE
  5
15
330
5
100
AcDbSymbolTableRecord
100
AcDbLinetypeTableRecord
  2
ByLayer
 70
     0
  3

 72
    65
 73
     0
 40
0.0
  0
LTYPE
  5
16
330
5
100
AcDbSymbolTableRecord
100
AcDbLinetypeTableRecord
  2
Continuous
 70
     0
  3
Solid line
 72
    65
 73
     0
 40
0.0
  0
LTYPE
  5
3F
330
5
100
AcDbSymbolTableRecord
100
AcDbLinetypeTableRecord
  2
DASHED
 70
     0
  3
Dashed
 72
    65
 73
     2
 40
15.0
 49
7.0
 74
     0
 49
-8.0
 74
     0
  0
LTYPE
  5
40
330
5
100
AcDbSymbolTableRecord
100
AcDbLinetypeTableRecord
  2
DOTTED
 70
     0
  3
Dotted
 72
    65
 73
     2
 40
1.0
 49
0.0
 74
     0
 49
-1.0
 74
     0
  0
LTYPE
  5
41
330
5
100
AcDbSymbolTableRecord
100
AcDbLinetypeTableRecord
  2
DOT_CENTER
 70
     0
  3
Dot_Center
 72
    65
 73
     4
 40
14.0
 49
12.0
 74
     0
 49
-1.0
 74
     0
 49
0.0
 74
     0
 49
-1.0
 74
     0
  0
LTYPE
  5
42
330
5
100
AcDbSymbolTableRecord
100
AcDbLinetypeTableRecord
  2
LONG_DASHED
 70
     0
  3
Long_Dashed
 72
    65
 73
     2
 40
15.0
 49
10.0
 74
     0
 49
-5.0
 74
     0
  0
LTYPE
  5
43
330
5
100
AcDbSymbolTableRecord
100
AcDbLinetypeTableRecord
  2
DASH_CENTER
 70
     0
  3
Dash_Center
 72
    65
 73
     4
 40
14.0
 49
11.0
 74
     0
 49
-1.0
 74
     0
 49
1.0
 74
     0
 49
-1.0
 74
     0
  0
LTYPE
  5
44
330
5
100
AcDbSymbolTableRecord
100
AcDbLinetypeTableRecord
  2
PHANTOM
 70
     0
  3
Phantom
 72
    65
 73
     6
 40
13.0
 49
10.0
 74
     0
 49
-1.0
 74
     0
 49
0.0
 74
     0
 49
-1.0
 74
     0
 49
0.0
 74
     0
 49
-1.0
 74
     0
  0
LTYPE
  5
45
330
5
100
AcDbSymbolTableRecord
100
AcDbLinetypeTableRecord
  2
CENTER_DASH_DASH
 70
     0
  3
Center_Dash_Dash
 72
    65
 73
     6
 40
14.0
 49
9.0
 74
     0
 49
-1.0
 74
     0
 49
1.0
 74
     0
 49
-1.0
 74
     0
 49
1.0
 74
     0
 49
-1.0
 74
     0
  0
ENDTAB
  0
TABLE
  2
LAYER
  5
2
330
0
100
AcDbSymbolTable
 70
     3
  0
LAYER
  5
10
330
2
100
AcDbSymbolTableRecord
100
AcDbLayerTableRecord
  2
0
 70
     0
 62
     7
  6
Continuous
370
    -3
390
F
  0
LAYER
  5
46
330
2
100
AcDbSymbolTableRecord
100
AcDbLayerTableRecord
  2
1
 70
     0
 62
     7
  6
Continuous
370
    -3
390
F
  0
LAYER
  5
47
330
2
100
AcDbSymbolTableRecord
100
AcDbLayerTableRecord
  2
3
 70
     0
 62
     7
  6
Continuous
370
    -3
390
F
  0
ENDTAB
  0
TABLE
  2
STYLE
  5
3
330
0
100
AcDbSymbolTable
 70
     1
  0
STYLE
  5
11
330
3
100
AcDbSymbolTableRecord
100
AcDbTextStyleTableRecord
  2
Standard
 70
     0
 40
0.0
 41
1.0
 50
0.0
 71
     0
 42
0.2
  3
txt
  4

  0
ENDTAB
  0
TABLE
  2
VIEW
  5
6
330
0
100
AcDbSymbolTable
 70
     0
  0
ENDTAB
  0
TABLE
  2
UCS
  5
7
330
0
100
AcDbSymbolTable
 70
     0
  0
ENDTAB
  0
TABLE
  2
APPID
  5
9
330
0
100
AcDbSymbolTable
 70
     1
  0
APPID
  5
12
330
9
100
AcDbSymbolTableRecord
100
AcDbRegAppTableRecord
  2
ACAD
 70
     0
  0
ENDTAB
  0
TABLE
  2
DIMSTYLE
  5
A
330
0
100
AcDbSymbolTable
 70
     1
100
AcDbDimStyleTable
  0
DIMSTYLE
105
27
330
A
100
AcDbSymbolTableRecord
100
AcDbDimStyleTableRecord
  2
Standard
 70
     0
340
11
  0
ENDTAB
  0
TABLE
  2
BLOCK_RECORD
  5
1
330
0
100
AcDbSymbolTable
 70
     1
  0
BLOCK_RECORD
  5
1F
330
1
100
AcDbSymbolTableRecord
100
AcDbBlockTableRecord
  2
*Model_Space
340
22
  0
BLOCK_RECORD
  5
1B
330
1
100
AcDbSymbolTableRecord
100
AcDbBlockTableRecord
  2
*Paper_Space
340
1E
  0
BLOCK_RECORD
  5
23
330
1
100
AcDbSymbolTableRecord
100
AcDbBlockTableRecord
  2
*Paper_Space0
340
26
  0
ENDTAB
  0
ENDSEC
  0
SECTION
  2
BLOCKS
  0
BLOCK
  5
20
330
1F
100
AcDbEntity
  8
0
100
AcDbBlockBegin
  2
*Model_Space
 70
     0
 10
0.0
 20
0.0
 30
0.0
  3
*Model_Space
  1

  0
ENDBLK
  5
21
330
1F
100
AcDbEntity
  8
0
100
AcDbBlockEnd
  0
BLOCK
  5
1C
330
1B
100
AcDbEntity
 67
     1
  8
0
100
AcDbBlockBegin
  2
*Paper_Space
 70
     0
 10
0.0
 20
0.0
 30
0.0
  3
*Paper_Space
  1

  0
ENDBLK
  5
1D
330
1B
100
AcDbEntity
 67
     1
  8
0
100
AcDbBlockEnd
  0
BLOCK
  5
24
330
23
100
AcDbEntity
  8
0
100
AcDbBlockBegin
  2
*Paper_Space0
 70
     0
 10
0.0
 20
0.0
 30
0.0
  3
*Paper_Space0
  1

  0
ENDBLK
  5
25
330
23
100
AcDbEntity
  8
0
100
AcDbBlockEnd
  0
ENDSEC
  0
SECTION
  2
ENTITIES
  0
LINE
  5
48
330
1F
100
AcDbEntity
  8
1
  6
Continuous
 62
     4
100
AcDbLine
 10
739.311584864791
 20
81.3612720697403
 30
0.0
 11
739.311584864791
 21
78.3612720697403
 31
0.0
  0
LINE
  5
49
330
1F
100
AcDbEntity
  8
1
  6
Continuous
 62
     4
100
AcDbLine
 10
738.8704083942027
 20
81.0612720697403
 30
0.0
 11
739.311584864791
 21
81.3612720697403
 31
0.0
  0
LINE
  5
4A
330
1F
100
AcDbEntity
  8
1
  6
Continuous
 62
     4
100
AcDbLine
 10
737.9880554530263
 20
79.7612720697403
 30
0.0
 11
737.1939378059674
 21
79.7612720697403
 31
0.0
  0
LINE
  5
4B
330
1F
100
AcDbEntity
  8
1
  6
Continuous
 62
     4
100
AcDbLine
 10
737.9880554530263
 20
79.16127206974029
 30
0.0
 11
737.9880554530263
 21
79.7612720697403
 31
0.0
  0
LINE
  5
4C
330
1F
100
AcDbEntity
  8
1
  6
Continuous
 62
     4
100
AcDbLine
 10
737.8998201589086
 20
78.8612720697403
 30
0.0
 11
737.9880554530263
 21
79.16127206974029
 31
0.0
  0
LINE
  5
4D
330
1F
100
AcDbEntity
  8
1
  6
Continuous
 62
     4
100
AcDbLine
 10
737.7233495706732
 20
78.66127206974029
 30
0.0
 11
737.8998201589086
 21
78.8612720697403
 31
0.0
  0
LINE
  5
4E
330
1F
100
AcDbEntity
  8
1
  6
Continuous
 62
     4
100
AcDbLine
 10
737.4586436883203
 20
78.46127206974029
 30
0.0
 11
737.7233495706732
 21
78.66127206974029
 31
0.0
  0
LINE
  5
4F
330
1F
100
AcDbEntity
  8
1
  6
Continuous
 62
     4
100
AcDbLine
 10
737.0174672177321
 20
78.3612720697403
 30
0.0
 11
737.4586436883203
 21
78.46127206974029
 31
0.0
  0
LINE
  5
50
330
1F
100
AcDbEntity
  8
1
  6
Continuous
 62
     4
100
AcDbLine
 10
736.5762907471438
 20
78.46127206974029
 30
0.0
 11
737.0174672177321
 21
78.3612720697403
 31
0.0
  0
LINE
  5
51
330
1F
100
AcDbEntity
  8
1
  6
Continuous
 62
     4
100
AcDbLine
 10
736.3115848647909
 20
78.8612720697403
 30
0.0
 11
736.5762907471438
 21
78.46127206974029
 31
0.0
  0
LINE
  5
52
330
1F
100
AcDbEntity
  8
1
  6
Continuous
 62
     4
100
AcDbLine
 10
736.2233495706732
 20
79.0612720697403
 30
0.0
 11
736.3115848647909
 21
78.8612720697403
 31
0.0
  0
LINE
  5
53
330
1F
100
AcDbEntity
  8
1
  6
Continuous
 62
     4
100
AcDbLine
 10
736.1351142765557
 20
79.46127206974029
 30
0.0
 11
736.2233495706732
 21
79.0612720697403
 31
0.0
  0
LINE
  5
54
330
1F
100
AcDbEntity
  8
1
  6
Continuous
 62
     4
100
AcDbLine
 10
736.046878982438
 20
79.8612720697403
 30
0.0
 11
736.1351142765557
 21
79.46127206974029
 31
0.0
  0
LINE
  5
55
330
1F
100
AcDbEntity
  8
1
  6
Continuous
 62
     4
100
AcDbLine
 10
736.1351142765557
 20
80.2612720697403
 30
0.0
 11
736.046878982438
 21
79.8612720697403
 31
0.0
  0
LINE
  5
56
330
1F
100
AcDbEntity
  8
1
  6
Continuous
 62
     4
100
AcDbLine
 10
736.3115848647909
 20
80.8612720697403
 30
0.0
 11
736.1351142765557
 21
80.2612720697403
 31
0.0
  0
LINE
  5
57
330
1F
100
AcDbEntity
  8
1
  6
Continuous
 62
     4
100
AcDbLine
 10
736.3998201589086
 20
81.0612720697403
 30
0.0
 11
736.3115848647909
 21
80.8612720697403
 31
0.0
  0
LINE
  5
58
330
1F
100
AcDbEntity
  8
1
  6
Continuous
 62
     4
100
AcDbLine
 10
736.6645260412615
 20
81.2612720697403
 30
0.0
 11
736.3998201589086
 21
81.0612720697403
 31
0.0
  0
LINE
  5
59
330
1F
100
AcDbEntity
  8
1
  6
Continuous
 62
     4
100
AcDbLine
 10
737.0174672177321
 20
81.3612720697403
 30
0.0
 11
736.6645260412615
 21
81.2612720697403
 31
0.0
  0
LINE
  5
5A
330
1F
100
AcDbEntity
  8
1
  6
Continuous
 62
     4
100
AcDbLine
 10
737.4586436883203
 20
81.2612720697403
 30
0.0
 11
737.0174672177321
 21
81.3612720697403
 31
0.0
  0
LINE
  5
5B
330
1F
100
AcDbEntity
  8
1
  6
Continuous
 62
     4
100
AcDbLine
 10
737.6351142765557
 20
81.16127206974029
 30
0.0
 11
737.4586436883203
 21
81.2612720697403
 31
0.0
  0
LINE
  5
5C
330
1F
100
AcDbEntity
  8
1
  6
Continuous
 62
     4
100
AcDbLine
 10
737.8115848647909
 20
80.96127206974029
 30
0.0
 11
737.6351142765557
 21
81.16127206974029
 31
0.0
  0
LINE
  5
5D
330
1F
100
AcDbEntity
  8
1
  6
Continuous
 62
     4
100
AcDbLine
 10
737.9880554530263
 20
80.66127206974029
 30
0.0
 11
737.8115848647909
 21
80.96127206974029
 31
0.0
  0
LINE
  5
5E
330
1F
100
AcDbEntity
  8
1
  6
Continuous
 62
     4
100
AcDbLine
 10
620.311584864791
 20
81.3612720697403
 30
0.0
 11
620.311584864791
 21
78.3612720697403
 31
0.0
  0
LINE
  5
5F
330
1F
100
AcDbEntity
  8
1
  6
Continuous
 62
     4
100
AcDbLine
 10
619.8704083942027
 20
81.0612720697403
 30
0.0
 11
620.311584864791
 21
81.3612720697403
 31
0.0
  0
LINE
  5
60
330
1F
100
AcDbEntity
  8
1
  6
Continuous
 62
     4
100
AcDbLine
 10
618.9880554530263
 20
79.7612720697403
 30
0.0
 11
618.1939378059674
 21
79.7612720697403
 31
0.0
  0
LINE
  5
61
330
1F
100
AcDbEntity
  8
1
  6
Continuous
 62
     4
100
AcDbLine
 10
618.9880554530263
 20
79.16127206974029
 30
0.0
 11
618.9880554530263
 21
79.7612720697403
 31
0.0
  0
LINE
  5
62
330
1F
100
AcDbEntity
  8
1
  6
Continuous
 62
     4
100
AcDbLine
 10
618.8998201589086
 20
78.8612720697403
 30
0.0
 11
618.9880554530263
 21
79.16127206974029
 31
0.0
  0
LINE
  5
63
330
1F
100
AcDbEntity
  8
1
  6
Continuous
 62
     4
100
AcDbLine
 10
618.7233495706732
 20
78.66127206974029
 30
0.0
 11
618.8998201589086
 21
78.8612720697403
 31
0.0
  0
LINE
  5
64
330
1F
100
AcDbEntity
  8
1
  6
Continuous
 62
     4
100
AcDbLine
 10
618.4586436883203
 20
78.46127206974029
 30
0.0
 11
618.7233495706732
 21
78.66127206974029
 31
0.0
  0
LINE
  5
65
330
1F
100
AcDbEntity
  8
1
  6
Continuous
 62
     4
100
AcDbLine
 10
618.0174672177321
 20
78.3612720697403
 30
0.0
 11
618.4586436883203
 21
78.46127206974029
 31
0.0
  0
LINE
  5
66
330
1F
100
AcDbEntity
  8
1
  6
Continuous
 62
     4
100
AcDbLine
 10
617.5762907471438
 20
78.46127206974029
 30
0.0
 11
618.0174672177321
 21
78.3612720697403
 31
0.0
  0
LINE
  5
67
330
1F
100
AcDbEntity
  8
1
  6
Continuous
 62
     4
100
AcDbLine
 10
617.3115848647909
 20
78.8612720697403
 30
0.0
 11
617.5762907471438
 21
78.46127206974029
 31
0.0
  0
LINE
  5
68
330
1F
100
AcDbEntity
  8
1
  6
Continuous
 62
     4
100
AcDbLine
 10
617.2233495706732
 20
79.0612720697403
 30
0.0
 11
617.3115848647909
 21
78.8612720697403
 31
0.0
  0
LINE
  5
69
330
1F
100
AcDbEntity
  8
1
  6
Continuous
 62
     4
100
AcDbLine
 10
617.1351142765557
 20
79.46127206974029
 30
0.0
 11
617.2233495706732
 21
79.0612720697403
 31
0.0
  0
LINE
  5
6A
330
1F
100
AcDbEntity
  8
1
  6
Continuous
 62
     4
100
AcDbLine
 10
617.046878982438
 20
79.8612720697403
 30
0.0
 11
617.1351142765557
 21
79.46127206974029
 31
0.0
  0
LINE
  5
6B
330
1F
100
AcDbEntity
  8
1
  6
Continuous
 62
     4
100
AcDbLine
 10
617.1351142765557
 20
80.2612720697403
 30
0.0
 11
617.046878982438
 21
79.8612720697403
 31
0.0
  0
LINE
  5
6C
330
1F
100
AcDbEntity
  8
1
  6
Continuous
 62
     4
100
AcDbLine
 10
617.3115848647909
 20
80.8612720697403
 30
0.0
 11
617.1351142765557
 21
80.2612720697403
 31
0.0
  0
LINE
  5
6D
330
1F
100
AcDbEntity
  8
1
  6
Continuous
 62
     4
100
AcDbLine
 10
617.3998201589086
 20
81.0612720697403
 30
0.0
 11
617.3115848647909
 21
80.8612720697403
 31
0.0
  0
LINE
  5
6E
330
1F
100
AcDbEntity
  8
1
  6
Continuous
 62
     4
100
AcDbLine
 10
617.6645260412615
 20
81.2612720697403
 30
0.0
 11
617.3998201589086
 21
81.0612720697403
 31
0.0
  0
LINE
  5
6F
330
1F
100
AcDbEntity
  8
1
  6
Continuous
 62
     4
100
AcDbLine
 10
618.0174672177321
 20
81.3612720697403
 30
0.0
 11
617.6645260412615
 21
81.2612720697403
 31
0.0
  0
LINE
  5
70
330
1F
100
AcDbEntity
  8
1
  6
Continuous
 62
     4
100
AcDbLine
 10
618.4586436883203
 20
81.2612720697403
 30
0.0
 11
618.0174672177321
 21
81.3612720697403
 31
0.0
  0
LINE
  5
71
330
1F
100
AcDbEntity
  8
1
  6
Continuous
 62
     4
100
AcDbLine
 10
618.6351142765557
 20
81.16127206974029
 30
0.0
 11
618.4586436883203
 21
81.2612720697403
 31
0.0
  0
LINE
  5
72
330
1F
100
AcDbEntity
  8
1
  6
Continuous
 62
     4
100
AcDbLine
 10
618.8115848647909
 20
80.96127206974029
 30
0.0
 11
618.6351142765557
 21
81.16127206974029
 31
0.0
  0
LINE
  5
73
330
1F
100
AcDbEntity
  8
1
  6
Continuous
 62
     4
100
AcDbLine
 10
618.9880554530263
 20
80.66127206974029
 30
0.0
 11
618.8115848647909
 21
80.96127206974029
 31
0.0
  0
LINE
  5
74
330
1F
100
AcDbEntity
  8
1
  6
Continuous
 62
     4
100
AcDbLine
 10
673.0946963775982
 20
-22.4538754191926
 30
0.0
 11
672.5652846128924
 21
-22.2538754191926
 31
0.0
  0
LINE
  5
75
330
1F
100
AcDbEntity
  8
1
  6
Continuous
 62
     4
100
AcDbLine
 10
673.4476375540688
 20
-22.9538754191926
 30
0.0
 11
673.0946963775982
 21
-22.4538754191926
 31
0.0
  0
LINE
  5
76
330
1F
100
AcDbEntity
  8
1
  6
Continuous
 62
     4
100
AcDbLine
 10
673.5358728481865
 20
-23.7538754191926
 30
0.0
 11
673.4476375540688
 21
-22.9538754191926
 31
0.0
  0
LINE
  5
77
330
1F
100
AcDbEntity
  8
1
  6
Continuous
 62
     4
100
AcDbLine
 10
673.4476375540688
 20
-24.5538754191926
 30
0.0
 11
673.5358728481865
 21
-23.7538754191926
 31
0.0
  0
LINE
  5
78
330
1F
100
AcDbEntity
  8
1
  6
Continuous
 62
     4
100
AcDbLine
 10
673.0946963775982
 20
-25.0538754191926
 30
0.0
 11
673.4476375540688
 21
-24.5538754191926
 31
0.0
  0
LINE
  5
79
330
1F
100
AcDbEntity
  8
1
  6
Continuous
 62
     4
100
AcDbLine
 10
672.5652846128924
 20
-25.2538754191926
 30
0.0
 11
673.0946963775982
 21
-25.0538754191926
 31
0.0
  0
LINE
  5
7A
330
1F
100
AcDbEntity
  8
1
  6
Continuous
 62
     4
100
AcDbLine
 10
672.0358728481865
 20
-25.0538754191926
 30
0.0
 11
672.5652846128924
 21
-25.2538754191926
 31
0.0
  0
LINE
  5
7B
330
1F
100
AcDbEntity
  8
1
  6
Continuous
 62
     4
100
AcDbLine
 10
671.7711669658335
 20
-24.5538754191926
 30
0.0
 11
672.0358728481865
 21
-25.0538754191926
 31
0.0
  0
LINE
  5
7C
330
1F
100
AcDbEntity
  8
1
  6
Continuous
 62
     4
100
AcDbLine
 10
671.5946963775982
 20
-23.7538754191926
 30
0.0
 11
671.7711669658335
 21
-24.5538754191926
 31
0.0
  0
LINE
  5
7D
330
1F
100
AcDbEntity
  8
1
  6
Continuous
 62
     4
100
AcDbLine
 10
671.7711669658335
 20
-22.9538754191926
 30
0.0
 11
671.5946963775982
 21
-23.7538754191926
 31
0.0
  0
LINE
  5
7E
330
1F
100
AcDbEntity
  8
1
  6
Continuous
 62
     4
100
AcDbLine
 10
672.0358728481865
 20
-22.4538754191926
 30
0.0
 11
671.7711669658335
 21
-22.9538754191926
 31
0.0
  0
LINE
  5
7F
330
1F
100
AcDbEntity
  8
1
  6
Continuous
 62
     4
100
AcDbLine
 10
672.5652846128924
 20
-22.2538754191926
 30
0.0
 11
672.0358728481865
 21
-22.4538754191926
 31
0.0
  0
LINE
  5
80
330
1F
100
AcDbEntity
  8
1
  6
Continuous
 62
     4
100
AcDbLine
 10
669.1241081423041
 20
-23.7538754191926
 30
0.0
 11
670.7123434364217
 21
-23.7538754191926
 31
0.0
  0
LINE
  5
81
330
1F
100
AcDbEntity
  8
1
  6
Continuous
 62
     4
100
AcDbLine
 10
668.2417552011276
 20
-22.2538754191926
 30
0.0
 11
668.2417552011276
 21
-25.2538754191926
 31
0.0
  0
LINE
  5
82
330
1F
100
AcDbEntity
  8
1
  6
Continuous
 62
     4
100
AcDbLine
 10
667.8005787305393
 20
-22.5538754191926
 30
0.0
 11
668.2417552011276
 21
-22.2538754191926
 31
0.0
  0
LINE
  5
83
330
1F
100
AcDbEntity
  8
1
  6
Continuous
 62
     4
100
AcDbLine
 10
666.4770493187747
 20
-22.4538754191926
 30
0.0
 11
665.9476375540688
 21
-22.2538754191926
 31
0.0
  0
LINE
  5
84
330
1F
100
AcDbEntity
  8
1
  6
Continuous
 62
     4
100
AcDbLine
 10
666.8299904952453
 20
-22.9538754191926
 30
0.0
 11
666.4770493187747
 21
-22.4538754191926
 31
0.0
  0
LINE
  5
85
330
1F
100
AcDbEntity
  8
1
  6
Continuous
 62
     4
100
AcDbLine
 10
666.918225789363
 20
-23.7538754191926
 30
0.0
 11
666.8299904952453
 21
-22.9538754191926
 31
0.0
  0
LINE
  5
86
330
1F
100
AcDbEntity
  8
1
  6
Continuous
 62
     4
100
AcDbLine
 10
666.8299904952453
 20
-24.5538754191926
 30
0.0
 11
666.918225789363
 21
-23.7538754191926
 31
0.0
  0
LINE
  5
87
330
1F
100
AcDbEntity
  8
1
  6
Continuous
 62
     4
100
AcDbLine
 10
666.4770493187747
 20
-25.0538754191926
 30
0.0
 11
666.8299904952453
 21
-24.5538754191926
 31
0.0
  0
LINE
  5
88
330
1F
100
AcDbEntity
  8
1
  6
Continuous
 62
     4
100
AcDbLine
 10
665.9476375540688
 20
-25.2538754191926
 30
0.0
 11
666.4770493187747
 21
-25.0538754191926
 31
0.0
  0
LINE
  5
89
330
1F
100
AcDbEntity
  8
1
  6
Continuous
 62
     4
100
AcDbLine
 10
665.418225789363
 20
-25.0538754191926
 30
0.0
 11
665.9476375540688
 21
-25.2538754191926
 31
0.0
  0
LINE
  5
8A
330
1F
100
AcDbEntity
  8
1
  6
Continuous
 62
     4
100
AcDbLine
 10
665.1535199070099
 20
-24.5538754191926
 30
0.0
 11
665.418225789363
 21
-25.0538754191926
 31
0.0
  0
LINE
  5
8B
330
1F
100
AcDbEntity
  8
1
  6
Continuous
 62
     4
100
AcDbLine
 10
664.9770493187747
 20
-23.7538754191926
 30
0.0
 11
665.1535199070099
 21
-24.5538754191926
 31
0.0
  0
LINE
  5
8C
330
1F
100
AcDbEntity
  8
1
  6
Continuous
 62
     4
100
AcDbLine
 10
665.1535199070099
 20
-22.9538754191926
 30
0.0
 11
664.9770493187747
 21
-23.7538754191926
 31
0.0
  0
LINE
  5
8D
330
1F
100
AcDbEntity
  8
1
  6
Continuous
 62
     4
100
AcDbLine
 10
665.418225789363
 20
-22.4538754191926
 30
0.0
 11
665.1535199070099
 21
-22.9538754191926
 31
0.0
  0
LINE
  5
8E
330
1F
100
AcDbEntity
  8
1
  6
Continuous
 62
     4
100
AcDbLine
 10
665.9476375540688
 20
-22.2538754191926
 30
0.0
 11
665.418225789363
 21
-22.4538754191926
 31
0.0
  0
LINE
  5
8F
330
1F
100
AcDbEntity
  8
1
  6
Continuous
 62
     4
100
AcDbLine
 10
662.4182257893629
 20
-23.7538754191926
 30
0.0
 11
662.4182257893629
 21
-25.2538754191926
 31
0.0
  0
LINE
  5
90
330
1F
100
AcDbEntity
  8
1
  6
Continuous
 62
     4
100
AcDbLine
 10
662.4182257893629
 20
-23.7538754191926
 30
0.0
 11
663.9182257893629
 21
-23.7538754191926
 31
0.0
  0
LINE
  5
91
330
1F
100
AcDbEntity
  8
1
  6
Continuous
 62
     4
100
AcDbLine
 10
662.4182257893629
 20
-22.2538754191926
 30
0.0
 11
662.4182257893629
 21
-23.7538754191926
 31
0.0
  0
LINE
  5
92
330
1F
100
AcDbEntity
  8
1
  6
Continuous
 62
     4
100
AcDbLine
 10
664.0946963775981
 20
-22.2538754191926
 30
0.0
 11
662.4182257893629
 21
-22.2538754191926
 31
0.0
  0
LINE
  5
93
330
1F
100
AcDbEntity
  8
1
  6
Continuous
 62
     4
100
AcDbLine
 10
659.8594022599511
 20
-24.4538754191926
 30
0.0
 11
661.2711669658335
 21
-24.4538754191926
 31
0.0
  0
LINE
  5
94
330
1F
100
AcDbEntity
  8
1
  6
Continuous
 62
     4
100
AcDbLine
 10
660.5652846128924
 20
-22.2538754191926
 30
0.0
 11
661.5358728481865
 21
-25.2538754191926
 31
0.0
  0
LINE
  5
95
330
1F
100
AcDbEntity
  8
1
  6
Continuous
 62
     4
100
AcDbLine
 10
659.5946963775982
 20
-25.2538754191926
 30
0.0
 11
660.5652846128924
 21
-22.2538754191926
 31
0.0
  0
LINE
  5
96
330
1F
100
AcDbEntity
  8
1
  6
Continuous
 62
     4
100
AcDbLine
 10
657.2123434364216
 20
-25.0538754191926
 30
0.0
 11
656.9476375540687
 21
-24.8538754191926
 31
0.0
  0
LINE
  5
97
330
1F
100
AcDbEntity
  8
1
  6
Continuous
 62
     4
100
AcDbLine
 10
657.5652846128922
 20
-25.2538754191926
 30
0.0
 11
657.2123434364216
 21
-25.0538754191926
 31
0.0
  0
LINE
  5
98
330
1F
100
AcDbEntity
  8
1
  6
Continuous
 62
     4
100
AcDbLine
 10
657.9182257893629
 20
-25.2538754191926
 30
0.0
 11
657.5652846128922
 21
-25.2538754191926
 31
0.0
  0
LINE
  5
99
330
1F
100
AcDbEntity
  8
1
  6
Continuous
 62
     4
100
AcDbLine
 10
658.1829316717158
 20
-25.2538754191926
 30
0.0
 11
657.9182257893629
 21
-25.2538754191926
 31
0.0
  0
LINE
  5
9A
330
1F
100
AcDbEntity
  8
1
  6
Continuous
 62
     4
100
AcDbLine
 10
658.4476375540687
 20
-25.0538754191926
 30
0.0
 11
658.1829316717158
 21
-25.2538754191926
 31
0.0
  0
LINE
  5
9B
330
1F
100
AcDbEntity
  8
1
  6
Continuous
 62
     4
100
AcDbLine
 10
658.624108142304
 20
-24.8538754191926
 30
0.0
 11
658.4476375540687
 21
-25.0538754191926
 31
0.0
  0
LINE
  5
9C
330
1F
100
AcDbEntity
  8
1
  6
Continuous
 62
     4
100
AcDbLine
 10
658.7123434364216
 20
-24.3538754191926
 30
0.0
 11
658.624108142304
 21
-24.8538754191926
 31
0.0
  0
LINE
  5
9D
330
1F
100
AcDbEntity
  8
1
  6
Continuous
 62
     4
100
AcDbLine
 10
658.624108142304
 20
-23.8538754191926
 30
0.0
 11
658.7123434364216
 21
-24.3538754191926
 31
0.0
  0
LINE
  5
9E
330
1F
100
AcDbEntity
  8
1
  6
Continuous
 62
     4
100
AcDbLine
 10
658.4476375540687
 20
-23.6538754191926
 30
0.0
 11
658.624108142304
 21
-23.8538754191926
 31
0.0
  0
LINE
  5
9F
330
1F
100
AcDbEntity
  8
1
  6
Continuous
 62
     4
100
AcDbLine
 10
658.1829316717158
 20
-23.4538754191926
 30
0.0
 11
658.4476375540687
 21
-23.6538754191926
 31
0.0
  0
LINE
  5
A0
330
1F
100
AcDbEntity
  8
1
  6
Continuous
 62
     4
100
AcDbLine
 10
657.8299904952452
 20
-23.3538754191926
 30
0.0
 11
658.1829316717158
 21
-23.4538754191926
 31
0.0
  0
LINE
  5
A1
330
1F
100
AcDbEntity
  8
1
  6
Continuous
 62
     4
100
AcDbLine
 10
657.4770493187746
 20
-23.4538754191926
 30
0.0
 11
657.8299904952452
 21
-23.3538754191926
 31
0.0
  0
LINE
  5
A2
330
1F
100
AcDbEntity
  8
1
  6
Continuous
 62
     4
100
AcDbLine
 10
657.0358728481864
 20
-23.7538754191926
 30
0.0
 11
657.4770493187746
 21
-23.4538754191926
 31
0.0
  0
LINE
  5
A3
330
1F
100
AcDbEntity
  8
1
  6
Continuous
 62
     4
100
AcDbLine
 10
657.124108142304
 20
-22.2538754191926
 30
0.0
 11
657.0358728481864
 21
-23.7538754191926
 31
0.0
  0
LINE
  5
A4
330
1F
100
AcDbEntity
  8
1
  6
Continuous
 62
     4
100
AcDbLine
 10
658.624108142304
 20
-22.2538754191926
 30
0.0
 11
657.124108142304
 21
-22.2538754191926
 31
0.0
  0
LINE
  5
A5
330
1F
100
AcDbEntity
  8
1
  6
Continuous
 62
     4
100
AcDbLine
 10
654.5652846128922
 20
-25.0538754191926
 30
0.0
 11
654.3005787305393
 21
-24.8538754191926
 31
0.0
  0
LINE
  5
A6
330
1F
100
AcDbEntity
  8
1
  6
Continuous
 62
     4
100
AcDbLine
 10
654.9182257893629
 20
-25.2538754191926
 30
0.0
 11
654.5652846128922
 21
-25.0538754191926
 31
0.0
  0
LINE
  5
A7
330
1F
100
AcDbEntity
  8
1
  6
Continuous
 62
     4
100
AcDbLine
 10
655.2711669658335
 20
-25.2538754191926
 30
0.0
 11
654.9182257893629
 21
-25.2538754191926
 31
0.0
  0
LINE
  5
A8
330
1F
100
AcDbEntity
  8
1
  6
Continuous
 62
     4
100
AcDbLine
 10
655.5358728481864
 20
-25.2538754191926
 30
0.0
 11
655.2711669658335
 21
-25.2538754191926
 31
0.0
  0
LINE
  5
A9
330
1F
100
AcDbEntity
  8
1
  6
Continuous
 62
     4
100
AcDbLine
 10
655.8005787305393
 20
-25.0538754191926
 30
0.0
 11
655.5358728481864
 21
-25.2538754191926
 31
0.0
  0
LINE
  5
AA
330
1F
100
AcDbEntity
  8
1
  6
Continuous
 62
     4
100
AcDbLine
 10
655.9770493187746
 20
-24.8538754191926
 30
0.0
 11
655.8005787305393
 21
-25.0538754191926
 31
0.0
  0
LINE
  5
AB
330
1F
100
AcDbEntity
  8
1
  6
Continuous
 62
     4
100
AcDbLine
 10
656.0652846128922
 20
-24.3538754191926
 30
0.0
 11
655.9770493187746
 21
-24.8538754191926
 31
0.0
  0
LINE
  5
AC
330
1F
100
AcDbEntity
  8
1
  6
Continuous
 62
     4
100
AcDbLine
 10
655.9770493187746
 20
-23.8538754191926
 30
0.0
 11
656.0652846128922
 21
-24.3538754191926
 31
0.0
  0
LINE
  5
AD
330
1F
100
AcDbEntity
  8
1
  6
Continuous
 62
     4
100
AcDbLine
 10
655.8005787305393
 20
-23.6538754191926
 30
0.0
 11
655.9770493187746
 21
-23.8538754191926
 31
0.0
  0
LINE
  5
AE
330
1F
100
AcDbEntity
  8
1
  6
Continuous
 62
     4
100
AcDbLine
 10
655.5358728481864
 20
-23.4538754191926
 30
0.0
 11
655.8005787305393
 21
-23.6538754191926
 31
0.0
  0
LINE
  5
AF
330
1F
100
AcDbEntity
  8
1
  6
Continuous
 62
     4
100
AcDbLine
 10
655.1829316717158
 20
-23.3538754191926
 30
0.0
 11
655.5358728481864
 21
-23.4538754191926
 31
0.0
  0
LINE
  5
B0
330
1F
100
AcDbEntity
  8
1
  6
Continuous
 62
     4
100
AcDbLine
 10
654.8299904952452
 20
-23.4538754191926
 30
0.0
 11
655.1829316717158
 21
-23.3538754191926
 31
0.0
  0
LINE
  5
B1
330
1F
100
AcDbEntity
  8
1
  6
Continuous
 62
     4
100
AcDbLine
 10
654.388814024657
 20
-23.7538754191926
 30
0.0
 11
654.8299904952452
 21
-23.4538754191926
 31
0.0
  0
LINE
  5
B2
330
1F
100
AcDbEntity
  8
1
  6
Continuous
 62
     4
100
AcDbLine
 10
654.4770493187746
 20
-22.2538754191926
 30
0.0
 11
654.388814024657
 21
-23.7538754191926
 31
0.0
  0
LINE
  5
B3
330
1F
100
AcDbEntity
  8
1
  6
Continuous
 62
     4
100
AcDbLine
 10
655.9770493187746
 20
-22.2538754191926
 30
0.0
 11
654.4770493187746
 21
-22.2538754191926
 31
0.0
  0
LINE
  5
B4
330
1F
100
AcDbEntity
  8
1
  6
Continuous
 62
     4
100
AcDbLine
 10
652.0064610834805
 20
-25.0538754191926
 30
0.0
 11
651.7417552011276
 21
-24.7538754191926
 31
0.0
  0
LINE
  5
B5
330
1F
100
AcDbEntity
  8
1
  6
Continuous
 62
     4
100
AcDbLine
 10
652.6241081423041
 20
-25.2538754191926
 30
0.0
 11
652.0064610834805
 21
-25.0538754191926
 31
0.0
  0
LINE
  5
B6
330
1F
100
AcDbEntity
  8
1
  6
Continuous
 62
     4
100
AcDbLine
 10
653.0652846128924
 20
-25.0538754191926
 30
0.0
 11
652.6241081423041
 21
-25.2538754191926
 31
0.0
  0
LINE
  5
B7
330
1F
100
AcDbEntity
  8
1
  6
Continuous
 62
     4
100
AcDbLine
 10
653.3299904952453
 20
-24.7538754191926
 30
0.0
 11
653.0652846128924
 21
-25.0538754191926
 31
0.0
  0
LINE
  5
B8
330
1F
100
AcDbEntity
  8
1
  6
Continuous
 62
     4
100
AcDbLine
 10
653.4182257893629
 20
-24.3538754191926
 30
0.0
 11
653.3299904952453
 21
-24.7538754191926
 31
0.0
  0
LINE
  5
B9
330
1F
100
AcDbEntity
  8
1
  6
Continuous
 62
     4
100
AcDbLine
 10
653.4182257893629
 20
-23.1538754191926
 30
0.0
 11
653.4182257893629
 21
-24.3538754191926
 31
0.0
  0
LINE
  5
BA
330
1F
100
AcDbEntity
  8
1
  6
Continuous
 62
     4
100
AcDbLine
 10
653.2417552011276
 20
-23.7538754191926
 30
0.0
 11
653.4182257893629
 21
-23.1538754191926
 31
0.0
  0
LINE
  5
BB
330
1F
100
AcDbEntity
  8
1
  6
Continuous
 62
     4
100
AcDbLine
 10
652.9770493187747
 20
-24.0538754191926
 30
0.0
 11
653.2417552011276
 21
-23.7538754191926
 31
0.0
  0
LINE
  5
BC
330
1F
100
AcDbEntity
  8
1
  6
Continuous
 62
     4
100
AcDbLine
 10
652.6241081423041
 20
-24.1538754191926
 30
0.0
 11
652.9770493187747
 21
-24.0538754191926
 31
0.0
  0
LINE
  5
BD
330
1F
100
AcDbEntity
  8
1
  6
Continuous
 62
     4
100
AcDbLine
 10
652.2711669658335
 20
-24.0538754191926
 30
0.0
 11
652.6241081423041
 21
-24.1538754191926
 31
0.0
  0
LINE
  5
BE
330
1F
100
AcDbEntity
  8
1
  6
Continuous
 62
     4
100
AcDbLine
 10
651.9182257893629
 20
-23.7538754191926
 30
0.0
 11
652.2711669658335
 21
-24.0538754191926
 31
0.0
  0
LINE
  5
BF
330
1F
100
AcDbEntity
  8
1
  6
Continuous
 62
     4
100
AcDbLine
 10
651.8299904952453
 20
-23.5538754191926
 30
0.0
 11
651.9182257893629
 21
-23.7538754191926
 31
0.0
  0
LINE
  5
C0
330
1F
100
AcDbEntity
  8
1
  6
Continuous
 62
     4
100
AcDbLine
 10
651.7417552011276
 20
-23.1538754191926
 30
0.0
 11
651.8299904952453
 21
-23.5538754191926
 31
0.0
  0
LINE
  5
C1
330
1F
100
AcDbEntity
  8
1
  6
Continuous
 62
     4
100
AcDbLine
 10
651.9182257893629
 20
-22.6538754191926
 30
0.0
 11
651.7417552011276
 21
-23.1538754191926
 31
0.0
  0
LINE
  5
C2
330
1F
100
AcDbEntity
  8
1
  6
Continuous
 62
     4
100
AcDbLine
 10
652.1829316717159
 20
-22.3538754191926
 30
0.0
 11
651.9182257893629
 21
-22.6538754191926
 31
0.0
  0
LINE
  5
C3
330
1F
100
AcDbEntity
  8
1
  6
Continuous
 62
     4
100
AcDbLine
 10
652.6241081423041
 20
-22.2538754191926
 30
0.0
 11
652.1829316717159
 21
-22.3538754191926
 31
0.0
  0
LINE
  5
C4
330
1F
100
AcDbEntity
  8
1
  6
Continuous
 62
     4
100
AcDbLine
 10
653.0652846128924
 20
-22.3538754191926
 30
0.0
 11
652.6241081423041
 21
-22.2538754191926
 31
0.0
  0
LINE
  5
C5
330
1F
100
AcDbEntity
  8
1
  6
Continuous
 62
     4
100
AcDbLine
 10
653.3299904952453
 20
-22.6538754191926
 30
0.0
 11
653.0652846128924
 21
-22.3538754191926
 31
0.0
  0
LINE
  5
C6
330
1F
100
AcDbEntity
  8
1
  6
Continuous
 62
     4
100
AcDbLine
 10
653.4182257893629
 20
-23.1538754191926
 30
0.0
 11
653.3299904952453
 21
-22.6538754191926
 31
0.0
  0
LINE
  5
C7
330
1F
100
AcDbEntity
  8
1
  6
Continuous
 62
     4
100
AcDbLine
 10
650.4182257893629
 20
-22.4538754191926
 30
0.0
 11
649.888814024657
 21
-22.2538754191926
 31
0.0
  0
LINE
  5
C8
330
1F
100
AcDbEntity
  8
1
  6
Continuous
 62
     4
100
AcDbLine
 10
650.7711669658335
 20
-22.9538754191926
 30
0.0
 11
650.4182257893629
 21
-22.4538754191926
 31
0.0
  0
LINE
  5
C9
330
1F
100
AcDbEntity
  8
1
  6
Continuous
 62
     4
100
AcDbLine
 10
650.8594022599511
 20
-23.7538754191926
 30
0.0
 11
650.7711669658335
 21
-22.9538754191926
 31
0.0
  0
LINE
  5
CA
330
1F
100
AcDbEntity
  8
1
  6
Continuous
 62
     4
100
AcDbLine
 10
650.7711669658335
 20
-24.5538754191926
 30
0.0
 11
650.8594022599511
 21
-23.7538754191926
 31
0.0
  0
LINE
  5
CB
330
1F
100
AcDbEntity
  8
1
  6
Continuous
 62
     4
100
AcDbLine
 10
650.4182257893629
 20
-25.0538754191926
 30
0.0
 11
650.7711669658335
 21
-24.5538754191926
 31
0.0
  0
LINE
  5
CC
330
1F
100
AcDbEntity
  8
1
  6
Continuous
 62
     4
100
AcDbLine
 10
649.888814024657
 20
-25.2538754191926
 30
0.0
 11
650.4182257893629
 21
-25.0538754191926
 31
0.0
  0
LINE
  5
CD
330
1F
100
AcDbEntity
  8
1
  6
Continuous
 62
     4
100
AcDbLine
 10
649.3594022599511
 20
-25.0538754191926
 30
0.0
 11
649.888814024657
 21
-25.2538754191926
 31
0.0
  0
LINE
  5
CE
330
1F
100
AcDbEntity
  8
1
  6
Continuous
 62
     4
100
AcDbLine
 10
649.0946963775981
 20
-24.5538754191926
 30
0.0
 11
649.3594022599511
 21
-25.0538754191926
 31
0.0
  0
LINE
  5
CF
330
1F
100
AcDbEntity
  8
1
  6
Continuous
 62
     4
100
AcDbLine
 10
648.9182257893629
 20
-23.7538754191926
 30
0.0
 11
649.0946963775981
 21
-24.5538754191926
 31
0.0
  0
LINE
  5
D0
330
1F
100
AcDbEntity
  8
1
  6
Continuous
 62
     4
100
AcDbLine
 10
649.0946963775981
 20
-22.9538754191926
 30
0.0
 11
648.9182257893629
 21
-23.7538754191926
 31
0.0
  0
LINE
  5
D1
330
1F
100
AcDbEntity
  8
1
  6
Continuous
 62
     4
100
AcDbLine
 10
649.3594022599511
 20
-22.4538754191926
 30
0.0
 11
649.0946963775981
 21
-22.9538754191926
 31
0.0
  0
LINE
  5
D2
330
1F
100
AcDbEntity
  8
1
  6
Continuous
 62
     4
100
AcDbLine
 10
649.888814024657
 20
-22.2538754191926
 30
0.0
 11
649.3594022599511
 21
-22.4538754191926
 31
0.0
  0
LINE
  5
D3
330
1F
100
AcDbEntity
  8
1
  6
Continuous
 62
     4
100
AcDbLine
 10
645.2123434364217
 20
-25.2538754191926
 30
0.0
 11
648.0358728481865
 21
-25.2538754191926
 31
0.0
  0
LINE
  5
D4
330
1F
100
AcDbEntity
  8
1
  6
Continuous
 62
     4
100
AcDbLine
 10
643.888814024657
 20
-22.4538754191926
 30
0.0
 11
643.3594022599511
 21
-22.2538754191926
 31
0.0
  0
LINE
  5
D5
330
1F
100
AcDbEntity
  8
1
  6
Continuous
 62
     4
100
AcDbLine
 10
644.2417552011276
 20
-22.9538754191926
 30
0.0
 11
643.888814024657
 21
-22.4538754191926
 31
0.0
  0
LINE
  5
D6
330
1F
100
AcDbEntity
  8
1
  6
Continuous
 62
     4
100
AcDbLine
 10
644.3299904952453
 20
-23.7538754191926
 30
0.0
 11
644.2417552011276
 21
-22.9538754191926
 31
0.0
  0
LINE
  5
D7
330
1F
100
AcDbEntity
  8
1
  6
Continuous
 62
     4
100
AcDbLine
 10
644.2417552011276
 20
-24.5538754191926
 30
0.0
 11
644.3299904952453
 21
-23.7538754191926
 31
0.0
  0
LINE
  5
D8
330
1F
100
AcDbEntity
  8
1
  6
Continuous
 62
     4
100
AcDbLine
 10
643.888814024657
 20
-25.0538754191926
 30
0.0
 11
644.2417552011276
 21
-24.5538754191926
 31
0.0
  0
LINE
  5
D9
330
1F
100
AcDbEntity
  8
1
  6
Continuous
 62
     4
100
AcDbLine
 10
643.3594022599511
 20
-25.2538754191926
 30
0.0
 11
643.888814024657
 21
-25.0538754191926
 31
0.0
  0
LINE
  5
DA
330
1F
100
AcDbEntity
  8
1
  6
Continuous
 62
     4
100
AcDbLine
 10
642.8299904952453
 20
-25.0538754191926
 30
0.0
 11
643.3594022599511
 21
-25.2538754191926
 31
0.0
  0
LINE
  5
DB
330
1F
100
AcDbEntity
  8
1
  6
Continuous
 62
     4
100
AcDbLine
 10
642.5652846128922
 20
-24.5538754191926
 30
0.0
 11
642.8299904952453
 21
-25.0538754191926
 31
0.0
  0
LINE
  5
DC
330
1F
100
AcDbEntity
  8
1
  6
Continuous
 62
     4
100
AcDbLine
 10
642.388814024657
 20
-23.7538754191926
 30
0.0
 11
642.5652846128922
 21
-24.5538754191926
 31
0.0
  0
LINE
  5
DD
330
1F
100
AcDbEntity
  8
1
  6
Continuous
 62
     4
100
AcDbLine
 10
642.5652846128922
 20
-22.9538754191926
 30
0.0
 11
642.388814024657
 21
-23.7538754191926
 31
0.0
  0
LINE
  5
DE
330
1F
100
AcDbEntity
  8
1
  6
Continuous
 62
     4
100
AcDbLine
 10
642.8299904952453
 20
-22.4538754191926
 30
0.0
 11
642.5652846128922
 21
-22.9538754191926
 31
0.0
  0
LINE
  5
DF
330
1F
100
AcDbEntity
  8
1
  6
Continuous
 62
     4
100
AcDbLine
 10
643.3594022599511
 20
-22.2538754191926
 30
0.0
 11
642.8299904952453
 21
-22.4538754191926
 31
0.0
  0
LINE
  5
E0
330
1F
100
AcDbEntity
  8
1
  6
Continuous
 62
     4
100
AcDbLine
 10
639.5652846128922
 20
-25.2538754191926
 30
0.0
 11
641.5064610834805
 21
-25.2538754191926
 31
0.0
  0
LINE
  5
E1
330
1F
100
AcDbEntity
  8
1
  6
Continuous
 62
     4
100
AcDbLine
 10
639.7417552011275
 20
-24.7538754191926
 30
0.0
 11
639.5652846128922
 21
-25.2538754191926
 31
0.0
  0
LINE
  5
E2
330
1F
100
AcDbEntity
  8
1
  6
Continuous
 62
     4
100
AcDbLine
 10
639.9182257893629
 20
-24.4538754191926
 30
0.0
 11
639.7417552011275
 21
-24.7538754191926
 31
0.0
  0
LINE
  5
E3
330
1F
100
AcDbEntity
  8
1
  6
Continuous
 62
     4
100
AcDbLine
 10
640.2711669658335
 20
-24.1538754191926
 30
0.0
 11
639.9182257893629
 21
-24.4538754191926
 31
0.0
  0
LINE
  5
E4
330
1F
100
AcDbEntity
  8
1
  6
Continuous
 62
     4
100
AcDbLine
 10
640.624108142304
 20
-23.9538754191926
 30
0.0
 11
640.2711669658335
 21
-24.1538754191926
 31
0.0
  0
LINE
  5
E5
330
1F
100
AcDbEntity
  8
1
  6
Continuous
 62
     4
100
AcDbLine
 10
641.0652846128922
 20
-23.6538754191926
 30
0.0
 11
640.624108142304
 21
-23.9538754191926
 31
0.0
  0
LINE
  5
E6
330
1F
100
AcDbEntity
  8
1
  6
Continuous
 62
     4
100
AcDbLine
 10
641.3299904952452
 20
-23.2538754191926
 30
0.0
 11
641.0652846128922
 21
-23.6538754191926
 31
0.0
  0
LINE
  5
E7
330
1F
100
AcDbEntity
  8
1
  6
Continuous
 62
     4
100
AcDbLine
 10
641.4182257893629
 20
-22.8538754191926
 30
0.0
 11
641.3299904952452
 21
-23.2538754191926
 31
0.0
  0
LINE
  5
E8
330
1F
100
AcDbEntity
  8
1
  6
Continuous
 62
     4
100
AcDbLine
 10
641.0652846128922
 20
-22.4538754191926
 30
0.0
 11
641.4182257893629
 21
-22.8538754191926
 31
0.0
  0
LINE
  5
E9
330
1F
100
AcDbEntity
  8
1
  6
Continuous
 62
     4
100
AcDbLine
 10
640.5358728481864
 20
-22.2538754191926
 30
0.0
 11
641.0652846128922
 21
-22.4538754191926
 31
0.0
  0
LINE
  5
EA
330
1F
100
AcDbEntity
  8
1
  6
Continuous
 62
     4
100
AcDbLine
 10
640.0064610834805
 20
-22.4538754191926
 30
0.0
 11
640.5358728481864
 21
-22.2538754191926
 31
0.0
  0
LINE
  5
EB
330
1F
100
AcDbEntity
  8
1
  6
Continuous
 62
     4
100
AcDbLine
 10
639.6535199070099
 20
-22.8538754191926
 30
0.0
 11
640.0064610834805
 21
-22.4538754191926
 31
0.0
  0
LINE
  5
EC
330
1F
100
AcDbEntity
  8
1
  6
Continuous
 62
     4
100
AcDbLine
 10
635.8594022599511
 20
-25.2538754191926
 30
0.0
 11
638.6829316717159
 21
-25.2538754191926
 31
0.0
  0
LINE
  5
ED
330
1F
100
AcDbEntity
  8
1
  6
Continuous
 62
     4
100
AcDbLine
 10
634.2711669658335
 20
-25.2538754191926
 30
0.0
 11
633.2123434364217
 21
-25.2538754191926
 31
0.0
  0
LINE
  5
EE
330
1F
100
AcDbEntity
  8
1
  6
Continuous
 62
     4
100
AcDbLine
 10
634.8005787305394
 20
-25.0538754191926
 30
0.0
 11
634.2711669658335
 21
-25.2538754191926
 31
0.0
  0
LINE
  5
EF
330
1F
100
AcDbEntity
  8
1
  6
Continuous
 62
     4
100
AcDbLine
 10
634.9770493187747
 20
-24.5538754191926
 30
0.0
 11
634.8005787305394
 21
-25.0538754191926
 31
0.0
  0
LINE
  5
F0
330
1F
100
AcDbEntity
  8
1
  6
Continuous
 62
     4
100
AcDbLine
 10
634.8005787305394
 20
-24.0538754191926
 30
0.0
 11
634.9770493187747
 21
-24.5538754191926
 31
0.0
  0
LINE
  5
F1
330
1F
100
AcDbEntity
  8
1
  6
Continuous
 62
     4
100
AcDbLine
 10
634.2711669658335
 20
-23.8538754191926
 30
0.0
 11
634.8005787305394
 21
-24.0538754191926
 31
0.0
  0
LINE
  5
F2
330
1F
100
AcDbEntity
  8
1
  6
Continuous
 62
     4
100
AcDbLine
 10
633.2123434364217
 20
-23.8538754191926
 30
0.0
 11
634.2711669658335
 21
-23.8538754191926
 31
0.0
  0
LINE
  5
F3
330
1F
100
AcDbEntity
  8
1
  6
Continuous
 62
     4
100
AcDbLine
 10
634.2711669658335
 20
-23.8538754191926
 30
0.0
 11
633.2123434364217
 21
-23.8538754191926
 31
0.0
  0
LINE
  5
F4
330
1F
100
AcDbEntity
  8
1
  6
Continuous
 62
     4
100
AcDbLine
 10
634.7123434364217
 20
-23.5538754191926
 30
0.0
 11
634.2711669658335
 21
-23.8538754191926
 31
0.0
  0
LINE
  5
F5
330
1F
100
AcDbEntity
  8
1
  6
Continuous
 62
     4
100
AcDbLine
 10
634.8005787305394
 20
-23.1538754191926
 30
0.0
 11
634.7123434364217
 21
-23.5538754191926
 31
0.0
  0
LINE
  5
F6
330
1F
100
AcDbEntity
  8
1
  6
Continuous
 62
     4
100
AcDbLine
 10
634.7123434364217
 20
-22.6538754191926
 30
0.0
 11
634.8005787305394
 21
-23.1538754191926
 31
0.0
  0
LINE
  5
F7
330
1F
100
AcDbEntity
  8
1
  6
Continuous
 62
     4
100
AcDbLine
 10
634.2711669658335
 20
-22.4538754191926
 30
0.0
 11
634.7123434364217
 21
-22.6538754191926
 31
0.0
  0
LINE
  5
F8
330
1F
100
AcDbEntity
  8
1
  6
Continuous
 62
     4
100
AcDbLine
 10
633.2123434364217
 20
-22.4538754191926
 30
0.0
 11
634.2711669658335
 21
-22.4538754191926
 31
0.0
  0
LINE
  5
F9
330
1F
100
AcDbEntity
  8
1
  6
Continuous
 62
     4
100
AcDbLine
 10
633.2123434364217
 20
-25.2538754191926
 30
0.0
 11
633.2123434364217
 21
-22.4538754191926
 31
0.0
  0
LINE
  5
FA
330
1F
100
AcDbEntity
  8
1
  6
Continuous
 62
     4
100
AcDbLine
 10
630.7417552011276
 20
-23.7538754191926
 30
0.0
 11
632.3299904952453
 21
-23.7538754191926
 31
0.0
  0
LINE
  5
FB
330
1F
100
AcDbEntity
  8
1
  6
Continuous
 62
     4
100
AcDbLine
 10
627.9182257893629
 20
-25.2538754191926
 30
0.0
 11
629.8594022599511
 21
-25.2538754191926
 31
0.0
  0
LINE
  5
FC
330
1F
100
AcDbEntity
  8
1
  6
Continuous
 62
     4
100
AcDbLine
 10
628.0946963775981
 20
-24.7538754191926
 30
0.0
 11
627.9182257893629
 21
-25.2538754191926
 31
0.0
  0
LINE
  5
FD
330
1F
100
AcDbEntity
  8
1
  6
Continuous
 62
     4
100
AcDbLine
 10
628.2711669658335
 20
-24.4538754191926
 30
0.0
 11
628.0946963775981
 21
-24.7538754191926
 31
0.0
  0
LINE
  5
FE
330
1F
100
AcDbEntity
  8
1
  6
Continuous
 62
     4
100
AcDbLine
 10
628.6241081423041
 20
-24.1538754191926
 30
0.0
 11
628.2711669658335
 21
-24.4538754191926
 31
0.0
  0
LINE
  5
FF
330
1F
100
AcDbEntity
  8
1
  6
Continuous
 62
     4
100
AcDbLine
 10
628.9770493187746
 20
-23.9538754191926
 30
0.0
 11
628.6241081423041
 21
-24.1538754191926
 31
0.0
  0
LINE
  5
100
330
1F
100
AcDbEntity
  8
1
  6
Continuous
 62
     4
100
AcDbLine
 10
629.4182257893629
 20
-23.6538754191926
 30
0.0
 11
628.9770493187746
 21
-23.9538754191926
 31
0.0
  0
LINE
  5
101
330
1F
100
AcDbEntity
  8
1
  6
Continuous
 62
     4
100
AcDbLine
 10
629.6829316717158
 20
-23.2538754191926
 30
0.0
 11
629.4182257893629
 21
-23.6538754191926
 31
0.0
  0
LINE
  5
102
330
1F
100
AcDbEntity
  8
1
  6
Continuous
 62
     4
100
AcDbLine
 10
629.7711669658335
 20
-22.8538754191926
 30
0.0
 11
629.6829316717158
 21
-23.2538754191926
 31
0.0
  0
LINE
  5
103
330
1F
100
AcDbEntity
  8
1
  6
Continuous
 62
     4
100
AcDbLine
 10
629.4182257893629
 20
-22.4538754191926
 30
0.0
 11
629.7711669658335
 21
-22.8538754191926
 31
0.0
  0
LINE
  5
104
330
1F
100
AcDbEntity
  8
1
  6
Continuous
 62
     4
100
AcDbLine
 10
628.888814024657
 20
-22.2538754191926
 30
0.0
 11
629.4182257893629
 21
-22.4538754191926
 31
0.0
  0
LINE
  5
105
330
1F
100
AcDbEntity
  8
1
  6
Continuous
 62
     4
100
AcDbLine
 10
628.3594022599511
 20
-22.4538754191926
 30
0.0
 11
628.888814024657
 21
-22.2538754191926
 31
0.0
  0
LINE
  5
106
330
1F
100
AcDbEntity
  8
1
  6
Continuous
 62
     4
100
AcDbLine
 10
628.0064610834805
 20
-22.8538754191926
 30
0.0
 11
628.3594022599511
 21
-22.4538754191926
 31
0.0
  0
LINE
  5
107
330
1F
100
AcDbEntity
  8
1
  6
Continuous
 62
     4
100
AcDbLine
 10
625.3594022599511
 20
-24.4538754191926
 30
0.0
 11
626.7711669658335
 21
-24.4538754191926
 31
0.0
  0
LINE
  5
108
330
1F
100
AcDbEntity
  8
1
  6
Continuous
 62
     4
100
AcDbLine
 10
626.0652846128924
 20
-22.2538754191926
 30
0.0
 11
627.0358728481865
 21
-25.2538754191926
 31
0.0
  0
LINE
  5
109
330
1F
100
AcDbEntity
  8
1
  6
Continuous
 62
     4
100
AcDbLine
 10
625.0946963775982
 20
-25.2538754191926
 30
0.0
 11
626.0652846128924
 21
-22.2538754191926
 31
0.0
  0
LINE
  5
10A
330
1F
100
AcDbEntity
  8
1
  6
Continuous
 62
     4
100
AcDbLine
 10
622.6241081423041
 20
-23.7538754191926
 30
0.0
 11
624.2123434364217
 21
-23.7538754191926
 31
0.0
  0
LINE
  5
10B
330
1F
100
AcDbEntity
  8
1
  6
Continuous
 62
     4
100
AcDbLine
 10
619.888814024657
 20
-24.0538754191926
 30
0.0
 11
619.888814024657
 21
-25.2538754191926
 31
0.0
  0
LINE
  5
10C
330
1F
100
AcDbEntity
  8
1
  6
Continuous
 62
     4
100
AcDbLine
 10
620.3299904952453
 20
-23.5538754191926
 30
0.0
 11
621.7417552011276
 21
-25.2538754191926
 31
0.0
  0
LINE
  5
10D
330
1F
100
AcDbEntity
  8
1
  6
Continuous
 62
     4
100
AcDbLine
 10
621.5652846128922
 20
-22.2538754191926
 30
0.0
 11
619.888814024657
 21
-24.0538754191926
 31
0.0
  0
LINE
  5
10E
330
1F
100
AcDbEntity
  8
1
  6
Continuous
 62
     4
100
AcDbLine
 10
619.888814024657
 20
-22.2538754191926
 30
0.0
 11
619.888814024657
 21
-24.0538754191926
 31
0.0
  0
LINE
  5
10F
330
1F
100
AcDbEntity
  8
1
  6
Continuous
 62
     4
100
AcDbLine
 10
680.2161758800604
 20
7.01170573999327
 30
0.0
 11
681.539705291825
 21
7.01170573999327
 31
0.0
  0
LINE
  5
110
330
1F
100
AcDbEntity
  8
1
  6
Continuous
 62
     4
100
AcDbLine
 10
679.5985288212369
 20
5.11170573999327
 30
0.0
 11
679.5985288212369
 21
6.51170573999327
 31
0.0
  0
LINE
  5
111
330
1F
100
AcDbEntity
  8
1
  6
Continuous
 62
     4
100
AcDbLine
 10
681.0985288212369
 20
5.11170573999327
 30
0.0
 11
679.5985288212369
 21
5.11170573999327
 31
0.0
  0
LINE
  5
112
330
1F
100
AcDbEntity
  8
1
  6
Continuous
 62
     4
100
AcDbLine
 10
681.0985288212369
 20
6.51170573999327
 30
0.0
 11
681.0985288212369
 21
5.11170573999327
 31
0.0
  0
LINE
  5
113
330
1F
100
AcDbEntity
  8
1
  6
Continuous
 62
     4
100
AcDbLine
 10
679.5985288212369
 20
6.51170573999327
 30
0.0
 11
681.0985288212369
 21
6.51170573999327
 31
0.0
  0
LINE
  5
114
330
1F
100
AcDbEntity
  8
1
  6
Continuous
 62
     4
100
AcDbLine
 10
681.2749994094721
 20
4.41170573999327
 30
0.0
 11
680.8338229388839
 21
4.51170573999327
 31
0.0
  0
LINE
  5
115
330
1F
100
AcDbEntity
  8
1
  6
Continuous
 62
     4
100
AcDbLine
 10
681.539705291825
 20
4.71170573999327
 30
0.0
 11
681.2749994094721
 21
4.41170573999327
 31
0.0
  0
LINE
  5
116
330
1F
100
AcDbEntity
  8
1
  6
Continuous
 62
     4
100
AcDbLine
 10
681.539705291825
 20
7.01170573999327
 30
0.0
 11
681.539705291825
 21
4.71170573999327
 31
0.0
  0
LINE
  5
117
330
1F
100
AcDbEntity
  8
1
  6
Continuous
 62
     4
100
AcDbLine
 10
679.1573523506486
 20
7.01170573999327
 30
0.0
 11
680.2161758800604
 21
7.01170573999327
 31
0.0
  0
LINE
  5
118
330
1F
100
AcDbEntity
  8
1
  6
Continuous
 62
     4
100
AcDbLine
 10
679.1573523506486
 20
4.41170573999327
 30
0.0
 11
679.1573523506486
 21
7.01170573999327
 31
0.0
  0
LINE
  5
119
330
1F
100
AcDbEntity
  8
1
  6
Continuous
 62
     4
100
AcDbLine
 10
680.3926464682957
 20
7.41170573999327
 30
0.0
 11
680.2161758800604
 21
7.01170573999327
 31
0.0
  0
LINE
  5
11A
330
1F
100
AcDbEntity
  8
1
  6
Continuous
 62
     4
100
AcDbLine
 10
676.2455876447661
 20
7.01170573999327
 30
0.0
 11
678.0985288212368
 21
7.01170573999327
 31
0.0
  0
LINE
  5
11B
330
1F
100
AcDbEntity
  8
1
  6
Continuous
 62
     4
100
AcDbLine
 10
676.2455876447661
 20
6.31170573999327
 30
0.0
 11
676.2455876447661
 21
6.01170573999327
 31
0.0
  0
LINE
  5
11C
330
1F
100
AcDbEntity
  8
1
  6
Continuous
 62
     4
100
AcDbLine
 10
677.3926464682955
 20
4.41170573999327
 30
0.0
 11
676.5985288212368
 21
4.51170573999327
 31
0.0
  0
LINE
  5
11D
330
1F
100
AcDbEntity
  8
1
  6
Continuous
 62
     4
100
AcDbLine
 10
677.9220582330014
 20
5.11170573999327
 30
0.0
 11
677.3926464682955
 21
4.41170573999327
 31
0.0
  0
LINE
  5
11E
330
1F
100
AcDbEntity
  8
1
  6
Continuous
 62
     4
100
AcDbLine
 10
677.9220582330014
 20
6.31170573999327
 30
0.0
 11
677.9220582330014
 21
5.11170573999327
 31
0.0
  0
LINE
  5
11F
330
1F
100
AcDbEntity
  8
1
  6
Continuous
 62
     4
100
AcDbLine
 10
676.2455876447661
 20
6.31170573999327
 30
0.0
 11
677.9220582330014
 21
6.31170573999327
 31
0.0
  0
LINE
  5
120
330
1F
100
AcDbEntity
  8
1
  6
Continuous
 62
     4
100
AcDbLine
 10
675.9808817624132
 20
5.11170573999327
 30
0.0
 11
675.4514699977074
 21
4.41170573999327
 31
0.0
  0
LINE
  5
121
330
1F
100
AcDbEntity
  8
1
  6
Continuous
 62
     4
100
AcDbLine
 10
676.2455876447661
 20
6.01170573999327
 30
0.0
 11
675.9808817624132
 21
5.11170573999327
 31
0.0
  0
LINE
  5
122
330
1F
100
AcDbEntity
  8
1
  6
Continuous
 62
     4
100
AcDbLine
 10
676.2455876447661
 20
7.01170573999327
 30
0.0
 11
676.2455876447661
 21
6.31170573999327
 31
0.0
  0
LINE
  5
123
330
1F
100
AcDbEntity
  8
1
  6
Continuous
 62
     4
100
AcDbLine
 10
675.4514699977074
 20
7.01170573999327
 30
0.0
 11
676.2455876447661
 21
7.01170573999327
 31
0.0
  0
LINE
  5
124
330
1F
100
AcDbEntity
  8
1
  6
Continuous
 62
     4
100
AcDbLine
 10
676.8632347035897
 20
7.41170573999327
 30
0.0
 11
676.8632347035897
 21
7.01170573999327
 31
0.0
  0
LINE
  5
125
330
1F
100
AcDbEntity
  8
1
  6
Continuous
 62
     4
100
AcDbLine
 10
673.2455876447661
 20
7.11170573999327
 30
0.0
 11
673.2455876447661
 21
4.31170573999327
 31
0.0
  0
LINE
  5
126
330
1F
100
AcDbEntity
  8
1
  6
Continuous
 62
     4
100
AcDbLine
 10
674.039705291825
 20
5.21170573999327
 30
0.0
 11
674.6573523506486
 21
4.51170573999327
 31
0.0
  0
LINE
  5
127
330
1F
100
AcDbEntity
  8
1
  6
Continuous
 62
     4
100
AcDbLine
 10
673.5985288212368
 20
6.01170573999327
 30
0.0
 11
674.039705291825
 21
5.21170573999327
 31
0.0
  0
LINE
  5
128
330
1F
100
AcDbEntity
  8
1
  6
Continuous
 62
     4
100
AcDbLine
 10
673.2455876447661
 20
7.11170573999327
 30
0.0
 11
673.5985288212368
 21
6.01170573999327
 31
0.0
  0
LINE
  5
129
330
1F
100
AcDbEntity
  8
1
  6
Continuous
 62
     4
100
AcDbLine
 10
674.4808817624132
 20
7.11170573999327
 30
0.0
 11
673.7749994094721
 21
6.11170573999327
 31
0.0
  0
LINE
  5
12A
330
1F
100
AcDbEntity
  8
1
  6
Continuous
 62
     4
100
AcDbLine
 10
672.4514699977074
 20
5.31170573999327
 30
0.0
 11
671.9220582330015
 21
4.61170573999327
 31
0.0
  0
LINE
  5
12B
330
1F
100
AcDbEntity
  8
1
  6
Continuous
 62
     4
100
AcDbLine
 10
672.7161758800603
 20
6.01170573999327
 30
0.0
 11
672.4514699977074
 21
5.31170573999327
 31
0.0
  0
LINE
  5
12C
330
1F
100
AcDbEntity
  8
1
  6
Continuous
 62
     4
100
AcDbLine
 10
672.804411174178
 20
6.81170573999327
 30
0.0
 11
672.7161758800603
 21
6.01170573999327
 31
0.0
  0
LINE
  5
12D
330
1F
100
AcDbEntity
  8
1
  6
Continuous
 62
     4
100
AcDbLine
 10
671.9220582330015
 20
6.81170573999327
 30
0.0
 11
672.804411174178
 21
6.81170573999327
 31
0.0
  0
LINE
  5
12E
330
1F
100
AcDbEntity
  8
1
  6
Continuous
 62
     4
100
AcDbLine
 10
673.2455876447661
 20
4.31170573999327
 30
0.0
 11
672.6279405859426
 21
4.71170573999327
 31
0.0
  0
LINE
  5
12F
330
1F
100
AcDbEntity
  8
1
  6
Continuous
 62
     4
100
AcDbLine
 10
673.2455876447661
 20
7.41170573999327
 30
0.0
 11
673.2455876447661
 21
7.11170573999327
 31
0.0
  0
LINE
  5
130
330
1F
100
AcDbEntity
  8
1
  6
Continuous
 62
     4
100
AcDbLine
 10
669.9808817624132
 20
7.11170573999327
 30
0.0
 11
670.9514699977074
 21
7.11170573999327
 31
0.0
  0
LINE
  5
131
330
1F
100
AcDbEntity
  8
1
  6
Continuous
 62
     4
100
AcDbLine
 10
671.039705291825
 20
4.41170573999327
 30
0.0
 11
671.039705291825
 21
5.11170573999327
 31
0.0
  0
LINE
  5
132
330
1F
100
AcDbEntity
  8
1
  6
Continuous
 62
     4
100
AcDbLine
 10
670.5985288212368
 20
4.41170573999327
 30
0.0
 11
671.039705291825
 21
4.41170573999327
 31
0.0
  0
LINE
  5
133
330
1F
100
AcDbEntity
  8
1
  6
Continuous
 62
     4
100
AcDbLine
 10
670.5985288212368
 20
6.01170573999327
 30
0.0
 11
670.5985288212368
 21
4.41170573999327
 31
0.0
  0
LINE
  5
134
330
1F
100
AcDbEntity
  8
1
  6
Continuous
 62
     4
100
AcDbLine
 10
669.9808817624132
 20
6.01170573999327
 30
0.0
 11
669.9808817624132
 21
4.41170573999327
 31
0.0
  0
LINE
  5
135
330
1F
100
AcDbEntity
  8
1
  6
Continuous
 62
     4
100
AcDbLine
 10
669.1867641153544
 20
4.91170573999327
 30
0.0
 11
668.8338229388838
 21
4.41170573999327
 31
0.0
  0
LINE
  5
136
330
1F
100
AcDbEntity
  8
1
  6
Continuous
 62
     4
100
AcDbLine
 10
669.3632347035897
 20
5.41170573999327
 30
0.0
 11
669.1867641153544
 21
4.91170573999327
 31
0.0
  0
LINE
  5
137
330
1F
100
AcDbEntity
  8
1
  6
Continuous
 62
     4
100
AcDbLine
 10
669.4514699977074
 20
6.01170573999327
 30
0.0
 11
669.3632347035897
 21
5.41170573999327
 31
0.0
  0
LINE
  5
138
330
1F
100
AcDbEntity
  8
1
  6
Continuous
 62
     4
100
AcDbLine
 10
670.8632347035897
 20
6.11170573999327
 30
0.0
 11
671.039705291825
 21
5.71170573999327
 31
0.0
  0
LINE
  5
139
330
1F
100
AcDbEntity
  8
1
  6
Continuous
 62
     4
100
AcDbLine
 10
670.5102935271192
 20
6.71170573999327
 30
0.0
 11
670.8632347035897
 21
6.11170573999327
 31
0.0
  0
LINE
  5
13A
330
1F
100
AcDbEntity
  8
1
  6
Continuous
 62
     4
100
AcDbLine
 10
669.2749994094721
 20
6.01170573999327
 30
0.0
 11
670.8632347035897
 21
6.11170573999327
 31
0.0
  0
LINE
  5
13B
330
1F
100
AcDbEntity
  8
1
  6
Continuous
 62
     4
100
AcDbLine
 10
669.0102935271192
 20
6.01170573999327
 30
0.0
 11
669.2749994094721
 21
6.01170573999327
 31
0.0
  0
LINE
  5
13C
330
1F
100
AcDbEntity
  8
1
  6
Continuous
 62
     4
100
AcDbLine
 10
669.9808817624132
 20
7.11170573999327
 30
0.0
 11
669.2749994094721
 21
6.01170573999327
 31
0.0
  0
LINE
  5
13D
330
1F
100
AcDbEntity
  8
1
  6
Continuous
 62
     4
100
AcDbLine
 10
669.9808817624132
 20
7.51170573999327
 30
0.0
 11
669.9808817624132
 21
7.11170573999327
 31
0.0
  0
LINE
  5
13E
330
1F
100
AcDbEntity
  8
1
  6
Continuous
 62
     4
100
AcDbLine
 10
669.0102935271192
 20
7.11170573999327
 30
0.0
 11
669.9808817624132
 21
7.11170573999327
 31
0.0
  0
LINE
  5
13F
330
1F
100
AcDbEntity
  8
1
  6
Continuous
 62
     4
100
AcDbLine
 10
668.4808817624132
 20
4.41170573999327
 30
0.0
 11
668.9220582330015
 21
5.61170573999327
 31
0.0
  0
LINE
  5
140
330
1F
100
AcDbEntity
  8
1
  6
Continuous
 62
     4
100
AcDbLine
 10
668.4808817624132
 20
6.31170573999327
 30
0.0
 11
668.9220582330015
 21
5.91170573999327
 31
0.0
  0
LINE
  5
141
330
1F
100
AcDbEntity
  8
1
  6
Continuous
 62
     4
100
AcDbLine
 10
668.5691170565309
 20
7.21170573999327
 30
0.0
 11
669.0102935271192
 21
6.81170573999327
 31
0.0
  0
LINE
  5
142
330
1F
100
AcDbEntity
  8
3
  6
Continuous
 62
     3
100
AcDbLine
 10
658.183180452958
 20
183.290968517816
 30
0.0
 11
658.993840624738
 21
182.480308346036
 31
0.0
  0
LINE
  5
143
330
1F
100
AcDbEntity
  8
3
  6
Continuous
 62
     3
100
AcDbLine
 10
658.183180452958
 20
154.790968517816
 30
0.0
 11
658.993840624738
 21
155.601628689596
 31
0.0
  0
LINE
  5
144
330
1F
100
AcDbEntity
  8
3
  6
PHANTOM
 62
     2
100
AcDbLine
 10
654.183180452958
 20
183.290968517816
 30
0.0
 11
658.183180452958
 21
183.290968517816
 31
0.0
  0
LINE
  5
145
330
1F
100
AcDbEntity
  8
3
  6
PHANTOM
 62
     2
100
AcDbLine
 10
654.183180452958
 20
153.790968517816
 30
0.0
 11
654.183180452958
 21
184.290968517816
 31
0.0
  0
LINE
  5
146
330
1F
100
AcDbEntity
  8
3
  6
PHANTOM
 62
     2
100
AcDbLine
 10
650.683180452958
 20
184.290968517816
 30
0.0
 11
654.183180452958
 21
184.290968517816
 31
0.0
  0
LINE
  5
147
330
1F
100
AcDbEntity
  8
3
  6
PHANTOM
 62
     2
100
AcDbLine
 10
650.683180452958
 20
153.790968517816
 30
0.0
 11
650.683180452958
 21
184.290968517816
 31
0.0
  0
LINE
  5
148
330
1F
100
AcDbEntity
  8
3
  6
PHANTOM
 62
     2
100
AcDbLine
 10
650.683180452958
 20
153.790968517816
 30
0.0
 11
654.183180452958
 21
153.790968517816
 31
0.0
  0
LINE
  5
149
330
1F
100
AcDbEntity
  8
3
  6
PHANTOM
 62
     2
100
AcDbLine
 10
654.183180452958
 20
154.790968517816
 30
0.0
 11
658.183180452958
 21
154.790968517816
 31
0.0
  0
LINE
  5
158
330
1F
100
AcDbEntity
  8
3
  6
Continuous
 62
     3
100
AcDbLine
 10
637.875179442128
 20
169.040968517816
 30
0.0
 11
656.481156338001
 21
169.040968517816
 31
0.0
  0
LINE
  5
159
330
1F
100
AcDbEntity
  8
3
  6
Continuous
 62
     3
100
AcDbLine
 10
636.178167890065
 20
150.040968517816
 30
0.0
 11
658.178167890065
 21
150.040968517816
 31
0.0
  0
LINE
  5
15A
330
1F
100
AcDbEntity
  8
3
  6
Continuous
 62
     3
100
AcDbLine
 10
636.178167890065
 20
188.040968517816
 30
0.0
 11
658.178167890065
 21
188.040968517816
 31
0.0
  0
LINE
  5
15B
330
1F
100
AcDbEntity
  8
3
  6
Continuous
 62
     3
100
AcDbLine
 10
660.054500796518
 20
156.040968517816
 30
0.0
 11
671.183180452958
 21
156.040968517816
 31
0.0
  0
LINE
  5
15C
330
1F
100
AcDbEntity
  8
3
  6
Continuous
 62
     3
100
AcDbLine
 10
658.183180452958
 20
154.790968517816
 30
0.0
 11
658.993840624738
 21
155.601628689596
 31
0.0
  0
LINE
  5
15D
330
1F
100
AcDbEntity
  8
3
  6
Continuous
 62
     3
100
AcDbLine
 10
636.178167890065
 20
150.040968517816
 30
0.0
 11
636.178167890065
 21
188.040968517816
 31
0.0
  0
LINE
  5
15E
330
1F
100
AcDbEntity
  8
3
  6
Continuous
 62
     3
100
AcDbLine
 10
658.178167890065
 20
150.040968517816
 30
0.0
 11
658.178167890065
 21
188.040968517816
 31
0.0
  0
LINE
  5
15F
330
1F
100
AcDbEntity
  8
3
  6
Continuous
 62
     3
100
AcDbLine
 10
658.183180452958
 20
183.290968517816
 30
0.0
 11
658.993840624738
 21
182.480308346036
 31
0.0
  0
LINE
  5
160
330
1F
100
AcDbEntity
  8
3
  6
Continuous
 62
     3
100
AcDbLine
 10
660.054500796518
 20
182.040968517816
 30
0.0
 11
671.183180452958
 21
182.040968517816
 31
0.0
  0
LINE
  5
161
330
1F
100
AcDbEntity
  8
3
  6
Continuous
 62
     3
100
AcDbLine
 10
637.875179442128
 20
41.071313403213
 30
0.0
 11
656.481156338001
 21
41.071313403213
 31
0.0
  0
LINE
  5
162
330
1F
100
AcDbEntity
  8
3
  6
Continuous
 62
     3
100
AcDbLine
 10
637.875179442128
 20
63.010623632419
 30
0.0
 11
656.481156338001
 21
63.010623632419
 31
0.0
  0
LINE
  5
163
330
1F
100
AcDbEntity
  8
3
  6
PHANTOM
 62
     2
100
AcDbLine
 10
654.183180452958
 20
37.790968517816
 30
0.0
 11
658.183180452958
 21
37.790968517816
 31
0.0
  0
LINE
  5
164
330
1F
100
AcDbEntity
  8
3
  6
PHANTOM
 62
     2
100
AcDbLine
 10
650.683180452958
 20
36.790968517816
 30
0.0
 11
654.183180452958
 21
36.790968517816
 31
0.0
  0
LINE
  5
165
330
1F
100
AcDbEntity
  8
3
  6
PHANTOM
 62
     2
100
AcDbLine
 10
650.683180452958
 20
36.790968517816
 30
0.0
 11
650.683180452958
 21
67.290968517816
 31
0.0
  0
LINE
  5
166
330
1F
100
AcDbEntity
  8
3
  6
PHANTOM
 62
     2
100
AcDbLine
 10
650.683180452958
 20
67.290968517816
 30
0.0
 11
654.183180452958
 21
67.290968517816
 31
0.0
  0
LINE
  5
167
330
1F
100
AcDbEntity
  8
3
  6
PHANTOM
 62
     2
100
AcDbLine
 10
654.183180452958
 20
36.790968517816
 30
0.0
 11
654.183180452958
 21
67.290968517816
 31
0.0
  0
LINE
  5
168
330
1F
100
AcDbEntity
  8
3
  6
PHANTOM
 62
     2
100
AcDbLine
 10
654.183180452958
 20
66.290968517816
 30
0.0
 11
658.183180452958
 21
66.290968517816
 31
0.0
  0
LINE
  5
169
330
1F
100
AcDbEntity
  8
3
  6
Continuous
 62
     3
100
AcDbLine
 10
660.054500796518
 20
39.040968517816
 30
0.0
 11
671.183180452958
 21
39.040968517816
 31
0.0
  0
LINE
  5
16A
330
1F
100
AcDbEntity
  8
3
  6
Continuous
 62
     3
100
AcDbLine
 10
658.183180452958
 20
37.790968517816
 30
0.0
 11
658.993840624738
 21
38.601628689596
 31
0.0
  0
LINE
  5
16B
330
1F
100
AcDbEntity
  8
3
  6
Continuous
 62
     3
100
AcDbLine
 10
658.178167890065
 20
33.040968517816
 30
0.0
 11
656.481156338001
 21
30.10165828861
 31
0.0
  0
LINE
  5
16C
330
1F
100
AcDbEntity
  8
3
  6
Continuous
 62
     3
100
AcDbLine
 10
656.481156338001
 20
30.10165828861
 30
0.0
 11
637.875179442128
 21
30.10165828861
 31
0.0
  0
LINE
  5
16D
330
1F
100
AcDbEntity
  8
3
  6
Continuous
 62
     3
100
AcDbLine
 10
636.178167890065
 20
33.040968517816
 30
0.0
 11
637.875179442128
 21
30.10165828861
 31
0.0
  0
LINE
  5
16E
330
1F
100
AcDbEntity
  8
3
  6
Continuous
 62
     3
100
AcDbLine
 10
636.178167890065
 20
33.040968517816
 30
0.0
 11
636.178167890065
 21
71.040968517816
 31
0.0
  0
LINE
  5
16F
330
1F
100
AcDbEntity
  8
3
  6
Continuous
 62
     3
100
AcDbLine
 10
636.178167890065
 20
71.040968517816
 30
0.0
 11
637.875179442128
 21
73.980278747022
 31
0.0
  0
LINE
  5
170
330
1F
100
AcDbEntity
  8
3
  6
Continuous
 62
     3
100
AcDbLine
 10
656.481156338001
 20
73.980278747022
 30
0.0
 11
637.875179442128
 21
73.980278747022
 31
0.0
  0
LINE
  5
171
330
1F
100
AcDbEntity
  8
3
  6
Continuous
 62
     3
100
AcDbLine
 10
658.178167890065
 20
71.040968517816
 30
0.0
 11
656.481156338001
 21
73.980278747022
 31
0.0
  0
LINE
  5
172
330
1F
100
AcDbEntity
  8
3
  6
Continuous
 62
     3
100
AcDbLine
 10
658.178167890065
 20
33.040968517816
 30
0.0
 11
658.178167890065
 21
71.040968517816
 31
0.0
  0
LINE
  5
173
330
1F
100
AcDbEntity
  8
3
  6
Continuous
 62
     3
100
AcDbLine
 10
658.183180452958
 20
66.290968517816
 30
0.0
 11
658.993840624738
 21
65.480308346036
 31
0.0
  0
LINE
  5
174
330
1F
100
AcDbEntity
  8
3
  6
Continuous
 62
     3
100
AcDbLine
 10
660.054500796518
 20
65.040968517816
 30
0.0
 11
671.183180452958
 21
65.040968517816
 31
0.0
  0
LINE
  5
175
330
1F
100
AcDbEntity
  8
3
  6
Continuous
 62
     3
100
AcDbLine
 10
540.9831804529581
 20
97.040968517816
 30
0.0
 11
540.9831804529581
 21
84.040968517816
 31
0.0
  0
LINE
  5
176
330
1F
100
AcDbEntity
  8
3
  6
Continuous
 62
     3
100
AcDbLine
 10
542.4831804529581
 20
82.104476844712
 30
0.0
 11
542.4831804529581
 21
25.040968517816
 31
0.0
  0
LINE
  5
177
330
1F
100
AcDbEntity
  8
3
  6
Continuous
 62
     3
100
AcDbLine
 10
719.683180452958
 20
97.040968517816
 30
0.0
 11
719.683180452958
 21
84.040968517816
 31
0.0
  0
LINE
  5
178
330
1F
100
AcDbEntity
  8
3
  6
Continuous
 62
     3
100
AcDbLine
 10
718.183180452958
 20
82.104476844712
 30
0.0
 11
718.183180452958
 21
72.49045826059898
 31
0.0
  0
LINE
  5
179
330
1F
100
AcDbEntity
  8
3
  6
Continuous
 62
     3
100
AcDbLine
 10
673.183180452958
 20
82.104476844712
 30
0.0
 11
673.183180452958
 21
72.24271317105499
 31
0.0
  0
LINE
  5
17A
330
1F
100
AcDbEntity
  8
3
  6
Continuous
 62
     3
100
AcDbLine
 10
673.183180452958
 20
83.040968517816
 30
0.0
 11
718.183180452958
 21
83.040968517816
 31
0.0
  0
LINE
  5
17B
330
1F
100
AcDbEntity
  8
3
  6
Continuous
 62
     3
100
AcDbLine
 10
671.683180452958
 20
97.040968517816
 30
0.0
 11
671.683180452958
 21
84.040968517816
 31
0.0
  0
LINE
  5
17C
330
1F
100
AcDbEntity
  8
3
  6
Continuous
 62
     3
100
AcDbLine
 10
542.4831804529581
 20
83.040968517816
 30
0.0
 11
587.4831804529581
 21
83.040968517816
 31
0.0
  0
LINE
  5
17D
330
1F
100
AcDbEntity
  8
3
  6
Continuous
 62
     3
100
AcDbLine
 10
588.9831804529581
 20
97.040968517816
 30
0.0
 11
588.9831804529581
 21
84.040968517816
 31
0.0
  0
LINE
  5
17E
330
1F
100
AcDbEntity
  8
3
  6
Continuous
 62
     3
100
AcDbLine
 10
682.586561800614
 20
47.040968517816
 30
0.0
 11
692.586561800614
 21
47.040968517816
 31
0.0
  0
LINE
  5
17F
330
1F
100
AcDbEntity
  8
3
  6
Continuous
 62
     3
100
AcDbLine
 10
685.586561800614
 20
51.040968517816
 30
0.0
 11
682.586561800614
 21
47.040968517816
 31
0.0
  0
LINE
  5
180
330
1F
100
AcDbEntity
  8
3
  6
Continuous
 62
     3
100
AcDbLine
 10
694.586561800614
 20
50.040968517816
 30
0.0
 11
692.586561800614
 21
47.040968517816
 31
0.0
  0
LINE
  5
181
330
1F
100
AcDbEntity
  8
3
  6
Continuous
 62
     3
100
AcDbLine
 10
703.586561800614
 20
50.040968517816
 30
0.0
 11
694.586561800614
 21
50.040968517816
 31
0.0
  0
LINE
  5
182
330
1F
100
AcDbEntity
  8
3
  6
Continuous
 62
     3
100
AcDbLine
 10
703.586561800614
 20
50.040968517816
 30
0.0
 11
702.586561800614
 21
47.040968517816
 31
0.0
  0
LINE
  5
183
330
1F
100
AcDbEntity
  8
3
  6
Continuous
 62
     3
100
AcDbLine
 10
702.586561800614
 20
47.040968517816
 30
0.0
 11
707.586561800614
 21
51.040968517816
 31
0.0
  0
LINE
  5
184
330
1F
100
AcDbEntity
  8
3
  6
Continuous
 62
     3
100
AcDbLine
 10
685.586561800614
 20
51.040968517816
 30
0.0
 11
707.586561800614
 21
51.040968517816
 31
0.0
  0
LINE
  5
185
330
1F
100
AcDbEntity
  8
3
  6
Continuous
 62
     3
100
AcDbLine
 10
718.683180452958
 20
32.540968517816
 30
0.0
 11
718.183180452958
 21
32.540968517816
 31
0.0
  0
LINE
  5
186
330
1F
100
AcDbEntity
  8
3
  6
Continuous
 62
     3
100
AcDbLine
 10
718.183180452958
 20
31.59147877503301
 30
0.0
 11
718.183180452958
 21
25.040968517816
 31
0.0
  0
LINE
  5
187
330
1F
100
AcDbEntity
  8
3
  6
Continuous
 62
     3
100
AcDbLine
 10
718.683180452958
 20
71.540968517816
 30
0.0
 11
718.183180452958
 21
71.540968517816
 31
0.0
  0
LINE
  5
188
330
1F
100
AcDbEntity
  8
3
  6
Continuous
 62
     3
100
AcDbLine
 10
720.183180452958
 20
34.040968517816
 30
0.0
 11
720.183180452958
 21
70.040968517816
 31
0.0
  0
LINE
  5
189
330
1F
100
AcDbEntity
  8
3
  6
Continuous
 62
     3
100
AcDbLine
 10
720.183180452958
 20
151.040968517816
 30
0.0
 11
720.183180452958
 21
187.040968517816
 31
0.0
  0
LINE
  5
18A
330
1F
100
AcDbEntity
  8
3
  6
Continuous
 62
     3
100
AcDbLine
 10
718.683180452958
 20
149.540968517816
 30
0.0
 11
711.367567594316
 21
149.540968517816
 31
0.0
  0
LINE
  5
18B
330
1F
100
AcDbEntity
  8
3
  6
Continuous
 62
     3
100
AcDbLine
 10
718.683180452958
 20
188.540968517816
 30
0.0
 11
711.367567594316
 21
188.540968517816
 31
0.0
  0
LINE
  5
18C
330
1F
100
AcDbEntity
  8
3
  6
Continuous
 62
     3
100
AcDbLine
 10
673.183180452958
 20
31.83922386457701
 30
0.0
 11
673.183180452958
 21
25.040968517816
 31
0.0
  0
LINE
  5
18D
330
1F
100
AcDbEntity
  8
3
  6
Continuous
 62
     3
100
AcDbLine
 10
672.183180452958
 20
33.57127467214599
 30
0.0
 11
672.183180452958
 21
70.510662363486
 31
0.0
  0
LINE
  5
18E
330
1F
100
AcDbEntity
  8
3
  6
Continuous
 62
     3
100
AcDbLine
 10
675.183180452958
 20
23.040968517816
 30
0.0
 11
716.183180452958
 21
23.040968517816
 31
0.0
  0
LINE
  5
18F
330
1F
100
AcDbEntity
  8
3
  6
DOT_CENTER
 62
     1
100
AcDbLine
 10
695.683180452958
 20
47.040968517816
 30
0.0
 11
695.683180452958
 21
19.040968517816
 31
0.0
  0
LINE
  5
190
330
1F
100
AcDbEntity
  8
3
  6
DOT_CENTER
 62
     1
100
AcDbLine
 10
695.683180452958
 20
111.040968517816
 30
0.0
 11
695.683180452958
 21
62.040968517816
 31
0.0
  0
LINE
  5
191
330
1F
100
AcDbEntity
  8
3
  6
DOT_CENTER
 62
     1
100
AcDbLine
 10
680.683180452958
 20
52.040968517816
 30
0.0
 11
630.683180452958
 21
52.040968517816
 31
0.0
  0
LINE
  5
192
330
1F
100
AcDbEntity
  8
3
  6
DOT_CENTER
 62
     1
100
AcDbLine
 10
740.683180452958
 20
52.040968517816
 30
0.0
 11
710.683180452958
 21
52.040968517816
 31
0.0
  0
LINE
  5
193
330
1F
100
AcDbEntity
  8
3
  6
Continuous
 62
     3
100
AcDbLine
 10
673.683180452958
 20
149.540968517816
 30
0.0
 11
679.9987933116
 21
149.540968517816
 31
0.0
  0
LINE
  5
194
330
1F
100
AcDbEntity
  8
3
  6
Continuous
 62
     3
100
AcDbLine
 10
672.183180452958
 20
174.809284500777
 30
0.0
 11
672.183180452958
 21
187.040968517816
 31
0.0
  0
LINE
  5
195
330
1F
100
AcDbEntity
  8
3
  6
Continuous
 62
     3
100
AcDbLine
 10
672.183180452958
 20
151.040968517816
 30
0.0
 11
672.183180452958
 21
163.272652534855
 31
0.0
  0
LINE
  5
196
330
1F
100
AcDbEntity
  8
3
  6
Continuous
 62
     3
100
AcDbLine
 10
673.683180452958
 20
188.540968517816
 30
0.0
 11
679.9987933116
 21
188.540968517816
 31
0.0
  0
LINE
  5
197
330
1F
100
AcDbEntity
  8
3
  6
DOT_CENTER
 62
     1
100
AcDbLine
 10
656.481156338001
 20
169.040968517816
 30
0.0
 11
743.183180452958
 21
169.040968517816
 31
0.0
  0
LINE
  5
198
330
1F
100
AcDbEntity
  8
3
  6
DOT_CENTER
 62
     1
100
AcDbLine
 10
630.683180452958
 20
169.040968517816
 30
0.0
 11
637.875179442128
 21
169.040968517816
 31
0.0
  0
LINE
  5
199
330
1F
100
AcDbEntity
  8
3
  6
DOT_CENTER
 62
     1
100
AcDbLine
 10
695.683180452958
 20
140.040968517816
 30
0.0
 11
695.683180452958
 21
198.040968517816
 31
0.0
  0
LINE
  5
19A
330
1F
100
AcDbEntity
  8
3
  6
Continuous
 62
     3
100
AcDbLine
 10
587.4831804529581
 20
82.104476844712
 30
0.0
 11
587.4831804529581
 21
25.040968517816
 31
0.0
  0
LINE
  5
19B
330
1F
100
AcDbEntity
  8
3
  6
DOT_CENTER
 62
     1
100
AcDbLine
 10
537.4831804529581
 20
52.040968517816
 30
0.0
 11
592.4831804529581
 21
52.040968517816
 31
0.0
  0
LINE
  5
19C
330
1F
100
AcDbEntity
  8
3
  6
Continuous
 62
     3
100
AcDbLine
 10
544.4831804529581
 20
23.040968517816
 30
0.0
 11
585.4831804529581
 21
23.040968517816
 31
0.0
  0
LINE
  5
19D
330
1F
100
AcDbEntity
  8
3
  6
DOT_CENTER
 62
     1
100
AcDbLine
 10
564.9831804529581
 20
113.040968517816
 30
0.0
 11
564.9831804529581
 21
19.040968517816
 31
0.0
  0
LINE
  5
19E
330
1F
100
AcDbEntity
  8
3
  6
Continuous
 62
     3
100
AcDbLine
 10
735.487680452958
 20
36.895468517816
 30
0.0
 11
724.0787090266531
 21
36.895468517816
 31
0.0
  0
LINE
  5
19F
330
1F
100
AcDbEntity
  8
3
  6
Continuous
 62
     3
100
AcDbLine
 10
734.183180452958
 20
35.590968517816
 30
0.0
 11
724.0787090266531
 21
35.590968517816
 31
0.0
  0
LINE
  5
1A0
330
1F
100
AcDbEntity
  8
3
  6
Continuous
 62
     3
100
AcDbLine
 10
734.183180452958
 20
68.490968517816
 30
0.0
 11
724.0787090266531
 21
68.490968517816
 31
0.0
  0
LINE
  5
1A1
330
1F
100
AcDbEntity
  8
3
  6
Continuous
 62
     3
100
AcDbLine
 10
735.487680452958
 20
67.186468517816
 30
0.0
 11
724.0787090266531
 21
67.186468517816
 31
0.0
  0
LINE
  5
1A2
330
1F
100
AcDbEntity
  8
3
  6
Continuous
 62
     3
100
AcDbLine
 10
724.0787090266531
 20
35.590968517816
 30
0.0
 11
724.0787090266531
 21
68.490968517816
 31
0.0
  0
LINE
  5
1A3
330
1F
100
AcDbEntity
  8
3
  6
Continuous
 62
     3
100
AcDbLine
 10
735.683180452958
 20
37.090968517816
 30
0.0
 11
734.183180452958
 21
35.590968517816
 31
0.0
  0
LINE
  5
1A4
330
1F
100
AcDbEntity
  8
3
  6
Continuous
 62
     3
100
AcDbLine
 10
734.183180452958
 20
68.490968517816
 30
0.0
 11
735.683180452958
 21
66.990968517816
 31
0.0
  0
LINE
  5
1A5
330
1F
100
AcDbEntity
  8
3
  6
Continuous
 62
     3
100
AcDbLine
 10
735.683180452958
 20
37.090968517816
 30
0.0
 11
735.683180452958
 21
66.990968517816
 31
0.0
  0
LINE
  5
1A6
330
1F
100
AcDbEntity
  8
1
  6
Continuous
 62
     3
100
AcDbLine
 10
734.183180452958
 20
35.590968517816
 30
0.0
 11
734.183180452958
 21
68.490968517816
 31
0.0
  0
LINE
  5
1A7
330
1F
100
AcDbEntity
  8
3
  6
Continuous
 62
     3
100
AcDbLine
 10
540.8931466028081
 20
99.093304488716
 30
0.0
 11
540.785588232208
 21
97.040968517816
 31
0.0
  0
LINE
  5
1A8
330
1F
100
AcDbEntity
  8
3
  6
Continuous
 62
     3
100
AcDbLine
 10
576.7474911297081
 20
107.888368677516
 30
0.0
 11
576.4831804530081
 21
108.040968517816
 31
0.0
  0
LINE
  5
1A9
330
1F
100
AcDbEntity
  8
3
  6
Continuous
 62
     3
100
AcDbLine
 10
553.2188697762081
 20
107.888368677516
 30
0.0
 11
553.4831804530081
 21
108.040968517816
 31
0.0
  0
LINE
  5
1AA
330
1F
100
AcDbEntity
  8
3
  6
Continuous
 62
     3
100
AcDbLine
 10
553.2580065428081
 20
107.910958034016
 30
0.0
 11
553.0168825052081
 21
101.006069021116
 31
0.0
  0
LINE
  5
1AB
330
1F
100
AcDbEntity
  8
3
  6
Continuous
 62
     3
100
AcDbLine
 10
553.4831804530081
 20
108.040968517816
 30
0.0
 11
576.4831804530081
 21
108.040968517816
 31
0.0
  0
LINE
  5
1AC
330
1F
100
AcDbEntity
  8
3
  6
Continuous
 62
     3
100
AcDbLine
 10
541.8919217430081
 20
100.040968517816
 30
0.0
 11
588.074584769108
 21
100.040968517816
 31
0.0
  0
LINE
  5
1AD
330
1F
100
AcDbEntity
  8
3
  6
Continuous
 62
     3
100
AcDbLine
 10
564.9831804530081
 20
100.040968517816
 30
0.0
 11
564.9831804530081
 21
106.838752512116
 31
0.0
  0
LINE
  5
1AE
330
1F
100
AcDbEntity
  8
3
  6
Continuous
 62
     3
100
AcDbLine
 10
589.180489145808
 20
97.040968517816
 30
0.0
 11
540.7858717601081
 21
97.040968517816
 31
0.0
  0
LINE
  5
1AF
330
1F
100
AcDbEntity
  8
3
  6
Continuous
 62
     3
100
AcDbLine
 10
576.9494784008081
 20
101.006069021116
 30
0.0
 11
576.7083543632082
 21
107.910958034016
 31
0.0
  0
LINE
  5
1B0
330
1F
100
AcDbEntity
  8
3
  6
Continuous
 62
     3
100
AcDbLine
 10
589.0732143031082
 20
99.093304488716
 30
0.0
 11
589.1807726737081
 21
97.040968517816
 31
0.0
  0
LINE
  5
1BF
330
1F
100
AcDbEntity
  8
3
  6
Continuous
 62
     3
100
AcDbLine
 10
540.8931466028081
 20
99.093304488716
 30
0.0
 11
540.785588232208
 21
97.040968517816
 31
0.0
  0
LINE
  5
1C0
330
1F
100
AcDbEntity
  8
3
  6
Continuous
 62
     3
100
AcDbLine
 10
576.7474911297081
 20
107.888368677516
 30
0.0
 11
576.4831804530081
 21
108.040968517816
 31
0.0
  0
LINE
  5
1C1
330
1F
100
AcDbEntity
  8
3
  6
Continuous
 62
     3
100
AcDbLine
 10
553.2188697762081
 20
107.888368677516
 30
0.0
 11
553.4831804530081
 21
108.040968517816
 31
0.0
  0
LINE
  5
1C2
330
1F
100
AcDbEntity
  8
3
  6
Continuous
 62
     3
100
AcDbLine
 10
553.2580065428081
 20
107.910958034016
 30
0.0
 11
553.0168825052081
 21
101.006069021116
 31
0.0
  0
LINE
  5
1C3
330
1F
100
AcDbEntity
  8
3
  6
Continuous
 62
     3
100
AcDbLine
 10
553.4831804530081
 20
108.040968517816
 30
0.0
 11
576.4831804530081
 21
108.040968517816
 31
0.0
  0
LINE
  5
1C4
330
1F
100
AcDbEntity
  8
3
  6
Continuous
 62
     3
100
AcDbLine
 10
541.8919217430081
 20
100.040968517816
 30
0.0
 11
588.074584769108
 21
100.040968517816
 31
0.0
  0
LINE
  5
1C5
330
1F
100
AcDbEntity
  8
3
  6
Continuous
 62
     3
100
AcDbLine
 10
564.9831804530081
 20
100.040968517816
 30
0.0
 11
564.9831804530081
 21
106.838752512116
 31
0.0
  0
LINE
  5
1C6
330
1F
100
AcDbEntity
  8
3
  6
Continuous
 62
     3
100
AcDbLine
 10
589.180489145808
 20
97.040968517816
 30
0.0
 11
540.7858717601081
 21
97.040968517816
 31
0.0
  0
LINE
  5
1C7
330
1F
100
AcDbEntity
  8
3
  6
Continuous
 62
     3
100
AcDbLine
 10
576.9494784008081
 20
101.006069021116
 30
0.0
 11
576.7083543632082
 21
107.910958034016
 31
0.0
  0
LINE
  5
1C8
330
1F
100
AcDbEntity
  8
3
  6
Continuous
 62
     3
100
AcDbLine
 10
589.0732143031082
 20
99.093304488716
 30
0.0
 11
589.1807726737081
 21
97.040968517816
 31
0.0
  0
LINE
  5
1D7
330
1F
100
AcDbEntity
  8
3
  6
Continuous
 62
     3
100
AcDbLine
 10
680.711692644158
 20
169.040968517816
 30
0.0
 11
682.100881249358
 21
169.040968517816
 31
0.0
  0
LINE
  5
1D8
330
1F
100
AcDbEntity
  8
3
  6
Continuous
 62
     3
100
AcDbLine
 10
710.654668261658
 20
169.040968517816
 30
0.0
 11
709.2654796564581
 21
169.040968517816
 31
0.0
  0
LINE
  5
1D9
330
1F
100
AcDbEntity
  8
3
  6
Continuous
 62
     3
100
AcDbLine
 10
688.197436548558
 20
182.006657292616
 30
0.0
 11
688.8920308511581
 21
180.803584669916
 31
0.0
  0
LINE
  5
1DA
330
1F
100
AcDbEntity
  8
3
  6
Continuous
 62
     3
100
AcDbLine
 10
703.168924357258
 20
156.075279743016
 30
0.0
 11
702.474330054658
 21
157.278352365816
 31
0.0
  0
LINE
  5
1DB
330
1F
100
AcDbEntity
  8
3
  6
Continuous
 62
     3
100
AcDbLine
 10
703.168924357258
 20
182.006657292616
 30
0.0
 11
702.474330054658
 21
180.803584669916
 31
0.0
  0
LINE
  5
1DC
330
1F
100
AcDbEntity
  8
3
  6
Continuous
 62
     3
100
AcDbLine
 10
688.197436548558
 20
156.075279743016
 30
0.0
 11
688.8920308511581
 21
157.278352365816
 31
0.0
  0
LINE
  5
207
330
1F
100
AcDbEntity
  8
3
  6
Continuous
 62
     3
100
AcDbLine
 10
719.773214303908
 20
99.09330447401601
 30
0.0
 11
719.880772673708
 21
97.040968517816
 31
0.0
  0
LINE
  5
208
330
1F
100
AcDbEntity
  8
3
  6
Continuous
 62
     3
100
AcDbLine
 10
709.500671135708
 20
101.006069021116
 30
0.0
 11
709.265479656508
 21
106.838752512116
 31
0.0
  0
LINE
  5
209
330
1F
100
AcDbEntity
  8
3
  6
Continuous
 62
     3
100
AcDbLine
 10
702.591925794308
 20
101.006069021116
 30
0.0
 11
702.474330054708
 21
106.838752512116
 31
0.0
  0
LINE
  5
20A
330
1F
100
AcDbEntity
  8
3
  6
Continuous
 62
     3
100
AcDbLine
 10
719.880772673708
 20
97.040968517816
 30
0.0
 11
671.4855882322081
 21
97.040968517816
 31
0.0
  0
LINE
  5
20B
330
1F
100
AcDbEntity
  8
3
  6
Continuous
 62
     3
100
AcDbLine
 10
672.591776136808
 20
100.040968517816
 30
0.0
 11
718.7745847691081
 21
100.040968517816
 31
0.0
  0
LINE
  5
20C
330
1F
100
AcDbEntity
  8
3
  6
Continuous
 62
     3
100
AcDbLine
 10
688.774435111608
 20
101.006069021116
 30
0.0
 11
688.892030851208
 21
106.838752512116
 31
0.0
  0
LINE
  5
20D
330
1F
100
AcDbEntity
  8
3
  6
Continuous
 62
     3
100
AcDbLine
 10
684.183180453008
 20
108.040968517816
 30
0.0
 11
707.183180453008
 21
108.040968517816
 31
0.0
  0
LINE
  5
20E
330
1F
100
AcDbEntity
  8
3
  6
Continuous
 62
     3
100
AcDbLine
 10
681.8656897702081
 20
101.006069021116
 30
0.0
 11
682.1008812494081
 21
106.838752512116
 31
0.0
  0
LINE
  5
20F
330
1F
100
AcDbEntity
  8
3
  6
Continuous
 62
     3
100
AcDbLine
 10
709.265479656508
 20
106.838752512116
 30
0.0
 11
707.183180453008
 21
108.040968517816
 31
0.0
  0
LINE
  5
210
330
1F
100
AcDbEntity
  8
3
  6
Continuous
 62
     3
100
AcDbLine
 10
682.1008812494081
 20
106.838752512116
 30
0.0
 11
684.183180453008
 21
108.040968517816
 31
0.0
  0
LINE
  5
211
330
1F
100
AcDbEntity
  8
3
  6
Continuous
 62
     3
100
AcDbLine
 10
671.593146602108
 20
99.09330447401601
 30
0.0
 11
671.4855882322081
 21
97.040968517816
 31
0.0
  0
LINE
  5
23B
330
1F
100
AcDbEntity
  8
1
  6
Continuous
 62
     3
100
AcDbLine
 10
734.183180452958
 20
152.590968517816
 30
0.0
 11
734.183180452958
 21
185.490968517816
 31
0.0
  0
LINE
  5
23C
330
1F
100
AcDbEntity
  8
3
  6
Continuous
 62
     3
100
AcDbLine
 10
735.683180452958
 20
154.090968517816
 30
0.0
 11
735.683180452958
 21
183.990968517816
 31
0.0
  0
LINE
  5
23D
330
1F
100
AcDbEntity
  8
3
  6
Continuous
 62
     3
100
AcDbLine
 10
734.183180452958
 20
185.490968517816
 30
0.0
 11
735.683180452958
 21
183.990968517816
 31
0.0
  0
LINE
  5
23E
330
1F
100
AcDbEntity
  8
3
  6
Continuous
 62
     3
100
AcDbLine
 10
735.683180452958
 20
154.090968517816
 30
0.0
 11
734.183180452958
 21
152.590968517816
 31
0.0
  0
LINE
  5
23F
330
1F
100
AcDbEntity
  8
3
  6
Continuous
 62
     3
100
AcDbLine
 10
724.0787090266531
 20
152.590968517816
 30
0.0
 11
724.0787090266531
 21
185.490968517816
 31
0.0
  0
LINE
  5
240
330
1F
100
AcDbEntity
  8
3
  6
Continuous
 62
     3
100
AcDbLine
 10
735.487680452958
 20
184.186468517816
 30
0.0
 11
724.0787090266531
 21
184.186468517816
 31
0.0
  0
LINE
  5
241
330
1F
100
AcDbEntity
  8
3
  6
Continuous
 62
     3
100
AcDbLine
 10
734.183180452958
 20
185.490968517816
 30
0.0
 11
724.0787090266531
 21
185.490968517816
 31
0.0
  0
LINE
  5
242
330
1F
100
AcDbEntity
  8
3
  6
Continuous
 62
     3
100
AcDbLine
 10
734.183180452958
 20
152.590968517816
 30
0.0
 11
724.0787090266531
 21
152.590968517816
 31
0.0
  0
LINE
  5
243
330
1F
100
AcDbEntity
  8
3
  6
Continuous
 62
     3
100
AcDbLine
 10
735.487680452958
 20
153.895468517816
 30
0.0
 11
724.0787090266531
 21
153.895468517816
 31
0.0
  0
ARC
  5
244
330
1F
100
AcDbEntity
  8
3
  6
Continuous
 62
     3
100
AcDbCircle
 10
660.054500796518
 20
183.540968517816
 30
0.0
 40
1.500000000000253
100
AcDbArc
 50
225.0
 51
270.0
  0
ARC
  5
245
330
1F
100
AcDbEntity
  8
3
  6
Continuous
 62
     3
100
AcDbCircle
 10
660.054500796518
 20
154.540968517816
 30
0.0
 40
1.5
100
AcDbArc
 50
90.0
 51
135.0
  0
ARC
  5
252
330
1F
100
AcDbEntity
  8
3
  6
Continuous
 62
     3
100
AcDbCircle
 10
564.9831804529581
 20
52.040968517816
 30
0.0
 40
19.50000000000001
100
AcDbArc
 50
346.9971755332004
 51
0.0
  0
ARC
  5
253
330
1F
100
AcDbEntity
  8
3
  6
Continuous
 62
     3
100
AcDbCircle
 10
564.9831804529581
 20
52.040968517816
 30
0.0
 40
19.50000000000001
100
AcDbArc
 50
286.9971755332004
 51
313.0028244667994
  0
ARC
  5
254
330
1F
100
AcDbEntity
  8
3
  6
Continuous
 62
     3
100
AcDbCircle
 10
564.9831804529581
 20
52.040968517816
 30
0.0
 40
19.50000000000003
100
AcDbArc
 50
226.9971755332004
 51
253.0028244667994
  0
ARC
  5
255
330
1F
100
AcDbEntity
  8
3
  6
Continuous
 62
     3
100
AcDbCircle
 10
564.9831804529581
 20
52.040968517816
 30
0.0
 40
19.50000000000001
100
AcDbArc
 50
166.9971755332004
 51
193.0028244667996
  0
ARC
  5
256
330
1F
100
AcDbEntity
  8
3
  6
Continuous
 62
     3
100
AcDbCircle
 10
564.9831804529581
 20
52.040968517816
 30
0.0
 40
19.50000000000002
100
AcDbArc
 50
106.9971755332003
 51
133.0028244667994
  0
ARC
  5
257
330
1F
100
AcDbEntity
  8
3
  6
Continuous
 62
     3
100
AcDbCircle
 10
564.9831804529581
 20
52.040968517816
 30
0.0
 40
19.50000000000003
100
AcDbArc
 50
46.99717553320041
 51
73.00282446679965
  0
ARC
  5
258
330
1F
100
AcDbEntity
  8
3
  6
Continuous
 62
     3
100
AcDbCircle
 10
564.9831804529581
 20
52.040968517816
 30
0.0
 40
19.5
100
AcDbArc
 50
0.0
 51
13.00282446679959
  0
ARC
  5
259
330
1F
100
AcDbEntity
  8
3
  6
Continuous
 62
     3
100
AcDbCircle
 10
630.738800110104
 20
178.540968517816
 30
0.0
 40
27.4393677799608
100
AcDbArc
 50
339.7438419995842
 51
20.25615800041585
  0
ARC
  5
25A
330
1F
100
AcDbEntity
  8
3
  6
Continuous
 62
     3
100
AcDbCircle
 10
630.738800110104
 20
159.540968517816
 30
0.0
 40
27.4393677799608
100
AcDbArc
 50
339.7438419995842
 51
20.25615800041585
  0
ARC
  5
25B
330
1F
100
AcDbEntity
  8
3
  6
Continuous
 62
     3
100
AcDbCircle
 10
663.6175356700251
 20
159.540968517816
 30
0.0
 40
27.4393677799608
100
AcDbArc
 50
159.7438419995841
 51
200.2561580004158
  0
ARC
  5
25C
330
1F
100
AcDbEntity
  8
3
  6
Continuous
 62
     3
100
AcDbCircle
 10
663.6175356700251
 20
178.540968517816
 30
0.0
 40
27.4393677799608
100
AcDbArc
 50
159.7438419995841
 51
200.2561580004158
  0
ARC
  5
25D
330
1F
100
AcDbEntity
  8
3
  6
Continuous
 62
     3
100
AcDbCircle
 10
671.183180452958
 20
155.040968517816
 30
0.0
 40
1.0
100
AcDbArc
 50
0.0
 51
90.0
  0
ARC
  5
25E
330
1F
100
AcDbEntity
  8
3
  6
Continuous
 62
     3
100
AcDbCircle
 10
660.054500796518
 20
154.540968517816
 30
0.0
 40
1.5
100
AcDbArc
 50
90.0
 51
135.0
  0
ARC
  5
25F
330
1F
100
AcDbEntity
  8
3
  6
Continuous
 62
     3
100
AcDbCircle
 10
660.054500796518
 20
183.540968517816
 30
0.0
 40
1.500000000000253
100
AcDbArc
 50
225.0
 51
270.0
  0
ARC
  5
260
330
1F
100
AcDbEntity
  8
3
  6
Continuous
 62
     3
100
AcDbCircle
 10
671.183180452958
 20
183.040968517816
 30
0.0
 40
1.0
100
AcDbArc
 50
270.0
 51
0.0
  0
ARC
  5
261
330
1F
100
AcDbEntity
  8
3
  6
Continuous
 62
     3
100
AcDbCircle
 10
645.890294334073
 20
68.49545118972
 30
0.0
 40
9.712126444008844
100
AcDbArc
 50
154.3842474680438
 51
214.384247468037
  0
ARC
  5
262
330
1F
100
AcDbEntity
  8
3
  6
Continuous
 62
     3
100
AcDbCircle
 10
645.890294334073
 20
35.58648584591199
 30
0.0
 40
9.712126444008407
100
AcDbArc
 50
145.6157525319629
 51
205.6157525319561
  0
ARC
  5
263
330
1F
100
AcDbEntity
  8
3
  6
Continuous
 62
     3
100
AcDbCircle
 10
672.481156338001
 20
52.040968517816
 30
0.0
 40
36.30298844793681
100
AcDbArc
 50
162.4120462260063
 51
197.5879537739937
  0
ARC
  5
264
330
1F
100
AcDbEntity
  8
3
  6
Continuous
 62
     3
100
AcDbCircle
 10
648.466041446057
 20
35.58648584591199
 30
0.0
 40
9.712126444007916
100
AcDbArc
 50
334.3842474680413
 51
34.38424746804051
  0
ARC
  5
265
330
1F
100
AcDbEntity
  8
3
  6
Continuous
 62
     3
100
AcDbCircle
 10
648.466041446057
 20
68.49545118972
 30
0.0
 40
9.712126444007557
100
AcDbArc
 50
325.6157525319595
 51
25.61575253195878
  0
ARC
  5
266
330
1F
100
AcDbEntity
  8
3
  6
Continuous
 62
     3
100
AcDbCircle
 10
621.875179442128
 20
52.040968517816
 30
0.0
 40
36.30298844793681
100
AcDbArc
 50
342.4120462260063
 51
17.58795377399366
  0
ARC
  5
267
330
1F
100
AcDbEntity
  8
3
  6
Continuous
 62
     3
100
AcDbCircle
 10
671.183180452958
 20
38.040968517816
 30
0.0
 40
1.0
100
AcDbArc
 50
0.0
 51
90.0
  0
ARC
  5
268
330
1F
100
AcDbEntity
  8
3
  6
Continuous
 62
     3
100
AcDbCircle
 10
660.054500796518
 20
37.540968517816
 30
0.0
 40
1.5
100
AcDbArc
 50
90.0
 51
135.0
  0
ARC
  5
269
330
1F
100
AcDbEntity
  8
3
  6
Continuous
 62
     3
100
AcDbCircle
 10
660.054500796518
 20
66.540968517816
 30
0.0
 40
1.500000000000253
100
AcDbArc
 50
225.0
 51
270.0
  0
ARC
  5
26A
330
1F
100
AcDbEntity
  8
3
  6
Continuous
 62
     3
100
AcDbCircle
 10
671.183180452958
 20
66.040968517816
 30
0.0
 40
1.0
100
AcDbArc
 50
270.0
 51
0.0
  0
ARC
  5
26B
330
1F
100
AcDbEntity
  8
3
  6
Continuous
 62
     3
100
AcDbCircle
 10
672.183180452958
 20
72.24271317105499
 30
0.0
 40
1.000000000000476
100
AcDbArc
 50
299.9999999999842
 51
0.0
  0
ARC
  5
26C
330
1F
100
AcDbEntity
  8
3
  6
Continuous
 62
     3
100
AcDbCircle
 10
673.183180452958
 20
70.510662363486
 30
0.0
 40
0.9999999999996144
100
AcDbArc
 50
120.0000000000128
 51
180.0
  0
ARC
  5
26D
330
1F
100
AcDbEntity
  8
3
  6
Continuous
 62
     3
100
AcDbCircle
 10
672.183180452958
 20
31.83922386457701
 30
0.0
 40
1.0
100
AcDbArc
 50
0.0
 51
60.00000000001585
  0
ARC
  5
26E
330
1F
100
AcDbEntity
  8
3
  6
Continuous
 62
     3
100
AcDbCircle
 10
673.183180452958
 20
33.57127467214599
 30
0.0
 40
1.0
100
AcDbArc
 50
180.0
 51
239.999999999987
  0
ARC
  5
26F
330
1F
100
AcDbEntity
  8
3
  6
Continuous
 62
     3
100
AcDbCircle
 10
722.234179636725
 20
69.497158501
 30
0.0
 40
2.101120404110679
100
AcDbArc
 50
192.5397853618767
 51
282.3390298838664
  0
ARC
  5
270
330
1F
100
AcDbEntity
  8
3
  6
Continuous
 62
     3
100
AcDbCircle
 10
722.234179636725
 20
151.584778534632
 30
0.0
 40
2.101120404111181
100
AcDbArc
 50
77.66097011613364
 51
167.4602146381233
  0
ARC
  5
271
330
1F
100
AcDbEntity
  8
3
  6
Continuous
 62
     3
100
AcDbCircle
 10
722.234179636725
 20
186.497158501
 30
0.0
 40
2.101120404110679
100
AcDbArc
 50
192.5397853618767
 51
282.3390298838664
  0
ARC
  5
272
330
1F
100
AcDbEntity
  8
3
  6
Continuous
 62
     3
100
AcDbCircle
 10
541.4831804529581
 20
82.104476844712
 30
0.0
 40
1.0
100
AcDbArc
 50
0.0
 51
75.52248781407218
  0
ARC
  5
273
330
1F
100
AcDbEntity
  8
3
  6
Continuous
 62
     3
100
AcDbCircle
 10
541.9831804529581
 20
84.040968517816
 30
0.0
 40
1.0
100
AcDbArc
 50
180.0
 51
255.5224878140722
  0
ARC
  5
274
330
1F
100
AcDbEntity
  8
3
  6
Continuous
 62
     3
100
AcDbCircle
 10
718.683180452958
 20
84.040968517816
 30
0.0
 40
1.000000000000142
100
AcDbArc
 50
284.4775121859278
 51
0.0
  0
ARC
  5
275
330
1F
100
AcDbEntity
  8
3
  6
Continuous
 62
     3
100
AcDbCircle
 10
719.183180452958
 20
82.104476844712
 30
0.0
 40
1.000000000000142
100
AcDbArc
 50
104.4775121859278
 51
180.0
  0
ARC
  5
276
330
1F
100
AcDbEntity
  8
3
  6
Continuous
 62
     3
100
AcDbCircle
 10
672.683180452958
 20
84.040968517816
 30
0.0
 40
1.0
100
AcDbArc
 50
180.0
 51
255.5224878140722
  0
ARC
  5
277
330
1F
100
AcDbEntity
  8
3
  6
Continuous
 62
     3
100
AcDbCircle
 10
672.183180452958
 20
82.104476844712
 30
0.0
 40
1.0
100
AcDbArc
 50
0.0
 51
75.52248781407218
  0
ARC
  5
278
330
1F
100
AcDbEntity
  8
3
  6
Continuous
 62
     3
100
AcDbCircle
 10
588.4831804529581
 20
82.104476844712
 30
0.0
 40
1.000000000000142
100
AcDbArc
 50
104.4775121859278
 51
180.0
  0
ARC
  5
279
330
1F
100
AcDbEntity
  8
3
  6
Continuous
 62
     3
100
AcDbCircle
 10
587.9831804529581
 20
84.040968517816
 30
0.0
 40
1.000000000000142
100
AcDbArc
 50
284.4775121859278
 51
0.0
  0
ARC
  5
27A
330
1F
100
AcDbEntity
  8
3
  6
Continuous
 62
     3
100
AcDbCircle
 10
679.9987933116
 20
208.540968517816
 30
0.0
 40
20.0
100
AcDbArc
 50
270.0
 51
274.0904327981974
  0
ARC
  5
27B
330
1F
100
AcDbEntity
  8
3
  6
Continuous
 62
     3
100
AcDbCircle
 10
711.367567594316
 20
208.540968517816
 30
0.0
 40
20.00000000000049
100
AcDbArc
 50
265.9095672018025
 51
270.0
  0
ARC
  5
27C
330
1F
100
AcDbEntity
  8
3
  6
Continuous
 62
     3
100
AcDbCircle
 10
711.367567594316
 20
129.540968517816
 30
0.0
 40
20.0
100
AcDbArc
 50
90.0
 51
94.09043279819745
  0
ARC
  5
27D
330
1F
100
AcDbEntity
  8
3
  6
Continuous
 62
     3
100
AcDbCircle
 10
679.9987933116
 20
129.540968517816
 30
0.0
 40
20.00000000000049
100
AcDbArc
 50
85.90956720180256
 51
90.0
  0
ARC
  5
27E
330
1F
100
AcDbEntity
  8
3
  6
Continuous
 62
     3
100
AcDbCircle
 10
666.433137960817
 20
52.37288153031099
 30
0.0
 40
20.94917295219258
100
AcDbArc
 50
288.796656464306
 51
340.0962477718795
  0
ARC
  5
27F
330
1F
100
AcDbEntity
  8
3
  6
Continuous
 62
     3
100
AcDbCircle
 10
666.433137960817
 20
51.709055505321
 30
0.0
 40
20.94917295219249
100
AcDbArc
 50
19.90375222811798
 51
71.20334353569407
  0
ARC
  5
280
330
1F
100
AcDbEntity
  8
3
  6
Continuous
 62
     3
100
AcDbCircle
 10
724.933222945099
 20
52.37288153031099
 30
0.0
 40
20.94917295219248
100
AcDbArc
 50
199.9037522281179
 51
251.203343535694
  0
ARC
  5
281
330
1F
100
AcDbEntity
  8
3
  6
Continuous
 62
     3
100
AcDbCircle
 10
724.933222945099
 20
51.709055505321
 30
0.0
 40
20.94917295219259
100
AcDbArc
 50
108.796656464306
 51
160.096247771882
  0
ARC
  5
282
330
1F
100
AcDbEntity
  8
3
  6
Continuous
 62
     3
100
AcDbCircle
 10
719.183180452958
 20
31.59147877503301
 30
0.0
 40
0.9999999999996998
100
AcDbArc
 50
101.536959032815
 51
180.0
  0
ARC
  5
283
330
1F
100
AcDbEntity
  8
3
  6
Continuous
 62
     3
100
AcDbCircle
 10
718.683180452958
 20
34.040968517816
 30
0.0
 40
1.5
100
AcDbArc
 50
270.0
 51
0.0
  0
ARC
  5
284
330
1F
100
AcDbEntity
  8
3
  6
Continuous
 62
     3
100
AcDbCircle
 10
719.183180452958
 20
72.49045826059898
 30
0.0
 40
1.0
100
AcDbArc
 50
180.0
 51
258.463040967185
  0
ARC
  5
285
330
1F
100
AcDbEntity
  8
3
  6
Continuous
 62
     3
100
AcDbCircle
 10
718.683180452958
 20
70.040968517816
 30
0.0
 40
1.5
100
AcDbArc
 50
0.0
 51
90.0
  0
ARC
  5
286
330
1F
100
AcDbEntity
  8
3
  6
Continuous
 62
     3
100
AcDbCircle
 10
718.683180452958
 20
151.040968517816
 30
0.0
 40
1.5
100
AcDbArc
 50
270.0
 51
0.0
  0
ARC
  5
287
330
1F
100
AcDbEntity
  8
3
  6
Continuous
 62
     3
100
AcDbCircle
 10
718.683180452958
 20
187.040968517816
 30
0.0
 40
1.5
100
AcDbArc
 50
0.0
 51
90.0
  0
ARC
  5
288
330
1F
100
AcDbEntity
  8
3
  6
Continuous
 62
     3
100
AcDbCircle
 10
675.183180452958
 20
25.040968517816
 30
0.0
 40
2.0
100
AcDbArc
 50
180.0
 51
270.0
  0
ARC
  5
289
330
1F
100
AcDbEntity
  8
3
  6
Continuous
 62
     3
100
AcDbCircle
 10
716.183180452958
 20
25.040968517816
 30
0.0
 40
2.0
100
AcDbArc
 50
270.0
 51
0.0
  0
ARC
  5
28A
330
1F
100
AcDbEntity
  8
3
  6
Continuous
 62
     3
100
AcDbCircle
 10
673.683180452958
 20
151.040968517816
 30
0.0
 40
1.5
100
AcDbArc
 50
180.0
 51
270.0
  0
ARC
  5
28B
330
1F
100
AcDbEntity
  8
3
  6
Continuous
 62
     3
100
AcDbCircle
 10
673.683180452958
 20
187.040968517816
 30
0.0
 40
1.5
100
AcDbArc
 50
90.0
 51
180.0
  0
ARC
  5
28C
330
1F
100
AcDbEntity
  8
3
  6
Continuous
 62
     3
100
AcDbCircle
 10
585.4831804529581
 20
25.040968517816
 30
0.0
 40
2.0
100
AcDbArc
 50
270.0
 51
0.0
  0
ARC
  5
28D
330
1F
100
AcDbEntity
  8
3
  6
Continuous
 62
     3
100
AcDbCircle
 10
544.4831804529581
 20
25.040968517816
 30
0.0
 40
2.0
100
AcDbArc
 50
180.0
 51
270.0
  0
ARC
  5
28E
330
1F
100
AcDbEntity
  8
3
  6
Continuous
 62
     3
100
AcDbCircle
 10
722.234179636725
 20
34.58477853463299
 30
0.0
 40
2.101120404109746
100
AcDbArc
 50
28.61244767678406
 51
167.4602146381498
  0
ARC
  5
28F
330
1F
100
AcDbEntity
  8
3
  6
Continuous
 62
     3
100
AcDbCircle
 10
722.234179636725
 20
69.497158501
 30
0.0
 40
2.101120404110679
100
AcDbArc
 50
192.5397853618767
 51
331.3875523231923
  0
ARC
  5
290
330
1F
100
AcDbEntity
  8
3
  6
Continuous
 62
     3
100
AcDbCircle
 10
588.074584769108
 20
99.040968517816
 30
0.0
 40
1.000000000013753
100
AcDbArc
 50
3.00000084089883
 51
90.0
  0
ARC
  5
291
330
1F
100
AcDbEntity
  8
3
  6
Continuous
 62
     3
100
AcDbCircle
 10
577.948869227808
 20
101.040968517816
 30
0.0
 40
0.9999999999807849
100
AcDbArc
 50
181.9999999998946
 51
270.0
  0
ARC
  5
292
330
1F
100
AcDbEntity
  8
3
  6
Continuous
 62
     3
100
AcDbCircle
 10
541.8917761368081
 20
99.040968517816
 30
0.0
 40
1.0
100
AcDbArc
 50
90.0
 51
176.9999991591005
  0
ARC
  5
293
330
1F
100
AcDbEntity
  8
3
  6
Continuous
 62
     3
100
AcDbCircle
 10
552.017491678208
 20
101.040968517816
 30
0.0
 40
1.0
100
AcDbArc
 50
270.0
 51
358.0000000001056
  0
ARC
  5
294
330
1F
100
AcDbEntity
  8
3
  6
Continuous
 62
     3
100
AcDbCircle
 10
588.074584769108
 20
99.040968517816
 30
0.0
 40
1.000000000013753
100
AcDbArc
 50
3.00000084089883
 51
90.0
  0
ARC
  5
295
330
1F
100
AcDbEntity
  8
3
  6
Continuous
 62
     3
100
AcDbCircle
 10
577.948869227808
 20
101.040968517816
 30
0.0
 40
0.9999999999807849
100
AcDbArc
 50
181.9999999998946
 51
270.0
  0
ARC
  5
296
330
1F
100
AcDbEntity
  8
3
  6
Continuous
 62
     3
100
AcDbCircle
 10
541.8917761368081
 20
99.040968517816
 30
0.0
 40
1.0
100
AcDbArc
 50
90.0
 51
176.9999991591005
  0
ARC
  5
297
330
1F
100
AcDbEntity
  8
3
  6
Continuous
 62
     3
100
AcDbCircle
 10
552.017491678208
 20
101.040968517816
 30
0.0
 40
1.0
100
AcDbArc
 50
270.0
 51
358.0000000001056
  0
ARC
  5
298
330
1F
100
AcDbEntity
  8
3
  6
Continuous
 62
     3
100
AcDbCircle
 10
718.7745847691081
 20
99.040968517816
 30
0.0
 40
1.000000000043105
100
AcDbArc
 50
2.99999999740732
 51
90.0
  0
ARC
  5
299
330
1F
100
AcDbEntity
  8
3
  6
Continuous
 62
     3
100
AcDbCircle
 10
672.591776136808
 20
99.040968517816
 30
0.0
 40
1.0
100
AcDbArc
 50
90.0
 51
177.0000000022927
  0
ARC
  5
29A
330
1F
100
AcDbEntity
  8
3
  6
Continuous
 62
     3
100
AcDbCircle
 10
722.234179636725
 20
186.497158501
 30
0.0
 40
2.101120404110679
100
AcDbArc
 50
192.5397853618767
 51
282.3390298838664
  0
ARC
  5
29B
330
1F
100
AcDbEntity
  8
3
  6
Continuous
 62
     3
100
AcDbCircle
 10
722.234179636725
 20
151.584778534632
 30
0.0
 40
2.101120404110226
100
AcDbArc
 50
28.61244767680805
 51
167.4602146381233
  0
ARC
  5
29C
330
1F
100
AcDbEntity
  8
3
  6
Continuous
 62
     3
100
AcDbCircle
 10
722.234179636725
 20
186.497158501
 30
0.0
 40
2.101120404110679
100
AcDbArc
 50
192.5397853618767
 51
331.387552323192
  0
ARC
  5
29D
330
1F
100
AcDbEntity
  8
3
  6
Continuous
 62
     3
100
AcDbCircle
 10
722.234179636725
 20
151.584778534632
 30
0.0
 40
2.101120404110226
100
AcDbArc
 50
28.61244767680805
 51
167.4602146381233
  0
CIRCLE
  5
29E
330
1F
100
AcDbEntity
  8
1
  6
Continuous
 62
     3
100
AcDbCircle
 10
564.9831804529581
 20
52.040968517816
 30
0.0
 40
19.0
  0
CIRCLE
  5
29F
330
1F
100
AcDbEntity
  8
1
  6
Continuous
 62
     3
100
AcDbCircle
 10
564.9831804529581
 20
52.040968517816
 30
0.0
 40
16.84999999999991
  0
CIRCLE
  5
2A0
330
1F
100
AcDbEntity
  8
1
  6
Continuous
 62
     3
100
AcDbCircle
 10
564.9831804529581
 20
52.040968517816
 30
0.0
 40
16.6244999999999
  0
CIRCLE
  5
2A1
330
1F
100
AcDbEntity
  8
1
  6
Continuous
 62
     3
100
AcDbCircle
 10
564.9831804529581
 20
52.040968517816
 30
0.0
 40
15.34999999999991
  0
CIRCLE
  5
2A2
330
1F
100
AcDbEntity
  8
1
  6
Continuous
 62
     3
100
AcDbCircle
 10
564.9831804529581
 20
52.040968517816
 30
0.0
 40
15.25
  0
CIRCLE
  5
2A3
330
1F
100
AcDbEntity
  8
1
  6
Continuous
 62
     3
100
AcDbCircle
 10
564.9831804529581
 20
52.040968517816
 30
0.0
 40
13.75031580053997
  0
CIRCLE
  5
2A4
330
1F
100
AcDbEntity
  8
1
  6
Continuous
 62
     3
100
AcDbCircle
 10
564.9831804529581
 20
52.040968517816
 30
0.0
 40
13.5
  0
CIRCLE
  5
2A5
330
1F
100
AcDbEntity
  8
1
  6
Continuous
 62
     3
100
AcDbCircle
 10
564.9831804529581
 20
52.040968517816
 30
0.0
 40
13.24968419946003
  0
CIRCLE
  5
2A6
330
1F
100
AcDbEntity
  8
1
  6
Continuous
 62
     3
100
AcDbCircle
 10
564.9831804529581
 20
52.040968517816
 30
0.0
 40
12.0
  0
CIRCLE
  5
2A7
330
1F
100
AcDbEntity
  8
1
  6
Continuous
 62
     3
100
AcDbCircle
 10
564.9831804529581
 20
52.040968517816
 30
0.0
 40
11.0
  0
CIRCLE
  5
2A8
330
1F
100
AcDbEntity
  8
1
  6
Continuous
 62
     3
100
AcDbCircle
 10
564.9831804529581
 20
52.040968517816
 30
0.0
 40
10.0
  0
CIRCLE
  5
2A9
330
1F
100
AcDbEntity
  8
1
  6
Continuous
 62
     3
100
AcDbCircle
 10
564.9831804529581
 20
52.040968517816
 30
0.0
 40
9.299999999999955
  0
CIRCLE
  5
2AA
330
1F
100
AcDbEntity
  8
3
  6
Continuous
 62
     3
100
AcDbCircle
 10
695.683180452958
 20
169.040968517816
 30
0.0
 40
24.19759222070002
  0
CIRCLE
  5
2AB
330
1F
100
AcDbEntity
  8
3
  6
Continuous
 62
     3
100
AcDbCircle
 10
695.683180452958
 20
169.040968517816
 30
0.0
 40
11.5
  0
LWPOLYLINE
  5
2AC
330
1F
100
AcDbEntity
  8
3
  6
Continuous
 62
     3
100
AcDbPolyline
 90
        7
 70
     1
 43
0.0
 10
583.9831804529581
 20
63.0106236324189
 10
564.9831804529581
 20
73.9802787470218
 10
545.9831804529581
 20
63.0106236324189
 10
545.9831804529581
 20
41.0713134032131
 10
564.9831804529581
 20
30.1016582886102
 10
583.9831804529581
 20
41.0713134032131
 10
583.9831804529581
 20
63.0106236324189
  0
LWPOLYLINE
  5
2AD
330
1F
100
AcDbEntity
  8
3
  6
Continuous
 62
     3
100
AcDbPolyline
 90
        5
 70
     1
 43
0.0
 10
697.683180452958
 20
55.290968517816
 10
697.683180452958
 20
58.790968517816
 42
-1.0
 10
700.183180452958
 20
58.790968517816
 10
700.183180452958
 20
55.290968517816
 42
-1.0
 10
697.683180452958
 20
55.290968517816
  0
LWPOLYLINE
  5
2AE
330
1F
100
AcDbEntity
  8
3
  6
Continuous
 62
     3
100
AcDbPolyline
 90
        5
 70
     1
 43
0.0
 10
696.683180452958
 20
55.290968517816
 42
1.0
 10
701.183180452958
 20
55.290968517816
 10
701.183180452958
 20
58.790968517816
 42
1.0
 10
696.683180452958
 20
58.790968517816
 10
696.683180452958
 20
55.290968517816
  0
LWPOLYLINE
  5
2AF
330
1F
100
AcDbEntity
  8
3
  6
Continuous
 62
     3
100
AcDbPolyline
 90
       13
 70
     1
 43
0.0
 10
693.1444641791225
 20
59.81886708328565
 42
-0.438357454801
 10
693.3995846198791
 20
57.99814887492201
 10
690.523495452653
 20
54.49235208928801
 42
0.17347063269924
 10
690.1831804529583
 20
53.540968517816
 42
0.4142135623731
 10
690.683180452958
 20
53.040968517816
 10
694.183180452958
 20
53.040968517816
 42
1.0
 10
694.183180452958
 20
54.040968517816
 10
691.446643622533
 20
54.040968517816
 10
694.172707953416
 20
57.363893160608
 42
0.43835745480084
 10
693.7134911600538
 20
60.64118593566067
 42
0.43835745480086
 10
690.4846232944427
 20
59.91596851781618
 42
1.00000000000045
 10
691.3506486982274
 20
59.41596851781639
 42
-0.43835745480075
 10
693.144464179122
 20
59.818867083285
  0
LWPOLYLINE
  5
2B0
330
1F
100
AcDbEntity
  8
3
  6
Continuous
 62
     3
100
AcDbPolyline
 90
        8
 70
     0
 43
0.0
 10
682.1008812494081
 20
106.838752512116
 10
683.124200518108
 20
107.360623032016
 10
684.098353629808
 20
107.710070366516
 10
685.054249935808
 20
107.888425936216
 10
686.003353830108
 20
107.888311273616
 10
686.9483496765081
 20
107.709764770116
 10
687.900668638808
 20
107.360446918716
 10
688.892030851208
 20
106.838752512116
  0
LWPOLYLINE
  5
2B1
330
1F
100
AcDbEntity
  8
3
  6
Continuous
 62
     3
100
AcDbPolyline
 90
        8
 70
     0
 43
0.0
 10
688.892030851208
 20
106.838752512116
 10
690.907104286608
 20
107.360623032016
 10
692.834274346308
 20
107.710070366516
 10
694.735279202408
 20
107.888425936216
 10
696.633493926308
 20
107.888311273616
 10
698.534284923408
 20
107.709764770116
 10
700.460051180008
 20
107.360446918716
 10
702.474330054708
 20
106.838752512116
  0
LWPOLYLINE
  5
2B2
330
1F
100
AcDbEntity
  8
3
  6
Continuous
 62
     3
100
AcDbPolyline
 90
        6
 70
     0
 43
0.0
 10
680.711692644208
 20
100.040968517816
 10
681.036534641208
 20
100.081354919616
 10
681.343781322808
 20
100.204100591016
 10
681.604717580108
 20
100.407028577516
 10
681.788866888308
 20
100.680730074516
 10
681.8656897702081
 20
101.006069021116
  0
LWPOLYLINE
  5
2B3
330
1F
100
AcDbEntity
  8
3
  6
Continuous
 62
     3
100
AcDbPolyline
 90
        6
 70
     0
 43
0.0
 10
688.197436548608
 20
100.040968517816
 10
688.359857547108
 20
100.081354919616
 10
688.513480887908
 20
100.204100591016
 10
688.643949016508
 20
100.407028577516
 10
688.736023670608
 20
100.680730074516
 10
688.774435111608
 20
101.006069021116
  0
LWPOLYLINE
  5
2B4
330
1F
100
AcDbEntity
  8
3
  6
Continuous
 62
     3
100
AcDbPolyline
 90
        8
 70
     0
 43
0.0
 10
702.474330054708
 20
106.838752512116
 10
703.466084221508
 20
107.360623032016
 10
704.419101169508
 20
107.710070366516
 10
705.364209719608
 20
107.888425936216
 10
706.313320549208
 20
107.888311273616
 10
707.2691156999081
 20
107.709764770116
 10
708.242562994208
 20
107.360446918716
 10
709.265479656508
 20
106.838752512116
  0
LWPOLYLINE
  5
2B5
330
1F
100
AcDbEntity
  8
3
  6
Continuous
 62
     3
100
AcDbPolyline
 90
        6
 70
     0
 43
0.0
 10
703.168924357308
 20
100.040968517816
 10
703.006503358908
 20
100.081354919616
 10
702.852880018108
 20
100.204100591016
 10
702.722411889408
 20
100.407028577516
 10
702.630337235308
 20
100.680730074516
 10
702.591925794308
 20
101.006069021116
  0
LWPOLYLINE
  5
2B6
330
1F
100
AcDbEntity
  8
3
  6
Continuous
 62
     3
100
AcDbPolyline
 90
        6
 70
     0
 43
0.0
 10
710.654668261708
 20
100.040968517816
 10
710.329826264808
 20
100.081354919616
 10
710.022579583108
 20
100.204100591016
 10
709.7616433258081
 20
100.407028577516
 10
709.577494017708
 20
100.680730074516
 10
709.500671135708
 20
101.006069021116
  0
LWPOLYLINE
  5
2B7
330
1F
100
AcDbEntity
  8
3
  6
Continuous
 62
     3
100
AcDbPolyline
 90
        8
 70
     0
 43
0.0
 10
688.8920308511581
 20
180.803584669916
 10
687.900276684358
 20
179.049367824316
 10
686.947259736458
 20
177.374288110216
 10
686.002151186358
 20
175.724855455316
 10
685.053040356658
 20
174.080955284616
 10
684.097245205958
 20
172.437939484516
 10
683.123797911658
 20
170.776276208616
 10
682.100881249358
 20
169.040968517816
  0
LWPOLYLINE
  5
2B8
330
1F
100
AcDbEntity
  8
3
  6
Continuous
 62
     3
100
AcDbPolyline
 90
        8
 70
     0
 43
0.0
 10
709.2654796564581
 20
169.040968517816
 10
708.2421603877581
 20
170.776961243416
 10
707.268007276058
 20
172.439837987616
 10
706.312110970058
 20
174.083042328816
 10
705.363007075758
 20
175.726946503616
 10
704.418011229458
 20
177.376197285016
 10
703.465692267158
 20
179.050059009016
 10
702.474330054658
 20
180.803584669916
  0
LWPOLYLINE
  5
2B9
330
1F
100
AcDbEntity
  8
3
  6
Continuous
 62
     3
100
AcDbPolyline
 90
        8
 70
     0
 43
0.0
 10
702.474330054658
 20
180.803584669916
 10
700.459256619258
 20
180.785360549816
 10
698.532086559558
 20
180.773157580016
 10
696.631081703458
 20
180.766929266216
 10
694.732866979558
 20
180.766933270316
 10
692.832075982458
 20
180.773168251616
 10
690.906309725858
 20
180.785366699816
 10
688.8920308511581
 20
180.803584669916
  0
LWPOLYLINE
  5
2BA
330
1F
100
AcDbEntity
  8
3
  6
Continuous
 62
     3
100
AcDbPolyline
 90
        8
 70
     0
 43
0.0
 10
702.474330054658
 20
157.278352365816
 10
703.466084221458
 20
159.032569211416
 10
704.419101169458
 20
160.707648925416
 10
705.3642097195581
 20
162.357081580416
 10
706.313320549158
 20
164.000981751116
 10
707.269115699858
 20
165.643997551216
 10
708.242562994158
 20
167.305660827116
 10
709.2654796564581
 20
169.040968517816
  0
LWPOLYLINE
  5
2BB
330
1F
100
AcDbEntity
  8
3
  6
Continuous
 62
     3
100
AcDbPolyline
 90
        8
 70
     0
 43
0.0
 10
682.100881249358
 20
169.040968517816
 10
683.124200518058
 20
167.304975792316
 10
684.0983536297581
 20
165.642099048116
 10
685.054249935758
 20
163.998894706916
 10
686.003353830058
 20
162.354990532116
 10
686.9483496764581
 20
160.705739750716
 10
687.900668638758
 20
159.031878026616
 10
688.8920308511581
 20
157.278352365816
  0
LWPOLYLINE
  5
2BC
330
1F
100
AcDbEntity
  8
3
  6
Continuous
 62
     3
100
AcDbPolyline
 90
        8
 70
     0
 43
0.0
 10
688.8920308511581
 20
157.278352365816
 10
690.907104286558
 20
157.296576485916
 10
692.834274346258
 20
157.308779455716
 10
694.735279202358
 20
157.315007769416
 10
696.6334939262581
 20
157.315003765316
 10
698.534284923358
 20
157.308768784016
 10
700.460051179958
 20
157.296570335916
 10
702.474330054658
 20
157.278352365816
  0
LWPOLYLINE
  5
2BD
330
1F
100
AcDbEntity
  8
3
  6
Continuous
 62
     3
100
AcDbPolyline
 90
        8
 70
     0
 43
0.0
 10
564.9831804530081
 20
106.838752512116
 10
566.7191731785081
 20
107.360623032016
 10
568.3820499227081
 20
107.710070366516
 10
570.0252542639081
 20
107.888425936316
 10
571.6691584387081
 20
107.888311273616
 10
573.3184092201082
 20
107.709764770216
 10
574.992270944208
 20
107.360446918816
 10
576.7457966050081
 20
106.838752512116
  0
LWPOLYLINE
  5
2BE
330
1F
100
AcDbEntity
  8
3
  6
Continuous
 62
     3
100
AcDbPolyline
 90
        8
 70
     0
 43
0.0
 10
553.2205643009081
 20
106.838752512116
 10
554.9747811465081
 20
107.360623032016
 10
556.649860860608
 20
107.710070366516
 10
558.299293515508
 20
107.888425936316
 10
559.9431936862081
 20
107.888311273616
 10
561.586209486308
 20
107.709764770216
 10
563.2478727622081
 20
107.360446918816
 10
564.9831804530081
 20
106.838752512116
  0
LWPOLYLINE
  5
2BF
330
1F
100
AcDbEntity
  8
3
  6
Continuous
 62
     3
100
AcDbPolyline
 90
        8
 70
     0
 43
0.0
 10
564.9831804530081
 20
106.838752512116
 10
566.7191731785081
 20
107.360623032016
 10
568.3820499227081
 20
107.710070366516
 10
570.0252542639081
 20
107.888425936316
 10
571.6691584387081
 20
107.888311273616
 10
573.3184092201082
 20
107.709764770216
 10
574.992270944208
 20
107.360446918816
 10
576.7457966050081
 20
106.838752512116
  0
LWPOLYLINE
  5
2C0
330
1F
100
AcDbEntity
  8
3
  6
Continuous
 62
     3
100
AcDbPolyline
 90
        8
 70
     0
 43
0.0
 10
553.2205643009081
 20
106.838752512116
 10
554.9747811465081
 20
107.360623032016
 10
556.649860860608
 20
107.710070366516
 10
558.299293515508
 20
107.888425936316
 10
559.9431936862081
 20
107.888311273616
 10
561.586209486308
 20
107.709764770216
 10
563.2478727622081
 20
107.360446918816
 10
564.9831804530081
 20
106.838752512116
  0
LINE
  5
2C1
330
1F
100
AcDbEntity
  8
1
 62
     4
100
AcDbLine
 10
729.220676945826
 20
68.490968517816
 30
0.0
 11
729.8707327662031
 21
70.88908795270805
 31
0.0
  0
LINE
  5
2C2
330
1F
100
AcDbEntity
  8
1
 62
     4
100
AcDbLine
 10
729.220676945826
 20
68.490968517816
 30
0.0
 11
730.9827015175965
 21
70.24277295955315
 31
0.0
  0
LEADER
  5
2C3
330
1F
100
AcDbEntity
  8
1
  6
Continuous
 62
     4
100
AcDbLeader
  3
Standard
 71
     0
 76
     3
 10
729.220676945826
 20
68.490968517816
 30
0.0
 10
734.48904808028
 20
77.555069048209
 30
0.0
 10
741.471689084131
 20
77.555069048209
 30
0.0
  0
LINE
  5
2C4
330
1F
100
AcDbEntity
  8
1
 62
     4
100
AcDbLine
 10
636.178167890065
 20
52.040968517816
 30
0.0
 11
634.4212459518997
 21
53.7978904559813
 31
0.0
  0
LINE
  5
2C5
330
1F
100
AcDbEntity
  8
1
 62
     4
100
AcDbLine
 10
636.178167890065
 20
52.040968517816
 30
0.0
 11
635.5350898282303
 21
54.440968517816
 31
0.0
  0
LEADER
  5
2C6
330
1F
100
AcDbEntity
  8
1
  6
Continuous
 62
     4
100
AcDbLeader
  3
Standard
 71
     0
 76
     3
 10
636.178167890065
 20
52.040968517816
 30
0.0
 10
621.4362787289358
 20
77.5746695444407
 30
0.0
 10
615.046878982438
 20
77.5746695444407
 30
0.0
  0
LINE
  5
2C7
330
1F
100
AcDbEntity
  8
1
 62
     4
100
AcDbLine
 10
693.908441823534
 20
5.56202011952239
 30
0.0
 11
691.508441823534
 21
4.91894205768769
 31
0.0
  0
LINE
  5
2C8
330
1F
100
AcDbEntity
  8
1
 62
     4
100
AcDbLine
 10
693.908441823534
 20
5.56202011952239
 30
0.0
 11
691.508441823534
 21
6.20509818135708
 31
0.0
  0
LEADER
  5
2C9
330
1F
100
AcDbEntity
  8
1
  6
Continuous
 62
     4
100
AcDbLeader
  3
Standard
 71
     0
 76
     2
 10
693.908441823534
 20
5.56202011952239
 30
0.0
 10
683.718337659391
 20
5.56202011952239
 30
0.0
  0
ENDSEC
  0
SECTION
  2
OBJECTS
  0
DICTIONARY
  5
C
330
0
100
AcDbDictionary
281
     1
  3
ACAD_GROUP
350
D
  3
ACAD_LAYOUT
350
1A
  3
ACAD_MATERIAL
350
3B
  3
ACAD_MLEADERSTYLE
350
2CC
  3
ACAD_MLINESTYLE
350
17
  3
ACAD_PLOTSETTINGS
350
19
  3
ACAD_PLOTSTYLENAME
350
E
  3
ACAD_VISUALSTYLE
350
2A
  3
AcDbVariableDictionary
350
2CA
  0
DICTIONARY
  5
D
102
{ACAD_REACTORS
330
C
102
}
330
C
100
AcDbDictionary
281
     1
  0
DICTIONARY
  5
1A
102
{ACAD_REACTORS
330
C
102
}
330
C
100
AcDbDictionary
281
     1
  3
Layout1
350
1E
  3
Layout2
350
26
  3
Model
350
22
  0
DICTIONARY
  5
3B
102
{ACAD_REACTORS
330
C
102
}
330
C
100
AcDbDictionary
281
     1
  3
ByBlock
350
3D
  3
ByLayer
350
3C
  3
Global
350
3E
  0
DICTIONARY
  5
2CC
102
{ACAD_REACTORS
330
C
102
}
330
C
100
AcDbDictionary
281
     1
  0
DICTIONARY
  5
17
102
{ACAD_REACTORS
330
C
102
}
330
C
100
AcDbDictionary
281
     1
  3
Standard
350
18
  0
DICTIONARY
  5
19
102
{ACAD_REACTORS
330
C
102
}
330
C
100
AcDbDictionary
281
     1
  0
ACDBDICTIONARYWDFLT
  5
E
102
{ACAD_REACTORS
330
C
102
}
330
C
100
AcDbDictionary
281
     1
  3
Normal
350
F
100
AcDbDictionaryWithDefault
340
F
  0
DICTIONARY
  5
2A
102
{ACAD_REACTORS
330
C
102
}
330
C
100
AcDbDictionary
281
     1
  3
2dWireframe
350
2F
  3
3D Hidden
350
31
  3
3dWireframe
350
30
  3
Basic
350
32
  3
Brighten
350
36
  3
ColorChange
350
3A
  3
Conceptual
350
34
  3
Dim
350
35
  3
Facepattern
350
39
  3
Flat
350
2B
  3
FlatWithEdges
350
2C
  3
Gouraud
350
2D
  3
GouraudWithEdges
350
2E
  3
Linepattern
350
38
  3
Realistic
350
33
  3
Thicken
350
37
  0
DICTIONARY
  5
2CA
102
{ACAD_REACTORS
330
C
102
}
330
C
100
AcDbDictionary
281
     1
  3
DIMASSOC
350
2CD
  3
HIDETEXT
350
2CE
  0
LAYOUT
  5
1E
102
{ACAD_REACTORS
330
1A
102
}
330
1A
100
AcDbPlotSettings
  1

  2
none_device
  4

  6

 40
0.0
 41
0.0
 42
0.0
 43
0.0
 44
0.0
 45
0.0
 46
0.0
 47
0.0
 48
0.0
 49
0.0
140
0.0
141
0.0
142
1.0
143
1.0
 70
   688
 72
     0
 73
     0
 74
     5
  7

 75
    16
147
1.0
148
0.0
149
0.0
100
AcDbLayout
  1
Layout1
 70
     1
 71
     1
 10
0.0
 20
0.0
 11
12.0
 21
9.0
 12
0.0
 22
0.0
 32
0.0
 14
1.00000000000000E+20
 24
1.00000000000000E+20
 34
1.00000000000000E+20
 15
-1.00000000000000E+20
 25
-1.00000000000000E+20
 35
-1.00000000000000E+20
146
0.0
 13
0.0
 23
0.0
 33
0.0
 16
1.0
 26
0.0
 36
0.0
 17
0.0
 27
1.0
 37
0.0
 76
     0
330
1B
  0
LAYOUT
  5
26
102
{ACAD_REACTORS
330
1A
102
}
330
1A
100
AcDbPlotSettings
  1

  2
none_device
  4

  6

 40
0.0
 41
0.0
 42
0.0
 43
0.0
 44
0.0
 45
0.0
 46
0.0
 47
0.0
 48
0.0
 49
0.0
140
0.0
141
0.0
142
1.0
143
1.0
 70
   688
 72
     0
 73
     0
 74
     5
  7

 75
    16
147
1.0
148
0.0
149
0.0
100
AcDbLayout
  1
Layout2
 70
     1
 71
     2
 10
0.0
 20
0.0
 11
0.0
 21
0.0
 12
0.0
 22
0.0
 32
0.0
 14
0.0
 24
0.0
 34
0.0
 15
0.0
 25
0.0
 35
0.0
146
0.0
 13
0.0
 23
0.0
 33
0.0
 16
1.0
 26
0.0
 36
0.0
 17
0.0
 27
1.0
 37
0.0
 76
     0
330
23
  0
LAYOUT
  5
22
102
{ACAD_REACTORS
330
1A
102
}
330
1A
100
AcDbPlotSettings
  1

  2
none_device
  4

  6

 40
0.0
 41
0.0
 42
0.0
 43
0.0
 44
0.0
 45
0.0
 46
0.0
 47
0.0
 48
0.0
 49
0.0
140
0.0
141
0.0
142
1.0
143
1.0
 70
  1712
 72
     0
 73
     0
 74
     0
  7

 75
     0
147
1.0
148
0.0
149
0.0
100
AcDbLayout
  1
Model
 70
     1
 71
     0
 10
0.0
 20
0.0
 11
12.0
 21
9.0
 12
0.0
 22
0.0
 32
0.0
 14
537.4831804529581
 24
-25.2538754191926
 34
0.0
 15
743.183180452958
 25
198.040968517816
 35
0.0
146
0.0
 13
0.0
 23
0.0
 33
0.0
 16
1.0
 26
0.0
 36
0.0
 17
0.0
 27
1.0
 37
0.0
 76
     0
330
1F
331
29
  0
MATERIAL
  5
3D
102
{ACAD_REACTORS
330
3B
102
}
102
{ACAD_XDICTIONARY
360
2F1
102
}
330
3B
100
AcDbMaterial
  1
ByBlock
  0
MATERIAL
  5
3C
102
{ACAD_REACTORS
330
3B
102
}
102
{ACAD_XDICTIONARY
360
2EF
102
}
330
3B
100
AcDbMaterial
  1
ByLayer
  0
MATERIAL
  5
3E
102
{ACAD_REACTORS
330
3B
102
}
102
{ACAD_XDICTIONARY
360
2F3
102
}
330
3B
100
AcDbMaterial
  1
Global
  0
MLINESTYLE
  5
18
102
{ACAD_REACTORS
330
17
102
}
330
17
100
AcDbMlineStyle
  2
Standard
 70
     0
  3

 62
   256
 51
90.0
 52
90.0
 71
     2
 49
0.5
 62
   256
  6
BYLAYER
 49
-0.5
 62
   256
  6
BYLAYER
  0
ACDBPLACEHOLDER
  5
F
102
{ACAD_REACTORS
330
E
102
}
330
E
  0
VISUALSTYLE
  5
2F
102
{ACAD_REACTORS
330
2A
102
}
102
{ACAD_XDICTIONARY
360
2D7
102
}
330
2A
100
AcDbVisualStyle
  2
2dWireframe
 70
     4
 71
     0
 72
     2
 73
     0
 90
        0
 40
-0.6
 41
-30.0
 62
     5
 63
     7
 74
     1
 91
        4
 64
     7
 65
   257
 75
     1
175
     1
 42
1.0
 92
        0
 66
   257
 43
1.0
 76
     1
 77
     6
 78
     2
 67
     7
 79
     5
170
     0
171
     0
290
     0
174
     0
 93
        1
 44
0.0
173
     0
291
     0
 45
0.0
1001
ACAD
1000
AcDbSavedByObjectVersion
1070
     0
  0
VISUALSTYLE
  5
31
102
{ACAD_REACTORS
330
2A
102
}
102
{ACAD_XDICTIONARY
360
2DB
102
}
330
2A
100
AcDbVisualStyle
  2
3D Hidden
 70
     6
 71
     1
 72
     2
 73
     2
 90
        0
 40
-0.6
 41
-30.0
 62
     5
 63
     7
 74
     2
 91
        2
 64
     7
 65
   257
 75
     2
175
     1
 42
40.0
 92
        0
 66
   257
 43
1.0
 76
     1
 77
     6
 78
     2
 67
     7
 79
     3
170
     0
171
     0
290
     0
174
     0
 93
        1
 44
0.0
173
     0
291
     0
 45
0.0
1001
ACAD
1000
AcDbSavedByObjectVersion
1070
     0
  0
VISUALSTYLE
  5
30
102
{ACAD_REACTORS
330
2A
102
}
102
{ACAD_XDICTIONARY
360
2D9
102
}
330
2A
100
AcDbVisualStyle
  2
3dWireframe
 70
     5
 71
     0
 72
     2
 73
     0
 90
        0
 40
-0.6
 41
-30.0
 62
     5
 63
     7
 74
     1
 91
        4
 64
     7
 65
   257
 75
     1
175
     1
 42
1.0
 92
        0
 66
   257
 43
1.0
 76
     1
 77
     6
 78
     2
 67
     7
 79
     5
170
     0
171
     0
290
     0
174
     0
 93
        1
 44
0.0
173
     0
291
     0
 45
0.0
1001
ACAD
1000
AcDbSavedByObjectVersion
1070
     0
  0
VISUALSTYLE
  5
32
102
{ACAD_REACTORS
330
2A
102
}
102
{ACAD_XDICTIONARY
360
2DD
102
}
330
2A
100
AcDbVisualStyle
  2
Basic
 70
     7
 71
     1
 72
     0
 73
     1
 90
        0
 40
-0.6
 41
-30.0
 62
     5
 63
     7
 74
     0
 91
        4
 64
     7
 65
   257
 75
     1
175
     1
 42
1.0
 92
        8
 66
     7
 43
1.0
 76
     1
 77
     6
 78
     2
 67
     7
 79
     5
170
     0
171
     0
290
     0
174
     0
 93
        1
 44
0.0
173
     0
291
     1
 45
0.0
1001
ACAD
1000
AcDbSavedByObjectVersion
1070
     0
  0
VISUALSTYLE
  5
36
102
{ACAD_REACTORS
330
2A
102
}
102
{ACAD_XDICTIONARY
360
2E5
102
}
330
2A
100
AcDbVisualStyle
  2
Brighten
 70
    12
 71
     2
 72
     2
 73
     0
 90
        0
 40
-0.6
 41
-30.0
 62
     5
 63
     7
 74
     1
 91
        4
 64
     7
 65
   257
 75
     1
175
     1
 42
1.0
 92
        8
 66
     7
 43
1.0
 76
     1
 77
     6
 78
     2
 67
     7
 79
     5
170
     0
171
     0
290
     0
174
     0
 93
        1
 44
50.0
173
     0
291
     1
 45
0.0
1001
ACAD
1000
AcDbSavedByObjectVersion
1070
     0
  0
VISUALSTYLE
  5
3A
102
{ACAD_REACTORS
330
2A
102
}
102
{ACAD_XDICTIONARY
360
2ED
102
}
330
2A
100
AcDbVisualStyle
  2
ColorChange
 70
    16
 71
     2
 72
     2
 73
     3
 90
        0
 40
-0.6
 41
-30.0
 62
     5
 63
     8
 74
     1
 91
        4
 64
     7
 65
   257
 75
     1
175
     1
 42
1.0
 92
        8
 66
     8
 43
1.0
 76
     1
 77
     6
 78
     2
 67
     7
 79
     5
170
     0
171
     0
290
     0
174
     0
 93
        1
 44
0.0
173
     0
291
     1
 45
0.0
1001
ACAD
1000
AcDbSavedByObjectVersion
1070
     0
  0
VISUALSTYLE
  5
34
102
{ACAD_REACTORS
330
2A
102
}
102
{ACAD_XDICTIONARY
360
2E1
102
}
330
2A
100
AcDbVisualStyle
  2
Conceptual
 70
     9
 71
     3
 72
     2
 73
     0
 90
        0
 40
-0.6
 41
-30.0
 62
     5
 63
     7
 74
     2
 91
        2
 64
     7
 65
   257
 75
     1
175
     1
 42
40.0
 92
        8
 66
     7
 43
1.0
 76
     1
 77
     6
 78
     2
 67
     7
 79
     3
170
     0
171
     0
290
     0
174
     0
 93
        1
 44
0.0
173
     0
291
     0
 45
0.0
1001
ACAD
1000
AcDbSavedByObjectVersion
1070
     0
  0
VISUALSTYLE
  5
35
102
{ACAD_REACTORS
330
2A
102
}
102
{ACAD_XDICTIONARY
360
2E3
102
}
330
2A
100
AcDbVisualStyle
  2
Dim
 70
    11
 71
     2
 72
     2
 73
     0
 90
        0
 40
-0.6
 41
-30.0
 62
     5
 63
     7
 74
     1
 91
        4
 64
     7
 65
   257
 75
     1
175
     1
 42
1.0
 92
        8
 66
     7
 43
1.0
 76
     1
 77
     6
 78
     2
 67
     7
 79
     5
170
     0
171
     0
290
     0
174
     0
 93
        1
 44
-50.0
173
     0
291
     1
 45
0.0
1001
ACAD
1000
AcDbSavedByObjectVersion
1070
     0
  0
VISUALSTYLE
  5
39
102
{ACAD_REACTORS
330
2A
102
}
102
{ACAD_XDICTIONARY
360
2EB
102
}
330
2A
100
AcDbVisualStyle
  2
Facepattern
 70
    15
 71
     2
 72
     2
 73
     0
 90
        0
 40
-0.6
 41
-30.0
 62
     5
 63
     7
 74
     1
 91
        4
 64
     7
 65
   257
 75
     1
175
     1
 42
1.0
 92
        8
 66
     7
 43
1.0
 76
     1
 77
     6
 78
     2
 67
     7
 79
     5
170
     0
171
     0
290
     0
174
     0
 93
        1
 44
0.0
173
     0
291
     1
 45
0.0
1001
ACAD
1000
AcDbSavedByObjectVersion
1070
     0
  0
VISUALSTYLE
  5
2B
102
{ACAD_REACTORS
330
2A
102
}
102
{ACAD_XDICTIONARY
360
2CF
102
}
330
2A
100
AcDbVisualStyle
  2
Flat
 70
     0
 71
     2
 72
     1
 73
     1
 90
        2
 40
-0.6
 41
30.0
 62
     5
 63
     7
 74
     0
 91
        4
 64
     7
 65
   257
 75
     1
175
     1
 42
1.0
 92
        8
 66
     7
 43
1.0
 76
     1
 77
     6
 78
     2
 67
     7
 79
     5
170
     0
171
     0
290
     0
174
     0
 93
       13
 44
0.0
173
     0
291
     1
 45
0.0
1001
ACAD
1000
AcDbSavedByObjectVersion
1070
     0
  0
VISUALSTYLE
  5
2C
102
{ACAD_REACTORS
330
2A
102
}
102
{ACAD_XDICTIONARY
360
2D1
102
}
330
2A
100
AcDbVisualStyle
  2
FlatWithEdges
 70
     1
 71
     2
 72
     1
 73
     1
 90
        2
 40
-0.6
 41
30.0
 62
     5
 63
     7
 74
     1
 91
        4
 64
     7
 65
   257
 75
     1
175
     1
 42
1.0
 92
        0
 66
   257
 43
1.0
 76
     1
 77
     6
 78
     2
 67
     7
 79
     5
170
     0
171
     0
290
     0
174
     0
 93
       13
 44
0.0
173
     0
291
     1
 45
0.0
1001
ACAD
1000
AcDbSavedByObjectVersion
1070
     0
  0
VISUALSTYLE
  5
2D
102
{ACAD_REACTORS
330
2A
102
}
102
{ACAD_XDICTIONARY
360
2D3
102
}
330
2A
100
AcDbVisualStyle
  2
Gouraud
 70
     2
 71
     2
 72
     2
 73
     1
 90
        2
 40
-0.6
 41
30.0
 62
     5
 63
     7
 74
     0
 91
        4
 64
     7
 65
   257
 75
     1
175
     1
 42
1.0
 92
        0
 66
     7
 43
1.0
 76
     1
 77
     6
 78
     2
 67
     7
 79
     5
170
     0
171
     0
290
     0
174
     0
 93
       13
 44
0.0
173
     0
291
     1
 45
0.0
1001
ACAD
1000
AcDbSavedByObjectVersion
1070
     0
  0
VISUALSTYLE
  5
2E
102
{ACAD_REACTORS
330
2A
102
}
102
{ACAD_XDICTIONARY
360
2D5
102
}
330
2A
100
AcDbVisualStyle
  2
GouraudWithEdges
 70
     3
 71
     2
 72
     2
 73
     1
 90
        2
 40
-0.6
 41
30.0
 62
     5
 63
     7
 74
     1
 91
        4
 64
     7
 65
   257
 75
     1
175
     1
 42
1.0
 92
        0
 66
   257
 43
1.0
 76
     1
 77
     6
 78
     2
 67
     7
 79
     5
170
     0
171
     0
290
     0
174
     0
 93
       13
 44
0.0
173
     0
291
     1
 45
0.0
1001
ACAD
1000
AcDbSavedByObjectVersion
1070
     0
  0
VISUALSTYLE
  5
38
102
{ACAD_REACTORS
330
2A
102
}
102
{ACAD_XDICTIONARY
360
2E9
102
}
330
2A
100
AcDbVisualStyle
  2
Linepattern
 70
    14
 71
     2
 72
     2
 73
     0
 90
        0
 40
-0.6
 41
-30.0
 62
     5
 63
     7
 74
     1
 91
        4
 64
     7
 65
   257
 75
     7
175
     7
 42
1.0
 92
        8
 66
     7
 43
1.0
 76
     1
 77
     6
 78
     2
 67
     7
 79
     5
170
     0
171
     0
290
     0
174
     0
 93
        1
 44
0.0
173
     0
291
     1
 45
0.0
1001
ACAD
1000
AcDbSavedByObjectVersion
1070
     0
  0
VISUALSTYLE
  5
33
102
{ACAD_REACTORS
330
2A
102
}
102
{ACAD_XDICTIONARY
360
2DF
102
}
330
2A
100
AcDbVisualStyle
  2
Realistic
 70
     8
 71
     2
 72
     2
 73
     0
 90
        0
 40
-0.6
 41
-30.0
 62
     5
 63
     7
 74
     1
 91
        0
 64
     7
 65
   257
 75
     1
175
     1
 42
1.0
 92
        8
 66
     8
 43
1.0
 76
     1
 77
     6
 78
     2
 67
     7
 79
     5
170
     0
171
     0
290
     0
174
     0
 93
       13
 44
0.0
173
     0
291
     0
 45
0.0
1001
ACAD
1000
AcDbSavedByObjectVersion
1070
     0
  0
VISUALSTYLE
  5
37
102
{ACAD_REACTORS
330
2A
102
}
102
{ACAD_XDICTIONARY
360
2E7
102
}
330
2A
100
AcDbVisualStyle
  2
Thicken
 70
    13
 71
     2
 72
     2
 73
     0
 90
        0
 40
-0.6
 41
-30.0
 62
     5
 63
     7
 74
     1
 91
        4
 64
     7
 65
   257
 75
     1
175
     1
 42
1.0
 92
       12
 66
     7
 43
1.0
 76
     1
 77
     6
 78
     2
 67
     7
 79
     5
170
     0
171
     0
290
     0
174
     0
 93
        1
 44
0.0
173
     0
291
     1
 45
0.0
1001
ACAD
1000
AcDbSavedByObjectVersion
1070
     0
  0
DICTIONARYVAR
  5
2CD
102
{ACAD_REACTORS
330
2CA
102
}
330
2CA
100
DictionaryVariables
280
     0
  1
2
  0
DICTIONARYVAR
  5
2CE
102
{ACAD_REACTORS
330
2CA
102
}
330
2CA
100
DictionaryVariables
280
     0
  1
1
  0
DICTIONARY
  5
2F1
330
3D
100
AcDbDictionary
280
     1
281
     1
  3
ACAD_XREC_ROUNDTRIP
360
2F2
  0
DICTIONARY
  5
2EF
330
3C
100
AcDbDictionary
280
     1
281
     1
  3
ACAD_XREC_ROUNDTRIP
360
2F0
  0
DICTIONARY
  5
2F3
330
3E
100
AcDbDictionary
280
     1
281
     1
  3
ACAD_XREC_ROUNDTRIP
360
2F4
  0
DICTIONARY
  5
2D7
330
2F
100
AcDbDictionary
280
     1
281
     1
  3
ACAD_XREC_ROUNDTRIP
360
2D8
  0
DICTIONARY
  5
2DB
330
31
100
AcDbDictionary
280
     1
281
     1
  3
ACAD_XREC_ROUNDTRIP
360
2DC
  0
DICTIONARY
  5
2D9
330
30
100
AcDbDictionary
280
     1
281
     1
  3
ACAD_XREC_ROUNDTRIP
360
2DA
  0
DICTIONARY
  5
2DD
330
32
100
AcDbDictionary
280
     1
281
     1
  3
ACAD_XREC_ROUNDTRIP
360
2DE
  0
DICTIONARY
  5
2E5
330
36
100
AcDbDictionary
280
     1
281
     1
  3
ACAD_XREC_ROUNDTRIP
360
2E6
  0
DICTIONARY
  5
2ED
330
3A
100
AcDbDictionary
280
     1
281
     1
  3
ACAD_XREC_ROUNDTRIP
360
2EE
  0
DICTIONARY
  5
2E1
330
34
100
AcDbDictionary
280
     1
281
     1
  3
ACAD_XREC_ROUNDTRIP
360
2E2
  0
DICTIONARY
  5
2E3
330
35
100
AcDbDictionary
280
     1
281
     1
  3
ACAD_XREC_ROUNDTRIP
360
2E4
  0
DICTIONARY
  5
2EB
330
39
100
AcDbDictionary
280
     1
281
     1
  3
ACAD_XREC_ROUNDTRIP
360
2EC
  0
DICTIONARY
  5
2CF
330
2B
100
AcDbDictionary
280
     1
281
     1
  3
ACAD_XREC_ROUNDTRIP
360
2D0
  0
DICTIONARY
  5
2D1
330
2C
100
AcDbDictionary
280
     1
281
     1
  3
ACAD_XREC_ROUNDTRIP
360
2D2
  0
DICTIONARY
  5
2D3
330
2D
100
AcDbDictionary
280
     1
281
     1
  3
ACAD_XREC_ROUNDTRIP
360
2D4
  0
DICTIONARY
  5
2D5
330
2E
100
AcDbDictionary
280
     1
281
     1
  3
ACAD_XREC_ROUNDTRIP
360
2D6
  0
DICTIONARY
  5
2E9
330
38
100
AcDbDictionary
280
     1
281
     1
  3
ACAD_XREC_ROUNDTRIP
360
2EA
  0
DICTIONARY
  5
2DF
330
33
100
AcDbDictionary
280
     1
281
     1
  3
ACAD_XREC_ROUNDTRIP
360
2E0
  0
DICTIONARY
  5
2E7
330
37
100
AcDbDictionary
280
     1
281
     1
  3
ACAD_XREC_ROUNDTRIP
360
2E8
  0
XRECORD
  5
2F2
102
{ACAD_REACTORS
330
2F1
102
}
330
2F1
100
AcDbXrecord
280
     1
102
MATERIAL
148
0.0
149
0.0
149
0.0
 93
        0
 94
      127
282
     0
 72
     1
 77
     1
171
     1
175
     1
179
     1
273
     0
  0
XRECORD
  5
2F0
102
{ACAD_REACTORS
330
2EF
102
}
330
2EF
100
AcDbXrecord
280
     1
102
MATERIAL
148
0.0
149
0.0
149
0.0
 93
        0
 94
      127
282
     0
 72
     1
 77
     1
171
     1
175
     1
179
     1
273
     0
  0
XRECORD
  5
2F4
102
{ACAD_REACTORS
330
2F3
102
}
330
2F3
100
AcDbXrecord
280
     1
102
MATERIAL
148
0.0
149
0.0
149
0.0
 93
        0
 94
      127
282
     0
 72
     1
 77
     1
171
     1
175
     1
179
     1
273
     0
  0
XRECORD
  5
2D8
102
{ACAD_REACTORS
330
2D7
102
}
330
2D7
100
AcDbXrecord
280
     1
102
RTVSPropertyOp0
 70
     1
102
RTVSPropertyOp1
 70
     1
102
RTVSPropertyOp2
 70
     1
102
RTVSPropertyOp3
 70
     1
102
RTVSPropertyOp4
 70
     1
102
RTVSPropertyOp5
 70
     1
102
RTVSPropertyOp6
 70
     1
102
RTVSPropertyOp7
 70
     1
102
RTVSPropertyOp8
 70
     1
102
RTVSPropertyOp9
 70
     1
102
RTVSPropertyOp10
 70
     1
102
RTVSPropertyOp11
 70
     1
102
RTVSPropertyOp12
 70
     1
102
RTVSPropertyOp13
 70
     1
102
RTVSPropertyOp14
 70
     1
102
RTVSPropertyOp15
 70
     1
102
RTVSPropertyOp16
 70
     1
102
RTVSPropertyOp17
 70
     1
102
RTVSPropertyOp18
 70
     1
102
RTVSPropertyOp19
 70
     1
102
RTVSPropertyOp20
 70
     1
102
RTVSPropertyOp21
 70
     1
102
RTVSPropertyOp22
 70
     1
102
RTVSPropertyOp23
 70
     1
102
RTVSPropertyOp24
 70
     1
102
RTVSPropertyOp25
 70
     1
102
RTVSPropertyOp26
 70
     1
102
RTVSPropertyOp27
 70
     1
  0
XRECORD
  5
2DC
102
{ACAD_REACTORS
330
2DB
102
}
330
2DB
100
AcDbXrecord
280
     1
102
RTVSPropertyOp0
 70
     1
102
RTVSPropertyOp1
 70
     1
102
RTVSPropertyOp2
 70
     1
102
RTVSPropertyOp3
 70
     1
102
RTVSPropertyOp4
 70
     1
102
RTVSPropertyOp5
 70
     1
102
RTVSPropertyOp6
 70
     1
102
RTVSPropertyOp7
 70
     1
102
RTVSPropertyOp8
 70
     1
102
RTVSPropertyOp9
 70
     1
102
RTVSPropertyOp10
 70
     1
102
RTVSPropertyOp11
 70
     1
102
RTVSPropertyOp12
 70
     1
102
RTVSPropertyOp13
 70
     1
102
RTVSPropertyOp14
 70
     1
102
RTVSPropertyOp15
 70
     1
102
RTVSPropertyOp16
 70
     1
102
RTVSPropertyOp17
 70
     1
102
RTVSPropertyOp18
 70
     1
102
RTVSPropertyOp19
 70
     1
102
RTVSPropertyOp20
 70
     1
102
RTVSPropertyOp21
 70
     1
102
RTVSPropertyOp22
 70
     1
102
RTVSPropertyOp23
 70
     1
102
RTVSPropertyOp24
 70
     1
102
RTVSPropertyOp25
 70
     1
102
RTVSPropertyOp26
 70
     1
102
RTVSPropertyOp27
 70
     1
  0
XRECORD
  5
2DA
102
{ACAD_REACTORS
330
2D9
102
}
330
2D9
100
AcDbXrecord
280
     1
102
RTVSPropertyOp0
 70
     1
102
RTVSPropertyOp1
 70
     1
102
RTVSPropertyOp2
 70
     1
102
RTVSPropertyOp3
 70
     1
102
RTVSPropertyOp4
 70
     1
102
RTVSPropertyOp5
 70
     1
102
RTVSPropertyOp6
 70
     1
102
RTVSPropertyOp7
 70
     1
102
RTVSPropertyOp8
 70
     1
102
RTVSPropertyOp9
 70
     1
102
RTVSPropertyOp10
 70
     1
102
RTVSPropertyOp11
 70
     1
102
RTVSPropertyOp12
 70
     1
102
RTVSPropertyOp13
 70
     1
102
RTVSPropertyOp14
 70
     1
102
RTVSPropertyOp15
 70
     1
102
RTVSPropertyOp16
 70
     1
102
RTVSPropertyOp17
 70
     1
102
RTVSPropertyOp18
 70
     1
102
RTVSPropertyOp19
 70
     1
102
RTVSPropertyOp20
 70
     1
102
RTVSPropertyOp21
 70
     1
102
RTVSPropertyOp22
 70
     1
102
RTVSPropertyOp23
 70
     1
102
RTVSPropertyOp24
 70
     1
102
RTVSPropertyOp25
 70
     1
102
RTVSPropertyOp26
 70
     1
102
RTVSPropertyOp27
 70
     1
  0
XRECORD
  5
2DE
102
{ACAD_REACTORS
330
2DD
102
}
330
2DD
100
AcDbXrecord
280
     1
102
RTVSPropertyOp0
 70
     1
102
RTVSPropertyOp1
 70
     1
102
RTVSPropertyOp2
 70
     1
102
RTVSPropertyOp3
 70
     1
102
RTVSPropertyOp4
 70
     1
102
RTVSPropertyOp5
 70
     1
102
RTVSPropertyOp6
 70
     1
102
RTVSPropertyOp7
 70
     1
102
RTVSPropertyOp8
 70
     1
102
RTVSPropertyOp9
 70
     1
102
RTVSPropertyOp10
 70
     1
102
RTVSPropertyOp11
 70
     1
102
RTVSPropertyOp12
 70
     1
102
RTVSPropertyOp13
 70
     1
102
RTVSPropertyOp14
 70
     1
102
RTVSPropertyOp15
 70
     1
102
RTVSPropertyOp16
 70
     1
102
RTVSPropertyOp17
 70
     1
102
RTVSPropertyOp18
 70
     1
102
RTVSPropertyOp19
 70
     1
102
RTVSPropertyOp20
 70
     1
102
RTVSPropertyOp21
 70
     1
102
RTVSPropertyOp22
 70
     1
102
RTVSPropertyOp23
 70
     1
102
RTVSPropertyOp24
 70
     1
102
RTVSPropertyOp25
 70
     1
102
RTVSPropertyOp26
 70
     1
102
RTVSPropertyOp27
 70
     1
  0
XRECORD
  5
2E6
102
{ACAD_REACTORS
330
2E5
102
}
330
2E5
100
AcDbXrecord
280
     1
102
RTVSPropertyOp0
 70
     1
102
RTVSPropertyOp1
 70
     1
102
RTVSPropertyOp2
 70
     1
102
RTVSPropertyOp3
 70
     1
102
RTVSPropertyOp4
 70
     1
102
RTVSPropertyOp5
 70
     1
102
RTVSPropertyOp6
 70
     1
102
RTVSPropertyOp7
 70
     1
102
RTVSPropertyOp8
 70
     1
102
RTVSPropertyOp9
 70
     1
102
RTVSPropertyOp10
 70
     1
102
RTVSPropertyOp11
 70
     1
102
RTVSPropertyOp12
 70
     1
102
RTVSPropertyOp13
 70
     1
102
RTVSPropertyOp14
 70
     1
102
RTVSPropertyOp15
 70
     1
102
RTVSPropertyOp16
 70
     1
102
RTVSPropertyOp17
 70
     1
102
RTVSPropertyOp18
 70
     1
102
RTVSPropertyOp19
 70
     1
102
RTVSPropertyOp20
 70
     1
102
RTVSPropertyOp21
 70
     1
102
RTVSPropertyOp22
 70
     1
102
RTVSPropertyOp23
 70
     1
102
RTVSPropertyOp24
 70
     1
102
RTVSPropertyOp25
 70
     1
102
RTVSPropertyOp26
 70
     1
102
RTVSPropertyOp27
 70
     1
  0
XRECORD
  5
2EE
102
{ACAD_REACTORS
330
2ED
102
}
330
2ED
100
AcDbXrecord
280
     1
102
RTVSPropertyOp0
 70
     1
102
RTVSPropertyOp1
 70
     1
102
RTVSPropertyOp2
 70
     1
102
RTVSPropertyOp3
 70
     1
102
RTVSPropertyOp4
 70
     1
102
RTVSPropertyOp5
 70
     1
102
RTVSPropertyOp6
 70
     1
102
RTVSPropertyOp7
 70
     1
102
RTVSPropertyOp8
 70
     1
102
RTVSPropertyOp9
 70
     1
102
RTVSPropertyOp10
 70
     1
102
RTVSPropertyOp11
 70
     1
102
RTVSPropertyOp12
 70
     1
102
RTVSPropertyOp13
 70
     1
102
RTVSPropertyOp14
 70
     1
102
RTVSPropertyOp15
 70
     1
102
RTVSPropertyOp16
 70
     1
102
RTVSPropertyOp17
 70
     1
102
RTVSPropertyOp18
 70
     1
102
RTVSPropertyOp19
 70
     1
102
RTVSPropertyOp20
 70
     1
102
RTVSPropertyOp21
 70
     1
102
RTVSPropertyOp22
 70
     1
102
RTVSPropertyOp23
 70
     1
102
RTVSPropertyOp24
 70
     1
102
RTVSPropertyOp25
 70
     1
102
RTVSPropertyOp26
 70
     1
102
RTVSPropertyOp27
 70
     1
  0
XRECORD
  5
2E2
102
{ACAD_REACTORS
330
2E1
102
}
330
2E1
100
AcDbXrecord
280
     1
102
RTVSPropertyOp0
 70
     1
102
RTVSPropertyOp1
 70
     1
102
RTVSPropertyOp2
 70
     1
102
RTVSPropertyOp3
 70
     1
102
RTVSPropertyOp4
 70
     1
102
RTVSPropertyOp5
 70
     1
102
RTVSPropertyOp6
 70
     1
102
RTVSPropertyOp7
 70
     1
102
RTVSPropertyOp8
 70
     1
102
RTVSPropertyOp9
 70
     1
102
RTVSPropertyOp10
 70
     1
102
RTVSPropertyOp11
 70
     1
102
RTVSPropertyOp12
 70
     1
102
RTVSPropertyOp13
 70
     1
102
RTVSPropertyOp14
 70
     1
102
RTVSPropertyOp15
 70
     1
102
RTVSPropertyOp16
 70
     1
102
RTVSPropertyOp17
 70
     1
102
RTVSPropertyOp18
 70
     1
102
RTVSPropertyOp19
 70
     1
102
RTVSPropertyOp20
 70
     1
102
RTVSPropertyOp21
 70
     1
102
RTVSPropertyOp22
 70
     1
102
RTVSPropertyOp23
 70
     1
102
RTVSPropertyOp24
 70
     1
102
RTVSPropertyOp25
 70
     1
102
RTVSPropertyOp26
 70
     1
102
RTVSPropertyOp27
 70
     1
  0
XRECORD
  5
2E4
102
{ACAD_REACTORS
330
2E3
102
}
330
2E3
100
AcDbXrecord
280
     1
102
RTVSPropertyOp0
 70
     1
102
RTVSPropertyOp1
 70
     1
102
RTVSPropertyOp2
 70
     1
102
RTVSPropertyOp3
 70
     1
102
RTVSPropertyOp4
 70
     1
102
RTVSPropertyOp5
 70
     1
102
RTVSPropertyOp6
 70
     1
102
RTVSPropertyOp7
 70
     1
102
RTVSPropertyOp8
 70
     1
102
RTVSPropertyOp9
 70
     1
102
RTVSPropertyOp10
 70
     1
102
RTVSPropertyOp11
 70
     1
102
RTVSPropertyOp12
 70
     1
102
RTVSPropertyOp13
 70
     1
102
RTVSPropertyOp14
 70
     1
102
RTVSPropertyOp15
 70
     1
102
RTVSPropertyOp16
 70
     1
102
RTVSPropertyOp17
 70
     1
102
RTVSPropertyOp18
 70
     1
102
RTVSPropertyOp19
 70
     1
102
RTVSPropertyOp20
 70
     1
102
RTVSPropertyOp21
 70
     1
102
RTVSPropertyOp22
 70
     1
102
RTVSPropertyOp23
 70
     1
102
RTVSPropertyOp24
 70
     1
102
RTVSPropertyOp25
 70
     1
102
RTVSPropertyOp26
 70
     1
102
RTVSPropertyOp27
 70
     1
  0
XRECORD
  5
2EC
102
{ACAD_REACTORS
330
2EB
102
}
330
2EB
100
AcDbXrecord
280
     1
102
RTVSPropertyOp0
 70
     1
102
RTVSPropertyOp1
 70
     1
102
RTVSPropertyOp2
 70
     1
102
RTVSPropertyOp3
 70
     1
102
RTVSPropertyOp4
 70
     1
102
RTVSPropertyOp5
 70
     1
102
RTVSPropertyOp6
 70
     1
102
RTVSPropertyOp7
 70
     1
102
RTVSPropertyOp8
 70
     1
102
RTVSPropertyOp9
 70
     1
102
RTVSPropertyOp10
 70
     1
102
RTVSPropertyOp11
 70
     1
102
RTVSPropertyOp12
 70
     1
102
RTVSPropertyOp13
 70
     1
102
RTVSPropertyOp14
 70
     1
102
RTVSPropertyOp15
 70
     1
102
RTVSPropertyOp16
 70
     1
102
RTVSPropertyOp17
 70
     1
102
RTVSPropertyOp18
 70
     1
102
RTVSPropertyOp19
 70
     1
102
RTVSPropertyOp20
 70
     1
102
RTVSPropertyOp21
 70
     1
102
RTVSPropertyOp22
 70
     1
102
RTVSPropertyOp23
 70
     1
102
RTVSPropertyOp24
 70
     1
102
RTVSPropertyOp25
 70
     1
102
RTVSPropertyOp26
 70
     1
102
RTVSPropertyOp27
 70
     1
  0
XRECORD
  5
2D0
102
{ACAD_REACTORS
330
2CF
102
}
330
2CF
100
AcDbXrecord
280
     1
102
RTVSPropertyOp0
 70
     1
102
RTVSPropertyOp1
 70
     1
102
RTVSPropertyOp2
 70
     1
102
RTVSPropertyOp3
 70
     1
102
RTVSPropertyOp4
 70
     1
102
RTVSPropertyOp5
 70
     1
102
RTVSPropertyOp6
 70
     1
102
RTVSPropertyOp7
 70
     1
102
RTVSPropertyOp8
 70
     1
102
RTVSPropertyOp9
 70
     1
102
RTVSPropertyOp10
 70
     1
102
RTVSPropertyOp11
 70
     1
102
RTVSPropertyOp12
 70
     1
102
RTVSPropertyOp13
 70
     1
102
RTVSPropertyOp14
 70
     1
102
RTVSPropertyOp15
 70
     1
102
RTVSPropertyOp16
 70
     1
102
RTVSPropertyOp17
 70
     1
102
RTVSPropertyOp18
 70
     1
102
RTVSPropertyOp19
 70
     1
102
RTVSPropertyOp20
 70
     1
102
RTVSPropertyOp21
 70
     1
102
RTVSPropertyOp22
 70
     1
102
RTVSPropertyOp23
 70
     1
102
RTVSPropertyOp24
 70
     1
102
RTVSPropertyOp25
 70
     1
102
RTVSPropertyOp26
 70
     1
102
RTVSPropertyOp27
 70
     1
  0
XRECORD
  5
2D2
102
{ACAD_REACTORS
330
2D1
102
}
330
2D1
100
AcDbXrecord
280
     1
102
RTVSPropertyOp0
 70
     1
102
RTVSPropertyOp1
 70
     1
102
RTVSPropertyOp2
 70
     1
102
RTVSPropertyOp3
 70
     1
102
RTVSPropertyOp4
 70
     1
102
RTVSPropertyOp5
 70
     1
102
RTVSPropertyOp6
 70
     1
102
RTVSPropertyOp7
 70
     1
102
RTVSPropertyOp8
 70
     1
102
RTVSPropertyOp9
 70
     1
102
RTVSPropertyOp10
 70
     1
102
RTVSPropertyOp11
 70
     1
102
RTVSPropertyOp12
 70
     1
102
RTVSPropertyOp13
 70
     1
102
RTVSPropertyOp14
 70
     1
102
RTVSPropertyOp15
 70
     1
102
RTVSPropertyOp16
 70
     1
102
RTVSPropertyOp17
 70
     1
102
RTVSPropertyOp18
 70
     1
102
RTVSPropertyOp19
 70
     1
102
RTVSPropertyOp20
 70
     1
102
RTVSPropertyOp21
 70
     1
102
RTVSPropertyOp22
 70
     1
102
RTVSPropertyOp23
 70
     1
102
RTVSPropertyOp24
 70
     1
102
RTVSPropertyOp25
 70
     1
102
RTVSPropertyOp26
 70
     1
102
RTVSPropertyOp27
 70
     1
  0
XRECORD
  5
2D4
102
{ACAD_REACTORS
330
2D3
102
}
330
2D3
100
AcDbXrecord
280
     1
102
RTVSPropertyOp0
 70
     1
102
RTVSPropertyOp1
 70
     1
102
RTVSPropertyOp2
 70
     1
102
RTVSPropertyOp3
 70
     1
102
RTVSPropertyOp4
 70
     1
102
RTVSPropertyOp5
 70
     1
102
RTVSPropertyOp6
 70
     1
102
RTVSPropertyOp7
 70
     1
102
RTVSPropertyOp8
 70
     1
102
RTVSPropertyOp9
 70
     1
102
RTVSPropertyOp10
 70
     1
102
RTVSPropertyOp11
 70
     1
102
RTVSPropertyOp12
 70
     1
102
RTVSPropertyOp13
 70
     1
102
RTVSPropertyOp14
 70
     1
102
RTVSPropertyOp15
 70
     1
102
RTVSPropertyOp16
 70
     1
102
RTVSPropertyOp17
 70
     1
102
RTVSPropertyOp18
 70
     1
102
RTVSPropertyOp19
 70
     1
102
RTVSPropertyOp20
 70
     1
102
RTVSPropertyOp21
 70
     1
102
RTVSPropertyOp22
 70
     1
102
RTVSPropertyOp23
 70
     1
102
RTVSPropertyOp24
 70
     1
102
RTVSPropertyOp25
 70
     1
102
RTVSPropertyOp26
 70
     1
102
RTVSPropertyOp27
 70
     1
  0
XRECORD
  5
2D6
102
{ACAD_REACTORS
330
2D5
102
}
330
2D5
100
AcDbXrecord
280
     1
102
RTVSPropertyOp0
 70
     1
102
RTVSPropertyOp1
 70
     1
102
RTVSPropertyOp2
 70
     1
102
RTVSPropertyOp3
 70
     1
102
RTVSPropertyOp4
 70
     1
102
RTVSPropertyOp5
 70
     1
102
RTVSPropertyOp6
 70
     1
102
RTVSPropertyOp7
 70
     1
102
RTVSPropertyOp8
 70
     1
102
RTVSPropertyOp9
 70
     1
102
RTVSPropertyOp10
 70
     1
102
RTVSPropertyOp11
 70
     1
102
RTVSPropertyOp12
 70
     1
102
RTVSPropertyOp13
 70
     1
102
RTVSPropertyOp14
 70
     1
102
RTVSPropertyOp15
 70
     1
102
RTVSPropertyOp16
 70
     1
102
RTVSPropertyOp17
 70
     1
102
RTVSPropertyOp18
 70
     1
102
RTVSPropertyOp19
 70
     1
102
RTVSPropertyOp20
 70
     1
102
RTVSPropertyOp21
 70
     1
102
RTVSPropertyOp22
 70
     1
102
RTVSPropertyOp23
 70
     1
102
RTVSPropertyOp24
 70
     1
102
RTVSPropertyOp25
 70
     1
102
RTVSPropertyOp26
 70
     1
102
RTVSPropertyOp27
 70
     1
  0
XRECORD
  5
2EA
102
{ACAD_REACTORS
330
2E9
102
}
330
2E9
100
AcDbXrecord
280
     1
102
RTVSPropertyOp0
 70
     1
102
RTVSPropertyOp1
 70
     1
102
RTVSPropertyOp2
 70
     1
102
RTVSPropertyOp3
 70
     1
102
RTVSPropertyOp4
 70
     1
102
RTVSPropertyOp5
 70
     1
102
RTVSPropertyOp6
 70
     1
102
RTVSPropertyOp7
 70
     1
102
RTVSPropertyOp8
 70
     1
102
RTVSPropertyOp9
 70
     1
102
RTVSPropertyOp10
 70
     1
102
RTVSPropertyOp11
 70
     1
102
RTVSPropertyOp12
 70
     1
102
RTVSPropertyOp13
 70
     1
102
RTVSPropertyOp14
 70
     1
102
RTVSPropertyOp15
 70
     1
102
RTVSPropertyOp16
 70
     1
102
RTVSPropertyOp17
 70
     1
102
RTVSPropertyOp18
 70
     1
102
RTVSPropertyOp19
 70
     1
102
RTVSPropertyOp20
 70
     1
102
RTVSPropertyOp21
 70
     1
102
RTVSPropertyOp22
 70
     1
102
RTVSPropertyOp23
 70
     1
102
RTVSPropertyOp24
 70
     1
102
RTVSPropertyOp25
 70
     1
102
RTVSPropertyOp26
 70
     1
102
RTVSPropertyOp27
 70
     1
  0
XRECORD
  5
2E0
102
{ACAD_REACTORS
330
2DF
102
}
330
2DF
100
AcDbXrecord
280
     1
102
RTVSPropertyOp0
 70
     1
102
RTVSPropertyOp1
 70
     1
102
RTVSPropertyOp2
 70
     1
102
RTVSPropertyOp3
 70
     1
102
RTVSPropertyOp4
 70
     1
102
RTVSPropertyOp5
 70
     1
102
RTVSPropertyOp6
 70
     1
102
RTVSPropertyOp7
 70
     1
102
RTVSPropertyOp8
 70
     1
102
RTVSPropertyOp9
 70
     1
102
RTVSPropertyOp10
 70
     1
102
RTVSPropertyOp11
 70
     1
102
RTVSPropertyOp12
 70
     1
102
RTVSPropertyOp13
 70
     1
102
RTVSPropertyOp14
 70
     1
102
RTVSPropertyOp15
 70
     1
102
RTVSPropertyOp16
 70
     1
102
RTVSPropertyOp17
 70
     1
102
RTVSPropertyOp18
 70
     1
102
RTVSPropertyOp19
 70
     1
102
RTVSPropertyOp20
 70
     1
102
RTVSPropertyOp21
 70
     1
102
RTVSPropertyOp22
 70
     1
102
RTVSPropertyOp23
 70
     1
102
RTVSPropertyOp24
 70
     1
102
RTVSPropertyOp25
 70
     1
102
RTVSPropertyOp26
 70
     1
102
RTVSPropertyOp27
 70
     1
  0
XRECORD
  5
2E8
102
{ACAD_REACTORS
330
2E7
102
}
330
2E7
100
AcDbXrecord
280
     1
102
RTVSPropertyOp0
 70
     1
102
RTVSPropertyOp1
 70
     1
102
RTVSPropertyOp2
 70
     1
102
RTVSPropertyOp3
 70
     1
102
RTVSPropertyOp4
 70
     1
102
RTVSPropertyOp5
 70
     1
102
RTVSPropertyOp6
 70
     1
102
RTVSPropertyOp7
 70
     1
102
RTVSPropertyOp8
 70
     1
102
RTVSPropertyOp9
 70
     1
102
RTVSPropertyOp10
 70
     1
102
RTVSPropertyOp11
 70
     1
102
RTVSPropertyOp12
 70
     1
102
RTVSPropertyOp13
 70
     1
102
RTVSPropertyOp14
 70
     1
102
RTVSPropertyOp15
 70
     1
102
RTVSPropertyOp16
 70
     1
102
RTVSPropertyOp17
 70
     1
102
RTVSPropertyOp18
 70
     1
102
RTVSPropertyOp19
 70
     1
102
RTVSPropertyOp20
 70
     1
102
RTVSPropertyOp21
 70
     1
102
RTVSPropertyOp22
 70
     1
102
RTVSPropertyOp23
 70
     1
102
RTVSPropertyOp24
 70
     1
102
RTVSPropertyOp25
 70
     1
102
RTVSPropertyOp26
 70
     1
102
RTVSPropertyOp27
 70
     1
  0
ENDSEC
  0
EOF
