  0
SECTION
  2
HEADER
  9
$ACADVER
  1
AC1015
  9
$ACADMAINTVER
 70
     6
  9
$DWGCODEPAGE
  3
ANSI_932
  9
$INSBASE
 10
0.0
 20
0.0
 30
0.0
  9
$EXTMIN
 10
-39.74007760977599
 20
20.70515606299139
 30
0.0
  9
$EXTMAX
 10
143.420122927706
 20
225.4300114896552
 30
0.0
  9
$LIMMIN
 10
0.0
 20
0.0
  9
$LIMMAX
 10
12.0
 20
9.0
  9
$ORTHOMODE
 70
     0
  9
$REGENMODE
 70
     1
  9
$FILLMODE
 70
     1
  9
$QTEXTMODE
 70
     0
  9
$MIRRTEXT
 70
     1
  9
$LTSCALE
 40
1.0
  9
$ATTMODE
 70
     1
  9
$TEXTSIZE
 40
0.2
  9
$TRACEWID
 40
0.05
  9
$TEXTSTYLE
  7
Standard
  9
$CLAYER
  8
0
  9
$CELTYPE
  6
ByLayer
  9
$CECOLOR
 62
   256
  9
$CELTSCALE
 40
1.0
  9
$DISPSILH
 70
     0
  9
$DIMSCALE
 40
1.0
  9
$DIMASZ
 40
0.18
  9
$DIMEXO
 40
0.0625
  9
$DIMDLI
 40
0.38
  9
$DIMRND
 40
0.0
  9
$DIMDLE
 40
0.0
  9
$DIMEXE
 40
0.18
  9
$DIMTP
 40
0.0
  9
$DIMTM
 40
0.0
  9
$DIMTXT
 40
0.18
  9
$DIMCEN
 40
0.09
  9
$DIMTSZ
 40
0.0
  9
$DIMTOL
 70
     0
  9
$DIMLIM
 70
     0
  9
$DIMTIH
 70
     1
  9
$DIMTOH
 70
     1
  9
$DIMSE1
 70
     0
  9
$DIMSE2
 70
     0
  9
$DIMTAD
 70
     0
  9
$DIMZIN
 70
     0
  9
$DIMBLK
  1

  9
$DIMASO
 70
     1
  9
$DIMSHO
 70
     1
  9
$DIMPOST
  1

  9
$DIMAPOST
  1

  9
$DIMALT
 70
     0
  9
$DIMALTD
 70
     2
  9
$DIMALTF
 40
25.4
  9
$DIMLFAC
 40
1.0
  9
$DIMTOFL
 70
     0
  9
$DIMTVP
 40
0.0
  9
$DIMTIX
 70
     0
  9
$DIMSOXD
 70
     0
  9
$DIMSAH
 70
     0
  9
$DIMBLK1
  1

  9
$DIMBLK2
  1

  9
$DIMSTYLE
  2
Standard
  9
$DIMCLRD
 70
     0
  9
$DIMCLRE
 70
     0
  9
$DIMCLRT
 70
     0
  9
$DIMTFAC
 40
1.0
  9
$DIMGAP
 40
0.09
  9
$DIMJUST
 70
     0
  9
$DIMSD1
 70
     0
  9
$DIMSD2
 70
     0
  9
$DIMTOLJ
 70
     1
  9
$DIMTZIN
 70
     0
  9
$DIMALTZ
 70
     0
  9
$DIMALTTZ
 70
     0
  9
$DIMUPT
 70
     0
  9
$DIMDEC
 70
     4
  9
$DIMTDEC
 70
     4
  9
$DIMALTU
 70
     2
  9
$DIMALTTD
 70
     2
  9
$DIMTXSTY
  7
Standard
  9
$DIMAUNIT
 70
     0
  9
$DIMADEC
 70
     0
  9
$DIMALTRND
 40
0.0
  9
$DIMAZIN
 70
     0
  9
$DIMDSEP
 70
    46
  9
$DIMATFIT
 70
     3
  9
$DIMFRAC
 70
     0
  9
$DIMLDRBLK
  1

  9
$DIMLUNIT
 70
     2
  9
$DIMLWD
 70
    -2
  9
$DIMLWE
 70
    -2
  9
$DIMTMOVE
 70
     0
  9
$LUNITS
 70
     2
  9
$LUPREC
 70
     4
  9
$SKETCHINC
 40
0.1
  9
$FILLETRAD
 40
0.5
  9
$AUNITS
 70
     0
  9
$AUPREC
 70
     0
  9
$MENU
  1
.
  9
$ELEVATION
 40
0.0
  9
$PELEVATION
 40
0.0
  9
$THICKNESS
 40
0.0
  9
$LIMCHECK
 70
     0
  9
$CHAMFERA
 40
0.5
  9
$CHAMFERB
 40
0.5
  9
$CHAMFERC
 40
1.0
  9
$CHAMFERD
 40
0.0
  9
$SKPOLY
 70
     0
  9
$TDCREATE
 40
2458442.495725648
  9
$TDUCREATE
 40
2458442.120725648
  9
$TDUPDATE
 40
2458442.49572566
  9
$TDUUPDATE
 40
2458442.12072566
  9
$TDINDWG
 40
0.0000000116
  9
$TDUSRTIMER
 40
0.0000000116
  9
$USRTIMER
 70
     1
  9
$ANGBASE
 50
0.0
  9
$ANGDIR
 70
     0
  9
$PDMODE
 70
     0
  9
$PDSIZE
 40
0.0
  9
$PLINEWID
 40
0.0
  9
$SPLFRAME
 70
     0
  9
$SPLINETYPE
 70
     6
  9
$SPLINESEGS
 70
     8
  9
$HANDSEED
  5
2BF
  9
$SURFTAB1
 70
     6
  9
$SURFTAB2
 70
     6
  9
$SURFTYPE
 70
     6
  9
$SURFU
 70
     6
  9
$SURFV
 70
     6
  9
$UCSBASE
  2

  9
$UCSNAME
  2

  9
$UCSORG
 10
0.0
 20
0.0
 30
0.0
  9
$UCSXDIR
 10
1.0
 20
0.0
 30
0.0
  9
$UCSYDIR
 10
0.0
 20
1.0
 30
0.0
  9
$UCSORTHOREF
  2

  9
$UCSORTHOVIEW
 70
     0
  9
$UCSORGTOP
 10
0.0
 20
0.0
 30
0.0
  9
$UCSORGBOTTOM
 10
0.0
 20
0.0
 30
0.0
  9
$UCSORGLEFT
 10
0.0
 20
0.0
 30
0.0
  9
$UCSORGRIGHT
 10
0.0
 20
0.0
 30
0.0
  9
$UCSORGFRONT
 10
0.0
 20
0.0
 30
0.0
  9
$UCSORGBACK
 10
0.0
 20
0.0
 30
0.0
  9
$PUCSBASE
  2

  9
$PUCSNAME
  2

  9
$PUCSORG
 10
0.0
 20
0.0
 30
0.0
  9
$PUCSXDIR
 10
1.0
 20
0.0
 30
0.0
  9
$PUCSYDIR
 10
0.0
 20
1.0
 30
0.0
  9
$PUCSORTHOREF
  2

  9
$PUCSORTHOVIEW
 70
     0
  9
$PUCSORGTOP
 10
0.0
 20
0.0
 30
0.0
  9
$PUCSORGBOTTOM
 10
0.0
 20
0.0
 30
0.0
  9
$PUCSORGLEFT
 10
0.0
 20
0.0
 30
0.0
  9
$PUCSORGRIGHT
 10
0.0
 20
0.0
 30
0.0
  9
$PUCSORGFRONT
 10
0.0
 20
0.0
 30
0.0
  9
$PUCSORGBACK
 10
0.0
 20
0.0
 30
0.0
  9
$USERI1
 70
     0
  9
$USERI2
 70
     0
  9
$USERI3
 70
     0
  9
$USERI4
 70
     0
  9
$USERI5
 70
     0
  9
$USERR1
 40
18.0
  9
$USERR2
 40
0.0
  9
$USERR3
 40
0.0
  9
$USERR4
 40
0.0
  9
$USERR5
 40
0.0
  9
$WORLDVIEW
 70
     1
  9
$SHADEDGE
 70
     3
  9
$SHADEDIF
 70
    70
  9
$TILEMODE
 70
     1
  9
$MAXACTVP
 70
    64
  9
$PINSBASE
 10
0.0
 20
0.0
 30
0.0
  9
$PLIMCHECK
 70
     0
  9
$PEXTMIN
 10
1.00000000000000E+20
 20
1.00000000000000E+20
 30
1.00000000000000E+20
  9
$PEXTMAX
 10
-1.00000000000000E+20
 20
-1.00000000000000E+20
 30
-1.00000000000000E+20
  9
$PLIMMIN
 10
0.0
 20
0.0
  9
$PLIMMAX
 10
12.0
 20
9.0
  9
$UNITMODE
 70
     0
  9
$VISRETAIN
 70
     1
  9
$PLINEGEN
 70
     0
  9
$PSLTSCALE
 70
     1
  9
$TREEDEPTH
 70
  3020
  9
$CMLSTYLE
  2
Standard
  9
$CMLJUST
 70
     0
  9
$CMLSCALE
 40
1.0
  9
$PROXYGRAPHICS
 70
     1
  9
$MEASUREMENT
 70
     1
  9
$CELWEIGHT
370
    -1
  9
$ENDCAPS
280
     0
  9
$JOINSTYLE
280
     0
  9
$LWDISPLAY
290
     0
  9
$INSUNITS
 70
     1
  9
$HYPERLINKBASE
  1

  9
$STYLESHEET
  1

  9
$XEDIT
290
     1
  9
$CEPSNTYPE
380
     0
  9
$PSTYLEMODE
290
     1
  9
$FINGERPRINTGUID
  2
{DE1D7406-5247-4C22-9FA1-7D92472C31F8}
  9
$VERSIONGUID
  2
{FAEB1C32-E019-11D5-929B-00C0DF256EC4}
  9
$EXTNAMES
290
     1
  9
$PSVPSCALE
 40
0.0
  9
$OLESTARTUP
290
     0
  0
ENDSEC
  0
SECTION
  2
CLASSES
  0
CLASS
  1
ACDBDICTIONARYWDFLT
  2
AcDbDictionaryWithDefault
  3
ObjectDBX Classes
 90
        0
280
     0
281
     0
  0
CLASS
  1
VISUALSTYLE
  2
AcDbVisualStyle
  3
ObjectDBX Classes
 90
     4095
280
     0
281
     0
  0
CLASS
  1
MATERIAL
  2
AcDbMaterial
  3
ObjectDBX Classes
 90
     1153
280
     0
281
     0
  0
CLASS
  1

  2
exOdDbCircle
  3

 90
        0
280
     0
281
     1
  0
CLASS
  1

  2
exOdDbPolyline
  3

 90
        0
280
     0
281
     1
  0
CLASS
  1
DICTIONARYVAR
  2
AcDbDictionaryVar
  3
ObjectDBX Classes
 90
        0
280
     0
281
     0
  0
CLASS
  1
ACDBPLACEHOLDER
  2
AcDbPlaceHolder
  3
ObjectDBX Classes
 90
        0
280
     0
281
     0
  0
CLASS
  1
LAYOUT
  2
AcDbLayout
  3
ObjectDBX Classes
 90
        0
280
     0
281
     0
  0
ENDSEC
  0
SECTION
  2
TABLES
  0
TABLE
  2
VPORT
  5
8
330
0
100
AcDbSymbolTable
 70
     1
  0
VPORT
  5
29
330
8
100
AcDbSymbolTableRecord
100
AcDbViewportTableRecord
  2
*Active
 70
     0
 10
0.0
 20
0.0
 11
1.0
 21
1.0
 12
51.840022658965
 22
123.0675837763233
 13
0.0
 23
0.0
 14
0.5
 24
0.5
 15
0.5
 25
0.5
 16
0.0
 26
0.0
 36
1.0
 17
0.0
 27
0.0
 37
0.0
 40
225.1973409693302
 41
1.60267857142857
 42
50.0
 43
0.0
 44
0.0
 50
0.0
 51
0.0
 71
     0
 72
   100
 73
     1
 74
     3
 75
     0
 76
     0
 77
     0
 78
     0
281
     0
 65
     1
110
0.0
120
0.0
130
0.0
111
1.0
121
0.0
131
0.0
112
0.0
122
1.0
132
0.0
 79
     0
146
0.0
  0
ENDTAB
  0
TABLE
  2
LTYPE
  5
5
330
0
100
AcDbSymbolTable
 70
     9
  0
LTYPE
  5
14
330
5
100
AcDbSymbolTableRecord
100
AcDbLinetypeTableRecord
  2
ByBlock
 70
     0
  3

 72
    65
 73
     0
 40
0.0
  0
LTYPE
  5
15
330
5
100
AcDbSymbolTableRecord
100
AcDbLinetypeTableRecord
  2
ByLayer
 70
     0
  3

 72
    65
 73
     0
 40
0.0
  0
LTYPE
  5
16
330
5
100
AcDbSymbolTableRecord
100
AcDbLinetypeTableRecord
  2
Continuous
 70
     0
  3
Solid line
 72
    65
 73
     0
 40
0.0
  0
LTYPE
  5
3F
330
5
100
AcDbSymbolTableRecord
100
AcDbLinetypeTableRecord
  2
DASHED
 70
     0
  3
Dashed
 72
    65
 73
     2
 40
15.0
 49
7.0
 74
     0
 49
-8.0
 74
     0
  0
LTYPE
  5
40
330
5
100
AcDbSymbolTableRecord
100
AcDbLinetypeTableRecord
  2
DOTTED
 70
     0
  3
Dotted
 72
    65
 73
     2
 40
1.0
 49
0.0
 74
     0
 49
-1.0
 74
     0
  0
LTYPE
  5
41
330
5
100
AcDbSymbolTableRecord
100
AcDbLinetypeTableRecord
  2
DOT_CENTER
 70
     0
  3
Dot_Center
 72
    65
 73
     4
 40
14.0
 49
12.0
 74
     0
 49
-1.0
 74
     0
 49
0.0
 74
     0
 49
-1.0
 74
     0
  0
LTYPE
  5
42
330
5
100
AcDbSymbolTableRecord
100
AcDbLinetypeTableRecord
  2
LONG_DASHED
 70
     0
  3
Long_Dashed
 72
    65
 73
     2
 40
15.0
 49
10.0
 74
     0
 49
-5.0
 74
     0
  0
LTYPE
  5
43
330
5
100
AcDbSymbolTableRecord
100
AcDbLinetypeTableRecord
  2
DASH_CENTER
 70
     0
  3
Dash_Center
 72
    65
 73
     4
 40
14.0
 49
11.0
 74
     0
 49
-1.0
 74
     0
 49
1.0
 74
     0
 49
-1.0
 74
     0
  0
LTYPE
  5
44
330
5
100
AcDbSymbolTableRecord
100
AcDbLinetypeTableRecord
  2
PHANTOM
 70
     0
  3
Phantom
 72
    65
 73
     6
 40
13.0
 49
10.0
 74
     0
 49
-1.0
 74
     0
 49
0.0
 74
     0
 49
-1.0
 74
     0
 49
0.0
 74
     0
 49
-1.0
 74
     0
  0
LTYPE
  5
45
330
5
100
AcDbSymbolTableRecord
100
AcDbLinetypeTableRecord
  2
CENTER_DASH_DASH
 70
     0
  3
Center_Dash_Dash
 72
    65
 73
     6
 40
14.0
 49
9.0
 74
     0
 49
-1.0
 74
     0
 49
1.0
 74
     0
 49
-1.0
 74
     0
 49
1.0
 74
     0
 49
-1.0
 74
     0
  0
LTYPE
  5
46
330
5
100
AcDbSymbolTableRecord
100
AcDbLinetypeTableRecord
  2
CENTER
 70
     0
  3
CENTER
 72
    65
 73
     4
 40
6.0
 49
3.0
 74
     0
 49
-1.0
 74
     0
 49
1.0
 74
     0
 49
-1.0
 74
     0
  0
ENDTAB
  0
TABLE
  2
LAYER
  5
2
330
0
100
AcDbSymbolTable
 70
     5
  0
LAYER
  5
10
330
2
100
AcDbSymbolTableRecord
100
AcDbLayerTableRecord
  2
0
 70
     0
 62
     7
  6
Continuous
370
    -3
390
F
  0
LAYER
  5
47
330
2
100
AcDbSymbolTableRecord
100
AcDbLayerTableRecord
  2
1
 70
     0
 62
     7
  6
Continuous
370
    -3
390
F
  0
LAYER
  5
48
330
2
100
AcDbSymbolTableRecord
100
AcDbLayerTableRecord
  2
100
 70
     0
 62
     7
  6
Continuous
370
    -3
390
F
  0
LAYER
  5
49
330
2
100
AcDbSymbolTableRecord
100
AcDbLayerTableRecord
  2
2
 70
     0
 62
     7
  6
Continuous
370
    -3
390
F
  0
LAYER
  5
4A
330
2
100
AcDbSymbolTableRecord
100
AcDbLayerTableRecord
  2
3
 70
     0
 62
     7
  6
Continuous
370
    -3
390
F
  0
ENDTAB
  0
TABLE
  2
STYLE
  5
3
330
0
100
AcDbSymbolTable
 70
     1
  0
STYLE
  5
11
330
3
100
AcDbSymbolTableRecord
100
AcDbTextStyleTableRecord
  2
Standard
 70
     0
 40
0.0
 41
1.0
 50
0.0
 71
     0
 42
0.2
  3
txt
  4

  0
ENDTAB
  0
TABLE
  2
VIEW
  5
6
330
0
100
AcDbSymbolTable
 70
     0
  0
ENDTAB
  0
TABLE
  2
UCS
  5
7
330
0
100
AcDbSymbolTable
 70
     0
  0
ENDTAB
  0
TABLE
  2
APPID
  5
9
330
0
100
AcDbSymbolTable
 70
     1
  0
APPID
  5
12
330
9
100
AcDbSymbolTableRecord
100
AcDbRegAppTableRecord
  2
ACAD
 70
     0
  0
ENDTAB
  0
TABLE
  2
DIMSTYLE
  5
A
330
0
100
AcDbSymbolTable
 70
     1
100
AcDbDimStyleTable
  0
DIMSTYLE
105
27
330
A
100
AcDbSymbolTableRecord
100
AcDbDimStyleTableRecord
  2
Standard
 70
     0
340
11
  0
ENDTAB
  0
TABLE
  2
BLOCK_RECORD
  5
1
330
0
100
AcDbSymbolTable
 70
     1
  0
BLOCK_RECORD
  5
1F
330
1
100
AcDbSymbolTableRecord
100
AcDbBlockTableRecord
  2
*Model_Space
340
22
  0
BLOCK_RECORD
  5
1B
330
1
100
AcDbSymbolTableRecord
100
AcDbBlockTableRecord
  2
*Paper_Space
340
1E
  0
BLOCK_RECORD
  5
23
330
1
100
AcDbSymbolTableRecord
100
AcDbBlockTableRecord
  2
*Paper_Space0
340
26
  0
ENDTAB
  0
ENDSEC
  0
SECTION
  2
BLOCKS
  0
BLOCK
  5
20
330
1F
100
AcDbEntity
  8
0
100
AcDbBlockBegin
  2
*Model_Space
 70
     0
 10
0.0
 20
0.0
 30
0.0
  3
*Model_Space
  1

  0
ENDBLK
  5
21
330
1F
100
AcDbEntity
  8
0
100
AcDbBlockEnd
  0
BLOCK
  5
1C
330
1B
100
AcDbEntity
 67
     1
  8
0
100
AcDbBlockBegin
  2
*Paper_Space
 70
     0
 10
0.0
 20
0.0
 30
0.0
  3
*Paper_Space
  1

  0
ENDBLK
  5
1D
330
1B
100
AcDbEntity
 67
     1
  8
0
100
AcDbBlockEnd
  0
BLOCK
  5
24
330
23
100
AcDbEntity
  8
0
100
AcDbBlockBegin
  2
*Paper_Space0
 70
     0
 10
0.0
 20
0.0
 30
0.0
  3
*Paper_Space0
  1

  0
ENDBLK
  5
25
330
23
100
AcDbEntity
  8
0
100
AcDbBlockEnd
  0
ENDSEC
  0
SECTION
  2
ENTITIES
  0
LINE
  5
4B
330
1F
100
AcDbEntity
  8
1
  6
Continuous
 62
     4
100
AcDbLine
 10
74.5329954271023
 20
52.97073722217727
 30
0.0
 11
75.856524838867
 21
52.97073722217727
 31
0.0
  0
LINE
  5
4C
330
1F
100
AcDbEntity
  8
1
  6
Continuous
 62
     4
100
AcDbLine
 10
73.91534836827877
 20
51.07073722217727
 30
0.0
 11
73.91534836827877
 21
52.47073722217727
 31
0.0
  0
LINE
  5
4D
330
1F
100
AcDbEntity
  8
1
  6
Continuous
 62
     4
100
AcDbLine
 10
75.41534836827877
 20
51.07073722217727
 30
0.0
 11
73.91534836827877
 21
51.07073722217727
 31
0.0
  0
LINE
  5
4E
330
1F
100
AcDbEntity
  8
1
  6
Continuous
 62
     4
100
AcDbLine
 10
75.41534836827877
 20
52.47073722217727
 30
0.0
 11
75.41534836827877
 21
51.07073722217727
 31
0.0
  0
LINE
  5
4F
330
1F
100
AcDbEntity
  8
1
  6
Continuous
 62
     4
100
AcDbLine
 10
73.91534836827877
 20
52.47073722217727
 30
0.0
 11
75.41534836827877
 21
52.47073722217727
 31
0.0
  0
LINE
  5
50
330
1F
100
AcDbEntity
  8
1
  6
Continuous
 62
     4
100
AcDbLine
 10
75.59181895651406
 20
50.37073722217727
 30
0.0
 11
75.15064248592583
 21
50.47073722217727
 31
0.0
  0
LINE
  5
51
330
1F
100
AcDbEntity
  8
1
  6
Continuous
 62
     4
100
AcDbLine
 10
75.856524838867
 20
50.67073722217727
 30
0.0
 11
75.59181895651406
 21
50.37073722217727
 31
0.0
  0
LINE
  5
52
330
1F
100
AcDbEntity
  8
1
  6
Continuous
 62
     4
100
AcDbLine
 10
75.856524838867
 20
52.97073722217727
 30
0.0
 11
75.856524838867
 21
50.67073722217727
 31
0.0
  0
LINE
  5
53
330
1F
100
AcDbEntity
  8
1
  6
Continuous
 62
     4
100
AcDbLine
 10
73.47417189769054
 20
52.97073722217727
 30
0.0
 11
74.5329954271023
 21
52.97073722217727
 31
0.0
  0
LINE
  5
54
330
1F
100
AcDbEntity
  8
1
  6
Continuous
 62
     4
100
AcDbLine
 10
73.47417189769054
 20
50.37073722217727
 30
0.0
 11
73.47417189769054
 21
52.97073722217727
 31
0.0
  0
LINE
  5
55
330
1F
100
AcDbEntity
  8
1
  6
Continuous
 62
     4
100
AcDbLine
 10
74.7094660153376
 20
53.37073722217727
 30
0.0
 11
74.5329954271023
 21
52.97073722217727
 31
0.0
  0
LINE
  5
56
330
1F
100
AcDbEntity
  8
1
  6
Continuous
 62
     4
100
AcDbLine
 10
70.56240719180818
 20
52.97073722217727
 30
0.0
 11
72.41534836827877
 21
52.97073722217727
 31
0.0
  0
LINE
  5
57
330
1F
100
AcDbEntity
  8
1
  6
Continuous
 62
     4
100
AcDbLine
 10
70.56240719180818
 20
52.27073722217727
 30
0.0
 11
70.56240719180818
 21
51.97073722217727
 31
0.0
  0
LINE
  5
58
330
1F
100
AcDbEntity
  8
1
  6
Continuous
 62
     4
100
AcDbLine
 10
71.7094660153376
 20
50.37073722217727
 30
0.0
 11
70.91534836827877
 21
50.47073722217727
 31
0.0
  0
LINE
  5
59
330
1F
100
AcDbEntity
  8
1
  6
Continuous
 62
     4
100
AcDbLine
 10
72.23887778004348
 20
51.07073722217727
 30
0.0
 11
71.7094660153376
 21
50.37073722217727
 31
0.0
  0
LINE
  5
5A
330
1F
100
AcDbEntity
  8
1
  6
Continuous
 62
     4
100
AcDbLine
 10
72.23887778004348
 20
52.27073722217727
 30
0.0
 11
72.23887778004348
 21
51.07073722217727
 31
0.0
  0
LINE
  5
5B
330
1F
100
AcDbEntity
  8
1
  6
Continuous
 62
     4
100
AcDbLine
 10
70.56240719180818
 20
52.27073722217727
 30
0.0
 11
72.23887778004348
 21
52.27073722217727
 31
0.0
  0
LINE
  5
5C
330
1F
100
AcDbEntity
  8
1
  6
Continuous
 62
     4
100
AcDbLine
 10
70.29770130945525
 20
51.07073722217727
 30
0.0
 11
69.76828954474936
 21
50.37073722217727
 31
0.0
  0
LINE
  5
5D
330
1F
100
AcDbEntity
  8
1
  6
Continuous
 62
     4
100
AcDbLine
 10
70.56240719180818
 20
51.97073722217727
 30
0.0
 11
70.29770130945525
 21
51.07073722217727
 31
0.0
  0
LINE
  5
5E
330
1F
100
AcDbEntity
  8
1
  6
Continuous
 62
     4
100
AcDbLine
 10
70.56240719180818
 20
52.97073722217727
 30
0.0
 11
70.56240719180818
 21
52.27073722217727
 31
0.0
  0
LINE
  5
5F
330
1F
100
AcDbEntity
  8
1
  6
Continuous
 62
     4
100
AcDbLine
 10
69.76828954474936
 20
52.97073722217727
 30
0.0
 11
70.56240719180818
 21
52.97073722217727
 31
0.0
  0
LINE
  5
60
330
1F
100
AcDbEntity
  8
1
  6
Continuous
 62
     4
100
AcDbLine
 10
71.18005425063171
 20
53.37073722217727
 30
0.0
 11
71.18005425063171
 21
52.97073722217727
 31
0.0
  0
LINE
  5
61
330
1F
100
AcDbEntity
  8
1
  6
Continuous
 62
     4
100
AcDbLine
 10
67.56240719180818
 20
53.07073722217727
 30
0.0
 11
67.56240719180818
 21
50.27073722217727
 31
0.0
  0
LINE
  5
62
330
1F
100
AcDbEntity
  8
1
  6
Continuous
 62
     4
100
AcDbLine
 10
68.356524838867
 20
51.17073722217727
 30
0.0
 11
68.97417189769054
 21
50.47073722217727
 31
0.0
  0
LINE
  5
63
330
1F
100
AcDbEntity
  8
1
  6
Continuous
 62
     4
100
AcDbLine
 10
67.91534836827877
 20
51.97073722217727
 30
0.0
 11
68.356524838867
 21
51.17073722217727
 31
0.0
  0
LINE
  5
64
330
1F
100
AcDbEntity
  8
1
  6
Continuous
 62
     4
100
AcDbLine
 10
67.56240719180818
 20
53.07073722217727
 30
0.0
 11
67.91534836827877
 21
51.97073722217727
 31
0.0
  0
LINE
  5
65
330
1F
100
AcDbEntity
  8
1
  6
Continuous
 62
     4
100
AcDbLine
 10
68.79770130945523
 20
53.07073722217727
 30
0.0
 11
68.09181895651406
 21
52.07073722217727
 31
0.0
  0
LINE
  5
66
330
1F
100
AcDbEntity
  8
1
  6
Continuous
 62
     4
100
AcDbLine
 10
66.76828954474936
 20
51.27073722217727
 30
0.0
 11
66.23887778004348
 21
50.57073722217727
 31
0.0
  0
LINE
  5
67
330
1F
100
AcDbEntity
  8
1
  6
Continuous
 62
     4
100
AcDbLine
 10
67.03299542710229
 20
51.97073722217727
 30
0.0
 11
66.76828954474936
 21
51.27073722217727
 31
0.0
  0
LINE
  5
68
330
1F
100
AcDbEntity
  8
1
  6
Continuous
 62
     4
100
AcDbLine
 10
67.12123072121994
 20
52.77073722217727
 30
0.0
 11
67.03299542710229
 21
51.97073722217727
 31
0.0
  0
LINE
  5
69
330
1F
100
AcDbEntity
  8
1
  6
Continuous
 62
     4
100
AcDbLine
 10
66.23887778004348
 20
52.77073722217727
 30
0.0
 11
67.12123072121994
 21
52.77073722217727
 31
0.0
  0
LINE
  5
6A
330
1F
100
AcDbEntity
  8
1
  6
Continuous
 62
     4
100
AcDbLine
 10
67.56240719180818
 20
50.27073722217727
 30
0.0
 11
66.94476013298465
 21
50.67073722217727
 31
0.0
  0
LINE
  5
6B
330
1F
100
AcDbEntity
  8
1
  6
Continuous
 62
     4
100
AcDbLine
 10
67.56240719180818
 20
53.37073722217727
 30
0.0
 11
67.56240719180818
 21
53.07073722217727
 31
0.0
  0
LINE
  5
6C
330
1F
100
AcDbEntity
  8
1
  6
Continuous
 62
     4
100
AcDbLine
 10
64.29770130945525
 20
53.07073722217727
 30
0.0
 11
65.26828954474936
 21
53.07073722217727
 31
0.0
  0
LINE
  5
6D
330
1F
100
AcDbEntity
  8
1
  6
Continuous
 62
     4
100
AcDbLine
 10
65.35652483886702
 20
50.37073722217727
 30
0.0
 11
65.35652483886702
 21
51.07073722217727
 31
0.0
  0
LINE
  5
6E
330
1F
100
AcDbEntity
  8
1
  6
Continuous
 62
     4
100
AcDbLine
 10
64.91534836827877
 20
50.37073722217727
 30
0.0
 11
65.35652483886702
 21
50.37073722217727
 31
0.0
  0
LINE
  5
6F
330
1F
100
AcDbEntity
  8
1
  6
Continuous
 62
     4
100
AcDbLine
 10
64.91534836827877
 20
51.97073722217727
 30
0.0
 11
64.91534836827877
 21
50.37073722217727
 31
0.0
  0
LINE
  5
70
330
1F
100
AcDbEntity
  8
1
  6
Continuous
 62
     4
100
AcDbLine
 10
64.29770130945525
 20
51.97073722217727
 30
0.0
 11
64.29770130945525
 21
50.37073722217727
 31
0.0
  0
LINE
  5
71
330
1F
100
AcDbEntity
  8
1
  6
Continuous
 62
     4
100
AcDbLine
 10
63.50358366239642
 20
50.87073722217727
 30
0.0
 11
63.15064248592584
 21
50.37073722217727
 31
0.0
  0
LINE
  5
72
330
1F
100
AcDbEntity
  8
1
  6
Continuous
 62
     4
100
AcDbLine
 10
63.68005425063172
 20
51.37073722217727
 30
0.0
 11
63.50358366239642
 21
50.87073722217727
 31
0.0
  0
LINE
  5
73
330
1F
100
AcDbEntity
  8
1
  6
Continuous
 62
     4
100
AcDbLine
 10
63.76828954474937
 20
51.97073722217727
 30
0.0
 11
63.68005425063172
 21
51.37073722217727
 31
0.0
  0
LINE
  5
74
330
1F
100
AcDbEntity
  8
1
  6
Continuous
 62
     4
100
AcDbLine
 10
65.18005425063171
 20
52.07073722217727
 30
0.0
 11
65.35652483886702
 21
51.67073722217727
 31
0.0
  0
LINE
  5
75
330
1F
100
AcDbEntity
  8
1
  6
Continuous
 62
     4
100
AcDbLine
 10
64.82711307416113
 20
52.67073722217727
 30
0.0
 11
65.18005425063171
 21
52.07073722217727
 31
0.0
  0
LINE
  5
76
330
1F
100
AcDbEntity
  8
1
  6
Continuous
 62
     4
100
AcDbLine
 10
63.59181895651407
 20
51.97073722217727
 30
0.0
 11
65.18005425063171
 21
52.07073722217727
 31
0.0
  0
LINE
  5
77
330
1F
100
AcDbEntity
  8
1
  6
Continuous
 62
     4
100
AcDbLine
 10
63.32711307416113
 20
51.97073722217727
 30
0.0
 11
63.59181895651407
 21
51.97073722217727
 31
0.0
  0
LINE
  5
78
330
1F
100
AcDbEntity
  8
1
  6
Continuous
 62
     4
100
AcDbLine
 10
64.29770130945525
 20
53.07073722217727
 30
0.0
 11
63.59181895651407
 21
51.97073722217727
 31
0.0
  0
LINE
  5
79
330
1F
100
AcDbEntity
  8
1
  6
Continuous
 62
     4
100
AcDbLine
 10
64.29770130945525
 20
53.47073722217727
 30
0.0
 11
64.29770130945525
 21
53.07073722217727
 31
0.0
  0
LINE
  5
7A
330
1F
100
AcDbEntity
  8
1
  6
Continuous
 62
     4
100
AcDbLine
 10
63.32711307416113
 20
53.07073722217727
 30
0.0
 11
64.29770130945525
 21
53.07073722217727
 31
0.0
  0
LINE
  5
7B
330
1F
100
AcDbEntity
  8
1
  6
Continuous
 62
     4
100
AcDbLine
 10
62.79770130945525
 20
50.37073722217727
 30
0.0
 11
63.23887778004348
 21
51.57073722217727
 31
0.0
  0
LINE
  5
7C
330
1F
100
AcDbEntity
  8
1
  6
Continuous
 62
     4
100
AcDbLine
 10
62.79770130945525
 20
52.27073722217727
 30
0.0
 11
63.23887778004348
 21
51.87073722217727
 31
0.0
  0
LINE
  5
7D
330
1F
100
AcDbEntity
  8
1
  6
Continuous
 62
     4
100
AcDbLine
 10
62.88593660357289
 20
53.17073722217727
 30
0.0
 11
63.32711307416113
 21
52.77073722217727
 31
0.0
  0
LINE
  5
7E
330
1F
100
AcDbEntity
  8
1
  6
Continuous
 62
     4
100
AcDbLine
 10
66.26445710111072
 20
23.50515606299139
 30
0.0
 11
65.73504533640484
 21
23.70515606299139
 31
0.0
  0
LINE
  5
7F
330
1F
100
AcDbEntity
  8
1
  6
Continuous
 62
     4
100
AcDbLine
 10
66.61739827758132
 20
23.00515606299139
 30
0.0
 11
66.26445710111072
 21
23.50515606299139
 31
0.0
  0
LINE
  5
80
330
1F
100
AcDbEntity
  8
1
  6
Continuous
 62
     4
100
AcDbLine
 10
66.70563357169895
 20
22.20515606299139
 30
0.0
 11
66.61739827758132
 21
23.00515606299139
 31
0.0
  0
LINE
  5
81
330
1F
100
AcDbEntity
  8
1
  6
Continuous
 62
     4
100
AcDbLine
 10
66.61739827758132
 20
21.40515606299139
 30
0.0
 11
66.70563357169895
 21
22.20515606299139
 31
0.0
  0
LINE
  5
82
330
1F
100
AcDbEntity
  8
1
  6
Continuous
 62
     4
100
AcDbLine
 10
66.26445710111072
 20
20.90515606299139
 30
0.0
 11
66.61739827758132
 21
21.40515606299139
 31
0.0
  0
LINE
  5
83
330
1F
100
AcDbEntity
  8
1
  6
Continuous
 62
     4
100
AcDbLine
 10
65.73504533640484
 20
20.70515606299139
 30
0.0
 11
66.26445710111072
 21
20.90515606299139
 31
0.0
  0
LINE
  5
84
330
1F
100
AcDbEntity
  8
1
  6
Continuous
 62
     4
100
AcDbLine
 10
65.20563357169895
 20
20.90515606299139
 30
0.0
 11
65.73504533640484
 21
20.70515606299139
 31
0.0
  0
LINE
  5
85
330
1F
100
AcDbEntity
  8
1
  6
Continuous
 62
     4
100
AcDbLine
 10
64.94092768934601
 20
21.40515606299139
 30
0.0
 11
65.20563357169895
 21
20.90515606299139
 31
0.0
  0
LINE
  5
86
330
1F
100
AcDbEntity
  8
1
  6
Continuous
 62
     4
100
AcDbLine
 10
64.76445710111072
 20
22.20515606299139
 30
0.0
 11
64.94092768934601
 21
21.40515606299139
 31
0.0
  0
LINE
  5
87
330
1F
100
AcDbEntity
  8
1
  6
Continuous
 62
     4
100
AcDbLine
 10
64.94092768934601
 20
23.00515606299139
 30
0.0
 11
64.76445710111072
 21
22.20515606299139
 31
0.0
  0
LINE
  5
88
330
1F
100
AcDbEntity
  8
1
  6
Continuous
 62
     4
100
AcDbLine
 10
65.20563357169895
 20
23.50515606299139
 30
0.0
 11
64.94092768934601
 21
23.00515606299139
 31
0.0
  0
LINE
  5
89
330
1F
100
AcDbEntity
  8
1
  6
Continuous
 62
     4
100
AcDbLine
 10
65.73504533640484
 20
23.70515606299139
 30
0.0
 11
65.20563357169895
 21
23.50515606299139
 31
0.0
  0
LINE
  5
8A
330
1F
100
AcDbEntity
  8
1
  6
Continuous
 62
     4
100
AcDbLine
 10
62.29386886581661
 20
22.20515606299139
 30
0.0
 11
63.88210415993425
 21
22.20515606299139
 31
0.0
  0
LINE
  5
8B
330
1F
100
AcDbEntity
  8
1
  6
Continuous
 62
     4
100
AcDbLine
 10
61.41151592464014
 20
23.70515606299139
 30
0.0
 11
61.41151592464014
 21
20.70515606299139
 31
0.0
  0
LINE
  5
8C
330
1F
100
AcDbEntity
  8
1
  6
Continuous
 62
     4
100
AcDbLine
 10
60.9703394540519
 20
23.40515606299139
 30
0.0
 11
61.41151592464014
 21
23.70515606299139
 31
0.0
  0
LINE
  5
8D
330
1F
100
AcDbEntity
  8
1
  6
Continuous
 62
     4
100
AcDbLine
 10
59.6468100422872
 20
23.50515606299139
 30
0.0
 11
59.11739827758132
 21
23.70515606299139
 31
0.0
  0
LINE
  5
8E
330
1F
100
AcDbEntity
  8
1
  6
Continuous
 62
     4
100
AcDbLine
 10
59.99975121875779
 20
23.00515606299139
 30
0.0
 11
59.6468100422872
 21
23.50515606299139
 31
0.0
  0
LINE
  5
8F
330
1F
100
AcDbEntity
  8
1
  6
Continuous
 62
     4
100
AcDbLine
 10
60.08798651287543
 20
22.20515606299139
 30
0.0
 11
59.99975121875779
 21
23.00515606299139
 31
0.0
  0
LINE
  5
90
330
1F
100
AcDbEntity
  8
1
  6
Continuous
 62
     4
100
AcDbLine
 10
59.99975121875779
 20
21.40515606299139
 30
0.0
 11
60.08798651287543
 21
22.20515606299139
 31
0.0
  0
LINE
  5
91
330
1F
100
AcDbEntity
  8
1
  6
Continuous
 62
     4
100
AcDbLine
 10
59.6468100422872
 20
20.90515606299139
 30
0.0
 11
59.99975121875779
 21
21.40515606299139
 31
0.0
  0
LINE
  5
92
330
1F
100
AcDbEntity
  8
1
  6
Continuous
 62
     4
100
AcDbLine
 10
59.11739827758132
 20
20.70515606299139
 30
0.0
 11
59.6468100422872
 21
20.90515606299139
 31
0.0
  0
LINE
  5
93
330
1F
100
AcDbEntity
  8
1
  6
Continuous
 62
     4
100
AcDbLine
 10
58.58798651287543
 20
20.90515606299139
 30
0.0
 11
59.11739827758132
 21
20.70515606299139
 31
0.0
  0
LINE
  5
94
330
1F
100
AcDbEntity
  8
1
  6
Continuous
 62
     4
100
AcDbLine
 10
58.3232806305225
 20
21.40515606299139
 30
0.0
 11
58.58798651287543
 21
20.90515606299139
 31
0.0
  0
LINE
  5
95
330
1F
100
AcDbEntity
  8
1
  6
Continuous
 62
     4
100
AcDbLine
 10
58.1468100422872
 20
22.20515606299139
 30
0.0
 11
58.3232806305225
 21
21.40515606299139
 31
0.0
  0
LINE
  5
96
330
1F
100
AcDbEntity
  8
1
  6
Continuous
 62
     4
100
AcDbLine
 10
58.3232806305225
 20
23.00515606299139
 30
0.0
 11
58.1468100422872
 21
22.20515606299139
 31
0.0
  0
LINE
  5
97
330
1F
100
AcDbEntity
  8
1
  6
Continuous
 62
     4
100
AcDbLine
 10
58.58798651287543
 20
23.50515606299139
 30
0.0
 11
58.3232806305225
 21
23.00515606299139
 31
0.0
  0
LINE
  5
98
330
1F
100
AcDbEntity
  8
1
  6
Continuous
 62
     4
100
AcDbLine
 10
59.11739827758132
 20
23.70515606299139
 30
0.0
 11
58.58798651287543
 21
23.50515606299139
 31
0.0
  0
LINE
  5
99
330
1F
100
AcDbEntity
  8
1
  6
Continuous
 62
     4
100
AcDbLine
 10
55.58798651287544
 20
22.20515606299139
 30
0.0
 11
55.58798651287544
 21
20.70515606299139
 31
0.0
  0
LINE
  5
9A
330
1F
100
AcDbEntity
  8
1
  6
Continuous
 62
     4
100
AcDbLine
 10
55.58798651287544
 20
22.20515606299139
 30
0.0
 11
57.08798651287544
 21
22.20515606299139
 31
0.0
  0
LINE
  5
9B
330
1F
100
AcDbEntity
  8
1
  6
Continuous
 62
     4
100
AcDbLine
 10
55.58798651287544
 20
23.70515606299139
 30
0.0
 11
55.58798651287544
 21
22.20515606299139
 31
0.0
  0
LINE
  5
9C
330
1F
100
AcDbEntity
  8
1
  6
Continuous
 62
     4
100
AcDbLine
 10
57.26445710111074
 20
23.70515606299139
 30
0.0
 11
55.58798651287544
 21
23.70515606299139
 31
0.0
  0
LINE
  5
9D
330
1F
100
AcDbEntity
  8
1
  6
Continuous
 62
     4
100
AcDbLine
 10
53.02916298346368
 20
21.50515606299139
 30
0.0
 11
54.44092768934603
 21
21.50515606299139
 31
0.0
  0
LINE
  5
9E
330
1F
100
AcDbEntity
  8
1
  6
Continuous
 62
     4
100
AcDbLine
 10
53.73504533640485
 20
23.70515606299139
 30
0.0
 11
54.70563357169897
 21
20.70515606299139
 31
0.0
  0
LINE
  5
9F
330
1F
100
AcDbEntity
  8
1
  6
Continuous
 62
     4
100
AcDbLine
 10
52.76445710111074
 20
20.70515606299139
 30
0.0
 11
53.73504533640485
 21
23.70515606299139
 31
0.0
  0
LINE
  5
A0
330
1F
100
AcDbEntity
  8
1
  6
Continuous
 62
     4
100
AcDbLine
 10
49.76445710111074
 20
21.40515606299139
 30
0.0
 11
51.88210415993427
 21
21.40515606299139
 31
0.0
  0
LINE
  5
A1
330
1F
100
AcDbEntity
  8
1
  6
Continuous
 62
     4
100
AcDbLine
 10
51.35269239522838
 20
23.70515606299139
 30
0.0
 11
49.76445710111074
 21
21.40515606299139
 31
0.0
  0
LINE
  5
A2
330
1F
100
AcDbEntity
  8
1
  6
Continuous
 62
     4
100
AcDbLine
 10
51.35269239522838
 20
20.70515606299139
 30
0.0
 11
51.35269239522838
 21
23.70515606299139
 31
0.0
  0
LINE
  5
A3
330
1F
100
AcDbEntity
  8
1
  6
Continuous
 62
     4
100
AcDbLine
 10
47.38210415993427
 20
20.90515606299139
 30
0.0
 11
47.11739827758132
 21
21.10515606299139
 31
0.0
  0
LINE
  5
A4
330
1F
100
AcDbEntity
  8
1
  6
Continuous
 62
     4
100
AcDbLine
 10
47.73504533640485
 20
20.70515606299139
 30
0.0
 11
47.38210415993427
 21
20.90515606299139
 31
0.0
  0
LINE
  5
A5
330
1F
100
AcDbEntity
  8
1
  6
Continuous
 62
     4
100
AcDbLine
 10
48.08798651287544
 20
20.70515606299139
 30
0.0
 11
47.73504533640485
 21
20.70515606299139
 31
0.0
  0
LINE
  5
A6
330
1F
100
AcDbEntity
  8
1
  6
Continuous
 62
     4
100
AcDbLine
 10
48.35269239522838
 20
20.70515606299139
 30
0.0
 11
48.08798651287544
 21
20.70515606299139
 31
0.0
  0
LINE
  5
A7
330
1F
100
AcDbEntity
  8
1
  6
Continuous
 62
     4
100
AcDbLine
 10
48.61739827758132
 20
20.90515606299139
 30
0.0
 11
48.35269239522838
 21
20.70515606299139
 31
0.0
  0
LINE
  5
A8
330
1F
100
AcDbEntity
  8
1
  6
Continuous
 62
     4
100
AcDbLine
 10
48.79386886581662
 20
21.10515606299139
 30
0.0
 11
48.61739827758132
 21
20.90515606299139
 31
0.0
  0
LINE
  5
A9
330
1F
100
AcDbEntity
  8
1
  6
Continuous
 62
     4
100
AcDbLine
 10
48.88210415993427
 20
21.60515606299139
 30
0.0
 11
48.79386886581662
 21
21.10515606299139
 31
0.0
  0
LINE
  5
AA
330
1F
100
AcDbEntity
  8
1
  6
Continuous
 62
     4
100
AcDbLine
 10
48.79386886581662
 20
22.10515606299139
 30
0.0
 11
48.88210415993427
 21
21.60515606299139
 31
0.0
  0
LINE
  5
AB
330
1F
100
AcDbEntity
  8
1
  6
Continuous
 62
     4
100
AcDbLine
 10
48.61739827758132
 20
22.30515606299139
 30
0.0
 11
48.79386886581662
 21
22.10515606299139
 31
0.0
  0
LINE
  5
AC
330
1F
100
AcDbEntity
  8
1
  6
Continuous
 62
     4
100
AcDbLine
 10
48.35269239522838
 20
22.50515606299139
 30
0.0
 11
48.61739827758132
 21
22.30515606299139
 31
0.0
  0
LINE
  5
AD
330
1F
100
AcDbEntity
  8
1
  6
Continuous
 62
     4
100
AcDbLine
 10
47.99975121875779
 20
22.60515606299139
 30
0.0
 11
48.35269239522838
 21
22.50515606299139
 31
0.0
  0
LINE
  5
AE
330
1F
100
AcDbEntity
  8
1
  6
Continuous
 62
     4
100
AcDbLine
 10
47.64681004228721
 20
22.50515606299139
 30
0.0
 11
47.99975121875779
 21
22.60515606299139
 31
0.0
  0
LINE
  5
AF
330
1F
100
AcDbEntity
  8
1
  6
Continuous
 62
     4
100
AcDbLine
 10
47.20563357169897
 20
22.20515606299139
 30
0.0
 11
47.64681004228721
 21
22.50515606299139
 31
0.0
  0
LINE
  5
B0
330
1F
100
AcDbEntity
  8
1
  6
Continuous
 62
     4
100
AcDbLine
 10
47.29386886581662
 20
23.70515606299139
 30
0.0
 11
47.20563357169897
 21
22.20515606299139
 31
0.0
  0
LINE
  5
B1
330
1F
100
AcDbEntity
  8
1
  6
Continuous
 62
     4
100
AcDbLine
 10
48.79386886581662
 20
23.70515606299139
 30
0.0
 11
47.29386886581662
 21
23.70515606299139
 31
0.0
  0
LINE
  5
B2
330
1F
100
AcDbEntity
  8
1
  6
Continuous
 62
     4
100
AcDbLine
 10
44.8232806305225
 20
20.90515606299139
 30
0.0
 11
44.55857474816956
 21
21.20515606299139
 31
0.0
  0
LINE
  5
B3
330
1F
100
AcDbEntity
  8
1
  6
Continuous
 62
     4
100
AcDbLine
 10
45.44092768934603
 20
20.70515606299139
 30
0.0
 11
44.8232806305225
 21
20.90515606299139
 31
0.0
  0
LINE
  5
B4
330
1F
100
AcDbEntity
  8
1
  6
Continuous
 62
     4
100
AcDbLine
 10
45.88210415993427
 20
20.90515606299139
 30
0.0
 11
45.44092768934603
 21
20.70515606299139
 31
0.0
  0
LINE
  5
B5
330
1F
100
AcDbEntity
  8
1
  6
Continuous
 62
     4
100
AcDbLine
 10
46.14681004228721
 20
21.20515606299139
 30
0.0
 11
45.88210415993427
 21
20.90515606299139
 31
0.0
  0
LINE
  5
B6
330
1F
100
AcDbEntity
  8
1
  6
Continuous
 62
     4
100
AcDbLine
 10
46.23504533640486
 20
21.60515606299139
 30
0.0
 11
46.14681004228721
 21
21.20515606299139
 31
0.0
  0
LINE
  5
B7
330
1F
100
AcDbEntity
  8
1
  6
Continuous
 62
     4
100
AcDbLine
 10
46.23504533640486
 20
22.80515606299139
 30
0.0
 11
46.23504533640486
 21
21.60515606299139
 31
0.0
  0
LINE
  5
B8
330
1F
100
AcDbEntity
  8
1
  6
Continuous
 62
     4
100
AcDbLine
 10
46.05857474816956
 20
22.20515606299139
 30
0.0
 11
46.23504533640486
 21
22.80515606299139
 31
0.0
  0
LINE
  5
B9
330
1F
100
AcDbEntity
  8
1
  6
Continuous
 62
     4
100
AcDbLine
 10
45.79386886581662
 20
21.90515606299139
 30
0.0
 11
46.05857474816956
 21
22.20515606299139
 31
0.0
  0
LINE
  5
BA
330
1F
100
AcDbEntity
  8
1
  6
Continuous
 62
     4
100
AcDbLine
 10
45.44092768934603
 20
21.80515606299139
 30
0.0
 11
45.79386886581662
 21
21.90515606299139
 31
0.0
  0
LINE
  5
BB
330
1F
100
AcDbEntity
  8
1
  6
Continuous
 62
     4
100
AcDbLine
 10
45.08798651287545
 20
21.90515606299139
 30
0.0
 11
45.44092768934603
 21
21.80515606299139
 31
0.0
  0
LINE
  5
BC
330
1F
100
AcDbEntity
  8
1
  6
Continuous
 62
     4
100
AcDbLine
 10
44.73504533640486
 20
22.20515606299139
 30
0.0
 11
45.08798651287545
 21
21.90515606299139
 31
0.0
  0
LINE
  5
BD
330
1F
100
AcDbEntity
  8
1
  6
Continuous
 62
     4
100
AcDbLine
 10
44.64681004228721
 20
22.40515606299139
 30
0.0
 11
44.73504533640486
 21
22.20515606299139
 31
0.0
  0
LINE
  5
BE
330
1F
100
AcDbEntity
  8
1
  6
Continuous
 62
     4
100
AcDbLine
 10
44.55857474816956
 20
22.80515606299139
 30
0.0
 11
44.64681004228721
 21
22.40515606299139
 31
0.0
  0
LINE
  5
BF
330
1F
100
AcDbEntity
  8
1
  6
Continuous
 62
     4
100
AcDbLine
 10
44.73504533640486
 20
23.30515606299139
 30
0.0
 11
44.55857474816956
 21
22.80515606299139
 31
0.0
  0
LINE
  5
C0
330
1F
100
AcDbEntity
  8
1
  6
Continuous
 62
     4
100
AcDbLine
 10
44.99975121875779
 20
23.60515606299139
 30
0.0
 11
44.73504533640486
 21
23.30515606299139
 31
0.0
  0
LINE
  5
C1
330
1F
100
AcDbEntity
  8
1
  6
Continuous
 62
     4
100
AcDbLine
 10
45.44092768934603
 20
23.70515606299139
 30
0.0
 11
44.99975121875779
 21
23.60515606299139
 31
0.0
  0
LINE
  5
C2
330
1F
100
AcDbEntity
  8
1
  6
Continuous
 62
     4
100
AcDbLine
 10
45.88210415993427
 20
23.60515606299139
 30
0.0
 11
45.44092768934603
 21
23.70515606299139
 31
0.0
  0
LINE
  5
C3
330
1F
100
AcDbEntity
  8
1
  6
Continuous
 62
     4
100
AcDbLine
 10
46.14681004228721
 20
23.30515606299139
 30
0.0
 11
45.88210415993427
 21
23.60515606299139
 31
0.0
  0
LINE
  5
C4
330
1F
100
AcDbEntity
  8
1
  6
Continuous
 62
     4
100
AcDbLine
 10
46.23504533640486
 20
22.80515606299139
 30
0.0
 11
46.14681004228721
 21
23.30515606299139
 31
0.0
  0
LINE
  5
C5
330
1F
100
AcDbEntity
  8
1
  6
Continuous
 62
     4
100
AcDbLine
 10
43.23504533640485
 20
23.50515606299139
 30
0.0
 11
42.70563357169897
 21
23.70515606299139
 31
0.0
  0
LINE
  5
C6
330
1F
100
AcDbEntity
  8
1
  6
Continuous
 62
     4
100
AcDbLine
 10
43.58798651287544
 20
23.00515606299139
 30
0.0
 11
43.23504533640485
 21
23.50515606299139
 31
0.0
  0
LINE
  5
C7
330
1F
100
AcDbEntity
  8
1
  6
Continuous
 62
     4
100
AcDbLine
 10
43.67622180699308
 20
22.20515606299139
 30
0.0
 11
43.58798651287544
 21
23.00515606299139
 31
0.0
  0
LINE
  5
C8
330
1F
100
AcDbEntity
  8
1
  6
Continuous
 62
     4
100
AcDbLine
 10
43.58798651287544
 20
21.40515606299139
 30
0.0
 11
43.67622180699308
 21
22.20515606299139
 31
0.0
  0
LINE
  5
C9
330
1F
100
AcDbEntity
  8
1
  6
Continuous
 62
     4
100
AcDbLine
 10
43.23504533640485
 20
20.90515606299139
 30
0.0
 11
43.58798651287544
 21
21.40515606299139
 31
0.0
  0
LINE
  5
CA
330
1F
100
AcDbEntity
  8
1
  6
Continuous
 62
     4
100
AcDbLine
 10
42.70563357169897
 20
20.70515606299139
 30
0.0
 11
43.23504533640485
 21
20.90515606299139
 31
0.0
  0
LINE
  5
CB
330
1F
100
AcDbEntity
  8
1
  6
Continuous
 62
     4
100
AcDbLine
 10
42.17622180699308
 20
20.90515606299139
 30
0.0
 11
42.70563357169897
 21
20.70515606299139
 31
0.0
  0
LINE
  5
CC
330
1F
100
AcDbEntity
  8
1
  6
Continuous
 62
     4
100
AcDbLine
 10
41.91151592464015
 20
21.40515606299139
 30
0.0
 11
42.17622180699308
 21
20.90515606299139
 31
0.0
  0
LINE
  5
CD
330
1F
100
AcDbEntity
  8
1
  6
Continuous
 62
     4
100
AcDbLine
 10
41.73504533640485
 20
22.20515606299139
 30
0.0
 11
41.91151592464015
 21
21.40515606299139
 31
0.0
  0
LINE
  5
CE
330
1F
100
AcDbEntity
  8
1
  6
Continuous
 62
     4
100
AcDbLine
 10
41.91151592464015
 20
23.00515606299139
 30
0.0
 11
41.73504533640485
 21
22.20515606299139
 31
0.0
  0
LINE
  5
CF
330
1F
100
AcDbEntity
  8
1
  6
Continuous
 62
     4
100
AcDbLine
 10
42.17622180699308
 20
23.50515606299139
 30
0.0
 11
41.91151592464015
 21
23.00515606299139
 31
0.0
  0
LINE
  5
D0
330
1F
100
AcDbEntity
  8
1
  6
Continuous
 62
     4
100
AcDbLine
 10
42.70563357169897
 20
23.70515606299139
 30
0.0
 11
42.17622180699308
 21
23.50515606299139
 31
0.0
  0
LINE
  5
D1
330
1F
100
AcDbEntity
  8
1
  6
Continuous
 62
     4
100
AcDbLine
 10
38.02916298346368
 20
20.70515606299139
 30
0.0
 11
40.85269239522838
 21
20.70515606299139
 31
0.0
  0
LINE
  5
D2
330
1F
100
AcDbEntity
  8
1
  6
Continuous
 62
     4
100
AcDbLine
 10
35.38210415993427
 20
21.00515606299139
 30
0.0
 11
35.20563357169897
 21
21.20515606299139
 31
0.0
  0
LINE
  5
D3
330
1F
100
AcDbEntity
  8
1
  6
Continuous
 62
     4
100
AcDbLine
 10
35.73504533640485
 20
20.80515606299139
 30
0.0
 11
35.38210415993427
 21
21.00515606299139
 31
0.0
  0
LINE
  5
D4
330
1F
100
AcDbEntity
  8
1
  6
Continuous
 62
     4
100
AcDbLine
 10
36.17622180699308
 20
20.70515606299139
 30
0.0
 11
35.73504533640485
 21
20.80515606299139
 31
0.0
  0
LINE
  5
D5
330
1F
100
AcDbEntity
  8
1
  6
Continuous
 62
     4
100
AcDbLine
 10
36.70563357169897
 20
20.80515606299139
 30
0.0
 11
36.17622180699308
 21
20.70515606299139
 31
0.0
  0
LINE
  5
D6
330
1F
100
AcDbEntity
  8
1
  6
Continuous
 62
     4
100
AcDbLine
 10
36.97033945405191
 20
21.00515606299139
 30
0.0
 11
36.70563357169897
 21
20.80515606299139
 31
0.0
  0
LINE
  5
D7
330
1F
100
AcDbEntity
  8
1
  6
Continuous
 62
     4
100
AcDbLine
 10
37.1468100422872
 20
21.50515606299139
 30
0.0
 11
36.97033945405191
 21
21.00515606299139
 31
0.0
  0
LINE
  5
D8
330
1F
100
AcDbEntity
  8
1
  6
Continuous
 62
     4
100
AcDbLine
 10
36.97033945405191
 20
22.00515606299139
 30
0.0
 11
37.1468100422872
 21
21.50515606299139
 31
0.0
  0
LINE
  5
D9
330
1F
100
AcDbEntity
  8
1
  6
Continuous
 62
     4
100
AcDbLine
 10
36.52916298346367
 20
22.30515606299139
 30
0.0
 11
36.97033945405191
 21
22.00515606299139
 31
0.0
  0
LINE
  5
DA
330
1F
100
AcDbEntity
  8
1
  6
Continuous
 62
     4
100
AcDbLine
 10
36.08798651287544
 20
22.30515606299139
 30
0.0
 11
36.52916298346367
 21
22.30515606299139
 31
0.0
  0
LINE
  5
DB
330
1F
100
AcDbEntity
  8
1
  6
Continuous
 62
     4
100
AcDbLine
 10
36.52916298346367
 20
22.30515606299139
 30
0.0
 11
36.08798651287544
 21
22.30515606299139
 31
0.0
  0
LINE
  5
DC
330
1F
100
AcDbEntity
  8
1
  6
Continuous
 62
     4
100
AcDbLine
 10
36.88210415993427
 20
22.50515606299139
 30
0.0
 11
36.52916298346367
 21
22.30515606299139
 31
0.0
  0
LINE
  5
DD
330
1F
100
AcDbEntity
  8
1
  6
Continuous
 62
     4
100
AcDbLine
 10
37.05857474816956
 20
22.90515606299139
 30
0.0
 11
36.88210415993427
 21
22.50515606299139
 31
0.0
  0
LINE
  5
DE
330
1F
100
AcDbEntity
  8
1
  6
Continuous
 62
     4
100
AcDbLine
 10
36.97033945405191
 20
23.20515606299139
 30
0.0
 11
37.05857474816956
 21
22.90515606299139
 31
0.0
  0
LINE
  5
DF
330
1F
100
AcDbEntity
  8
1
  6
Continuous
 62
     4
100
AcDbLine
 10
36.70563357169897
 20
23.60515606299139
 30
0.0
 11
36.97033945405191
 21
23.20515606299139
 31
0.0
  0
LINE
  5
E0
330
1F
100
AcDbEntity
  8
1
  6
Continuous
 62
     4
100
AcDbLine
 10
36.17622180699308
 20
23.70515606299139
 30
0.0
 11
36.70563357169897
 21
23.60515606299139
 31
0.0
  0
LINE
  5
E1
330
1F
100
AcDbEntity
  8
1
  6
Continuous
 62
     4
100
AcDbLine
 10
35.6468100422872
 20
23.60515606299139
 30
0.0
 11
36.17622180699308
 21
23.70515606299139
 31
0.0
  0
LINE
  5
E2
330
1F
100
AcDbEntity
  8
1
  6
Continuous
 62
     4
100
AcDbLine
 10
35.29386886581661
 20
23.20515606299139
 30
0.0
 11
35.6468100422872
 21
23.60515606299139
 31
0.0
  0
LINE
  5
E3
330
1F
100
AcDbEntity
  8
1
  6
Continuous
 62
     4
100
AcDbLine
 10
34.3232806305225
 20
23.70515606299139
 30
0.0
 11
34.3232806305225
 21
20.70515606299139
 31
0.0
  0
LINE
  5
E4
330
1F
100
AcDbEntity
  8
1
  6
Continuous
 62
     4
100
AcDbLine
 10
33.88210415993427
 20
23.40515606299139
 30
0.0
 11
34.3232806305225
 21
23.70515606299139
 31
0.0
  0
LINE
  5
E5
330
1F
100
AcDbEntity
  8
1
  6
Continuous
 62
     4
100
AcDbLine
 10
30.17622180699309
 20
20.70515606299139
 30
0.0
 11
32.99975121875779
 21
20.70515606299139
 31
0.0
  0
LINE
  5
E6
330
1F
100
AcDbEntity
  8
1
  6
Continuous
 62
     4
100
AcDbLine
 10
28.58798651287544
 20
20.70515606299139
 30
0.0
 11
27.52916298346368
 21
20.70515606299139
 31
0.0
  0
LINE
  5
E7
330
1F
100
AcDbEntity
  8
1
  6
Continuous
 62
     4
100
AcDbLine
 10
29.11739827758133
 20
20.90515606299139
 30
0.0
 11
28.58798651287544
 21
20.70515606299139
 31
0.0
  0
LINE
  5
E8
330
1F
100
AcDbEntity
  8
1
  6
Continuous
 62
     4
100
AcDbLine
 10
29.29386886581662
 20
21.40515606299139
 30
0.0
 11
29.11739827758133
 21
20.90515606299139
 31
0.0
  0
LINE
  5
E9
330
1F
100
AcDbEntity
  8
1
  6
Continuous
 62
     4
100
AcDbLine
 10
29.11739827758133
 20
21.90515606299139
 30
0.0
 11
29.29386886581662
 21
21.40515606299139
 31
0.0
  0
LINE
  5
EA
330
1F
100
AcDbEntity
  8
1
  6
Continuous
 62
     4
100
AcDbLine
 10
28.58798651287544
 20
22.10515606299139
 30
0.0
 11
29.11739827758133
 21
21.90515606299139
 31
0.0
  0
LINE
  5
EB
330
1F
100
AcDbEntity
  8
1
  6
Continuous
 62
     4
100
AcDbLine
 10
27.52916298346368
 20
22.10515606299139
 30
0.0
 11
28.58798651287544
 21
22.10515606299139
 31
0.0
  0
LINE
  5
EC
330
1F
100
AcDbEntity
  8
1
  6
Continuous
 62
     4
100
AcDbLine
 10
28.58798651287544
 20
22.10515606299139
 30
0.0
 11
27.52916298346368
 21
22.10515606299139
 31
0.0
  0
LINE
  5
ED
330
1F
100
AcDbEntity
  8
1
  6
Continuous
 62
     4
100
AcDbLine
 10
29.02916298346368
 20
22.40515606299139
 30
0.0
 11
28.58798651287544
 21
22.10515606299139
 31
0.0
  0
LINE
  5
EE
330
1F
100
AcDbEntity
  8
1
  6
Continuous
 62
     4
100
AcDbLine
 10
29.11739827758133
 20
22.80515606299139
 30
0.0
 11
29.02916298346368
 21
22.40515606299139
 31
0.0
  0
LINE
  5
EF
330
1F
100
AcDbEntity
  8
1
  6
Continuous
 62
     4
100
AcDbLine
 10
29.02916298346368
 20
23.30515606299139
 30
0.0
 11
29.11739827758133
 21
22.80515606299139
 31
0.0
  0
LINE
  5
F0
330
1F
100
AcDbEntity
  8
1
  6
Continuous
 62
     4
100
AcDbLine
 10
28.58798651287544
 20
23.50515606299139
 30
0.0
 11
29.02916298346368
 21
23.30515606299139
 31
0.0
  0
LINE
  5
F1
330
1F
100
AcDbEntity
  8
1
  6
Continuous
 62
     4
100
AcDbLine
 10
27.52916298346368
 20
23.50515606299139
 30
0.0
 11
28.58798651287544
 21
23.50515606299139
 31
0.0
  0
LINE
  5
F2
330
1F
100
AcDbEntity
  8
1
  6
Continuous
 62
     4
100
AcDbLine
 10
27.52916298346368
 20
20.70515606299139
 30
0.0
 11
27.52916298346368
 21
23.50515606299139
 31
0.0
  0
LINE
  5
F3
330
1F
100
AcDbEntity
  8
1
  6
Continuous
 62
     4
100
AcDbLine
 10
25.05857474816956
 20
22.20515606299139
 30
0.0
 11
26.64681004228721
 21
22.20515606299139
 31
0.0
  0
LINE
  5
F4
330
1F
100
AcDbEntity
  8
1
  6
Continuous
 62
     4
100
AcDbLine
 10
22.23504533640485
 20
20.70515606299139
 30
0.0
 11
24.17622180699309
 21
20.70515606299139
 31
0.0
  0
LINE
  5
F5
330
1F
100
AcDbEntity
  8
1
  6
Continuous
 62
     4
100
AcDbLine
 10
22.41151592464015
 20
21.20515606299139
 30
0.0
 11
22.23504533640485
 21
20.70515606299139
 31
0.0
  0
LINE
  5
F6
330
1F
100
AcDbEntity
  8
1
  6
Continuous
 62
     4
100
AcDbLine
 10
22.58798651287544
 20
21.50515606299139
 30
0.0
 11
22.41151592464015
 21
21.20515606299139
 31
0.0
  0
LINE
  5
F7
330
1F
100
AcDbEntity
  8
1
  6
Continuous
 62
     4
100
AcDbLine
 10
22.94092768934603
 20
21.80515606299139
 30
0.0
 11
22.58798651287544
 21
21.50515606299139
 31
0.0
  0
LINE
  5
F8
330
1F
100
AcDbEntity
  8
1
  6
Continuous
 62
     4
100
AcDbLine
 10
23.29386886581662
 20
22.00515606299139
 30
0.0
 11
22.94092768934603
 21
21.80515606299139
 31
0.0
  0
LINE
  5
F9
330
1F
100
AcDbEntity
  8
1
  6
Continuous
 62
     4
100
AcDbLine
 10
23.73504533640485
 20
22.30515606299139
 30
0.0
 11
23.29386886581662
 21
22.00515606299139
 31
0.0
  0
LINE
  5
FA
330
1F
100
AcDbEntity
  8
1
  6
Continuous
 62
     4
100
AcDbLine
 10
23.99975121875779
 20
22.70515606299139
 30
0.0
 11
23.73504533640485
 21
22.30515606299139
 31
0.0
  0
LINE
  5
FB
330
1F
100
AcDbEntity
  8
1
  6
Continuous
 62
     4
100
AcDbLine
 10
24.08798651287544
 20
23.10515606299139
 30
0.0
 11
23.99975121875779
 21
22.70515606299139
 31
0.0
  0
LINE
  5
FC
330
1F
100
AcDbEntity
  8
1
  6
Continuous
 62
     4
100
AcDbLine
 10
23.73504533640485
 20
23.50515606299139
 30
0.0
 11
24.08798651287544
 21
23.10515606299139
 31
0.0
  0
LINE
  5
FD
330
1F
100
AcDbEntity
  8
1
  6
Continuous
 62
     4
100
AcDbLine
 10
23.20563357169897
 20
23.70515606299139
 30
0.0
 11
23.73504533640485
 21
23.50515606299139
 31
0.0
  0
LINE
  5
FE
330
1F
100
AcDbEntity
  8
1
  6
Continuous
 62
     4
100
AcDbLine
 10
22.67622180699309
 20
23.50515606299139
 30
0.0
 11
23.20563357169897
 21
23.70515606299139
 31
0.0
  0
LINE
  5
FF
330
1F
100
AcDbEntity
  8
1
  6
Continuous
 62
     4
100
AcDbLine
 10
22.3232806305225
 20
23.10515606299139
 30
0.0
 11
22.67622180699309
 21
23.50515606299139
 31
0.0
  0
LINE
  5
100
330
1F
100
AcDbEntity
  8
1
  6
Continuous
 62
     4
100
AcDbLine
 10
19.67622180699309
 20
21.50515606299139
 30
0.0
 11
21.08798651287544
 21
21.50515606299139
 31
0.0
  0
LINE
  5
101
330
1F
100
AcDbEntity
  8
1
  6
Continuous
 62
     4
100
AcDbLine
 10
20.38210415993427
 20
23.70515606299139
 30
0.0
 11
21.35269239522838
 21
20.70515606299139
 31
0.0
  0
LINE
  5
102
330
1F
100
AcDbEntity
  8
1
  6
Continuous
 62
     4
100
AcDbLine
 10
19.41151592464015
 20
20.70515606299139
 30
0.0
 11
20.38210415993427
 21
23.70515606299139
 31
0.0
  0
LINE
  5
103
330
1F
100
AcDbEntity
  8
1
  6
Continuous
 62
     4
100
AcDbLine
 10
16.94092768934603
 20
22.20515606299139
 30
0.0
 11
18.52916298346368
 21
22.20515606299139
 31
0.0
  0
LINE
  5
104
330
1F
100
AcDbEntity
  8
1
  6
Continuous
 62
     4
100
AcDbLine
 10
14.20563357169897
 20
21.90515606299139
 30
0.0
 11
14.20563357169897
 21
20.70515606299139
 31
0.0
  0
LINE
  5
105
330
1F
100
AcDbEntity
  8
1
  6
Continuous
 62
     4
100
AcDbLine
 10
14.64681004228721
 20
22.40515606299139
 30
0.0
 11
16.05857474816956
 21
20.70515606299139
 31
0.0
  0
LINE
  5
106
330
1F
100
AcDbEntity
  8
1
  6
Continuous
 62
     4
100
AcDbLine
 10
15.88210415993426
 20
23.70515606299139
 30
0.0
 11
14.20563357169897
 21
21.90515606299139
 31
0.0
  0
LINE
  5
107
330
1F
100
AcDbEntity
  8
1
  6
Continuous
 62
     4
100
AcDbLine
 10
14.20563357169897
 20
23.70515606299139
 30
0.0
 11
14.20563357169897
 21
21.90515606299139
 31
0.0
  0
LINE
  5
108
330
1F
100
AcDbEntity
  8
1
  6
Continuous
 62
     4
100
AcDbLine
 10
39.32507282723637
 20
121.640982468337
 30
0.0
 11
41.4427198860599
 21
121.640982468337
 31
0.0
  0
LINE
  5
109
330
1F
100
AcDbEntity
  8
1
  6
Continuous
 62
     4
100
AcDbLine
 10
40.91330812135401
 20
123.940982468337
 30
0.0
 11
39.32507282723637
 21
121.640982468337
 31
0.0
  0
LINE
  5
10A
330
1F
100
AcDbEntity
  8
1
  6
Continuous
 62
     4
100
AcDbLine
 10
40.91330812135401
 20
120.940982468337
 30
0.0
 11
40.91330812135401
 21
123.940982468337
 31
0.0
  0
LINE
  5
10B
330
1F
100
AcDbEntity
  8
1
  6
Continuous
 62
     4
100
AcDbLine
 10
38.4427198860599
 20
123.640982468337
 30
0.0
 11
36.58977870958931
 21
121.440982468337
 31
0.0
  0
LINE
  5
10C
330
1F
100
AcDbEntity
  8
1
  6
Continuous
 62
     4
100
AcDbLine
 10
33.94271988605991
 20
121.240982468337
 30
0.0
 11
33.76624929782461
 21
121.440982468337
 31
0.0
  0
LINE
  5
10D
330
1F
100
AcDbEntity
  8
1
  6
Continuous
 62
     4
100
AcDbLine
 10
34.29566106253049
 20
121.040982468337
 30
0.0
 11
33.94271988605991
 21
121.240982468337
 31
0.0
  0
LINE
  5
10E
330
1F
100
AcDbEntity
  8
1
  6
Continuous
 62
     4
100
AcDbLine
 10
34.73683753311872
 20
120.940982468337
 30
0.0
 11
34.29566106253049
 21
121.040982468337
 31
0.0
  0
LINE
  5
10F
330
1F
100
AcDbEntity
  8
1
  6
Continuous
 62
     4
100
AcDbLine
 10
35.26624929782461
 20
121.040982468337
 30
0.0
 11
34.73683753311872
 21
120.940982468337
 31
0.0
  0
LINE
  5
110
330
1F
100
AcDbEntity
  8
1
  6
Continuous
 62
     4
100
AcDbLine
 10
35.53095518017755
 20
121.240982468337
 30
0.0
 11
35.26624929782461
 21
121.040982468337
 31
0.0
  0
LINE
  5
111
330
1F
100
AcDbEntity
  8
1
  6
Continuous
 62
     4
100
AcDbLine
 10
35.70742576841285
 20
121.740982468337
 30
0.0
 11
35.53095518017755
 21
121.240982468337
 31
0.0
  0
LINE
  5
112
330
1F
100
AcDbEntity
  8
1
  6
Continuous
 62
     4
100
AcDbLine
 10
35.53095518017755
 20
122.240982468337
 30
0.0
 11
35.70742576841285
 21
121.740982468337
 31
0.0
  0
LINE
  5
113
330
1F
100
AcDbEntity
  8
1
  6
Continuous
 62
     4
100
AcDbLine
 10
35.08977870958931
 20
122.540982468337
 30
0.0
 11
35.53095518017755
 21
122.240982468337
 31
0.0
  0
LINE
  5
114
330
1F
100
AcDbEntity
  8
1
  6
Continuous
 62
     4
100
AcDbLine
 10
34.64860223900108
 20
122.540982468337
 30
0.0
 11
35.08977870958931
 21
122.540982468337
 31
0.0
  0
LINE
  5
115
330
1F
100
AcDbEntity
  8
1
  6
Continuous
 62
     4
100
AcDbLine
 10
35.08977870958931
 20
122.540982468337
 30
0.0
 11
34.64860223900108
 21
122.540982468337
 31
0.0
  0
LINE
  5
116
330
1F
100
AcDbEntity
  8
1
  6
Continuous
 62
     4
100
AcDbLine
 10
35.44271988605991
 20
122.740982468337
 30
0.0
 11
35.08977870958931
 21
122.540982468337
 31
0.0
  0
LINE
  5
117
330
1F
100
AcDbEntity
  8
1
  6
Continuous
 62
     4
100
AcDbLine
 10
35.6191904742952
 20
123.140982468337
 30
0.0
 11
35.44271988605991
 21
122.740982468337
 31
0.0
  0
LINE
  5
118
330
1F
100
AcDbEntity
  8
1
  6
Continuous
 62
     4
100
AcDbLine
 10
35.53095518017755
 20
123.440982468337
 30
0.0
 11
35.6191904742952
 21
123.140982468337
 31
0.0
  0
LINE
  5
119
330
1F
100
AcDbEntity
  8
1
  6
Continuous
 62
     4
100
AcDbLine
 10
35.26624929782461
 20
123.840982468337
 30
0.0
 11
35.53095518017755
 21
123.440982468337
 31
0.0
  0
LINE
  5
11A
330
1F
100
AcDbEntity
  8
1
  6
Continuous
 62
     4
100
AcDbLine
 10
34.73683753311872
 20
123.940982468337
 30
0.0
 11
35.26624929782461
 21
123.840982468337
 31
0.0
  0
LINE
  5
11B
330
1F
100
AcDbEntity
  8
1
  6
Continuous
 62
     4
100
AcDbLine
 10
34.20742576841284
 20
123.840982468337
 30
0.0
 11
34.73683753311872
 21
123.940982468337
 31
0.0
  0
LINE
  5
11C
330
1F
100
AcDbEntity
  8
1
  6
Continuous
 62
     4
100
AcDbLine
 10
33.85448459194225
 20
123.440982468337
 30
0.0
 11
34.20742576841284
 21
123.840982468337
 31
0.0
  0
LINE
  5
11D
330
1F
100
AcDbEntity
  8
1
  6
Continuous
 62
     4
100
AcDbLine
 10
32.88389635664814
 20
122.340982468337
 30
0.0
 11
32.08977870958931
 21
122.340982468337
 31
0.0
  0
LINE
  5
11E
330
1F
100
AcDbEntity
  8
1
  6
Continuous
 62
     4
100
AcDbLine
 10
32.88389635664814
 20
121.740982468337
 30
0.0
 11
32.88389635664814
 21
122.340982468337
 31
0.0
  0
LINE
  5
11F
330
1F
100
AcDbEntity
  8
1
  6
Continuous
 62
     4
100
AcDbLine
 10
32.79566106253049
 20
121.440982468337
 30
0.0
 11
32.88389635664814
 21
121.740982468337
 31
0.0
  0
LINE
  5
120
330
1F
100
AcDbEntity
  8
1
  6
Continuous
 62
     4
100
AcDbLine
 10
32.6191904742952
 20
121.240982468337
 30
0.0
 11
32.79566106253049
 21
121.440982468337
 31
0.0
  0
LINE
  5
121
330
1F
100
AcDbEntity
  8
1
  6
Continuous
 62
     4
100
AcDbLine
 10
32.35448459194225
 20
121.040982468337
 30
0.0
 11
32.6191904742952
 21
121.240982468337
 31
0.0
  0
LINE
  5
122
330
1F
100
AcDbEntity
  8
1
  6
Continuous
 62
     4
100
AcDbLine
 10
31.91330812135402
 20
120.940982468337
 30
0.0
 11
32.35448459194225
 21
121.040982468337
 31
0.0
  0
LINE
  5
123
330
1F
100
AcDbEntity
  8
1
  6
Continuous
 62
     4
100
AcDbLine
 10
31.47213165076579
 20
121.040982468337
 30
0.0
 11
31.91330812135402
 21
120.940982468337
 31
0.0
  0
LINE
  5
124
330
1F
100
AcDbEntity
  8
1
  6
Continuous
 62
     4
100
AcDbLine
 10
31.20742576841284
 20
121.440982468337
 30
0.0
 11
31.47213165076579
 21
121.040982468337
 31
0.0
  0
LINE
  5
125
330
1F
100
AcDbEntity
  8
1
  6
Continuous
 62
     4
100
AcDbLine
 10
31.1191904742952
 20
121.640982468337
 30
0.0
 11
31.20742576841284
 21
121.440982468337
 31
0.0
  0
LINE
  5
126
330
1F
100
AcDbEntity
  8
1
  6
Continuous
 62
     4
100
AcDbLine
 10
31.03095518017755
 20
122.040982468337
 30
0.0
 11
31.1191904742952
 21
121.640982468337
 31
0.0
  0
LINE
  5
127
330
1F
100
AcDbEntity
  8
1
  6
Continuous
 62
     4
100
AcDbLine
 10
30.9427198860599
 20
122.440982468337
 30
0.0
 11
31.03095518017755
 21
122.040982468337
 31
0.0
  0
LINE
  5
128
330
1F
100
AcDbEntity
  8
1
  6
Continuous
 62
     4
100
AcDbLine
 10
31.03095518017755
 20
122.840982468337
 30
0.0
 11
30.9427198860599
 21
122.440982468337
 31
0.0
  0
LINE
  5
129
330
1F
100
AcDbEntity
  8
1
  6
Continuous
 62
     4
100
AcDbLine
 10
31.20742576841284
 20
123.440982468337
 30
0.0
 11
31.03095518017755
 21
122.840982468337
 31
0.0
  0
LINE
  5
12A
330
1F
100
AcDbEntity
  8
1
  6
Continuous
 62
     4
100
AcDbLine
 10
31.29566106253049
 20
123.640982468337
 30
0.0
 11
31.20742576841284
 21
123.440982468337
 31
0.0
  0
LINE
  5
12B
330
1F
100
AcDbEntity
  8
1
  6
Continuous
 62
     4
100
AcDbLine
 10
31.56036694488343
 20
123.840982468337
 30
0.0
 11
31.29566106253049
 21
123.640982468337
 31
0.0
  0
LINE
  5
12C
330
1F
100
AcDbEntity
  8
1
  6
Continuous
 62
     4
100
AcDbLine
 10
31.91330812135402
 20
123.940982468337
 30
0.0
 11
31.56036694488343
 21
123.840982468337
 31
0.0
  0
LINE
  5
12D
330
1F
100
AcDbEntity
  8
1
  6
Continuous
 62
     4
100
AcDbLine
 10
32.35448459194225
 20
123.840982468337
 30
0.0
 11
31.91330812135402
 21
123.940982468337
 31
0.0
  0
LINE
  5
12E
330
1F
100
AcDbEntity
  8
1
  6
Continuous
 62
     4
100
AcDbLine
 10
32.53095518017755
 20
123.740982468337
 30
0.0
 11
32.35448459194225
 21
123.840982468337
 31
0.0
  0
LINE
  5
12F
330
1F
100
AcDbEntity
  8
1
  6
Continuous
 62
     4
100
AcDbLine
 10
32.70742576841284
 20
123.540982468337
 30
0.0
 11
32.53095518017755
 21
123.740982468337
 31
0.0
  0
LINE
  5
130
330
1F
100
AcDbEntity
  8
1
  6
Continuous
 62
     4
100
AcDbLine
 10
32.88389635664814
 20
123.240982468337
 30
0.0
 11
32.70742576841284
 21
123.540982468337
 31
0.0
  0
LINE
  5
131
330
1F
100
AcDbEntity
  8
1
  6
Continuous
 62
     4
100
AcDbLine
 10
140.9956777636715
 20
121.640982468337
 30
0.0
 11
143.113324822495
 21
121.640982468337
 31
0.0
  0
LINE
  5
132
330
1F
100
AcDbEntity
  8
1
  6
Continuous
 62
     4
100
AcDbLine
 10
142.5839130577891
 20
123.940982468337
 30
0.0
 11
140.9956777636715
 21
121.640982468337
 31
0.0
  0
LINE
  5
133
330
1F
100
AcDbEntity
  8
1
  6
Continuous
 62
     4
100
AcDbLine
 10
142.5839130577891
 20
120.940982468337
 30
0.0
 11
142.5839130577891
 21
123.940982468337
 31
0.0
  0
LINE
  5
134
330
1F
100
AcDbEntity
  8
1
  6
Continuous
 62
     4
100
AcDbLine
 10
140.113324822495
 20
123.640982468337
 30
0.0
 11
138.2603836460244
 21
121.440982468337
 31
0.0
  0
LINE
  5
135
330
1F
100
AcDbEntity
  8
1
  6
Continuous
 62
     4
100
AcDbLine
 10
135.613324822495
 20
121.240982468337
 30
0.0
 11
135.4368542342597
 21
121.440982468337
 31
0.0
  0
LINE
  5
136
330
1F
100
AcDbEntity
  8
1
  6
Continuous
 62
     4
100
AcDbLine
 10
135.9662659989656
 20
121.040982468337
 30
0.0
 11
135.613324822495
 21
121.240982468337
 31
0.0
  0
LINE
  5
137
330
1F
100
AcDbEntity
  8
1
  6
Continuous
 62
     4
100
AcDbLine
 10
136.4074424695538
 20
120.940982468337
 30
0.0
 11
135.9662659989656
 21
121.040982468337
 31
0.0
  0
LINE
  5
138
330
1F
100
AcDbEntity
  8
1
  6
Continuous
 62
     4
100
AcDbLine
 10
136.9368542342597
 20
121.040982468337
 30
0.0
 11
136.4074424695538
 21
120.940982468337
 31
0.0
  0
LINE
  5
139
330
1F
100
AcDbEntity
  8
1
  6
Continuous
 62
     4
100
AcDbLine
 10
137.2015601166126
 20
121.240982468337
 30
0.0
 11
136.9368542342597
 21
121.040982468337
 31
0.0
  0
LINE
  5
13A
330
1F
100
AcDbEntity
  8
1
  6
Continuous
 62
     4
100
AcDbLine
 10
137.3780307048479
 20
121.740982468337
 30
0.0
 11
137.2015601166126
 21
121.240982468337
 31
0.0
  0
LINE
  5
13B
330
1F
100
AcDbEntity
  8
1
  6
Continuous
 62
     4
100
AcDbLine
 10
137.2015601166126
 20
122.240982468337
 30
0.0
 11
137.3780307048479
 21
121.740982468337
 31
0.0
  0
LINE
  5
13C
330
1F
100
AcDbEntity
  8
1
  6
Continuous
 62
     4
100
AcDbLine
 10
136.7603836460244
 20
122.540982468337
 30
0.0
 11
137.2015601166126
 21
122.240982468337
 31
0.0
  0
LINE
  5
13D
330
1F
100
AcDbEntity
  8
1
  6
Continuous
 62
     4
100
AcDbLine
 10
136.3192071754362
 20
122.540982468337
 30
0.0
 11
136.7603836460244
 21
122.540982468337
 31
0.0
  0
LINE
  5
13E
330
1F
100
AcDbEntity
  8
1
  6
Continuous
 62
     4
100
AcDbLine
 10
136.7603836460244
 20
122.540982468337
 30
0.0
 11
136.3192071754362
 21
122.540982468337
 31
0.0
  0
LINE
  5
13F
330
1F
100
AcDbEntity
  8
1
  6
Continuous
 62
     4
100
AcDbLine
 10
137.113324822495
 20
122.740982468337
 30
0.0
 11
136.7603836460244
 21
122.540982468337
 31
0.0
  0
LINE
  5
140
330
1F
100
AcDbEntity
  8
1
  6
Continuous
 62
     4
100
AcDbLine
 10
137.2897954107303
 20
123.140982468337
 30
0.0
 11
137.113324822495
 21
122.740982468337
 31
0.0
  0
LINE
  5
141
330
1F
100
AcDbEntity
  8
1
  6
Continuous
 62
     4
100
AcDbLine
 10
137.2015601166126
 20
123.440982468337
 30
0.0
 11
137.2897954107303
 21
123.140982468337
 31
0.0
  0
LINE
  5
142
330
1F
100
AcDbEntity
  8
1
  6
Continuous
 62
     4
100
AcDbLine
 10
136.9368542342597
 20
123.840982468337
 30
0.0
 11
137.2015601166126
 21
123.440982468337
 31
0.0
  0
LINE
  5
143
330
1F
100
AcDbEntity
  8
1
  6
Continuous
 62
     4
100
AcDbLine
 10
136.4074424695538
 20
123.940982468337
 30
0.0
 11
136.9368542342597
 21
123.840982468337
 31
0.0
  0
LINE
  5
144
330
1F
100
AcDbEntity
  8
1
  6
Continuous
 62
     4
100
AcDbLine
 10
135.8780307048479
 20
123.840982468337
 30
0.0
 11
136.4074424695538
 21
123.940982468337
 31
0.0
  0
LINE
  5
145
330
1F
100
AcDbEntity
  8
1
  6
Continuous
 62
     4
100
AcDbLine
 10
135.5250895283774
 20
123.440982468337
 30
0.0
 11
135.8780307048479
 21
123.840982468337
 31
0.0
  0
LINE
  5
146
330
1F
100
AcDbEntity
  8
1
  6
Continuous
 62
     4
100
AcDbLine
 10
134.5545012930832
 20
122.340982468337
 30
0.0
 11
133.7603836460244
 21
122.340982468337
 31
0.0
  0
LINE
  5
147
330
1F
100
AcDbEntity
  8
1
  6
Continuous
 62
     4
100
AcDbLine
 10
134.5545012930832
 20
121.740982468337
 30
0.0
 11
134.5545012930832
 21
122.340982468337
 31
0.0
  0
LINE
  5
148
330
1F
100
AcDbEntity
  8
1
  6
Continuous
 62
     4
100
AcDbLine
 10
134.4662659989656
 20
121.440982468337
 30
0.0
 11
134.5545012930832
 21
121.740982468337
 31
0.0
  0
LINE
  5
149
330
1F
100
AcDbEntity
  8
1
  6
Continuous
 62
     4
100
AcDbLine
 10
134.2897954107303
 20
121.240982468337
 30
0.0
 11
134.4662659989656
 21
121.440982468337
 31
0.0
  0
LINE
  5
14A
330
1F
100
AcDbEntity
  8
1
  6
Continuous
 62
     4
100
AcDbLine
 10
134.0250895283774
 20
121.040982468337
 30
0.0
 11
134.2897954107303
 21
121.240982468337
 31
0.0
  0
LINE
  5
14B
330
1F
100
AcDbEntity
  8
1
  6
Continuous
 62
     4
100
AcDbLine
 10
133.5839130577891
 20
120.940982468337
 30
0.0
 11
134.0250895283774
 21
121.040982468337
 31
0.0
  0
LINE
  5
14C
330
1F
100
AcDbEntity
  8
1
  6
Continuous
 62
     4
100
AcDbLine
 10
133.1427365872009
 20
121.040982468337
 30
0.0
 11
133.5839130577891
 21
120.940982468337
 31
0.0
  0
LINE
  5
14D
330
1F
100
AcDbEntity
  8
1
  6
Continuous
 62
     4
100
AcDbLine
 10
132.8780307048479
 20
121.440982468337
 30
0.0
 11
133.1427365872009
 21
121.040982468337
 31
0.0
  0
LINE
  5
14E
330
1F
100
AcDbEntity
  8
1
  6
Continuous
 62
     4
100
AcDbLine
 10
132.7897954107303
 20
121.640982468337
 30
0.0
 11
132.8780307048479
 21
121.440982468337
 31
0.0
  0
LINE
  5
14F
330
1F
100
AcDbEntity
  8
1
  6
Continuous
 62
     4
100
AcDbLine
 10
132.7015601166127
 20
122.040982468337
 30
0.0
 11
132.7897954107303
 21
121.640982468337
 31
0.0
  0
LINE
  5
150
330
1F
100
AcDbEntity
  8
1
  6
Continuous
 62
     4
100
AcDbLine
 10
132.613324822495
 20
122.440982468337
 30
0.0
 11
132.7015601166127
 21
122.040982468337
 31
0.0
  0
LINE
  5
151
330
1F
100
AcDbEntity
  8
1
  6
Continuous
 62
     4
100
AcDbLine
 10
132.7015601166127
 20
122.840982468337
 30
0.0
 11
132.613324822495
 21
122.440982468337
 31
0.0
  0
LINE
  5
152
330
1F
100
AcDbEntity
  8
1
  6
Continuous
 62
     4
100
AcDbLine
 10
132.8780307048479
 20
123.440982468337
 30
0.0
 11
132.7015601166127
 21
122.840982468337
 31
0.0
  0
LINE
  5
153
330
1F
100
AcDbEntity
  8
1
  6
Continuous
 62
     4
100
AcDbLine
 10
132.9662659989656
 20
123.640982468337
 30
0.0
 11
132.8780307048479
 21
123.440982468337
 31
0.0
  0
LINE
  5
154
330
1F
100
AcDbEntity
  8
1
  6
Continuous
 62
     4
100
AcDbLine
 10
133.2309718813185
 20
123.840982468337
 30
0.0
 11
132.9662659989656
 21
123.640982468337
 31
0.0
  0
LINE
  5
155
330
1F
100
AcDbEntity
  8
1
  6
Continuous
 62
     4
100
AcDbLine
 10
133.5839130577891
 20
123.940982468337
 30
0.0
 11
133.2309718813185
 21
123.840982468337
 31
0.0
  0
LINE
  5
156
330
1F
100
AcDbEntity
  8
1
  6
Continuous
 62
     4
100
AcDbLine
 10
134.0250895283774
 20
123.840982468337
 30
0.0
 11
133.5839130577891
 21
123.940982468337
 31
0.0
  0
LINE
  5
157
330
1F
100
AcDbEntity
  8
1
  6
Continuous
 62
     4
100
AcDbLine
 10
134.2015601166127
 20
123.740982468337
 30
0.0
 11
134.0250895283774
 21
123.840982468337
 31
0.0
  0
LINE
  5
158
330
1F
100
AcDbEntity
  8
1
  6
Continuous
 62
     4
100
AcDbLine
 10
134.3780307048479
 20
123.540982468337
 30
0.0
 11
134.2015601166127
 21
123.740982468337
 31
0.0
  0
LINE
  5
159
330
1F
100
AcDbEntity
  8
1
  6
Continuous
 62
     4
100
AcDbLine
 10
134.5545012930832
 20
123.240982468337
 30
0.0
 11
134.3780307048479
 21
123.540982468337
 31
0.0
  0
LINE
  5
15A
330
1F
100
AcDbEntity
  8
3
  6
Continuous
 62
     3
100
AcDbLine
 10
1.776160130774
 20
136.0523359562
 30
0.0
 11
1.85751461097401
 21
134.5
 31
0.0
  0
LINE
  5
15B
330
1F
100
AcDbEntity
  8
3
  6
Continuous
 62
     3
100
AcDbLine
 10
-36.25631535032599
 20
136.0523359562
 30
0.0
 11
-36.337669830526
 21
134.5
 31
0.0
  0
LINE
  5
162
330
1F
100
AcDbEntity
  8
3
  6
Continuous
 62
     3
100
AcDbLine
 10
-5.240077609776
 20
144.7113248654052
 30
0.0
 11
-4.96804939340065
 21
137.9651005033
 31
0.0
  0
LINE
  5
169
330
1F
100
AcDbEntity
  8
3
  6
Continuous
 62
     3
100
AcDbLine
 10
-29.51210582615134
 20
137.9651005033
 30
0.0
 11
-29.24007760977599
 21
144.7113248654052
 31
0.0
  0
LINE
  5
16A
330
1F
100
AcDbEntity
  8
1
  6
Continuous
 62
     3
100
AcDbLine
 10
89.07179676972498
 20
213.4300114896552
 30
0.0
 11
82.14359353944894
 21
201.4300114896552
 31
0.0
  0
LINE
  5
16B
330
1F
100
AcDbEntity
  8
1
  6
Continuous
 62
     3
100
AcDbLine
 10
82.14359353944894
 20
201.4300114896552
 30
0.0
 11
89.07179676972441
 21
189.4300114896552
 31
0.0
  0
LINE
  5
16C
330
1F
100
AcDbEntity
  8
1
  6
Continuous
 62
     3
100
AcDbLine
 10
89.07179676972441
 20
189.4300114896552
 30
0.0
 11
102.9282032302755
 21
189.4300114896552
 31
0.0
  0
LINE
  5
16D
330
1F
100
AcDbEntity
  8
1
  6
Continuous
 62
     3
100
AcDbLine
 10
102.9282032302755
 20
189.4300114896552
 30
0.0
 11
109.856406460551
 21
201.4300114896552
 31
0.0
  0
LINE
  5
16E
330
1F
100
AcDbEntity
  8
1
  6
Continuous
 62
     3
100
AcDbLine
 10
109.856406460551
 20
201.4300114896552
 30
0.0
 11
102.9282032302755
 21
213.4300114896552
 31
0.0
  0
LINE
  5
16F
330
1F
100
AcDbEntity
  8
1
  6
Continuous
 62
     3
100
AcDbLine
 10
102.9282032302755
 20
213.4300114896552
 30
0.0
 11
89.07179676972498
 21
213.4300114896552
 31
0.0
  0
LINE
  5
170
330
1F
100
AcDbEntity
  8
1
  6
Continuous
 62
     3
100
AcDbLine
 10
89.07179676972498
 20
213.4300114896552
 30
0.0
 11
88.09383938593214
 21
215.1238833660208
 31
0.0
  0
LINE
  5
171
330
1F
100
AcDbEntity
  8
1
  6
Continuous
 62
     3
100
AcDbLine
 10
102.9282032302755
 20
213.4300114896552
 30
0.0
 11
103.8684868516199
 21
215.0586304953487
 31
0.0
  0
LINE
  5
172
330
1F
100
AcDbEntity
  8
1
  6
Continuous
 62
     3
100
AcDbLine
 10
109.856406460551
 20
201.4300114896552
 30
0.0
 11
111.7567171887825
 21
201.4300114896552
 31
0.0
  0
LINE
  5
173
330
1F
100
AcDbEntity
  8
1
  6
Continuous
 62
     3
100
AcDbLine
 10
102.9282032302755
 20
189.4300114896552
 30
0.0
 11
103.805051032897
 21
187.9112665450095
 31
0.0
  0
LINE
  5
174
330
1F
100
AcDbEntity
  8
1
  6
Continuous
 62
     3
100
AcDbLine
 10
89.07179676972441
 20
189.4300114896552
 30
0.0
 11
88.38346631527844
 21
188.2377881701577
 31
0.0
  0
LINE
  5
175
330
1F
100
AcDbEntity
  8
1
  6
Continuous
 62
     3
100
AcDbLine
 10
82.14359353944894
 20
201.4300114896552
 30
0.0
 11
80.83026931728057
 21
201.4300114896552
 31
0.0
  0
LINE
  5
176
330
1F
100
AcDbEntity
  8
3
  6
Continuous
 62
     3
100
AcDbLine
 10
116.5
 20
213.4300114896552
 30
0.0
 11
113.5
 21
213.4300114896552
 31
0.0
  0
LINE
  5
177
330
1F
100
AcDbEntity
  8
3
  6
Continuous
 62
     3
100
AcDbLine
 10
116.5
 20
189.4300114896552
 30
0.0
 11
113.5
 21
189.4300114896552
 31
0.0
  0
LINE
  5
178
330
1F
100
AcDbEntity
  8
3
  6
Continuous
 62
     3
100
AcDbLine
 10
116.5
 20
214.5300114896552
 30
0.0
 11
116.5
 21
188.3300114896552
 31
0.0
  0
LINE
  5
179
330
1F
100
AcDbEntity
  8
3
  6
Continuous
 62
     3
100
AcDbLine
 10
116.5
 20
189.3715114896552
 30
0.0
 11
126.8415
 21
189.3715114896552
 31
0.0
  0
LINE
  5
17A
330
1F
100
AcDbEntity
  8
3
  6
Continuous
 62
     3
100
AcDbLine
 10
116.5
 20
188.3300114896552
 30
0.0
 11
125.8
 21
188.3300114896552
 31
0.0
  0
LINE
  5
17B
330
1F
100
AcDbEntity
  8
3
  6
Continuous
 62
     3
100
AcDbLine
 10
127.0
 20
189.5300114896552
 30
0.0
 11
125.8
 21
188.3300114896552
 31
0.0
  0
LINE
  5
17C
330
1F
100
AcDbEntity
  8
3
  6
Continuous
 62
     3
100
AcDbLine
 10
116.5
 20
213.4885114896552
 30
0.0
 11
126.8415
 21
213.4885114896552
 31
0.0
  0
LINE
  5
17D
330
1F
100
AcDbEntity
  8
3
  6
Continuous
 62
     3
100
AcDbLine
 10
116.5
 20
214.5300114896552
 30
0.0
 11
125.8
 21
214.5300114896552
 31
0.0
  0
LINE
  5
17E
330
1F
100
AcDbEntity
  8
3
  6
Continuous
 62
     3
100
AcDbLine
 10
125.8
 20
188.3300114896552
 30
0.0
 11
125.8
 21
214.5300114896552
 31
0.0
  0
LINE
  5
17F
330
1F
100
AcDbEntity
  8
3
  6
Continuous
 62
     3
100
AcDbLine
 10
125.8
 20
214.5300114896552
 30
0.0
 11
127.0
 21
213.3300114896552
 31
0.0
  0
LINE
  5
180
330
1F
100
AcDbEntity
  8
3
  6
Continuous
 62
     3
100
AcDbLine
 10
127.0
 20
213.3300114896552
 30
0.0
 11
127.0
 21
189.5300114896552
 31
0.0
  0
LINE
  5
181
330
1F
100
AcDbEntity
  8
1
  6
Continuous
 62
     3
100
AcDbLine
 10
69.0
 20
216.9300114896552
 30
0.0
 11
69.0
 21
185.9300114896552
 31
0.0
  0
LINE
  5
182
330
1F
100
AcDbEntity
  8
1
  6
Continuous
 62
     3
100
AcDbLine
 10
50.99999999999999
 20
216.9300114896552
 30
0.0
 11
50.99999999999999
 21
185.9300114896552
 31
0.0
  0
LINE
  5
183
330
1F
100
AcDbEntity
  8
1
  6
Continuous
 62
     3
100
AcDbLine
 10
69.0
 20
216.9300114896552
 30
0.0
 11
50.99999999999999
 21
216.9300114896552
 31
0.0
  0
LINE
  5
184
330
1F
100
AcDbEntity
  8
1
  6
Continuous
 62
     3
100
AcDbLine
 10
69.0
 20
185.9300114896552
 30
0.0
 11
50.99999999999999
 21
185.9300114896552
 31
0.0
  0
LINE
  5
185
330
1F
100
AcDbEntity
  8
1
  6
Continuous
 62
     3
100
AcDbLine
 10
52.38440416089401
 20
201.4300114896552
 30
0.0
 11
67.61559583910598
 21
201.4300114896552
 31
0.0
  0
LINE
  5
186
330
1F
100
AcDbEntity
  8
3
  6
Continuous
 62
     3
100
AcDbLine
 10
76.5
 20
192.4300114896552
 30
0.0
 11
71.6213203435597
 21
192.4300114896552
 31
0.0
  0
LINE
  5
187
330
1F
100
AcDbEntity
  8
3
  6
Continuous
 62
     3
100
AcDbLine
 10
76.5
 20
210.4300114896552
 30
0.0
 11
71.6213203435597
 21
210.4300114896552
 31
0.0
  0
LINE
  5
188
330
1F
100
AcDbEntity
  8
3
  6
Continuous
 62
     3
100
AcDbLine
 10
69.35
 20
212.0800114896552
 30
0.0
 11
69.35
 21
190.7800114896552
 31
0.0
  0
LINE
  5
189
330
1F
100
AcDbEntity
  8
3
  6
DASHED
 62
     4
100
AcDbLine
 10
69.0
 20
190.7800114896552
 30
0.0
 11
65.0
 21
190.7800114896552
 31
0.0
  0
LINE
  5
18A
330
1F
100
AcDbEntity
  8
3
  6
Continuous
 62
     3
100
AcDbLine
 10
69.35
 20
190.7800114896552
 30
0.0
 11
69.0
 21
190.7800114896552
 31
0.0
  0
LINE
  5
18B
330
1F
100
AcDbEntity
  8
3
  6
DASHED
 62
     4
100
AcDbLine
 10
69.0
 20
212.0800114896552
 30
0.0
 11
65.0
 21
212.0800114896552
 31
0.0
  0
LINE
  5
18C
330
1F
100
AcDbEntity
  8
3
  6
Continuous
 62
     3
100
AcDbLine
 10
69.35
 20
212.0800114896552
 30
0.0
 11
69.0
 21
212.0800114896552
 31
0.0
  0
LINE
  5
18D
330
1F
100
AcDbEntity
  8
3
  6
Continuous
 62
     3
100
AcDbLine
 10
70.5606601717798
 20
191.990671661435
 30
0.0
 11
69.35
 21
190.7800114896552
 31
0.0
  0
LINE
  5
18E
330
1F
100
AcDbEntity
  8
3
  6
DASHED
 62
     4
100
AcDbLine
 10
65.0
 20
189.7800114896552
 30
0.0
 11
62.0
 21
189.7800114896552
 31
0.0
  0
LINE
  5
18F
330
1F
100
AcDbEntity
  8
3
  6
DASHED
 62
     4
100
AcDbLine
 10
62.0
 20
213.0800114896552
 30
0.0
 11
62.0
 21
189.7800114896552
 31
0.0
  0
LINE
  5
190
330
1F
100
AcDbEntity
  8
3
  6
DASHED
 62
     4
100
AcDbLine
 10
65.0
 20
213.0800114896552
 30
0.0
 11
62.0
 21
213.0800114896552
 31
0.0
  0
LINE
  5
191
330
1F
100
AcDbEntity
  8
3
  6
DASHED
 62
     4
100
AcDbLine
 10
65.0
 20
213.0800114896552
 30
0.0
 11
65.0
 21
189.7800114896552
 31
0.0
  0
LINE
  5
192
330
1F
100
AcDbEntity
  8
3
  6
Continuous
 62
     3
100
AcDbLine
 10
70.5606601717798
 20
210.8693513178752
 30
0.0
 11
69.35
 21
212.0800114896552
 31
0.0
  0
LINE
  5
199
330
1F
100
AcDbEntity
  8
100
  6
Continuous
 62
     3
100
AcDbLine
 10
-17.24007760977599
 20
143.6395280956807
 30
0.0
 11
-17.24007760977599
 21
138.0
 31
0.0
  0
LINE
  5
19A
330
1F
100
AcDbEntity
  8
100
  6
Continuous
 62
     3
100
AcDbLine
 10
-29.24007760977599
 20
144.7113248654052
 30
0.0
 11
-28.74007760977599
 21
145.0
 31
0.0
  0
LINE
  5
19B
330
1F
100
AcDbEntity
  8
100
  6
Continuous
 62
     3
100
AcDbLine
 10
-28.74007760977599
 20
145.0
 30
0.0
 11
-5.740077609776
 21
145.0
 31
0.0
  0
LINE
  5
19C
330
1F
100
AcDbEntity
  8
100
  6
Continuous
 62
     3
100
AcDbLine
 10
-5.240077609776
 20
144.7113248654052
 30
0.0
 11
-5.740077609776
 21
145.0
 31
0.0
  0
LINE
  5
19D
330
1F
100
AcDbEntity
  8
100
  6
Continuous
 62
     3
100
AcDbLine
 10
-36.24007760977599
 20
134.5
 30
0.0
 11
-36.24007760977599
 21
123.7990381056766
 31
0.0
  0
LINE
  5
19E
330
1F
100
AcDbEntity
  8
2
  6
Continuous
 62
     3
100
AcDbLine
 10
0.25992239022401
 20
122.5
 30
0.0
 11
-34.74007760977599
 21
122.5
 31
0.0
  0
LINE
  5
19F
330
1F
100
AcDbEntity
  8
100
  6
Continuous
 62
     3
100
AcDbLine
 10
-36.337669830526
 20
134.5
 30
0.0
 11
1.85751461097401
 21
134.5
 31
0.0
  0
LINE
  5
1A0
330
1F
100
AcDbEntity
  8
100
  6
Continuous
 62
     3
100
AcDbLine
 10
0.777530595974
 20
137.0
 30
0.0
 11
-35.25768581562599
 21
137.0
 31
0.0
  0
LINE
  5
1A1
330
1F
100
AcDbEntity
  8
100
  6
Continuous
 62
     3
100
AcDbLine
 10
1.75992239022401
 20
134.5
 30
0.0
 11
1.75992239022401
 21
123.7990381056766
 31
0.0
  0
LINE
  5
1A2
330
1F
100
AcDbEntity
  8
100
  6
Continuous
 62
     3
100
AcDbLine
 10
-2.74007760977599
 20
73.0
 30
0.0
 11
-31.74007760977599
 21
73.0
 31
0.0
  0
LINE
  5
1A3
330
1F
100
AcDbEntity
  8
100
  6
Continuous
 62
     3
100
AcDbLine
 10
78.5
 20
186.4300114896551
 30
0.0
 11
84.33809621030954
 21
186.4300114896551
 31
0.0
  0
LINE
  5
1A4
330
1F
100
AcDbEntity
  8
100
  6
Continuous
 62
     3
100
AcDbLine
 10
77.5
 20
197.0998844707332
 30
0.0
 11
77.5
 21
187.4300114896551
 31
0.0
  0
LINE
  5
1A5
330
1F
100
AcDbEntity
  8
100
  6
Continuous
 62
     3
100
AcDbLine
 10
77.5
 20
215.4300114896552
 30
0.0
 11
77.5
 21
205.7601385085772
 31
0.0
  0
LINE
  5
1A6
330
1F
100
AcDbEntity
  8
100
  6
Continuous
 62
     3
100
AcDbLine
 10
78.5
 20
216.4300114896552
 30
0.0
 11
84.3380962103094
 21
216.4300114896552
 31
0.0
  0
LINE
  5
1A7
330
1F
100
AcDbEntity
  8
1
  6
CENTER
 62
     1
100
AcDbLine
 10
-39.74007760977599
 20
98.0
 30
0.0
 11
5.25992239022401
 21
98.0
 31
0.0
  0
LINE
  5
1A8
330
1F
100
AcDbEntity
  8
1
  6
CENTER
 62
     1
100
AcDbLine
 10
-17.24007760977599
 20
68.0
 30
0.0
 11
-17.24007760977599
 21
138.0
 31
0.0
  0
LINE
  5
1A9
330
1F
100
AcDbEntity
  8
1
  6
CENTER
 62
     1
100
AcDbLine
 10
-17.24007760977599
 20
143.6395280956807
 30
0.0
 11
-17.24007760977599
 21
150.0
 31
0.0
  0
LINE
  5
1AA
330
1F
100
AcDbEntity
  8
100
  6
Continuous
 62
     3
100
AcDbLine
 10
112.5
 20
186.4300114896551
 30
0.0
 11
107.6619037896905
 21
186.4300114896551
 31
0.0
  0
LINE
  5
1AB
330
1F
100
AcDbEntity
  8
100
  6
Continuous
 62
     3
100
AcDbLine
 10
112.5
 20
216.4300114896552
 30
0.0
 11
107.6619037896906
 21
216.4300114896552
 31
0.0
  0
LINE
  5
1AC
330
1F
100
AcDbEntity
  8
100
  6
Continuous
 62
     3
100
AcDbLine
 10
113.5
 20
194.0306871961809
 30
0.0
 11
113.5
 21
187.4300114896551
 31
0.0
  0
LINE
  5
1AD
330
1F
100
AcDbEntity
  8
100
  6
Continuous
 62
     3
100
AcDbLine
 10
113.5
 20
215.4300114896552
 30
0.0
 11
113.5
 21
208.8293357831296
 31
0.0
  0
LINE
  5
1AE
330
1F
100
AcDbEntity
  8
1
  6
DOT_CENTER
 62
     1
100
AcDbLine
 10
45.99999999999999
 20
201.4300114896552
 30
0.0
 11
133.5
 21
201.4300114896552
 31
0.0
  0
LINE
  5
1AF
330
1F
100
AcDbEntity
  8
1
  6
DOT_CENTER
 62
     1
100
AcDbLine
 10
96.0
 20
177.4300114896551
 30
0.0
 11
96.0
 21
225.4300114896552
 31
0.0
  0
LINE
  5
1B0
330
1F
100
AcDbEntity
  8
100
  6
Continuous
 62
     3
100
AcDbLine
 10
-34.74007760977599
 20
76.0
 30
0.0
 11
-34.74007760977599
 21
121.2009618943234
 31
0.0
  0
LINE
  5
1B1
330
1F
100
AcDbEntity
  8
100
  6
Continuous
 62
     3
100
AcDbLine
 10
0.25992239022401
 20
76.0
 30
0.0
 11
0.25992239022401
 21
121.2009618943234
 31
0.0
  0
LINE
  5
1BE
330
1F
100
AcDbEntity
  8
3
  6
Continuous
 62
     3
100
AcDbLine
 10
87.9033813476563
 20
97.0
 30
0.0
 11
105.903381347656
 21
97.0
 31
0.0
  0
LINE
  5
1BF
330
1F
100
AcDbEntity
  8
3
  6
Continuous
 62
     3
100
AcDbLine
 10
100.903381347656
 20
93.0
 30
0.0
 11
105.903381347656
 21
97.0
 31
0.0
  0
LINE
  5
1C0
330
1F
100
AcDbEntity
  8
3
  6
Continuous
 62
     3
100
AcDbLine
 10
101.903381347656
 20
96.0
 30
0.0
 11
100.903381347656
 21
93.0
 31
0.0
  0
LINE
  5
1C1
330
1F
100
AcDbEntity
  8
3
  6
Continuous
 62
     3
100
AcDbLine
 10
101.903381347656
 20
96.0
 30
0.0
 11
94.9033813476563
 21
96.0
 31
0.0
  0
LINE
  5
1C2
330
1F
100
AcDbEntity
  8
3
  6
Continuous
 62
     3
100
AcDbLine
 10
94.9033813476563
 20
96.0
 30
0.0
 11
92.9033813476563
 21
93.0
 31
0.0
  0
LINE
  5
1C3
330
1F
100
AcDbEntity
  8
3
  6
Continuous
 62
     3
100
AcDbLine
 10
87.9033813476563
 20
97.0
 30
0.0
 11
84.9033813476563
 21
93.0
 31
0.0
  0
LINE
  5
1C4
330
1F
100
AcDbEntity
  8
3
  6
Continuous
 62
     3
100
AcDbLine
 10
84.9033813476563
 20
93.0
 30
0.0
 11
92.9033813476563
 21
93.0
 31
0.0
  0
LINE
  5
1C5
330
1F
100
AcDbEntity
  8
3
  6
DOT_CENTER
 62
     1
100
AcDbLine
 10
96.0
 20
150.0
 30
0.0
 11
96.0
 21
68.0
 31
0.0
  0
LINE
  5
1C6
330
1F
100
AcDbEntity
  8
3
  6
DOT_CENTER
 62
     1
100
AcDbLine
 10
130.0
 20
98.0
 30
0.0
 11
47.5
 21
98.0
 31
0.0
  0
LINE
  5
1C7
330
1F
100
AcDbEntity
  8
3
  6
Continuous
 62
     3
100
AcDbLine
 10
113.5
 20
76.0
 30
0.0
 11
113.5
 21
121.200961894323
 31
0.0
  0
LINE
  5
1C8
330
1F
100
AcDbEntity
  8
3
  6
Continuous
 62
     3
100
AcDbLine
 10
78.5
 20
83.0
 30
0.0
 11
78.5
 21
76.0
 31
0.0
  0
LINE
  5
1C9
330
1F
100
AcDbEntity
  8
3
  6
Continuous
 62
     3
100
AcDbLine
 10
77.5
 20
84.0
 30
0.0
 11
77.5
 21
112.0
 31
0.0
  0
LINE
  5
1CA
330
1F
100
AcDbEntity
  8
3
  6
Continuous
 62
     3
100
AcDbLine
 10
78.5
 20
113.0
 30
0.0
 11
78.5
 21
121.200961894323
 31
0.0
  0
LINE
  5
1CB
330
1F
100
AcDbEntity
  8
3
  6
Continuous
 62
     3
100
AcDbLine
 10
127.0
 20
109.9
 30
0.0
 11
127.0
 21
86.1
 31
0.0
  0
LINE
  5
1CC
330
1F
100
AcDbEntity
  8
3
  6
Continuous
 62
     3
100
AcDbLine
 10
125.8
 20
111.1
 30
0.0
 11
127.0
 21
109.9
 31
0.0
  0
LINE
  5
1CD
330
1F
100
AcDbEntity
  8
3
  6
Continuous
 62
     3
100
AcDbLine
 10
125.8
 20
84.9
 30
0.0
 11
125.8
 21
111.1
 31
0.0
  0
LINE
  5
1CE
330
1F
100
AcDbEntity
  8
3
  6
Continuous
 62
     3
100
AcDbLine
 10
116.5
 20
111.1
 30
0.0
 11
125.8
 21
111.1
 31
0.0
  0
LINE
  5
1CF
330
1F
100
AcDbEntity
  8
3
  6
Continuous
 62
     3
100
AcDbLine
 10
116.5
 20
110.0585
 30
0.0
 11
126.8415
 21
110.0585
 31
0.0
  0
LINE
  5
1D0
330
1F
100
AcDbEntity
  8
3
  6
Continuous
 62
     3
100
AcDbLine
 10
127.0
 20
86.1
 30
0.0
 11
125.8
 21
84.9
 31
0.0
  0
LINE
  5
1D1
330
1F
100
AcDbEntity
  8
3
  6
Continuous
 62
     3
100
AcDbLine
 10
116.5
 20
84.9
 30
0.0
 11
125.8
 21
84.9
 31
0.0
  0
LINE
  5
1D2
330
1F
100
AcDbEntity
  8
3
  6
Continuous
 62
     3
100
AcDbLine
 10
116.5
 20
85.9415
 30
0.0
 11
126.8415
 21
85.9415
 31
0.0
  0
LINE
  5
1D3
330
1F
100
AcDbEntity
  8
3
  6
Continuous
 62
     3
100
AcDbLine
 10
77.0
 20
123.799038105677
 30
0.0
 11
77.0
 21
134.5
 31
0.0
  0
LINE
  5
1D4
330
1F
100
AcDbEntity
  8
3
  6
Continuous
 62
     3
100
AcDbLine
 10
115.0
 20
123.799038105677
 30
0.0
 11
115.0
 21
134.5
 31
0.0
  0
LINE
  5
1D5
330
1F
100
AcDbEntity
  8
3
  6
Continuous
 62
     4
100
AcDbLine
 10
113.5
 20
122.5
 30
0.0
 11
78.5
 21
122.5
 31
0.0
  0
LINE
  5
1D6
330
1F
100
AcDbEntity
  8
3
  6
Continuous
 62
     3
100
AcDbLine
 10
110.5
 20
73.0
 30
0.0
 11
81.5
 21
73.0
 31
0.0
  0
LINE
  5
1D7
330
1F
100
AcDbEntity
  8
3
  6
Continuous
 62
     3
100
AcDbLine
 10
76.5
 20
107.0
 30
0.0
 11
71.6213203435597
 21
107.0
 31
0.0
  0
LINE
  5
1D8
330
1F
100
AcDbEntity
  8
3
  6
Continuous
 62
     3
100
AcDbLine
 10
70.5606601717798
 20
107.43933982822
 30
0.0
 11
69.35
 21
108.65
 31
0.0
  0
LINE
  5
1D9
330
1F
100
AcDbEntity
  8
3
  6
DASHED
 62
     4
100
AcDbLine
 10
65.0
 20
109.65
 30
0.0
 11
65.0
 21
86.35
 31
0.0
  0
LINE
  5
1DA
330
1F
100
AcDbEntity
  8
3
  6
DASHED
 62
     4
100
AcDbLine
 10
65.0
 20
109.65
 30
0.0
 11
62.0
 21
109.65
 31
0.0
  0
LINE
  5
1DB
330
1F
100
AcDbEntity
  8
3
  6
DASHED
 62
     4
100
AcDbLine
 10
62.0
 20
109.65
 30
0.0
 11
62.0
 21
86.35
 31
0.0
  0
LINE
  5
1DC
330
1F
100
AcDbEntity
  8
3
  6
DASHED
 62
     4
100
AcDbLine
 10
65.0
 20
86.35
 30
0.0
 11
62.0
 21
86.35
 31
0.0
  0
LINE
  5
1DD
330
1F
100
AcDbEntity
  8
3
  6
Continuous
 62
     3
100
AcDbLine
 10
70.5606601717798
 20
88.5606601717798
 30
0.0
 11
69.35
 21
87.35
 31
0.0
  0
LINE
  5
1DE
330
1F
100
AcDbEntity
  8
3
  6
Continuous
 62
     3
100
AcDbLine
 10
76.5
 20
89.0
 30
0.0
 11
71.6213203435597
 21
89.0
 31
0.0
  0
LINE
  5
1DF
330
1F
100
AcDbEntity
  8
3
  6
Continuous
 62
     3
100
AcDbLine
 10
69.0
 20
82.5
 30
0.0
 11
69.0
 21
113.5
 31
0.0
  0
LINE
  5
1E0
330
1F
100
AcDbEntity
  8
3
  6
Continuous
 62
     3
100
AcDbLine
 10
67.6155958391059
 20
80.1021416551216
 30
0.0
 11
69.0
 21
82.5
 31
0.0
  0
LINE
  5
1E1
330
1F
100
AcDbEntity
  8
3
  6
Continuous
 62
     3
100
AcDbLine
 10
52.3844041608941
 20
80.1021416551216
 30
0.0
 11
67.6155958391059
 21
80.1021416551216
 31
0.0
  0
LINE
  5
1E2
330
1F
100
AcDbEntity
  8
3
  6
Continuous
 62
     3
100
AcDbLine
 10
51.0
 20
82.5
 30
0.0
 11
52.3844041608941
 21
80.1021416551216
 31
0.0
  0
LINE
  5
1E3
330
1F
100
AcDbEntity
  8
3
  6
Continuous
 62
     3
100
AcDbLine
 10
51.0
 20
113.5
 30
0.0
 11
51.0
 21
82.5
 31
0.0
  0
LINE
  5
1E4
330
1F
100
AcDbEntity
  8
3
  6
Continuous
 62
     3
100
AcDbLine
 10
52.3844041608941
 20
115.897858344878
 30
0.0
 11
51.0
 21
113.5
 31
0.0
  0
LINE
  5
1E5
330
1F
100
AcDbEntity
  8
3
  6
Continuous
 62
     3
100
AcDbLine
 10
67.6155958391059
 20
115.897858344878
 30
0.0
 11
52.3844041608941
 21
115.897858344878
 31
0.0
  0
LINE
  5
1E6
330
1F
100
AcDbEntity
  8
3
  6
Continuous
 62
     3
100
AcDbLine
 10
69.0
 20
113.5
 30
0.0
 11
67.6155958391059
 21
115.897858344878
 31
0.0
  0
LINE
  5
1E7
330
1F
100
AcDbEntity
  8
3
  6
Continuous
 62
     3
100
AcDbLine
 10
69.35
 20
108.65
 30
0.0
 11
69.0
 21
108.65
 31
0.0
  0
LINE
  5
1E8
330
1F
100
AcDbEntity
  8
3
  6
DASHED
 62
     4
100
AcDbLine
 10
69.0
 20
108.65
 30
0.0
 11
65.0
 21
108.65
 31
0.0
  0
LINE
  5
1E9
330
1F
100
AcDbEntity
  8
3
  6
Continuous
 62
     3
100
AcDbLine
 10
69.35
 20
87.35
 30
0.0
 11
69.0
 21
87.35
 31
0.0
  0
LINE
  5
1EA
330
1F
100
AcDbEntity
  8
3
  6
DASHED
 62
     4
100
AcDbLine
 10
69.0
 20
87.35
 30
0.0
 11
65.0
 21
87.35
 31
0.0
  0
LINE
  5
1EB
330
1F
100
AcDbEntity
  8
3
  6
Continuous
 62
     3
100
AcDbLine
 10
69.35
 20
108.65
 30
0.0
 11
69.35
 21
87.35
 31
0.0
  0
LINE
  5
1EC
330
1F
100
AcDbEntity
  8
3
  6
Continuous
 62
     3
100
AcDbLine
 10
52.3844041608941
 20
106.948929172439
 30
0.0
 11
67.6155958391059
 21
106.948929172439
 31
0.0
  0
LINE
  5
1ED
330
1F
100
AcDbEntity
  8
3
  6
Continuous
 62
     3
100
AcDbLine
 10
52.3844041608941
 20
89.0510708275608
 30
0.0
 11
67.6155958391059
 21
89.0510708275608
 31
0.0
  0
LINE
  5
1EE
330
1F
100
AcDbEntity
  8
3
  6
Continuous
 62
     3
100
AcDbLine
 10
116.5
 20
111.1
 30
0.0
 11
116.5
 21
84.9
 31
0.0
  0
LINE
  5
1EF
330
1F
100
AcDbEntity
  8
3
  6
Continuous
 62
     3
100
AcDbLine
 10
116.5
 20
110.0
 30
0.0
 11
113.5
 21
110.0
 31
0.0
  0
LINE
  5
1F0
330
1F
100
AcDbEntity
  8
3
  6
Continuous
 62
     3
100
AcDbLine
 10
116.5
 20
86.0
 30
0.0
 11
113.5
 21
86.0
 31
0.0
  0
LINE
  5
1F1
330
1F
100
AcDbEntity
  8
3
  6
Continuous
 62
     3
100
AcDbLine
 10
115.01623774055
 20
136.0523359562
 30
0.0
 11
115.09759222075
 21
134.5
 31
0.0
  0
LINE
  5
1F2
330
1F
100
AcDbEntity
  8
3
  6
Continuous
 62
     3
100
AcDbLine
 10
109.81749068275
 20
137.9651005033
 30
0.0
 11
109.58229920355
 21
143.7977839943
 31
0.0
  0
LINE
  5
1F3
330
1F
100
AcDbEntity
  8
3
  6
Continuous
 62
     3
100
AcDbLine
 10
102.90874534135
 20
137.9651005033
 30
0.0
 11
102.79114960175
 21
143.7977839943
 31
0.0
  0
LINE
  5
1F4
330
1F
100
AcDbEntity
  8
3
  6
Continuous
 62
     3
100
AcDbLine
 10
115.09759222075
 20
134.5
 30
0.0
 11
76.90240777925
 21
134.5
 31
0.0
  0
LINE
  5
1F5
330
1F
100
AcDbEntity
  8
3
  6
Continuous
 62
     3
100
AcDbLine
 10
77.98239179415
 20
137.0
 30
0.0
 11
114.01760820575
 21
137.0
 31
0.0
  0
LINE
  5
1F6
330
1F
100
AcDbEntity
  8
3
  6
Continuous
 62
     3
100
AcDbLine
 10
89.09125465865
 20
137.9651005033
 30
0.0
 11
89.20885039825
 21
143.7977839943
 31
0.0
  0
LINE
  5
1F7
330
1F
100
AcDbEntity
  8
3
  6
Continuous
 62
     3
100
AcDbLine
 10
84.49999999995
 20
145.0
 30
0.0
 11
107.49999999995
 21
145.0
 31
0.0
  0
LINE
  5
1F8
330
1F
100
AcDbEntity
  8
3
  6
Continuous
 62
     3
100
AcDbLine
 10
109.58229920355
 20
143.7977839943
 30
0.0
 11
107.49999999995
 21
145.0
 31
0.0
  0
LINE
  5
1F9
330
1F
100
AcDbEntity
  8
3
  6
Continuous
 62
     3
100
AcDbLine
 10
82.18250931725
 20
137.9651005033
 30
0.0
 11
82.41770079645
 21
143.7977839943
 31
0.0
  0
LINE
  5
1FA
330
1F
100
AcDbEntity
  8
3
  6
Continuous
 62
     3
100
AcDbLine
 10
82.41770079645
 20
143.7977839943
 30
0.0
 11
84.49999999995
 21
145.0
 31
0.0
  0
LINE
  5
1FB
330
1F
100
AcDbEntity
  8
3
  6
Continuous
 62
     3
100
AcDbLine
 10
76.98376225945
 20
136.0523359562
 30
0.0
 11
76.90240777925
 21
134.5
 31
0.0
  0
ARC
  5
237
330
1F
100
AcDbEntity
  8
1
  6
Continuous
 62
     3
100
AcDbCircle
 10
-11.2184685624085
 20
130.9937598674923
 30
0.0
 40
14.00625680188671
100
AcDbArc
 50
64.53733949067339
 51
115.4626605093266
  0
ARC
  5
238
330
1F
100
AcDbEntity
  8
1
  6
Continuous
 62
     3
100
AcDbCircle
 10
-23.26168665714349
 20
130.9937598674923
 30
0.0
 40
14.00625680188671
100
AcDbArc
 50
64.5373394906734
 51
115.4626605093266
  0
ARC
  5
239
330
1F
100
AcDbEntity
  8
3
  6
Continuous
 62
     3
100
AcDbCircle
 10
0.777530595974
 20
136.0
 30
0.0
 40
1.000000000043119
100
AcDbArc
 50
2.99999999740728
 51
90.0
  0
ARC
  5
23A
330
1F
100
AcDbEntity
  8
3
  6
Continuous
 62
     3
100
AcDbCircle
 10
-35.25768581562599
 20
136.0
 30
0.0
 40
1.0
100
AcDbArc
 50
90.0
 51
177.0000000022929
  0
ARC
  5
23B
330
1F
100
AcDbEntity
  8
1
  6
Continuous
 62
     3
100
AcDbCircle
 10
73.3847473994427
 20
193.6800114896552
 30
0.0
 40
22.38474739944273
100
AcDbArc
 50
159.7438419995851
 51
200.2561580004149
  0
ARC
  5
23C
330
1F
100
AcDbEntity
  8
1
  6
Continuous
 62
     3
100
AcDbCircle
 10
73.3847473994427
 20
209.1800114896552
 30
0.0
 40
22.38474739944273
100
AcDbArc
 50
159.7438419995851
 51
200.2561580004149
  0
ARC
  5
23D
330
1F
100
AcDbEntity
  8
1
  6
Continuous
 62
     3
100
AcDbCircle
 10
46.61525260055711
 20
209.1800114896552
 30
0.0
 40
22.38474739944289
100
AcDbArc
 50
339.7438419995853
 51
20.25615800041473
  0
ARC
  5
23E
330
1F
100
AcDbEntity
  8
1
  6
Continuous
 62
     3
100
AcDbCircle
 10
46.61525260055694
 20
193.6800114896552
 30
0.0
 40
22.38474739944305
100
AcDbArc
 50
339.7438419995854
 51
20.25615800041458
  0
ARC
  5
23F
330
1F
100
AcDbEntity
  8
3
  6
Continuous
 62
     3
100
AcDbCircle
 10
76.5
 20
191.4300114896552
 30
0.0
 40
1.0
100
AcDbArc
 50
0.0
 51
90.0
  0
ARC
  5
240
330
1F
100
AcDbEntity
  8
3
  6
Continuous
 62
     3
100
AcDbCircle
 10
76.5
 20
211.4300114896552
 30
0.0
 40
1.0
100
AcDbArc
 50
270.0
 51
0.0
  0
ARC
  5
241
330
1F
100
AcDbEntity
  8
3
  6
Continuous
 62
     3
100
AcDbCircle
 10
71.6213203435597
 20
190.9300114896552
 30
0.0
 40
1.5
100
AcDbArc
 50
90.0
 51
135.0000000000027
  0
ARC
  5
242
330
1F
100
AcDbEntity
  8
3
  6
Continuous
 62
     3
100
AcDbCircle
 10
71.6213203435597
 20
211.9300114896552
 30
0.0
 40
1.500000000000163
100
AcDbArc
 50
225.0000000000019
 51
270.0
  0
ARC
  5
243
330
1F
100
AcDbEntity
  8
100
  6
Continuous
 62
     3
100
AcDbCircle
 10
-36.24007760977599
 20
121.2009618943234
 30
0.0
 40
1.5
100
AcDbArc
 50
0.0
 51
59.99999999999892
  0
ARC
  5
244
330
1F
100
AcDbEntity
  8
100
  6
Continuous
 62
     3
100
AcDbCircle
 10
-34.74007760977599
 20
123.7990381056766
 30
0.0
 40
1.5
100
AcDbArc
 50
180.0
 51
239.9999999999989
  0
ARC
  5
245
330
1F
100
AcDbEntity
  8
100
  6
Continuous
 62
     3
100
AcDbCircle
 10
1.75992239022401
 20
121.2009618943234
 30
0.0
 40
1.499999999999951
100
AcDbArc
 50
120.0000000000011
 51
180.0
  0
ARC
  5
246
330
1F
100
AcDbEntity
  8
100
  6
Continuous
 62
     3
100
AcDbCircle
 10
0.25992239022401
 20
123.7990381056766
 30
0.0
 40
1.499999999999951
100
AcDbArc
 50
300.0000000000011
 51
0.0
  0
ARC
  5
247
330
1F
100
AcDbEntity
  8
100
  6
Continuous
 62
     3
100
AcDbCircle
 10
-31.74007760977599
 20
76.0
 30
0.0
 40
2.999999999999996
100
AcDbArc
 50
180.0
 51
270.0
  0
ARC
  5
248
330
1F
100
AcDbEntity
  8
100
  6
Continuous
 62
     3
100
AcDbCircle
 10
-2.74007760977599
 20
76.0
 30
0.0
 40
3.0
100
AcDbArc
 50
270.0
 51
0.0
  0
ARC
  5
249
330
1F
100
AcDbEntity
  8
100
  6
Continuous
 62
     3
100
AcDbCircle
 10
78.5
 20
187.4300114896551
 30
0.0
 40
1.0
100
AcDbArc
 50
180.0
 51
270.0
  0
ARC
  5
24A
330
1F
100
AcDbEntity
  8
100
  6
Continuous
 62
     3
100
AcDbCircle
 10
78.5
 20
215.4300114896552
 30
0.0
 40
1.0
100
AcDbArc
 50
90.0
 51
180.0
  0
ARC
  5
24B
330
1F
100
AcDbEntity
  8
100
  6
Continuous
 62
     3
100
AcDbCircle
 10
112.5
 20
187.4300114896551
 30
0.0
 40
1.0
100
AcDbArc
 50
270.0
 51
0.0
  0
ARC
  5
24C
330
1F
100
AcDbEntity
  8
100
  6
Continuous
 62
     3
100
AcDbCircle
 10
112.5
 20
215.4300114896552
 30
0.0
 40
1.0
100
AcDbArc
 50
0.0
 51
90.0
  0
ARC
  5
25B
330
1F
100
AcDbEntity
  8
3
  6
Continuous
 62
     3
100
AcDbCircle
 10
78.5
 20
84.0
 30
0.0
 40
1.0
100
AcDbArc
 50
180.0
 51
270.0
  0
ARC
  5
25C
330
1F
100
AcDbEntity
  8
3
  6
Continuous
 62
     3
100
AcDbCircle
 10
78.5
 20
112.0
 30
0.0
 40
1.0
100
AcDbArc
 50
90.0
 51
180.0
  0
ARC
  5
25D
330
1F
100
AcDbEntity
  8
3
  6
Continuous
 62
     3
100
AcDbCircle
 10
77.0
 20
121.200961894323
 30
0.0
 40
1.5
100
AcDbArc
 50
0.0
 51
60.00000000000652
  0
ARC
  5
25E
330
1F
100
AcDbEntity
  8
3
  6
Continuous
 62
     3
100
AcDbCircle
 10
78.5
 20
123.799038105677
 30
0.0
 40
1.5
100
AcDbArc
 50
180.0
 51
240.0000000000065
  0
ARC
  5
25F
330
1F
100
AcDbEntity
  8
3
  6
Continuous
 62
     3
100
AcDbCircle
 10
113.5
 20
123.799038105677
 30
0.0
 40
1.500000000000296
100
AcDbArc
 50
299.9999999999935
 51
0.0
  0
ARC
  5
260
330
1F
100
AcDbEntity
  8
3
  6
Continuous
 62
     3
100
AcDbCircle
 10
115.0
 20
121.200961894323
 30
0.0
 40
1.500000000000296
100
AcDbArc
 50
119.9999999999935
 51
180.0
  0
ARC
  5
261
330
1F
100
AcDbEntity
  8
3
  6
Continuous
 62
     3
100
AcDbCircle
 10
110.5
 20
76.0
 30
0.0
 40
3.0
100
AcDbArc
 50
270.0
 51
0.0
  0
ARC
  5
262
330
1F
100
AcDbEntity
  8
3
  6
Continuous
 62
     3
100
AcDbCircle
 10
81.5
 20
76.0
 30
0.0
 40
3.0
100
AcDbArc
 50
180.0
 51
270.0
  0
ARC
  5
263
330
1F
100
AcDbEntity
  8
3
  6
Continuous
 62
     3
100
AcDbCircle
 10
76.5
 20
108.0
 30
0.0
 40
1.0
100
AcDbArc
 50
270.0
 51
0.0
  0
ARC
  5
264
330
1F
100
AcDbEntity
  8
3
  6
Continuous
 62
     3
100
AcDbCircle
 10
71.6213203435597
 20
108.5
 30
0.0
 40
1.500000000000183
100
AcDbArc
 50
225.0000000000027
 51
270.0
  0
ARC
  5
265
330
1F
100
AcDbEntity
  8
3
  6
Continuous
 62
     3
100
AcDbCircle
 10
71.6213203435597
 20
87.5
 30
0.0
 40
1.5
100
AcDbArc
 50
90.0
 51
135.0000000000027
  0
ARC
  5
266
330
1F
100
AcDbEntity
  8
3
  6
Continuous
 62
     3
100
AcDbCircle
 10
76.5
 20
88.0
 30
0.0
 40
1.0
100
AcDbArc
 50
0.0
 51
90.0
  0
ARC
  5
267
330
1F
100
AcDbEntity
  8
3
  6
Continuous
 62
     3
100
AcDbCircle
 10
58.9230505201118
 20
111.423393758659
 30
0.0
 40
7.923050520111615
100
AcDbArc
 50
154.3842474680439
 51
214.3842474680441
  0
ARC
  5
268
330
1F
100
AcDbEntity
  8
3
  6
Continuous
 62
     3
100
AcDbCircle
 10
80.6155958391061
 20
98.0
 30
0.0
 40
29.61559583910607
100
AcDbArc
 50
162.4120462260068
 51
197.5879537739936
  0
ARC
  5
269
330
1F
100
AcDbEntity
  8
3
  6
Continuous
 62
     3
100
AcDbCircle
 10
58.9230505201118
 20
84.5766062413412
 30
0.0
 40
7.923050520111829
100
AcDbArc
 50
145.6157525319582
 51
205.6157525319581
  0
ARC
  5
26A
330
1F
100
AcDbEntity
  8
3
  6
Continuous
 62
     3
100
AcDbCircle
 10
61.0769494798882
 20
111.423393758659
 30
0.0
 40
7.923050520112048
100
AcDbArc
 50
325.6157525319559
 51
25.61575253195606
  0
ARC
  5
26B
330
1F
100
AcDbEntity
  8
3
  6
Continuous
 62
     3
100
AcDbCircle
 10
39.3844041608939
 20
98.0
 30
0.0
 40
29.61559583910611
100
AcDbArc
 50
342.4120462260064
 51
17.58795377399324
  0
ARC
  5
26C
330
1F
100
AcDbEntity
  8
3
  6
Continuous
 62
     3
100
AcDbCircle
 10
61.0769494798882
 20
84.5766062413412
 30
0.0
 40
7.923050520111756
100
AcDbArc
 50
334.3842474680419
 51
34.38424746804178
  0
ARC
  5
26D
330
1F
100
AcDbEntity
  8
3
  6
Continuous
 62
     3
100
AcDbCircle
 10
114.01760820575
 20
136.0
 30
0.0
 40
1.00000000004312
100
AcDbArc
 50
2.99999999740728
 51
90.0
  0
ARC
  5
26E
330
1F
100
AcDbEntity
  8
3
  6
Continuous
 62
     3
100
AcDbCircle
 10
77.98239179415
 20
136.0
 30
0.0
 40
1.0
100
AcDbArc
 50
90.0
 51
177.0000000022929
  0
CIRCLE
  5
26F
330
1F
100
AcDbEntity
  8
1
  6
Continuous
 62
     3
100
AcDbCircle
 10
96.0
 20
201.4300114896552
 30
0.0
 40
12.0
  0
CIRCLE
  5
270
330
1F
100
AcDbEntity
  8
1
  6
Continuous
 62
     3
100
AcDbCircle
 10
-17.24007760977599
 20
98.0
 30
0.0
 40
13.25000000000005
  0
CIRCLE
  5
271
330
1F
100
AcDbEntity
  8
1
  6
Continuous
 62
     3
100
AcDbCircle
 10
-17.24007760977599
 20
98.0
 30
0.0
 40
13.10000000000002
  0
CIRCLE
  5
272
330
1F
100
AcDbEntity
  8
1
  6
Continuous
 62
     3
100
AcDbCircle
 10
-17.24007760977599
 20
98.0
 30
0.0
 40
12.25000000000007
  0
CIRCLE
  5
273
330
1F
100
AcDbEntity
  8
1
  6
Continuous
 62
     3
100
AcDbCircle
 10
-17.24007760977599
 20
98.0
 30
0.0
 40
11.65000000000003
  0
CIRCLE
  5
274
330
1F
100
AcDbEntity
  8
1
  6
Continuous
 62
     3
100
AcDbCircle
 10
-17.24007760977599
 20
98.0
 30
0.0
 40
10.28867513459482
  0
CIRCLE
  5
275
330
1F
100
AcDbEntity
  8
1
  6
Continuous
 62
     3
100
AcDbCircle
 10
-17.24007760977599
 20
98.0
 30
0.0
 40
9.711324865405171
  0
CIRCLE
  5
276
330
1F
100
AcDbEntity
  8
1
  6
Continuous
 62
     3
100
AcDbCircle
 10
-17.24007760977599
 20
98.0
 30
0.0
 40
8.749999999999996
  0
CIRCLE
  5
277
330
1F
100
AcDbEntity
  8
1
  6
Continuous
 62
     3
100
AcDbCircle
 10
-17.24007760977599
 20
98.0
 30
0.0
 40
7.749999999999996
  0
CIRCLE
  5
278
330
1F
100
AcDbEntity
  8
1
  6
Continuous
 62
     3
100
AcDbCircle
 10
-17.24007760977599
 20
98.0
 30
0.0
 40
15.5
  0
CIRCLE
  5
279
330
1F
100
AcDbEntity
  8
100
  6
Continuous
 62
     3
100
AcDbCircle
 10
96.0
 20
201.4300114896552
 30
0.0
 40
19.0
  0
CIRCLE
  5
27A
330
1F
100
AcDbEntity
  8
100
  6
Continuous
 62
     3
100
AcDbCircle
 10
-17.24007760977599
 20
98.0
 30
0.0
 40
6.500000000000002
  0
LWPOLYLINE
  5
27B
330
1F
100
AcDbEntity
  8
3
  6
Continuous
 62
     3
100
AcDbPolyline
 90
        7
 70
     0
 43
0.0
 10
-4.96804939340065
 20
137.9651005033
 10
-4.91227488870065
 20
137.6910820409
 10
-4.77852465820065
 20
137.4501411494
 10
-4.58426904400065
 20
137.2549667204
 10
-4.34740691750065
 20
137.1130673008
 10
-4.08523192540075
 20
137.0279680073
 10
-3.81405226740066
 20
137.0
  0
LWPOLYLINE
  5
27C
330
1F
100
AcDbEntity
  8
3
  6
Continuous
 62
     3
100
AcDbPolyline
 90
        7
 70
     0
 43
0.0
 10
-30.66610295215133
 20
137.0
 10
-30.39492329415124
 20
137.0279680073
 10
-30.13274830205134
 20
137.1130673008
 10
-29.89588617555134
 20
137.2549667204
 10
-29.70163056135134
 20
137.4501411494
 10
-29.56788033085134
 20
137.6910820409
 10
-29.51210582615134
 20
137.9651005033
  0
LWPOLYLINE
  5
27D
330
1F
100
AcDbEntity
  8
1
  6
Continuous
 62
     3
100
AcDbPolyline
 90
        7
 70
     1
 43
0.0
 10
-1.74007760977599
 20
106.948929172439
 10
-17.24007760977599
 20
115.897858344878
 10
-32.74007760977599
 20
106.948929172439
 10
-32.74007760977599
 20
89.05107082756105
 10
-17.24007760977599
 20
80.10214165512203
 10
-1.74007760977599
 20
89.05107082756105
 10
-1.74007760977599
 20
106.948929172439
  0
LWPOLYLINE
  5
27E
330
1F
100
AcDbEntity
  8
100
  6
Continuous
 62
     3
100
AcDbPolyline
 90
       19
 70
     1
 43
0.0
 10
97.0
 20
105.0
 10
97.0
 20
105.0
 42
1.0
 10
98.0
 20
105.0
 42
-1.0
 10
100.0
 20
105.0
 10
100.0
 20
104.5
 42
-0.41421356237327
 10
99.0
 20
103.5
 10
98.5
 20
103.5
 42
1.0
 10
98.5
 20
102.5
 10
99.0
 20
102.5000000000004
 42
-0.41421356237324
 10
100.0
 20
101.5
 10
100.0
 20
101.0
 42
-1.0
 10
98.0
 20
101.0
 42
1.0
 10
97.0
 20
101.0
 42
1.0
 10
101.0
 20
101.0
 10
101.0
 20
101.5
 42
0.21525043702147
 10
100.322875655533
 20
102.9999999999999
 42
0.2152504370215
 10
101.0000000000001
 20
104.5
 10
101.0
 20
105.0
 42
1.0
 10
97.0
 20
105.0
  0
LWPOLYLINE
  5
27F
330
1F
100
AcDbEntity
  8
100
  6
Continuous
 62
     3
100
AcDbPolyline
 90
        9
 70
     1
 43
0.0
 10
92.14644660940701
 20
105.8535533905933
 10
92.14644660940701
 20
105.8535533905933
 42
1.0
 10
92.85355339059299
 20
105.1464466094067
 10
93.0
 20
105.2928932188135
 10
93.0
 20
99.50000000000001
 42
1.0
 10
94.0
 20
99.50000000000001
 10
94.0
 20
106.5
 42
0.66817863791904
 10
93.14644660940698
 20
106.8535533905935
 10
92.14644660940701
 20
105.8535533905933
  0
LWPOLYLINE
  5
280
330
1F
100
AcDbEntity
  8
3
  6
Continuous
 62
     3
100
AcDbPolyline
 90
        3
 70
     0
 43
0.0
 10
113.5
 20
113.0
 10
111.262725506902
 20
110.892551075617
 10
109.5
 20
109.089662198655
  0
LWPOLYLINE
  5
281
330
1F
100
AcDbEntity
  8
3
  6
Continuous
 62
     3
100
AcDbPolyline
 90
        3
 70
     0
 43
0.0
 10
109.5
 20
86.9103378013467
 10
111.262725506901
 20
85.1074489243855
 10
113.5
 20
83.0
  0
LWPOLYLINE
  5
282
330
1F
100
AcDbEntity
  8
3
  6
Continuous
 62
     3
100
AcDbPolyline
 90
        3
 70
     0
 43
0.0
 10
78.5
 20
113.0
 10
80.7372744930976
 20
110.892551075617
 10
82.5
 20
109.089662198655
  0
LWPOLYLINE
  5
283
330
1F
100
AcDbEntity
  8
3
  6
Continuous
 62
     3
100
AcDbPolyline
 90
        3
 70
     0
 43
0.0
 10
82.5
 20
86.9103378013467
 10
80.7372744930991
 20
85.1074489243855
 10
78.5
 20
83.0
  0
LWPOLYLINE
  5
284
330
1F
100
AcDbEntity
  8
3
  6
Continuous
 62
     3
100
AcDbPolyline
 90
        7
 70
     0
 43
0.0
 10
81.02851219125
 20
137.0
 10
81.2996918492501
 20
137.0279680073
 10
81.56186684135
 20
137.1130673008
 10
81.79872896785
 20
137.2549667204
 10
81.99298458205
 20
137.4501411494
 10
82.12673481255
 20
137.6910820409
 10
82.18250931725
 20
137.9651005033
  0
LWPOLYLINE
  5
285
330
1F
100
AcDbEntity
  8
3
  6
Continuous
 62
     3
100
AcDbPolyline
 90
        7
 70
     0
 43
0.0
 10
110.97148780875
 20
137.0
 10
110.70030815065
 20
137.0279680073
 10
110.43813315855
 20
137.1130673008
 10
110.20127103205
 20
137.2549667204
 10
110.00701541795
 20
137.4501411494
 10
109.87326518735
 20
137.6910820409
 10
109.81749068275
 20
137.9651005033
  0
LWPOLYLINE
  5
286
330
1F
100
AcDbEntity
  8
3
  6
Continuous
 62
     3
100
AcDbPolyline
 90
        7
 70
     0
 43
0.0
 10
103.48574390435
 20
137.0
 10
103.35015407535
 20
137.0279680073
 10
103.21906657925
 20
137.1130673008
 10
103.10063551605
 20
137.2549667204
 10
103.00350770895
 20
137.4501411494
 10
102.93663259365
 20
137.6910820409
 10
102.90874534135
 20
137.9651005033
  0
LWPOLYLINE
  5
287
330
1F
100
AcDbEntity
  8
3
  6
Continuous
 62
     3
100
AcDbPolyline
 90
        7
 70
     0
 43
0.0
 10
88.51425609565
 20
137.0
 10
88.64984592465
 20
137.0279680073
 10
88.7809334206501
 20
137.1130673008
 10
88.89936448395
 20
137.2549667204
 10
88.99649229105
 20
137.4501411494
 10
89.06336740625
 20
137.6910820409
 10
89.09125465865
 20
137.9651005033
  0
LWPOLYLINE
  5
288
330
1F
100
AcDbEntity
  8
3
  6
Continuous
 62
     3
100
AcDbPolyline
 90
       10
 70
     0
 43
0.0
 10
102.79114960175
 20
143.7977839943
 10
103.56734036375
 20
144.219022993
 10
104.31428048485
 20
144.5344340447
 10
105.05032708735
 20
144.7478065488
 10
105.78584383585
 20
144.8563346825
 10
106.52430910155
 20
144.8562807271
 10
107.26632552935
 20
144.7476619658
 10
108.01513148145
 20
144.5342522017
 10
108.78078090455
 20
144.2189520058
 10
109.58229920355
 20
143.7977839943
  0
LWPOLYLINE
  5
289
330
1F
100
AcDbEntity
  8
3
  6
Continuous
 62
     3
100
AcDbPolyline
 90
       10
 70
     0
 43
0.0
 10
89.20885039825
 20
143.7977839943
 10
90.78671037225
 20
144.219022993
 10
92.29966810905
 20
144.5344340447
 10
93.78466705325
 20
144.7478065488
 10
95.26226482525
 20
144.8563346825
 10
96.7391920930501
 20
144.8562807271
 10
98.21665519215
 20
144.7476619658
 10
99.70135910345
 20
144.5342522017
 10
101.21358716025
 20
144.2189520058
 10
102.79114960175
 20
143.7977839943
  0
LWPOLYLINE
  5
28A
330
1F
100
AcDbEntity
  8
3
  6
Continuous
 62
     3
100
AcDbPolyline
 90
       10
 70
     0
 43
0.0
 10
82.41770079645
 20
143.7977839943
 10
83.21937000845
 20
144.219022993
 10
83.98538762415
 20
144.5344340447
 10
84.73433996585
 20
144.7478065488
 10
85.47642098935
 20
144.8563346825
 10
86.21488299155
 20
144.8562807271
 10
86.9503296627501
 20
144.7476619658
 10
87.68622762195
 20
144.5342522017
 10
88.43280625565
 20
144.2189520058
 10
89.20885039825
 20
143.7977839943
  0
LINE
  5
28B
330
1F
100
AcDbEntity
  8
1
 62
     4
100
AcDbLine
 10
88.22526137057594
 20
51.5210516017064
 30
0.0
 11
85.82526137057593
 21
50.8779735398717
 31
0.0
  0
LINE
  5
28C
330
1F
100
AcDbEntity
  8
1
 62
     4
100
AcDbLine
 10
88.22526137057594
 20
51.5210516017064
 30
0.0
 11
85.82526137057593
 21
52.16412966354109
 31
0.0
  0
LEADER
  5
28D
330
1F
100
AcDbEntity
  8
1
  6
Continuous
 62
     4
100
AcDbLeader
  3
Standard
 71
     0
 76
     2
 10
88.22526137057594
 20
51.5210516017064
 30
0.0
 10
78.03515720643293
 20
51.5210516017064
 30
0.0
  0
LINE
  5
28E
330
1F
100
AcDbEntity
  8
1
 62
     4
100
AcDbLine
 10
51.0
 20
98.0
 30
0.0
 11
49.53004355914719
 21
100.0031918169782
 31
0.0
  0
LINE
  5
28F
330
1F
100
AcDbEntity
  8
1
 62
     4
100
AcDbLine
 10
51.0
 20
98.0
 30
0.0
 11
50.728576288254
 21
100.4697932225826
 31
0.0
  0
LEADER
  5
290
330
1F
100
AcDbEntity
  8
1
  6
Continuous
 62
     4
100
AcDbLeader
  3
Standard
 71
     0
 76
     3
 10
51.0
 20
98.0
 30
0.0
 10
42.3499612000788
 20
120.218867078464
 30
0.0
 10
29.4631512806325
 20
120.218867078464
 30
0.0
  0
LINE
  5
291
330
1F
100
AcDbEntity
  8
1
 62
     4
100
AcDbLine
 10
121.226172510882
 20
111.1
 30
0.0
 11
122.6205919151268
 21
113.1564882490981
 31
0.0
  0
LINE
  5
292
330
1F
100
AcDbEntity
  8
1
 62
     4
100
AcDbLine
 10
121.226172510882
 20
111.1
 30
0.0
 11
123.462019263037
 21
112.1837613641807
 31
0.0
  0
LEADER
  5
293
330
1F
100
AcDbEntity
  8
1
  6
Continuous
 62
     4
100
AcDbLeader
  3
Standard
 71
     0
 76
     3
 10
121.226172510882
 20
111.1
 30
0.0
 10
131.408343311432
 20
119.907772361924
 30
0.0
 10
143.420122927706
 20
119.907772361924
 30
0.0
  0
ENDSEC
  0
SECTION
  2
OBJECTS
  0
DICTIONARY
  5
C
330
0
100
AcDbDictionary
281
     1
  3
ACAD_GROUP
350
D
  3
ACAD_LAYOUT
350
1A
  3
ACAD_MATERIAL
350
3B
  3
ACAD_MLEADERSTYLE
350
296
  3
ACAD_MLINESTYLE
350
17
  3
ACAD_PLOTSETTINGS
350
19
  3
ACAD_PLOTSTYLENAME
350
E
  3
ACAD_VISUALSTYLE
350
2A
  3
AcDbVariableDictionary
350
294
  0
DICTIONARY
  5
D
102
{ACAD_REACTORS
330
C
102
}
330
C
100
AcDbDictionary
281
     1
  0
DICTIONARY
  5
1A
102
{ACAD_REACTORS
330
C
102
}
330
C
100
AcDbDictionary
281
     1
  3
Layout1
350
1E
  3
Layout2
350
26
  3
Model
350
22
  0
DICTIONARY
  5
3B
102
{ACAD_REACTORS
330
C
102
}
330
C
100
AcDbDictionary
281
     1
  3
ByBlock
350
3D
  3
ByLayer
350
3C
  3
Global
350
3E
  0
DICTIONARY
  5
296
102
{ACAD_REACTORS
330
C
102
}
330
C
100
AcDbDictionary
281
     1
  0
DICTIONARY
  5
17
102
{ACAD_REACTORS
330
C
102
}
330
C
100
AcDbDictionary
281
     1
  3
Standard
350
18
  0
DICTIONARY
  5
19
102
{ACAD_REACTORS
330
C
102
}
330
C
100
AcDbDictionary
281
     1
  0
ACDBDICTIONARYWDFLT
  5
E
102
{ACAD_REACTORS
330
C
102
}
330
C
100
AcDbDictionary
281
     1
  3
Normal
350
F
100
AcDbDictionaryWithDefault
340
F
  0
DICTIONARY
  5
2A
102
{ACAD_REACTORS
330
C
102
}
330
C
100
AcDbDictionary
281
     1
  3
2dWireframe
350
2F
  3
3D Hidden
350
31
  3
3dWireframe
350
30
  3
Basic
350
32
  3
Brighten
350
36
  3
ColorChange
350
3A
  3
Conceptual
350
34
  3
Dim
350
35
  3
Facepattern
350
39
  3
Flat
350
2B
  3
FlatWithEdges
350
2C
  3
Gouraud
350
2D
  3
GouraudWithEdges
350
2E
  3
Linepattern
350
38
  3
Realistic
350
33
  3
Thicken
350
37
  0
DICTIONARY
  5
294
102
{ACAD_REACTORS
330
C
102
}
330
C
100
AcDbDictionary
281
     1
  3
DIMASSOC
350
297
  3
HIDETEXT
350
298
  0
LAYOUT
  5
1E
102
{ACAD_REACTORS
330
1A
102
}
330
1A
100
AcDbPlotSettings
  1

  2
none_device
  4

  6

 40
0.0
 41
0.0
 42
0.0
 43
0.0
 44
0.0
 45
0.0
 46
0.0
 47
0.0
 48
0.0
 49
0.0
140
0.0
141
0.0
142
1.0
143
1.0
 70
   688
 72
     0
 73
     0
 74
     5
  7

 75
    16
147
1.0
148
0.0
149
0.0
100
AcDbLayout
  1
Layout1
 70
     1
 71
     1
 10
0.0
 20
0.0
 11
12.0
 21
9.0
 12
0.0
 22
0.0
 32
0.0
 14
1.00000000000000E+20
 24
1.00000000000000E+20
 34
1.00000000000000E+20
 15
-1.00000000000000E+20
 25
-1.00000000000000E+20
 35
-1.00000000000000E+20
146
0.0
 13
0.0
 23
0.0
 33
0.0
 16
1.0
 26
0.0
 36
0.0
 17
0.0
 27
1.0
 37
0.0
 76
     0
330
1B
  0
LAYOUT
  5
26
102
{ACAD_REACTORS
330
1A
102
}
330
1A
100
AcDbPlotSettings
  1

  2
none_device
  4

  6

 40
0.0
 41
0.0
 42
0.0
 43
0.0
 44
0.0
 45
0.0
 46
0.0
 47
0.0
 48
0.0
 49
0.0
140
0.0
141
0.0
142
1.0
143
1.0
 70
   688
 72
     0
 73
     0
 74
     5
  7

 75
    16
147
1.0
148
0.0
149
0.0
100
AcDbLayout
  1
Layout2
 70
     1
 71
     2
 10
0.0
 20
0.0
 11
0.0
 21
0.0
 12
0.0
 22
0.0
 32
0.0
 14
0.0
 24
0.0
 34
0.0
 15
0.0
 25
0.0
 35
0.0
146
0.0
 13
0.0
 23
0.0
 33
0.0
 16
1.0
 26
0.0
 36
0.0
 17
0.0
 27
1.0
 37
0.0
 76
     0
330
23
  0
LAYOUT
  5
22
102
{ACAD_REACTORS
330
1A
102
}
330
1A
100
AcDbPlotSettings
  1

  2
none_device
  4

  6

 40
0.0
 41
0.0
 42
0.0
 43
0.0
 44
0.0
 45
0.0
 46
0.0
 47
0.0
 48
0.0
 49
0.0
140
0.0
141
0.0
142
1.0
143
1.0
 70
  1712
 72
     0
 73
     0
 74
     0
  7

 75
     0
147
1.0
148
0.0
149
0.0
100
AcDbLayout
  1
Model
 70
     1
 71
     0
 10
0.0
 20
0.0
 11
12.0
 21
9.0
 12
0.0
 22
0.0
 32
0.0
 14
-39.74007760977599
 24
20.70515606299139
 34
0.0
 15
143.420122927706
 25
225.4300114896552
 35
0.0
146
0.0
 13
0.0
 23
0.0
 33
0.0
 16
1.0
 26
0.0
 36
0.0
 17
0.0
 27
1.0
 37
0.0
 76
     0
330
1F
331
29
  0
MATERIAL
  5
3D
102
{ACAD_REACTORS
330
3B
102
}
102
{ACAD_XDICTIONARY
360
2BB
102
}
330
3B
100
AcDbMaterial
  1
ByBlock
  0
MATERIAL
  5
3C
102
{ACAD_REACTORS
330
3B
102
}
102
{ACAD_XDICTIONARY
360
2B9
102
}
330
3B
100
AcDbMaterial
  1
ByLayer
  0
MATERIAL
  5
3E
102
{ACAD_REACTORS
330
3B
102
}
102
{ACAD_XDICTIONARY
360
2BD
102
}
330
3B
100
AcDbMaterial
  1
Global
  0
MLINESTYLE
  5
18
102
{ACAD_REACTORS
330
17
102
}
330
17
100
AcDbMlineStyle
  2
Standard
 70
     0
  3

 62
   256
 51
90.0
 52
90.0
 71
     2
 49
0.5
 62
   256
  6
BYLAYER
 49
-0.5
 62
   256
  6
BYLAYER
  0
ACDBPLACEHOLDER
  5
F
102
{ACAD_REACTORS
330
E
102
}
330
E
  0
VISUALSTYLE
  5
2F
102
{ACAD_REACTORS
330
2A
102
}
102
{ACAD_XDICTIONARY
360
2A1
102
}
330
2A
100
AcDbVisualStyle
  2
2dWireframe
 70
     4
 71
     0
 72
     2
 73
     0
 90
        0
 40
-0.6
 41
-30.0
 62
     5
 63
     7
 74
     1
 91
        4
 64
     7
 65
   257
 75
     1
175
     1
 42
1.0
 92
        0
 66
   257
 43
1.0
 76
     1
 77
     6
 78
     2
 67
     7
 79
     5
170
     0
171
     0
290
     0
174
     0
 93
        1
 44
0.0
173
     0
291
     0
 45
0.0
1001
ACAD
1000
AcDbSavedByObjectVersion
1070
     0
  0
VISUALSTYLE
  5
31
102
{ACAD_REACTORS
330
2A
102
}
102
{ACAD_XDICTIONARY
360
2A5
102
}
330
2A
100
AcDbVisualStyle
  2
3D Hidden
 70
     6
 71
     1
 72
     2
 73
     2
 90
        0
 40
-0.6
 41
-30.0
 62
     5
 63
     7
 74
     2
 91
        2
 64
     7
 65
   257
 75
     2
175
     1
 42
40.0
 92
        0
 66
   257
 43
1.0
 76
     1
 77
     6
 78
     2
 67
     7
 79
     3
170
     0
171
     0
290
     0
174
     0
 93
        1
 44
0.0
173
     0
291
     0
 45
0.0
1001
ACAD
1000
AcDbSavedByObjectVersion
1070
     0
  0
VISUALSTYLE
  5
30
102
{ACAD_REACTORS
330
2A
102
}
102
{ACAD_XDICTIONARY
360
2A3
102
}
330
2A
100
AcDbVisualStyle
  2
3dWireframe
 70
     5
 71
     0
 72
     2
 73
     0
 90
        0
 40
-0.6
 41
-30.0
 62
     5
 63
     7
 74
     1
 91
        4
 64
     7
 65
   257
 75
     1
175
     1
 42
1.0
 92
        0
 66
   257
 43
1.0
 76
     1
 77
     6
 78
     2
 67
     7
 79
     5
170
     0
171
     0
290
     0
174
     0
 93
        1
 44
0.0
173
     0
291
     0
 45
0.0
1001
ACAD
1000
AcDbSavedByObjectVersion
1070
     0
  0
VISUALSTYLE
  5
32
102
{ACAD_REACTORS
330
2A
102
}
102
{ACAD_XDICTIONARY
360
2A7
102
}
330
2A
100
AcDbVisualStyle
  2
Basic
 70
     7
 71
     1
 72
     0
 73
     1
 90
        0
 40
-0.6
 41
-30.0
 62
     5
 63
     7
 74
     0
 91
        4
 64
     7
 65
   257
 75
     1
175
     1
 42
1.0
 92
        8
 66
     7
 43
1.0
 76
     1
 77
     6
 78
     2
 67
     7
 79
     5
170
     0
171
     0
290
     0
174
     0
 93
        1
 44
0.0
173
     0
291
     1
 45
0.0
1001
ACAD
1000
AcDbSavedByObjectVersion
1070
     0
  0
VISUALSTYLE
  5
36
102
{ACAD_REACTORS
330
2A
102
}
102
{ACAD_XDICTIONARY
360
2AF
102
}
330
2A
100
AcDbVisualStyle
  2
Brighten
 70
    12
 71
     2
 72
     2
 73
     0
 90
        0
 40
-0.6
 41
-30.0
 62
     5
 63
     7
 74
     1
 91
        4
 64
     7
 65
   257
 75
     1
175
     1
 42
1.0
 92
        8
 66
     7
 43
1.0
 76
     1
 77
     6
 78
     2
 67
     7
 79
     5
170
     0
171
     0
290
     0
174
     0
 93
        1
 44
50.0
173
     0
291
     1
 45
0.0
1001
ACAD
1000
AcDbSavedByObjectVersion
1070
     0
  0
VISUALSTYLE
  5
3A
102
{ACAD_REACTORS
330
2A
102
}
102
{ACAD_XDICTIONARY
360
2B7
102
}
330
2A
100
AcDbVisualStyle
  2
ColorChange
 70
    16
 71
     2
 72
     2
 73
     3
 90
        0
 40
-0.6
 41
-30.0
 62
     5
 63
     8
 74
     1
 91
        4
 64
     7
 65
   257
 75
     1
175
     1
 42
1.0
 92
        8
 66
     8
 43
1.0
 76
     1
 77
     6
 78
     2
 67
     7
 79
     5
170
     0
171
     0
290
     0
174
     0
 93
        1
 44
0.0
173
     0
291
     1
 45
0.0
1001
ACAD
1000
AcDbSavedByObjectVersion
1070
     0
  0
VISUALSTYLE
  5
34
102
{ACAD_REACTORS
330
2A
102
}
102
{ACAD_XDICTIONARY
360
2AB
102
}
330
2A
100
AcDbVisualStyle
  2
Conceptual
 70
     9
 71
     3
 72
     2
 73
     0
 90
        0
 40
-0.6
 41
-30.0
 62
     5
 63
     7
 74
     2
 91
        2
 64
     7
 65
   257
 75
     1
175
     1
 42
40.0
 92
        8
 66
     7
 43
1.0
 76
     1
 77
     6
 78
     2
 67
     7
 79
     3
170
     0
171
     0
290
     0
174
     0
 93
        1
 44
0.0
173
     0
291
     0
 45
0.0
1001
ACAD
1000
AcDbSavedByObjectVersion
1070
     0
  0
VISUALSTYLE
  5
35
102
{ACAD_REACTORS
330
2A
102
}
102
{ACAD_XDICTIONARY
360
2AD
102
}
330
2A
100
AcDbVisualStyle
  2
Dim
 70
    11
 71
     2
 72
     2
 73
     0
 90
        0
 40
-0.6
 41
-30.0
 62
     5
 63
     7
 74
     1
 91
        4
 64
     7
 65
   257
 75
     1
175
     1
 42
1.0
 92
        8
 66
     7
 43
1.0
 76
     1
 77
     6
 78
     2
 67
     7
 79
     5
170
     0
171
     0
290
     0
174
     0
 93
        1
 44
-50.0
173
     0
291
     1
 45
0.0
1001
ACAD
1000
AcDbSavedByObjectVersion
1070
     0
  0
VISUALSTYLE
  5
39
102
{ACAD_REACTORS
330
2A
102
}
102
{ACAD_XDICTIONARY
360
2B5
102
}
330
2A
100
AcDbVisualStyle
  2
Facepattern
 70
    15
 71
     2
 72
     2
 73
     0
 90
        0
 40
-0.6
 41
-30.0
 62
     5
 63
     7
 74
     1
 91
        4
 64
     7
 65
   257
 75
     1
175
     1
 42
1.0
 92
        8
 66
     7
 43
1.0
 76
     1
 77
     6
 78
     2
 67
     7
 79
     5
170
     0
171
     0
290
     0
174
     0
 93
        1
 44
0.0
173
     0
291
     1
 45
0.0
1001
ACAD
1000
AcDbSavedByObjectVersion
1070
     0
  0
VISUALSTYLE
  5
2B
102
{ACAD_REACTORS
330
2A
102
}
102
{ACAD_XDICTIONARY
360
299
102
}
330
2A
100
AcDbVisualStyle
  2
Flat
 70
     0
 71
     2
 72
     1
 73
     1
 90
        2
 40
-0.6
 41
30.0
 62
     5
 63
     7
 74
     0
 91
        4
 64
     7
 65
   257
 75
     1
175
     1
 42
1.0
 92
        8
 66
     7
 43
1.0
 76
     1
 77
     6
 78
     2
 67
     7
 79
     5
170
     0
171
     0
290
     0
174
     0
 93
       13
 44
0.0
173
     0
291
     1
 45
0.0
1001
ACAD
1000
AcDbSavedByObjectVersion
1070
     0
  0
VISUALSTYLE
  5
2C
102
{ACAD_REACTORS
330
2A
102
}
102
{ACAD_XDICTIONARY
360
29B
102
}
330
2A
100
AcDbVisualStyle
  2
FlatWithEdges
 70
     1
 71
     2
 72
     1
 73
     1
 90
        2
 40
-0.6
 41
30.0
 62
     5
 63
     7
 74
     1
 91
        4
 64
     7
 65
   257
 75
     1
175
     1
 42
1.0
 92
        0
 66
   257
 43
1.0
 76
     1
 77
     6
 78
     2
 67
     7
 79
     5
170
     0
171
     0
290
     0
174
     0
 93
       13
 44
0.0
173
     0
291
     1
 45
0.0
1001
ACAD
1000
AcDbSavedByObjectVersion
1070
     0
  0
VISUALSTYLE
  5
2D
102
{ACAD_REACTORS
330
2A
102
}
102
{ACAD_XDICTIONARY
360
29D
102
}
330
2A
100
AcDbVisualStyle
  2
Gouraud
 70
     2
 71
     2
 72
     2
 73
     1
 90
        2
 40
-0.6
 41
30.0
 62
     5
 63
     7
 74
     0
 91
        4
 64
     7
 65
   257
 75
     1
175
     1
 42
1.0
 92
        0
 66
     7
 43
1.0
 76
     1
 77
     6
 78
     2
 67
     7
 79
     5
170
     0
171
     0
290
     0
174
     0
 93
       13
 44
0.0
173
     0
291
     1
 45
0.0
1001
ACAD
1000
AcDbSavedByObjectVersion
1070
     0
  0
VISUALSTYLE
  5
2E
102
{ACAD_REACTORS
330
2A
102
}
102
{ACAD_XDICTIONARY
360
29F
102
}
330
2A
100
AcDbVisualStyle
  2
GouraudWithEdges
 70
     3
 71
     2
 72
     2
 73
     1
 90
        2
 40
-0.6
 41
30.0
 62
     5
 63
     7
 74
     1
 91
        4
 64
     7
 65
   257
 75
     1
175
     1
 42
1.0
 92
        0
 66
   257
 43
1.0
 76
     1
 77
     6
 78
     2
 67
     7
 79
     5
170
     0
171
     0
290
     0
174
     0
 93
       13
 44
0.0
173
     0
291
     1
 45
0.0
1001
ACAD
1000
AcDbSavedByObjectVersion
1070
     0
  0
VISUALSTYLE
  5
38
102
{ACAD_REACTORS
330
2A
102
}
102
{ACAD_XDICTIONARY
360
2B3
102
}
330
2A
100
AcDbVisualStyle
  2
Linepattern
 70
    14
 71
     2
 72
     2
 73
     0
 90
        0
 40
-0.6
 41
-30.0
 62
     5
 63
     7
 74
     1
 91
        4
 64
     7
 65
   257
 75
     7
175
     7
 42
1.0
 92
        8
 66
     7
 43
1.0
 76
     1
 77
     6
 78
     2
 67
     7
 79
     5
170
     0
171
     0
290
     0
174
     0
 93
        1
 44
0.0
173
     0
291
     1
 45
0.0
1001
ACAD
1000
AcDbSavedByObjectVersion
1070
     0
  0
VISUALSTYLE
  5
33
102
{ACAD_REACTORS
330
2A
102
}
102
{ACAD_XDICTIONARY
360
2A9
102
}
330
2A
100
AcDbVisualStyle
  2
Realistic
 70
     8
 71
     2
 72
     2
 73
     0
 90
        0
 40
-0.6
 41
-30.0
 62
     5
 63
     7
 74
     1
 91
        0
 64
     7
 65
   257
 75
     1
175
     1
 42
1.0
 92
        8
 66
     8
 43
1.0
 76
     1
 77
     6
 78
     2
 67
     7
 79
     5
170
     0
171
     0
290
     0
174
     0
 93
       13
 44
0.0
173
     0
291
     0
 45
0.0
1001
ACAD
1000
AcDbSavedByObjectVersion
1070
     0
  0
VISUALSTYLE
  5
37
102
{ACAD_REACTORS
330
2A
102
}
102
{ACAD_XDICTIONARY
360
2B1
102
}
330
2A
100
AcDbVisualStyle
  2
Thicken
 70
    13
 71
     2
 72
     2
 73
     0
 90
        0
 40
-0.6
 41
-30.0
 62
     5
 63
     7
 74
     1
 91
        4
 64
     7
 65
   257
 75
     1
175
     1
 42
1.0
 92
       12
 66
     7
 43
1.0
 76
     1
 77
     6
 78
     2
 67
     7
 79
     5
170
     0
171
     0
290
     0
174
     0
 93
        1
 44
0.0
173
     0
291
     1
 45
0.0
1001
ACAD
1000
AcDbSavedByObjectVersion
1070
     0
  0
DICTIONARYVAR
  5
297
102
{ACAD_REACTORS
330
294
102
}
330
294
100
DictionaryVariables
280
     0
  1
2
  0
DICTIONARYVAR
  5
298
102
{ACAD_REACTORS
330
294
102
}
330
294
100
DictionaryVariables
280
     0
  1
1
  0
DICTIONARY
  5
2BB
330
3D
100
AcDbDictionary
280
     1
281
     1
  3
ACAD_XREC_ROUNDTRIP
360
2BC
  0
DICTIONARY
  5
2B9
330
3C
100
AcDbDictionary
280
     1
281
     1
  3
ACAD_XREC_ROUNDTRIP
360
2BA
  0
DICTIONARY
  5
2BD
330
3E
100
AcDbDictionary
280
     1
281
     1
  3
ACAD_XREC_ROUNDTRIP
360
2BE
  0
DICTIONARY
  5
2A1
330
2F
100
AcDbDictionary
280
     1
281
     1
  3
ACAD_XREC_ROUNDTRIP
360
2A2
  0
DICTIONARY
  5
2A5
330
31
100
AcDbDictionary
280
     1
281
     1
  3
ACAD_XREC_ROUNDTRIP
360
2A6
  0
DICTIONARY
  5
2A3
330
30
100
AcDbDictionary
280
     1
281
     1
  3
ACAD_XREC_ROUNDTRIP
360
2A4
  0
DICTIONARY
  5
2A7
330
32
100
AcDbDictionary
280
     1
281
     1
  3
ACAD_XREC_ROUNDTRIP
360
2A8
  0
DICTIONARY
  5
2AF
330
36
100
AcDbDictionary
280
     1
281
     1
  3
ACAD_XREC_ROUNDTRIP
360
2B0
  0
DICTIONARY
  5
2B7
330
3A
100
AcDbDictionary
280
     1
281
     1
  3
ACAD_XREC_ROUNDTRIP
360
2B8
  0
DICTIONARY
  5
2AB
330
34
100
AcDbDictionary
280
     1
281
     1
  3
ACAD_XREC_ROUNDTRIP
360
2AC
  0
DICTIONARY
  5
2AD
330
35
100
AcDbDictionary
280
     1
281
     1
  3
ACAD_XREC_ROUNDTRIP
360
2AE
  0
DICTIONARY
  5
2B5
330
39
100
AcDbDictionary
280
     1
281
     1
  3
ACAD_XREC_ROUNDTRIP
360
2B6
  0
DICTIONARY
  5
299
330
2B
100
AcDbDictionary
280
     1
281
     1
  3
ACAD_XREC_ROUNDTRIP
360
29A
  0
DICTIONARY
  5
29B
330
2C
100
AcDbDictionary
280
     1
281
     1
  3
ACAD_XREC_ROUNDTRIP
360
29C
  0
DICTIONARY
  5
29D
330
2D
100
AcDbDictionary
280
     1
281
     1
  3
ACAD_XREC_ROUNDTRIP
360
29E
  0
DICTIONARY
  5
29F
330
2E
100
AcDbDictionary
280
     1
281
     1
  3
ACAD_XREC_ROUNDTRIP
360
2A0
  0
DICTIONARY
  5
2B3
330
38
100
AcDbDictionary
280
     1
281
     1
  3
ACAD_XREC_ROUNDTRIP
360
2B4
  0
DICTIONARY
  5
2A9
330
33
100
AcDbDictionary
280
     1
281
     1
  3
ACAD_XREC_ROUNDTRIP
360
2AA
  0
DICTIONARY
  5
2B1
330
37
100
AcDbDictionary
280
     1
281
     1
  3
ACAD_XREC_ROUNDTRIP
360
2B2
  0
XRECORD
  5
2BC
102
{ACAD_REACTORS
330
2BB
102
}
330
2BB
100
AcDbXrecord
280
     1
102
MATERIAL
148
0.0
149
0.0
149
0.0
 93
        0
 94
      127
282
     0
 72
     1
 77
     1
171
     1
175
     1
179
     1
273
     0
  0
XRECORD
  5
2BA
102
{ACAD_REACTORS
330
2B9
102
}
330
2B9
100
AcDbXrecord
280
     1
102
MATERIAL
148
0.0
149
0.0
149
0.0
 93
        0
 94
      127
282
     0
 72
     1
 77
     1
171
     1
175
     1
179
     1
273
     0
  0
XRECORD
  5
2BE
102
{ACAD_REACTORS
330
2BD
102
}
330
2BD
100
AcDbXrecord
280
     1
102
MATERIAL
148
0.0
149
0.0
149
0.0
 93
        0
 94
      127
282
     0
 72
     1
 77
     1
171
     1
175
     1
179
     1
273
     0
  0
XRECORD
  5
2A2
102
{ACAD_REACTORS
330
2A1
102
}
330
2A1
100
AcDbXrecord
280
     1
102
RTVSPropertyOp0
 70
     1
102
RTVSPropertyOp1
 70
     1
102
RTVSPropertyOp2
 70
     1
102
RTVSPropertyOp3
 70
     1
102
RTVSPropertyOp4
 70
     1
102
RTVSPropertyOp5
 70
     1
102
RTVSPropertyOp6
 70
     1
102
RTVSPropertyOp7
 70
     1
102
RTVSPropertyOp8
 70
     1
102
RTVSPropertyOp9
 70
     1
102
RTVSPropertyOp10
 70
     1
102
RTVSPropertyOp11
 70
     1
102
RTVSPropertyOp12
 70
     1
102
RTVSPropertyOp13
 70
     1
102
RTVSPropertyOp14
 70
     1
102
RTVSPropertyOp15
 70
     1
102
RTVSPropertyOp16
 70
     1
102
RTVSPropertyOp17
 70
     1
102
RTVSPropertyOp18
 70
     1
102
RTVSPropertyOp19
 70
     1
102
RTVSPropertyOp20
 70
     1
102
RTVSPropertyOp21
 70
     1
102
RTVSPropertyOp22
 70
     1
102
RTVSPropertyOp23
 70
     1
102
RTVSPropertyOp24
 70
     1
102
RTVSPropertyOp25
 70
     1
102
RTVSPropertyOp26
 70
     1
102
RTVSPropertyOp27
 70
     1
  0
XRECORD
  5
2A6
102
{ACAD_REACTORS
330
2A5
102
}
330
2A5
100
AcDbXrecord
280
     1
102
RTVSPropertyOp0
 70
     1
102
RTVSPropertyOp1
 70
     1
102
RTVSPropertyOp2
 70
     1
102
RTVSPropertyOp3
 70
     1
102
RTVSPropertyOp4
 70
     1
102
RTVSPropertyOp5
 70
     1
102
RTVSPropertyOp6
 70
     1
102
RTVSPropertyOp7
 70
     1
102
RTVSPropertyOp8
 70
     1
102
RTVSPropertyOp9
 70
     1
102
RTVSPropertyOp10
 70
     1
102
RTVSPropertyOp11
 70
     1
102
RTVSPropertyOp12
 70
     1
102
RTVSPropertyOp13
 70
     1
102
RTVSPropertyOp14
 70
     1
102
RTVSPropertyOp15
 70
     1
102
RTVSPropertyOp16
 70
     1
102
RTVSPropertyOp17
 70
     1
102
RTVSPropertyOp18
 70
     1
102
RTVSPropertyOp19
 70
     1
102
RTVSPropertyOp20
 70
     1
102
RTVSPropertyOp21
 70
     1
102
RTVSPropertyOp22
 70
     1
102
RTVSPropertyOp23
 70
     1
102
RTVSPropertyOp24
 70
     1
102
RTVSPropertyOp25
 70
     1
102
RTVSPropertyOp26
 70
     1
102
RTVSPropertyOp27
 70
     1
  0
XRECORD
  5
2A4
102
{ACAD_REACTORS
330
2A3
102
}
330
2A3
100
AcDbXrecord
280
     1
102
RTVSPropertyOp0
 70
     1
102
RTVSPropertyOp1
 70
     1
102
RTVSPropertyOp2
 70
     1
102
RTVSPropertyOp3
 70
     1
102
RTVSPropertyOp4
 70
     1
102
RTVSPropertyOp5
 70
     1
102
RTVSPropertyOp6
 70
     1
102
RTVSPropertyOp7
 70
     1
102
RTVSPropertyOp8
 70
     1
102
RTVSPropertyOp9
 70
     1
102
RTVSPropertyOp10
 70
     1
102
RTVSPropertyOp11
 70
     1
102
RTVSPropertyOp12
 70
     1
102
RTVSPropertyOp13
 70
     1
102
RTVSPropertyOp14
 70
     1
102
RTVSPropertyOp15
 70
     1
102
RTVSPropertyOp16
 70
     1
102
RTVSPropertyOp17
 70
     1
102
RTVSPropertyOp18
 70
     1
102
RTVSPropertyOp19
 70
     1
102
RTVSPropertyOp20
 70
     1
102
RTVSPropertyOp21
 70
     1
102
RTVSPropertyOp22
 70
     1
102
RTVSPropertyOp23
 70
     1
102
RTVSPropertyOp24
 70
     1
102
RTVSPropertyOp25
 70
     1
102
RTVSPropertyOp26
 70
     1
102
RTVSPropertyOp27
 70
     1
  0
XRECORD
  5
2A8
102
{ACAD_REACTORS
330
2A7
102
}
330
2A7
100
AcDbXrecord
280
     1
102
RTVSPropertyOp0
 70
     1
102
RTVSPropertyOp1
 70
     1
102
RTVSPropertyOp2
 70
     1
102
RTVSPropertyOp3
 70
     1
102
RTVSPropertyOp4
 70
     1
102
RTVSPropertyOp5
 70
     1
102
RTVSPropertyOp6
 70
     1
102
RTVSPropertyOp7
 70
     1
102
RTVSPropertyOp8
 70
     1
102
RTVSPropertyOp9
 70
     1
102
RTVSPropertyOp10
 70
     1
102
RTVSPropertyOp11
 70
     1
102
RTVSPropertyOp12
 70
     1
102
RTVSPropertyOp13
 70
     1
102
RTVSPropertyOp14
 70
     1
102
RTVSPropertyOp15
 70
     1
102
RTVSPropertyOp16
 70
     1
102
RTVSPropertyOp17
 70
     1
102
RTVSPropertyOp18
 70
     1
102
RTVSPropertyOp19
 70
     1
102
RTVSPropertyOp20
 70
     1
102
RTVSPropertyOp21
 70
     1
102
RTVSPropertyOp22
 70
     1
102
RTVSPropertyOp23
 70
     1
102
RTVSPropertyOp24
 70
     1
102
RTVSPropertyOp25
 70
     1
102
RTVSPropertyOp26
 70
     1
102
RTVSPropertyOp27
 70
     1
  0
XRECORD
  5
2B0
102
{ACAD_REACTORS
330
2AF
102
}
330
2AF
100
AcDbXrecord
280
     1
102
RTVSPropertyOp0
 70
     1
102
RTVSPropertyOp1
 70
     1
102
RTVSPropertyOp2
 70
     1
102
RTVSPropertyOp3
 70
     1
102
RTVSPropertyOp4
 70
     1
102
RTVSPropertyOp5
 70
     1
102
RTVSPropertyOp6
 70
     1
102
RTVSPropertyOp7
 70
     1
102
RTVSPropertyOp8
 70
     1
102
RTVSPropertyOp9
 70
     1
102
RTVSPropertyOp10
 70
     1
102
RTVSPropertyOp11
 70
     1
102
RTVSPropertyOp12
 70
     1
102
RTVSPropertyOp13
 70
     1
102
RTVSPropertyOp14
 70
     1
102
RTVSPropertyOp15
 70
     1
102
RTVSPropertyOp16
 70
     1
102
RTVSPropertyOp17
 70
     1
102
RTVSPropertyOp18
 70
     1
102
RTVSPropertyOp19
 70
     1
102
RTVSPropertyOp20
 70
     1
102
RTVSPropertyOp21
 70
     1
102
RTVSPropertyOp22
 70
     1
102
RTVSPropertyOp23
 70
     1
102
RTVSPropertyOp24
 70
     1
102
RTVSPropertyOp25
 70
     1
102
RTVSPropertyOp26
 70
     1
102
RTVSPropertyOp27
 70
     1
  0
XRECORD
  5
2B8
102
{ACAD_REACTORS
330
2B7
102
}
330
2B7
100
AcDbXrecord
280
     1
102
RTVSPropertyOp0
 70
     1
102
RTVSPropertyOp1
 70
     1
102
RTVSPropertyOp2
 70
     1
102
RTVSPropertyOp3
 70
     1
102
RTVSPropertyOp4
 70
     1
102
RTVSPropertyOp5
 70
     1
102
RTVSPropertyOp6
 70
     1
102
RTVSPropertyOp7
 70
     1
102
RTVSPropertyOp8
 70
     1
102
RTVSPropertyOp9
 70
     1
102
RTVSPropertyOp10
 70
     1
102
RTVSPropertyOp11
 70
     1
102
RTVSPropertyOp12
 70
     1
102
RTVSPropertyOp13
 70
     1
102
RTVSPropertyOp14
 70
     1
102
RTVSPropertyOp15
 70
     1
102
RTVSPropertyOp16
 70
     1
102
RTVSPropertyOp17
 70
     1
102
RTVSPropertyOp18
 70
     1
102
RTVSPropertyOp19
 70
     1
102
RTVSPropertyOp20
 70
     1
102
RTVSPropertyOp21
 70
     1
102
RTVSPropertyOp22
 70
     1
102
RTVSPropertyOp23
 70
     1
102
RTVSPropertyOp24
 70
     1
102
RTVSPropertyOp25
 70
     1
102
RTVSPropertyOp26
 70
     1
102
RTVSPropertyOp27
 70
     1
  0
XRECORD
  5
2AC
102
{ACAD_REACTORS
330
2AB
102
}
330
2AB
100
AcDbXrecord
280
     1
102
RTVSPropertyOp0
 70
     1
102
RTVSPropertyOp1
 70
     1
102
RTVSPropertyOp2
 70
     1
102
RTVSPropertyOp3
 70
     1
102
RTVSPropertyOp4
 70
     1
102
RTVSPropertyOp5
 70
     1
102
RTVSPropertyOp6
 70
     1
102
RTVSPropertyOp7
 70
     1
102
RTVSPropertyOp8
 70
     1
102
RTVSPropertyOp9
 70
     1
102
RTVSPropertyOp10
 70
     1
102
RTVSPropertyOp11
 70
     1
102
RTVSPropertyOp12
 70
     1
102
RTVSPropertyOp13
 70
     1
102
RTVSPropertyOp14
 70
     1
102
RTVSPropertyOp15
 70
     1
102
RTVSPropertyOp16
 70
     1
102
RTVSPropertyOp17
 70
     1
102
RTVSPropertyOp18
 70
     1
102
RTVSPropertyOp19
 70
     1
102
RTVSPropertyOp20
 70
     1
102
RTVSPropertyOp21
 70
     1
102
RTVSPropertyOp22
 70
     1
102
RTVSPropertyOp23
 70
     1
102
RTVSPropertyOp24
 70
     1
102
RTVSPropertyOp25
 70
     1
102
RTVSPropertyOp26
 70
     1
102
RTVSPropertyOp27
 70
     1
  0
XRECORD
  5
2AE
102
{ACAD_REACTORS
330
2AD
102
}
330
2AD
100
AcDbXrecord
280
     1
102
RTVSPropertyOp0
 70
     1
102
RTVSPropertyOp1
 70
     1
102
RTVSPropertyOp2
 70
     1
102
RTVSPropertyOp3
 70
     1
102
RTVSPropertyOp4
 70
     1
102
RTVSPropertyOp5
 70
     1
102
RTVSPropertyOp6
 70
     1
102
RTVSPropertyOp7
 70
     1
102
RTVSPropertyOp8
 70
     1
102
RTVSPropertyOp9
 70
     1
102
RTVSPropertyOp10
 70
     1
102
RTVSPropertyOp11
 70
     1
102
RTVSPropertyOp12
 70
     1
102
RTVSPropertyOp13
 70
     1
102
RTVSPropertyOp14
 70
     1
102
RTVSPropertyOp15
 70
     1
102
RTVSPropertyOp16
 70
     1
102
RTVSPropertyOp17
 70
     1
102
RTVSPropertyOp18
 70
     1
102
RTVSPropertyOp19
 70
     1
102
RTVSPropertyOp20
 70
     1
102
RTVSPropertyOp21
 70
     1
102
RTVSPropertyOp22
 70
     1
102
RTVSPropertyOp23
 70
     1
102
RTVSPropertyOp24
 70
     1
102
RTVSPropertyOp25
 70
     1
102
RTVSPropertyOp26
 70
     1
102
RTVSPropertyOp27
 70
     1
  0
XRECORD
  5
2B6
102
{ACAD_REACTORS
330
2B5
102
}
330
2B5
100
AcDbXrecord
280
     1
102
RTVSPropertyOp0
 70
     1
102
RTVSPropertyOp1
 70
     1
102
RTVSPropertyOp2
 70
     1
102
RTVSPropertyOp3
 70
     1
102
RTVSPropertyOp4
 70
     1
102
RTVSPropertyOp5
 70
     1
102
RTVSPropertyOp6
 70
     1
102
RTVSPropertyOp7
 70
     1
102
RTVSPropertyOp8
 70
     1
102
RTVSPropertyOp9
 70
     1
102
RTVSPropertyOp10
 70
     1
102
RTVSPropertyOp11
 70
     1
102
RTVSPropertyOp12
 70
     1
102
RTVSPropertyOp13
 70
     1
102
RTVSPropertyOp14
 70
     1
102
RTVSPropertyOp15
 70
     1
102
RTVSPropertyOp16
 70
     1
102
RTVSPropertyOp17
 70
     1
102
RTVSPropertyOp18
 70
     1
102
RTVSPropertyOp19
 70
     1
102
RTVSPropertyOp20
 70
     1
102
RTVSPropertyOp21
 70
     1
102
RTVSPropertyOp22
 70
     1
102
RTVSPropertyOp23
 70
     1
102
RTVSPropertyOp24
 70
     1
102
RTVSPropertyOp25
 70
     1
102
RTVSPropertyOp26
 70
     1
102
RTVSPropertyOp27
 70
     1
  0
XRECORD
  5
29A
102
{ACAD_REACTORS
330
299
102
}
330
299
100
AcDbXrecord
280
     1
102
RTVSPropertyOp0
 70
     1
102
RTVSPropertyOp1
 70
     1
102
RTVSPropertyOp2
 70
     1
102
RTVSPropertyOp3
 70
     1
102
RTVSPropertyOp4
 70
     1
102
RTVSPropertyOp5
 70
     1
102
RTVSPropertyOp6
 70
     1
102
RTVSPropertyOp7
 70
     1
102
RTVSPropertyOp8
 70
     1
102
RTVSPropertyOp9
 70
     1
102
RTVSPropertyOp10
 70
     1
102
RTVSPropertyOp11
 70
     1
102
RTVSPropertyOp12
 70
     1
102
RTVSPropertyOp13
 70
     1
102
RTVSPropertyOp14
 70
     1
102
RTVSPropertyOp15
 70
     1
102
RTVSPropertyOp16
 70
     1
102
RTVSPropertyOp17
 70
     1
102
RTVSPropertyOp18
 70
     1
102
RTVSPropertyOp19
 70
     1
102
RTVSPropertyOp20
 70
     1
102
RTVSPropertyOp21
 70
     1
102
RTVSPropertyOp22
 70
     1
102
RTVSPropertyOp23
 70
     1
102
RTVSPropertyOp24
 70
     1
102
RTVSPropertyOp25
 70
     1
102
RTVSPropertyOp26
 70
     1
102
RTVSPropertyOp27
 70
     1
  0
XRECORD
  5
29C
102
{ACAD_REACTORS
330
29B
102
}
330
29B
100
AcDbXrecord
280
     1
102
RTVSPropertyOp0
 70
     1
102
RTVSPropertyOp1
 70
     1
102
RTVSPropertyOp2
 70
     1
102
RTVSPropertyOp3
 70
     1
102
RTVSPropertyOp4
 70
     1
102
RTVSPropertyOp5
 70
     1
102
RTVSPropertyOp6
 70
     1
102
RTVSPropertyOp7
 70
     1
102
RTVSPropertyOp8
 70
     1
102
RTVSPropertyOp9
 70
     1
102
RTVSPropertyOp10
 70
     1
102
RTVSPropertyOp11
 70
     1
102
RTVSPropertyOp12
 70
     1
102
RTVSPropertyOp13
 70
     1
102
RTVSPropertyOp14
 70
     1
102
RTVSPropertyOp15
 70
     1
102
RTVSPropertyOp16
 70
     1
102
RTVSPropertyOp17
 70
     1
102
RTVSPropertyOp18
 70
     1
102
RTVSPropertyOp19
 70
     1
102
RTVSPropertyOp20
 70
     1
102
RTVSPropertyOp21
 70
     1
102
RTVSPropertyOp22
 70
     1
102
RTVSPropertyOp23
 70
     1
102
RTVSPropertyOp24
 70
     1
102
RTVSPropertyOp25
 70
     1
102
RTVSPropertyOp26
 70
     1
102
RTVSPropertyOp27
 70
     1
  0
XRECORD
  5
29E
102
{ACAD_REACTORS
330
29D
102
}
330
29D
100
AcDbXrecord
280
     1
102
RTVSPropertyOp0
 70
     1
102
RTVSPropertyOp1
 70
     1
102
RTVSPropertyOp2
 70
     1
102
RTVSPropertyOp3
 70
     1
102
RTVSPropertyOp4
 70
     1
102
RTVSPropertyOp5
 70
     1
102
RTVSPropertyOp6
 70
     1
102
RTVSPropertyOp7
 70
     1
102
RTVSPropertyOp8
 70
     1
102
RTVSPropertyOp9
 70
     1
102
RTVSPropertyOp10
 70
     1
102
RTVSPropertyOp11
 70
     1
102
RTVSPropertyOp12
 70
     1
102
RTVSPropertyOp13
 70
     1
102
RTVSPropertyOp14
 70
     1
102
RTVSPropertyOp15
 70
     1
102
RTVSPropertyOp16
 70
     1
102
RTVSPropertyOp17
 70
     1
102
RTVSPropertyOp18
 70
     1
102
RTVSPropertyOp19
 70
     1
102
RTVSPropertyOp20
 70
     1
102
RTVSPropertyOp21
 70
     1
102
RTVSPropertyOp22
 70
     1
102
RTVSPropertyOp23
 70
     1
102
RTVSPropertyOp24
 70
     1
102
RTVSPropertyOp25
 70
     1
102
RTVSPropertyOp26
 70
     1
102
RTVSPropertyOp27
 70
     1
  0
XRECORD
  5
2A0
102
{ACAD_REACTORS
330
29F
102
}
330
29F
100
AcDbXrecord
280
     1
102
RTVSPropertyOp0
 70
     1
102
RTVSPropertyOp1
 70
     1
102
RTVSPropertyOp2
 70
     1
102
RTVSPropertyOp3
 70
     1
102
RTVSPropertyOp4
 70
     1
102
RTVSPropertyOp5
 70
     1
102
RTVSPropertyOp6
 70
     1
102
RTVSPropertyOp7
 70
     1
102
RTVSPropertyOp8
 70
     1
102
RTVSPropertyOp9
 70
     1
102
RTVSPropertyOp10
 70
     1
102
RTVSPropertyOp11
 70
     1
102
RTVSPropertyOp12
 70
     1
102
RTVSPropertyOp13
 70
     1
102
RTVSPropertyOp14
 70
     1
102
RTVSPropertyOp15
 70
     1
102
RTVSPropertyOp16
 70
     1
102
RTVSPropertyOp17
 70
     1
102
RTVSPropertyOp18
 70
     1
102
RTVSPropertyOp19
 70
     1
102
RTVSPropertyOp20
 70
     1
102
RTVSPropertyOp21
 70
     1
102
RTVSPropertyOp22
 70
     1
102
RTVSPropertyOp23
 70
     1
102
RTVSPropertyOp24
 70
     1
102
RTVSPropertyOp25
 70
     1
102
RTVSPropertyOp26
 70
     1
102
RTVSPropertyOp27
 70
     1
  0
XRECORD
  5
2B4
102
{ACAD_REACTORS
330
2B3
102
}
330
2B3
100
AcDbXrecord
280
     1
102
RTVSPropertyOp0
 70
     1
102
RTVSPropertyOp1
 70
     1
102
RTVSPropertyOp2
 70
     1
102
RTVSPropertyOp3
 70
     1
102
RTVSPropertyOp4
 70
     1
102
RTVSPropertyOp5
 70
     1
102
RTVSPropertyOp6
 70
     1
102
RTVSPropertyOp7
 70
     1
102
RTVSPropertyOp8
 70
     1
102
RTVSPropertyOp9
 70
     1
102
RTVSPropertyOp10
 70
     1
102
RTVSPropertyOp11
 70
     1
102
RTVSPropertyOp12
 70
     1
102
RTVSPropertyOp13
 70
     1
102
RTVSPropertyOp14
 70
     1
102
RTVSPropertyOp15
 70
     1
102
RTVSPropertyOp16
 70
     1
102
RTVSPropertyOp17
 70
     1
102
RTVSPropertyOp18
 70
     1
102
RTVSPropertyOp19
 70
     1
102
RTVSPropertyOp20
 70
     1
102
RTVSPropertyOp21
 70
     1
102
RTVSPropertyOp22
 70
     1
102
RTVSPropertyOp23
 70
     1
102
RTVSPropertyOp24
 70
     1
102
RTVSPropertyOp25
 70
     1
102
RTVSPropertyOp26
 70
     1
102
RTVSPropertyOp27
 70
     1
  0
XRECORD
  5
2AA
102
{ACAD_REACTORS
330
2A9
102
}
330
2A9
100
AcDbXrecord
280
     1
102
RTVSPropertyOp0
 70
     1
102
RTVSPropertyOp1
 70
     1
102
RTVSPropertyOp2
 70
     1
102
RTVSPropertyOp3
 70
     1
102
RTVSPropertyOp4
 70
     1
102
RTVSPropertyOp5
 70
     1
102
RTVSPropertyOp6
 70
     1
102
RTVSPropertyOp7
 70
     1
102
RTVSPropertyOp8
 70
     1
102
RTVSPropertyOp9
 70
     1
102
RTVSPropertyOp10
 70
     1
102
RTVSPropertyOp11
 70
     1
102
RTVSPropertyOp12
 70
     1
102
RTVSPropertyOp13
 70
     1
102
RTVSPropertyOp14
 70
     1
102
RTVSPropertyOp15
 70
     1
102
RTVSPropertyOp16
 70
     1
102
RTVSPropertyOp17
 70
     1
102
RTVSPropertyOp18
 70
     1
102
RTVSPropertyOp19
 70
     1
102
RTVSPropertyOp20
 70
     1
102
RTVSPropertyOp21
 70
     1
102
RTVSPropertyOp22
 70
     1
102
RTVSPropertyOp23
 70
     1
102
RTVSPropertyOp24
 70
     1
102
RTVSPropertyOp25
 70
     1
102
RTVSPropertyOp26
 70
     1
102
RTVSPropertyOp27
 70
     1
  0
XRECORD
  5
2B2
102
{ACAD_REACTORS
330
2B1
102
}
330
2B1
100
AcDbXrecord
280
     1
102
RTVSPropertyOp0
 70
     1
102
RTVSPropertyOp1
 70
     1
102
RTVSPropertyOp2
 70
     1
102
RTVSPropertyOp3
 70
     1
102
RTVSPropertyOp4
 70
     1
102
RTVSPropertyOp5
 70
     1
102
RTVSPropertyOp6
 70
     1
102
RTVSPropertyOp7
 70
     1
102
RTVSPropertyOp8
 70
     1
102
RTVSPropertyOp9
 70
     1
102
RTVSPropertyOp10
 70
     1
102
RTVSPropertyOp11
 70
     1
102
RTVSPropertyOp12
 70
     1
102
RTVSPropertyOp13
 70
     1
102
RTVSPropertyOp14
 70
     1
102
RTVSPropertyOp15
 70
     1
102
RTVSPropertyOp16
 70
     1
102
RTVSPropertyOp17
 70
     1
102
RTVSPropertyOp18
 70
     1
102
RTVSPropertyOp19
 70
     1
102
RTVSPropertyOp20
 70
     1
102
RTVSPropertyOp21
 70
     1
102
RTVSPropertyOp22
 70
     1
102
RTVSPropertyOp23
 70
     1
102
RTVSPropertyOp24
 70
     1
102
RTVSPropertyOp25
 70
     1
102
RTVSPropertyOp26
 70
     1
102
RTVSPropertyOp27
 70
     1
  0
ENDSEC
  0
EOF
