  0
SECTION
  2
HEADER
  9
$ACADVER
  1
AC1015
  9
$ACADMAINTVER
 70
     6
  9
$DWGCODEPAGE
  3
DOS932
  9
$INSBASE
 10
0.0
 20
0.0
 30
0.0
  9
$EXTMIN
 10
47.45943126225495
 20
115.306525771945
 30
0.0
  9
$EXTMAX
 10
1315.94822895199
 20
431.27520163452
 30
0.0
  9
$LIMMIN
 10
0.0
 20
0.0
  9
$LIMMAX
 10
12.0
 20
9.0
  9
$ORTHOMODE
 70
     0
  9
$REGENMODE
 70
     1
  9
$FILLMODE
 70
     1
  9
$QTEXTMODE
 70
     0
  9
$MIRRTEXT
 70
     1
  9
$LTSCALE
 40
1.0
  9
$ATTMODE
 70
     1
  9
$TEXTSIZE
 40
0.2
  9
$TRACEWID
 40
0.05
  9
$TEXTSTYLE
  7
Standard
  9
$CLAYER
  8
0
  9
$CELTYPE
  6
ByLayer
  9
$CECOLOR
 62
   256
  9
$CELTSCALE
 40
1.0
  9
$DISPSILH
 70
     0
  9
$DIMSCALE
 40
1.0
  9
$DIMASZ
 40
0.18
  9
$DIMEXO
 40
0.0625
  9
$DIMDLI
 40
0.38
  9
$DIMRND
 40
0.0
  9
$DIMDLE
 40
0.0
  9
$DIMEXE
 40
0.18
  9
$DIMTP
 40
0.0
  9
$DIMTM
 40
0.0
  9
$DIMTXT
 40
0.18
  9
$DIMCEN
 40
0.09
  9
$DIMTSZ
 40
0.0
  9
$DIMTOL
 70
     0
  9
$DIMLIM
 70
     0
  9
$DIMTIH
 70
     1
  9
$DIMTOH
 70
     1
  9
$DIMSE1
 70
     0
  9
$DIMSE2
 70
     0
  9
$DIMTAD
 70
     0
  9
$DIMZIN
 70
     0
  9
$DIMBLK
  1

  9
$DIMASO
 70
     1
  9
$DIMSHO
 70
     1
  9
$DIMPOST
  1

  9
$DIMAPOST
  1

  9
$DIMALT
 70
     0
  9
$DIMALTD
 70
     2
  9
$DIMALTF
 40
25.4
  9
$DIMLFAC
 40
1.0
  9
$DIMTOFL
 70
     0
  9
$DIMTVP
 40
0.0
  9
$DIMTIX
 70
     0
  9
$DIMSOXD
 70
     0
  9
$DIMSAH
 70
     0
  9
$DIMBLK1
  1

  9
$DIMBLK2
  1

  9
$DIMSTYLE
  2
Standard
  9
$DIMCLRD
 70
     0
  9
$DIMCLRE
 70
     0
  9
$DIMCLRT
 70
     0
  9
$DIMTFAC
 40
1.0
  9
$DIMGAP
 40
0.09
  9
$DIMJUST
 70
     0
  9
$DIMSD1
 70
     0
  9
$DIMSD2
 70
     0
  9
$DIMTOLJ
 70
     1
  9
$DIMTZIN
 70
     0
  9
$DIMALTZ
 70
     0
  9
$DIMALTTZ
 70
     0
  9
$DIMUPT
 70
     0
  9
$DIMDEC
 70
     4
  9
$DIMTDEC
 70
     4
  9
$DIMALTU
 70
     2
  9
$DIMALTTD
 70
     2
  9
$DIMTXSTY
  7
Standard
  9
$DIMAUNIT
 70
     0
  9
$DIMADEC
 70
     0
  9
$DIMALTRND
 40
0.0
  9
$DIMAZIN
 70
     0
  9
$DIMDSEP
 70
    46
  9
$DIMATFIT
 70
     3
  9
$DIMFRAC
 70
     0
  9
$DIMLDRBLK
  1

  9
$DIMLUNIT
 70
     2
  9
$DIMLWD
 70
    -2
  9
$DIMLWE
 70
    -2
  9
$DIMTMOVE
 70
     0
  9
$LUNITS
 70
     2
  9
$LUPREC
 70
     4
  9
$SKETCHINC
 40
0.1
  9
$FILLETRAD
 40
0.5
  9
$AUNITS
 70
     0
  9
$AUPREC
 70
     0
  9
$MENU
  1
.
  9
$ELEVATION
 40
0.0
  9
$PELEVATION
 40
0.0
  9
$THICKNESS
 40
0.0
  9
$LIMCHECK
 70
     0
  9
$CHAMFERA
 40
0.5
  9
$CHAMFERB
 40
0.5
  9
$CHAMFERC
 40
1.0
  9
$CHAMFERD
 40
0.0
  9
$SKPOLY
 70
     0
  9
$TDCREATE
 40
2456317.589517639
  9
$TDUCREATE
 40
2456317.214517639
  9
$TDUPDATE
 40
2456317.589517651
  9
$TDUUPDATE
 40
2456317.214517651
  9
$TDINDWG
 40
0.0000000116
  9
$TDUSRTIMER
 40
0.0000000116
  9
$USRTIMER
 70
     1
  9
$ANGBASE
 50
0.0
  9
$ANGDIR
 70
     0
  9
$PDMODE
 70
     0
  9
$PDSIZE
 40
0.0
  9
$PLINEWID
 40
0.0
  9
$SPLFRAME
 70
     0
  9
$SPLINETYPE
 70
     6
  9
$SPLINESEGS
 70
     8
  9
$HANDSEED
  5
1BC
  9
$SURFTAB1
 70
     6
  9
$SURFTAB2
 70
     6
  9
$SURFTYPE
 70
     6
  9
$SURFU
 70
     6
  9
$SURFV
 70
     6
  9
$UCSBASE
  2

  9
$UCSNAME
  2

  9
$UCSORG
 10
0.0
 20
0.0
 30
0.0
  9
$UCSXDIR
 10
1.0
 20
0.0
 30
0.0
  9
$UCSYDIR
 10
0.0
 20
1.0
 30
0.0
  9
$UCSORTHOREF
  2

  9
$UCSORTHOVIEW
 70
     0
  9
$UCSORGTOP
 10
0.0
 20
0.0
 30
0.0
  9
$UCSORGBOTTOM
 10
0.0
 20
0.0
 30
0.0
  9
$UCSORGLEFT
 10
0.0
 20
0.0
 30
0.0
  9
$UCSORGRIGHT
 10
0.0
 20
0.0
 30
0.0
  9
$UCSORGFRONT
 10
0.0
 20
0.0
 30
0.0
  9
$UCSORGBACK
 10
0.0
 20
0.0
 30
0.0
  9
$PUCSBASE
  2

  9
$PUCSNAME
  2

  9
$PUCSORG
 10
0.0
 20
0.0
 30
0.0
  9
$PUCSXDIR
 10
1.0
 20
0.0
 30
0.0
  9
$PUCSYDIR
 10
0.0
 20
1.0
 30
0.0
  9
$PUCSORTHOREF
  2

  9
$PUCSORTHOVIEW
 70
     0
  9
$PUCSORGTOP
 10
0.0
 20
0.0
 30
0.0
  9
$PUCSORGBOTTOM
 10
0.0
 20
0.0
 30
0.0
  9
$PUCSORGLEFT
 10
0.0
 20
0.0
 30
0.0
  9
$PUCSORGRIGHT
 10
0.0
 20
0.0
 30
0.0
  9
$PUCSORGFRONT
 10
0.0
 20
0.0
 30
0.0
  9
$PUCSORGBACK
 10
0.0
 20
0.0
 30
0.0
  9
$USERI1
 70
     0
  9
$USERI2
 70
     0
  9
$USERI3
 70
     0
  9
$USERI4
 70
     0
  9
$USERI5
 70
     0
  9
$USERR1
 40
15.0
  9
$USERR2
 40
0.0
  9
$USERR3
 40
0.0
  9
$USERR4
 40
0.0
  9
$USERR5
 40
0.0
  9
$WORLDVIEW
 70
     1
  9
$SHADEDGE
 70
     3
  9
$SHADEDIF
 70
    70
  9
$TILEMODE
 70
     1
  9
$MAXACTVP
 70
    64
  9
$PINSBASE
 10
0.0
 20
0.0
 30
0.0
  9
$PLIMCHECK
 70
     0
  9
$PEXTMIN
 10
1.00000000000000E+20
 20
1.00000000000000E+20
 30
1.00000000000000E+20
  9
$PEXTMAX
 10
-1.00000000000000E+20
 20
-1.00000000000000E+20
 30
-1.00000000000000E+20
  9
$PLIMMIN
 10
0.0
 20
0.0
  9
$PLIMMAX
 10
12.0
 20
9.0
  9
$UNITMODE
 70
     0
  9
$VISRETAIN
 70
     1
  9
$PLINEGEN
 70
     0
  9
$PSLTSCALE
 70
     1
  9
$TREEDEPTH
 70
  3020
  9
$CMLSTYLE
  2
Standard
  9
$CMLJUST
 70
     0
  9
$CMLSCALE
 40
1.0
  9
$PROXYGRAPHICS
 70
     1
  9
$MEASUREMENT
 70
     1
  9
$CELWEIGHT
370
    -1
  9
$ENDCAPS
280
     0
  9
$JOINSTYLE
280
     0
  9
$LWDISPLAY
290
     0
  9
$INSUNITS
 70
     1
  9
$HYPERLINKBASE
  1

  9
$STYLESHEET
  1

  9
$XEDIT
290
     1
  9
$CEPSNTYPE
380
     0
  9
$PSTYLEMODE
290
     1
  9
$FINGERPRINTGUID
  2
{3E657CBE-FCA9-46A4-9533-5B28474A779A}
  9
$VERSIONGUID
  2
{FAEB1C32-E019-11D5-929B-00C0DF256EC4}
  9
$EXTNAMES
290
     1
  9
$PSVPSCALE
 40
0.0
  9
$OLESTARTUP
290
     0
  0
ENDSEC
  0
SECTION
  2
CLASSES
  0
CLASS
  1
ACDBDICTIONARYWDFLT
  2
AcDbDictionaryWithDefault
  3
ObjectDBX Classes
 90
        0
280
     0
281
     0
  0
CLASS
  1
VISUALSTYLE
  2
AcDbVisualStyle
  3
ObjectDBX Classes
 90
     4095
280
     0
281
     0
  0
CLASS
  1

  2
exOdDbCircle
  3

 90
        0
280
     0
281
     1
  0
CLASS
  1

  2
exOdDbSpline
  3

 90
        0
280
     0
281
     1
  0
CLASS
  1

  2
exOdDbPolyline
  3

 90
        0
280
     0
281
     1
  0
CLASS
  1
ACDBPLACEHOLDER
  2
AcDbPlaceHolder
  3
ObjectDBX Classes
 90
        0
280
     0
281
     0
  0
CLASS
  1
LAYOUT
  2
AcDbLayout
  3
ObjectDBX Classes
 90
        0
280
     0
281
     0
  0
ENDSEC
  0
SECTION
  2
TABLES
  0
TABLE
  2
VPORT
  5
8
330
0
100
AcDbSymbolTable
 70
     1
  0
VPORT
  5
29
330
8
100
AcDbSymbolTableRecord
100
AcDbViewportTableRecord
  2
*Active
 70
     0
 10
0.0
 20
0.0
 11
1.0
 21
1.0
 12
681.7038301071225
 22
273.2908637032325
 13
0.0
 23
0.0
 14
0.5
 24
0.5
 15
0.5
 25
0.5
 16
0.0
 26
0.0
 36
1.0
 17
0.0
 27
0.0
 37
0.0
 40
870.6285229825928
 41
1.60267857142857
 42
50.0
 43
0.0
 44
0.0
 50
0.0
 51
0.0
 71
     0
 72
   100
 73
     1
 74
     3
 75
     0
 76
     0
 77
     0
 78
     0
281
     0
 65
     1
110
0.0
120
0.0
130
0.0
111
1.0
121
0.0
131
0.0
112
0.0
122
1.0
132
0.0
 79
     0
146
0.0
  0
ENDTAB
  0
TABLE
  2
LTYPE
  5
5
330
0
100
AcDbSymbolTable
 70
     8
  0
LTYPE
  5
14
330
5
100
AcDbSymbolTableRecord
100
AcDbLinetypeTableRecord
  2
ByBlock
 70
     0
  3

 72
    65
 73
     0
 40
0.0
  0
LTYPE
  5
15
330
5
100
AcDbSymbolTableRecord
100
AcDbLinetypeTableRecord
  2
ByLayer
 70
     0
  3

 72
    65
 73
     0
 40
0.0
  0
LTYPE
  5
16
330
5
100
AcDbSymbolTableRecord
100
AcDbLinetypeTableRecord
  2
Continuous
 70
     0
  3
Solid line
 72
    65
 73
     0
 40
0.0
  0
LTYPE
  5
3B
330
5
100
AcDbSymbolTableRecord
100
AcDbLinetypeTableRecord
  2
DASHED
 70
     0
  3
Dashed
 72
    65
 73
     2
 40
15.0
 49
7.0
 74
     0
 49
-8.0
 74
     0
  0
LTYPE
  5
3C
330
5
100
AcDbSymbolTableRecord
100
AcDbLinetypeTableRecord
  2
DOTTED
 70
     0
  3
Dotted
 72
    65
 73
     2
 40
1.0
 49
0.0
 74
     0
 49
-1.0
 74
     0
  0
LTYPE
  5
3D
330
5
100
AcDbSymbolTableRecord
100
AcDbLinetypeTableRecord
  2
DOT_CENTER
 70
     0
  3
Dot_Center
 72
    65
 73
     4
 40
14.0
 49
12.0
 74
     0
 49
-1.0
 74
     0
 49
0.0
 74
     0
 49
-1.0
 74
     0
  0
LTYPE
  5
3E
330
5
100
AcDbSymbolTableRecord
100
AcDbLinetypeTableRecord
  2
LONG_DASHED
 70
     0
  3
Long_Dashed
 72
    65
 73
     2
 40
15.0
 49
10.0
 74
     0
 49
-5.0
 74
     0
  0
LTYPE
  5
3F
330
5
100
AcDbSymbolTableRecord
100
AcDbLinetypeTableRecord
  2
DASH_CENTER
 70
     0
  3
Dash_Center
 72
    65
 73
     4
 40
14.0
 49
11.0
 74
     0
 49
-1.0
 74
     0
 49
1.0
 74
     0
 49
-1.0
 74
     0
  0
LTYPE
  5
40
330
5
100
AcDbSymbolTableRecord
100
AcDbLinetypeTableRecord
  2
PHANTOM
 70
     0
  3
Phantom
 72
    65
 73
     6
 40
13.0
 49
10.0
 74
     0
 49
-1.0
 74
     0
 49
0.0
 74
     0
 49
-1.0
 74
     0
 49
0.0
 74
     0
 49
-1.0
 74
     0
  0
LTYPE
  5
41
330
5
100
AcDbSymbolTableRecord
100
AcDbLinetypeTableRecord
  2
CENTER_DASH_DASH
 70
     0
  3
Center_Dash_Dash
 72
    65
 73
     6
 40
14.0
 49
9.0
 74
     0
 49
-1.0
 74
     0
 49
1.0
 74
     0
 49
-1.0
 74
     0
 49
1.0
 74
     0
 49
-1.0
 74
     0
  0
ENDTAB
  0
TABLE
  2
LAYER
  5
2
330
0
100
AcDbSymbolTable
 70
     7
  0
LAYER
  5
10
330
2
100
AcDbSymbolTableRecord
100
AcDbLayerTableRecord
  2
0
 70
     0
 62
     7
  6
Continuous
370
    -3
390
F
  0
LAYER
  5
42
330
2
100
AcDbSymbolTableRecord
100
AcDbLayerTableRecord
  2
00_オリジナル
 70
     0
 62
     7
  6
Continuous
370
    -3
390
F
  0
LAYER
  5
43
330
2
100
AcDbSymbolTableRecord
100
AcDbLayerTableRecord
  2
1
 70
     0
 62
     7
  6
Continuous
370
    -3
390
F
  0
LAYER
  5
44
330
2
100
AcDbSymbolTableRecord
100
AcDbLayerTableRecord
  2
4A
 70
     0
 62
     7
  6
Continuous
370
    -3
390
F
  0
LAYER
  5
45
330
2
100
AcDbSymbolTableRecord
100
AcDbLayerTableRecord
  2
OBJECT
 70
     0
 62
     7
  6
Continuous
370
    -3
390
F
  0
LAYER
  5
46
330
2
100
AcDbSymbolTableRecord
100
AcDbLayerTableRecord
  2
_______1
 70
     0
 62
     7
  6
Continuous
370
    -3
390
F
  0
LAYER
  5
47
330
2
100
AcDbSymbolTableRecord
100
AcDbLayerTableRecord
  2
レイヤー_1
 70
     0
 62
     7
  6
Continuous
370
    -3
390
F
  0
ENDTAB
  0
TABLE
  2
STYLE
  5
3
330
0
100
AcDbSymbolTable
 70
     2
  0
STYLE
  5
11
330
3
100
AcDbSymbolTableRecord
100
AcDbTextStyleTableRecord
  2
Standard
 70
     0
 40
0.0
 41
1.0
 50
0.0
 71
     0
 42
0.2
  3
txt
  4

  0
STYLE
  5
1B9
330
3
100
AcDbSymbolTableRecord
100
AcDbTextStyleTableRecord
  2
CONVERTER_11
 70
     0
 40
0.0
 41
0.9
 50
0.0
 71
     0
 42
0.2
  3
txt.shx
  4

  0
ENDTAB
  0
TABLE
  2
VIEW
  5
6
330
0
100
AcDbSymbolTable
 70
     0
  0
ENDTAB
  0
TABLE
  2
UCS
  5
7
330
0
100
AcDbSymbolTable
 70
     0
  0
ENDTAB
  0
TABLE
  2
APPID
  5
9
330
0
100
AcDbSymbolTable
 70
     1
  0
APPID
  5
12
330
9
100
AcDbSymbolTableRecord
100
AcDbRegAppTableRecord
  2
ACAD
 70
     0
  0
ENDTAB
  0
TABLE
  2
DIMSTYLE
  5
A
330
0
100
AcDbSymbolTable
 70
     1
100
AcDbDimStyleTable
  0
DIMSTYLE
105
27
330
A
100
AcDbSymbolTableRecord
100
AcDbDimStyleTableRecord
  2
Standard
 70
     0
340
11
  0
ENDTAB
  0
TABLE
  2
BLOCK_RECORD
  5
1
330
0
100
AcDbSymbolTable
 70
     1
  0
BLOCK_RECORD
  5
1F
330
1
100
AcDbSymbolTableRecord
100
AcDbBlockTableRecord
  2
*Model_Space
340
22
  0
BLOCK_RECORD
  5
1B
330
1
100
AcDbSymbolTableRecord
100
AcDbBlockTableRecord
  2
*Paper_Space
340
1E
  0
BLOCK_RECORD
  5
23
330
1
100
AcDbSymbolTableRecord
100
AcDbBlockTableRecord
  2
*Paper_Space0
340
26
  0
ENDTAB
  0
ENDSEC
  0
SECTION
  2
BLOCKS
  0
BLOCK
  5
20
330
1F
100
AcDbEntity
  8
0
100
AcDbBlockBegin
  2
*Model_Space
 70
     0
 71
     0
 10
0.0
 20
0.0
 30
0.0
  3
*Model_Space
  1

  0
ENDBLK
  5
21
330
1F
100
AcDbEntity
  8
0
100
AcDbBlockEnd
  0
BLOCK
  5
1C
330
1B
100
AcDbEntity
 67
     1
  8
0
100
AcDbBlockBegin
  2
*Paper_Space
 70
     0
 71
     0
 10
0.0
 20
0.0
 30
0.0
  3
*Paper_Space
  1

  0
ENDBLK
  5
1D
330
1B
100
AcDbEntity
 67
     1
  8
0
100
AcDbBlockEnd
  0
BLOCK
  5
24
330
23
100
AcDbEntity
  8
0
100
AcDbBlockBegin
  2
*Paper_Space0
 70
     0
 71
     0
 10
0.0
 20
0.0
 30
0.0
  3
*Paper_Space0
  1

  0
ENDBLK
  5
25
330
23
100
AcDbEntity
  8
0
100
AcDbBlockEnd
  0
ENDSEC
  0
SECTION
  2
ENTITIES
  0
POINT
  5
48
330
1F
100
AcDbEntity
  8
1
 62
     3
 60
     1
100
AcDbPoint
 10
443.9709781127472
 20
1243.4852524643
 30
0.0
  0
POINT
  5
49
330
1F
100
AcDbEntity
  8
1
 62
     3
 60
     1
100
AcDbPoint
 10
508.9709781127472
 20
1243.4852524643
 30
0.0
  0
POINT
  5
4A
330
1F
100
AcDbEntity
  8
1
 62
     3
 60
     1
100
AcDbPoint
 10
461.4993059142183
 20
1260.64540607408
 30
0.0
  0
POINT
  5
4B
330
1F
100
AcDbEntity
  8
1
 62
     3
 60
     1
100
AcDbPoint
 10
461.4993059142183
 20
1223.64540607408
 30
0.0
  0
POINT
  5
4C
330
1F
100
AcDbEntity
  8
1
 62
     3
 60
     1
100
AcDbPoint
 10
521.3277687459736
 20
1170.591494492983
 30
0.0
  0
POINT
  5
4D
330
1F
100
AcDbEntity
  8
1
 62
     3
 60
     1
100
AcDbPoint
 10
433.3277687459735
 20
1299.591494492983
 30
0.0
  0
POINT
  5
4E
330
1F
100
AcDbEntity
  8
1
 62
     3
 60
     1
100
AcDbPoint
 10
502.4780279142182
 20
1263.466634222547
 30
0.0
  0
POINT
  5
4F
330
1F
100
AcDbEntity
  8
1
 62
     3
 60
     1
100
AcDbPoint
 10
502.4780279142182
 20
1223.376919222547
 30
0.0
  0
POINT
  5
50
330
1F
100
AcDbEntity
  8
1
 62
     4
100
AcDbPoint
 10
72.6157135067491
 20
192.749708613459
 30
0.0
  0
POINT
  5
51
330
1F
100
AcDbEntity
  8
1
 62
     1
100
AcDbPoint
 10
237.438389911853
 20
117.344395116253
 30
0.0
  0
LINE
  5
52
330
1F
100
AcDbEntity
  8
レイヤー_1
  6
Continuous
 62
     3
100
AcDbLine
 10
586.6180969142183
 20
323.4919882225468
 30
0.0
 11
589.6237699142183
 21
320.9942942225466
 31
0.0
  0
LINE
  5
53
330
1F
100
AcDbEntity
  8
レイヤー_1
  6
Continuous
 62
     3
100
AcDbLine
 10
586.6180969142183
 20
323.4919882225468
 30
0.0
 11
586.6180969142183
 21
318.4965992225467
 31
0.0
  0
LINE
  5
54
330
1F
100
AcDbEntity
  8
レイヤー_1
  6
Continuous
 62
     3
100
AcDbLine
 10
586.6180969142183
 20
313.4590082225467
 30
0.0
 11
589.6237699142183
 21
315.9567032225467
 31
0.0
  0
LINE
  5
55
330
1F
100
AcDbEntity
  8
レイヤー_1
  6
Continuous
 62
     3
100
AcDbLine
 10
586.6180969142183
 20
313.4590082225467
 30
0.0
 11
586.6180969142183
 21
318.4965992225467
 31
0.0
  0
LINE
  5
56
330
1F
100
AcDbEntity
  8
レイヤー_1
  6
Continuous
 62
     3
100
AcDbLine
 10
618.093904133063
 20
320.4863142225468
 30
0.0
 11
589.6237699142183
 21
320.4863142225468
 31
0.0
  0
LINE
  5
57
330
1F
100
AcDbEntity
  8
レイヤー_1
  6
Continuous
 62
     3
100
AcDbLine
 10
618.2299011746384
 20
316.4646822225467
 30
0.0
 11
589.6237699142183
 21
316.4646822225467
 31
0.0
  0
LINE
  5
58
330
1F
100
AcDbEntity
  8
レイヤー_1
  6
Continuous
 62
     3
100
AcDbLine
 10
621.5759039142183
 20
318.4965992225467
 30
0.0
 11
618.093904133063
 21
320.4863142225468
 31
0.0
  0
LINE
  5
59
330
1F
100
AcDbEntity
  8
レイヤー_1
  6
Continuous
 62
     3
100
AcDbLine
 10
621.5759039142183
 20
318.4965992225467
 30
0.0
 11
618.2299011746384
 21
316.4646822225467
 31
0.0
  0
LINE
  5
5A
330
1F
100
AcDbEntity
  8
レイヤー_1
  6
Continuous
 62
     3
100
AcDbLine
 10
589.6237699142183
 20
320.9942942225466
 30
0.0
 11
589.6237699142183
 21
318.4965992225467
 31
0.0
  0
LINE
  5
5B
330
1F
100
AcDbEntity
  8
レイヤー_1
  6
Continuous
 62
     3
100
AcDbLine
 10
589.6237699142183
 20
315.9567032225467
 30
0.0
 11
589.6237699142183
 21
318.4965992225467
 31
0.0
  0
LINE
  5
5C
330
1F
100
AcDbEntity
  8
レイヤー_1
  6
Continuous
 62
     3
100
AcDbLine
 10
589.6237699142183
 20
295.9567032225467
 30
0.0
 11
589.6237699142183
 21
298.4965992225467
 31
0.0
  0
LINE
  5
5D
330
1F
100
AcDbEntity
  8
レイヤー_1
  6
Continuous
 62
     3
100
AcDbLine
 10
589.6237699142183
 20
300.9942942225466
 30
0.0
 11
589.6237699142183
 21
298.4965992225467
 31
0.0
  0
LINE
  5
5E
330
1F
100
AcDbEntity
  8
レイヤー_1
  6
Continuous
 62
     3
100
AcDbLine
 10
621.5759039142183
 20
298.4965992225467
 30
0.0
 11
618.2299011746384
 21
296.4646822225467
 31
0.0
  0
LINE
  5
5F
330
1F
100
AcDbEntity
  8
レイヤー_1
  6
Continuous
 62
     3
100
AcDbLine
 10
621.5759039142183
 20
298.4965992225467
 30
0.0
 11
618.093904133063
 21
300.4863142225468
 31
0.0
  0
LINE
  5
60
330
1F
100
AcDbEntity
  8
レイヤー_1
  6
Continuous
 62
     3
100
AcDbLine
 10
618.2299011746384
 20
296.4646822225467
 30
0.0
 11
589.6237699142183
 21
296.4646822225467
 31
0.0
  0
LINE
  5
61
330
1F
100
AcDbEntity
  8
レイヤー_1
  6
Continuous
 62
     3
100
AcDbLine
 10
618.093904133063
 20
300.4863142225468
 30
0.0
 11
589.6237699142183
 21
300.4863142225468
 31
0.0
  0
LINE
  5
62
330
1F
100
AcDbEntity
  8
レイヤー_1
  6
Continuous
 62
     3
100
AcDbLine
 10
586.6180969142183
 20
293.4590082225467
 30
0.0
 11
586.6180969142183
 21
298.4965992225467
 31
0.0
  0
LINE
  5
63
330
1F
100
AcDbEntity
  8
レイヤー_1
  6
Continuous
 62
     3
100
AcDbLine
 10
586.6180969142183
 20
293.4590082225467
 30
0.0
 11
589.6237699142183
 21
295.9567032225467
 31
0.0
  0
LINE
  5
64
330
1F
100
AcDbEntity
  8
レイヤー_1
  6
Continuous
 62
     3
100
AcDbLine
 10
586.6180969142183
 20
303.4919882225468
 30
0.0
 11
586.6180969142183
 21
298.4965992225467
 31
0.0
  0
LINE
  5
65
330
1F
100
AcDbEntity
  8
レイヤー_1
  6
Continuous
 62
     3
100
AcDbLine
 10
586.6180969142183
 20
303.4919882225468
 30
0.0
 11
589.6237699142183
 21
300.9942942225466
 31
0.0
  0
LINE
  5
66
330
1F
100
AcDbEntity
  8
レイヤー_1
  6
Continuous
 62
     3
100
AcDbLine
 10
488.6180969142183
 20
303.4919882225468
 30
0.0
 11
491.6237699142183
 21
300.9942942225466
 31
0.0
  0
LINE
  5
67
330
1F
100
AcDbEntity
  8
レイヤー_1
  6
Continuous
 62
     3
100
AcDbLine
 10
488.6180969142183
 20
303.4919882225468
 30
0.0
 11
488.6180969142183
 21
298.4965992225467
 31
0.0
  0
LINE
  5
68
330
1F
100
AcDbEntity
  8
レイヤー_1
  6
Continuous
 62
     3
100
AcDbLine
 10
488.6180969142183
 20
293.4590082225467
 30
0.0
 11
491.6237699142183
 21
295.9567032225467
 31
0.0
  0
LINE
  5
69
330
1F
100
AcDbEntity
  8
レイヤー_1
  6
Continuous
 62
     3
100
AcDbLine
 10
488.6180969142183
 20
293.4590082225467
 30
0.0
 11
488.6180969142183
 21
298.4965992225467
 31
0.0
  0
LINE
  5
6A
330
1F
100
AcDbEntity
  8
レイヤー_1
  6
Continuous
 62
     3
100
AcDbLine
 10
520.093904133063
 20
300.4863142225468
 30
0.0
 11
491.6237699142183
 21
300.4863142225468
 31
0.0
  0
LINE
  5
6B
330
1F
100
AcDbEntity
  8
レイヤー_1
  6
Continuous
 62
     3
100
AcDbLine
 10
520.2299011746384
 20
296.4646822225467
 30
0.0
 11
491.6237699142183
 21
296.4646822225467
 31
0.0
  0
LINE
  5
6C
330
1F
100
AcDbEntity
  8
レイヤー_1
  6
Continuous
 62
     3
100
AcDbLine
 10
523.5759039142183
 20
298.4965992225467
 30
0.0
 11
520.093904133063
 21
300.4863142225468
 31
0.0
  0
LINE
  5
6D
330
1F
100
AcDbEntity
  8
レイヤー_1
  6
Continuous
 62
     3
100
AcDbLine
 10
523.5759039142183
 20
298.4965992225467
 30
0.0
 11
520.2299011746384
 21
296.4646822225467
 31
0.0
  0
LINE
  5
6E
330
1F
100
AcDbEntity
  8
レイヤー_1
  6
Continuous
 62
     3
100
AcDbLine
 10
491.6237699142183
 20
300.9942942225466
 30
0.0
 11
491.6237699142183
 21
298.4965992225467
 31
0.0
  0
LINE
  5
6F
330
1F
100
AcDbEntity
  8
レイヤー_1
  6
Continuous
 62
     3
100
AcDbLine
 10
491.6237699142183
 20
295.9567032225467
 30
0.0
 11
491.6237699142183
 21
298.4965992225467
 31
0.0
  0
LINE
  5
70
330
1F
100
AcDbEntity
  8
レイヤー_1
  6
Continuous
 62
     3
100
AcDbLine
 10
527.9847629142183
 20
340.4666342225467
 30
0.0
 11
527.9847629142183
 21
380.4666342225467
 31
0.0
  0
LINE
  5
71
330
1F
100
AcDbEntity
  8
1
  6
DOT_CENTER
 62
     1
100
AcDbLine
 10
465.9709781127472
 20
360.4852524642997
 30
0.0
 11
534.4777131127473
 21
360.4852524642997
 31
0.0
  0
LINE
  5
72
330
1F
100
AcDbEntity
  8
1
  6
DOT_CENTER
 62
     1
100
AcDbLine
 10
483.4993059142183
 20
377.6454060740798
 30
0.0
 11
483.4993059142183
 21
340.6454060740798
 31
0.0
  0
LINE
  5
73
330
1F
100
AcDbEntity
  8
1
  6
Continuous
 62
     3
100
AcDbLine
 10
529.9847629142183
 20
342.4852524642997
 30
0.0
 11
529.9847629142183
 21
378.4852524642997
 31
0.0
  0
LINE
  5
74
330
1F
100
AcDbEntity
  8
1
  6
Continuous
 62
     3
100
AcDbLine
 10
527.9847629142183
 20
378.4852524642997
 30
0.0
 11
529.9847629142183
 21
378.4852524642997
 31
0.0
  0
LINE
  5
75
330
1F
100
AcDbEntity
  8
1
  6
Continuous
 62
     3
100
AcDbLine
 10
527.9847629142183
 20
342.4852524642997
 30
0.0
 11
529.9847629142183
 21
342.4852524642997
 31
0.0
  0
LINE
  5
76
330
1F
100
AcDbEntity
  8
1
  6
Continuous
 62
     3
100
AcDbLine
 10
527.9847629142183
 20
340.4666342225467
 30
0.0
 11
502.9847629142183
 21
340.9852524642997
 31
0.0
  0
LINE
  5
77
330
1F
100
AcDbEntity
  8
1
  6
Continuous
 62
     3
100
AcDbLine
 10
504.9847629142183
 20
380.02674192364
 30
0.0
 11
527.9847629142183
 21
380.5038707060528
 31
0.0
  0
LINE
  5
78
330
1F
100
AcDbEntity
  8
1
  6
Continuous
 62
     3
100
AcDbLine
 10
504.9847629142183
 20
377.9852524642997
 30
0.0
 11
504.9847629142183
 21
380.02674192364
 31
0.0
  0
LINE
  5
79
330
1F
100
AcDbEntity
  8
1
  6
Continuous
 62
     3
100
AcDbLine
 10
504.9847629142183
 20
377.9852524642997
 30
0.0
 11
500.9847629142183
 21
377.9852524642997
 31
0.0
  0
LINE
  5
7A
330
1F
100
AcDbEntity
  8
1
  6
Continuous
 62
     3
100
AcDbLine
 10
602.9847629142183
 20
377.9852524642997
 30
0.0
 11
598.9847629142183
 21
377.9852524642997
 31
0.0
  0
LINE
  5
7B
330
1F
100
AcDbEntity
  8
1
  6
Continuous
 62
     3
100
AcDbLine
 10
602.9847629142183
 20
377.9852524642997
 30
0.0
 11
602.9847629142183
 21
380.02674192364
 31
0.0
  0
LINE
  5
7C
330
1F
100
AcDbEntity
  8
1
  6
Continuous
 62
     3
100
AcDbLine
 10
602.9847629142183
 20
380.02674192364
 30
0.0
 11
625.9847629142183
 21
380.5038707060528
 31
0.0
  0
LINE
  5
7D
330
1F
100
AcDbEntity
  8
1
  6
Continuous
 62
     3
100
AcDbLine
 10
625.9847629142183
 20
340.4666342225467
 30
0.0
 11
600.9847629142183
 21
340.9852524642997
 31
0.0
  0
LINE
  5
7E
330
1F
100
AcDbEntity
  8
1
  6
Continuous
 62
     3
100
AcDbLine
 10
625.9847629142183
 20
342.4852524642997
 30
0.0
 11
627.9847629142183
 21
342.4852524642997
 31
0.0
  0
LINE
  5
7F
330
1F
100
AcDbEntity
  8
1
  6
Continuous
 62
     3
100
AcDbLine
 10
625.9847629142183
 20
378.4852524642997
 30
0.0
 11
627.9847629142183
 21
378.4852524642997
 31
0.0
  0
LINE
  5
80
330
1F
100
AcDbEntity
  8
1
  6
Continuous
 62
     3
100
AcDbLine
 10
627.9847629142183
 20
342.4852524642997
 30
0.0
 11
627.9847629142183
 21
378.4852524642997
 31
0.0
  0
LINE
  5
81
330
1F
100
AcDbEntity
  8
レイヤー_1
  6
Continuous
 62
     3
100
AcDbLine
 10
491.6237699142183
 20
315.9567032225467
 30
0.0
 11
491.6237699142183
 21
318.4965992225467
 31
0.0
  0
LINE
  5
82
330
1F
100
AcDbEntity
  8
レイヤー_1
  6
Continuous
 62
     3
100
AcDbLine
 10
491.6237699142183
 20
320.9942942225466
 30
0.0
 11
491.6237699142183
 21
318.4965992225467
 31
0.0
  0
LINE
  5
83
330
1F
100
AcDbEntity
  8
1
  6
DOT_CENTER
 62
     1
100
AcDbLine
 10
581.4993059142183
 20
377.6454060740798
 30
0.0
 11
581.4993059142183
 21
340.6454060740798
 31
0.0
  0
LINE
  5
84
330
1F
100
AcDbEntity
  8
1
  6
DOT_CENTER
 62
     1
100
AcDbLine
 10
563.9709781127472
 20
360.4852524642997
 30
0.0
 11
632.4777131127473
 21
360.4852524642997
 31
0.0
  0
LINE
  5
85
330
1F
100
AcDbEntity
  8
レイヤー_1
  6
Continuous
 62
     3
100
AcDbLine
 10
625.9847629142183
 20
340.4666342225467
 30
0.0
 11
625.9847629142183
 21
380.4666342225467
 31
0.0
  0
LINE
  5
86
330
1F
100
AcDbEntity
  8
レイヤー_1
  6
Continuous
 62
     3
100
AcDbLine
 10
523.5759039142183
 20
318.4965992225467
 30
0.0
 11
520.2299011746384
 21
316.4646822225467
 31
0.0
  0
LINE
  5
87
330
1F
100
AcDbEntity
  8
レイヤー_1
  6
Continuous
 62
     3
100
AcDbLine
 10
523.5759039142183
 20
318.4965992225467
 30
0.0
 11
520.093904133063
 21
320.4863142225468
 31
0.0
  0
LINE
  5
88
330
1F
100
AcDbEntity
  8
レイヤー_1
  6
Continuous
 62
     3
100
AcDbLine
 10
520.2299011746384
 20
316.4646822225467
 30
0.0
 11
491.6237699142183
 21
316.4646822225467
 31
0.0
  0
LINE
  5
89
330
1F
100
AcDbEntity
  8
レイヤー_1
  6
Continuous
 62
     3
100
AcDbLine
 10
520.093904133063
 20
320.4863142225468
 30
0.0
 11
491.6237699142183
 21
320.4863142225468
 31
0.0
  0
LINE
  5
8A
330
1F
100
AcDbEntity
  8
レイヤー_1
  6
Continuous
 62
     3
100
AcDbLine
 10
488.6180969142183
 20
313.4590082225467
 30
0.0
 11
488.6180969142183
 21
318.4965992225467
 31
0.0
  0
LINE
  5
8B
330
1F
100
AcDbEntity
  8
レイヤー_1
  6
Continuous
 62
     3
100
AcDbLine
 10
488.6180969142183
 20
313.4590082225467
 30
0.0
 11
491.6237699142183
 21
315.9567032225467
 31
0.0
  0
LINE
  5
8C
330
1F
100
AcDbEntity
  8
レイヤー_1
  6
Continuous
 62
     3
100
AcDbLine
 10
488.6180969142183
 20
323.4919882225468
 30
0.0
 11
488.6180969142183
 21
318.4965992225467
 31
0.0
  0
LINE
  5
8D
330
1F
100
AcDbEntity
  8
レイヤー_1
  6
Continuous
 62
     3
100
AcDbLine
 10
488.6180969142183
 20
323.4919882225468
 30
0.0
 11
491.6237699142183
 21
320.9942942225466
 31
0.0
  0
LINE
  5
99
330
1F
100
AcDbEntity
  8
1
  6
DOT_CENTER
 62
     1
100
AcDbLine
 10
99.3693968808102
 20
219.50339198752
 30
0.0
 11
70.4943931631891
 21
190.628388269899
 31
0.0
  0
LINE
  5
9A
330
1F
100
AcDbEntity
  8
1
  6
DOT_CENTER
 62
     1
100
AcDbLine
 10
287.177244248077
 20
273.104802075537
 30
0.0
 11
189.670419494163
 21
370.611626829468
 31
0.0
  0
LINE
  5
9B
330
1F
100
AcDbEntity
  8
1
  6
DOT_CENTER
 62
     1
100
AcDbLine
 10
250.481602676206
 20
370.611626829468
 30
0.0
 11
189.670419494163
 21
309.800443647425
 31
0.0
  0
LINE
  5
9C
330
1F
100
AcDbEntity
  8
OBJECT
  6
Continuous
 62
     3
100
AcDbLine
 10
119.183059797727
 20
184.162891874155
 30
0.0
 11
119.70540395017
 21
183.640547721712
 31
0.0
  0
LINE
  5
9D
330
1F
100
AcDbEntity
  8
1
  6
Continuous
 62
     3
100
AcDbLine
 10
66.5797187387351
 20
242.606490263488
 30
0.0
 11
63.5065526150021
 21
239.83939905688
 31
0.0
  0
LINE
  5
9E
330
1F
100
AcDbEntity
  8
1
  6
Continuous
 62
     3
100
AcDbLine
 10
122.472495156778
 20
186.713713845444
 30
0.0
 11
119.70540395017
 21
183.640547721712
 31
0.0
  0
LINE
  5
9F
330
1F
100
AcDbEntity
  8
_______1
  6
Continuous
 62
     3
100
AcDbLine
 10
193.746336980905
 20
312.460672496708
 30
0.0
 11
195.868230687727
 21
314.582993648176
 31
0.0
  0
LINE
  5
A0
330
1F
100
AcDbEntity
  8
_______1
  6
Continuous
 62
     3
100
AcDbLine
 10
192.331980997002
 20
313.874743623207
 30
0.0
 11
194.453874703825
 21
315.997064774676
 31
0.0
  0
LINE
  5
A1
330
1F
100
AcDbEntity
  8
_______1
  6
Continuous
 62
     3
100
AcDbLine
 10
247.81606981999
 20
366.541297407206
 30
0.0
 11
245.694176113167
 21
364.418976255738
 31
0.0
  0
LINE
  5
A2
330
1F
100
AcDbEntity
  8
_______1
  6
Continuous
 62
     3
100
AcDbLine
 10
246.401713836087
 20
367.955368533705
 30
0.0
 11
244.279820129264
 21
365.833047382237
 31
0.0
  0
LINE
  5
A3
330
1F
100
AcDbEntity
  8
OBJECT
  6
Continuous
 62
     3
100
AcDbLine
 10
243.275018362923
 20
317.011700340957
 30
0.0
 11
243.275018362923
 21
317.011700340957
 31
0.0
  0
LINE
  5
A4
330
1F
100
AcDbEntity
  8
0
  6
Continuous
 62
     3
100
AcDbLine
 10
228.231252777361
 20
305.914841285911
 30
0.0
 11
229.00828995611
 21
303.016066855938
 31
0.0
  0
LINE
  5
A5
330
1F
100
AcDbEntity
  8
0
  6
Continuous
 62
     3
100
AcDbLine
 10
230.163052287618
 20
306.432673934715
 30
0.0
 11
230.940089466368
 21
303.533899504742
 31
0.0
  0
LINE
  5
A6
330
1F
100
AcDbEntity
  8
0
  6
Continuous
 62
     3
100
AcDbLine
 10
209.99180191973
 20
306.430642441671
 30
0.0
 11
209.215348641225
 21
303.5317115561
 31
0.0
  0
LINE
  5
A7
330
1F
100
AcDbEntity
  8
0
  6
Continuous
 62
     3
100
AcDbLine
 10
211.923705695034
 20
305.913198915316
 30
0.0
 11
211.147252416529
 21
303.014268029744
 31
0.0
  0
LINE
  5
A8
330
1F
100
AcDbEntity
  8
_______1
  6
Continuous
 62
     3
100
AcDbLine
 10
246.407302300494
 20
312.465976103714
 30
0.0
 11
244.284981149026
 21
314.587869810536
 31
0.0
  0
LINE
  5
A9
330
1F
100
AcDbEntity
  8
0
  6
Continuous
 62
     3
100
AcDbLine
 10
185.779203808604
 20
348.358340228668
 30
0.0
 11
182.880272923032
 21
349.134793507173
 31
0.0
  0
LINE
  5
AA
330
1F
100
AcDbEntity
  8
0
  6
Continuous
 62
     3
100
AcDbLine
 10
186.296647334959
 20
350.290244003972
 30
0.0
 11
183.397716449387
 21
351.066697282477
 31
0.0
  0
LINE
  5
AB
330
1F
100
AcDbEntity
  8
0
  6
Continuous
 62
     3
100
AcDbLine
 10
186.298678828004
 20
330.118993636084
 30
0.0
 11
183.399904398031
 21
329.341956457335
 31
0.0
  0
LINE
  5
AC
330
1F
100
AcDbEntity
  8
0
  6
Continuous
 62
     3
100
AcDbLine
 10
185.780846179199
 20
332.050793146342
 30
0.0
 11
182.882071749226
 21
331.273755967592
 31
0.0
  0
LINE
  5
AD
330
1F
100
AcDbEntity
  8
_______1
  6
Continuous
 62
     3
100
AcDbLine
 10
192.326677389996
 20
366.535708942799
 30
0.0
 11
194.448998541465
 21
364.413815235976
 31
0.0
  0
LINE
  5
AE
330
1F
100
AcDbEntity
  8
0
  6
Continuous
 62
     3
100
AcDbLine
 10
254.368847008386
 20
332.057700801745
 30
0.0
 11
257.267777893958
 21
331.28124752324
 31
0.0
  0
LINE
  5
AF
330
1F
100
AcDbEntity
  8
0
  6
Continuous
 62
     3
100
AcDbLine
 10
253.851403482031
 20
330.125797026441
 30
0.0
 11
256.750334367603
 21
329.349343747936
 31
0.0
  0
LINE
  5
B0
330
1F
100
AcDbEntity
  8
0
  6
Continuous
 62
     3
100
AcDbLine
 10
253.849371988987
 20
350.297047394329
 30
0.0
 11
256.74814641896
 21
351.074084573079
 31
0.0
  0
LINE
  5
B1
330
1F
100
AcDbEntity
  8
0
  6
Continuous
 62
     3
100
AcDbLine
 10
254.367204637791
 20
348.365247884071
 30
0.0
 11
257.265979067764
 21
349.142285062821
 31
0.0
  0
LINE
  5
B2
330
1F
100
AcDbEntity
  8
_______1
  6
Continuous
 62
     3
100
AcDbLine
 10
247.821373426993
 20
313.880332087616
 30
0.0
 11
245.699052275525
 21
316.002225794439
 31
0.0
  0
LINE
  5
B3
330
1F
100
AcDbEntity
  8
0
  6
Continuous
 62
     3
100
AcDbLine
 10
211.91679803963
 20
374.501199744504
 30
0.0
 11
211.139760860881
 21
377.399974174477
 31
0.0
  0
LINE
  5
B4
330
1F
100
AcDbEntity
  8
0
  6
Continuous
 62
     3
100
AcDbLine
 10
209.984998529372
 20
373.983367095699
 30
0.0
 11
209.207961350623
 21
376.882141525672
 31
0.0
  0
LINE
  5
B5
330
1F
100
AcDbEntity
  8
0
  6
Continuous
 62
     3
100
AcDbLine
 10
230.156248897261
 20
373.985398588743
 30
0.0
 11
230.932702175766
 21
376.884329474315
 31
0.0
  0
LINE
  5
B6
330
1F
100
AcDbEntity
  8
0
  6
Continuous
 62
     3
100
AcDbLine
 10
228.224345121957
 20
374.502842115099
 30
0.0
 11
229.000798400462
 21
377.40177300067
 31
0.0
  0
LINE
  5
B7
330
1F
100
AcDbEntity
  8
_______1
  6
Continuous
 62
     3
100
AcDbLine
 10
193.740748516495
 20
367.950064926701
 30
0.0
 11
195.863069667964
 21
365.828171219878
 31
0.0
  0
LINE
  5
B8
330
1F
100
AcDbEntity
  8
OBJECT
  6
Continuous
 62
     3
100
AcDbLine
 10
237.974872986619
 20
118.555703243229
 30
0.0
 11
237.974872986571
 21
143.876925569399
 31
0.0
  0
LINE
  5
B9
330
1F
100
AcDbEntity
  8
OBJECT
  6
Continuous
 62
     3
100
AcDbLine
 10
119.647789999233
 20
182.991054891463
 30
0.0
 11
63.3217070351241
 21
239.317137855572
 31
0.0
  0
LINE
  5
BA
330
1F
100
AcDbEntity
  8
OBJECT
  6
Continuous
 62
     3
100
AcDbLine
 10
237.974872986619
 20
117.843062325176
 30
0.0
 11
237.974872986619
 21
118.555703243229
 31
0.0
  0
LINE
  5
BB
330
1F
100
AcDbEntity
  8
4A
  6
Continuous
 62
     3
100
AcDbLine
 10
62.6146002539381
 20
239.317137855572
 30
0.0
 11
48.3381109186961
 21
225.040648520327
 31
0.0
  0
LINE
  5
BC
330
1F
100
AcDbEntity
  8
4A
  6
Continuous
 62
     3
100
AcDbLine
 10
238.837759678563
 20
300.231083209471
 30
0.0
 11
274.005800260802
 21
265.063042627232
 31
0.0
  0
LINE
  5
BD
330
1F
100
AcDbEntity
  8
4A
  6
Continuous
 62
     3
100
AcDbLine
 10
296.819459477313
 20
284.675790281915
 30
0.0
 11
260.05096311416
 21
321.444286645068
 31
0.0
  0
LINE
  5
BE
330
1F
100
AcDbEntity
  8
1
  6
Continuous
 62
     3
100
AcDbLine
 10
1300.17487298658
 20
146.306525771945
 30
0.0
 11
1279.47487298658
 21
146.306525771945
 31
0.0
  0
LINE
  5
BF
330
1F
100
AcDbEntity
  8
1
  6
Continuous
 62
     3
100
AcDbLine
 10
1300.67487298658
 20
145.806525771945
 30
0.0
 11
1300.17487298658
 21
146.306525771945
 31
0.0
  0
LINE
  5
C0
330
1F
100
AcDbEntity
  8
0
  6
Continuous
 62
     3
100
AcDbLine
 10
283.474872986576
 20
130.806525771944
 30
0.0
 11
283.474872986576
 21
139.356525771945
 31
0.0
  0
LINE
  5
C1
330
1F
100
AcDbEntity
  8
0
  6
Continuous
 62
     3
100
AcDbLine
 10
278.974872986576
 20
139.356525771945
 30
0.0
 11
283.474872986576
 21
139.356525771945
 31
0.0
  0
LINE
  5
C2
330
1F
100
AcDbEntity
  8
0
  6
Continuous
 62
     3
100
AcDbLine
 10
278.080639861879
 20
140.976639512746
 30
0.0
 11
251.474892781762
 21
143.806519173549
 31
0.0
  0
LINE
  5
C3
330
1F
100
AcDbEntity
  8
0
  6
Continuous
 62
     3
100
AcDbLine
 10
278.974872986576
 20
139.982248559403
 30
0.0
 11
278.974872986577
 21
130.806525771945
 31
0.0
  0
LINE
  5
C4
330
1F
100
AcDbEntity
  8
0
  6
Continuous
 62
     3
100
AcDbLine
 10
249.674867048021
 20
143.306492779969
 30
0.0
 11
248.774878925132
 21
143.306492779969
 31
0.0
  0
LINE
  5
C5
330
1F
100
AcDbEntity
  8
0
  6
Continuous
 62
     3
100
AcDbLine
 10
251.474892781762
 20
143.306492779969
 30
0.0
 11
250.57485517091
 21
143.306492779969
 31
0.0
  0
LINE
  5
C6
330
1F
100
AcDbEntity
  8
0
  6
Continuous
 62
     3
100
AcDbLine
 10
250.57485517091
 20
130.806525771945
 30
0.0
 11
250.57485517091
 21
143.806519173549
 31
0.0
  0
LINE
  5
C7
330
1F
100
AcDbEntity
  8
0
  6
Continuous
 62
     3
100
AcDbLine
 10
250.57485517091
 20
143.806519173549
 30
0.0
 11
249.674867048021
 21
143.806519173549
 31
0.0
  0
LINE
  5
C8
330
1F
100
AcDbEntity
  8
0
  6
Continuous
 62
     3
100
AcDbLine
 10
249.674867048021
 20
130.806525771945
 30
0.0
 11
249.674867048021
 21
143.806519173549
 31
0.0
  0
LINE
  5
C9
330
1F
100
AcDbEntity
  8
0
  6
Continuous
 62
     3
100
AcDbLine
 10
248.774878925132
 20
130.806525771945
 30
0.0
 11
248.774878925132
 21
143.806519173549
 31
0.0
  0
LINE
  5
CA
330
1F
100
AcDbEntity
  8
0
  6
Continuous
 62
     3
100
AcDbLine
 10
248.774878925132
 20
143.806519173549
 30
0.0
 11
237.974872986577
 21
143.306519173549
 31
0.0
  0
LINE
  5
CB
330
1F
100
AcDbEntity
  8
0
  6
Continuous
 62
     3
100
AcDbLine
 10
251.474892781762
 20
130.806525771945
 30
0.0
 11
251.474892781762
 21
143.806519173549
 31
0.0
  0
LINE
  5
CC
330
1F
100
AcDbEntity
  8
0
  6
Continuous
 62
     3
100
AcDbLine
 10
1264.12487298658
 20
130.806525771945
 30
0.0
 11
1264.12487298658
 21
141.806525771946
 31
0.0
  0
LINE
  5
CD
330
1F
100
AcDbEntity
  8
1
  6
Continuous
 62
     3
100
AcDbLine
 10
1255.97487298658
 20
130.806525771945
 30
0.0
 11
1255.97487298657
 21
139.356525771945
 31
0.0
  0
LINE
  5
CE
330
1F
100
AcDbEntity
  8
0
  6
Continuous
 62
     3
100
AcDbLine
 10
1255.97487298658
 20
138.806525773186
 30
0.0
 11
283.474872986576
 21
138.806525771945
 31
0.0
  0
LINE
  5
CF
330
1F
100
AcDbEntity
  8
0
  6
Continuous
 62
     3
100
AcDbLine
 10
1264.12487298658
 20
139.356525771945
 30
0.0
 11
1255.97487298657
 21
139.356525771945
 31
0.0
  0
LINE
  5
D0
330
1F
100
AcDbEntity
  8
0
  6
DOT_CENTER
 62
     1
100
AcDbLine
 10
1315.94822895199
 20
130.806525771945
 30
0.0
 11
241.852437526367
 21
130.806525771945
 31
0.0
  0
LINE
  5
D1
330
1F
100
AcDbEntity
  8
0
  6
Continuous
 62
     3
100
AcDbLine
 10
1255.97487298658
 20
122.256525771945
 30
0.0
 11
1264.12487298658
 21
122.256525771945
 31
0.0
  0
LINE
  5
D2
330
1F
100
AcDbEntity
  8
0
  6
Continuous
 62
     3
100
AcDbLine
 10
283.474872986576
 20
122.806525771944
 30
0.0
 11
1255.97487298658
 21
122.806525771944
 31
0.0
  0
LINE
  5
D3
330
1F
100
AcDbEntity
  8
1
  6
Continuous
 62
     3
100
AcDbLine
 10
1255.97487298658
 20
122.256525771945
 30
0.0
 11
1255.97487298658
 21
130.806525771945
 31
0.0
  0
LINE
  5
D4
330
1F
100
AcDbEntity
  8
0
  6
Continuous
 62
     3
100
AcDbLine
 10
1264.12487298658
 20
119.806525771944
 30
0.0
 11
1264.12487298658
 21
130.806525771945
 31
0.0
  0
LINE
  5
D5
330
1F
100
AcDbEntity
  8
0
  6
Continuous
 62
     3
100
AcDbLine
 10
251.474892781762
 20
117.806532370341
 30
0.0
 11
251.474892781762
 21
130.806525771945
 31
0.0
  0
LINE
  5
D6
330
1F
100
AcDbEntity
  8
0
  6
Continuous
 62
     3
100
AcDbLine
 10
237.974872986577
 20
118.306532370341
 30
0.0
 11
248.774878925132
 21
117.806532370341
 31
0.0
  0
LINE
  5
D7
330
1F
100
AcDbEntity
  8
0
  6
Continuous
 62
     3
100
AcDbLine
 10
248.774878925132
 20
117.806532370341
 30
0.0
 11
248.774878925132
 21
130.806525771945
 31
0.0
  0
LINE
  5
D8
330
1F
100
AcDbEntity
  8
0
  6
Continuous
 62
     3
100
AcDbLine
 10
249.674867048021
 20
117.806532370341
 30
0.0
 11
249.674867048021
 21
130.806525771945
 31
0.0
  0
LINE
  5
D9
330
1F
100
AcDbEntity
  8
0
  6
Continuous
 62
     3
100
AcDbLine
 10
249.674867048021
 20
117.806532370341
 30
0.0
 11
250.57485517091
 21
117.806532370341
 31
0.0
  0
LINE
  5
DA
330
1F
100
AcDbEntity
  8
0
  6
Continuous
 62
     3
100
AcDbLine
 10
250.57485517091
 20
117.806532370341
 30
0.0
 11
250.57485517091
 21
130.806525771945
 31
0.0
  0
LINE
  5
DB
330
1F
100
AcDbEntity
  8
0
  6
Continuous
 62
     3
100
AcDbLine
 10
250.57485517091
 20
118.306558763921
 30
0.0
 11
251.474892781762
 21
118.306558763921
 31
0.0
  0
LINE
  5
DC
330
1F
100
AcDbEntity
  8
0
  6
Continuous
 62
     3
100
AcDbLine
 10
248.774878925132
 20
118.306558763921
 30
0.0
 11
249.674867048021
 21
118.306558763921
 31
0.0
  0
LINE
  5
DD
330
1F
100
AcDbEntity
  8
0
  6
Continuous
 62
     3
100
AcDbLine
 10
278.974872986577
 20
130.806525771945
 30
0.0
 11
278.974872986576
 21
121.630802984487
 31
0.0
  0
LINE
  5
DE
330
1F
100
AcDbEntity
  8
0
  6
Continuous
 62
     3
100
AcDbLine
 10
251.474892781762
 20
117.806532370341
 30
0.0
 11
278.080639861879
 21
120.636412031144
 31
0.0
  0
LINE
  5
DF
330
1F
100
AcDbEntity
  8
0
  6
Continuous
 62
     3
100
AcDbLine
 10
283.474872986576
 20
122.256525771945
 30
0.0
 11
278.974872986576
 21
122.256525771945
 31
0.0
  0
LINE
  5
E0
330
1F
100
AcDbEntity
  8
0
  6
Continuous
 62
     3
100
AcDbLine
 10
283.474872986576
 20
122.256525771945
 30
0.0
 11
283.474872986576
 21
130.806525771944
 31
0.0
  0
LINE
  5
E1
330
1F
100
AcDbEntity
  8
1
  6
Continuous
 62
     3
100
AcDbLine
 10
1300.67487298658
 20
115.806525771945
 30
0.0
 11
1300.67487298658
 21
145.806525771945
 31
0.0
  0
LINE
  5
E2
330
1F
100
AcDbEntity
  8
1
  6
Continuous
 62
     3
100
AcDbLine
 10
1300.17487298658
 20
115.306525771945
 30
0.0
 11
1300.67487298658
 21
115.806525771945
 31
0.0
  0
LINE
  5
E3
330
1F
100
AcDbEntity
  8
1
  6
Continuous
 62
     3
100
AcDbLine
 10
1312.47487298658
 20
145.806525771945
 30
0.0
 11
1312.97487298658
 21
145.306525771945
 31
0.0
  0
LINE
  5
E4
330
1F
100
AcDbEntity
  8
1
  6
Continuous
 62
     3
100
AcDbLine
 10
1312.47487298658
 20
115.806525771945
 30
0.0
 11
1312.97487298658
 21
116.306525771945
 31
0.0
  0
LINE
  5
E5
330
1F
100
AcDbEntity
  8
1
  6
Continuous
 62
     3
100
AcDbLine
 10
1278.97487298658
 20
115.806525771945
 30
0.0
 11
1279.47487298658
 21
115.306525771945
 31
0.0
  0
LINE
  5
E6
330
1F
100
AcDbEntity
  8
1
  6
Continuous
 62
     3
100
AcDbLine
 10
1278.97487298658
 20
145.806525771945
 30
0.0
 11
1279.47487298658
 21
146.306525771945
 31
0.0
  0
LINE
  5
E7
330
1F
100
AcDbEntity
  8
1
  6
Continuous
 62
     3
100
AcDbLine
 10
1279.47487298658
 20
115.306525771945
 30
0.0
 11
1300.17487298658
 21
115.306525771945
 31
0.0
  0
LINE
  5
E8
330
1F
100
AcDbEntity
  8
1
  6
Continuous
 62
     3
100
AcDbLine
 10
1312.97487298658
 20
116.306525771945
 30
0.0
 11
1312.97487298658
 21
145.306525771945
 31
0.0
  0
LINE
  5
E9
330
1F
100
AcDbEntity
  8
1
  6
Continuous
 62
     3
100
AcDbLine
 10
1278.97487298658
 20
145.806525771945
 30
0.0
 11
1278.97487298658
 21
115.806525771945
 31
0.0
  0
LINE
  5
EA
330
1F
100
AcDbEntity
  8
1
  6
Continuous
 62
     3
100
AcDbLine
 10
1300.67487298658
 20
115.806525771945
 30
0.0
 11
1312.47487298658
 21
115.806525771945
 31
0.0
  0
LINE
  5
EB
330
1F
100
AcDbEntity
  8
1
  6
Continuous
 62
     3
100
AcDbLine
 10
1300.67487298658
 20
145.806525771945
 30
0.0
 11
1312.47487298658
 21
145.806525771945
 31
0.0
  0
LINE
  5
EC
330
1F
100
AcDbEntity
  8
OBJECT
  6
Continuous
 62
     3
100
AcDbLine
 10
64.0288967674451
 20
239.317054904437
 30
0.0
 11
63.5065526150021
 21
239.83939905688
 31
0.0
  0
ARC
  5
ED
330
1F
100
AcDbEntity
  8
1
  6
Continuous
 62
     3
100
AcDbCircle
 10
490.1346292266996
 20
325.6596508704663
 30
0.0
 40
20.00000000000034
100
AcDbArc
 50
50.02100838854513
 51
104.9213761931509
  0
ARC
  5
EE
330
1F
100
AcDbEntity
  8
1
  6
Continuous
 62
     3
100
AcDbCircle
 10
487.8272286676429
 20
360.570868902656
 30
0.0
 40
15.84269709749401
100
AcDbArc
 50
128.408351398657
 51
-100.3358644628036
  0
ARC
  5
EF
330
1F
100
AcDbEntity
  8
1
  6
Continuous
 62
     3
100
AcDbCircle
 10
484.9157973969768
 20
396.5024938436103
 30
0.0
 40
24.5173383770332
100
AcDbArc
 50
-106.4213738458466
 51
-49.04907869836828
  0
ARC
  5
F0
330
1F
100
AcDbEntity
  8
1
  6
Continuous
 62
     3
100
AcDbCircle
 10
582.9157973969768
 20
396.5024938436103
 30
0.0
 40
24.5173383770332
100
AcDbArc
 50
-106.4213738458466
 51
-49.04907869836828
  0
ARC
  5
F1
330
1F
100
AcDbEntity
  8
1
  6
Continuous
 62
     3
100
AcDbCircle
 10
585.8272286676429
 20
360.570868902656
 30
0.0
 40
15.84269709749401
100
AcDbArc
 50
128.408351398657
 51
-100.3358644628036
  0
ARC
  5
F2
330
1F
100
AcDbEntity
  8
1
  6
Continuous
 62
     3
100
AcDbCircle
 10
588.1346292266996
 20
325.6596508704663
 30
0.0
 40
20.0000000000003
100
AcDbArc
 50
50.02100838854526
 51
104.921376193151
  0
ARC
  5
F3
330
1F
100
AcDbEntity
  8
1
  6
DOT_CENTER
 62
     1
100
AcDbCircle
 10
242.454028715138
 20
350.805703243229
 30
0.0
 40
220.0
100
AcDbArc
 50
-148.4928699807219
 51
-90.1566758139347
  0
ARC
  5
F4
330
1F
100
AcDbEntity
  8
1
  6
Continuous
 62
     3
100
AcDbCircle
 10
122.100922744039
 20
187.048279148624
 30
0.0
 40
0.5000000000006062
100
AcDbArc
 50
-42.00000000002545
 51
38.85335303348658
  0
ARC
  5
F5
330
1F
100
AcDbEntity
  8
1
  6
Continuous
 62
     3
100
AcDbCircle
 10
66.9142840419141
 20
242.23491785075
 30
0.0
 40
0.4999999999990147
100
AcDbArc
 50
51.14664696634173
 51
132.000000000017
  0
ARC
  5
F6
330
1F
100
AcDbEntity
  8
OBJECT
  6
Continuous
 62
     3
100
AcDbCircle
 10
64.3824501580391
 20
238.963501513844
 30
0.0
 40
0.5000000000003155
100
AcDbArc
 50
135.0000000000817
 51
-135.0000000000817
  0
ARC
  5
F7
330
1F
100
AcDbEntity
  8
OBJECT
  6
Continuous
 62
     3
100
AcDbCircle
 10
118.829506407134
 20
184.516445264748
 30
0.0
 40
0.4999999999996121
100
AcDbArc
 50
-135.0000000000011
 51
-45.0
  0
ARC
  5
F8
330
1F
100
AcDbEntity
  8
00_オリジナル
  6
Continuous
 62
     3
100
AcDbCircle
 10
-161.747226954951
 20
-41.6209670439619
 30
0.0
 40
365.000000001
100
AcDbArc
 50
45.00085859049653
 51
51.14664696640361
  0
ARC
  5
F9
330
1F
100
AcDbEntity
  8
00_オリジナル
  6
Continuous
 62
     3
100
AcDbCircle
 10
-161.754962150671
 20
-41.613231848241
 30
0.0
 40
365.0000000009994
100
AcDbArc
 50
38.85335303359633
 51
44.99914140950354
  0
ARC
  5
FA
330
1F
100
AcDbEntity
  8
0
  6
Continuous
 62
     3
100
AcDbCircle
 10
220.074025408496
 20
340.208020515206
 30
0.0
 40
38.24999999999797
100
AcDbArc
 50
-43.496130043032
 51
-16.49232917739114
  0
ARC
  5
FB
330
1F
100
AcDbEntity
  8
0
  6
Continuous
 62
     3
100
AcDbCircle
 10
220.074025408496
 20
340.208020515206
 30
0.0
 40
35.24999999999812
100
AcDbArc
 50
-43.36859932761161
 51
-16.61985989281064
  0
ARC
  5
FC
330
1F
100
AcDbEntity
  8
0
  6
Continuous
 62
     3
100
AcDbCircle
 10
220.074025408496
 20
340.208020515206
 30
0.0
 40
35.24999999999901
100
AcDbArc
 50
-73.3685993276127
 51
-46.61985989281077
  0
ARC
  5
FD
330
1F
100
AcDbEntity
  8
0
  6
Continuous
 62
     3
100
AcDbCircle
 10
220.074025408496
 20
340.208020515206
 30
0.0
 40
38.24999999999913
100
AcDbArc
 50
-73.4961300430313
 51
-46.49232917739042
  0
ARC
  5
FE
330
1F
100
AcDbEntity
  8
0
  6
Continuous
 62
     3
100
AcDbCircle
 10
220.074025408496
 20
340.208020515206
 30
0.0
 40
38.24999999999896
100
AcDbArc
 50
-103.4961300430332
 51
-76.49232917739073
  0
ARC
  5
FF
330
1F
100
AcDbEntity
  8
0
  6
Continuous
 62
     3
100
AcDbCircle
 10
220.074025408496
 20
340.208020515206
 30
0.0
 40
35.24999999999898
100
AcDbArc
 50
-103.3685993276131
 51
-76.61985989281027
  0
ARC
  5
100
330
1F
100
AcDbEntity
  8
0
  6
Continuous
 62
     3
100
AcDbCircle
 10
220.074025408496
 20
340.208020515206
 30
0.0
 40
38.25000000000221
100
AcDbArc
 50
136.5038699569678
 51
163.5076708226082
  0
ARC
  5
101
330
1F
100
AcDbEntity
  8
0
  6
Continuous
 62
     3
100
AcDbCircle
 10
220.074025408496
 20
340.208020515206
 30
0.0
 40
35.25000000000169
100
AcDbArc
 50
136.631400672387
 51
163.3801401071887
  0
ARC
  5
102
330
1F
100
AcDbEntity
  8
0
  6
Continuous
 62
     3
100
AcDbCircle
 10
220.074025408496
 20
340.208020515206
 30
0.0
 40
35.25000000000095
100
AcDbArc
 50
166.6314006723877
 51
-166.6198598928127
  0
ARC
  5
103
330
1F
100
AcDbEntity
  8
0
  6
Continuous
 62
     3
100
AcDbCircle
 10
220.074025408496
 20
340.208020515206
 30
0.0
 40
38.25000000000092
100
AcDbArc
 50
166.5038699569675
 51
-166.4923291773915
  0
ARC
  5
104
330
1F
100
AcDbEntity
  8
0
  6
Continuous
 62
     3
100
AcDbCircle
 10
220.074025408496
 20
340.208020515206
 30
0.0
 40
35.24999999999999
100
AcDbArc
 50
-163.3685993276132
 51
-136.6198598928119
  0
ARC
  5
105
330
1F
100
AcDbEntity
  8
0
  6
Continuous
 62
     3
100
AcDbCircle
 10
220.074025408496
 20
340.208020515206
 30
0.0
 40
38.24999999999982
100
AcDbArc
 50
-163.4961300430332
 51
-136.4923291773914
  0
ARC
  5
106
330
1F
100
AcDbEntity
  8
0
  6
Continuous
 62
     3
100
AcDbCircle
 10
220.074025408496
 20
340.208020515206
 30
0.0
 40
38.24999999999938
100
AcDbArc
 50
-133.4961300430321
 51
-106.492329177393
  0
ARC
  5
107
330
1F
100
AcDbEntity
  8
0
  6
Continuous
 62
     3
100
AcDbCircle
 10
220.074025408496
 20
340.208020515206
 30
0.0
 40
35.25000000000024
100
AcDbArc
 50
-133.3685993276129
 51
-106.6198598928122
  0
ARC
  5
108
330
1F
100
AcDbEntity
  8
0
  6
Continuous
 62
     3
100
AcDbCircle
 10
220.074025408496
 20
340.208020515206
 30
0.0
 40
38.25000000000136
100
AcDbArc
 50
106.5038699569693
 51
133.5076708226098
  0
ARC
  5
109
330
1F
100
AcDbEntity
  8
0
  6
Continuous
 62
     3
100
AcDbCircle
 10
220.074025408496
 20
340.208020515206
 30
0.0
 40
35.25000000000153
100
AcDbArc
 50
106.6314006723894
 51
133.3801401071893
  0
ARC
  5
10A
330
1F
100
AcDbEntity
  8
0
  6
Continuous
 62
     3
100
AcDbCircle
 10
220.074025408496
 20
340.208020515206
 30
0.0
 40
38.25000000000071
100
AcDbArc
 50
76.50386995696898
 51
103.5076708226097
  0
ARC
  5
10B
330
1F
100
AcDbEntity
  8
0
  6
Continuous
 62
     3
100
AcDbCircle
 10
220.074025408496
 20
340.208020515206
 30
0.0
 40
35.25000000000168
100
AcDbArc
 50
76.6314006723897
 51
103.3801401071902
  0
ARC
  5
10C
330
1F
100
AcDbEntity
  8
0
  6
Continuous
 62
     3
100
AcDbCircle
 10
220.074025408496
 20
340.208020515206
 30
0.0
 40
38.25000000000012
100
AcDbArc
 50
46.50386995696895
 51
73.50767082260968
  0
ARC
  5
10D
330
1F
100
AcDbEntity
  8
0
  6
Continuous
 62
     3
100
AcDbCircle
 10
220.074025408496
 20
340.208020515206
 30
0.0
 40
35.25000000000031
100
AcDbArc
 50
46.6314006723894
 51
73.3801401071903
  0
ARC
  5
10E
330
1F
100
AcDbEntity
  8
0
  6
Continuous
 62
     3
100
AcDbCircle
 10
220.074025408496
 20
340.208020515206
 30
0.0
 40
38.24999999999944
100
AcDbArc
 50
16.50386995697015
 51
43.5076708226097
  0
ARC
  5
10F
330
1F
100
AcDbEntity
  8
0
  6
Continuous
 62
     3
100
AcDbCircle
 10
220.074025408496
 20
340.208020515206
 30
0.0
 40
35.24999999999932
100
AcDbArc
 50
16.63140067238888
 51
43.38014010719048
  0
ARC
  5
110
330
1F
100
AcDbEntity
  8
0
  6
Continuous
 62
     3
100
AcDbCircle
 10
220.074025408496
 20
340.208020515206
 30
0.0
 40
35.24999999999877
100
AcDbArc
 50
-13.36859932761143
 51
13.38014010718973
  0
ARC
  5
111
330
1F
100
AcDbEntity
  8
0
  6
Continuous
 62
     3
100
AcDbCircle
 10
220.074025408496
 20
340.208020515206
 30
0.0
 40
38.24999999999875
100
AcDbArc
 50
-13.49613004303172
 51
13.50767082261071
  0
ARC
  5
112
330
1F
100
AcDbEntity
  8
1
  6
Continuous
 62
     3
100
AcDbCircle
 10
256.409588790216
 20
376.651343756504
 30
0.0
 40
260.0000000000009
100
AcDbArc
 50
-143.2604073491183
 51
-134.9832084297934
  0
ARC
  5
113
330
1F
100
AcDbEntity
  8
OBJECT
  6
Continuous
 62
     3
100
AcDbCircle
 10
62.9681536445311
 20
238.963584464978
 30
0.0
 40
0.5000000000003306
100
AcDbArc
 50
45.00000000008233
 51
134.9999999999177
  0
ARC
  5
114
330
1F
100
AcDbEntity
  8
OBJECT
  6
Continuous
 62
     3
100
AcDbCircle
 10
237.474872986619
 20
143.876925569398
 30
0.0
 40
0.4999999999519957
100
AcDbArc
 50
0.00000000011399
 51
90.21803722297693
  0
ARC
  5
115
330
1F
100
AcDbEntity
  8
1
  6
Continuous
 62
     3
100
AcDbCircle
 10
236.633866713884
 20
364.875325356479
 30
0.0
 40
220.500000000002
100
AcDbArc
 50
-114.1589760709761
 51
-89.78196277704171
  0
ARC
  5
116
330
1F
100
AcDbEntity
  8
OBJECT
  6
Continuous
 62
     3
100
AcDbCircle
 10
237.47487298662
 20
117.843062325176
 30
0.0
 40
0.4999999999995196
100
AcDbArc
 50
-94.18437100496334
 51
0.0
  0
ARC
  5
117
330
1F
100
AcDbEntity
  8
1
  6
Continuous
 62
     3
100
AcDbCircle
 10
256.409588790216
 20
376.651343756504
 30
0.0
 40
260.0000000000009
100
AcDbArc
 50
-128.5748344158426
 51
-94.18437100485328
  0
ARC
  5
118
330
1F
100
AcDbEntity
  8
1
  6
Continuous
 62
     3
100
AcDbCircle
 10
256.409588790216
 20
376.651343756504
 30
0.0
 40
260.0000000000005
100
AcDbArc
 50
-134.9832084297934
 51
-128.5748344158426
  0
ARC
  5
119
330
1F
100
AcDbEntity
  8
1
  6
Continuous
 62
     3
100
AcDbCircle
 10
50.4594312622551
 20
222.919328176767
 30
0.0
 40
2.999999999999798
100
AcDbArc
 50
134.9999999999865
 51
-143.2604073490537
  0
ARC
  5
11A
330
1F
100
AcDbEntity
  8
OBJECT
  6
Continuous
 62
     3
100
AcDbCircle
 10
233.888012210257
 20
295.281335741165
 30
0.0
 40
7.000000000000278
100
AcDbArc
 50
45.00000000000016
 51
107.0899317229637
  0
ARC
  5
11B
330
1F
100
AcDbEntity
  8
OBJECT
  6
Continuous
 62
     3
100
AcDbCircle
 10
265.000710582466
 20
326.394034113374
 30
0.0
 40
7.000000000000401
100
AcDbArc
 50
162.9100682770361
 51
-135.0
  0
ARC
  5
11C
330
1F
100
AcDbEntity
  8
OBJECT
  6
Continuous
 62
     3
100
AcDbCircle
 10
190.745013869764
 20
253.313062527079
 30
0.0
 40
100.0000000000002
100
AcDbArc
 50
-135.3140744940787
 51
-116.3307005289103
  0
ARC
  5
11D
330
1F
100
AcDbEntity
  8
0
  6
Continuous
 62
     3
100
AcDbCircle
 10
277.974872986577
 20
139.982248559403
 30
0.0
 40
0.9999999999989768
100
AcDbArc
 50
0.0
 51
83.92864868489687
  0
ARC
  5
11E
330
1F
100
AcDbEntity
  8
0
  6
Continuous
 62
     3
100
AcDbCircle
 10
1271.54987298658
 20
130.806525771945
 30
0.0
 40
7.275000128869806
100
AcDbArc
 50
0.0
 51
180.0
  0
ARC
  5
11F
330
1F
100
AcDbEntity
  8
0
  6
Continuous
 62
     3
100
AcDbCircle
 10
1271.54987298658
 20
130.403411051549
 30
0.0
 40
13.60741159539662
100
AcDbArc
 50
56.93032428531509
 51
123.0696757146857
  0
ARC
  5
120
330
1F
100
AcDbEntity
  8
0
  6
Continuous
 62
     3
100
AcDbCircle
 10
1271.54987298658
 20
131.20964049234
 30
0.0
 40
13.60741159539589
100
AcDbArc
 50
-123.0696757146881
 51
-56.93032428531274
  0
ARC
  5
121
330
1F
100
AcDbEntity
  8
0
  6
Continuous
 62
     3
100
AcDbCircle
 10
1271.54987298658
 20
130.806525771945
 30
0.0
 40
7.275000128880038
100
AcDbArc
 50
180.0
 51
0.0
  0
ARC
  5
122
330
1F
100
AcDbEntity
  8
0
  6
Continuous
 62
     3
100
AcDbCircle
 10
277.974872986577
 20
121.630802984487
 30
0.0
 40
1.000000000000773
100
AcDbArc
 50
-83.92864868489679
 51
0.0
  0
CIRCLE
  5
123
330
1F
100
AcDbEntity
  8
OBJECT
  6
Continuous
 62
     3
100
AcDbCircle
 10
212.029219522683
 20
308.401787761907
 30
0.0
 40
0.25
  0
CIRCLE
  5
124
330
1F
100
AcDbEntity
  8
OBJECT
  6
Continuous
 62
     3
100
AcDbCircle
 10
218.017300799158
 20
307.464697110597
 30
0.0
 40
0.25
  0
CIRCLE
  5
125
330
1F
100
AcDbEntity
  8
OBJECT
  6
Continuous
 62
     3
100
AcDbCircle
 10
224.07557665034
 20
307.645113222454
 30
0.0
 40
0.25
  0
CIRCLE
  5
126
330
1F
100
AcDbEntity
  8
OBJECT
  6
Continuous
 62
     3
100
AcDbCircle
 10
229.997282351917
 20
308.936878621563
 30
0.0
 40
0.25
  0
CIRCLE
  5
127
330
1F
100
AcDbEntity
  8
OBJECT
  6
Continuous
 62
     3
100
AcDbCircle
 10
235.580314223417
 20
311.295906256892
 30
0.0
 40
0.25
  0
CIRCLE
  5
128
330
1F
100
AcDbEntity
  8
OBJECT
  6
Continuous
 62
     3
100
AcDbCircle
 10
206.315701853412
 20
310.424402926824
 30
0.0
 40
0.25
  0
CIRCLE
  5
129
330
1F
100
AcDbEntity
  8
OBJECT
  6
Continuous
 62
     3
100
AcDbCircle
 10
201.07174615965
 20
313.463512162158
 30
0.0
 40
0.25
  0
CIRCLE
  5
12A
330
1F
100
AcDbEntity
  8
OBJECT
  6
Continuous
 62
     3
100
AcDbCircle
 10
196.476324987376
 20
317.415392791916
 30
0.0
 40
0.25
  0
CIRCLE
  5
12B
330
1F
100
AcDbEntity
  8
OBJECT
  6
Continuous
 62
     3
100
AcDbCircle
 10
192.686276852223
 20
322.145169889798
 30
0.0
 40
0.25
  0
CIRCLE
  5
12C
330
1F
100
AcDbEntity
  8
OBJECT
  6
Continuous
 62
     3
100
AcDbCircle
 10
189.830953450455
 20
327.491419466254
 30
0.0
 40
0.25
  0
CIRCLE
  5
12D
330
1F
100
AcDbEntity
  8
OBJECT
  6
Continuous
 62
     3
100
AcDbCircle
 10
188.007804975906
 20
333.271677756519
 30
0.0
 40
0.25
  0
CIRCLE
  5
12E
330
1F
100
AcDbEntity
  8
OBJECT
  6
Continuous
 62
     3
100
AcDbCircle
 10
187.279054212908
 20
339.288668581496
 30
0.0
 40
0.25
  0
CIRCLE
  5
12F
330
1F
100
AcDbEntity
  8
OBJECT
  6
Continuous
 62
     3
100
AcDbCircle
 10
187.669572916116
 20
345.337036245989
 30
0.0
 40
0.25
  0
CIRCLE
  5
130
330
1F
100
AcDbEntity
  8
OBJECT
  6
Continuous
 62
     3
100
AcDbCircle
 10
189.166032954889
 20
351.210354185176
 30
0.0
 40
0.25
  0
CIRCLE
  5
131
330
1F
100
AcDbEntity
  8
OBJECT
  6
Continuous
 62
     3
100
AcDbCircle
 10
191.71736119308
 20
356.708170159127
 30
0.0
 40
0.25
  0
CIRCLE
  5
132
330
1F
100
AcDbEntity
  8
OBJECT
  6
Continuous
 62
     3
100
AcDbCircle
 10
195.236482579506
 20
361.642847547766
 30
0.0
 40
0.25
  0
CIRCLE
  5
133
330
1F
100
AcDbEntity
  8
OBJECT
  6
Continuous
 62
     3
100
AcDbCircle
 10
199.603291958655
 20
365.84596925771
 30
0.0
 40
0.25
  0
CIRCLE
  5
134
330
1F
100
AcDbEntity
  8
OBJECT
  6
Continuous
 62
     3
100
AcDbCircle
 10
204.668753175751
 20
369.174085680029
 30
0.0
 40
0.25
  0
CIRCLE
  5
135
330
1F
100
AcDbEntity
  8
OBJECT
  6
Continuous
 62
     3
100
AcDbCircle
 10
210.259985576663
 20
371.513610525251
 30
0.0
 40
0.2499999999989768
  0
CIRCLE
  5
136
330
1F
100
AcDbEntity
  8
OBJECT
  6
Continuous
 62
     3
100
AcDbCircle
 10
216.186164303901
 20
372.784697444095
 30
0.0
 40
0.25
  0
CIRCLE
  5
137
330
1F
100
AcDbEntity
  8
OBJECT
  6
Continuous
 62
     3
100
AcDbCircle
 10
222.245033015749
 20
372.943965127621
 30
0.0
 40
0.25
  0
CIRCLE
  5
138
330
1F
100
AcDbEntity
  8
OBJECT
  6
Continuous
 62
     3
100
AcDbCircle
 10
228.229806753974
 20
371.985977881007
 30
0.0
 40
0.25
  0
CIRCLE
  5
139
330
1F
100
AcDbEntity
  8
OBJECT
  6
Continuous
 62
     3
100
AcDbCircle
 10
233.936229370053
 20
369.943431140017
 30
0.0
 40
0.25
  0
CIRCLE
  5
13A
330
1F
100
AcDbEntity
  8
OBJECT
  6
Continuous
 62
     3
100
AcDbCircle
 10
239.169544644888
 20
366.886035598613
 30
0.0
 40
0.25
  0
CIRCLE
  5
13B
330
1F
100
AcDbEntity
  8
OBJECT
  6
Continuous
 62
     3
100
AcDbCircle
 10
243.75114318257
 20
362.918138031646
 30
0.0
 40
0.25
  0
CIRCLE
  5
13C
330
1F
100
AcDbEntity
  8
OBJECT
  6
Continuous
 62
     3
100
AcDbCircle
 10
247.524658224334
 20
358.175160012298
 30
0.0
 40
0.25
  0
CIRCLE
  5
13D
330
1F
100
AcDbEntity
  8
OBJECT
  6
Continuous
 62
     3
100
AcDbCircle
 10
250.361302336844
 20
352.818976068352
 30
0.0
 40
0.25
  0
CIRCLE
  5
13E
330
1F
100
AcDbEntity
  8
OBJECT
  6
Continuous
 62
     3
100
AcDbCircle
 10
252.164262837369
 20
347.032389017595
 30
0.0
 40
0.25
  0
CIRCLE
  5
13F
330
1F
100
AcDbEntity
  8
OBJECT
  6
Continuous
 62
     3
100
AcDbCircle
 10
240.634127285691
 20
314.641684162554
 30
0.0
 40
0.25
  0
CIRCLE
  5
140
330
1F
100
AcDbEntity
  8
OBJECT
  6
Continuous
 62
     3
100
AcDbCircle
 10
252.87200594303
 20
341.012891035303
 30
0.0
 40
0.25
  0
CIRCLE
  5
141
330
1F
100
AcDbEntity
  8
OBJECT
  6
Continuous
 62
     3
100
AcDbCircle
 10
252.460376875848
 20
334.9659233842
 30
0.0
 40
0.25
  0
CIRCLE
  5
142
330
1F
100
AcDbEntity
  8
OBJECT
  6
Continuous
 62
     3
100
AcDbCircle
 10
250.943424248446
 20
329.097864847626
 30
0.0
 40
0.25
  0
CIRCLE
  5
143
330
1F
100
AcDbEntity
  8
OBJECT
  6
Continuous
 62
     3
100
AcDbCircle
 10
248.372920594709
 20
323.608988165776
 30
0.0
 40
0.25
  0
CIRCLE
  5
144
330
1F
100
AcDbEntity
  8
OBJECT
  6
Continuous
 62
     3
100
AcDbCircle
 10
244.836595393312
 20
318.686624848457
 30
0.0
 40
0.25
  0
CIRCLE
  5
145
330
1F
100
AcDbEntity
  8
OBJECT
  6
Continuous
 62
     3
100
AcDbCircle
 10
239.52157903727
 20
320.76438370772
 30
0.0
 40
0.25
  0
CIRCLE
  5
146
330
1F
100
AcDbEntity
  8
OBJECT
  6
Continuous
 62
     3
100
AcDbCircle
 10
235.771050900763
 20
317.627813582129
 30
0.0
 40
0.25
  0
CIRCLE
  5
147
330
1F
100
AcDbEntity
  8
OBJECT
  6
Continuous
 62
     3
100
AcDbCircle
 10
231.349527078892
 20
315.125647889668
 30
0.0
 40
0.25
  0
CIRCLE
  5
148
330
1F
100
AcDbEntity
  8
OBJECT
  6
Continuous
 62
     3
100
AcDbCircle
 10
226.543178258684
 20
313.479526059918
 30
0.0
 40
0.25
  0
CIRCLE
  5
149
330
1F
100
AcDbEntity
  8
OBJECT
  6
Continuous
 62
     3
100
AcDbCircle
 10
221.516041769102
 20
312.745629081443
 30
0.0
 40
0.25
  0
CIRCLE
  5
14A
330
1F
100
AcDbEntity
  8
OBJECT
  6
Continuous
 62
     3
100
AcDbCircle
 10
216.439690268091
 20
312.94900434564
 30
0.0
 40
0.25
  0
CIRCLE
  5
14B
330
1F
100
AcDbEntity
  8
OBJECT
  6
Continuous
 62
     3
100
AcDbCircle
 10
211.487376087569
 20
314.082710796757
 30
0.0
 40
0.25
  0
CIRCLE
  5
14C
330
1F
100
AcDbEntity
  8
OBJECT
  6
Continuous
 62
     3
100
AcDbCircle
 10
206.828118252321
 20
316.108055825284
 30
0.0
 40
0.25
  0
CIRCLE
  5
14D
330
1F
100
AcDbEntity
  8
OBJECT
  6
Continuous
 62
     3
100
AcDbCircle
 10
202.620933978708
 20
318.955915819695
 30
0.0
 40
0.25
  0
CIRCLE
  5
14E
330
1F
100
AcDbEntity
  8
OBJECT
  6
Continuous
 62
     3
100
AcDbCircle
 10
199.009411528115
 20
322.529095307039
 30
0.0
 40
0.25
  0
CIRCLE
  5
14F
330
1F
100
AcDbEntity
  8
OBJECT
  6
Continuous
 62
     3
100
AcDbCircle
 10
196.11680963986
 20
326.70564416656
 30
0.0
 40
0.2499999999990052
  0
CIRCLE
  5
150
330
1F
100
AcDbEntity
  8
OBJECT
  6
Continuous
 62
     3
100
AcDbCircle
 10
194.041850796485
 20
331.343019702162
 30
0.0
 40
0.25
  0
CIRCLE
  5
151
330
1F
100
AcDbEntity
  8
OBJECT
  6
Continuous
 62
     3
100
AcDbCircle
 10
192.855351894374
 20
336.282951525092
 30
0.0
 40
0.25
  0
CIRCLE
  5
152
330
1F
100
AcDbEntity
  8
OBJECT
  6
Continuous
 62
     3
100
AcDbCircle
 10
192.597807312525
 20
341.356843211782
 30
0.0
 40
0.25
  0
CIRCLE
  5
153
330
1F
100
AcDbEntity
  8
OBJECT
  6
Continuous
 62
     3
100
AcDbCircle
 10
193.278006867674
 20
346.391526382059
 30
0.0
 40
0.25
  0
CIRCLE
  5
154
330
1F
100
AcDbEntity
  8
OBJECT
  6
Continuous
 62
     3
100
AcDbCircle
 10
194.872735823984
 20
351.215170815038
 30
0.0
 40
0.25
  0
CIRCLE
  5
155
330
1F
100
AcDbEntity
  8
OBJECT
  6
Continuous
 62
     3
100
AcDbCircle
 10
197.327567195776
 20
355.663148894566
 30
0.0
 40
0.25
  0
CIRCLE
  5
156
330
1F
100
AcDbEntity
  8
OBJECT
  6
Continuous
 62
     3
100
AcDbCircle
 10
200.558719302403
 20
359.583654234674
 30
0.0
 40
0.25
  0
CIRCLE
  5
157
330
1F
100
AcDbEntity
  8
OBJECT
  6
Continuous
 62
     3
100
AcDbCircle
 10
204.455915178996
 20
362.842882726068
 30
0.0
 40
0.25
  0
CIRCLE
  5
158
330
1F
100
AcDbEntity
  8
OBJECT
  6
Continuous
 62
     3
100
AcDbCircle
 10
208.886146251612
 20
365.329599176119
 30
0.0
 40
0.25
  0
CIRCLE
  5
159
330
1F
100
AcDbEntity
  8
OBJECT
  6
Continuous
 62
     3
100
AcDbCircle
 10
213.69821182737
 20
366.958933688858
 30
0.0
 40
0.25
  0
CIRCLE
  5
15A
330
1F
100
AcDbEntity
  8
OBJECT
  6
Continuous
 62
     3
100
AcDbCircle
 10
218.727879468436
 20
367.675278215121
 30
0.0
 40
0.25
  0
CIRCLE
  5
15B
330
1F
100
AcDbEntity
  8
OBJECT
  6
Continuous
 62
     3
100
AcDbCircle
 10
223.80349013043
 20
367.454184416448
 30
0.0
 40
0.25
  0
CIRCLE
  5
15C
330
1F
100
AcDbEntity
  8
OBJECT
  6
Continuous
 62
     3
100
AcDbCircle
 10
228.751816765754
 20
366.303198069792
 30
0.0
 40
0.25
  0
CIRCLE
  5
15D
330
1F
100
AcDbEntity
  8
OBJECT
  6
Continuous
 62
     3
100
AcDbCircle
 10
233.403976441754
 20
364.261601535429
 30
0.0
 40
0.25
  0
CIRCLE
  5
15E
330
1F
100
AcDbEntity
  8
OBJECT
  6
Continuous
 62
     3
100
AcDbCircle
 10
237.601194197282
 20
361.399073077428
 30
0.0
 40
0.25
  0
CIRCLE
  5
15F
330
1F
100
AcDbEntity
  8
OBJECT
  6
Continuous
 62
     3
100
AcDbCircle
 10
241.200221921332
 20
357.813308793065
 30
0.0
 40
0.25
  0
CIRCLE
  5
160
330
1F
100
AcDbEntity
  8
OBJECT
  6
Continuous
 62
     3
100
AcDbCircle
 10
244.078227310681
 20
353.626688313636
 30
0.0
 40
0.25
  0
CIRCLE
  5
161
330
1F
100
AcDbEntity
  8
OBJECT
  6
Continuous
 62
     3
100
AcDbCircle
 10
246.136986051221
 20
348.982098072489
 30
0.0
 40
0.25
  0
CIRCLE
  5
162
330
1F
100
AcDbEntity
  8
OBJECT
  6
Continuous
 62
     3
100
AcDbCircle
 10
247.306234144767
 20
344.038054691243
 30
0.0
 40
0.2500000000010232
  0
CIRCLE
  5
163
330
1F
100
AcDbEntity
  8
OBJECT
  6
Continuous
 62
     3
100
AcDbCircle
 10
247.546065970371
 20
338.963294918078
 30
0.0
 40
0.2500000000010232
  0
CIRCLE
  5
164
330
1F
100
AcDbEntity
  8
OBJECT
  6
Continuous
 62
     3
100
AcDbCircle
 10
246.848296235299
 20
333.931016760353
 30
0.0
 40
0.2499999999990052
  0
CIRCLE
  5
165
330
1F
100
AcDbEntity
  8
OBJECT
  6
Continuous
 62
     3
100
AcDbCircle
 10
245.236739333358
 20
329.112968357554
 30
0.0
 40
0.25
  0
CIRCLE
  5
166
330
1F
100
AcDbEntity
  8
OBJECT
  6
Continuous
 62
     3
100
AcDbCircle
 10
242.76639657626
 20
324.673586337231
 30
0.0
 40
0.25
  0
CIRCLE
  5
167
330
1F
100
AcDbEntity
  8
OBJECT
  6
Continuous
 62
     3
100
AcDbCircle
 10
231.49462797544
 20
321.054167646213
 30
0.0
 40
0.25
  0
CIRCLE
  5
168
330
1F
100
AcDbEntity
  8
OBJECT
  6
Continuous
 62
     3
100
AcDbCircle
 10
226.781975722378
 20
318.940588951766
 30
0.0
 40
0.25
  0
CIRCLE
  5
169
330
1F
100
AcDbEntity
  8
OBJECT
  6
Continuous
 62
     3
100
AcDbCircle
 10
221.709493891768
 20
317.967843232654
 30
0.0
 40
0.25
  0
CIRCLE
  5
16A
330
1F
100
AcDbEntity
  8
OBJECT
  6
Continuous
 62
     3
100
AcDbCircle
 10
216.549281844641
 20
318.188110762254
 30
0.0
 40
0.2499999999990052
  0
CIRCLE
  5
16B
330
1F
100
AcDbEntity
  8
OBJECT
  6
Continuous
 62
     3
100
AcDbCircle
 10
211.578144988622
 20
319.589575893695
 30
0.0
 40
0.25
  0
CIRCLE
  5
16C
330
1F
100
AcDbEntity
  8
OBJECT
  6
Continuous
 62
     3
100
AcDbCircle
 10
207.062746311827
 20
322.097060877801
 30
0.0
 40
0.25
  0
CIRCLE
  5
16D
330
1F
100
AcDbEntity
  8
OBJECT
  6
Continuous
 62
     3
100
AcDbCircle
 10
203.245301979002
 20
325.576058567035
 30
0.0
 40
0.25
  0
CIRCLE
  5
16E
330
1F
100
AcDbEntity
  8
OBJECT
  6
Continuous
 62
     3
100
AcDbCircle
 10
200.33058831038
 20
329.839947682135
 30
0.0
 40
0.25
  0
CIRCLE
  5
16F
330
1F
100
AcDbEntity
  8
OBJECT
  6
Continuous
 62
     3
100
AcDbCircle
 10
198.474957118211
 20
334.66000359826
 30
0.0
 40
0.25
  0
CIRCLE
  5
170
330
1F
100
AcDbEntity
  8
OBJECT
  6
Continuous
 62
     3
100
AcDbCircle
 10
197.777948643062
 20
339.777667649513
 30
0.0
 40
0.25
  0
CIRCLE
  5
171
330
1F
100
AcDbEntity
  8
OBJECT
  6
Continuous
 62
     3
100
AcDbCircle
 10
198.276951990909
 20
344.918416798689
 30
0.0
 40
0.25
  0
CIRCLE
  5
172
330
1F
100
AcDbEntity
  8
OBJECT
  6
Continuous
 62
     3
100
AcDbCircle
 10
199.945199497196
 20
349.806489671885
 30
0.0
 40
0.25
  0
CIRCLE
  5
173
330
1F
100
AcDbEntity
  8
OBJECT
  6
Continuous
 62
     3
100
AcDbCircle
 10
202.693202604549
 20
354.179679020085
 30
0.0
 40
0.25
  0
CIRCLE
  5
174
330
1F
100
AcDbEntity
  8
OBJECT
  6
Continuous
 62
     3
100
AcDbCircle
 10
206.373552231227
 20
357.803397107882
 30
0.0
 40
0.2499999999990052
  0
CIRCLE
  5
175
330
1F
100
AcDbEntity
  8
OBJECT
  6
Continuous
 62
     3
100
AcDbCircle
 10
210.788826126662
 20
360.48325952775
 30
0.0
 40
0.25
  0
CIRCLE
  5
176
330
1F
100
AcDbEntity
  8
OBJECT
  6
Continuous
 62
     3
100
AcDbCircle
 10
215.70217904417
 20
362.075512417248
 30
0.0
 40
0.25
  0
CIRCLE
  5
177
330
1F
100
AcDbEntity
  8
OBJECT
  6
Continuous
 62
     3
100
AcDbCircle
 10
220.850047656747
 20
362.494743742037
 30
0.0
 40
0.25
  0
CIRCLE
  5
178
330
1F
100
AcDbEntity
  8
OBJECT
  6
Continuous
 62
     3
100
AcDbCircle
 10
225.95628868642
 20
361.718464988725
 30
0.0
 40
0.25
  0
CIRCLE
  5
179
330
1F
100
AcDbEntity
  8
OBJECT
  6
Continuous
 62
     3
100
AcDbCircle
 10
230.746991852614
 20
359.788317499722
 30
0.0
 40
0.25
  0
CIRCLE
  5
17A
330
1F
100
AcDbEntity
  8
OBJECT
  6
Continuous
 62
     3
100
AcDbCircle
 10
234.965173037016
 20
356.807838737849
 30
0.0
 40
0.25
  0
CIRCLE
  5
17B
330
1F
100
AcDbEntity
  8
OBJECT
  6
Continuous
 62
     3
100
AcDbCircle
 10
238.384559491466
 20
352.93690830305
 30
0.0
 40
0.25
  0
CIRCLE
  5
17C
330
1F
100
AcDbEntity
  8
OBJECT
  6
Continuous
 62
     3
100
AcDbCircle
 10
240.821727617597
 20
348.383171630724
 30
0.0
 40
0.25
  0
CIRCLE
  5
17D
330
1F
100
AcDbEntity
  8
OBJECT
  6
Continuous
 62
     3
100
AcDbCircle
 10
242.145942222662
 20
343.390901422128
 30
0.0
 40
0.25
  0
CIRCLE
  5
17E
330
1F
100
AcDbEntity
  8
OBJECT
  6
Continuous
 62
     3
100
AcDbCircle
 10
242.286169449874
 20
338.227894306051
 30
0.0
 40
0.25
  0
CIRCLE
  5
17F
330
1F
100
AcDbEntity
  8
OBJECT
  6
Continuous
 62
     3
100
AcDbCircle
 10
241.234887194631
 20
333.17110562392
 30
0.0
 40
0.25
  0
CIRCLE
  5
180
330
1F
100
AcDbEntity
  8
OBJECT
  6
Continuous
 62
     3
100
AcDbCircle
 10
239.048488607163
 20
328.491792920901
 30
0.0
 40
0.25
  0
CIRCLE
  5
181
330
1F
100
AcDbEntity
  8
OBJECT
  6
Continuous
 62
     3
100
AcDbCircle
 10
235.844257036818
 20
324.440965079641
 30
0.0
 40
0.25
  0
CIRCLE
  5
182
330
1F
100
AcDbEntity
  8
OBJECT
  6
Continuous
 62
     3
100
AcDbCircle
 10
237.0593332705
 20
338.723722338654
 30
0.0
 40
0.25
  0
CIRCLE
  5
183
330
1F
100
AcDbEntity
  8
OBJECT
  6
Continuous
 62
     3
100
AcDbCircle
 10
236.542653743281
 20
344.622553901048
 30
0.0
 40
0.25
  0
CIRCLE
  5
184
330
1F
100
AcDbEntity
  8
OBJECT
  6
Continuous
 62
     3
100
AcDbCircle
 10
234.039614587817
 20
349.988927585535
 30
0.0
 40
0.25
  0
CIRCLE
  5
185
330
1F
100
AcDbEntity
  8
OBJECT
  6
Continuous
 62
     3
100
AcDbCircle
 10
229.852119267183
 20
354.175579526526
 30
0.0
 40
0.2500000000009948
  0
CIRCLE
  5
186
330
1F
100
AcDbEntity
  8
OBJECT
  6
Continuous
 62
     3
100
AcDbCircle
 10
224.485241517896
 20
356.677537711535
 30
0.0
 40
0.25
  0
CIRCLE
  5
187
330
1F
100
AcDbEntity
  8
OBJECT
  6
Continuous
 62
     3
100
AcDbCircle
 10
218.586306003186
 20
357.19302905848
 30
0.0
 40
0.25
  0
CIRCLE
  5
188
330
1F
100
AcDbEntity
  8
OBJECT
  6
Continuous
 62
     3
100
AcDbCircle
 10
212.866811405165
 20
355.659877703072
 30
0.0
 40
0.25
  0
CIRCLE
  5
189
330
1F
100
AcDbEntity
  8
OBJECT
  6
Continuous
 62
     3
100
AcDbCircle
 10
208.016613183112
 20
352.263004325696
 30
0.0
 40
0.25
  0
CIRCLE
  5
18A
330
1F
100
AcDbEntity
  8
OBJECT
  6
Continuous
 62
     3
100
AcDbCircle
 10
204.620716823875
 20
347.412121988153
 30
0.0
 40
0.25
  0
CIRCLE
  5
18B
330
1F
100
AcDbEntity
  8
OBJECT
  6
Continuous
 62
     3
100
AcDbCircle
 10
203.088717546491
 20
341.692318691759
 30
0.0
 40
0.25
  0
CIRCLE
  5
18C
330
1F
100
AcDbEntity
  8
OBJECT
  6
Continuous
 62
     3
100
AcDbCircle
 10
203.60539707371
 20
335.793487129364
 30
0.0
 40
0.2500000000009948
  0
CIRCLE
  5
18D
330
1F
100
AcDbEntity
  8
OBJECT
  6
Continuous
 62
     3
100
AcDbCircle
 10
206.108436229174
 20
330.427113444877
 30
0.0
 40
0.25
  0
CIRCLE
  5
18E
330
1F
100
AcDbEntity
  8
OBJECT
  6
Continuous
 62
     3
100
AcDbCircle
 10
210.295931549809
 20
326.240461503886
 30
0.0
 40
0.25
  0
CIRCLE
  5
18F
330
1F
100
AcDbEntity
  8
OBJECT
  6
Continuous
 62
     3
100
AcDbCircle
 10
215.662809299095
 20
323.738503318877
 30
0.0
 40
0.25
  0
CIRCLE
  5
190
330
1F
100
AcDbEntity
  8
OBJECT
  6
Continuous
 62
     3
100
AcDbCircle
 10
221.561744813805
 20
323.223011971933
 30
0.0
 40
0.25
  0
CIRCLE
  5
191
330
1F
100
AcDbEntity
  8
OBJECT
  6
Continuous
 62
     3
100
AcDbCircle
 10
227.281239411826
 20
324.75616332734
 30
0.0
 40
0.25
  0
CIRCLE
  5
192
330
1F
100
AcDbEntity
  8
OBJECT
  6
Continuous
 62
     3
100
AcDbCircle
 10
232.13143763388
 20
328.153036704717
 30
0.0
 40
0.25
  0
CIRCLE
  5
193
330
1F
100
AcDbEntity
  8
OBJECT
  6
Continuous
 62
     3
100
AcDbCircle
 10
235.527333993116
 20
333.00391904226
 30
0.0
 40
0.25
  0
CIRCLE
  5
194
330
1F
100
AcDbEntity
  8
OBJECT
  6
Continuous
 62
     3
100
AcDbCircle
 10
223.603846024813
 20
328.948300948091
 30
0.0
 40
0.25
  0
CIRCLE
  5
195
330
1F
100
AcDbEntity
  8
OBJECT
  6
Continuous
 62
     3
100
AcDbCircle
 10
217.965330043532
 20
328.597924814858
 30
0.0
 40
0.25
  0
CIRCLE
  5
196
330
1F
100
AcDbEntity
  8
OBJECT
  6
Continuous
 62
     3
100
AcDbCircle
 10
212.810131739669
 20
330.908731989655
 30
0.0
 40
0.25
  0
CIRCLE
  5
197
330
1F
100
AcDbEntity
  8
OBJECT
  6
Continuous
 62
     3
100
AcDbCircle
 10
209.969426671859
 20
346.30211623853
 30
0.0
 40
0.25
  0
CIRCLE
  5
198
330
1F
100
AcDbEntity
  8
OBJECT
  6
Continuous
 62
     3
100
AcDbCircle
 10
208.29468616119
 20
340.90665146954
 30
0.0
 40
0.25
  0
CIRCLE
  5
199
330
1F
100
AcDbEntity
  8
OBJECT
  6
Continuous
 62
     3
100
AcDbCircle
 10
209.319920227154
 20
335.351052318675
 30
0.0
 40
0.25
  0
CIRCLE
  5
19A
330
1F
100
AcDbEntity
  8
OBJECT
  6
Continuous
 62
     3
100
AcDbCircle
 10
228.418753230894
 20
331.864973357029
 30
0.0
 40
0.2500000000009948
  0
CIRCLE
  5
19B
330
1F
100
AcDbEntity
  8
OBJECT
  6
Continuous
 62
     3
100
AcDbCircle
 10
231.340593339687
 20
336.70012009397
 30
0.0
 40
0.25
  0
CIRCLE
  5
19C
330
1F
100
AcDbEntity
  8
OBJECT
  6
Continuous
 62
     3
100
AcDbCircle
 10
231.679992446907
 20
342.339322327893
 30
0.0
 40
0.2500000000009948
  0
CIRCLE
  5
19D
330
1F
100
AcDbEntity
  8
OBJECT
  6
Continuous
 62
     3
100
AcDbCircle
 10
220.645556078642
 20
333.682963921441
 30
0.0
 40
0.25
  0
CIRCLE
  5
19E
330
1F
100
AcDbEntity
  8
OBJECT
  6
Continuous
 62
     3
100
AcDbCircle
 10
216.317617771456
 20
334.842164337191
 30
0.0
 40
0.25
  0
CIRCLE
  5
19F
330
1F
100
AcDbEntity
  8
OBJECT
  6
Continuous
 62
     3
100
AcDbCircle
 10
224.70606883341
 20
335.576910003842
 30
0.0
 40
0.2500000000009948
  0
CIRCLE
  5
1A0
330
1F
100
AcDbEntity
  8
OBJECT
  6
Continuous
 62
     3
100
AcDbCircle
 10
226.599196990231
 20
339.637804163574
 30
0.0
 40
0.25
  0
CIRCLE
  5
1A1
330
1F
100
AcDbEntity
  8
OBJECT
  6
Continuous
 62
     3
100
AcDbCircle
 10
213.960270045112
 20
350.30073638707
 30
0.0
 40
0.25
  0
CIRCLE
  5
1A2
330
1F
100
AcDbEntity
  8
OBJECT
  6
Continuous
 62
     3
100
AcDbCircle
 10
219.352464078037
 20
351.985977365181
 30
0.0
 40
0.25
  0
CIRCLE
  5
1A3
330
1F
100
AcDbEntity
  8
OBJECT
  6
Continuous
 62
     3
100
AcDbCircle
 10
224.910049162131
 20
350.971560479723
 30
0.0
 40
0.25
  0
CIRCLE
  5
1A4
330
1F
100
AcDbEntity
  8
OBJECT
  6
Continuous
 62
     3
100
AcDbCircle
 10
229.359155950375
 20
347.490003015441
 30
0.0
 40
0.25
  0
CIRCLE
  5
1A5
330
1F
100
AcDbEntity
  8
OBJECT
  6
Continuous
 62
     3
100
AcDbCircle
 10
217.305261463797
 20
346.144093044859
 30
0.0
 40
0.25
  0
CIRCLE
  5
1A6
330
1F
100
AcDbEntity
  8
OBJECT
  6
Continuous
 62
     3
100
AcDbCircle
 10
221.76866304661
 20
346.535043048297
 30
0.0
 40
0.25
  0
CIRCLE
  5
1A7
330
1F
100
AcDbEntity
  8
OBJECT
  6
Continuous
 62
     3
100
AcDbCircle
 10
225.439124844752
 20
343.965508891481
 30
0.0
 40
0.2500000000009948
  0
CIRCLE
  5
1A8
330
1F
100
AcDbEntity
  8
1
  6
Continuous
 62
     3
100
AcDbCircle
 10
214.137395302091
 20
342.975588732701
 30
0.0
 40
0.25
  0
CIRCLE
  5
1A9
330
1F
100
AcDbEntity
  8
1
  6
Continuous
 62
     3
100
AcDbCircle
 10
213.747344345464
 20
338.51210849348
 30
0.0
 40
0.25
  0
CIRCLE
  5
1AA
330
1F
100
AcDbEntity
  8
1
  6
Continuous
 62
     3
100
AcDbCircle
 10
220.074025408496
 20
340.208020515206
 30
0.0
 40
40.00000000000003
  0
SPLINE
  5
1AB
330
1F
100
AcDbEntity
  8
0
  6
Continuous
 62
     3
100
AcDbSpline
210
0.0
220
0.0
230
1.0
 70
     8
 71
     3
 72
    37
 73
    33
 74
    31
 42
0.0000000001
 43
0.0000000001
 44
0.00000001
 40
0.0
 40
0.0
 40
0.0
 40
0.0
 40
0.6132767226769372
 40
1.227873700569431
 40
1.611047403310901
 40
1.993961744146112
 40
2.440774509840496
 40
2.887691789128748
 40
3.237721686600299
 40
3.587444122158427
 40
4.071268196832736
 40
4.555721418234714
 40
5.288262733100009
 40
6.020616472466844
 40
7.05851078533653
 40
8.09655179639844
 40
8.77106938662167
 40
9.445314894967236
 40
10.0556908655219
 40
10.66624145598916
 40
11.25845499796256
 40
11.85059890473941
 40
12.40744242832735
 40
12.96428996139054
 40
13.47128572069303
 40
13.97827685045861
 40
14.42517706483441
 40
14.8719491584216
 40
15.25484096830128
 40
15.63805368554325
 40
16.25265311554397
 40
16.86592588196664
 40
16.86592588196664
 40
16.86592588196664
 40
16.86592588196664
 10
1278.82486808933
 20
140.906524452266
 30
0.0
 10
1278.796080012132
 20
140.7011341303059
 30
0.0
 10
1278.738441883087
 20
140.289911324416
 30
0.0
 10
1278.409121435077
 20
139.8442294824694
 30
0.0
 10
1278.080573277148
 20
139.5234522160984
 30
0.0
 10
1277.757510738706
 20
139.2782552093549
 30
0.0
 10
1277.395965050463
 20
139.0530183626233
 30
0.0
 10
1277.025497912446
 20
138.8657230394211
 30
0.0
 10
1276.673188893831
 20
138.716955670794
 30
0.0
 10
1276.300156263597
 20
138.5875010992701
 30
0.0
 10
1275.873836687577
 20
138.4789603639321
 30
0.0
 10
1275.315784673968
 20
138.3776191930692
 30
0.0
 10
1274.670979206478
 20
138.2951028484399
 30
0.0
 10
1273.840290195029
 20
138.2177454555491
 30
0.0
 10
1272.907665128774
 20
138.1371009467937
 30
0.0
 10
1271.993346523502
 20
138.0690668227026
 30
0.0
 10
1271.199189772347
 20
138.0206025284302
 30
0.0
 10
1270.54618938003
 20
138.001733515481
 30
0.0
 10
1269.914359624175
 20
138.0157912965532
 30
0.0
 10
1269.311228122362
 20
138.0577678791213
 30
0.0
 10
1268.716657995993
 20
138.1263684455537
 30
0.0
 10
1268.143747263555
 20
138.2208478510728
 30
0.0
 10
1267.587901341924
 20
138.3418606874345
 30
0.0
 10
1267.06690984122
 20
138.4858970632884
 30
0.0
 10
1266.570985190007
 20
138.6549107450375
 30
0.0
 10
1266.12122061772
 20
138.842645380072
 30
0.0
 10
1265.704232733626
 20
139.0537808851772
 30
0.0
 10
1265.342166519461
 20
139.2781458806594
 30
0.0
 10
1265.019053997648
 20
139.5233100737882
 30
0.0
 10
1264.690690861533
 20
139.8442773970319
 30
0.0
 10
1264.36129204547
 20
140.2898977775846
 30
0.0
 10
1264.303661848713
 20
140.7011303337891
 30
0.0
 10
1264.27487788382
 20
140.906524452266
 30
0.0
 11
1278.82486808933
 21
140.906524452266
 31
0.0
 11
1278.690268679698
 21
140.3082006791263
 31
0.0
 11
1278.349115540304
 21
139.7969825449449
 31
0.0
 11
1278.075069603264
 21
139.5291749444841
 31
0.0
 11
1277.771553745074
 21
139.2957193464689
 31
0.0
 11
1277.392719749859
 21
139.0588091279126
 31
0.0
 11
1276.994286906117
 21
138.8563583349915
 31
0.0
 11
1276.671706185036
 21
138.7204811569559
 31
0.0
 11
1276.341205910835
 21
138.606133657265
 31
0.0
 11
1275.872916426792
 21
138.4845166585807
 31
0.0
 11
1275.396669021472
 21
138.3957285250641
 31
0.0
 11
1274.670504958016
 21
138.2992788960883
 31
0.0
 11
1273.941642564762
 21
138.2278533315903
 31
0.0
 11
1272.907543905243
 21
138.1391709372293
 31
0.0
 11
1271.872311485939
 21
138.0628624929534
 31
0.0
 11
1271.198902989365
 21
138.0241975700618
 31
0.0
 11
1270.524872986576
 21
138.0071517240984
 31
0.0
 11
1269.914644987836
 21
138.0205910315375
 31
0.0
 11
1269.305559487213
 21
138.062862492953
 31
0.0
 11
1268.717292878707
 21
138.1311213869855
 31
0.0
 11
1268.133103408393
 21
138.2278533315901
 31
0.0
 11
1267.589123902312
 21
138.346853359849
 31
0.0
 11
1267.052561915665
 21
138.4957842483986
 31
0.0
 11
1266.572970380005
 21
138.6602125272118
 31
0.0
 11
1266.105459067039
 21
138.8563583349914
 31
0.0
 11
1265.707341632843
 21
139.0593911160845
 31
0.0
 11
1265.32819222808
 21
139.2957193464686
 31
0.0
 11
1265.024608494358
 21
139.5290497017422
 31
0.0
 11
1264.750630432847
 21
139.7969825449449
 31
0.0
 11
1264.409479796279
 21
140.3082052973009
 31
0.0
 11
1264.27487788382
 21
140.906524452266
 31
0.0
  0
SPLINE
  5
1AC
330
1F
100
AcDbEntity
  8
0
  6
Continuous
 62
     3
100
AcDbSpline
210
0.0
220
0.0
230
1.0
 70
     8
 71
     3
 72
    37
 73
    33
 74
    31
 42
0.0000000001
 43
0.0000000001
 44
0.00000001
 40
0.0
 40
0.0
 40
0.0
 40
0.0
 40
0.6132767226762745
 40
1.227873700568772
 40
1.611047403309914
 40
1.993961744145615
 40
2.440774509839875
 40
2.887691789128551
 40
3.237721686599689
 40
3.58744412215778
 40
4.071268196832021
 40
4.555721418234378
 40
5.288262733099421
 40
6.020616472466021
 40
7.058510785335712
 40
8.09655179639809
 40
8.771069386621338
 40
9.445314894966678
 40
10.05569086552112
 40
10.6662414559884
 40
11.25845499796203
 40
11.8505989047389
 40
12.40744242832705
 40
12.96428996139042
 40
13.47128572069194
 40
13.97827685045761
 40
14.42517706483356
 40
14.87194915842062
 40
15.25484096830079
 40
15.63805368554258
 40
16.25265311554373
 40
16.86592588196556
 40
16.86592588196556
 40
16.86592588196556
 40
16.86592588196556
 10
1278.82486808933
 20
120.706527091624
 30
0.0
 10
1278.796080012132
 20
120.9119174135838
 30
0.0
 10
1278.738441883087
 20
121.3231402194735
 30
0.0
 10
1278.409121435076
 20
121.7688220614197
 30
0.0
 10
1278.080573277148
 20
122.0895993277916
 30
0.0
 10
1277.757510738706
 20
122.3347963345346
 30
0.0
 10
1277.395965050463
 20
122.5600331812669
 30
0.0
 10
1277.025497912446
 20
122.7473285044686
 30
0.0
 10
1276.673188893831
 20
122.8960958730962
 30
0.0
 10
1276.300156263597
 20
123.0255504446197
 30
0.0
 10
1275.873836687578
 20
123.1340911799576
 30
0.0
 10
1275.315784673967
 20
123.2354323508198
 30
0.0
 10
1274.670979206478
 20
123.3179486954492
 30
0.0
 10
1273.840290195029
 20
123.3953060883398
 30
0.0
 10
1272.907665128774
 20
123.4759505970955
 30
0.0
 10
1271.993346523502
 20
123.5439847211865
 30
0.0
 10
1271.199189772347
 20
123.5924490154595
 30
0.0
 10
1270.54618938003
 20
123.6113180284088
 30
0.0
 10
1269.914359624175
 20
123.5972602473364
 30
0.0
 10
1269.311228122363
 20
123.5552836647677
 30
0.0
 10
1268.716657995993
 20
123.4866830983354
 30
0.0
 10
1268.143747263555
 20
123.3922036928161
 30
0.0
 10
1267.587901341924
 20
123.2711908564545
 30
0.0
 10
1267.066909841219
 20
123.127154480601
 30
0.0
 10
1266.570985190007
 20
122.9581407988517
 30
0.0
 10
1266.12122061772
 20
122.7704061638179
 30
0.0
 10
1265.704232733626
 20
122.559270658713
 30
0.0
 10
1265.342166519461
 20
122.3349056632302
 30
0.0
 10
1265.019053997648
 20
122.0897414701017
 30
0.0
 10
1264.690690861533
 20
121.7687741468571
 30
0.0
 10
1264.36129204547
 20
121.3231537663051
 30
0.0
 10
1264.303661848713
 20
120.9119212101006
 30
0.0
 10
1264.27487788382
 20
120.706527091624
 30
0.0
 11
1278.82486808933
 21
120.706527091624
 31
0.0
 11
1278.690268679698
 21
121.3048508647629
 31
0.0
 11
1278.349115540304
 21
121.8160689989444
 31
0.0
 11
1278.075069603264
 21
122.0838765994055
 31
0.0
 11
1277.771553745074
 21
122.3173321974209
 31
0.0
 11
1277.392719749859
 21
122.5542424159773
 31
0.0
 11
1276.994286906117
 21
122.7566932088985
 31
0.0
 11
1276.671706185036
 21
122.8925703869341
 31
0.0
 11
1276.341205910835
 21
123.0069178866249
 31
0.0
 11
1275.872916426792
 21
123.1285348853089
 31
0.0
 11
1275.396669021472
 21
123.2173230188252
 31
0.0
 11
1274.670504958016
 21
123.3137726478007
 31
0.0
 11
1273.941642564762
 21
123.3851982122987
 31
0.0
 11
1272.907543905244
 21
123.4738806066597
 31
0.0
 11
1271.872311485939
 21
123.5501890509358
 31
0.0
 11
1271.198902989365
 21
123.5888539738278
 31
0.0
 11
1270.524872986576
 21
123.6058998197913
 31
0.0
 11
1269.914644987836
 21
123.5924605123519
 31
0.0
 11
1269.305559487213
 21
123.5501890509361
 31
0.0
 11
1268.717292878707
 21
123.4819301569035
 31
0.0
 11
1268.133103408393
 21
123.3851982122989
 31
0.0
 11
1267.589123902312
 21
123.2661981840401
 31
0.0
 11
1267.052561915665
 21
123.1172672954905
 31
0.0
 11
1266.572970380005
 21
122.9528390166778
 31
0.0
 11
1266.105459067039
 21
122.7566932088984
 31
0.0
 11
1265.707341632843
 21
122.5536604278054
 31
0.0
 11
1265.32819222808
 21
122.3173321974212
 31
0.0
 11
1265.024608494357
 21
122.0840018421475
 31
0.0
 11
1264.750630432847
 21
121.8160689989445
 31
0.0
 11
1264.409479796278
 21
121.3048462465883
 31
0.0
 11
1264.27487788382
 21
120.706527091624
 31
0.0
  0
SPLINE
  5
1AD
330
1F
100
AcDbEntity
  8
1
  6
Continuous
 62
     1
100
AcDbSpline
210
0.0
220
0.0
230
1.0
 70
     8
 71
     3
 72
    15
 73
    11
 74
     9
 42
0.0000000001
 43
0.0000000001
 44
0.00000001
 40
0.0
 40
0.0
 40
0.0
 40
0.0
 40
7.081041389914777
 40
14.15345603018731
 40
16.07548738795679
 40
18.22165323293947
 40
20.36747304350158
 40
22.29287745760289
 40
27.49570884207039
 40
32.65480596415114
 40
32.65480596415114
 40
32.65480596415114
 40
32.65480596415114
 10
274.005800260802
 20
265.063042627232
 30
0.0
 10
274.6562215732895
 20
267.771740188758
 30
0.0
 10
275.956271797611
 20
273.1858353373524
 30
0.0
 10
283.3005177651509
 20
271.0220351900747
 30
0.0
 10
285.4605956015507
 20
274.3014504455418
 30
0.0
 10
286.2037821516261
 20
276.2159275927047
 30
0.0
 10
286.9723373358608
 20
278.1250596649169
 30
0.0
 10
288.8999137844556
 20
280.7778839585762
 30
0.0
 10
293.980104823789
 20
279.7857828464485
 30
0.0
 10
295.8756747834366
 20
283.0503807316121
 30
0.0
 10
296.819459477313
 20
284.675790281915
 30
0.0
 11
274.005800260802
 21
265.063042627232
 31
0.0
 11
277.2501632460107
 21
271.3571077671788
 31
0.0
 11
284.1911306887578
 21
272.7143180687407
 31
0.0
 11
285.3496737605068
 21
274.2479355214164
 31
0.0
 11
286.2081327264928
 21
276.21493222652
 31
0.0
 11
287.0948502284382
 21
278.1689728430745
 31
0.0
 11
288.3256414561198
 21
279.649626452702
 31
0.0
 11
293.3959945047513
 21
280.8162345177493
 31
0.0
 11
296.819459477313
 21
284.675790281915
 31
0.0
  0
LWPOLYLINE
  5
1AE
330
1F
100
AcDbEntity
  8
OBJECT
  6
Continuous
 62
     4
 60
     1
100
AcDbPolyline
 90
        2
 70
     0
 43
0.0
 10
99.5565517341212
 20
206.837770185082
 10
104.8496198583
 20
202.236576262375
  0
LWPOLYLINE
  5
1AF
330
1F
100
AcDbEntity
  8
OBJECT
  6
Continuous
 62
     4
 60
     1
100
AcDbPolyline
 90
        2
 70
     0
 43
0.0
 10
104.8496198583
 20
202.236576262375
 10
111.410247450008
 20
209.783734900288
  0
LWPOLYLINE
  5
1B0
330
1F
100
AcDbEntity
  8
OBJECT
  6
Continuous
 62
     4
 60
     1
100
AcDbPolyline
 90
        2
 70
     0
 43
0.0
 10
111.410247450008
 20
209.783734900288
 10
120.844395788587
 20
201.582798168899
  0
LWPOLYLINE
  5
1B1
330
1F
100
AcDbEntity
  8
OBJECT
  6
Continuous
 62
     4
 60
     1
100
AcDbPolyline
 90
        2
 70
     0
 43
0.0
 10
120.844395788587
 20
201.582798168899
 10
114.283726729546
 20
194.03563227606
  0
LWPOLYLINE
  5
1B2
330
1F
100
AcDbEntity
  8
OBJECT
  6
Continuous
 62
     4
 60
     1
100
AcDbPolyline
 90
        2
 70
     0
 43
0.0
 10
114.283726729546
 20
194.03563227606
 10
127.160180278398
 20
182.842301975937
  0
LWPOLYLINE
  5
1B3
330
1F
100
AcDbEntity
  8
OBJECT
  6
Continuous
 62
     4
 60
     1
100
AcDbPolyline
 90
        2
 70
     0
 43
0.0
 10
198.676891399255
 20
100.857867869595
 10
211.553344948109
 20
112.051198169716
  0
LWPOLYLINE
  5
1B4
330
1F
100
AcDbEntity
  8
OBJECT
  6
Continuous
 62
     4
 60
     1
100
AcDbPolyline
 90
        2
 70
     0
 43
0.0
 10
85.0987171832491
 20
187.672083971006
 10
90.3917853074281
 20
183.070890048299
  0
LWPOLYLINE
  5
1B5
330
1F
100
AcDbEntity
  8
OBJECT
  6
Continuous
 62
     4
 60
     1
100
AcDbPolyline
 90
        2
 70
     0
 43
0.0
 10
90.3917853074281
 20
183.070890048299
 10
96.9524128991361
 20
190.618048686212
  0
LWPOLYLINE
  5
1B6
330
1F
100
AcDbEntity
  8
OBJECT
  6
Continuous
 62
     4
 60
     1
100
AcDbPolyline
 90
        2
 70
     0
 43
0.0
 10
96.9524128991361
 20
190.618048686212
 10
106.386561237714
 20
182.417111954824
  0
LWPOLYLINE
  5
1B7
330
1F
100
AcDbEntity
  8
OBJECT
  6
Continuous
 62
     4
 60
     1
100
AcDbPolyline
 90
        2
 70
     0
 43
0.0
 10
106.386561237714
 20
182.417111954824
 10
99.8258921786741
 20
174.869946061984
  0
LWPOLYLINE
  5
1B8
330
1F
100
AcDbEntity
  8
OBJECT
  6
Continuous
 62
     4
 60
     1
100
AcDbPolyline
 90
        2
 70
     0
 43
0.0
 10
99.8258921786741
 20
174.869946061984
 10
112.702345727526
 20
163.676615761861
  0
TEXT
  5
1BA
330
1F
100
AcDbEntity
  8
1
 62
     4
100
AcDbText
 10
1079.96909482724
 20
421.27520163452
 30
0.0
 40
10.0
  1
HSS-3
 41
0.9
  7
CONVERTER_11
100
AcDbText
  0
ENDSEC
  0
SECTION
  2
OBJECTS
  0
DICTIONARY
  5
C
330
0
100
AcDbDictionary
281
     1
  3
ACAD_GROUP
350
D
  3
ACAD_LAYOUT
350
1A
  3
ACAD_MLINESTYLE
350
17
  3
ACAD_PLOTSETTINGS
350
19
  3
ACAD_PLOTSTYLENAME
350
E
  3
ACAD_TABLESTYLE
350
1BB
  3
ACAD_VISUALSTYLE
350
2A
  0
DICTIONARY
  5
D
102
{ACAD_REACTORS
330
C
102
}
330
C
100
AcDbDictionary
281
     1
  0
DICTIONARY
  5
1A
102
{ACAD_REACTORS
330
C
102
}
330
C
100
AcDbDictionary
281
     1
  3
Layout1
350
1E
  3
Layout2
350
26
  3
Model
350
22
  0
DICTIONARY
  5
17
102
{ACAD_REACTORS
330
C
102
}
330
C
100
AcDbDictionary
281
     1
  3
Standard
350
18
  0
DICTIONARY
  5
19
102
{ACAD_REACTORS
330
C
102
}
330
C
100
AcDbDictionary
281
     1
  0
ACDBDICTIONARYWDFLT
  5
E
102
{ACAD_REACTORS
330
C
102
}
330
C
100
AcDbDictionary
281
     1
  3
Normal
350
F
100
AcDbDictionaryWithDefault
340
F
  0
DICTIONARY
  5
1BB
102
{ACAD_REACTORS
330
C
102
}
330
C
100
AcDbDictionary
281
     1
  0
DICTIONARY
  5
2A
102
{ACAD_REACTORS
330
C
102
}
330
C
100
AcDbDictionary
281
     1
  3
2dWireframe
350
2F
  3
3D Hidden
350
31
  3
3dWireframe
350
30
  3
Basic
350
32
  3
Brighten
350
36
  3
ColorChange
350
3A
  3
Conceptual
350
34
  3
Dim
350
35
  3
Facepattern
350
39
  3
Flat
350
2B
  3
FlatWithEdges
350
2C
  3
Gouraud
350
2D
  3
GouraudWithEdges
350
2E
  3
Linepattern
350
38
  3
Realistic
350
33
  3
Thicken
350
37
  0
LAYOUT
  5
1E
102
{ACAD_REACTORS
330
1A
102
}
330
1A
100
AcDbPlotSettings
  1

  2
none_device
  4

  6

 40
0.0
 41
0.0
 42
0.0
 43
0.0
 44
0.0
 45
0.0
 46
0.0
 47
0.0
 48
0.0
 49
0.0
140
0.0
141
0.0
142
1.0
143
1.0
 70
   688
 72
     0
 73
     0
 74
     5
  7

 75
    16
147
1.0
148
0.0
149
0.0
100
AcDbLayout
  1
Layout1
 70
     1
 71
     1
 10
0.0
 20
0.0
 11
12.0
 21
9.0
 12
0.0
 22
0.0
 32
0.0
 14
1.00000000000000E+20
 24
1.00000000000000E+20
 34
1.00000000000000E+20
 15
-1.00000000000000E+20
 25
-1.00000000000000E+20
 35
-1.00000000000000E+20
146
0.0
 13
0.0
 23
0.0
 33
0.0
 16
1.0
 26
0.0
 36
0.0
 17
0.0
 27
1.0
 37
0.0
 76
     0
330
1B
  0
LAYOUT
  5
26
102
{ACAD_REACTORS
330
1A
102
}
330
1A
100
AcDbPlotSettings
  1

  2
none_device
  4

  6

 40
0.0
 41
0.0
 42
0.0
 43
0.0
 44
0.0
 45
0.0
 46
0.0
 47
0.0
 48
0.0
 49
0.0
140
0.0
141
0.0
142
1.0
143
1.0
 70
   688
 72
     0
 73
     0
 74
     5
  7

 75
    16
147
1.0
148
0.0
149
0.0
100
AcDbLayout
  1
Layout2
 70
     1
 71
     2
 10
0.0
 20
0.0
 11
0.0
 21
0.0
 12
0.0
 22
0.0
 32
0.0
 14
0.0
 24
0.0
 34
0.0
 15
0.0
 25
0.0
 35
0.0
146
0.0
 13
0.0
 23
0.0
 33
0.0
 16
1.0
 26
0.0
 36
0.0
 17
0.0
 27
1.0
 37
0.0
 76
     0
330
23
  0
LAYOUT
  5
22
102
{ACAD_REACTORS
330
1A
102
}
330
1A
100
AcDbPlotSettings
  1

  2
none_device
  4

  6

 40
0.0
 41
0.0
 42
0.0
 43
0.0
 44
0.0
 45
0.0
 46
0.0
 47
0.0
 48
0.0
 49
0.0
140
0.0
141
0.0
142
1.0
143
1.0
 70
  1712
 72
     0
 73
     0
 74
     0
  7

 75
     0
147
1.0
148
0.0
149
0.0
100
AcDbLayout
  1
Model
 70
     1
 71
     0
 10
0.0
 20
0.0
 11
12.0
 21
9.0
 12
0.0
 22
0.0
 32
0.0
 14
47.45943126225495
 24
115.306525771945
 34
0.0
 15
1315.94822895199
 25
431.27520163452
 35
0.0
146
0.0
 13
0.0
 23
0.0
 33
0.0
 16
1.0
 26
0.0
 36
0.0
 17
0.0
 27
1.0
 37
0.0
 76
     0
330
1F
331
29
  0
MLINESTYLE
  5
18
102
{ACAD_REACTORS
330
17
102
}
330
17
100
AcDbMlineStyle
  2
Standard
 70
     0
  3

 62
   256
 51
90.0
 52
90.0
 71
     2
 49
0.5
 62
   256
  6
BYLAYER
 49
-0.5
 62
   256
  6
BYLAYER
  0
ACDBPLACEHOLDER
  5
F
102
{ACAD_REACTORS
330
E
102
}
330
E
  0
VISUALSTYLE
  5
2F
102
{ACAD_REACTORS
330
2A
102
}
330
2A
100
AcDbVisualStyle
  2
2dWireframe
 70
     4
 71
     0
 72
     2
 73
     0
 90
        0
 40
-0.6
 41
-30.0
 62
     5
 63
     7
 74
     1
 91
        4
 64
     7
 65
   257
 75
     1
175
     1
 42
1.0
 92
        0
 66
   257
 43
1.0
 76
     1
 77
     6
 78
     2
 67
     7
 79
     5
170
     0
171
     0
290
     0
174
     0
 93
        1
 44
0.0
173
     0
291
     0
 45
0.0
1001
ACAD
1000
AcDbSavedByObjectVersion
1070
     0
  0
VISUALSTYLE
  5
31
102
{ACAD_REACTORS
330
2A
102
}
330
2A
100
AcDbVisualStyle
  2
3D Hidden
 70
     6
 71
     1
 72
     2
 73
     2
 90
        0
 40
-0.6
 41
-30.0
 62
     5
 63
     7
 74
     2
 91
        2
 64
     7
 65
   257
 75
     2
175
     1
 42
40.0
 92
        0
 66
   257
 43
1.0
 76
     1
 77
     6
 78
     2
 67
     7
 79
     3
170
     0
171
     0
290
     0
174
     0
 93
        1
 44
0.0
173
     0
291
     0
 45
0.0
1001
ACAD
1000
AcDbSavedByObjectVersion
1070
     0
  0
VISUALSTYLE
  5
30
102
{ACAD_REACTORS
330
2A
102
}
330
2A
100
AcDbVisualStyle
  2
3dWireframe
 70
     5
 71
     0
 72
     2
 73
     0
 90
        0
 40
-0.6
 41
-30.0
 62
     5
 63
     7
 74
     1
 91
        4
 64
     7
 65
   257
 75
     1
175
     1
 42
1.0
 92
        0
 66
   257
 43
1.0
 76
     1
 77
     6
 78
     2
 67
     7
 79
     5
170
     0
171
     0
290
     0
174
     0
 93
        1
 44
0.0
173
     0
291
     0
 45
0.0
1001
ACAD
1000
AcDbSavedByObjectVersion
1070
     0
  0
VISUALSTYLE
  5
32
102
{ACAD_REACTORS
330
2A
102
}
330
2A
100
AcDbVisualStyle
  2
Basic
 70
     7
 71
     1
 72
     0
 73
     1
 90
        0
 40
-0.6
 41
-30.0
 62
     5
 63
     7
 74
     0
 91
        4
 64
     7
 65
   257
 75
     1
175
     1
 42
1.0
 92
        8
 66
     7
 43
1.0
 76
     1
 77
     6
 78
     2
 67
     7
 79
     5
170
     0
171
     0
290
     0
174
     0
 93
        1
 44
0.0
173
     0
291
     1
 45
0.0
1001
ACAD
1000
AcDbSavedByObjectVersion
1070
     0
  0
VISUALSTYLE
  5
36
102
{ACAD_REACTORS
330
2A
102
}
330
2A
100
AcDbVisualStyle
  2
Brighten
 70
    12
 71
     2
 72
     2
 73
     0
 90
        0
 40
-0.6
 41
-30.0
 62
     5
 63
     7
 74
     1
 91
        4
 64
     7
 65
   257
 75
     1
175
     1
 42
1.0
 92
        8
 66
     7
 43
1.0
 76
     1
 77
     6
 78
     2
 67
     7
 79
     5
170
     0
171
     0
290
     0
174
     0
 93
        1
 44
50.0
173
     0
291
     1
 45
0.0
1001
ACAD
1000
AcDbSavedByObjectVersion
1070
     0
  0
VISUALSTYLE
  5
3A
102
{ACAD_REACTORS
330
2A
102
}
330
2A
100
AcDbVisualStyle
  2
ColorChange
 70
    16
 71
     2
 72
     2
 73
     3
 90
        0
 40
-0.6
 41
-30.0
 62
     5
 63
     8
 74
     1
 91
        4
 64
     7
 65
   257
 75
     1
175
     1
 42
1.0
 92
        8
 66
     8
 43
1.0
 76
     1
 77
     6
 78
     2
 67
     7
 79
     5
170
     0
171
     0
290
     0
174
     0
 93
        1
 44
0.0
173
     0
291
     1
 45
0.0
1001
ACAD
1000
AcDbSavedByObjectVersion
1070
     0
  0
VISUALSTYLE
  5
34
102
{ACAD_REACTORS
330
2A
102
}
330
2A
100
AcDbVisualStyle
  2
Conceptual
 70
     9
 71
     3
 72
     2
 73
     0
 90
        0
 40
-0.6
 41
-30.0
 62
     5
 63
     7
 74
     2
 91
        2
 64
     7
 65
   257
 75
     1
175
     1
 42
40.0
 92
        8
 66
     7
 43
1.0
 76
     1
 77
     6
 78
     2
 67
     7
 79
     3
170
     0
171
     0
290
     0
174
     0
 93
        1
 44
0.0
173
     0
291
     0
 45
0.0
1001
ACAD
1000
AcDbSavedByObjectVersion
1070
     0
  0
VISUALSTYLE
  5
35
102
{ACAD_REACTORS
330
2A
102
}
330
2A
100
AcDbVisualStyle
  2
Dim
 70
    11
 71
     2
 72
     2
 73
     0
 90
        0
 40
-0.6
 41
-30.0
 62
     5
 63
     7
 74
     1
 91
        4
 64
     7
 65
   257
 75
     1
175
     1
 42
1.0
 92
        8
 66
     7
 43
1.0
 76
     1
 77
     6
 78
     2
 67
     7
 79
     5
170
     0
171
     0
290
     0
174
     0
 93
        1
 44
-50.0
173
     0
291
     1
 45
0.0
1001
ACAD
1000
AcDbSavedByObjectVersion
1070
     0
  0
VISUALSTYLE
  5
39
102
{ACAD_REACTORS
330
2A
102
}
330
2A
100
AcDbVisualStyle
  2
Facepattern
 70
    15
 71
     2
 72
     2
 73
     0
 90
        0
 40
-0.6
 41
-30.0
 62
     5
 63
     7
 74
     1
 91
        4
 64
     7
 65
   257
 75
     1
175
     1
 42
1.0
 92
        8
 66
     7
 43
1.0
 76
     1
 77
     6
 78
     2
 67
     7
 79
     5
170
     0
171
     0
290
     0
174
     0
 93
        1
 44
0.0
173
     0
291
     1
 45
0.0
1001
ACAD
1000
AcDbSavedByObjectVersion
1070
     0
  0
VISUALSTYLE
  5
2B
102
{ACAD_REACTORS
330
2A
102
}
330
2A
100
AcDbVisualStyle
  2
Flat
 70
     0
 71
     2
 72
     1
 73
     1
 90
        2
 40
-0.6
 41
30.0
 62
     5
 63
     7
 74
     0
 91
        4
 64
     7
 65
   257
 75
     1
175
     1
 42
1.0
 92
        8
 66
     7
 43
1.0
 76
     1
 77
     6
 78
     2
 67
     7
 79
     5
170
     0
171
     0
290
     0
174
     0
 93
       13
 44
0.0
173
     0
291
     1
 45
0.0
1001
ACAD
1000
AcDbSavedByObjectVersion
1070
     0
  0
VISUALSTYLE
  5
2C
102
{ACAD_REACTORS
330
2A
102
}
330
2A
100
AcDbVisualStyle
  2
FlatWithEdges
 70
     1
 71
     2
 72
     1
 73
     1
 90
        2
 40
-0.6
 41
30.0
 62
     5
 63
     7
 74
     1
 91
        4
 64
     7
 65
   257
 75
     1
175
     1
 42
1.0
 92
        0
 66
   257
 43
1.0
 76
     1
 77
     6
 78
     2
 67
     7
 79
     5
170
     0
171
     0
290
     0
174
     0
 93
       13
 44
0.0
173
     0
291
     1
 45
0.0
1001
ACAD
1000
AcDbSavedByObjectVersion
1070
     0
  0
VISUALSTYLE
  5
2D
102
{ACAD_REACTORS
330
2A
102
}
330
2A
100
AcDbVisualStyle
  2
Gouraud
 70
     2
 71
     2
 72
     2
 73
     1
 90
        2
 40
-0.6
 41
30.0
 62
     5
 63
     7
 74
     0
 91
        4
 64
     7
 65
   257
 75
     1
175
     1
 42
1.0
 92
        0
 66
     7
 43
1.0
 76
     1
 77
     6
 78
     2
 67
     7
 79
     5
170
     0
171
     0
290
     0
174
     0
 93
       13
 44
0.0
173
     0
291
     1
 45
0.0
1001
ACAD
1000
AcDbSavedByObjectVersion
1070
     0
  0
VISUALSTYLE
  5
2E
102
{ACAD_REACTORS
330
2A
102
}
330
2A
100
AcDbVisualStyle
  2
GouraudWithEdges
 70
     3
 71
     2
 72
     2
 73
     1
 90
        2
 40
-0.6
 41
30.0
 62
     5
 63
     7
 74
     1
 91
        4
 64
     7
 65
   257
 75
     1
175
     1
 42
1.0
 92
        0
 66
   257
 43
1.0
 76
     1
 77
     6
 78
     2
 67
     7
 79
     5
170
     0
171
     0
290
     0
174
     0
 93
       13
 44
0.0
173
     0
291
     1
 45
0.0
1001
ACAD
1000
AcDbSavedByObjectVersion
1070
     0
  0
VISUALSTYLE
  5
38
102
{ACAD_REACTORS
330
2A
102
}
330
2A
100
AcDbVisualStyle
  2
Linepattern
 70
    14
 71
     2
 72
     2
 73
     0
 90
        0
 40
-0.6
 41
-30.0
 62
     5
 63
     7
 74
     1
 91
        4
 64
     7
 65
   257
 75
     7
175
     7
 42
1.0
 92
        8
 66
     7
 43
1.0
 76
     1
 77
     6
 78
     2
 67
     7
 79
     5
170
     0
171
     0
290
     0
174
     0
 93
        1
 44
0.0
173
     0
291
     1
 45
0.0
1001
ACAD
1000
AcDbSavedByObjectVersion
1070
     0
  0
VISUALSTYLE
  5
33
102
{ACAD_REACTORS
330
2A
102
}
330
2A
100
AcDbVisualStyle
  2
Realistic
 70
     8
 71
     2
 72
     2
 73
     0
 90
        0
 40
-0.6
 41
-30.0
 62
     5
 63
     7
 74
     1
 91
        0
 64
     7
 65
   257
 75
     1
175
     1
 42
1.0
 92
        8
 66
     8
 43
1.0
 76
     1
 77
     6
 78
     2
 67
     7
 79
     5
170
     0
171
     0
290
     0
174
     0
 93
       13
 44
0.0
173
     0
291
     0
 45
0.0
1001
ACAD
1000
AcDbSavedByObjectVersion
1070
     0
  0
VISUALSTYLE
  5
37
102
{ACAD_REACTORS
330
2A
102
}
330
2A
100
AcDbVisualStyle
  2
Thicken
 70
    13
 71
     2
 72
     2
 73
     0
 90
        0
 40
-0.6
 41
-30.0
 62
     5
 63
     7
 74
     1
 91
        4
 64
     7
 65
   257
 75
     1
175
     1
 42
1.0
 92
       12
 66
     7
 43
1.0
 76
     1
 77
     6
 78
     2
 67
     7
 79
     5
170
     0
171
     0
290
     0
174
     0
 93
        1
 44
0.0
173
     0
291
     1
 45
0.0
1001
ACAD
1000
AcDbSavedByObjectVersion
1070
     0
  0
ENDSEC
  0
EOF
