  0
SECTION
  2
HEADER
  9
$ACADVER
  1
AC1015
  9
$ACADMAINTVER
 70
     6
  9
$DWGCODEPAGE
  3
ANSI_932
  9
$INSBASE
 10
0.0
 20
0.0
 30
0.0
  9
$EXTMIN
 10
201.3
 20
98.2
 30
0.0
  9
$EXTMAX
 10
1300.18535251538
 20
805.886836221096
 30
0.0
  9
$LIMMIN
 10
0.0
 20
0.0
  9
$LIMMAX
 10
12.0
 20
9.0
  9
$ORTHOMODE
 70
     0
  9
$REGENMODE
 70
     1
  9
$FILLMODE
 70
     1
  9
$QTEXTMODE
 70
     0
  9
$MIRRTEXT
 70
     1
  9
$LTSCALE
 40
1.0
  9
$ATTMODE
 70
     1
  9
$TEXTSIZE
 40
0.2
  9
$TRACEWID
 40
0.05
  9
$TEXTSTYLE
  7
Standard
  9
$CLAYER
  8
0
  9
$CELTYPE
  6
ByLayer
  9
$CECOLOR
 62
   256
  9
$CELTSCALE
 40
1.0
  9
$DISPSILH
 70
     0
  9
$DIMSCALE
 40
1.0
  9
$DIMASZ
 40
0.18
  9
$DIMEXO
 40
0.0625
  9
$DIMDLI
 40
0.38
  9
$DIMRND
 40
0.0
  9
$DIMDLE
 40
0.0
  9
$DIMEXE
 40
0.18
  9
$DIMTP
 40
0.0
  9
$DIMTM
 40
0.0
  9
$DIMTXT
 40
0.18
  9
$DIMCEN
 40
0.09
  9
$DIMTSZ
 40
0.0
  9
$DIMTOL
 70
     0
  9
$DIMLIM
 70
     0
  9
$DIMTIH
 70
     1
  9
$DIMTOH
 70
     1
  9
$DIMSE1
 70
     0
  9
$DIMSE2
 70
     0
  9
$DIMTAD
 70
     0
  9
$DIMZIN
 70
     0
  9
$DIMBLK
  1

  9
$DIMASO
 70
     1
  9
$DIMSHO
 70
     1
  9
$DIMPOST
  1

  9
$DIMAPOST
  1

  9
$DIMALT
 70
     0
  9
$DIMALTD
 70
     2
  9
$DIMALTF
 40
25.4
  9
$DIMLFAC
 40
1.0
  9
$DIMTOFL
 70
     0
  9
$DIMTVP
 40
0.0
  9
$DIMTIX
 70
     0
  9
$DIMSOXD
 70
     0
  9
$DIMSAH
 70
     0
  9
$DIMBLK1
  1

  9
$DIMBLK2
  1

  9
$DIMSTYLE
  2
Standard
  9
$DIMCLRD
 70
     0
  9
$DIMCLRE
 70
     0
  9
$DIMCLRT
 70
     0
  9
$DIMTFAC
 40
1.0
  9
$DIMGAP
 40
0.09
  9
$DIMJUST
 70
     0
  9
$DIMSD1
 70
     0
  9
$DIMSD2
 70
     0
  9
$DIMTOLJ
 70
     1
  9
$DIMTZIN
 70
     0
  9
$DIMALTZ
 70
     0
  9
$DIMALTTZ
 70
     0
  9
$DIMUPT
 70
     0
  9
$DIMDEC
 70
     4
  9
$DIMTDEC
 70
     4
  9
$DIMALTU
 70
     2
  9
$DIMALTTD
 70
     2
  9
$DIMTXSTY
  7
Standard
  9
$DIMAUNIT
 70
     0
  9
$DIMADEC
 70
     0
  9
$DIMALTRND
 40
0.0
  9
$DIMAZIN
 70
     0
  9
$DIMDSEP
 70
    46
  9
$DIMATFIT
 70
     3
  9
$DIMFRAC
 70
     0
  9
$DIMLDRBLK
  1

  9
$DIMLUNIT
 70
     2
  9
$DIMLWD
 70
    -2
  9
$DIMLWE
 70
    -2
  9
$DIMTMOVE
 70
     0
  9
$LUNITS
 70
     2
  9
$LUPREC
 70
     4
  9
$SKETCHINC
 40
0.1
  9
$FILLETRAD
 40
0.5
  9
$AUNITS
 70
     0
  9
$AUPREC
 70
     0
  9
$MENU
  1
.
  9
$ELEVATION
 40
0.0
  9
$PELEVATION
 40
0.0
  9
$THICKNESS
 40
0.0
  9
$LIMCHECK
 70
     0
  9
$CHAMFERA
 40
0.5
  9
$CHAMFERB
 40
0.5
  9
$CHAMFERC
 40
1.0
  9
$CHAMFERD
 40
0.0
  9
$SKPOLY
 70
     0
  9
$TDCREATE
 40
2457624.640339826
  9
$TDUCREATE
 40
2457624.265339826
  9
$TDUPDATE
 40
2457624.640339838
  9
$TDUUPDATE
 40
2457624.265339838
  9
$TDINDWG
 40
0.0000000116
  9
$TDUSRTIMER
 40
0.0000000116
  9
$USRTIMER
 70
     1
  9
$ANGBASE
 50
0.0
  9
$ANGDIR
 70
     0
  9
$PDMODE
 70
     0
  9
$PDSIZE
 40
0.0
  9
$PLINEWID
 40
0.0
  9
$SPLFRAME
 70
     0
  9
$SPLINETYPE
 70
     6
  9
$SPLINESEGS
 70
     8
  9
$HANDSEED
  5
4F9
  9
$SURFTAB1
 70
     6
  9
$SURFTAB2
 70
     6
  9
$SURFTYPE
 70
     6
  9
$SURFU
 70
     6
  9
$SURFV
 70
     6
  9
$UCSBASE
  2

  9
$UCSNAME
  2

  9
$UCSORG
 10
0.0
 20
0.0
 30
0.0
  9
$UCSXDIR
 10
1.0
 20
0.0
 30
0.0
  9
$UCSYDIR
 10
0.0
 20
1.0
 30
0.0
  9
$UCSORTHOREF
  2

  9
$UCSORTHOVIEW
 70
     0
  9
$UCSORGTOP
 10
0.0
 20
0.0
 30
0.0
  9
$UCSORGBOTTOM
 10
0.0
 20
0.0
 30
0.0
  9
$UCSORGLEFT
 10
0.0
 20
0.0
 30
0.0
  9
$UCSORGRIGHT
 10
0.0
 20
0.0
 30
0.0
  9
$UCSORGFRONT
 10
0.0
 20
0.0
 30
0.0
  9
$UCSORGBACK
 10
0.0
 20
0.0
 30
0.0
  9
$PUCSBASE
  2

  9
$PUCSNAME
  2

  9
$PUCSORG
 10
0.0
 20
0.0
 30
0.0
  9
$PUCSXDIR
 10
1.0
 20
0.0
 30
0.0
  9
$PUCSYDIR
 10
0.0
 20
1.0
 30
0.0
  9
$PUCSORTHOREF
  2

  9
$PUCSORTHOVIEW
 70
     0
  9
$PUCSORGTOP
 10
0.0
 20
0.0
 30
0.0
  9
$PUCSORGBOTTOM
 10
0.0
 20
0.0
 30
0.0
  9
$PUCSORGLEFT
 10
0.0
 20
0.0
 30
0.0
  9
$PUCSORGRIGHT
 10
0.0
 20
0.0
 30
0.0
  9
$PUCSORGFRONT
 10
0.0
 20
0.0
 30
0.0
  9
$PUCSORGBACK
 10
0.0
 20
0.0
 30
0.0
  9
$USERI1
 70
     0
  9
$USERI2
 70
     0
  9
$USERI3
 70
     0
  9
$USERI4
 70
     0
  9
$USERI5
 70
     0
  9
$USERR1
 40
18.0
  9
$USERR2
 40
0.0
  9
$USERR3
 40
0.0
  9
$USERR4
 40
0.0
  9
$USERR5
 40
0.0
  9
$WORLDVIEW
 70
     1
  9
$SHADEDGE
 70
     3
  9
$SHADEDIF
 70
    70
  9
$TILEMODE
 70
     1
  9
$MAXACTVP
 70
    64
  9
$PINSBASE
 10
0.0
 20
0.0
 30
0.0
  9
$PLIMCHECK
 70
     0
  9
$PEXTMIN
 10
1.00000000000000E+20
 20
1.00000000000000E+20
 30
1.00000000000000E+20
  9
$PEXTMAX
 10
-1.00000000000000E+20
 20
-1.00000000000000E+20
 30
-1.00000000000000E+20
  9
$PLIMMIN
 10
0.0
 20
0.0
  9
$PLIMMAX
 10
12.0
 20
9.0
  9
$UNITMODE
 70
     0
  9
$VISRETAIN
 70
     1
  9
$PLINEGEN
 70
     0
  9
$PSLTSCALE
 70
     1
  9
$TREEDEPTH
 70
  3020
  9
$CMLSTYLE
  2
Standard
  9
$CMLJUST
 70
     0
  9
$CMLSCALE
 40
1.0
  9
$PROXYGRAPHICS
 70
     1
  9
$MEASUREMENT
 70
     1
  9
$CELWEIGHT
370
    -1
  9
$ENDCAPS
280
     0
  9
$JOINSTYLE
280
     0
  9
$LWDISPLAY
290
     0
  9
$INSUNITS
 70
     1
  9
$HYPERLINKBASE
  1

  9
$STYLESHEET
  1

  9
$XEDIT
290
     1
  9
$CEPSNTYPE
380
     0
  9
$PSTYLEMODE
290
     1
  9
$FINGERPRINTGUID
  2
{5C0E7128-304B-4A43-8E9E-9697CCF65D7D}
  9
$VERSIONGUID
  2
{FAEB1C32-E019-11D5-929B-00C0DF256EC4}
  9
$EXTNAMES
290
     1
  9
$PSVPSCALE
 40
0.0
  9
$OLESTARTUP
290
     0
  0
ENDSEC
  0
SECTION
  2
CLASSES
  0
CLASS
  1
ACDBDICTIONARYWDFLT
  2
AcDbDictionaryWithDefault
  3
ObjectDBX Classes
 90
        0
280
     0
281
     0
  0
CLASS
  1
VISUALSTYLE
  2
AcDbVisualStyle
  3
ObjectDBX Classes
 90
     4095
280
     0
281
     0
  0
CLASS
  1
MATERIAL
  2
AcDbMaterial
  3
ObjectDBX Classes
 90
     1153
280
     0
281
     0
  0
CLASS
  1

  2
exOdDbCircle
  3

 90
        0
280
     0
281
     1
  0
CLASS
  1

  2
exOdDbSpline
  3

 90
        0
280
     0
281
     1
  0
CLASS
  1

  2
exOdDbPolyline
  3

 90
        0
280
     0
281
     1
  0
CLASS
  1
DICTIONARYVAR
  2
AcDbDictionaryVar
  3
ObjectDBX Classes
 90
        0
280
     0
281
     0
  0
CLASS
  1
ACDBPLACEHOLDER
  2
AcDbPlaceHolder
  3
ObjectDBX Classes
 90
        0
280
     0
281
     0
  0
CLASS
  1
LAYOUT
  2
AcDbLayout
  3
ObjectDBX Classes
 90
        0
280
     0
281
     0
  0
ENDSEC
  0
SECTION
  2
TABLES
  0
TABLE
  2
VPORT
  5
8
330
0
100
AcDbSymbolTable
 70
     1
  0
VPORT
  5
29
330
8
100
AcDbSymbolTableRecord
100
AcDbViewportTableRecord
  2
*Active
 70
     0
 10
0.0
 20
0.0
 11
1.0
 21
1.0
 12
750.7426762576899
 22
452.043418110548
 13
0.0
 23
0.0
 14
0.5
 24
0.5
 15
0.5
 25
0.5
 16
0.0
 26
0.0
 36
1.0
 17
0.0
 27
0.0
 37
0.0
 40
778.4555198432056
 41
1.60267857142857
 42
50.0
 43
0.0
 44
0.0
 50
0.0
 51
0.0
 71
     0
 72
   100
 73
     1
 74
     3
 75
     0
 76
     0
 77
     0
 78
     0
281
     0
 65
     1
110
0.0
120
0.0
130
0.0
111
1.0
121
0.0
131
0.0
112
0.0
122
1.0
132
0.0
 79
     0
146
0.0
  0
ENDTAB
  0
TABLE
  2
LTYPE
  5
5
330
0
100
AcDbSymbolTable
 70
     8
  0
LTYPE
  5
14
330
5
100
AcDbSymbolTableRecord
100
AcDbLinetypeTableRecord
  2
ByBlock
 70
     0
  3

 72
    65
 73
     0
 40
0.0
  0
LTYPE
  5
15
330
5
100
AcDbSymbolTableRecord
100
AcDbLinetypeTableRecord
  2
ByLayer
 70
     0
  3

 72
    65
 73
     0
 40
0.0
  0
LTYPE
  5
16
330
5
100
AcDbSymbolTableRecord
100
AcDbLinetypeTableRecord
  2
Continuous
 70
     0
  3
Solid line
 72
    65
 73
     0
 40
0.0
  0
LTYPE
  5
3F
330
5
100
AcDbSymbolTableRecord
100
AcDbLinetypeTableRecord
  2
DASHED
 70
     0
  3
Dashed
 72
    65
 73
     2
 40
15.0
 49
7.0
 74
     0
 49
-8.0
 74
     0
  0
LTYPE
  5
40
330
5
100
AcDbSymbolTableRecord
100
AcDbLinetypeTableRecord
  2
DOTTED
 70
     0
  3
Dotted
 72
    65
 73
     2
 40
1.0
 49
0.0
 74
     0
 49
-1.0
 74
     0
  0
LTYPE
  5
41
330
5
100
AcDbSymbolTableRecord
100
AcDbLinetypeTableRecord
  2
DOT_CENTER
 70
     0
  3
Dot_Center
 72
    65
 73
     4
 40
14.0
 49
12.0
 74
     0
 49
-1.0
 74
     0
 49
0.0
 74
     0
 49
-1.0
 74
     0
  0
LTYPE
  5
42
330
5
100
AcDbSymbolTableRecord
100
AcDbLinetypeTableRecord
  2
LONG_DASHED
 70
     0
  3
Long_Dashed
 72
    65
 73
     2
 40
15.0
 49
10.0
 74
     0
 49
-5.0
 74
     0
  0
LTYPE
  5
43
330
5
100
AcDbSymbolTableRecord
100
AcDbLinetypeTableRecord
  2
DASH_CENTER
 70
     0
  3
Dash_Center
 72
    65
 73
     4
 40
14.0
 49
11.0
 74
     0
 49
-1.0
 74
     0
 49
1.0
 74
     0
 49
-1.0
 74
     0
  0
LTYPE
  5
44
330
5
100
AcDbSymbolTableRecord
100
AcDbLinetypeTableRecord
  2
PHANTOM
 70
     0
  3
Phantom
 72
    65
 73
     6
 40
13.0
 49
10.0
 74
     0
 49
-1.0
 74
     0
 49
0.0
 74
     0
 49
-1.0
 74
     0
 49
0.0
 74
     0
 49
-1.0
 74
     0
  0
LTYPE
  5
45
330
5
100
AcDbSymbolTableRecord
100
AcDbLinetypeTableRecord
  2
CENTER_DASH_DASH
 70
     0
  3
Center_Dash_Dash
 72
    65
 73
     6
 40
14.0
 49
9.0
 74
     0
 49
-1.0
 74
     0
 49
1.0
 74
     0
 49
-1.0
 74
     0
 49
1.0
 74
     0
 49
-1.0
 74
     0
  0
ENDTAB
  0
TABLE
  2
LAYER
  5
2
330
0
100
AcDbSymbolTable
 70
     4
  0
LAYER
  5
10
330
2
100
AcDbSymbolTableRecord
100
AcDbLayerTableRecord
  2
0
 70
     0
 62
     7
  6
Continuous
370
    -3
390
F
  0
LAYER
  5
46
330
2
100
AcDbSymbolTableRecord
100
AcDbLayerTableRecord
  2
1
 70
     0
 62
     7
  6
Continuous
370
    -3
390
F
  0
LAYER
  5
47
330
2
100
AcDbSymbolTableRecord
100
AcDbLayerTableRecord
  2
LAY-1
 70
     0
 62
     7
  6
Continuous
370
    -3
390
F
  0
LAYER
  5
48
330
2
100
AcDbSymbolTableRecord
100
AcDbLayerTableRecord
  2
図
 70
     0
 62
     7
  6
Continuous
370
    -3
390
F
  0
ENDTAB
  0
TABLE
  2
STYLE
  5
3
330
0
100
AcDbSymbolTable
 70
     1
  0
STYLE
  5
11
330
3
100
AcDbSymbolTableRecord
100
AcDbTextStyleTableRecord
  2
Standard
 70
     0
 40
0.0
 41
1.0
 50
0.0
 71
     0
 42
0.2
  3
txt
  4

  0
ENDTAB
  0
TABLE
  2
VIEW
  5
6
330
0
100
AcDbSymbolTable
 70
     0
  0
ENDTAB
  0
TABLE
  2
UCS
  5
7
330
0
100
AcDbSymbolTable
 70
     0
  0
ENDTAB
  0
TABLE
  2
APPID
  5
9
330
0
100
AcDbSymbolTable
 70
     1
  0
APPID
  5
12
330
9
100
AcDbSymbolTableRecord
100
AcDbRegAppTableRecord
  2
ACAD
 70
     0
  0
ENDTAB
  0
TABLE
  2
DIMSTYLE
  5
A
330
0
100
AcDbSymbolTable
 70
     1
100
AcDbDimStyleTable
  0
DIMSTYLE
105
27
330
A
100
AcDbSymbolTableRecord
100
AcDbDimStyleTableRecord
  2
Standard
 70
     0
340
11
  0
ENDTAB
  0
TABLE
  2
BLOCK_RECORD
  5
1
330
0
100
AcDbSymbolTable
 70
     1
  0
BLOCK_RECORD
  5
1F
330
1
100
AcDbSymbolTableRecord
100
AcDbBlockTableRecord
  2
*Model_Space
340
22
  0
BLOCK_RECORD
  5
1B
330
1
100
AcDbSymbolTableRecord
100
AcDbBlockTableRecord
  2
*Paper_Space
340
1E
  0
BLOCK_RECORD
  5
23
330
1
100
AcDbSymbolTableRecord
100
AcDbBlockTableRecord
  2
*Paper_Space0
340
26
  0
ENDTAB
  0
ENDSEC
  0
SECTION
  2
BLOCKS
  0
BLOCK
  5
20
330
1F
100
AcDbEntity
  8
0
100
AcDbBlockBegin
  2
*Model_Space
 70
     0
 10
0.0
 20
0.0
 30
0.0
  3
*Model_Space
  1

  0
ENDBLK
  5
21
330
1F
100
AcDbEntity
  8
0
100
AcDbBlockEnd
  0
BLOCK
  5
1C
330
1B
100
AcDbEntity
 67
     1
  8
0
100
AcDbBlockBegin
  2
*Paper_Space
 70
     0
 10
0.0
 20
0.0
 30
0.0
  3
*Paper_Space
  1

  0
ENDBLK
  5
1D
330
1B
100
AcDbEntity
 67
     1
  8
0
100
AcDbBlockEnd
  0
BLOCK
  5
24
330
23
100
AcDbEntity
  8
0
100
AcDbBlockBegin
  2
*Paper_Space0
 70
     0
 10
0.0
 20
0.0
 30
0.0
  3
*Paper_Space0
  1

  0
ENDBLK
  5
25
330
23
100
AcDbEntity
  8
0
100
AcDbBlockEnd
  0
ENDSEC
  0
SECTION
  2
ENTITIES
  0
POINT
  5
49
330
1F
100
AcDbEntity
  8
図
 62
     7
100
AcDbPoint
 10
479.975
 20
207.20595
 30
0.0
  0
POINT
  5
4A
330
1F
100
AcDbEntity
  8
図
 62
     7
100
AcDbPoint
 10
478.775
 20
207.3
 30
0.0
  0
POINT
  5
4B
330
1F
100
AcDbEntity
  8
図
 62
     7
100
AcDbPoint
 10
821.15
 20
493.0
 30
0.0
  0
POINT
  5
4C
330
1F
100
AcDbEntity
  8
図
 62
     7
100
AcDbPoint
 10
821.15
 20
711.0
 30
0.0
  0
POINT
  5
4D
330
1F
100
AcDbEntity
  8
図
 62
     7
100
AcDbPoint
 10
821.15
 20
700.100416
 30
0.0
  0
POINT
  5
4E
330
1F
100
AcDbEntity
  8
図
 62
     7
100
AcDbPoint
 10
821.15
 20
503.900416
 30
0.0
  0
POINT
  5
4F
330
1F
100
AcDbEntity
  8
図
 62
     7
100
AcDbPoint
 10
1024.15
 20
482.0
 30
0.0
  0
POINT
  5
50
330
1F
100
AcDbEntity
  8
図
 62
     7
100
AcDbPoint
 10
1024.15
 20
722.0
 30
0.0
  0
POINT
  5
51
330
1F
100
AcDbEntity
  8
図
 62
     7
100
AcDbPoint
 10
1024.15
 20
704.8
 30
0.0
  0
POINT
  5
52
330
1F
100
AcDbEntity
  8
図
 62
     7
100
AcDbPoint
 10
1024.15
 20
499.2
 30
0.0
  0
POINT
  5
53
330
1F
100
AcDbEntity
  8
1
 62
     3
 60
     1
100
AcDbPoint
 10
678.066912907717
 20
594.352669744095
 30
0.0
  0
LINE
  5
54
330
1F
100
AcDbEntity
  8
1
  6
Continuous
 62
     4
100
AcDbLine
 10
1286.18535251538
 20
791.886836221096
 30
0.0
 11
1286.18535251538
 21
805.886836221096
 31
0.0
  0
LINE
  5
55
330
1F
100
AcDbEntity
  8
1
  6
Continuous
 62
     4
100
AcDbLine
 10
1286.18535251538
 20
785.886836221096
 30
0.0
 11
1286.18535251538
 21
791.886836221096
 31
0.0
  0
LINE
  5
56
330
1F
100
AcDbEntity
  8
1
  6
Continuous
 62
     4
100
AcDbLine
 10
1290.18535251538
 20
795.886836221096
 30
0.0
 11
1300.18535251538
 21
785.886836221096
 31
0.0
  0
LINE
  5
57
330
1F
100
AcDbEntity
  8
1
  6
Continuous
 62
     4
100
AcDbLine
 10
1300.18535251538
 20
805.886836221096
 30
0.0
 11
1290.18535251538
 21
795.886836221096
 31
0.0
  0
LINE
  5
58
330
1F
100
AcDbEntity
  8
1
  6
Continuous
 62
     4
100
AcDbLine
 10
1290.18535251538
 20
795.886836221096
 30
0.0
 11
1286.18535251538
 21
791.886836221096
 31
0.0
  0
LINE
  5
59
330
1F
100
AcDbEntity
  8
1
  6
Continuous
 62
     4
100
AcDbLine
 10
1268.18535251538
 20
785.886836221096
 30
0.0
 11
1280.18535251538
 21
785.886836221096
 31
0.0
  0
LINE
  5
5A
330
1F
100
AcDbEntity
  8
1
  6
Continuous
 62
     4
100
AcDbLine
 10
1279.18535251538
 20
798.886836221096
 30
0.0
 11
1268.18535251538
 21
785.886836221096
 31
0.0
  0
LINE
  5
5B
330
1F
100
AcDbEntity
  8
1
  6
Continuous
 62
     4
100
AcDbLine
 10
1280.18535251538
 20
800.886836221096
 30
0.0
 11
1279.18535251538
 21
798.886836221096
 31
0.0
  0
LINE
  5
5C
330
1F
100
AcDbEntity
  8
1
  6
Continuous
 62
     4
100
AcDbLine
 10
1280.18535251538
 20
802.886836221096
 30
0.0
 11
1280.18535251538
 21
800.886836221096
 31
0.0
  0
LINE
  5
5D
330
1F
100
AcDbEntity
  8
1
  6
Continuous
 62
     4
100
AcDbLine
 10
1279.18535251538
 20
804.386836221096
 30
0.0
 11
1280.18535251538
 21
802.886836221096
 31
0.0
  0
LINE
  5
5E
330
1F
100
AcDbEntity
  8
1
  6
Continuous
 62
     4
100
AcDbLine
 10
1277.68535251538
 20
805.386836221096
 30
0.0
 11
1279.18535251538
 21
804.386836221096
 31
0.0
  0
LINE
  5
5F
330
1F
100
AcDbEntity
  8
1
  6
Continuous
 62
     4
100
AcDbLine
 10
1275.68535251538
 20
805.886836221096
 30
0.0
 11
1277.68535251538
 21
805.386836221096
 31
0.0
  0
LINE
  5
60
330
1F
100
AcDbEntity
  8
1
  6
Continuous
 62
     4
100
AcDbLine
 10
1272.68535251538
 20
805.886836221096
 30
0.0
 11
1275.68535251538
 21
805.886836221096
 31
0.0
  0
LINE
  5
61
330
1F
100
AcDbEntity
  8
1
  6
Continuous
 62
     4
100
AcDbLine
 10
1270.68535251538
 20
805.386836221096
 30
0.0
 11
1272.68535251538
 21
805.886836221096
 31
0.0
  0
LINE
  5
62
330
1F
100
AcDbEntity
  8
1
  6
Continuous
 62
     4
100
AcDbLine
 10
1269.18535251538
 20
804.386836221096
 30
0.0
 11
1270.68535251538
 21
805.386836221096
 31
0.0
  0
LINE
  5
63
330
1F
100
AcDbEntity
  8
1
  6
Continuous
 62
     4
100
AcDbLine
 10
1268.18535251538
 20
802.886836221096
 30
0.0
 11
1269.18535251538
 21
804.386836221096
 31
0.0
  0
LINE
  5
64
330
1F
100
AcDbEntity
  8
1
  6
Continuous
 62
     4
100
AcDbLine
 10
1249.18535251538
 20
796.886836221096
 30
0.0
 11
1249.18535251538
 21
805.886836221096
 31
0.0
  0
LINE
  5
65
330
1F
100
AcDbEntity
  8
1
  6
Continuous
 62
     4
100
AcDbLine
 10
1258.68535251538
 20
797.386836221096
 30
0.0
 11
1257.18535251538
 21
796.886836221096
 31
0.0
  0
LINE
  5
66
330
1F
100
AcDbEntity
  8
1
  6
Continuous
 62
     4
100
AcDbLine
 10
1260.18535251538
 20
798.386836221096
 30
0.0
 11
1258.68535251538
 21
797.386836221096
 31
0.0
  0
LINE
  5
67
330
1F
100
AcDbEntity
  8
1
  6
Continuous
 62
     4
100
AcDbLine
 10
1261.18535251538
 20
800.386836221096
 30
0.0
 11
1260.18535251538
 21
798.386836221096
 31
0.0
  0
LINE
  5
68
330
1F
100
AcDbEntity
  8
1
  6
Continuous
 62
     4
100
AcDbLine
 10
1261.18535251538
 20
801.886836221096
 30
0.0
 11
1261.18535251538
 21
800.386836221096
 31
0.0
  0
LINE
  5
69
330
1F
100
AcDbEntity
  8
1
  6
Continuous
 62
     4
100
AcDbLine
 10
1260.68535251538
 20
803.886836221096
 30
0.0
 11
1261.18535251538
 21
801.886836221096
 31
0.0
  0
LINE
  5
6A
330
1F
100
AcDbEntity
  8
1
  6
Continuous
 62
     4
100
AcDbLine
 10
1259.18535251538
 20
805.386836221096
 30
0.0
 11
1260.68535251538
 21
803.886836221096
 31
0.0
  0
LINE
  5
6B
330
1F
100
AcDbEntity
  8
1
  6
Continuous
 62
     4
100
AcDbLine
 10
1256.68535251538
 20
805.886836221096
 30
0.0
 11
1259.18535251538
 21
805.386836221096
 31
0.0
  0
LINE
  5
6C
330
1F
100
AcDbEntity
  8
1
  6
Continuous
 62
     4
100
AcDbLine
 10
1249.18535251538
 20
805.886836221096
 30
0.0
 11
1256.68535251538
 21
805.886836221096
 31
0.0
  0
LINE
  5
6D
330
1F
100
AcDbEntity
  8
1
  6
Continuous
 62
     4
100
AcDbLine
 10
1249.18535251538
 20
785.886836221096
 30
0.0
 11
1249.18535251538
 21
796.886836221096
 31
0.0
  0
LINE
  5
6E
330
1F
100
AcDbEntity
  8
1
  6
Continuous
 62
     4
100
AcDbLine
 10
1258.18535251538
 20
785.886836221096
 30
0.0
 11
1249.18535251538
 21
785.886836221096
 31
0.0
  0
LINE
  5
6F
330
1F
100
AcDbEntity
  8
1
  6
Continuous
 62
     4
100
AcDbLine
 10
1260.18535251538
 20
786.886836221096
 30
0.0
 11
1258.18535251538
 21
785.886836221096
 31
0.0
  0
LINE
  5
70
330
1F
100
AcDbEntity
  8
1
  6
Continuous
 62
     4
100
AcDbLine
 10
1261.18535251538
 20
787.886836221096
 30
0.0
 11
1260.18535251538
 21
786.886836221096
 31
0.0
  0
LINE
  5
71
330
1F
100
AcDbEntity
  8
1
  6
Continuous
 62
     4
100
AcDbLine
 10
1262.18535251538
 20
789.886836221096
 30
0.0
 11
1261.18535251538
 21
787.886836221096
 31
0.0
  0
LINE
  5
72
330
1F
100
AcDbEntity
  8
1
  6
Continuous
 62
     4
100
AcDbLine
 10
1262.18535251538
 20
792.386836221096
 30
0.0
 11
1262.18535251538
 21
789.886836221096
 31
0.0
  0
LINE
  5
73
330
1F
100
AcDbEntity
  8
1
  6
Continuous
 62
     4
100
AcDbLine
 10
1261.18535251538
 20
794.886836221096
 30
0.0
 11
1262.18535251538
 21
792.386836221096
 31
0.0
  0
LINE
  5
74
330
1F
100
AcDbEntity
  8
1
  6
Continuous
 62
     4
100
AcDbLine
 10
1260.18535251538
 20
795.886836221096
 30
0.0
 11
1261.18535251538
 21
794.886836221096
 31
0.0
  0
LINE
  5
75
330
1F
100
AcDbEntity
  8
1
  6
Continuous
 62
     4
100
AcDbLine
 10
1258.18535251538
 20
796.886836221096
 30
0.0
 11
1260.18535251538
 21
795.886836221096
 31
0.0
  0
LINE
  5
76
330
1F
100
AcDbEntity
  8
1
  6
Continuous
 62
     4
100
AcDbLine
 10
1257.18535251538
 20
796.886836221096
 30
0.0
 11
1258.18535251538
 21
796.886836221096
 31
0.0
  0
LINE
  5
77
330
1F
100
AcDbEntity
  8
1
  6
Continuous
 62
     4
100
AcDbLine
 10
1249.18535251538
 20
796.886836221096
 30
0.0
 11
1257.18535251538
 21
796.886836221096
 31
0.0
  0
LINE
  5
78
330
1F
100
AcDbEntity
  8
1
  6
Continuous
 62
     4
100
AcDbLine
 10
1229.18535251538
 20
796.886836221096
 30
0.0
 11
1229.18535251538
 21
785.886836221096
 31
0.0
  0
LINE
  5
79
330
1F
100
AcDbEntity
  8
1
  6
Continuous
 62
     4
100
AcDbLine
 10
1229.18535251538
 20
805.886836221096
 30
0.0
 11
1229.18535251538
 21
796.886836221096
 31
0.0
  0
LINE
  5
7A
330
1F
100
AcDbEntity
  8
1
  6
Continuous
 62
     4
100
AcDbLine
 10
1243.18535251538
 20
805.886836221096
 30
0.0
 11
1229.18535251538
 21
805.886836221096
 31
0.0
  0
LINE
  5
7B
330
1F
100
AcDbEntity
  8
1
  6
Continuous
 62
     4
100
AcDbLine
 10
1229.18535251538
 20
796.886836221096
 30
0.0
 11
1243.18535251538
 21
796.886836221096
 31
0.0
  0
LINE
  5
7C
330
1F
100
AcDbEntity
  8
1
  6
Continuous
 62
     4
100
AcDbLine
 10
1213.18535251538
 20
792.886836221096
 30
0.0
 11
1223.18535251538
 21
792.886836221096
 31
0.0
  0
LINE
  5
7D
330
1F
100
AcDbEntity
  8
1
  6
Continuous
 62
     4
100
AcDbLine
 10
1194.18535251538
 20
787.386836221096
 30
0.0
 11
1193.18535251538
 21
788.386836221096
 31
0.0
  0
LINE
  5
7E
330
1F
100
AcDbEntity
  8
1
  6
Continuous
 62
     4
100
AcDbLine
 10
1196.18535251538
 20
786.386836221096
 30
0.0
 11
1194.18535251538
 21
787.386836221096
 31
0.0
  0
LINE
  5
7F
330
1F
100
AcDbEntity
  8
1
  6
Continuous
 62
     4
100
AcDbLine
 10
1198.68535251538
 20
785.886836221096
 30
0.0
 11
1196.18535251538
 21
786.386836221096
 31
0.0
  0
LINE
  5
80
330
1F
100
AcDbEntity
  8
1
  6
Continuous
 62
     4
100
AcDbLine
 10
1201.68535251538
 20
785.886836221096
 30
0.0
 11
1198.68535251538
 21
785.886836221096
 31
0.0
  0
LINE
  5
81
330
1F
100
AcDbEntity
  8
1
  6
Continuous
 62
     4
100
AcDbLine
 10
1204.18535251538
 20
786.386836221096
 30
0.0
 11
1201.68535251538
 21
785.886836221096
 31
0.0
  0
LINE
  5
82
330
1F
100
AcDbEntity
  8
1
  6
Continuous
 62
     4
100
AcDbLine
 10
1205.68535251538
 20
787.386836221096
 30
0.0
 11
1204.18535251538
 21
786.386836221096
 31
0.0
  0
LINE
  5
83
330
1F
100
AcDbEntity
  8
1
  6
Continuous
 62
     4
100
AcDbLine
 10
1206.68535251538
 20
788.886836221096
 30
0.0
 11
1205.68535251538
 21
787.386836221096
 31
0.0
  0
LINE
  5
84
330
1F
100
AcDbEntity
  8
1
  6
Continuous
 62
     4
100
AcDbLine
 10
1207.18535251538
 20
790.386836221096
 30
0.0
 11
1206.68535251538
 21
788.886836221096
 31
0.0
  0
LINE
  5
85
330
1F
100
AcDbEntity
  8
1
  6
Continuous
 62
     4
100
AcDbLine
 10
1207.18535251538
 20
791.386836221096
 30
0.0
 11
1207.18535251538
 21
790.386836221096
 31
0.0
  0
LINE
  5
86
330
1F
100
AcDbEntity
  8
1
  6
Continuous
 62
     4
100
AcDbLine
 10
1206.68535251538
 20
792.886836221096
 30
0.0
 11
1207.18535251538
 21
791.386836221096
 31
0.0
  0
LINE
  5
87
330
1F
100
AcDbEntity
  8
1
  6
Continuous
 62
     4
100
AcDbLine
 10
1205.68535251538
 20
794.386836221096
 30
0.0
 11
1206.68535251538
 21
792.886836221096
 31
0.0
  0
LINE
  5
88
330
1F
100
AcDbEntity
  8
1
  6
Continuous
 62
     4
100
AcDbLine
 10
1204.18535251538
 20
795.386836221096
 30
0.0
 11
1205.68535251538
 21
794.386836221096
 31
0.0
  0
LINE
  5
89
330
1F
100
AcDbEntity
  8
1
  6
Continuous
 62
     4
100
AcDbLine
 10
1195.68535251538
 20
798.886836221096
 30
0.0
 11
1204.18535251538
 21
795.386836221096
 31
0.0
  0
LINE
  5
8A
330
1F
100
AcDbEntity
  8
1
  6
Continuous
 62
     4
100
AcDbLine
 10
1194.18535251538
 20
799.886836221096
 30
0.0
 11
1195.68535251538
 21
798.886836221096
 31
0.0
  0
LINE
  5
8B
330
1F
100
AcDbEntity
  8
1
  6
Continuous
 62
     4
100
AcDbLine
 10
1193.68535251538
 20
801.386836221096
 30
0.0
 11
1194.18535251538
 21
799.886836221096
 31
0.0
  0
LINE
  5
8C
330
1F
100
AcDbEntity
  8
1
  6
Continuous
 62
     4
100
AcDbLine
 10
1193.68535251538
 20
802.386836221096
 30
0.0
 11
1193.68535251538
 21
801.386836221096
 31
0.0
  0
LINE
  5
8D
330
1F
100
AcDbEntity
  8
1
  6
Continuous
 62
     4
100
AcDbLine
 10
1194.18535251538
 20
803.886836221096
 30
0.0
 11
1193.68535251538
 21
802.386836221096
 31
0.0
  0
LINE
  5
8E
330
1F
100
AcDbEntity
  8
1
  6
Continuous
 62
     4
100
AcDbLine
 10
1195.68535251538
 20
804.886836221096
 30
0.0
 11
1194.18535251538
 21
803.886836221096
 31
0.0
  0
LINE
  5
8F
330
1F
100
AcDbEntity
  8
1
  6
Continuous
 62
     4
100
AcDbLine
 10
1197.18535251538
 20
805.386836221096
 30
0.0
 11
1195.68535251538
 21
804.886836221096
 31
0.0
  0
LINE
  5
90
330
1F
100
AcDbEntity
  8
1
  6
Continuous
 62
     4
100
AcDbLine
 10
1199.18535251538
 20
805.886836221096
 30
0.0
 11
1197.18535251538
 21
805.386836221096
 31
0.0
  0
LINE
  5
91
330
1F
100
AcDbEntity
  8
1
  6
Continuous
 62
     4
100
AcDbLine
 10
1201.18535251538
 20
805.886836221096
 30
0.0
 11
1199.18535251538
 21
805.886836221096
 31
0.0
  0
LINE
  5
92
330
1F
100
AcDbEntity
  8
1
  6
Continuous
 62
     4
100
AcDbLine
 10
1203.68535251538
 20
805.386836221096
 30
0.0
 11
1201.18535251538
 21
805.886836221096
 31
0.0
  0
LINE
  5
93
330
1F
100
AcDbEntity
  8
1
  6
Continuous
 62
     4
100
AcDbLine
 10
1205.18535251538
 20
804.886836221096
 30
0.0
 11
1203.68535251538
 21
805.386836221096
 31
0.0
  0
LINE
  5
94
330
1F
100
AcDbEntity
  8
1
  6
Continuous
 62
     4
100
AcDbLine
 10
1206.68535251538
 20
803.886836221096
 30
0.0
 11
1205.18535251538
 21
804.886836221096
 31
0.0
  0
LINE
  5
95
330
1F
100
AcDbEntity
  8
1
  6
Continuous
 62
     4
100
AcDbLine
 10
1179.18535251538
 20
805.886836221096
 30
0.0
 11
1187.18535251538
 21
785.886836221096
 31
0.0
  0
LINE
  5
96
330
1F
100
AcDbEntity
  8
1
  6
Continuous
 62
     4
100
AcDbLine
 10
1171.18535251538
 20
785.886836221096
 30
0.0
 11
1179.18535251538
 21
805.886836221096
 31
0.0
  0
LINE
  5
97
330
1F
100
AcDbEntity
  8
1
  6
Continuous
 62
     4
100
AcDbLine
 10
1173.68535251538
 20
791.886836221096
 30
0.0
 11
1184.68535251538
 21
791.886836221096
 31
0.0
  0
LINE
  5
98
330
1F
100
AcDbEntity
  8
1
  6
Continuous
 62
     4
100
AcDbLine
 10
1151.18535251538
 20
796.886836221096
 30
0.0
 11
1151.18535251538
 21
795.886836221096
 31
0.0
  0
LINE
  5
99
330
1F
100
AcDbEntity
  8
1
  6
Continuous
 62
     4
100
AcDbLine
 10
1165.18535251538
 20
796.886836221096
 30
0.0
 11
1165.18535251538
 21
785.886836221096
 31
0.0
  0
LINE
  5
9A
330
1F
100
AcDbEntity
  8
1
  6
Continuous
 62
     4
100
AcDbLine
 10
1151.18535251538
 20
795.886836221096
 30
0.0
 11
1151.18535251538
 21
785.886836221096
 31
0.0
  0
LINE
  5
9B
330
1F
100
AcDbEntity
  8
1
  6
Continuous
 62
     4
100
AcDbLine
 10
1151.18535251538
 20
805.886836221096
 30
0.0
 11
1151.18535251538
 21
796.886836221096
 31
0.0
  0
LINE
  5
9C
330
1F
100
AcDbEntity
  8
1
  6
Continuous
 62
     4
100
AcDbLine
 10
1151.18535251538
 20
796.886836221096
 30
0.0
 11
1165.18535251538
 21
796.886836221096
 31
0.0
  0
LINE
  5
9D
330
1F
100
AcDbEntity
  8
1
  6
Continuous
 62
     4
100
AcDbLine
 10
1165.18535251538
 20
805.886836221096
 30
0.0
 11
1165.18535251538
 21
796.886836221096
 31
0.0
  0
LINE
  5
FA
330
1F
100
AcDbEntity
  8
図
  6
Continuous
 62
     3
100
AcDbLine
 10
399.672604898298
 20
604.941194333865
 30
0.0
 11
399.67465468008
 21
604.942046761755
 31
0.0
  0
LINE
  5
FB
330
1F
100
AcDbEntity
  8
1
  6
Continuous
 62
     3
100
AcDbLine
 10
684.278674548975
 20
274.46475798812
 30
0.0
 11
688.894522394436
 21
274.46475798812
 31
0.0
  0
LINE
  5
FC
330
1F
100
AcDbEntity
  8
1
  6
Continuous
 62
     3
100
AcDbLine
 10
695.078674548975
 20
274.46475798812
 30
0.0
 11
692.242868754677
 21
274.46475798812
 31
0.0
  0
LINE
  5
FD
330
1F
100
AcDbEntity
  8
1
  6
Continuous
 62
     3
100
AcDbLine
 10
684.778674548975
 20
273.96475798812
 30
0.0
 11
684.278674548975
 21
274.46475798812
 31
0.0
  0
LINE
  5
FE
330
1F
100
AcDbEntity
  8
1
  6
Continuous
 62
     3
100
AcDbLine
 10
694.578674548975
 20
273.96475798812
 30
0.0
 11
695.078674548975
 21
274.46475798812
 31
0.0
  0
LINE
  5
FF
330
1F
100
AcDbEntity
  8
0
  6
Continuous
 62
     3
100
AcDbLine
 10
688.894522394436
 20
273.96475798812
 30
0.0
 11
684.778674548975
 21
273.96475798812
 31
0.0
  0
LINE
  5
100
330
1F
100
AcDbEntity
  8
0
  6
Continuous
 62
     3
100
AcDbLine
 10
690.801805394658
 20
273.96475798812
 30
0.0
 11
690.462826703514
 21
273.96475798812
 31
0.0
  0
LINE
  5
101
330
1F
100
AcDbEntity
  8
0
  6
Continuous
 62
     3
100
AcDbLine
 10
692.242868754677
 20
273.96475798812
 30
0.0
 11
691.903890063534
 21
273.96475798812
 31
0.0
  0
LINE
  5
102
330
1F
100
AcDbEntity
  8
0
  6
Continuous
 62
     3
100
AcDbLine
 10
691.903890063534
 20
273.96475798812
 30
0.0
 11
690.801805394658
 21
273.96475798812
 31
0.0
  0
LINE
  5
103
330
1F
100
AcDbEntity
  8
0
  6
Continuous
 62
     3
100
AcDbLine
 10
694.578674548975
 20
273.96475798812
 30
0.0
 11
692.242868754677
 21
273.96475798812
 31
0.0
  0
LINE
  5
104
330
1F
100
AcDbEntity
  8
0
  6
Continuous
 62
     3
100
AcDbLine
 10
690.616374708377
 20
281.46475798812
 30
0.0
 11
693.061567983804
 21
281.46475798812
 31
0.0
  0
LINE
  5
105
330
1F
100
AcDbEntity
  8
0
  6
Continuous
 62
     3
100
AcDbLine
 10
693.061567983804
 20
281.46475798812
 30
0.0
 11
694.753014701219
 21
281.46475798812
 31
0.0
  0
LINE
  5
106
330
1F
100
AcDbEntity
  8
0
  6
Continuous
 62
     3
100
AcDbLine
 10
691.903890063534
 20
273.96475798812
 30
0.0
 11
691.903890063534
 21
278.064757890883
 31
0.0
  0
LINE
  5
107
330
1F
100
AcDbEntity
  8
0
  6
Continuous
 62
     3
100
AcDbLine
 10
692.242868754677
 20
273.96475798812
 30
0.0
 11
692.242868754677
 21
278.064757890883
 31
0.0
  0
LINE
  5
108
330
1F
100
AcDbEntity
  8
0
  6
Continuous
 62
     3
100
AcDbLine
 10
692.242868754677
 20
278.064757890883
 30
0.0
 11
693.061589247703
 21
278.064757989257
 31
0.0
  0
LINE
  5
109
330
1F
100
AcDbEntity
  8
0
  6
Continuous
 62
     3
100
AcDbLine
 10
692.242868754677
 20
278.064757890883
 30
0.0
 11
691.903890063534
 21
278.064757890883
 31
0.0
  0
LINE
  5
10A
330
1F
100
AcDbEntity
  8
0
  6
Continuous
 62
     3
100
AcDbLine
 10
693.061589247703
 20
278.064757989257
 30
0.0
 11
694.752899255972
 21
278.064757890883
 31
0.0
  0
LINE
  5
10B
330
1F
100
AcDbEntity
  8
0
  6
Continuous
 62
     3
100
AcDbLine
 10
690.801805394658
 20
273.96475798812
 30
0.0
 11
690.801805394658
 21
279.764757982709
 31
0.0
  0
LINE
  5
10C
330
1F
100
AcDbEntity
  8
0
  6
Continuous
 62
     3
100
AcDbLine
 10
690.462826703514
 20
273.96475798812
 30
0.0
 11
690.462826703514
 21
279.76475798812
 31
0.0
  0
LINE
  5
10D
330
1F
100
AcDbEntity
  8
0
  6
Continuous
 62
     3
100
AcDbLine
 10
688.894522394436
 20
273.96475798812
 30
0.0
 11
688.894522394436
 21
279.764757985642
 31
0.0
  0
LINE
  5
10E
330
1F
100
AcDbEntity
  8
1
  6
Continuous
 62
     3
100
AcDbLine
 10
695.078674548975
 20
303.46475798812
 30
0.0
 11
695.078674548975
 21
274.46475798812
 31
0.0
  0
LINE
  5
10F
330
1F
100
AcDbEntity
  8
1
  6
Continuous
 62
     3
100
AcDbLine
 10
684.278674548975
 20
274.46475798812
 30
0.0
 11
684.278674548975
 21
303.46475798812
 31
0.0
  0
LINE
  5
110
330
1F
100
AcDbEntity
  8
1
  6
Continuous
 62
     3
100
AcDbLine
 10
674.678674548975
 20
306.46475798812
 30
0.0
 11
674.678674548975
 21
315.46475798812
 31
0.0
  0
LINE
  5
111
330
1F
100
AcDbEntity
  8
1
  6
Continuous
 62
     3
100
AcDbLine
 10
701.678674548975
 20
303.46475798812
 30
0.0
 11
677.678674548975
 21
303.46475798812
 31
0.0
  0
LINE
  5
112
330
1F
100
AcDbEntity
  8
1
  6
Continuous
 62
     3
100
AcDbLine
 10
704.678674548975
 20
315.46475798812
 30
0.0
 11
704.678674548975
 21
306.46475798812
 31
0.0
  0
LINE
  5
113
330
1F
100
AcDbEntity
  8
1
  6
Continuous
 62
     3
100
AcDbLine
 10
677.678674548975
 20
318.46475798812
 30
0.0
 11
701.678674548975
 21
318.46475798812
 31
0.0
  0
LINE
  5
114
330
1F
100
AcDbEntity
  8
1
  6
DOT_CENTER
 62
     6
100
AcDbLine
 10
701.750294787533
 20
579.99866055769
 30
0.0
 11
702.569910029929
 21
579.779045315884
 31
0.0
  0
LINE
  5
115
330
1F
100
AcDbEntity
  8
1
  6
DOT_CENTER
 62
     6
100
AcDbLine
 10
701.750294787533
 20
579.99866055769
 30
0.0
 11
708.67849801554
 21
583.998660561619
 31
0.0
  0
LINE
  5
116
330
1F
100
AcDbEntity
  8
1
  6
DOT_CENTER
 62
     6
100
AcDbLine
 10
801.75
 20
656.3
 30
0.0
 11
801.15
 21
656.9
 31
0.0
  0
LINE
  5
117
330
1F
100
AcDbEntity
  8
1
  6
DOT_CENTER
 62
     6
100
AcDbLine
 10
809.15
 20
656.9
 30
0.0
 11
801.15
 21
656.9
 31
0.0
  0
LINE
  5
118
330
1F
100
AcDbEntity
  8
1
  6
Continuous
 62
     3
100
AcDbLine
 10
856.25
 20
524.4
 30
0.0
 11
856.85
 21
525.0
 31
0.0
  0
LINE
  5
119
330
1F
100
AcDbEntity
  8
1
  6
Continuous
 62
     3
100
AcDbLine
 10
856.25
 20
532.4
 30
0.0
 11
856.25
 21
524.4
 31
0.0
  0
LINE
  5
11A
330
1F
100
AcDbEntity
  8
1
  6
Continuous
 62
     3
100
AcDbLine
 10
354.974888
 20
275.099937
 30
0.0
 11
346.974888
 21
275.099937
 31
0.0
  0
LINE
  5
11B
330
1F
100
AcDbEntity
  8
図
  6
Continuous
 62
     3
100
AcDbLine
 10
233.175
 20
257.3
 30
0.0
 11
233.175
 21
207.3
 31
0.0
  0
LINE
  5
11C
330
1F
100
AcDbEntity
  8
図
  6
Continuous
 62
     3
100
AcDbLine
 10
224.375
 20
257.3
 30
0.0
 11
224.375
 21
207.3
 31
0.0
  0
LINE
  5
11D
330
1F
100
AcDbEntity
  8
図
  6
Continuous
 62
     3
100
AcDbLine
 10
233.175
 20
257.3
 30
0.0
 11
223.175
 21
257.3
 31
0.0
  0
LINE
  5
11E
330
1F
100
AcDbEntity
  8
図
  6
Continuous
 62
     3
100
AcDbLine
 10
233.175
 20
207.3
 30
0.0
 11
223.175
 21
207.3
 31
0.0
  0
LINE
  5
11F
330
1F
100
AcDbEntity
  8
図
  6
Continuous
 62
     3
100
AcDbLine
 10
477.575
 20
257.3
 30
0.0
 11
477.575
 21
207.3
 31
0.0
  0
LINE
  5
120
330
1F
100
AcDbEntity
  8
図
  6
Continuous
 62
     3
100
AcDbLine
 10
465.975
 20
207.3
 30
0.0
 11
478.775
 21
207.3
 31
0.0
  0
LINE
  5
121
330
1F
100
AcDbEntity
  8
図
  6
Continuous
 62
     3
100
AcDbLine
 10
465.975
 20
257.3
 30
0.0
 11
478.775
 21
257.3
 31
0.0
  0
LINE
  5
122
330
1F
100
AcDbEntity
  8
図
  6
Continuous
 62
     3
100
AcDbLine
 10
465.975
 20
257.3
 30
0.0
 11
465.975
 21
207.3
 31
0.0
  0
LINE
  5
123
330
1F
100
AcDbEntity
  8
図
  6
DOT_CENTER
 62
     6
100
AcDbLine
 10
776.031996756684
 20
659.95110853572
 30
0.0
 11
667.946774
 21
597.548076
 31
0.0
  0
LINE
  5
124
330
1F
100
AcDbEntity
  8
図
  6
DOT_CENTER
 62
     6
100
AcDbLine
 10
705.618879052289
 20
619.298076021364
 30
0.0
 11
709.118879055726
 21
613.235898196858
 31
0.0
  0
LINE
  5
125
330
1F
100
AcDbEntity
  8
図
  6
DOT_CENTER
 62
     6
100
AcDbLine
 10
779.531996760122
 20
653.888930711214
 30
0.0
 11
709.118879055726
 21
613.235898196858
 31
0.0
  0
LINE
  5
126
330
1F
100
AcDbEntity
  8
図
  6
DOT_CENTER
 62
     6
100
AcDbLine
 10
780.531996761104
 20
652.156879904212
 30
0.0
 11
708.386828249707
 21
610.503847388874
 31
0.0
  0
LINE
  5
127
330
1F
100
AcDbEntity
  8
図
  6
DOT_CENTER
 62
     6
100
AcDbLine
 10
774.531996755211
 20
662.549184746223
 30
0.0
 11
666.446773998527
 21
600.146152210503
 31
0.0
  0
LINE
  5
128
330
1F
100
AcDbEntity
  8
図
  6
DOT_CENTER
 62
     6
100
AcDbLine
 10
703.886828245287
 20
618.298076020382
 30
0.0
 11
708.386828249707
 21
610.503847388874
 31
0.0
  0
LINE
  5
129
330
1F
100
AcDbEntity
  8
図
  6
DOT_CENTER
 62
     6
100
AcDbLine
 10
666.446773998527
 20
600.146152210503
 30
0.0
 11
667.946774
 21
597.548076
 31
0.0
  0
LINE
  5
12A
330
1F
100
AcDbEntity
  8
図
  6
DOT_CENTER
 62
     6
100
AcDbLine
 10
703.886828245287
 20
618.298076020382
 30
0.0
 11
708.386828249707
 21
610.503847388874
 31
0.0
  0
LINE
  5
12B
330
1F
100
AcDbEntity
  8
図
  6
DOT_CENTER
 62
     6
100
AcDbLine
 10
698.92048530463
 20
599.900034336665
 30
0.0
 11
701.295485306963
 21
595.786413670036
 31
0.0
  0
LINE
  5
12C
330
1F
100
AcDbEntity
  8
図
  6
DOT_CENTER
 62
     6
100
AcDbLine
 10
690.733307478037
 20
600.080642298106
 30
0.0
 11
691.608307478896
 21
598.565097841979
 31
0.0
  0
LINE
  5
12D
330
1F
100
AcDbEntity
  8
図
  6
DOT_CENTER
 62
     6
100
AcDbLine
 10
692.858307480124
 20
596.400034333227
 30
0.0
 11
695.233307482457
 21
592.286413666598
 31
0.0
  0
LINE
  5
12E
330
1F
100
AcDbEntity
  8
図
  6
DOT_CENTER
 62
     6
100
AcDbLine
 10
691.099332881047
 20
601.446667702098
 30
0.0
 11
695.429459898551
 21
603.946667704553
 31
0.0
  0
LINE
  5
12F
330
1F
100
AcDbEntity
  8
図
  6
DOT_CENTER
 62
     6
100
AcDbLine
 10
695.269205871891
 20
584.224235840127
 30
0.0
 11
694.519205871155
 21
585.523273945378
 31
0.0
  0
LINE
  5
130
330
1F
100
AcDbEntity
  8
図
  6
DOT_CENTER
 62
     6
100
AcDbLine
 10
708.259586924405
 20
591.724235847494
 30
0.0
 11
707.509586923668
 21
593.023273952745
 31
0.0
  0
LINE
  5
131
330
1F
100
AcDbEntity
  8
図
  6
DOT_CENTER
 62
     6
100
AcDbLine
 10
695.269205871891
 20
584.224235840127
 30
0.0
 11
708.259586924405
 21
591.724235847494
 31
0.0
  0
LINE
  5
132
330
1F
100
AcDbEntity
  8
図
  6
DOT_CENTER
 62
     6
100
AcDbLine
 10
703.893561517466
 20
597.286413671509
 30
0.0
 11
704.643561518203
 21
595.987375566258
 31
0.0
  0
LINE
  5
133
330
1F
100
AcDbEntity
  8
図
  6
DOT_CENTER
 62
     6
100
AcDbLine
 10
692.635231271954
 20
590.786413665124
 30
0.0
 11
693.385231272691
 21
589.487375559873
 31
0.0
  0
LINE
  5
134
330
1F
100
AcDbEntity
  8
図
  6
DOT_CENTER
 62
     6
100
AcDbLine
 10
701.295485306963
 20
595.786413670036
 30
0.0
 11
695.233307482457
 21
592.286413666598
 31
0.0
  0
LINE
  5
135
330
1F
100
AcDbEntity
  8
図
  6
DOT_CENTER
 62
     6
100
AcDbLine
 10
693.519205870173
 20
587.25532475238
 30
0.0
 11
693.019205869681
 21
588.121350155881
 31
0.0
  0
LINE
  5
136
330
1F
100
AcDbEntity
  8
図
  6
DOT_CENTER
 62
     6
100
AcDbLine
 10
703.893561517466
 20
597.286413671509
 30
0.0
 11
701.295485306963
 21
595.786413670036
 31
0.0
  0
LINE
  5
137
330
1F
100
AcDbEntity
  8
図
  6
DOT_CENTER
 62
     6
100
AcDbLine
 10
695.233307482457
 20
592.286413666598
 30
0.0
 11
692.635231271954
 21
590.786413665124
 31
0.0
  0
LINE
  5
138
330
1F
100
AcDbEntity
  8
図
  6
DOT_CENTER
 62
     6
100
AcDbLine
 10
703.344523412951
 20
595.237375565521
 30
0.0
 11
705.344523414916
 21
591.773273951517
 31
0.0
  0
LINE
  5
139
330
1F
100
AcDbEntity
  8
図
  6
DOT_CENTER
 62
     6
100
AcDbLine
 10
696.795485302543
 20
603.580642301544
 30
0.0
 11
697.670485303403
 21
602.065097845417
 31
0.0
  0
LINE
  5
13A
330
1F
100
AcDbEntity
  8
図
  6
DOT_CENTER
 62
     6
100
AcDbLine
 10
706.509586922686
 20
594.755324759747
 30
0.0
 11
706.009586922195
 21
595.621350163248
 31
0.0
  0
LINE
  5
13B
330
1F
100
AcDbEntity
  8
図
  6
DOT_CENTER
 62
     6
100
AcDbLine
 10
703.344523412951
 20
595.237375565521
 30
0.0
 11
694.684269377942
 21
590.23737556061
 31
0.0
  0
LINE
  5
13C
330
1F
100
AcDbEntity
  8
図
  6
DOT_CENTER
 62
     6
100
AcDbLine
 10
681.827862922911
 20
580.50532474575
 30
0.0
 11
682.827862923893
 21
578.773273938748
 31
0.0
  0
LINE
  5
13D
330
1F
100
AcDbEntity
  8
図
  6
DOT_CENTER
 62
     6
100
AcDbLine
 10
711.705739343691
 20
597.755324762694
 30
0.0
 11
712.705739344673
 21
596.023273955692
 31
0.0
  0
LINE
  5
13E
330
1F
100
AcDbEntity
  8
図
  6
DOT_CENTER
 62
     6
100
AcDbLine
 10
690.854142360929
 20
586.871350154653
 30
0.0
 11
680.504142350763
 21
604.798076007121
 31
0.0
  0
LINE
  5
13F
330
1F
100
AcDbEntity
  8
図
  6
DOT_CENTER
 62
     6
100
AcDbLine
 10
700.392728490582
 20
600.7500343375
 30
0.0
 11
698.92048530463
 21
599.900034336665
 31
0.0
  0
LINE
  5
140
330
1F
100
AcDbEntity
  8
図
  6
DOT_CENTER
 62
     6
100
AcDbLine
 10
699.552536110552
 20
602.805290225349
 30
0.0
 11
700.502536111485
 21
601.159841958697
 31
0.0
  0
LINE
  5
141
330
1F
100
AcDbEntity
  8
図
  6
DOT_CENTER
 62
     6
100
AcDbLine
 10
712.00477744796
 20
600.237375570432
 30
0.0
 11
703.344523412951
 21
595.237375565521
 31
0.0
  0
LINE
  5
142
330
1F
100
AcDbEntity
  8
図
  6
DOT_CENTER
 62
     6
100
AcDbLine
 10
704.394523413983
 20
593.418722218169
 30
0.0
 11
695.734269378974
 21
588.418722213258
 31
0.0
  0
LINE
  5
143
330
1F
100
AcDbEntity
  8
図
  6
DOT_CENTER
 62
     6
100
AcDbLine
 10
694.684269377942
 20
590.23737556061
 30
0.0
 11
696.684269379907
 21
586.773273946606
 31
0.0
  0
LINE
  5
144
330
1F
100
AcDbEntity
  8
図
  6
DOT_CENTER
 62
     6
100
AcDbLine
 10
690.854142360929
 20
586.871350154653
 30
0.0
 11
695.184269378434
 21
589.371350157109
 31
0.0
  0
LINE
  5
145
330
1F
100
AcDbEntity
  8
図
  6
DOT_CENTER
 62
     6
100
AcDbLine
 10
712.504777448451
 20
599.371350166932
 30
0.0
 11
702.154777438285
 21
617.2980760194
 31
0.0
  0
LINE
  5
146
330
1F
100
AcDbEntity
  8
図
  6
DOT_CENTER
 62
     6
100
AcDbLine
 10
702.654777438776
 20
616.432050615899
 30
0.0
 11
681.004142351254
 21
603.932050603621
 31
0.0
  0
LINE
  5
147
330
1F
100
AcDbEntity
  8
図
  6
DOT_CENTER
 62
     6
100
AcDbLine
 10
695.503661372122
 20
583.818147002146
 30
0.0
 11
698.284749874854
 21
579.001160421378
 31
0.0
  0
LINE
  5
148
330
1F
100
AcDbEntity
  8
図
  6
DOT_CENTER
 62
     6
100
AcDbLine
 10
708.494042424635
 20
591.318147009513
 30
0.0
 11
711.275130927367
 21
586.501160428744
 31
0.0
  0
LINE
  5
149
330
1F
100
AcDbEntity
  8
図
  6
DOT_CENTER
 62
     6
100
AcDbLine
 10
712.705739344673
 20
596.023273955692
 30
0.0
 11
682.827862923893
 21
578.773273938748
 31
0.0
  0
LINE
  5
14A
330
1F
100
AcDbEntity
  8
図
  6
DOT_CENTER
 62
     6
100
AcDbLine
 10
681.827862922911
 20
580.50532474575
 30
0.0
 11
693.519205870173
 21
587.25532475238
 31
0.0
  0
LINE
  5
14B
330
1F
100
AcDbEntity
  8
図
  6
DOT_CENTER
 62
     6
100
AcDbLine
 10
690.026256672042
 20
597.305290219947
 30
0.0
 11
690.976256672975
 21
595.659841953295
 31
0.0
  0
LINE
  5
14C
330
1F
100
AcDbEntity
  8
図
  6
DOT_CENTER
 62
     6
100
AcDbLine
 10
691.386064294173
 20
595.550034332392
 30
0.0
 11
692.858307480124
 21
596.400034333227
 31
0.0
  0
LINE
  5
14D
330
1F
100
AcDbEntity
  8
図
  6
DOT_CENTER
 62
     6
100
AcDbLine
 10
690.136064292945
 20
597.715097841144
 30
0.0
 11
691.608307478896
 21
598.565097841979
 31
0.0
  0
LINE
  5
14E
330
1F
100
AcDbEntity
  8
図
  6
DOT_CENTER
 62
     6
100
AcDbLine
 10
706.509586922686
 20
594.755324759747
 30
0.0
 11
711.705739343691
 21
597.755324762694
 31
0.0
  0
LINE
  5
14F
330
1F
100
AcDbEntity
  8
図
  6
DOT_CENTER
 62
     6
100
AcDbLine
 10
708.67849801554
 20
583.998660561619
 30
0.0
 11
708.478498015344
 21
584.345070723019
 31
0.0
  0
LINE
  5
150
330
1F
100
AcDbEntity
  8
図
  6
DOT_CENTER
 62
     6
100
AcDbLine
 10
708.458882773735
 20
583.179045319224
 30
0.0
 11
708.67849801554
 21
583.998660561619
 31
0.0
  0
LINE
  5
151
330
1F
100
AcDbEntity
  8
図
  6
DOT_CENTER
 62
     6
100
AcDbLine
 10
702.569910029929
 20
579.779045315884
 30
0.0
 11
702.069910029437
 21
580.645070719385
 31
0.0
  0
LINE
  5
152
330
1F
100
AcDbEntity
  8
図
  6
DOT_CENTER
 62
     6
100
AcDbLine
 10
699.142728489354
 20
602.915097846252
 30
0.0
 11
697.670485303403
 21
602.065097845417
 31
0.0
  0
LINE
  5
153
330
1F
100
AcDbEntity
  8
図
  6
DOT_CENTER
 62
     6
100
AcDbLine
 10
708.458882773735
 20
583.179045319224
 30
0.0
 11
707.958882773243
 21
584.045070722725
 31
0.0
  0
LINE
  5
154
330
1F
100
AcDbEntity
  8
図
  6
DOT_CENTER
 62
     6
100
AcDbLine
 10
704.344523413934
 20
593.505324758519
 30
0.0
 11
706.509586922686
 21
594.755324759747
 31
0.0
  0
LINE
  5
155
330
1F
100
AcDbEntity
  8
図
  6
DOT_CENTER
 62
     6
100
AcDbLine
 10
693.519205870173
 20
587.25532475238
 30
0.0
 11
695.684269378925
 21
588.505324753608
 31
0.0
  0
LINE
  5
156
330
1F
100
AcDbEntity
  8
図
  6
DOT_CENTER
 62
     6
100
AcDbLine
 10
703.844523413442
 20
594.37135016202
 30
0.0
 11
712.504777448451
 21
599.371350166932
 31
0.0
  0
LINE
  5
157
330
1F
100
AcDbEntity
  8
図
  6
DOT_CENTER
 62
     6
100
AcDbLine
 10
709.994043337496
 20
585.220071223879
 30
0.0
 11
700.034749465185
 21
579.470070218231
 31
0.0
  0
LINE
  5
158
330
1F
100
AcDbEntity
  8
図
  6
DOT_CENTER
 62
     6
100
AcDbLine
 10
698.534750284375
 20
585.568147003865
 30
0.0
 11
701.315838787107
 21
580.751160423097
 31
0.0
  0
LINE
  5
159
330
1F
100
AcDbEntity
  8
図
  6
DOT_CENTER
 62
     6
100
AcDbLine
 10
705.462953512382
 20
589.568147007794
 30
0.0
 11
708.244042015114
 21
584.751160427026
 31
0.0
  0
LINE
  5
15A
330
1F
100
AcDbEntity
  8
図
  6
DOT_CENTER
 62
     6
100
AcDbLine
 10
694.684269377942
 20
590.23737556061
 30
0.0
 11
690.354142360438
 21
587.737375558154
 31
0.0
  0
LINE
  5
15B
330
1F
100
AcDbEntity
  8
図
  6
DOT_CENTER
 62
     6
100
AcDbLine
 10
701.750294787533
 20
579.99866055769
 30
0.0
 11
701.550294787337
 21
580.34507071909
 31
0.0
  0
LINE
  5
15C
330
1F
100
AcDbEntity
  8
図
  6
DOT_CENTER
 62
     6
100
AcDbLine
 10
702.569910029929
 20
579.779045315884
 30
0.0
 11
708.458882773735
 21
583.179045319224
 31
0.0
  0
LINE
  5
15D
330
1F
100
AcDbEntity
  8
図
  6
DOT_CENTER
 62
     4
100
AcDbLine
 10
824.15
 20
689.0
 30
0.0
 11
824.15
 21
682.5
 31
0.0
  0
LINE
  5
15E
330
1F
100
AcDbEntity
  8
図
  6
DOT_CENTER
 62
     6
100
AcDbLine
 10
801.75
 20
656.3
 30
0.0
 11
808.55
 21
656.3
 31
0.0
  0
LINE
  5
15F
330
1F
100
AcDbEntity
  8
図
  6
DOT_CENTER
 62
     6
100
AcDbLine
 10
801.15
 20
656.9
 30
0.0
 11
801.15
 21
657.3
 31
0.0
  0
LINE
  5
160
330
1F
100
AcDbEntity
  8
図
  6
DOT_CENTER
 62
     6
100
AcDbLine
 10
800.15
 20
669.3
 30
0.0
 11
795.15
 21
669.3
 31
0.0
  0
LINE
  5
161
330
1F
100
AcDbEntity
  8
図
  6
DOT_CENTER
 62
     6
100
AcDbLine
 10
809.15
 20
663.331089
 30
0.0
 11
809.15
 21
657.768912
 31
0.0
  0
LINE
  5
162
330
1F
100
AcDbEntity
  8
図
  6
DOT_CENTER
 62
     6
100
AcDbLine
 10
801.15
 20
663.331089
 30
0.0
 11
801.15
 21
657.768912
 31
0.0
  0
LINE
  5
163
330
1F
100
AcDbEntity
  8
図
  6
DOT_CENTER
 62
     6
100
AcDbLine
 10
810.900001
 20
657.3
 30
0.0
 11
799.399999
 21
657.3
 31
0.0
  0
LINE
  5
164
330
1F
100
AcDbEntity
  8
図
  6
DOT_CENTER
 62
     6
100
AcDbLine
 10
810.15
 20
668.3
 30
0.0
 11
820.15
 21
668.3
 31
0.0
  0
LINE
  5
165
330
1F
100
AcDbEntity
  8
図
  6
DOT_CENTER
 62
     6
100
AcDbLine
 10
797.65
 20
667.3
 30
0.0
 11
800.15
 21
667.3
 31
0.0
  0
LINE
  5
166
330
1F
100
AcDbEntity
  8
図
  6
DOT_CENTER
 62
     6
100
AcDbLine
 10
810.15
 20
667.3
 30
0.0
 11
812.65
 21
667.3
 31
0.0
  0
LINE
  5
167
330
1F
100
AcDbEntity
  8
図
  6
DOT_CENTER
 62
     6
100
AcDbLine
 10
808.55
 20
656.3
 30
0.0
 11
808.55
 21
657.3
 31
0.0
  0
LINE
  5
168
330
1F
100
AcDbEntity
  8
図
  6
DOT_CENTER
 62
     6
100
AcDbLine
 10
810.35
 20
678.05
 30
0.0
 11
808.65
 21
678.05
 31
0.0
  0
LINE
  5
169
330
1F
100
AcDbEntity
  8
図
  6
DOT_CENTER
 62
     6
100
AcDbLine
 10
801.75
 20
656.3
 30
0.0
 11
801.75
 21
657.3
 31
0.0
  0
LINE
  5
16A
330
1F
100
AcDbEntity
  8
図
  6
DOT_CENTER
 62
     6
100
AcDbLine
 10
808.55
 20
656.3
 30
0.0
 11
809.15
 21
656.9
 31
0.0
  0
LINE
  5
16B
330
1F
100
AcDbEntity
  8
図
  6
DOT_CENTER
 62
     6
100
AcDbLine
 10
809.15
 20
656.9
 30
0.0
 11
809.15
 21
657.3
 31
0.0
  0
LINE
  5
16C
330
1F
100
AcDbEntity
  8
図
  6
DOT_CENTER
 62
     6
100
AcDbLine
 10
812.65
 20
667.3
 30
0.0
 11
818.65
 21
667.3
 31
0.0
  0
LINE
  5
16D
330
1F
100
AcDbEntity
  8
図
  6
DOT_CENTER
 62
     6
100
AcDbLine
 10
799.95
 20
678.05
 30
0.0
 11
801.65
 21
678.05
 31
0.0
  0
LINE
  5
16E
330
1F
100
AcDbEntity
  8
図
  6
DOT_CENTER
 62
     6
100
AcDbLine
 10
799.95
 20
675.55
 30
0.0
 11
801.65
 21
675.55
 31
0.0
  0
LINE
  5
16F
330
1F
100
AcDbEntity
  8
図
  6
DOT_CENTER
 62
     6
100
AcDbLine
 10
799.65
 20
677.75
 30
0.0
 11
799.65
 21
675.85
 31
0.0
  0
LINE
  5
170
330
1F
100
AcDbEntity
  8
図
  6
DOT_CENTER
 62
     6
100
AcDbLine
 10
784.15
 20
667.3
 30
0.0
 11
797.65
 21
667.3
 31
0.0
  0
LINE
  5
171
330
1F
100
AcDbEntity
  8
図
  6
DOT_CENTER
 62
     6
100
AcDbLine
 10
818.65
 20
665.3
 30
0.0
 11
784.15
 21
665.3
 31
0.0
  0
LINE
  5
172
330
1F
100
AcDbEntity
  8
図
  6
DOT_CENTER
 62
     6
100
AcDbLine
 10
812.65
 20
663.331089
 30
0.0
 11
812.65
 21
657.768912
 31
0.0
  0
LINE
  5
173
330
1F
100
AcDbEntity
  8
図
  6
DOT_CENTER
 62
     6
100
AcDbLine
 10
797.65
 20
663.331089
 30
0.0
 11
797.65
 21
657.768912
 31
0.0
  0
LINE
  5
174
330
1F
100
AcDbEntity
  8
図
  6
DOT_CENTER
 62
     6
100
AcDbLine
 10
820.15
 20
688.0
 30
0.0
 11
795.15
 21
688.0
 31
0.0
  0
LINE
  5
175
330
1F
100
AcDbEntity
  8
図
  6
DOT_CENTER
 62
     6
100
AcDbLine
 10
820.15
 20
668.3
 30
0.0
 11
820.15
 21
689.0
 31
0.0
  0
LINE
  5
176
330
1F
100
AcDbEntity
  8
図
  6
DOT_CENTER
 62
     6
100
AcDbLine
 10
795.15
 20
668.3
 30
0.0
 11
800.15
 21
668.3
 31
0.0
  0
LINE
  5
177
330
1F
100
AcDbEntity
  8
図
  6
DOT_CENTER
 62
     6
100
AcDbLine
 10
800.15
 20
669.3
 30
0.0
 11
800.15
 21
665.3
 31
0.0
  0
LINE
  5
178
330
1F
100
AcDbEntity
  8
図
  6
DOT_CENTER
 62
     6
100
AcDbLine
 10
810.15
 20
667.2
 30
0.0
 11
800.15
 21
667.2
 31
0.0
  0
LINE
  5
179
330
1F
100
AcDbEntity
  8
図
  6
DOT_CENTER
 62
     6
100
AcDbLine
 10
820.15
 20
669.3
 30
0.0
 11
810.15
 21
669.3
 31
0.0
  0
LINE
  5
17A
330
1F
100
AcDbEntity
  8
図
  6
DOT_CENTER
 62
     6
100
AcDbLine
 10
810.65
 20
677.75
 30
0.0
 11
810.65
 21
675.85
 31
0.0
  0
LINE
  5
17B
330
1F
100
AcDbEntity
  8
図
  6
DOT_CENTER
 62
     6
100
AcDbLine
 10
810.35
 20
675.55
 30
0.0
 11
808.65
 21
675.55
 31
0.0
  0
LINE
  5
17C
330
1F
100
AcDbEntity
  8
図
  6
DOT_CENTER
 62
     6
100
AcDbLine
 10
795.15
 20
668.3
 30
0.0
 11
795.15
 21
689.0
 31
0.0
  0
LINE
  5
17D
330
1F
100
AcDbEntity
  8
図
  6
DOT_CENTER
 62
     6
100
AcDbLine
 10
818.65
 20
667.3
 30
0.0
 11
818.65
 21
665.3
 31
0.0
  0
LINE
  5
17E
330
1F
100
AcDbEntity
  8
図
  6
DOT_CENTER
 62
     6
100
AcDbLine
 10
784.15
 20
667.3
 30
0.0
 11
784.15
 21
665.3
 31
0.0
  0
LINE
  5
17F
330
1F
100
AcDbEntity
  8
図
  6
DOT_CENTER
 62
     6
100
AcDbLine
 10
810.15
 20
669.3
 30
0.0
 11
800.15
 21
669.3
 31
0.0
  0
LINE
  5
180
330
1F
100
AcDbEntity
  8
図
  6
DOT_CENTER
 62
     6
100
AcDbLine
 10
812.65
 20
667.3
 30
0.0
 11
812.65
 21
668.3
 31
0.0
  0
LINE
  5
181
330
1F
100
AcDbEntity
  8
図
  6
DOT_CENTER
 62
     6
100
AcDbLine
 10
808.65
 20
679.8
 30
0.0
 11
808.65
 21
678.05
 31
0.0
  0
LINE
  5
182
330
1F
100
AcDbEntity
  8
図
  6
DOT_CENTER
 62
     6
100
AcDbLine
 10
810.15
 20
669.3
 30
0.0
 11
810.15
 21
665.3
 31
0.0
  0
LINE
  5
183
330
1F
100
AcDbEntity
  8
図
  6
DOT_CENTER
 62
     6
100
AcDbLine
 10
801.65
 20
670.8
 30
0.0
 11
798.65
 21
670.8
 31
0.0
  0
LINE
  5
184
330
1F
100
AcDbEntity
  8
図
  6
DOT_CENTER
 62
     6
100
AcDbLine
 10
811.65
 20
670.8
 30
0.0
 11
808.65
 21
670.8
 31
0.0
  0
LINE
  5
185
330
1F
100
AcDbEntity
  8
図
  6
DOT_CENTER
 62
     6
100
AcDbLine
 10
797.65
 20
667.3
 30
0.0
 11
797.65
 21
668.3
 31
0.0
  0
LINE
  5
186
330
1F
100
AcDbEntity
  8
図
  6
DOT_CENTER
 62
     6
100
AcDbLine
 10
808.65
 20
670.8
 30
0.0
 11
801.65
 21
670.8
 31
0.0
  0
LINE
  5
187
330
1F
100
AcDbEntity
  8
図
  6
DOT_CENTER
 62
     6
100
AcDbLine
 10
798.65
 20
670.8
 30
0.0
 11
798.65
 21
669.3
 31
0.0
  0
LINE
  5
188
330
1F
100
AcDbEntity
  8
図
  6
DOT_CENTER
 62
     6
100
AcDbLine
 10
811.65
 20
670.8
 30
0.0
 11
811.65
 21
669.3
 31
0.0
  0
LINE
  5
189
330
1F
100
AcDbEntity
  8
図
  6
DOT_CENTER
 62
     6
100
AcDbLine
 10
797.65
 20
663.8
 30
0.0
 11
812.65
 21
663.8
 31
0.0
  0
LINE
  5
18A
330
1F
100
AcDbEntity
  8
図
  6
DOT_CENTER
 62
     6
100
AcDbLine
 10
812.65
 20
663.8
 30
0.0
 11
812.65
 21
665.3
 31
0.0
  0
LINE
  5
18B
330
1F
100
AcDbEntity
  8
図
  6
DOT_CENTER
 62
     6
100
AcDbLine
 10
797.65
 20
663.8
 30
0.0
 11
797.65
 21
665.3
 31
0.0
  0
LINE
  5
18C
330
1F
100
AcDbEntity
  8
図
  6
DOT_CENTER
 62
     6
100
AcDbLine
 10
802.65
 20
680.8
 30
0.0
 11
807.65
 21
680.8
 31
0.0
  0
LINE
  5
18D
330
1F
100
AcDbEntity
  8
図
  6
DOT_CENTER
 62
     6
100
AcDbLine
 10
801.65
 20
675.55
 30
0.0
 11
801.65
 21
670.8
 31
0.0
  0
LINE
  5
18E
330
1F
100
AcDbEntity
  8
図
  6
DOT_CENTER
 62
     6
100
AcDbLine
 10
801.65
 20
679.8
 30
0.0
 11
801.65
 21
678.05
 31
0.0
  0
LINE
  5
18F
330
1F
100
AcDbEntity
  8
図
  6
DOT_CENTER
 62
     6
100
AcDbLine
 10
808.65
 20
675.55
 30
0.0
 11
808.65
 21
670.8
 31
0.0
  0
LINE
  5
190
330
1F
100
AcDbEntity
  8
図
  6
DOT_CENTER
 62
     6
100
AcDbLine
 10
967.75
 20
680.0
 30
0.0
 11
822.15
 21
680.0
 31
0.0
  0
LINE
  5
191
330
1F
100
AcDbEntity
  8
図
  6
DOT_CENTER
 62
     6
100
AcDbLine
 10
965.749584
 20
682.0
 30
0.0
 11
824.15
 21
682.0
 31
0.0
  0
LINE
  5
192
330
1F
100
AcDbEntity
  8
図
  6
DOTTED
 62
     6
100
AcDbLine
 10
822.15
 20
689.0
 30
0.0
 11
822.15
 21
680.0
 31
0.0
  0
LINE
  5
193
330
1F
100
AcDbEntity
  8
図
  6
DOT_CENTER
 62
     6
100
AcDbLine
 10
976.85
 20
692.0
 30
0.0
 11
780.65
 21
692.0
 31
0.0
  0
LINE
  5
194
330
1F
100
AcDbEntity
  8
図
  6
DOT_CENTER
 62
     6
100
AcDbLine
 10
976.85
 20
689.0
 30
0.0
 11
780.65
 21
689.0
 31
0.0
  0
LINE
  5
195
330
1F
100
AcDbEntity
  8
図
  6
DOT_CENTER
 62
     6
100
AcDbLine
 10
780.65
 20
692.0
 30
0.0
 11
780.65
 21
689.0
 31
0.0
  0
LINE
  5
196
330
1F
100
AcDbEntity
  8
図
  6
DOT_CENTER
 62
     6
100
AcDbLine
 10
965.749584
 20
689.0
 30
0.0
 11
965.749584
 21
682.0
 31
0.0
  0
LINE
  5
197
330
1F
100
AcDbEntity
  8
図
  6
DOT_CENTER
 62
     6
100
AcDbLine
 10
967.75
 20
689.0
 30
0.0
 11
967.75
 21
680.0
 31
0.0
  0
LINE
  5
198
330
1F
100
AcDbEntity
  8
図
  6
DOT_CENTER
 62
     6
100
AcDbLine
 10
976.85
 20
692.0
 30
0.0
 11
976.85
 21
689.0
 31
0.0
  0
LINE
  5
199
330
1F
100
AcDbEntity
  8
図
  6
DOT_CENTER
 62
     4
100
AcDbLine
 10
824.15
 20
689.0
 30
0.0
 11
824.15
 21
682.0
 31
0.0
  0
LINE
  5
19A
330
1F
100
AcDbEntity
  8
図
  6
DOTTED
 62
     4
100
AcDbLine
 10
824.15
 20
689.0
 30
0.0
 11
831.15
 21
689.0
 31
0.0
  0
LINE
  5
19B
330
1F
100
AcDbEntity
  8
図
  6
DOT_CENTER
 62
     6
100
AcDbLine
 10
822.15
 20
689.0
 30
0.0
 11
822.15
 21
680.0
 31
0.0
  0
LINE
  5
19C
330
1F
100
AcDbEntity
  8
図
  6
Continuous
 62
     3
100
AcDbLine
 10
874.15
 20
671.0
 30
0.0
 11
874.15
 21
686.0
 31
0.0
  0
LINE
  5
19D
330
1F
100
AcDbEntity
  8
図
  6
Continuous
 62
     3
100
AcDbLine
 10
924.15
 20
671.0
 30
0.0
 11
924.15
 21
686.0
 31
0.0
  0
LINE
  5
19E
330
1F
100
AcDbEntity
  8
図
  6
Continuous
 62
     3
100
AcDbLine
 10
874.15
 20
671.0
 30
0.0
 11
924.15
 21
671.0
 31
0.0
  0
LINE
  5
19F
330
1F
100
AcDbEntity
  8
図
  6
Continuous
 62
     3
100
AcDbLine
 10
874.15
 20
684.8
 30
0.0
 11
924.15
 21
684.8
 31
0.0
  0
LINE
  5
1A0
330
1F
100
AcDbEntity
  8
図
  6
Continuous
 62
     3
100
AcDbLine
 10
874.15
 20
686.0
 30
0.0
 11
924.15
 21
686.0
 31
0.0
  0
LINE
  5
1A1
330
1F
100
AcDbEntity
  8
図
  6
Continuous
 62
     3
100
AcDbLine
 10
824.15
 20
711.0
 30
0.0
 11
824.15
 21
493.0
 31
0.0
  0
LINE
  5
1A2
330
1F
100
AcDbEntity
  8
図
  6
Continuous
 62
     3
100
AcDbLine
 10
821.15
 20
711.0
 30
0.0
 11
821.15
 21
493.0
 31
0.0
  0
LINE
  5
1A3
330
1F
100
AcDbEntity
  8
図
  6
Continuous
 62
     3
100
AcDbLine
 10
839.15
 20
704.8
 30
0.0
 11
824.15
 21
701.0
 31
0.0
  0
LINE
  5
1A4
330
1F
100
AcDbEntity
  8
図
  6
Continuous
 62
     3
100
AcDbLine
 10
839.000363
 20
706.0
 30
0.0
 11
824.15
 21
702.237908
 31
0.0
  0
LINE
  5
1A5
330
1F
100
AcDbEntity
  8
図
  6
DOT_CENTER
 62
     1
100
AcDbLine
 10
817.21405
 20
528.4
 30
0.0
 11
861.87405
 21
528.4
 31
0.0
  0
LINE
  5
1A6
330
1F
100
AcDbEntity
  8
図
  6
Continuous
 62
     3
100
AcDbLine
 10
825.35
 20
547.4
 30
0.0
 11
825.35
 21
671.0
 31
0.0
  0
LINE
  5
1A7
330
1F
100
AcDbEntity
  8
図
  6
Continuous
 62
     3
100
AcDbLine
 10
825.35
 20
508.0
 30
0.0
 11
825.35
 21
545.4
 31
0.0
  0
LINE
  5
1A8
330
1F
100
AcDbEntity
  8
図
  6
DOT_CENTER
 62
     3
100
AcDbLine
 10
824.15
 20
671.0
 30
0.0
 11
825.35
 21
671.0
 31
0.0
  0
LINE
  5
1A9
330
1F
100
AcDbEntity
  8
図
  6
Continuous
 62
     3
100
AcDbLine
 10
824.15
 20
689.2
 30
0.0
 11
827.25
 21
689.2
 31
0.0
  0
LINE
  5
1AA
330
1F
100
AcDbEntity
  8
図
  6
DOT_CENTER
 62
     3
100
AcDbLine
 10
824.15
 20
689.000416
 30
0.0
 11
831.15
 21
689.000416
 31
0.0
  0
LINE
  5
1AB
330
1F
100
AcDbEntity
  8
図
  6
Continuous
 62
     3
100
AcDbLine
 10
824.15
 20
691.000416
 30
0.0
 11
833.15
 21
691.000416
 31
0.0
  0
LINE
  5
1AC
330
1F
100
AcDbEntity
  8
図
  6
DOTTED
 62
     4
100
AcDbLine
 10
830.35
 20
686.1
 30
0.0
 11
830.35
 21
685.9
 31
0.0
  0
LINE
  5
1AD
330
1F
100
AcDbEntity
  8
図
  6
Continuous
 62
     3
100
AcDbLine
 10
824.15
 20
682.8
 30
0.0
 11
827.25
 21
682.8
 31
0.0
  0
LINE
  5
1AE
330
1F
100
AcDbEntity
  8
図
  6
Continuous
 62
     3
100
AcDbLine
 10
833.15
 20
691.000416
 30
0.0
 11
833.15
 21
545.4
 31
0.0
  0
LINE
  5
1AF
330
1F
100
AcDbEntity
  8
図
  6
Continuous
 62
     3
100
AcDbLine
 10
831.15
 20
689.0
 30
0.0
 11
831.15
 21
547.4
 31
0.0
  0
LINE
  5
1B0
330
1F
100
AcDbEntity
  8
図
  6
Continuous
 62
     3
100
AcDbLine
 10
824.15
 20
545.4
 30
0.0
 11
833.15
 21
545.4
 31
0.0
  0
LINE
  5
1B1
330
1F
100
AcDbEntity
  8
図
  6
Continuous
 62
     3
100
AcDbLine
 10
824.15
 20
547.4
 30
0.0
 11
831.15
 21
547.4
 31
0.0
  0
LINE
  5
1B2
330
1F
100
AcDbEntity
  8
図
  6
Continuous
 62
     3
100
AcDbLine
 10
837.6
 20
524.9
 30
0.0
 11
842.35
 21
524.9
 31
0.0
  0
LINE
  5
1B3
330
1F
100
AcDbEntity
  8
図
  6
DOT_CENTER
 62
     1
100
AcDbLine
 10
836.35
 20
534.488684
 30
0.0
 11
836.35
 21
522.285186
 31
0.0
  0
LINE
  5
1B4
330
1F
100
AcDbEntity
  8
図
  6
Continuous
 62
     3
100
AcDbLine
 10
844.85
 20
543.4
 30
0.0
 11
824.15
 21
543.4
 31
0.0
  0
LINE
  5
1B5
330
1F
100
AcDbEntity
  8
図
  6
Continuous
 62
     3
100
AcDbLine
 10
845.85
 20
535.9
 30
0.0
 11
844.85
 21
535.9
 31
0.0
  0
LINE
  5
1B6
330
1F
100
AcDbEntity
  8
図
  6
Continuous
 62
     3
100
AcDbLine
 10
844.85
 20
533.4
 30
0.0
 11
844.85
 21
543.4
 31
0.0
  0
LINE
  5
1B7
330
1F
100
AcDbEntity
  8
図
  6
Continuous
 62
     3
100
AcDbLine
 10
843.85
 20
533.4
 30
0.0
 11
847.85
 21
533.4
 31
0.0
  0
LINE
  5
1B8
330
1F
100
AcDbEntity
  8
図
  6
Continuous
 62
     3
100
AcDbLine
 10
843.85
 20
523.4
 30
0.0
 11
847.85
 21
523.4
 31
0.0
  0
LINE
  5
1B9
330
1F
100
AcDbEntity
  8
図
  6
Continuous
 62
     3
100
AcDbLine
 10
845.85
 20
520.9
 30
0.0
 11
844.85
 21
520.9
 31
0.0
  0
LINE
  5
1BA
330
1F
100
AcDbEntity
  8
図
  6
Continuous
 62
     3
100
AcDbLine
 10
844.85
 20
518.4
 30
0.0
 11
844.85
 21
523.4
 31
0.0
  0
LINE
  5
1BB
330
1F
100
AcDbEntity
  8
図
  6
Continuous
 62
     3
100
AcDbLine
 10
844.85
 20
518.4
 30
0.0
 11
824.15
 21
518.4
 31
0.0
  0
LINE
  5
1BC
330
1F
100
AcDbEntity
  8
図
  6
DOTTED
 62
     3
100
AcDbLine
 10
825.15
 20
543.4
 30
0.0
 11
825.15
 21
518.4
 31
0.0
  0
LINE
  5
1BD
330
1F
100
AcDbEntity
  8
図
  6
Continuous
 62
     3
100
AcDbLine
 10
833.35
 20
524.9
 30
0.0
 11
835.1
 21
524.9
 31
0.0
  0
LINE
  5
1BE
330
1F
100
AcDbEntity
  8
図
  6
Continuous
 62
     3
100
AcDbLine
 10
833.35
 20
531.9
 30
0.0
 11
835.1
 21
531.9
 31
0.0
  0
LINE
  5
1BF
330
1F
100
AcDbEntity
  8
図
  6
Continuous
 62
     3
100
AcDbLine
 10
837.6
 20
531.9
 30
0.0
 11
842.35
 21
531.9
 31
0.0
  0
LINE
  5
1C0
330
1F
100
AcDbEntity
  8
図
  6
Continuous
 62
     3
100
AcDbLine
 10
832.35
 20
525.9
 30
0.0
 11
832.35
 21
530.9
 31
0.0
  0
LINE
  5
1C1
330
1F
100
AcDbEntity
  8
図
  6
Continuous
 62
     3
100
AcDbLine
 10
842.35
 20
534.9
 30
0.0
 11
843.85
 21
534.9
 31
0.0
  0
LINE
  5
1C2
330
1F
100
AcDbEntity
  8
図
  6
Continuous
 62
     3
100
AcDbLine
 10
842.35
 20
521.9
 30
0.0
 11
843.85
 21
521.9
 31
0.0
  0
LINE
  5
1C3
330
1F
100
AcDbEntity
  8
図
  6
Continuous
 62
     3
100
AcDbLine
 10
842.35
 20
531.9
 30
0.0
 11
842.35
 21
524.9
 31
0.0
  0
LINE
  5
1C4
330
1F
100
AcDbEntity
  8
図
  6
Continuous
 62
     3
100
AcDbLine
 10
842.35
 20
534.9
 30
0.0
 11
842.35
 21
531.9
 31
0.0
  0
LINE
  5
1C5
330
1F
100
AcDbEntity
  8
図
  6
Continuous
 62
     3
100
AcDbLine
 10
842.35
 20
524.9
 30
0.0
 11
842.35
 21
521.9
 31
0.0
  0
LINE
  5
1C6
330
1F
100
AcDbEntity
  8
図
  6
Continuous
 62
     3
100
AcDbLine
 10
843.85
 20
533.4
 30
0.0
 11
843.85
 21
523.4
 31
0.0
  0
LINE
  5
1C7
330
1F
100
AcDbEntity
  8
図
  6
Continuous
 62
     3
100
AcDbLine
 10
837.6
 20
533.6
 30
0.0
 11
837.6
 21
531.9
 31
0.0
  0
LINE
  5
1C8
330
1F
100
AcDbEntity
  8
図
  6
Continuous
 62
     3
100
AcDbLine
 10
835.4
 20
533.9
 30
0.0
 11
837.3
 21
533.9
 31
0.0
  0
LINE
  5
1C9
330
1F
100
AcDbEntity
  8
図
  6
Continuous
 62
     3
100
AcDbLine
 10
843.85
 20
543.4
 30
0.0
 11
843.85
 21
533.4
 31
0.0
  0
LINE
  5
1CA
330
1F
100
AcDbEntity
  8
図
  6
Continuous
 62
     3
100
AcDbLine
 10
824.15
 20
543.4
 30
0.0
 11
824.15
 21
518.4
 31
0.0
  0
LINE
  5
1CB
330
1F
100
AcDbEntity
  8
図
  6
Continuous
 62
     3
100
AcDbLine
 10
835.4
 20
522.9
 30
0.0
 11
837.3
 21
522.9
 31
0.0
  0
LINE
  5
1CC
330
1F
100
AcDbEntity
  8
図
  6
Continuous
 62
     3
100
AcDbLine
 10
837.6
 20
523.2
 30
0.0
 11
837.6
 21
524.9
 31
0.0
  0
LINE
  5
1CD
330
1F
100
AcDbEntity
  8
図
  6
Continuous
 62
     3
100
AcDbLine
 10
835.1
 20
523.2
 30
0.0
 11
835.1
 21
524.9
 31
0.0
  0
LINE
  5
1CE
330
1F
100
AcDbEntity
  8
図
  6
Continuous
 62
     3
100
AcDbLine
 10
835.1
 20
533.6
 30
0.0
 11
835.1
 21
531.9
 31
0.0
  0
LINE
  5
1CF
330
1F
100
AcDbEntity
  8
図
  6
Continuous
 62
     3
100
AcDbLine
 10
843.85
 20
523.4
 30
0.0
 11
843.85
 21
518.4
 31
0.0
  0
LINE
  5
1D0
330
1F
100
AcDbEntity
  8
図
  6
Continuous
 62
     3
100
AcDbLine
 10
849.35
 20
520.9
 30
0.0
 11
847.85
 21
520.9
 31
0.0
  0
LINE
  5
1D1
330
1F
100
AcDbEntity
  8
図
  6
Continuous
 62
     3
100
AcDbLine
 10
849.35
 20
535.9
 30
0.0
 11
847.85
 21
535.9
 31
0.0
  0
LINE
  5
1D2
330
1F
100
AcDbEntity
  8
図
  6
Continuous
 62
     3
100
AcDbLine
 10
849.35
 20
520.9
 30
0.0
 11
849.35
 21
535.9
 31
0.0
  0
LINE
  5
1D3
330
1F
100
AcDbEntity
  8
図
  6
Continuous
 62
     3
100
AcDbLine
 10
845.85
 20
507.4
 30
0.0
 11
847.85
 21
507.4
 31
0.0
  0
LINE
  5
1D4
330
1F
100
AcDbEntity
  8
図
  6
Continuous
 62
     3
100
AcDbLine
 10
845.85
 20
541.9
 30
0.0
 11
847.85
 21
541.9
 31
0.0
  0
LINE
  5
1D5
330
1F
100
AcDbEntity
  8
図
  6
Continuous
 62
     3
100
AcDbLine
 10
845.95
 20
533.4
 30
0.0
 11
845.95
 21
523.4
 31
0.0
  0
LINE
  5
1D6
330
1F
100
AcDbEntity
  8
図
  6
Continuous
 62
     3
100
AcDbLine
 10
849.818911
 20
520.9
 30
0.0
 11
855.381089
 21
520.9
 31
0.0
  0
LINE
  5
1D7
330
1F
100
AcDbEntity
  8
図
  6
Continuous
 62
     3
100
AcDbLine
 10
849.818911
 20
535.9
 30
0.0
 11
855.381089
 21
535.9
 31
0.0
  0
LINE
  5
1D8
330
1F
100
AcDbEntity
  8
図
  6
Continuous
 62
     3
100
AcDbLine
 10
847.85
 20
541.9
 30
0.0
 11
847.85
 21
507.4
 31
0.0
  0
LINE
  5
1D9
330
1F
100
AcDbEntity
  8
図
  6
Continuous
 62
     3
100
AcDbLine
 10
845.85
 20
507.4
 30
0.0
 11
845.85
 21
520.9
 31
0.0
  0
LINE
  5
1DA
330
1F
100
AcDbEntity
  8
図
  6
Continuous
 62
     3
100
AcDbLine
 10
845.85
 20
535.9
 30
0.0
 11
845.85
 21
541.9
 31
0.0
  0
LINE
  5
1DB
330
1F
100
AcDbEntity
  8
図
  6
Continuous
 62
     3
100
AcDbLine
 10
856.25
 20
532.4
 30
0.0
 11
855.85
 21
532.4
 31
0.0
  0
LINE
  5
1DC
330
1F
100
AcDbEntity
  8
図
  6
Continuous
 62
     3
100
AcDbLine
 10
856.85
 20
531.8
 30
0.0
 11
856.25
 21
532.4
 31
0.0
  0
LINE
  5
1DD
330
1F
100
AcDbEntity
  8
図
  6
Continuous
 62
     3
100
AcDbLine
 10
856.85
 20
525.0
 30
0.0
 11
855.85
 21
525.0
 31
0.0
  0
LINE
  5
1DE
330
1F
100
AcDbEntity
  8
図
  6
Continuous
 62
     3
100
AcDbLine
 10
856.85
 20
531.8
 30
0.0
 11
855.85
 21
531.8
 31
0.0
  0
LINE
  5
1DF
330
1F
100
AcDbEntity
  8
図
  6
Continuous
 62
     3
100
AcDbLine
 10
845.85
 20
533.4
 30
0.0
 11
845.85
 21
535.9
 31
0.0
  0
LINE
  5
1E0
330
1F
100
AcDbEntity
  8
図
  6
Continuous
 62
     3
100
AcDbLine
 10
845.85
 20
520.9
 30
0.0
 11
845.85
 21
523.4
 31
0.0
  0
LINE
  5
1E1
330
1F
100
AcDbEntity
  8
図
  6
Continuous
 62
     3
100
AcDbLine
 10
855.85
 20
534.150001
 30
0.0
 11
855.85
 21
522.649999
 31
0.0
  0
LINE
  5
1E2
330
1F
100
AcDbEntity
  8
図
  6
Continuous
 62
     3
100
AcDbLine
 10
849.818911
 20
524.4
 30
0.0
 11
855.381089
 21
524.4
 31
0.0
  0
LINE
  5
1E3
330
1F
100
AcDbEntity
  8
図
  6
Continuous
 62
     3
100
AcDbLine
 10
849.818911
 20
532.4
 30
0.0
 11
855.381089
 21
532.4
 31
0.0
  0
LINE
  5
1E4
330
1F
100
AcDbEntity
  8
図
  6
Continuous
 62
     3
100
AcDbLine
 10
856.25
 20
524.4
 30
0.0
 11
855.85
 21
524.4
 31
0.0
  0
LINE
  5
1E5
330
1F
100
AcDbEntity
  8
図
  6
Continuous
 62
     3
100
AcDbLine
 10
856.85
 20
525.0
 30
0.0
 11
856.85
 21
531.8
 31
0.0
  0
LINE
  5
1E6
330
1F
100
AcDbEntity
  8
図
  6
Continuous
 62
     3
100
AcDbLine
 10
845.65
 20
499.2
 30
0.0
 11
845.65
 21
517.2
 31
0.0
  0
LINE
  5
1E7
330
1F
100
AcDbEntity
  8
図
  6
Continuous
 62
     3
100
AcDbLine
 10
844.15
 20
500.7
 30
0.0
 11
844.15
 21
517.2
 31
0.0
  0
LINE
  5
1E8
330
1F
100
AcDbEntity
  8
図
  6
Continuous
 62
     3
100
AcDbLine
 10
844.15
 20
517.2
 30
0.0
 11
845.65
 21
517.2
 31
0.0
  0
LINE
  5
1E9
330
1F
100
AcDbEntity
  8
図
  6
Continuous
 62
     3
100
AcDbLine
 10
825.35
 20
500.7
 30
0.0
 11
844.15
 21
500.7
 31
0.0
  0
LINE
  5
1EA
330
1F
100
AcDbEntity
  8
図
  6
Continuous
 62
     3
100
AcDbLine
 10
821.15
 20
700.100416
 30
0.0
 11
824.15
 21
700.100416
 31
0.0
  0
LINE
  5
1EB
330
1F
100
AcDbEntity
  8
図
  6
Continuous
 62
     3
100
AcDbLine
 10
821.15
 20
701.0
 30
0.0
 11
824.15
 21
701.0
 31
0.0
  0
LINE
  5
1EC
330
1F
100
AcDbEntity
  8
図
  6
Continuous
 62
     3
100
AcDbLine
 10
821.15
 20
711.0
 30
0.0
 11
824.15
 21
711.0
 31
0.0
  0
LINE
  5
1ED
330
1F
100
AcDbEntity
  8
図
  6
Continuous
 62
     3
100
AcDbLine
 10
821.15
 20
503.900416
 30
0.0
 11
824.15
 21
503.900416
 31
0.0
  0
LINE
  5
1EE
330
1F
100
AcDbEntity
  8
図
  6
Continuous
 62
     3
100
AcDbLine
 10
821.15
 20
503.0
 30
0.0
 11
824.15
 21
503.0
 31
0.0
  0
LINE
  5
1EF
330
1F
100
AcDbEntity
  8
図
  6
Continuous
 62
     3
100
AcDbLine
 10
821.15
 20
493.0
 30
0.0
 11
824.15
 21
493.0
 31
0.0
  0
LINE
  5
1F0
330
1F
100
AcDbEntity
  8
図
  6
Continuous
 62
     3
100
AcDbLine
 10
825.35
 20
508.0
 30
0.0
 11
825.35
 21
499.2
 31
0.0
  0
LINE
  5
1F1
330
1F
100
AcDbEntity
  8
図
  6
Continuous
 62
     3
100
AcDbLine
 10
824.15
 20
508.0
 30
0.0
 11
825.35
 21
508.0
 31
0.0
  0
LINE
  5
1F2
330
1F
100
AcDbEntity
  8
図
  6
Continuous
 62
     3
100
AcDbLine
 10
1024.15
 20
722.0
 30
0.0
 11
1024.15
 21
482.0
 31
0.0
  0
LINE
  5
1F3
330
1F
100
AcDbEntity
  8
図
  6
Continuous
 62
     3
100
AcDbLine
 10
825.35
 20
499.2
 30
0.0
 11
1024.15
 21
499.2
 31
0.0
  0
LINE
  5
1F4
330
1F
100
AcDbEntity
  8
図
  6
Continuous
 62
     3
100
AcDbLine
 10
824.15
 20
498.0
 30
0.0
 11
1022.95
 21
498.0
 31
0.0
  0
LINE
  5
1F5
330
1F
100
AcDbEntity
  8
図
  6
Continuous
 62
     3
100
AcDbLine
 10
1022.95
 20
498.0
 30
0.0
 11
1022.95
 21
482.0
 31
0.0
  0
LINE
  5
1F6
330
1F
100
AcDbEntity
  8
図
  6
Continuous
 62
     3
100
AcDbLine
 10
1022.95
 20
482.0
 30
0.0
 11
1024.15
 21
482.0
 31
0.0
  0
LINE
  5
1F7
330
1F
100
AcDbEntity
  8
図
  6
Continuous
 62
     3
100
AcDbLine
 10
824.15
 20
706.0
 30
0.0
 11
1022.95
 21
706.0
 31
0.0
  0
LINE
  5
1F8
330
1F
100
AcDbEntity
  8
図
  6
Continuous
 62
     3
100
AcDbLine
 10
839.15
 20
704.8
 30
0.0
 11
1024.15
 21
704.8
 31
0.0
  0
LINE
  5
1F9
330
1F
100
AcDbEntity
  8
図
  6
Continuous
 62
     3
100
AcDbLine
 10
1022.95
 20
722.0
 30
0.0
 11
1022.95
 21
706.0
 31
0.0
  0
LINE
  5
1FA
330
1F
100
AcDbEntity
  8
図
  6
Continuous
 62
     3
100
AcDbLine
 10
1022.95
 20
722.0
 30
0.0
 11
1024.15
 21
722.0
 31
0.0
  0
LINE
  5
1FB
330
1F
100
AcDbEntity
  8
1
  6
Continuous
 62
     6
100
AcDbLine
 10
693.888597230055
 20
572.575102577883
 30
0.0
 11
699.298518200074
 21
561.391566020136
 31
0.0
  0
LINE
  5
1FC
330
1F
100
AcDbEntity
  8
1
  6
Continuous
 62
     6
100
AcDbLine
 10
693.888597230055
 20
572.575102577883
 30
0.0
 11
704.165494501431
 21
565.594836299731
 31
0.0
  0
LINE
  5
1FD
330
1F
100
AcDbEntity
  8
図
  6
Continuous
 62
     3
100
AcDbLine
 10
341.35625
 20
666.172728
 30
0.0
 11
341.35625
 21
666.869603
 31
0.0
  0
LINE
  5
1FE
330
1F
100
AcDbEntity
  8
図
  6
Continuous
 62
     3
100
AcDbLine
 10
347.178125
 20
666.869603
 30
0.0
 11
347.178125
 21
666.172728
 31
0.0
  0
LINE
  5
1FF
330
1F
100
AcDbEntity
  8
図
  6
Continuous
 62
     3
100
AcDbLine
 10
350.225
 20
658.271642
 30
0.0
 11
350.225
 21
651.378978
 31
0.0
  0
LINE
  5
200
330
1F
100
AcDbEntity
  8
図
  6
Continuous
 62
     3
100
AcDbLine
 10
351.725
 20
658.271642
 30
0.0
 11
351.725
 21
651.378978
 31
0.0
  0
LINE
  5
201
330
1F
100
AcDbEntity
  8
図
  6
Continuous
 62
     3
100
AcDbLine
 10
343.713139
 20
655.340102
 30
0.0
 11
343.713139
 21
654.315956
 31
0.0
  0
LINE
  5
202
330
1F
100
AcDbEntity
  8
図
  6
Continuous
 62
     3
100
AcDbLine
 10
350.425
 20
651.178978
 30
0.0
 11
351.525
 21
651.178978
 31
0.0
  0
LINE
  5
203
330
1F
100
AcDbEntity
  8
図
  6
Continuous
 62
     3
100
AcDbLine
 10
344.615625
 20
660.235228
 30
0.0
 11
343.91875
 21
660.235228
 31
0.0
  0
LINE
  5
204
330
1F
100
AcDbEntity
  8
図
  6
Continuous
 62
     3
100
AcDbLine
 10
343.51875
 20
665.972728
 30
0.0
 11
341.55625
 21
665.972728
 31
0.0
  0
LINE
  5
205
330
1F
100
AcDbEntity
  8
図
  6
Continuous
 62
     3
100
AcDbLine
 10
343.71875
 20
665.772728
 30
0.0
 11
343.71875
 21
660.435228
 31
0.0
  0
LINE
  5
206
330
1F
100
AcDbEntity
  8
図
  6
Continuous
 62
     3
100
AcDbLine
 10
346.978125
 20
665.972728
 30
0.0
 11
345.015625
 21
665.972728
 31
0.0
  0
LINE
  5
207
330
1F
100
AcDbEntity
  8
図
  6
Continuous
 62
     3
100
AcDbLine
 10
344.815625
 20
665.772728
 30
0.0
 11
344.815625
 21
660.435228
 31
0.0
  0
LINE
  5
208
330
1F
100
AcDbEntity
  8
図
  6
Continuous
 62
     3
100
AcDbLine
 10
341.55625
 20
667.069603
 30
0.0
 11
346.978125
 21
667.069603
 31
0.0
  0
LINE
  5
209
330
1F
100
AcDbEntity
  8
図
  6
Continuous
 62
     3
100
AcDbLine
 10
343.713139
 20
673.016999
 30
0.0
 11
343.713139
 21
671.992854
 31
0.0
  0
LINE
  5
20A
330
1F
100
AcDbEntity
  8
図
  6
Continuous
 62
     3
100
AcDbLine
 10
350.225
 20
675.953978
 30
0.0
 11
350.225
 21
669.061313
 31
0.0
  0
LINE
  5
20B
330
1F
100
AcDbEntity
  8
図
  6
Continuous
 62
     3
100
AcDbLine
 10
351.725
 20
675.953978
 30
0.0
 11
351.725
 21
669.061313
 31
0.0
  0
LINE
  5
20C
330
1F
100
AcDbEntity
  8
図
  6
Continuous
 62
     3
100
AcDbLine
 10
350.425
 20
676.153978
 30
0.0
 11
351.525
 21
676.153978
 31
0.0
  0
LINE
  5
20D
330
1F
100
AcDbEntity
  8
図
  6
Continuous
 62
     3
100
AcDbLine
 10
355.165625
 20
666.841478
 30
0.0
 11
355.165625
 21
660.210228
 31
0.0
  0
LINE
  5
20E
330
1F
100
AcDbEntity
  8
図
  6
Continuous
 62
     3
100
AcDbLine
 10
356.648819
 20
664.192841
 30
0.0
 11
359.920067
 21
666.993406
 31
0.0
  0
LINE
  5
20F
330
1F
100
AcDbEntity
  8
図
  6
Continuous
 62
     3
100
AcDbLine
 10
356.31875
 20
666.841478
 30
0.0
 11
356.31875
 21
664.344769
 31
0.0
  0
LINE
  5
210
330
1F
100
AcDbEntity
  8
図
  6
Continuous
 62
     3
100
AcDbLine
 10
361.258709
 20
666.688864
 30
0.0
 11
358.574092
 21
664.415009
 31
0.0
  0
LINE
  5
211
330
1F
100
AcDbEntity
  8
図
  6
Continuous
 62
     3
100
AcDbLine
 10
358.236862
 20
655.340102
 30
0.0
 11
358.236862
 21
654.315956
 31
0.0
  0
LINE
  5
212
330
1F
100
AcDbEntity
  8
図
  6
Continuous
 62
     3
100
AcDbLine
 10
360.469054
 20
660.010228
 30
0.0
 11
361.563508
 21
660.010228
 31
0.0
  0
LINE
  5
213
330
1F
100
AcDbEntity
  8
図
  6
Continuous
 62
     3
100
AcDbLine
 10
361.717072
 20
660.338361
 30
0.0
 11
358.549791
 21
664.134262
 31
0.0
  0
LINE
  5
214
330
1F
100
AcDbEntity
  8
図
  6
Continuous
 62
     3
100
AcDbLine
 10
356.2625
 20
660.210228
 30
0.0
 11
356.2625
 21
662.364402
 31
0.0
  0
LINE
  5
215
330
1F
100
AcDbEntity
  8
図
  6
Continuous
 62
     3
100
AcDbLine
 10
357.71343
 20
663.413535
 30
0.0
 11
360.311432
 21
660.087121
 31
0.0
  0
LINE
  5
216
330
1F
100
AcDbEntity
  8
図
  6
Continuous
 62
     3
100
AcDbLine
 10
355.365625
 20
660.010228
 30
0.0
 11
356.0625
 21
660.010228
 31
0.0
  0
LINE
  5
217
330
1F
100
AcDbEntity
  8
図
  6
Continuous
 62
     3
100
AcDbLine
 10
357.426545
 20
663.443042
 30
0.0
 11
356.333237
 21
662.517016
 31
0.0
  0
LINE
  5
218
330
1F
100
AcDbEntity
  8
図
  6
Continuous
 62
     3
100
AcDbLine
 10
360.050136
 20
667.041478
 30
0.0
 11
361.129445
 21
667.041478
 31
0.0
  0
LINE
  5
219
330
1F
100
AcDbEntity
  8
図
  6
Continuous
 62
     3
100
AcDbLine
 10
358.236862
 20
673.016999
 30
0.0
 11
358.236862
 21
671.992854
 31
0.0
  0
LINE
  5
21A
330
1F
100
AcDbEntity
  8
図
  6
Continuous
 62
     3
100
AcDbLine
 10
355.365625
 20
667.041478
 30
0.0
 11
356.11875
 21
667.041478
 31
0.0
  0
LINE
  5
21B
330
1F
100
AcDbEntity
  8
図
  6
Continuous
 62
     3
100
AcDbLine
 10
359.189035
 20
600.570739
 30
0.0
 11
351.689035
 21
600.570739
 31
0.0
  0
LINE
  5
21C
330
1F
100
AcDbEntity
  8
図
  6
Continuous
 62
     3
100
AcDbLine
 10
345.764035
 20
592.845739
 30
0.0
 11
345.764035
 21
600.749208
 31
0.0
  0
LINE
  5
21D
330
1F
100
AcDbEntity
  8
図
  6
Continuous
 62
     3
100
AcDbLine
 10
347.414035
 20
592.845739
 30
0.0
 11
347.414035
 21
600.978745
 31
0.0
  0
LINE
  5
21E
330
1F
100
AcDbEntity
  8
図
  6
Continuous
 62
     3
100
AcDbLine
 10
351.389035
 20
600.270739
 30
0.0
 11
351.389035
 21
593.070739
 31
0.0
  0
LINE
  5
21F
330
1F
100
AcDbEntity
  8
図
  6
Continuous
 62
     3
100
AcDbLine
 10
301.780681
 20
604.718036
 30
0.0
 11
301.780681
 21
592.261364
 31
0.0
  0
LINE
  5
220
330
1F
100
AcDbEntity
  8
図
  6
Continuous
 62
     3
100
AcDbLine
 10
299.980681
 20
592.261364
 30
0.0
 11
299.980681
 21
601.486468
 31
0.0
  0
LINE
  5
221
330
1F
100
AcDbEntity
  8
図
  6
Continuous
 62
     3
100
AcDbLine
 10
301.480681
 20
591.961364
 30
0.0
 11
300.280681
 21
591.961364
 31
0.0
  0
LINE
  5
222
330
1F
100
AcDbEntity
  8
図
  6
Continuous
 62
     3
100
AcDbLine
 10
316.160182
 20
595.68734
 30
0.0
 11
317.143692
 21
594.531192
 31
0.0
  0
LINE
  5
223
330
1F
100
AcDbEntity
  8
図
  6
Continuous
 62
     3
100
AcDbLine
 10
319.995433
 20
594.920978
 30
0.0
 11
320.42444
 21
593.674817
 31
0.0
  0
LINE
  5
224
330
1F
100
AcDbEntity
  8
図
  6
Continuous
 62
     3
100
AcDbLine
 10
326.88741
 20
592.85
 30
0.0
 11
327.93741
 21
592.85
 31
0.0
  0
LINE
  5
225
330
1F
100
AcDbEntity
  8
図
  6
Continuous
 62
     3
100
AcDbLine
 10
326.58741
 20
596.54646
 30
0.0
 11
326.58741
 21
593.15
 31
0.0
  0
LINE
  5
226
330
1F
100
AcDbEntity
  8
図
  6
Continuous
 62
     3
100
AcDbLine
 10
328.23741
 20
593.15
 30
0.0
 11
328.23741
 21
596.611859
 31
0.0
  0
LINE
  5
227
330
1F
100
AcDbEntity
  8
図
  6
Continuous
 62
     3
100
AcDbLine
 10
333.678419
 20
594.125302
 30
0.0
 11
334.180066
 21
595.29414
 31
0.0
  0
LINE
  5
228
330
1F
100
AcDbEntity
  8
図
  6
Continuous
 62
     3
100
AcDbLine
 10
343.969117
 20
594.306381
 30
0.0
 11
342.864392
 21
594.717557
 31
0.0
  0
LINE
  5
229
330
1F
100
AcDbEntity
  8
図
  6
Continuous
 62
     3
100
AcDbLine
 10
346.064035
 20
592.545739
 30
0.0
 11
347.114035
 21
592.545739
 31
0.0
  0
LINE
  5
22A
330
1F
100
AcDbEntity
  8
図
  6
Continuous
 62
     3
100
AcDbLine
 10
349.281672
 20
595.493757
 30
0.0
 11
350.276948
 21
595.626461
 31
0.0
  0
LINE
  5
22B
330
1F
100
AcDbEntity
  8
図
  6
Continuous
 62
     3
100
AcDbLine
 10
351.689035
 20
592.770739
 30
0.0
 11
352.664035
 21
592.770739
 31
0.0
  0
LINE
  5
22C
330
1F
100
AcDbEntity
  8
図
  6
Continuous
 62
     3
100
AcDbLine
 10
319.943163
 20
601.206069
 30
0.0
 11
320.850595
 21
600.341848
 31
0.0
  0
LINE
  5
22D
330
1F
100
AcDbEntity
  8
図
  6
Continuous
 62
     3
100
AcDbLine
 10
319.440256
 20
605.086837
 30
0.0
 11
320.414204
 21
606.019992
 31
0.0
  0
LINE
  5
22E
330
1F
100
AcDbEntity
  8
図
  6
Continuous
 62
     3
100
AcDbLine
 10
303.771855
 20
602.991678
 30
0.0
 11
303.01584
 21
602.022559
 31
0.0
  0
LINE
  5
22F
330
1F
100
AcDbEntity
  8
図
  6
Continuous
 62
     3
100
AcDbLine
 10
309.130681
 20
606.436364
 30
0.0
 11
302.746757
 21
606.436364
 31
0.0
  0
LINE
  5
230
330
1F
100
AcDbEntity
  8
図
  6
Continuous
 62
     3
100
AcDbLine
 10
293.005681
 20
608.236364
 30
0.0
 11
309.130681
 21
608.236364
 31
0.0
  0
LINE
  5
231
330
1F
100
AcDbEntity
  8
図
  6
Continuous
 62
     3
100
AcDbLine
 10
300.209059
 20
606.436364
 30
0.0
 11
293.005681
 21
606.436364
 31
0.0
  0
LINE
  5
232
330
1F
100
AcDbEntity
  8
図
  6
Continuous
 62
     3
100
AcDbLine
 10
292.248457
 20
598.373403
 30
0.0
 11
293.034516
 21
597.063306
 31
0.0
  0
LINE
  5
233
330
1F
100
AcDbEntity
  8
図
  6
Continuous
 62
     3
100
AcDbLine
 10
292.705681
 20
606.736364
 30
0.0
 11
292.705681
 21
607.936364
 31
0.0
  0
LINE
  5
234
330
1F
100
AcDbEntity
  8
図
  6
Continuous
 62
     3
100
AcDbLine
 10
316.955509
 20
608.002175
 30
0.0
 11
317.85582
 21
608.807454
 31
0.0
  0
LINE
  5
235
330
1F
100
AcDbEntity
  8
図
  6
Continuous
 62
     3
100
AcDbLine
 10
308.578694
 20
597.314955
 30
0.0
 11
309.614495
 21
598.398809
 31
0.0
  0
LINE
  5
236
330
1F
100
AcDbEntity
  8
図
  6
Continuous
 62
     3
100
AcDbLine
 10
309.430681
 20
607.936364
 30
0.0
 11
309.430681
 21
606.736364
 31
0.0
  0
LINE
  5
237
330
1F
100
AcDbEntity
  8
図
  6
Continuous
 62
     3
100
AcDbLine
 10
321.03741
 20
607.55
 30
0.0
 11
321.03741
 21
608.45
 31
0.0
  0
LINE
  5
238
330
1F
100
AcDbEntity
  8
図
  6
Continuous
 62
     3
100
AcDbLine
 10
333.78741
 20
608.45
 30
0.0
 11
333.78741
 21
607.55
 31
0.0
  0
LINE
  5
239
330
1F
100
AcDbEntity
  8
図
  6
Continuous
 62
     3
100
AcDbLine
 10
322.61241
 20
599.45
 30
0.0
 11
322.61241
 21
605.6
 31
0.0
  0
LINE
  5
23A
330
1F
100
AcDbEntity
  8
図
  6
Continuous
 62
     3
100
AcDbLine
 10
325.949813
 20
599.15
 30
0.0
 11
322.91241
 21
599.15
 31
0.0
  0
LINE
  5
23B
330
1F
100
AcDbEntity
  8
図
  6
Continuous
 62
     3
100
AcDbLine
 10
323.96241
 20
601.725
 30
0.0
 11
323.96241
 21
600.625
 31
0.0
  0
LINE
  5
23C
330
1F
100
AcDbEntity
  8
図
  6
Continuous
 62
     3
100
AcDbLine
 10
324.16241
 20
601.925
 30
0.0
 11
326.38741
 21
601.925
 31
0.0
  0
LINE
  5
23D
330
1F
100
AcDbEntity
  8
図
  6
Continuous
 62
     3
100
AcDbLine
 10
326.58741
 20
601.725
 30
0.0
 11
326.58741
 21
600.625
 31
0.0
  0
LINE
  5
23E
330
1F
100
AcDbEntity
  8
図
  6
Continuous
 62
     3
100
AcDbLine
 10
326.38741
 20
600.425
 30
0.0
 11
324.16241
 21
600.425
 31
0.0
  0
LINE
  5
23F
330
1F
100
AcDbEntity
  8
図
  6
Continuous
 62
     3
100
AcDbLine
 10
322.91241
 20
605.9
 30
0.0
 11
326.38741
 21
605.9
 31
0.0
  0
LINE
  5
240
330
1F
100
AcDbEntity
  8
図
  6
Continuous
 62
     3
100
AcDbLine
 10
326.38741
 20
607.25
 30
0.0
 11
321.33741
 21
607.25
 31
0.0
  0
LINE
  5
241
330
1F
100
AcDbEntity
  8
図
  6
Continuous
 62
     3
100
AcDbLine
 10
323.96241
 20
604.425
 30
0.0
 11
323.96241
 21
603.4
 31
0.0
  0
LINE
  5
242
330
1F
100
AcDbEntity
  8
図
  6
Continuous
 62
     3
100
AcDbLine
 10
324.16241
 20
604.625
 30
0.0
 11
326.38741
 21
604.625
 31
0.0
  0
LINE
  5
243
330
1F
100
AcDbEntity
  8
図
  6
Continuous
 62
     3
100
AcDbLine
 10
324.16241
 20
603.2
 30
0.0
 11
326.38741
 21
603.2
 31
0.0
  0
LINE
  5
244
330
1F
100
AcDbEntity
  8
図
  6
Continuous
 62
     3
100
AcDbLine
 10
326.58741
 20
604.425
 30
0.0
 11
326.58741
 21
603.4
 31
0.0
  0
LINE
  5
245
330
1F
100
AcDbEntity
  8
図
  6
Continuous
 62
     3
100
AcDbLine
 10
326.58741
 20
607.05
 30
0.0
 11
326.58741
 21
606.1
 31
0.0
  0
LINE
  5
246
330
1F
100
AcDbEntity
  8
図
  6
Continuous
 62
     3
100
AcDbLine
 10
332.36241
 20
605.6
 30
0.0
 11
332.36241
 21
599.45
 31
0.0
  0
LINE
  5
247
330
1F
100
AcDbEntity
  8
図
  6
Continuous
 62
     3
100
AcDbLine
 10
330.93741
 20
601.725
 30
0.0
 11
330.93741
 21
600.625
 31
0.0
  0
LINE
  5
248
330
1F
100
AcDbEntity
  8
図
  6
Continuous
 62
     3
100
AcDbLine
 10
330.73741
 20
600.425
 30
0.0
 11
328.43741
 21
600.425
 31
0.0
  0
LINE
  5
249
330
1F
100
AcDbEntity
  8
図
  6
Continuous
 62
     3
100
AcDbLine
 10
328.23741
 20
600.625
 30
0.0
 11
328.23741
 21
601.725
 31
0.0
  0
LINE
  5
24A
330
1F
100
AcDbEntity
  8
図
  6
Continuous
 62
     3
100
AcDbLine
 10
328.43741
 20
601.925
 30
0.0
 11
330.73741
 21
601.925
 31
0.0
  0
LINE
  5
24B
330
1F
100
AcDbEntity
  8
図
  6
Continuous
 62
     3
100
AcDbLine
 10
332.06241
 20
599.15
 30
0.0
 11
328.739943
 21
599.15
 31
0.0
  0
LINE
  5
24C
330
1F
100
AcDbEntity
  8
図
  6
Continuous
 62
     3
100
AcDbLine
 10
333.48741
 20
607.25
 30
0.0
 11
328.43741
 21
607.25
 31
0.0
  0
LINE
  5
24D
330
1F
100
AcDbEntity
  8
図
  6
Continuous
 62
     3
100
AcDbLine
 10
328.23741
 20
603.4
 30
0.0
 11
328.23741
 21
604.425
 31
0.0
  0
LINE
  5
24E
330
1F
100
AcDbEntity
  8
図
  6
Continuous
 62
     3
100
AcDbLine
 10
328.43741
 20
603.2
 30
0.0
 11
330.73741
 21
603.2
 31
0.0
  0
LINE
  5
24F
330
1F
100
AcDbEntity
  8
図
  6
Continuous
 62
     3
100
AcDbLine
 10
328.43741
 20
604.625
 30
0.0
 11
330.73741
 21
604.625
 31
0.0
  0
LINE
  5
250
330
1F
100
AcDbEntity
  8
図
  6
Continuous
 62
     3
100
AcDbLine
 10
330.93741
 20
604.425
 30
0.0
 11
330.93741
 21
603.4
 31
0.0
  0
LINE
  5
251
330
1F
100
AcDbEntity
  8
図
  6
Continuous
 62
     3
100
AcDbLine
 10
328.23741
 20
606.1
 30
0.0
 11
328.23741
 21
607.05
 31
0.0
  0
LINE
  5
252
330
1F
100
AcDbEntity
  8
図
  6
Continuous
 62
     3
100
AcDbLine
 10
328.43741
 20
605.9
 30
0.0
 11
332.06241
 21
605.9
 31
0.0
  0
LINE
  5
253
330
1F
100
AcDbEntity
  8
図
  6
Continuous
 62
     3
100
AcDbLine
 10
321.33741
 20
608.75
 30
0.0
 11
326.38741
 21
608.75
 31
0.0
  0
LINE
  5
254
330
1F
100
AcDbEntity
  8
図
  6
Continuous
 62
     3
100
AcDbLine
 10
327.93741
 20
611.15
 30
0.0
 11
326.88741
 21
611.15
 31
0.0
  0
LINE
  5
255
330
1F
100
AcDbEntity
  8
図
  6
Continuous
 62
     3
100
AcDbLine
 10
326.58741
 20
610.85
 30
0.0
 11
326.58741
 21
608.95
 31
0.0
  0
LINE
  5
256
330
1F
100
AcDbEntity
  8
図
  6
Continuous
 62
     3
100
AcDbLine
 10
328.43741
 20
608.75
 30
0.0
 11
333.48741
 21
608.75
 31
0.0
  0
LINE
  5
257
330
1F
100
AcDbEntity
  8
図
  6
Continuous
 62
     3
100
AcDbLine
 10
328.23741
 20
608.95
 30
0.0
 11
328.23741
 21
610.85
 31
0.0
  0
LINE
  5
258
330
1F
100
AcDbEntity
  8
図
  6
Continuous
 62
     3
100
AcDbLine
 10
348.775722
 20
608.257152
 30
0.0
 11
349.671623
 21
607.760831
 31
0.0
  0
LINE
  5
259
330
1F
100
AcDbEntity
  8
図
  6
Continuous
 62
     3
100
AcDbLine
 10
343.600536
 20
599.508619
 30
0.0
 11
344.595339
 21
599.400656
 31
0.0
  0
LINE
  5
25A
330
1F
100
AcDbEntity
  8
図
  6
Continuous
 62
     3
100
AcDbLine
 10
345.545906
 20
600.948385
 30
0.0
 11
342.872353
 21
600.70504
 31
0.0
  0
LINE
  5
25B
330
1F
100
AcDbEntity
  8
図
  6
Continuous
 62
     3
100
AcDbLine
 10
345.423632
 20
603.759426
 30
0.0
 11
344.491333
 21
602.53464
 31
0.0
  0
LINE
  5
25C
330
1F
100
AcDbEntity
  8
図
  6
Continuous
 62
     3
100
AcDbLine
 10
342.795878
 20
605.725949
 30
0.0
 11
345.373592
 21
604.048185
 31
0.0
  0
LINE
  5
25D
330
1F
100
AcDbEntity
  8
図
  6
Continuous
 62
     3
100
AcDbLine
 10
342.382268
 20
601.994243
 30
0.0
 11
342.548955
 21
600.956239
 31
0.0
  0
LINE
  5
25E
330
1F
100
AcDbEntity
  8
図
  6
Continuous
 62
     3
100
AcDbLine
 10
344.266685
 20
602.416676
 30
0.0
 11
342.664409
 21
602.341479
 31
0.0
  0
LINE
  5
25F
330
1F
100
AcDbEntity
  8
図
  6
Continuous
 62
     3
100
AcDbLine
 10
343.197128
 20
606.906296
 30
0.0
 11
342.706738
 21
606.138928
 31
0.0
  0
LINE
  5
260
330
1F
100
AcDbEntity
  8
図
  6
Continuous
 62
     3
100
AcDbLine
 10
343.60808
 20
606.999671
 30
0.0
 11
343.966505
 21
606.777291
 31
0.0
  0
LINE
  5
261
330
1F
100
AcDbEntity
  8
図
  6
Continuous
 62
     3
100
AcDbLine
 10
346.447516
 20
602.411147
 30
0.0
 11
348.636535
 21
602.565739
 31
0.0
  0
LINE
  5
262
330
1F
100
AcDbEntity
  8
図
  6
Continuous
 62
     3
100
AcDbLine
 10
348.29402
 20
599.563154
 30
0.0
 11
349.118127
 21
599.746787
 31
0.0
  0
LINE
  5
263
330
1F
100
AcDbEntity
  8
図
  6
Continuous
 62
     3
100
AcDbLine
 10
347.601392
 20
601.178345
 30
0.0
 11
349.139035
 21
601.275739
 31
0.0
  0
LINE
  5
264
330
1F
100
AcDbEntity
  8
図
  6
Continuous
 62
     3
100
AcDbLine
 10
349.275599
 20
600.891653
 30
0.0
 11
349.139035
 21
601.275739
 31
0.0
  0
LINE
  5
265
330
1F
100
AcDbEntity
  8
図
  6
Continuous
 62
     3
100
AcDbLine
 10
349.666854
 20
600.712499
 30
0.0
 11
350.525593
 21
601.045945
 31
0.0
  0
LINE
  5
266
330
1F
100
AcDbEntity
  8
図
  6
Continuous
 62
     3
100
AcDbLine
 10
348.180586
 20
604.071189
 30
0.0
 11
348.813611
 21
604.414594
 31
0.0
  0
LINE
  5
267
330
1F
100
AcDbEntity
  8
図
  6
Continuous
 62
     3
100
AcDbLine
 10
345.404308
 20
605.885223
 30
0.0
 11
346.284099
 21
605.339367
 31
0.0
  0
LINE
  5
268
330
1F
100
AcDbEntity
  8
図
  6
Continuous
 62
     3
100
AcDbLine
 10
349.975567
 20
603.664207
 30
0.0
 11
350.815528
 21
602.824246
 31
0.0
  0
LINE
  5
269
330
1F
100
AcDbEntity
  8
図
  6
Continuous
 62
     3
100
AcDbLine
 10
352.739035
 20
602.720739
 30
0.0
 11
352.739035
 21
603.820739
 31
0.0
  0
LINE
  5
26A
330
1F
100
AcDbEntity
  8
図
  6
Continuous
 62
     3
100
AcDbLine
 10
346.80595
 20
610.64028
 30
0.0
 11
347.691211
 21
610.162322
 31
0.0
  0
LINE
  5
26B
330
1F
100
AcDbEntity
  8
図
  6
Continuous
 62
     3
100
AcDbLine
 10
357.839035
 20
595.445739
 30
0.0
 11
357.839035
 21
599.020739
 31
0.0
  0
LINE
  5
26C
330
1F
100
AcDbEntity
  8
図
  6
Continuous
 62
     3
100
AcDbLine
 10
352.964035
 20
599.020739
 30
0.0
 11
352.964035
 21
595.445739
 31
0.0
  0
LINE
  5
26D
330
1F
100
AcDbEntity
  8
図
  6
Continuous
 62
     3
100
AcDbLine
 10
359.489035
 20
593.295739
 30
0.0
 11
359.489035
 21
600.270739
 31
0.0
  0
LINE
  5
26E
330
1F
100
AcDbEntity
  8
図
  6
Continuous
 62
     3
100
AcDbLine
 10
376.354035
 20
610.320739
 30
0.0
 11
376.354035
 21
594.593239
 31
0.0
  0
LINE
  5
26F
330
1F
100
AcDbEntity
  8
図
  6
Continuous
 62
     3
100
AcDbLine
 10
377.906535
 20
593.760739
 30
0.0
 11
377.906535
 21
602.238969
 31
0.0
  0
LINE
  5
270
330
1F
100
AcDbEntity
  8
図
  6
Continuous
 62
     3
100
AcDbLine
 10
396.774035
 20
599.372975
 30
0.0
 11
396.774035
 21
592.898239
 31
0.0
  0
LINE
  5
271
330
1F
100
AcDbEntity
  8
図
  6
Continuous
 62
     3
100
AcDbLine
 10
398.356535
 20
599.760162
 30
0.0
 11
398.356535
 21
592.898239
 31
0.0
  0
LINE
  5
272
330
1F
100
AcDbEntity
  8
図
  6
Continuous
 62
     3
100
AcDbLine
 10
404.949035
 20
597.723239
 30
0.0
 11
404.949035
 21
594.958239
 31
0.0
  0
LINE
  5
273
330
1F
100
AcDbEntity
  8
図
  6
Continuous
 62
     3
100
AcDbLine
 10
406.569035
 20
594.995739
 30
0.0
 11
406.569035
 21
597.723239
 31
0.0
  0
LINE
  5
274
330
1F
100
AcDbEntity
  8
図
  6
Continuous
 62
     3
100
AcDbLine
 10
385.295288
 20
594.334396
 30
0.0
 11
385.953614
 21
595.624715
 31
0.0
  0
LINE
  5
275
330
1F
100
AcDbEntity
  8
図
  6
Continuous
 62
     3
100
AcDbLine
 10
353.164035
 20
595.245739
 30
0.0
 11
357.639035
 21
595.245739
 31
0.0
  0
LINE
  5
276
330
1F
100
AcDbEntity
  8
図
  6
Continuous
 62
     3
100
AcDbLine
 10
353.164035
 20
593.970739
 30
0.0
 11
357.714035
 21
593.970739
 31
0.0
  0
LINE
  5
277
330
1F
100
AcDbEntity
  8
図
  6
Continuous
 62
     3
100
AcDbLine
 10
352.964035
 20
593.070739
 30
0.0
 11
352.964035
 21
593.770739
 31
0.0
  0
LINE
  5
278
330
1F
100
AcDbEntity
  8
図
  6
Continuous
 62
     3
100
AcDbLine
 10
357.914035
 20
593.770739
 30
0.0
 11
357.914035
 21
593.295739
 31
0.0
  0
LINE
  5
279
330
1F
100
AcDbEntity
  8
図
  6
Continuous
 62
     3
100
AcDbLine
 10
358.214035
 20
592.995739
 30
0.0
 11
359.189035
 21
592.995739
 31
0.0
  0
LINE
  5
27A
330
1F
100
AcDbEntity
  8
図
  6
Continuous
 62
     3
100
AcDbLine
 10
367.931901
 20
595.455308
 30
0.0
 11
368.523354
 21
594.343173
 31
0.0
  0
LINE
  5
27B
330
1F
100
AcDbEntity
  8
図
  6
Continuous
 62
     3
100
AcDbLine
 10
374.671426
 20
594.383239
 30
0.0
 11
376.084035
 21
594.383239
 31
0.0
  0
LINE
  5
27C
330
1F
100
AcDbEntity
  8
図
  6
Continuous
 62
     3
100
AcDbLine
 10
374.475458
 20
594.143284
 30
0.0
 11
374.692589
 21
593.078307
 31
0.0
  0
LINE
  5
27D
330
1F
100
AcDbEntity
  8
図
  6
Continuous
 62
     3
100
AcDbLine
 10
374.986542
 20
592.838239
 30
0.0
 11
376.991535
 21
592.838239
 31
0.0
  0
LINE
  5
27E
330
1F
100
AcDbEntity
  8
図
  6
Continuous
 62
     3
100
AcDbLine
 10
404.749035
 20
594.758239
 30
0.0
 11
400.501535
 21
594.758239
 31
0.0
  0
LINE
  5
27F
330
1F
100
AcDbEntity
  8
図
  6
Continuous
 62
     3
100
AcDbLine
 10
400.501535
 20
593.250739
 30
0.0
 11
410.979035
 21
593.250739
 31
0.0
  0
LINE
  5
280
330
1F
100
AcDbEntity
  8
図
  6
Continuous
 62
     3
100
AcDbLine
 10
397.074035
 20
592.598239
 30
0.0
 11
398.056535
 21
592.598239
 31
0.0
  0
LINE
  5
281
330
1F
100
AcDbEntity
  8
図
  6
Continuous
 62
     3
100
AcDbLine
 10
400.201535
 20
594.458239
 30
0.0
 11
400.201535
 21
593.550739
 31
0.0
  0
LINE
  5
282
330
1F
100
AcDbEntity
  8
図
  6
Continuous
 62
     3
100
AcDbLine
 10
410.979035
 20
594.795739
 30
0.0
 11
406.769035
 21
594.795739
 31
0.0
  0
LINE
  5
283
330
1F
100
AcDbEntity
  8
図
  6
Continuous
 62
     3
100
AcDbLine
 10
411.279035
 20
593.550739
 30
0.0
 11
411.279035
 21
594.495739
 31
0.0
  0
LINE
  5
284
330
1F
100
AcDbEntity
  8
図
  6
Continuous
 62
     3
100
AcDbLine
 10
357.639035
 20
599.220739
 30
0.0
 11
353.164035
 21
599.220739
 31
0.0
  0
LINE
  5
285
330
1F
100
AcDbEntity
  8
図
  6
Continuous
 62
     3
100
AcDbLine
 10
352.939035
 20
604.020739
 30
0.0
 11
357.714035
 21
604.020739
 31
0.0
  0
LINE
  5
286
330
1F
100
AcDbEntity
  8
図
  6
Continuous
 62
     3
100
AcDbLine
 10
357.714035
 20
602.520739
 30
0.0
 11
352.939035
 21
602.520739
 31
0.0
  0
LINE
  5
287
330
1F
100
AcDbEntity
  8
図
  6
Continuous
 62
     3
100
AcDbLine
 10
357.914035
 20
603.820739
 30
0.0
 11
357.914035
 21
602.720739
 31
0.0
  0
LINE
  5
288
330
1F
100
AcDbEntity
  8
図
  6
Continuous
 62
     3
100
AcDbLine
 10
359.889711
 20
603.344039
 30
0.0
 11
360.713165
 21
604.355566
 31
0.0
  0
LINE
  5
289
330
1F
100
AcDbEntity
  8
図
  6
Continuous
 62
     3
100
AcDbLine
 10
368.921535
 20
605.678239
 30
0.0
 11
368.921535
 21
604.763239
 31
0.0
  0
LINE
  5
28A
330
1F
100
AcDbEntity
  8
図
  6
Continuous
 62
     3
100
AcDbLine
 10
354.491033
 20
610.695727
 30
0.0
 11
355.261285
 21
610.496148
 31
0.0
  0
LINE
  5
28B
330
1F
100
AcDbEntity
  8
図
  6
Continuous
 62
     3
100
AcDbLine
 10
377.906535
 20
604.037087
 30
0.0
 11
377.906535
 21
610.320739
 31
0.0
  0
LINE
  5
28C
330
1F
100
AcDbEntity
  8
図
  6
Continuous
 62
     3
100
AcDbLine
 10
369.221535
 20
605.978239
 30
0.0
 11
374.990955
 21
605.978239
 31
0.0
  0
LINE
  5
28D
330
1F
100
AcDbEntity
  8
図
  6
Continuous
 62
     3
100
AcDbLine
 10
369.221535
 20
604.463239
 30
0.0
 11
373.267674
 21
604.463239
 31
0.0
  0
LINE
  5
28E
330
1F
100
AcDbEntity
  8
図
  6
Continuous
 62
     3
100
AcDbLine
 10
379.1717
 20
603.737087
 30
0.0
 11
378.206535
 21
603.737087
 31
0.0
  0
LINE
  5
28F
330
1F
100
AcDbEntity
  8
図
  6
Continuous
 62
     3
100
AcDbLine
 10
383.554046
 20
607.378526
 30
0.0
 11
384.538087
 21
606.385457
 31
0.0
  0
LINE
  5
290
330
1F
100
AcDbEntity
  8
図
  6
Continuous
 62
     3
100
AcDbLine
 10
377.606535
 20
610.620739
 30
0.0
 11
376.654035
 21
610.620739
 31
0.0
  0
LINE
  5
291
330
1F
100
AcDbEntity
  8
図
  6
Continuous
 62
     3
100
AcDbLine
 10
404.749035
 20
602.190739
 30
0.0
 11
401.844035
 21
602.190739
 31
0.0
  0
LINE
  5
292
330
1F
100
AcDbEntity
  8
図
  6
Continuous
 62
     3
100
AcDbLine
 10
401.844035
 20
603.705739
 30
0.0
 11
409.674035
 21
603.705739
 31
0.0
  0
LINE
  5
293
330
1F
100
AcDbEntity
  8
図
  6
Continuous
 62
     3
100
AcDbLine
 10
398.319035
 20
606.965739
 30
0.0
 11
398.319035
 21
610.523239
 31
0.0
  0
LINE
  5
294
330
1F
100
AcDbEntity
  8
図
  6
Continuous
 62
     3
100
AcDbLine
 10
396.774035
 20
610.523239
 30
0.0
 11
396.774035
 21
606.965739
 31
0.0
  0
LINE
  5
295
330
1F
100
AcDbEntity
  8
図
  6
Continuous
 62
     3
100
AcDbLine
 10
393.515567
 20
598.030919
 30
0.0
 11
394.238504
 21
596.714948
 31
0.0
  0
LINE
  5
296
330
1F
100
AcDbEntity
  8
図
  6
Continuous
 62
     3
100
AcDbLine
 10
398.356535
 20
605.088239
 30
0.0
 11
398.356535
 21
602.357136
 31
0.0
  0
LINE
  5
297
330
1F
100
AcDbEntity
  8
図
  6
Continuous
 62
     3
100
AcDbLine
 10
401.821535
 20
598.223239
 30
0.0
 11
401.821535
 21
599.108239
 31
0.0
  0
LINE
  5
298
330
1F
100
AcDbEntity
  8
図
  6
Continuous
 62
     3
100
AcDbLine
 10
399.631402
 20
598.953859
 30
0.0
 11
398.699026
 21
599.900506
 31
0.0
  0
LINE
  5
299
330
1F
100
AcDbEntity
  8
図
  6
Continuous
 62
     3
100
AcDbLine
 10
399.952278
 20
599.003765
 30
0.0
 11
400.578292
 21
600.238563
 31
0.0
  0
LINE
  5
29A
330
1F
100
AcDbEntity
  8
図
  6
Continuous
 62
     3
100
AcDbLine
 10
396.537976
 20
605.288239
 30
0.0
 11
394.351535
 21
605.288239
 31
0.0
  0
LINE
  5
29B
330
1F
100
AcDbEntity
  8
図
  6
Continuous
 62
     3
100
AcDbLine
 10
394.051535
 20
605.588239
 30
0.0
 11
394.051535
 21
606.465739
 31
0.0
  0
LINE
  5
29C
330
1F
100
AcDbEntity
  8
図
  6
Continuous
 62
     3
100
AcDbLine
 10
394.351535
 20
606.765739
 30
0.0
 11
396.574035
 21
606.765739
 31
0.0
  0
LINE
  5
29D
330
1F
100
AcDbEntity
  8
図
  6
Continuous
 62
     3
100
AcDbLine
 10
400.659035
 20
606.465739
 30
0.0
 11
400.659035
 21
605.955321
 31
0.0
  0
LINE
  5
29E
330
1F
100
AcDbEntity
  8
図
  6
Continuous
 62
     3
100
AcDbLine
 10
398.556535
 20
605.288239
 30
0.0
 11
399.605518
 21
605.288239
 31
0.0
  0
LINE
  5
29F
330
1F
100
AcDbEntity
  8
図
  6
Continuous
 62
     3
100
AcDbLine
 10
401.544035
 20
602.490739
 30
0.0
 11
401.544035
 21
603.405739
 31
0.0
  0
LINE
  5
2A0
330
1F
100
AcDbEntity
  8
図
  6
Continuous
 62
     3
100
AcDbLine
 10
400.143645
 20
603.446658
 30
0.0
 11
399.52789
 21
604.514296
 31
0.0
  0
LINE
  5
2A1
330
1F
100
AcDbEntity
  8
図
  6
Continuous
 62
     3
100
AcDbLine
 10
398.519035
 20
606.765739
 30
0.0
 11
400.359035
 21
606.765739
 31
0.0
  0
LINE
  5
2A2
330
1F
100
AcDbEntity
  8
図
  6
Continuous
 62
     3
100
AcDbLine
 10
397.074035
 20
610.823239
 30
0.0
 11
398.019035
 21
610.823239
 31
0.0
  0
LINE
  5
2A3
330
1F
100
AcDbEntity
  8
図
  6
Continuous
 62
     3
100
AcDbLine
 10
404.949035
 20
601.990739
 30
0.0
 11
404.949035
 21
599.608239
 31
0.0
  0
LINE
  5
2A4
330
1F
100
AcDbEntity
  8
図
  6
Continuous
 62
     3
100
AcDbLine
 10
402.121535
 20
599.408239
 30
0.0
 11
404.749035
 21
599.408239
 31
0.0
  0
LINE
  5
2A5
330
1F
100
AcDbEntity
  8
図
  6
Continuous
 62
     3
100
AcDbLine
 10
404.749035
 20
597.923239
 30
0.0
 11
402.121535
 21
597.923239
 31
0.0
  0
LINE
  5
2A6
330
1F
100
AcDbEntity
  8
図
  6
Continuous
 62
     3
100
AcDbLine
 10
409.726535
 20
599.108239
 30
0.0
 11
409.726535
 21
598.223239
 31
0.0
  0
LINE
  5
2A7
330
1F
100
AcDbEntity
  8
図
  6
Continuous
 62
     3
100
AcDbLine
 10
409.674035
 20
602.190739
 30
0.0
 11
406.769035
 21
602.190739
 31
0.0
  0
LINE
  5
2A8
330
1F
100
AcDbEntity
  8
図
  6
Continuous
 62
     3
100
AcDbLine
 10
406.769035
 20
599.408239
 30
0.0
 11
409.426535
 21
599.408239
 31
0.0
  0
LINE
  5
2A9
330
1F
100
AcDbEntity
  8
図
  6
Continuous
 62
     3
100
AcDbLine
 10
406.569035
 20
599.608239
 30
0.0
 11
406.569035
 21
601.990739
 31
0.0
  0
LINE
  5
2AA
330
1F
100
AcDbEntity
  8
図
  6
Continuous
 62
     3
100
AcDbLine
 10
409.426535
 20
597.923239
 30
0.0
 11
406.769035
 21
597.923239
 31
0.0
  0
LINE
  5
2AB
330
1F
100
AcDbEntity
  8
図
  6
Continuous
 62
     3
100
AcDbLine
 10
409.974035
 20
603.405739
 30
0.0
 11
409.974035
 21
602.490739
 31
0.0
  0
LINE
  5
2AC
330
1F
100
AcDbEntity
  8
図
  6
Continuous
 62
     3
100
AcDbLine
 10
411.187675
 20
603.784271
 30
0.0
 11
411.71693
 21
604.837835
 31
0.0
  0
LINE
  5
2AD
330
1F
100
AcDbEntity
  8
図
  6
Continuous
 62
     3
100
AcDbLine
 10
405.120181
 20
610.602173
 30
0.0
 11
406.043733
 21
610.452645
 31
0.0
  0
LINE
  5
2AE
330
1F
100
AcDbEntity
  8
図
  6
DOT_CENTER
 62
     3
100
AcDbLine
 10
326.975
 20
521.0
 30
0.0
 11
374.975
 21
521.0
 31
0.0
  0
LINE
  5
2AF
330
1F
100
AcDbEntity
  8
図
  6
DOT_CENTER
 62
     3
100
AcDbLine
 10
321.975
 20
516.0
 30
0.0
 11
321.975
 21
503.0
 31
0.0
  0
LINE
  5
2B0
330
1F
100
AcDbEntity
  8
図
  6
DOT_CENTER
 62
     3
100
AcDbLine
 10
321.97502
 20
518.399599
 30
0.0
 11
379.97502
 21
518.399599
 31
0.0
  0
LINE
  5
2B1
330
1F
100
AcDbEntity
  8
図
  6
DOT_CENTER
 62
     3
100
AcDbLine
 10
321.97502
 20
543.399599
 30
0.0
 11
379.97502
 21
543.399599
 31
0.0
  0
LINE
  5
2B2
330
1F
100
AcDbEntity
  8
図
  6
DOT_CENTER
 62
     3
100
AcDbLine
 10
379.97502
 20
518.399599
 30
0.0
 11
379.97502
 21
543.399599
 31
0.0
  0
LINE
  5
2B3
330
1F
100
AcDbEntity
  8
図
  6
DOT_CENTER
 62
     3
100
AcDbLine
 10
379.975
 20
516.0
 30
0.0
 11
379.975
 21
503.0
 31
0.0
  0
LINE
  5
2B4
330
1F
100
AcDbEntity
  8
図
  6
DOT_CENTER
 62
     3
100
AcDbLine
 10
355.977556
 20
507.999714
 30
0.0
 11
363.087312
 21
522.428899
 31
0.0
  0
LINE
  5
2B5
330
1F
100
AcDbEntity
  8
図
  6
DOT_CENTER
 62
     3
100
AcDbLine
 10
345.977556
 20
507.999714
 30
0.0
 11
338.8678
 21
522.428898
 31
0.0
  0
LINE
  5
2B6
330
1F
100
AcDbEntity
  8
図
  6
DOT_CENTER
 62
     3
100
AcDbLine
 10
331.97502
 20
543.399599
 30
0.0
 11
331.97502
 21
518.399599
 31
0.0
  0
LINE
  5
2B7
330
1F
100
AcDbEntity
  8
図
  6
DOT_CENTER
 62
     3
100
AcDbLine
 10
321.97502
 20
543.399599
 30
0.0
 11
321.97502
 21
518.399599
 31
0.0
  0
LINE
  5
2B8
330
1F
100
AcDbEntity
  8
図
  6
DOT_CENTER
 62
     3
100
AcDbLine
 10
332.97502
 20
543.399599
 30
0.0
 11
332.97502
 21
518.399599
 31
0.0
  0
LINE
  5
2B9
330
1F
100
AcDbEntity
  8
図
  6
DOT_CENTER
 62
     3
100
AcDbLine
 10
369.97502
 20
518.399599
 30
0.0
 11
369.97502
 21
543.399599
 31
0.0
  0
LINE
  5
2BA
330
1F
100
AcDbEntity
  8
図
  6
DOT_CENTER
 62
     3
100
AcDbLine
 10
368.97502
 20
518.399599
 30
0.0
 11
368.97502
 21
543.399599
 31
0.0
  0
LINE
  5
2BB
330
1F
100
AcDbEntity
  8
図
  6
DOT_CENTER
 62
     3
100
AcDbLine
 10
343.183327
 20
532.895792
 30
0.0
 11
339.286213
 21
535.145792
 31
0.0
  0
LINE
  5
2BC
330
1F
100
AcDbEntity
  8
図
  6
DOT_CENTER
 62
     3
100
AcDbLine
 10
358.771784
 20
532.895792
 30
0.0
 11
362.668899
 21
535.145792
 31
0.0
  0
LINE
  5
2BD
330
1F
100
AcDbEntity
  8
図
  6
DOT_CENTER
 62
     3
100
AcDbLine
 10
360.167408
 20
534.056453
 30
0.0
 11
363.844363
 21
537.733408
 31
0.0
  0
LINE
  5
2BE
330
1F
100
AcDbEntity
  8
図
  6
DOT_CENTER
 62
     3
100
AcDbLine
 10
356.631874
 20
537.591987
 30
0.0
 11
360.167408
 21
534.056453
 31
0.0
  0
LINE
  5
2BF
330
1F
100
AcDbEntity
  8
図
  6
DOT_CENTER
 62
     3
100
AcDbLine
 10
357.338981
 20
538.299094
 30
0.0
 11
360.874514
 21
534.76356
 31
0.0
  0
LINE
  5
2C0
330
1F
100
AcDbEntity
  8
図
  6
DOT_CENTER
 62
     3
100
AcDbLine
 10
360.308829
 20
541.268942
 30
0.0
 11
363.844363
 21
537.733408
 31
0.0
  0
LINE
  5
2C1
330
1F
100
AcDbEntity
  8
図
  6
DOT_CENTER
 62
     3
100
AcDbLine
 10
356.631874
 20
537.591987
 30
0.0
 11
360.308829
 21
541.268942
 31
0.0
  0
LINE
  5
2C2
330
1F
100
AcDbEntity
  8
図
  6
Continuous
 62
     3
100
AcDbLine
 10
352.22502
 20
525.130425
 30
0.0
 11
352.22502
 21
523.199599
 31
0.0
  0
LINE
  5
2C3
330
1F
100
AcDbEntity
  8
図
  6
Continuous
 62
     3
100
AcDbLine
 10
349.72502
 20
525.130425
 30
0.0
 11
349.72502
 21
523.199599
 31
0.0
  0
LINE
  5
2C4
330
1F
100
AcDbEntity
  8
図
  6
Continuous
 62
     3
100
AcDbLine
 10
352.22502
 20
533.599599
 30
0.0
 11
352.22502
 21
531.668773
 31
0.0
  0
LINE
  5
2C5
330
1F
100
AcDbEntity
  8
図
  6
Continuous
 62
     3
100
AcDbLine
 10
349.72502
 20
533.599599
 30
0.0
 11
349.72502
 21
531.668773
 31
0.0
  0
LINE
  5
2C6
330
1F
100
AcDbEntity
  8
図
  6
Continuous
 62
     3
100
AcDbLine
 10
350.02502
 20
533.899599
 30
0.0
 11
351.92502
 21
533.899599
 31
0.0
  0
LINE
  5
2C7
330
1F
100
AcDbEntity
  8
図
  6
Continuous
 62
     3
100
AcDbLine
 10
350.02502
 20
522.899599
 30
0.0
 11
351.92502
 21
522.899599
 31
0.0
  0
LINE
  5
2C8
330
1F
100
AcDbEntity
  8
図
  6
DOT_CENTER
 62
     1
100
AcDbLine
 10
334.843194
 20
528.4
 30
0.0
 11
367.595825
 21
528.4
 31
0.0
  0
LINE
  5
2C9
330
1F
100
AcDbEntity
  8
図
  6
Continuous
 62
     3
100
AcDbLine
 10
479.975
 20
493.0
 30
0.0
 11
479.975
 21
487.0
 31
0.0
  0
LINE
  5
2CA
330
1F
100
AcDbEntity
  8
図
  6
Continuous
 62
     3
100
AcDbLine
 10
484.975
 20
498.0
 30
0.0
 11
492.975
 21
498.0
 31
0.0
  0
LINE
  5
2CB
330
1F
100
AcDbEntity
  8
図
  6
Continuous
 62
     3
100
AcDbLine
 10
221.975
 20
493.0
 30
0.0
 11
221.975
 21
487.0
 31
0.0
  0
LINE
  5
2CC
330
1F
100
AcDbEntity
  8
図
  6
Continuous
 62
     3
100
AcDbLine
 10
216.975
 20
498.0
 30
0.0
 11
208.975
 21
498.0
 31
0.0
  0
LINE
  5
2CD
330
1F
100
AcDbEntity
  8
図
  6
Continuous
 62
     3
100
AcDbLine
 10
479.975
 20
711.0
 30
0.0
 11
479.975
 21
719.0
 31
0.0
  0
LINE
  5
2CE
330
1F
100
AcDbEntity
  8
図
  6
Continuous
 62
     3
100
AcDbLine
 10
484.975
 20
706.0
 30
0.0
 11
492.975
 21
706.0
 31
0.0
  0
LINE
  5
2CF
330
1F
100
AcDbEntity
  8
図
  6
Continuous
 62
     3
100
AcDbLine
 10
221.975
 20
711.0
 30
0.0
 11
221.975
 21
719.0
 31
0.0
  0
LINE
  5
2D0
330
1F
100
AcDbEntity
  8
図
  6
Continuous
 62
     3
100
AcDbLine
 10
216.975
 20
706.0
 30
0.0
 11
208.975
 21
706.0
 31
0.0
  0
LINE
  5
2D1
330
1F
100
AcDbEntity
  8
図
  6
Continuous
 62
     3
100
AcDbLine
 10
363.475068
 20
285.599803
 30
0.0
 11
363.475068
 21
286.6
 31
0.0
  0
LINE
  5
2D2
330
1F
100
AcDbEntity
  8
図
  6
Continuous
 62
     3
100
AcDbLine
 10
342.951001
 20
285.69462
 30
0.0
 11
340.522901
 21
286.6
 31
0.0
  0
LINE
  5
2D3
330
1F
100
AcDbEntity
  8
図
  6
Continuous
 62
     3
100
AcDbLine
 10
338.668981
 20
286.6
 30
0.0
 11
338.475068
 21
285.600093
 31
0.0
  0
LINE
  5
2D4
330
1F
100
AcDbEntity
  8
図
  6
Continuous
 62
     3
100
AcDbLine
 10
338.475068
 20
286.6
 30
0.0
 11
338.475068
 21
285.600093
 31
0.0
  0
LINE
  5
2D5
330
1F
100
AcDbEntity
  8
図
  6
Continuous
 62
     3
100
AcDbLine
 10
332.974844
 20
301.3
 30
0.0
 11
368.974844
 21
301.3
 31
0.0
  0
LINE
  5
2D6
330
1F
100
AcDbEntity
  8
図
  6
DOTTED
 62
     3
100
AcDbLine
 10
340.975005
 20
310.299972
 30
0.0
 11
340.975013
 21
307.299972
 31
0.0
  0
LINE
  5
2D7
330
1F
100
AcDbEntity
  8
図
  6
DOTTED
 62
     3
100
AcDbLine
 10
360.975
 20
310.3
 30
0.0
 11
360.975
 21
307.3
 31
0.0
  0
LINE
  5
2D8
330
1F
100
AcDbEntity
  8
図
  6
DOT_CENTER
 62
     1
100
AcDbLine
 10
344.087601
 20
295.09965
 30
0.0
 11
358.041922
 21
295.09965
 31
0.0
  0
LINE
  5
2D9
330
1F
100
AcDbEntity
  8
図
  6
Continuous
 62
     3
100
AcDbLine
 10
358.474898
 20
282.100038
 30
0.0
 11
358.474849
 21
283.599882
 31
0.0
  0
LINE
  5
2DA
330
1F
100
AcDbEntity
  8
図
  6
Continuous
 62
     3
100
AcDbLine
 10
344.475
 20
289.09965
 30
0.0
 11
344.475
 21
287.59965
 31
0.0
  0
LINE
  5
2DB
330
1F
100
AcDbEntity
  8
図
  6
Continuous
 62
     3
100
AcDbLine
 10
357.475
 20
289.09965
 30
0.0
 11
354.475
 21
289.09965
 31
0.0
  0
LINE
  5
2DC
330
1F
100
AcDbEntity
  8
図
  6
Continuous
 62
     3
100
AcDbLine
 10
339.318068
 20
288.650138
 30
0.0
 11
338.746945
 21
287.6
 31
0.0
  0
LINE
  5
2DD
330
1F
100
AcDbEntity
  8
図
  6
Continuous
 62
     3
100
AcDbLine
 10
339.318068
 20
288.650138
 30
0.0
 11
338.926497
 21
287.6
 31
0.0
  0
LINE
  5
2DE
330
1F
100
AcDbEntity
  8
図
  6
Continuous
 62
     3
100
AcDbLine
 10
350.974844
 20
286.6
 30
0.0
 11
343.474844
 21
286.6
 31
0.0
  0
LINE
  5
2DF
330
1F
100
AcDbEntity
  8
図
  6
Continuous
 62
     3
100
AcDbLine
 10
347.475
 20
289.09965
 30
0.0
 11
354.475
 21
289.09965
 31
0.0
  0
LINE
  5
2E0
330
1F
100
AcDbEntity
  8
図
  6
Continuous
 62
     3
100
AcDbLine
 10
357.475
 20
289.09965
 30
0.0
 11
357.475
 21
287.59965
 31
0.0
  0
LINE
  5
2E1
330
1F
100
AcDbEntity
  8
図
  6
Continuous
 62
     3
100
AcDbLine
 10
364.467642
 20
285.599787
 30
0.0
 11
364.467611
 21
283.599787
 31
0.0
  0
LINE
  5
2E2
330
1F
100
AcDbEntity
  8
図
  6
Continuous
 62
     3
100
AcDbLine
 10
321.974844
 20
306.3
 30
0.0
 11
331.974844
 21
306.3
 31
0.0
  0
LINE
  5
2E3
330
1F
100
AcDbEntity
  8
図
  6
Continuous
 62
     3
100
AcDbLine
 10
354.475
 20
298.09965
 30
0.0
 11
354.475
 21
296.34965
 31
0.0
  0
LINE
  5
2E4
330
1F
100
AcDbEntity
  8
図
  6
Continuous
 62
     3
100
AcDbLine
 10
347.475
 20
293.84965
 30
0.0
 11
347.475
 21
289.09965
 31
0.0
  0
LINE
  5
2E5
330
1F
100
AcDbEntity
  8
図
  6
Continuous
 62
     3
100
AcDbLine
 10
332.974844
 20
306.3
 30
0.0
 11
332.974844
 21
287.6
 31
0.0
  0
LINE
  5
2E6
330
1F
100
AcDbEntity
  8
図
  6
Continuous
 62
     3
100
AcDbLine
 10
368.974844
 20
286.6
 30
0.0
 11
350.974844
 21
286.6
 31
0.0
  0
LINE
  5
2E7
330
1F
100
AcDbEntity
  8
図
  6
Continuous
 62
     3
100
AcDbLine
 10
354.475
 20
293.84965
 30
0.0
 11
354.475
 21
296.34965
 31
0.0
  0
LINE
  5
2E8
330
1F
100
AcDbEntity
  8
図
  6
Continuous
 62
     3
100
AcDbLine
 10
348.475
 20
299.09965
 30
0.0
 11
353.475
 21
299.09965
 31
0.0
  0
LINE
  5
2E9
330
1F
100
AcDbEntity
  8
図
  6
Continuous
 62
     3
100
AcDbLine
 10
369.974844
 20
306.3
 30
0.0
 11
369.974844
 21
287.6
 31
0.0
  0
LINE
  5
2EA
330
1F
100
AcDbEntity
  8
図
  6
Continuous
 62
     3
100
AcDbLine
 10
379.974844
 20
307.3
 30
0.0
 11
379.974844
 21
306.3
 31
0.0
  0
LINE
  5
2EB
330
1F
100
AcDbEntity
  8
図
  6
Continuous
 62
     3
100
AcDbLine
 10
345.724844
 20
286.622543
 30
0.0
 11
345.724844
 21
286.6
 31
0.0
  0
LINE
  5
2EC
330
1F
100
AcDbEntity
  8
図
  6
Continuous
 62
     3
100
AcDbLine
 10
342.134388
 20
287.6
 30
0.0
 11
339.318068
 21
288.650138
 31
0.0
  0
LINE
  5
2ED
330
1F
100
AcDbEntity
  8
図
  6
Continuous
 62
     3
100
AcDbLine
 10
343.474844
 20
285.773278
 30
0.0
 11
343.474844
 21
286.6
 31
0.0
  0
LINE
  5
2EE
330
1F
100
AcDbEntity
  8
図
  6
Continuous
 62
     3
100
AcDbLine
 10
350.608111
 20
286.5775
 30
0.0
 11
346.402636
 21
286.027607
 31
0.0
  0
LINE
  5
2EF
330
1F
100
AcDbEntity
  8
図
  6
Continuous
 62
     3
100
AcDbLine
 10
347.475
 20
289.09965
 30
0.0
 11
344.475
 21
289.09965
 31
0.0
  0
LINE
  5
2F0
330
1F
100
AcDbEntity
  8
図
  6
Continuous
 62
     3
100
AcDbLine
 10
346.402636
 20
286.027607
 30
0.0
 11
344.842684
 21
285.823634
 31
0.0
  0
LINE
  5
2F1
330
1F
100
AcDbEntity
  8
図
  6
Continuous
 62
     3
100
AcDbLine
 10
343.475068
 20
285.600093
 30
0.0
 11
338.475068
 21
285.600093
 31
0.0
  0
LINE
  5
2F2
330
1F
100
AcDbEntity
  8
図
  6
Continuous
 62
     3
100
AcDbLine
 10
337.482145
 20
283.6
 30
0.0
 11
350.974844
 21
283.6
 31
0.0
  0
LINE
  5
2F3
330
1F
100
AcDbEntity
  8
図
  6
Continuous
 62
     3
100
AcDbLine
 10
337.482145
 20
285.6
 30
0.0
 11
337.482145
 21
283.6
 31
0.0
  0
LINE
  5
2F4
330
1F
100
AcDbEntity
  8
図
  6
Continuous
 62
     3
100
AcDbLine
 10
321.974844
 20
307.3
 30
0.0
 11
321.974844
 21
306.3
 31
0.0
  0
LINE
  5
2F5
330
1F
100
AcDbEntity
  8
図
  6
Continuous
 62
     3
100
AcDbLine
 10
354.475
 20
293.84965
 30
0.0
 11
354.475
 21
289.09965
 31
0.0
  0
LINE
  5
2F6
330
1F
100
AcDbEntity
  8
図
  6
Continuous
 62
     3
100
AcDbLine
 10
347.475
 20
298.09965
 30
0.0
 11
347.475
 21
296.34965
 31
0.0
  0
LINE
  5
2F7
330
1F
100
AcDbEntity
  8
図
  6
Continuous
 62
     3
100
AcDbLine
 10
332.974844
 20
287.6
 30
0.0
 11
350.974844
 21
287.6
 31
0.0
  0
LINE
  5
2F8
330
1F
100
AcDbEntity
  8
図
  6
Continuous
 62
     3
100
AcDbLine
 10
321.974844
 20
307.3
 30
0.0
 11
331.974844
 21
307.3
 31
0.0
  0
LINE
  5
2F9
330
1F
100
AcDbEntity
  8
図
  6
Continuous
 62
     3
100
AcDbLine
 10
347.475
 20
293.84965
 30
0.0
 11
347.475
 21
296.34965
 31
0.0
  0
LINE
  5
2FA
330
1F
100
AcDbEntity
  8
図
  6
Continuous
 62
     3
100
AcDbLine
 10
346.974884
 20
275.6
 30
0.0
 11
346.974888
 21
275.1
 31
0.0
  0
LINE
  5
2FB
330
1F
100
AcDbEntity
  8
図
  6
Continuous
 62
     3
100
AcDbLine
 10
379.974844
 20
307.3
 30
0.0
 11
369.974844
 21
307.3
 31
0.0
  0
LINE
  5
2FC
330
1F
100
AcDbEntity
  8
図
  6
Continuous
 62
     3
100
AcDbLine
 10
368.974844
 20
306.3
 30
0.0
 11
368.974844
 21
287.6
 31
0.0
  0
LINE
  5
2FD
330
1F
100
AcDbEntity
  8
図
  6
Continuous
 62
     3
100
AcDbLine
 10
347.574891
 20
274.600004
 30
0.0
 11
346.974888
 21
275.1
 31
0.0
  0
LINE
  5
2FE
330
1F
100
AcDbEntity
  8
図
  6
Continuous
 62
     3
100
AcDbLine
 10
354.374884
 20
275.599933
 30
0.0
 11
354.374891
 21
274.599933
 31
0.0
  0
LINE
  5
2FF
330
1F
100
AcDbEntity
  8
図
  6
Continuous
 62
     3
100
AcDbLine
 10
379.974844
 20
306.3
 30
0.0
 11
369.974844
 21
306.3
 31
0.0
  0
LINE
  5
300
330
1F
100
AcDbEntity
  8
図
  6
Continuous
 62
     3
100
AcDbLine
 10
357.274996
 20
275.599901
 30
0.0
 11
357.474999
 21
275.799897
 31
0.0
  0
LINE
  5
301
330
1F
100
AcDbEntity
  8
図
  6
Continuous
 62
     3
100
AcDbLine
 10
357.274996
 20
275.599901
 30
0.0
 11
350.974809
 21
275.6
 31
0.0
  0
LINE
  5
302
330
1F
100
AcDbEntity
  8
図
  6
Continuous
 62
     3
100
AcDbLine
 10
332.974844
 20
286.6
 30
0.0
 11
343.474844
 21
286.6
 31
0.0
  0
LINE
  5
303
330
1F
100
AcDbEntity
  8
図
  6
Continuous
 62
     3
100
AcDbLine
 10
337.482145
 20
285.6
 30
0.0
 11
350.974844
 21
285.6
 31
0.0
  0
LINE
  5
304
330
1F
100
AcDbEntity
  8
図
  6
Continuous
 62
     3
100
AcDbLine
 10
357.474999
 20
275.799897
 30
0.0
 11
357.475096
 21
281.899897
 31
0.0
  0
LINE
  5
305
330
1F
100
AcDbEntity
  8
図
  6
Continuous
 62
     3
100
AcDbLine
 10
344.674996
 20
275.6
 30
0.0
 11
344.474996
 21
275.8
 31
0.0
  0
LINE
  5
306
330
1F
100
AcDbEntity
  8
図
  6
Continuous
 62
     3
100
AcDbLine
 10
344.674996
 20
275.6
 30
0.0
 11
350.974844
 21
275.6
 31
0.0
  0
LINE
  5
307
330
1F
100
AcDbEntity
  8
図
  6
Continuous
 62
     3
100
AcDbLine
 10
331.974844
 20
306.3
 30
0.0
 11
331.974844
 21
287.6
 31
0.0
  0
LINE
  5
308
330
1F
100
AcDbEntity
  8
図
  6
Continuous
 62
     3
100
AcDbLine
 10
368.974844
 20
287.6
 30
0.0
 11
350.974844
 21
287.6
 31
0.0
  0
LINE
  5
309
330
1F
100
AcDbEntity
  8
図
  6
Continuous
 62
     3
100
AcDbLine
 10
364.467611
 20
283.599787
 30
0.0
 11
350.974912
 21
283.6
 31
0.0
  0
LINE
  5
30A
330
1F
100
AcDbEntity
  8
図
  6
Continuous
 62
     3
100
AcDbLine
 10
354.374891
 20
274.599933
 30
0.0
 11
354.974888
 21
275.099937
 31
0.0
  0
LINE
  5
30B
330
1F
100
AcDbEntity
  8
図
  6
Continuous
 62
     3
100
AcDbLine
 10
344.474996
 20
281.9
 30
0.0
 11
344.674996
 21
282.099998
 31
0.0
  0
LINE
  5
30C
330
1F
100
AcDbEntity
  8
図
  6
Continuous
 62
     3
100
AcDbLine
 10
344.474996
 20
275.8
 30
0.0
 11
344.474996
 21
281.9
 31
0.0
  0
LINE
  5
30D
330
1F
100
AcDbEntity
  8
図
  6
Continuous
 62
     3
100
AcDbLine
 10
357.274764
 20
282.099998
 30
0.0
 11
358.474898
 21
282.100038
 31
0.0
  0
LINE
  5
30E
330
1F
100
AcDbEntity
  8
図
  6
Continuous
 62
     3
100
AcDbLine
 10
350.63256
 20
286.379
 30
0.0
 11
344.868614
 21
285.625322
 31
0.0
  0
LINE
  5
30F
330
1F
100
AcDbEntity
  8
図
  6
Continuous
 62
     3
100
AcDbLine
 10
343.474863
 20
282.100038
 30
0.0
 11
343.474912
 21
283.600246
 31
0.0
  0
LINE
  5
310
330
1F
100
AcDbEntity
  8
図
  6
Continuous
 62
     3
100
AcDbLine
 10
344.674996
 20
282.099998
 30
0.0
 11
343.474863
 21
282.100038
 31
0.0
  0
LINE
  5
311
330
1F
100
AcDbEntity
  8
図
  6
Continuous
 62
     3
100
AcDbLine
 10
357.475096
 20
281.899897
 30
0.0
 11
357.275099
 21
282.099899
 31
0.0
  0
LINE
  5
312
330
1F
100
AcDbEntity
  8
図
  6
Continuous
 62
     3
100
AcDbLine
 10
344.674996
 20
282.099998
 30
0.0
 11
357.275099
 21
282.099899
 31
0.0
  0
LINE
  5
313
330
1F
100
AcDbEntity
  8
図
  6
Continuous
 62
     3
100
AcDbLine
 10
343.180615
 20
285.6
 30
0.0
 11
343.180615
 21
283.6
 31
0.0
  0
LINE
  5
314
330
1F
100
AcDbEntity
  8
図
  6
Continuous
 62
     3
100
AcDbLine
 10
364.467642
 20
285.599787
 30
0.0
 11
350.974944
 21
285.6
 31
0.0
  0
LINE
  5
315
330
1F
100
AcDbEntity
  8
図
  6
Continuous
 62
     3
100
AcDbLine
 10
354.974884
 20
275.599937
 30
0.0
 11
354.974888
 21
275.099937
 31
0.0
  0
LINE
  5
316
330
1F
100
AcDbEntity
  8
図
  6
Continuous
 62
     3
100
AcDbLine
 10
354.374907
 20
274.599946
 30
0.0
 11
350.974794
 21
274.6
 31
0.0
  0
LINE
  5
317
330
1F
100
AcDbEntity
  8
図
  6
Continuous
 62
     3
100
AcDbLine
 10
347.574896
 20
274.6
 30
0.0
 11
350.974844
 21
274.6
 31
0.0
  0
LINE
  5
318
330
1F
100
AcDbEntity
  8
図
  6
Continuous
 62
     3
100
AcDbLine
 10
347.574884
 20
275.600004
 30
0.0
 11
347.574891
 21
274.600004
 31
0.0
  0
LINE
  5
319
330
1F
100
AcDbEntity
  8
図
  6
Continuous
 62
     3
100
AcDbLine
 10
349.725048
 20
282.099949
 30
0.0
 11
351.225075
 21
283.599976
 31
0.0
  0
LINE
  5
31A
330
1F
100
AcDbEntity
  8
図
  6
Continuous
 62
     3
100
AcDbLine
 10
350.725048
 20
282.099949
 30
0.0
 11
352.225075
 21
283.599976
 31
0.0
  0
LINE
  5
31B
330
1F
100
AcDbEntity
  8
図
  6
Continuous
 62
     3
100
AcDbLine
 10
350.97488
 20
276.181
 30
0.0
 11
350.974844
 21
281.519
 31
0.0
  0
LINE
  5
31C
330
1F
100
AcDbEntity
  8
図
  6
Continuous
 62
     3
100
AcDbLine
 10
369.974844
 20
301.3
 30
0.0
 11
449.975
 21
301.3
 31
0.0
  0
LINE
  5
31D
330
1F
100
AcDbEntity
  8
図
  6
DOTTED
 62
     3
100
AcDbLine
 10
459.975
 20
300.3
 30
0.0
 11
449.975
 21
300.3
 31
0.0
  0
LINE
  5
31E
330
1F
100
AcDbEntity
  8
図
  6
Continuous
 62
     3
100
AcDbLine
 10
449.975
 20
307.3
 30
0.0
 11
449.975
 21
298.3
 31
0.0
  0
LINE
  5
31F
330
1F
100
AcDbEntity
  8
図
  6
Continuous
 62
     3
100
AcDbLine
 10
459.975
 20
307.3
 30
0.0
 11
459.975
 21
298.3
 31
0.0
  0
LINE
  5
320
330
1F
100
AcDbEntity
  8
図
  6
Continuous
 62
     3
100
AcDbLine
 10
459.975
 20
298.3
 30
0.0
 11
449.975
 21
298.3
 31
0.0
  0
LINE
  5
321
330
1F
100
AcDbEntity
  8
図
  6
Continuous
 62
     3
100
AcDbLine
 10
459.975
 20
301.3
 30
0.0
 11
478.775
 21
301.3
 31
0.0
  0
LINE
  5
322
330
1F
100
AcDbEntity
  8
図
  6
Continuous
 62
     3
100
AcDbLine
 10
251.975013
 20
301.3
 30
0.0
 11
331.974844
 21
301.3
 31
0.0
  0
LINE
  5
323
330
1F
100
AcDbEntity
  8
図
  6
Continuous
 62
     3
100
AcDbLine
 10
223.175
 20
301.3
 30
0.0
 11
241.975013
 21
301.3
 31
0.0
  0
LINE
  5
324
330
1F
100
AcDbEntity
  8
図
  6
DOTTED
 62
     3
100
AcDbLine
 10
241.975032
 20
300.299696
 30
0.0
 11
251.975032
 21
300.299724
 31
0.0
  0
LINE
  5
325
330
1F
100
AcDbEntity
  8
図
  6
Continuous
 62
     3
100
AcDbLine
 10
251.975013
 20
307.299724
 30
0.0
 11
251.975038
 21
298.299724
 31
0.0
  0
LINE
  5
326
330
1F
100
AcDbEntity
  8
図
  6
Continuous
 62
     3
100
AcDbLine
 10
241.975013
 20
307.299696
 30
0.0
 11
241.975038
 21
298.299696
 31
0.0
  0
LINE
  5
327
330
1F
100
AcDbEntity
  8
図
  6
Continuous
 62
     3
100
AcDbLine
 10
241.975038
 20
298.299696
 30
0.0
 11
251.975038
 21
298.299724
 31
0.0
  0
LINE
  5
328
330
1F
100
AcDbEntity
  8
LAY-1
  6
Continuous
 62
     3
100
AcDbLine
 10
479.975
 20
108.5
 30
0.0
 11
495.975
 21
108.5
 31
0.0
  0
LINE
  5
329
330
1F
100
AcDbEntity
  8
LAY-1
  6
DOT_CENTER
 62
     1
100
AcDbLine
 10
482.37
 20
304.3
 30
0.0
 11
220.08
 21
304.3
 31
0.0
  0
LINE
  5
32A
330
1F
100
AcDbEntity
  8
LAY-1
  6
Continuous
 62
     3
100
AcDbLine
 10
223.175
 20
306.1
 30
0.0
 11
231.975
 21
306.1
 31
0.0
  0
LINE
  5
32B
330
1F
100
AcDbEntity
  8
LAY-1
  6
DOT_CENTER
 62
     1
100
AcDbLine
 10
350.975
 20
317.8
 30
0.0
 11
350.975
 21
98.2
 31
0.0
  0
LINE
  5
32C
330
1F
100
AcDbEntity
  8
LAY-1
  6
Continuous
 62
     3
100
AcDbLine
 10
478.775
 20
306.1
 30
0.0
 11
478.775
 21
107.3
 31
0.0
  0
LINE
  5
32D
330
1F
100
AcDbEntity
  8
LAY-1
  6
Continuous
 62
     3
100
AcDbLine
 10
478.775
 20
306.1
 30
0.0
 11
469.975
 21
306.1
 31
0.0
  0
LINE
  5
32E
330
1F
100
AcDbEntity
  8
LAY-1
  6
Continuous
 62
     3
100
AcDbLine
 10
469.975
 20
307.3
 30
0.0
 11
469.975
 21
306.1
 31
0.0
  0
LINE
  5
32F
330
1F
100
AcDbEntity
  8
LAY-1
  6
Continuous
 62
     3
100
AcDbLine
 10
479.975
 20
307.3
 30
0.0
 11
479.975
 21
108.5
 31
0.0
  0
LINE
  5
330
330
1F
100
AcDbEntity
  8
LAY-1
  6
Continuous
 62
     3
100
AcDbLine
 10
231.975
 20
307.3
 30
0.0
 11
231.975
 21
306.1
 31
0.0
  0
LINE
  5
331
330
1F
100
AcDbEntity
  8
LAY-1
  6
Continuous
 62
     3
100
AcDbLine
 10
495.975
 20
107.3
 30
0.0
 11
495.975
 21
108.5
 31
0.0
  0
LINE
  5
332
330
1F
100
AcDbEntity
  8
LAY-1
  6
Continuous
 62
     3
100
AcDbLine
 10
205.975
 20
107.3
 30
0.0
 11
205.975
 21
108.5
 31
0.0
  0
LINE
  5
333
330
1F
100
AcDbEntity
  8
LAY-1
  6
Continuous
 62
     3
100
AcDbLine
 10
205.975
 20
108.5
 30
0.0
 11
221.975
 21
108.5
 31
0.0
  0
LINE
  5
334
330
1F
100
AcDbEntity
  8
LAY-1
  6
Continuous
 62
     3
100
AcDbLine
 10
223.175
 20
306.1
 30
0.0
 11
223.175
 21
107.3
 31
0.0
  0
LINE
  5
335
330
1F
100
AcDbEntity
  8
LAY-1
  6
Continuous
 62
     3
100
AcDbLine
 10
205.975
 20
107.3
 30
0.0
 11
495.975
 21
107.3
 31
0.0
  0
LINE
  5
336
330
1F
100
AcDbEntity
  8
LAY-1
  6
Continuous
 62
     3
100
AcDbLine
 10
221.975
 20
307.3
 30
0.0
 11
221.975
 21
108.5
 31
0.0
  0
LINE
  5
337
330
1F
100
AcDbEntity
  8
LAY-1
  6
Continuous
 62
     3
100
AcDbLine
 10
474.575
 20
310.3
 30
0.0
 11
474.575
 21
307.3
 31
0.0
  0
LINE
  5
338
330
1F
100
AcDbEntity
  8
LAY-1
  6
Continuous
 62
     3
100
AcDbLine
 10
474.975
 20
310.3
 30
0.0
 11
474.975
 21
307.3
 31
0.0
  0
LINE
  5
339
330
1F
100
AcDbEntity
  8
LAY-1
  6
Continuous
 62
     3
100
AcDbLine
 10
227.375
 20
310.3
 30
0.0
 11
227.375
 21
307.3
 31
0.0
  0
LINE
  5
33A
330
1F
100
AcDbEntity
  8
LAY-1
  6
Continuous
 62
     3
100
AcDbLine
 10
226.975
 20
310.3
 30
0.0
 11
226.975
 21
307.3
 31
0.0
  0
LINE
  5
33B
330
1F
100
AcDbEntity
  8
LAY-1
  6
Continuous
 62
     3
100
AcDbLine
 10
484.975
 20
310.3
 30
0.0
 11
484.975
 21
307.3
 31
0.0
  0
LINE
  5
33C
330
1F
100
AcDbEntity
  8
LAY-1
  6
Continuous
 62
     3
100
AcDbLine
 10
216.975
 20
307.3
 30
0.0
 11
216.975
 21
310.3
 31
0.0
  0
LINE
  5
33D
330
1F
100
AcDbEntity
  8
LAY-1
  6
Continuous
 62
     3
100
AcDbLine
 10
216.975
 20
307.3
 30
0.0
 11
484.975
 21
307.3
 31
0.0
  0
LINE
  5
33E
330
1F
100
AcDbEntity
  8
LAY-1
  6
Continuous
 62
     3
100
AcDbLine
 10
216.975
 20
310.3
 30
0.0
 11
484.975
 21
310.3
 31
0.0
  0
LINE
  5
33F
330
1F
100
AcDbEntity
  8
LAY-1
  6
DOT_CENTER
 62
     1
100
AcDbLine
 10
815.9
 20
602.0
 30
0.0
 11
1048.2
 21
602.0
 31
0.0
  0
LINE
  5
340
330
1F
100
AcDbEntity
  8
LAY-1
  6
DOT_CENTER
 62
     1
100
AcDbLine
 10
201.3
 20
602.0
 30
0.0
 11
501.0
 21
602.0
 31
0.0
  0
LINE
  5
341
330
1F
100
AcDbEntity
  8
LAY-1
  6
Continuous
 62
     3
100
AcDbLine
 10
226.975
 20
482.0
 30
0.0
 11
474.975
 21
482.0
 31
0.0
  0
LINE
  5
342
330
1F
100
AcDbEntity
  8
LAY-1
  6
Continuous
 62
     3
100
AcDbLine
 10
219.975
 20
493.0
 30
0.0
 11
481.975
 21
493.0
 31
0.0
  0
LINE
  5
343
330
1F
100
AcDbEntity
  8
LAY-1
  6
Continuous
 62
     3
100
AcDbLine
 10
474.975
 20
503.0
 30
0.0
 11
226.975
 21
503.0
 31
0.0
  0
LINE
  5
344
330
1F
100
AcDbEntity
  8
LAY-1
  6
Continuous
 62
     3
100
AcDbLine
 10
495.975
 20
703.0
 30
0.0
 11
495.975
 21
501.0
 31
0.0
  0
LINE
  5
345
330
1F
100
AcDbEntity
  8
LAY-1
  6
Continuous
 62
     3
100
AcDbLine
 10
484.975
 20
706.0
 30
0.0
 11
484.975
 21
496.0
 31
0.0
  0
LINE
  5
346
330
1F
100
AcDbEntity
  8
LAY-1
  6
Continuous
 62
     3
100
AcDbLine
 10
474.975
 20
701.0
 30
0.0
 11
474.975
 21
503.0
 31
0.0
  0
LINE
  5
347
330
1F
100
AcDbEntity
  8
LAY-1
  6
Continuous
 62
     3
100
AcDbLine
 10
224.975
 20
722.0
 30
0.0
 11
476.975
 21
722.0
 31
0.0
  0
LINE
  5
348
330
1F
100
AcDbEntity
  8
LAY-1
  6
Continuous
 62
     3
100
AcDbLine
 10
221.975
 20
711.0
 30
0.0
 11
479.975
 21
711.0
 31
0.0
  0
LINE
  5
349
330
1F
100
AcDbEntity
  8
LAY-1
  6
Continuous
 62
     3
100
AcDbLine
 10
474.975
 20
701.0
 30
0.0
 11
226.975
 21
701.0
 31
0.0
  0
LINE
  5
34A
330
1F
100
AcDbEntity
  8
LAY-1
  6
Continuous
 62
     3
100
AcDbLine
 10
205.975
 20
703.0
 30
0.0
 11
205.975
 21
501.0
 31
0.0
  0
LINE
  5
34B
330
1F
100
AcDbEntity
  8
LAY-1
  6
Continuous
 62
     3
100
AcDbLine
 10
216.975
 20
706.0
 30
0.0
 11
216.975
 21
496.0
 31
0.0
  0
LINE
  5
34C
330
1F
100
AcDbEntity
  8
LAY-1
  6
Continuous
 62
     3
100
AcDbLine
 10
226.975
 20
701.0
 30
0.0
 11
226.975
 21
503.0
 31
0.0
  0
LINE
  5
34D
330
1F
100
AcDbEntity
  8
LAY-1
  6
Continuous
 62
     3
100
AcDbLine
 10
230.375
 20
503.900416
 30
0.0
 11
471.575
 21
503.900416
 31
0.0
  0
LINE
  5
34E
330
1F
100
AcDbEntity
  8
LAY-1
  6
Continuous
 62
     3
100
AcDbLine
 10
474.575
 20
506.900416
 30
0.0
 11
474.575
 21
697.100416
 31
0.0
  0
LINE
  5
34F
330
1F
100
AcDbEntity
  8
LAY-1
  6
Continuous
 62
     3
100
AcDbLine
 10
230.375
 20
700.100416
 30
0.0
 11
471.575
 21
700.100416
 31
0.0
  0
LINE
  5
350
330
1F
100
AcDbEntity
  8
LAY-1
  6
Continuous
 62
     3
100
AcDbLine
 10
227.375
 20
506.900416
 30
0.0
 11
227.375
 21
697.100416
 31
0.0
  0
LINE
  5
351
330
1F
100
AcDbEntity
  8
LAY-1
  6
DOT_CENTER
 62
     1
100
AcDbLine
 10
350.975
 20
729.0
 30
0.0
 11
350.975
 21
475.5
 31
0.0
  0
ARC
  5
352
330
1F
100
AcDbEntity
  8
1
  6
Continuous
 62
     3
100
AcDbCircle
 10
677.678674548975
 20
315.46475798812
 30
0.0
 40
3.0
100
AcDbArc
 50
90.0
 51
180.0
  0
ARC
  5
353
330
1F
100
AcDbEntity
  8
1
  6
Continuous
 62
     3
100
AcDbCircle
 10
677.678674548975
 20
306.46475798812
 30
0.0
 40
3.0
100
AcDbArc
 50
180.0
 51
270.0
  0
ARC
  5
354
330
1F
100
AcDbEntity
  8
1
  6
Continuous
 62
     3
100
AcDbCircle
 10
701.678674548975
 20
306.46475798812
 30
0.0
 40
3.0
100
AcDbArc
 50
270.0
 51
0.0
  0
ARC
  5
355
330
1F
100
AcDbEntity
  8
1
  6
Continuous
 62
     3
100
AcDbCircle
 10
701.678674548975
 20
315.46475798812
 30
0.0
 40
3.0
100
AcDbArc
 50
0.0
 51
90.0
  0
ARC
  5
356
330
1F
100
AcDbEntity
  8
1
  6
Continuous
 62
     3
100
AcDbCircle
 10
689.678674548975
 20
294.49475798812
 30
0.0
 40
10.47000000000001
100
AcDbArc
 50
58.95177800649167
 51
121.0482219935083
  0
ARC
  5
357
330
1F
100
AcDbEntity
  8
図
  6
DOT_CENTER
 62
     6
100
AcDbCircle
 10
695.929459899042
 20
603.080642301053
 30
0.0
 40
1.000000000000139
100
AcDbArc
 50
30.0000000324806
 51
120.0000000325075
  0
ARC
  5
358
330
1F
100
AcDbEntity
  8
図
  6
DOT_CENTER
 62
     6
100
AcDbCircle
 10
700.027536111018
 20
601.982566092023
 30
0.0
 40
2.358494999999386
100
AcDbArc
 50
177.9946170324942
 51
242.0053830324943
  0
ARC
  5
359
330
1F
100
AcDbEntity
  8
図
  6
DOT_CENTER
 62
     6
100
AcDbCircle
 10
691.599332881538
 20
600.580642298597
 30
0.0
 40
1.00000000000004
100
AcDbArc
 50
120.0000000324839
 51
210.0000000324839
  0
ARC
  5
35A
330
1F
100
AcDbEntity
  8
図
  6
DOT_CENTER
 62
     6
100
AcDbCircle
 10
700.242728490435
 20
601.00984195855
 30
0.0
 40
0.2999999999997072
100
AcDbArc
 50
300.0000000324698
 51
30.00000003245104
  0
ARC
  5
35B
330
1F
100
AcDbEntity
  8
図
  6
DOT_CENTER
 62
     6
100
AcDbCircle
 10
708.494042469997
 20
587.818146934382
 30
0.0
 40
3.5
100
AcDbArc
 50
90.00000003249444
 51
150.0000000324931
  0
ARC
  5
35C
330
1F
100
AcDbEntity
  8
図
  6
DOT_CENTER
 62
     6
100
AcDbCircle
 10
691.236064294025
 20
595.809841953442
 30
0.0
 40
0.2999999999996503
100
AcDbArc
 50
210.0000000324511
 51
300.0000000326311
  0
ARC
  5
35D
330
1F
100
AcDbEntity
  8
図
  6
DOT_CENTER
 62
     6
100
AcDbCircle
 10
690.286064293092
 20
597.455290220094
 30
0.0
 40
0.2999999999996503
100
AcDbArc
 50
120.000000032451
 51
210.0000000324619
  0
ARC
  5
35E
330
1F
100
AcDbEntity
  8
図
  6
DOT_CENTER
 62
     6
100
AcDbCircle
 10
698.534750329737
 20
582.068146928734
 30
0.0
 40
3.5
100
AcDbArc
 50
90.00000003249444
 51
150.0000000324931
  0
ARC
  5
35F
330
1F
100
AcDbEntity
  8
図
  6
DOT_CENTER
 62
     6
100
AcDbCircle
 10
699.292728489502
 20
602.655290225202
 30
0.0
 40
0.2999999999996087
100
AcDbArc
 50
30.0000000324807
 51
120.0000000326203
  0
ARC
  5
360
330
1F
100
AcDbEntity
  8
図
  6
DOT_CENTER
 62
     6
100
AcDbCircle
 10
698.284750329491
 20
582.501159630484
 30
0.0
 40
3.5
100
AcDbArc
 50
270.0000000324944
 51
330.0000000324931
  0
ARC
  5
361
330
1F
100
AcDbEntity
  8
図
  6
DOT_CENTER
 62
     6
100
AcDbCircle
 10
708.244042469752
 20
588.251159636132
 30
0.0
 40
3.5
100
AcDbArc
 50
270.0000000324777
 51
330.0000000324847
  0
ARC
  5
362
330
1F
100
AcDbEntity
  8
図
  6
DOT_CENTER
 62
     6
100
AcDbCircle
 10
690.501256672509
 20
596.482566086621
 30
0.0
 40
2.358494999999386
100
AcDbArc
 50
357.9946170324943
 51
62.00538303249431
  0
ARC
  5
363
330
1F
100
AcDbEntity
  8
図
  6
DOT_CENTER
 62
     6
100
AcDbCircle
 10
799.65
 20
676.8
 30
0.0
 40
2.35849499999965
100
AcDbArc
 50
327.9946170000057
 51
32.00538299999658
  0
ARC
  5
364
330
1F
100
AcDbEntity
  8
図
  6
DOT_CENTER
 62
     6
100
AcDbCircle
 10
810.9
 20
660.8
 30
0.0
 40
3.4999999999995
100
AcDbArc
 50
239.9999999999952
 51
300.0000000000048
  0
ARC
  5
365
330
1F
100
AcDbEntity
  8
図
  6
DOT_CENTER
 62
     6
100
AcDbCircle
 10
799.4
 20
660.8
 30
0.0
 40
3.4999999999995
100
AcDbArc
 50
239.9999999999952
 51
300.0000000000048
  0
ARC
  5
366
330
1F
100
AcDbEntity
  8
図
  6
DOT_CENTER
 62
     6
100
AcDbCircle
 10
810.35
 20
677.75
 30
0.0
 40
0.2999999999999545
100
AcDbArc
 50
0.0
 51
90.0
  0
ARC
  5
367
330
1F
100
AcDbEntity
  8
図
  6
DOT_CENTER
 62
     6
100
AcDbCircle
 10
799.4
 20
660.3
 30
0.0
 40
3.500000000000484
100
AcDbArc
 50
60.00000000000458
 51
119.9999999999954
  0
ARC
  5
368
330
1F
100
AcDbEntity
  8
図
  6
DOT_CENTER
 62
     6
100
AcDbCircle
 10
799.95
 20
677.75
 30
0.0
 40
0.2999999999999545
100
AcDbArc
 50
90.0
 51
180.0
  0
ARC
  5
369
330
1F
100
AcDbEntity
  8
図
  6
DOT_CENTER
 62
     6
100
AcDbCircle
 10
799.95
 20
675.85
 30
0.0
 40
0.3000000000000682
100
AcDbArc
 50
180.0
 51
270.0
  0
ARC
  5
36A
330
1F
100
AcDbEntity
  8
図
  6
DOT_CENTER
 62
     6
100
AcDbCircle
 10
810.9
 20
660.3
 30
0.0
 40
3.500000000000484
100
AcDbArc
 50
60.00000000000458
 51
119.9999999999954
  0
ARC
  5
36B
330
1F
100
AcDbEntity
  8
図
  6
DOT_CENTER
 62
     6
100
AcDbCircle
 10
810.35
 20
675.85
 30
0.0
 40
0.3000000000000682
100
AcDbArc
 50
270.0
 51
0.0
  0
ARC
  5
36C
330
1F
100
AcDbEntity
  8
図
  6
DOT_CENTER
 62
     6
100
AcDbCircle
 10
802.65
 20
679.8
 30
0.0
 40
1.0
100
AcDbArc
 50
90.0
 51
180.0
  0
ARC
  5
36D
330
1F
100
AcDbEntity
  8
図
  6
DOT_CENTER
 62
     6
100
AcDbCircle
 10
810.65
 20
676.8
 30
0.0
 40
2.35849499999971
100
AcDbArc
 50
147.9946170000034
 51
212.0053829999942
  0
ARC
  5
36E
330
1F
100
AcDbEntity
  8
図
  6
DOT_CENTER
 62
     6
100
AcDbCircle
 10
807.65
 20
679.8
 30
0.0
 40
1.0
100
AcDbArc
 50
0.0
 51
90.0
  0
ARC
  5
36F
330
1F
100
AcDbEntity
  8
図
  6
Continuous
 62
     3
100
AcDbCircle
 10
824.15
 20
702.512917
 30
0.0
 40
1.919667000000259
100
AcDbArc
 50
6.23329999998565
 51
90.0
  0
ARC
  5
370
330
1F
100
AcDbEntity
  8
図
  6
Continuous
 62
     3
100
AcDbCircle
 10
827.25
 20
686.1
 30
0.0
 40
3.099999999999886
100
AcDbArc
 50
69.32822699999868
 51
90.0
  0
ARC
  5
371
330
1F
100
AcDbEntity
  8
図
  6
Continuous
 62
     3
100
AcDbCircle
 10
827.25
 20
686.1
 30
0.0
 40
3.100000000000023
100
AcDbArc
 50
0.0
 51
69.32822699999868
  0
ARC
  5
372
330
1F
100
AcDbEntity
  8
図
  6
Continuous
 62
     3
100
AcDbCircle
 10
827.25
 20
685.9
 30
0.0
 40
3.100000000000023
100
AcDbArc
 50
270.0
 51
0.0
  0
ARC
  5
373
330
1F
100
AcDbEntity
  8
図
  6
Continuous
 62
     3
100
AcDbCircle
 10
836.35
 20
522.9
 30
0.0
 40
2.35849499999965
100
AcDbArc
 50
57.99461700000577
 51
122.0053829999966
  0
ARC
  5
374
330
1F
100
AcDbEntity
  8
図
  6
Continuous
 62
     3
100
AcDbCircle
 10
836.35
 20
533.9
 30
0.0
 40
2.35849499999971
100
AcDbArc
 50
237.9946170000034
 51
302.0053829999943
  0
ARC
  5
375
330
1F
100
AcDbEntity
  8
図
  6
Continuous
 62
     3
100
AcDbCircle
 10
833.35
 20
530.9
 30
0.0
 40
1.0
100
AcDbArc
 50
90.0
 51
180.0
  0
ARC
  5
376
330
1F
100
AcDbEntity
  8
図
  6
Continuous
 62
     3
100
AcDbCircle
 10
833.35
 20
525.9
 30
0.0
 40
1.0
100
AcDbArc
 50
180.0
 51
270.0
  0
ARC
  5
377
330
1F
100
AcDbEntity
  8
図
  6
Continuous
 62
     3
100
AcDbCircle
 10
837.3
 20
533.6
 30
0.0
 40
0.3000000000000682
100
AcDbArc
 50
0.0
 51
90.0
  0
ARC
  5
378
330
1F
100
AcDbEntity
  8
図
  6
Continuous
 62
     3
100
AcDbCircle
 10
837.3
 20
523.2
 30
0.0
 40
0.3000000000000682
100
AcDbArc
 50
270.0
 51
0.0
  0
ARC
  5
379
330
1F
100
AcDbEntity
  8
図
  6
Continuous
 62
     3
100
AcDbCircle
 10
835.4
 20
523.2
 30
0.0
 40
0.2999999999999545
100
AcDbArc
 50
180.0
 51
270.0
  0
ARC
  5
37A
330
1F
100
AcDbEntity
  8
図
  6
Continuous
 62
     3
100
AcDbCircle
 10
835.4
 20
533.6
 30
0.0
 40
0.2999999999999545
100
AcDbArc
 50
90.0
 51
180.0
  0
ARC
  5
37B
330
1F
100
AcDbEntity
  8
図
  6
Continuous
 62
     3
100
AcDbCircle
 10
852.85
 20
534.15
 30
0.0
 40
3.500000000000386
100
AcDbArc
 50
150.0000000000036
 51
209.9999999999963
  0
ARC
  5
37C
330
1F
100
AcDbEntity
  8
図
  6
Continuous
 62
     3
100
AcDbCircle
 10
852.85
 20
522.65
 30
0.0
 40
3.500000000000386
100
AcDbArc
 50
150.0000000000036
 51
209.9999999999963
  0
ARC
  5
37D
330
1F
100
AcDbEntity
  8
図
  6
Continuous
 62
     3
100
AcDbCircle
 10
852.35
 20
522.65
 30
0.0
 40
3.4999999999995
100
AcDbArc
 50
329.9999999999952
 51
30.00000000000473
  0
ARC
  5
37E
330
1F
100
AcDbEntity
  8
図
  6
Continuous
 62
     3
100
AcDbCircle
 10
852.35
 20
534.15
 30
0.0
 40
3.4999999999995
100
AcDbArc
 50
329.9999999999952
 51
30.00000000000473
  0
ARC
  5
37F
330
1F
100
AcDbEntity
  8
図
  6
Continuous
 62
     3
100
AcDbCircle
 10
824.15
 20
498.0
 30
0.0
 40
1.919667000000004
100
AcDbArc
 50
270.0
 51
0.0
  0
ARC
  5
380
330
1F
100
AcDbEntity
  8
図
  6
Continuous
 62
     3
100
AcDbCircle
 10
360.396875
 20
663.666478
 30
0.0
 40
8.454375000000148
100
AcDbArc
 50
105.8247600000021
 51
254.1752399999978
  0
ARC
  5
381
330
1F
100
AcDbEntity
  8
図
  6
Continuous
 62
     3
100
AcDbCircle
 10
360.396875
 20
663.666478
 30
0.0
 40
9.843749999999538
100
AcDbArc
 50
104.1652579999999
 51
147.5112789999971
  0
ARC
  5
382
330
1F
100
AcDbEntity
  8
図
  6
Continuous
 62
     3
100
AcDbCircle
 10
360.396875
 20
663.666478
 30
0.0
 40
9.843750000000322
100
AcDbArc
 50
212.4887209999999
 51
255.8347420000016
  0
ARC
  5
383
330
1F
100
AcDbEntity
  8
図
  6
Continuous
 62
     3
100
AcDbCircle
 10
341.553125
 20
663.666478
 30
0.0
 40
8.454375000000148
100
AcDbArc
 50
285.8247600000021
 51
74.17523999999788
  0
ARC
  5
384
330
1F
100
AcDbEntity
  8
図
  6
Continuous
 62
     3
100
AcDbCircle
 10
341.553125
 20
663.666478
 30
0.0
 40
9.843749999999524
100
AcDbArc
 50
284.1652579999995
 51
327.5112789999969
  0
ARC
  5
385
330
1F
100
AcDbEntity
  8
図
  6
Continuous
 62
     3
100
AcDbCircle
 10
343.913139
 20
654.315956
 30
0.0
 40
0.1999999999999886
100
AcDbArc
 50
180.0
 51
284.1652579998627
  0
ARC
  5
386
330
1F
100
AcDbEntity
  8
図
  6
Continuous
 62
     3
100
AcDbCircle
 10
350.425
 20
651.378978
 30
0.0
 40
0.1999999999999886
100
AcDbArc
 50
180.0
 51
270.0
  0
ARC
  5
387
330
1F
100
AcDbEntity
  8
図
  6
Continuous
 62
     3
100
AcDbCircle
 10
351.525
 20
651.378978
 30
0.0
 40
0.1999999999999318
100
AcDbArc
 50
270.0
 51
0.0
  0
ARC
  5
388
330
1F
100
AcDbEntity
  8
図
  6
Continuous
 62
     3
100
AcDbCircle
 10
343.91875
 20
660.435228
 30
0.0
 40
0.1999999999999886
100
AcDbArc
 50
180.0
 51
270.0
  0
ARC
  5
389
330
1F
100
AcDbEntity
  8
図
  6
Continuous
 62
     3
100
AcDbCircle
 10
343.913139
 20
655.340102
 30
0.0
 40
0.199999999999505
100
AcDbArc
 50
105.8247599999048
 51
180.0
  0
ARC
  5
38A
330
1F
100
AcDbEntity
  8
図
  6
Continuous
 62
     3
100
AcDbCircle
 10
341.55625
 20
666.172728
 30
0.0
 40
0.1999999999999886
100
AcDbArc
 50
180.0
 51
270.0
  0
ARC
  5
38B
330
1F
100
AcDbEntity
  8
図
  6
Continuous
 62
     3
100
AcDbCircle
 10
343.51875
 20
665.772728
 30
0.0
 40
0.1999999999999886
100
AcDbArc
 50
0.0
 51
90.0
  0
ARC
  5
38C
330
1F
100
AcDbEntity
  8
図
  6
Continuous
 62
     3
100
AcDbCircle
 10
344.615625
 20
660.435228
 30
0.0
 40
0.2000000000000455
100
AcDbArc
 50
270.0
 51
0.0
  0
ARC
  5
38D
330
1F
100
AcDbEntity
  8
図
  6
Continuous
 62
     3
100
AcDbCircle
 10
351.925
 20
658.271642
 30
0.0
 40
0.2000000000001321
100
AcDbArc
 50
32.48872099994009
 51
180.0
  0
ARC
  5
38E
330
1F
100
AcDbEntity
  8
図
  6
Continuous
 62
     3
100
AcDbCircle
 10
350.025
 20
658.271642
 30
0.0
 40
0.2000000000000455
100
AcDbArc
 50
0.0
 51
147.5112790000599
  0
ARC
  5
38F
330
1F
100
AcDbEntity
  8
図
  6
Continuous
 62
     3
100
AcDbCircle
 10
346.978125
 20
666.172728
 30
0.0
 40
0.2000000000000455
100
AcDbArc
 50
270.0
 51
0.0
  0
ARC
  5
390
330
1F
100
AcDbEntity
  8
図
  6
Continuous
 62
     3
100
AcDbCircle
 10
345.015625
 20
665.772728
 30
0.0
 40
0.1999999999999318
100
AcDbArc
 50
90.0
 51
180.0
  0
ARC
  5
391
330
1F
100
AcDbEntity
  8
図
  6
Continuous
 62
     3
100
AcDbCircle
 10
341.553125
 20
663.666478
 30
0.0
 40
9.843750000000322
100
AcDbArc
 50
32.48872099999991
 51
75.83474200000192
  0
ARC
  5
392
330
1F
100
AcDbEntity
  8
図
  6
Continuous
 62
     3
100
AcDbCircle
 10
341.55625
 20
666.869603
 30
0.0
 40
0.2000000000000455
100
AcDbArc
 50
90.0
 51
180.0
  0
ARC
  5
393
330
1F
100
AcDbEntity
  8
図
  6
Continuous
 62
     3
100
AcDbCircle
 10
343.913139
 20
671.992854
 30
0.0
 40
0.1999999999999886
100
AcDbArc
 50
180.0
 51
254.1752400001751
  0
ARC
  5
394
330
1F
100
AcDbEntity
  8
図
  6
Continuous
 62
     3
100
AcDbCircle
 10
343.913139
 20
673.016999
 30
0.0
 40
0.200000000000164
100
AcDbArc
 50
75.83474200012937
 51
180.0
  0
ARC
  5
395
330
1F
100
AcDbEntity
  8
図
  6
Continuous
 62
     3
100
AcDbCircle
 10
346.978125
 20
666.869603
 30
0.0
 40
0.2000000000000455
100
AcDbArc
 50
0.0
 51
90.0
  0
ARC
  5
396
330
1F
100
AcDbEntity
  8
図
  6
Continuous
 62
     3
100
AcDbCircle
 10
351.925
 20
669.061313
 30
0.0
 40
0.1999999999999886
100
AcDbArc
 50
180.0
 51
327.5112790000325
  0
ARC
  5
397
330
1F
100
AcDbEntity
  8
図
  6
Continuous
 62
     3
100
AcDbCircle
 10
350.025
 20
669.061313
 30
0.0
 40
0.2000000000001931
100
AcDbArc
 50
212.4887209999675
 51
0.0
  0
ARC
  5
398
330
1F
100
AcDbEntity
  8
図
  6
Continuous
 62
     3
100
AcDbCircle
 10
350.425
 20
675.953978
 30
0.0
 40
0.2000000000000455
100
AcDbArc
 50
90.0
 51
180.0
  0
ARC
  5
399
330
1F
100
AcDbEntity
  8
図
  6
Continuous
 62
     3
100
AcDbCircle
 10
351.525
 20
675.953978
 30
0.0
 40
0.2000000000000455
100
AcDbArc
 50
0.0
 51
90.0
  0
ARC
  5
39A
330
1F
100
AcDbEntity
  8
図
  6
Continuous
 62
     3
100
AcDbCircle
 10
358.036862
 20
654.315956
 30
0.0
 40
0.2000000000002742
100
AcDbArc
 50
255.8347420001373
 51
0.0
  0
ARC
  5
39B
330
1F
100
AcDbEntity
  8
図
  6
Continuous
 62
     3
100
AcDbCircle
 10
356.0625
 20
660.210228
 30
0.0
 40
0.2000000000000455
100
AcDbArc
 50
270.0
 51
0.0
  0
ARC
  5
39C
330
1F
100
AcDbEntity
  8
図
  6
Continuous
 62
     3
100
AcDbCircle
 10
355.365625
 20
660.210228
 30
0.0
 40
0.2000000000000455
100
AcDbArc
 50
180.0
 51
270.0
  0
ARC
  5
39D
330
1F
100
AcDbEntity
  8
図
  6
Continuous
 62
     3
100
AcDbCircle
 10
358.036862
 20
655.340102
 30
0.0
 40
0.1999999999999886
100
AcDbArc
 50
0.0
 51
74.1752400000795
  0
ARC
  5
39E
330
1F
100
AcDbEntity
  8
図
  6
Continuous
 62
     3
100
AcDbCircle
 10
360.469054
 20
660.210228
 30
0.0
 40
0.2000000000001919
100
AcDbArc
 50
217.9906159999215
 51
270.0
  0
ARC
  5
39F
330
1F
100
AcDbEntity
  8
図
  6
Continuous
 62
     3
100
AcDbCircle
 10
356.4625
 20
662.364402
 30
0.0
 40
0.2000000000000146
100
AcDbArc
 50
130.2644170001016
 51
180.0
  0
ARC
  5
3A0
330
1F
100
AcDbEntity
  8
図
  6
Continuous
 62
     3
100
AcDbCircle
 10
356.51875
 20
664.344769
 30
0.0
 40
0.1999999999999886
100
AcDbArc
 50
180.0
 51
310.5673320000782
  0
ARC
  5
3A1
330
1F
100
AcDbEntity
  8
図
  6
Continuous
 62
     3
100
AcDbCircle
 10
358.703356
 20
664.262395
 30
0.0
 40
0.2000000000001014
100
AcDbArc
 50
130.2644170000805
 51
219.8414480000952
  0
ARC
  5
3A2
330
1F
100
AcDbEntity
  8
図
  6
Continuous
 62
     3
100
AcDbCircle
 10
357.555808
 20
663.290428
 30
0.0
 40
0.200000000000147
100
AcDbArc
 50
37.99061599993158
 51
130.2644170000805
  0
ARC
  5
3A3
330
1F
100
AcDbEntity
  8
図
  6
Continuous
 62
     3
100
AcDbCircle
 10
361.563508
 20
660.210228
 30
0.0
 40
0.2000000000000455
100
AcDbArc
 50
270.0
 51
39.84144799990736
  0
ARC
  5
3A4
330
1F
100
AcDbEntity
  8
図
  6
Continuous
 62
     3
100
AcDbCircle
 10
355.365625
 20
666.841478
 30
0.0
 40
0.1999999999999318
100
AcDbArc
 50
90.0
 51
180.0
  0
ARC
  5
3A5
330
1F
100
AcDbEntity
  8
図
  6
Continuous
 62
     3
100
AcDbCircle
 10
356.11875
 20
666.841478
 30
0.0
 40
0.2000000000000455
100
AcDbArc
 50
0.0
 51
90.0
  0
ARC
  5
3A6
330
1F
100
AcDbEntity
  8
図
  6
Continuous
 62
     3
100
AcDbCircle
 10
360.050136
 20
666.841478
 30
0.0
 40
0.1999999999999318
100
AcDbArc
 50
90.0
 51
130.5673319998891
  0
ARC
  5
3A7
330
1F
100
AcDbEntity
  8
図
  6
Continuous
 62
     3
100
AcDbCircle
 10
358.036862
 20
671.992854
 30
0.0
 40
0.1999999999995205
100
AcDbArc
 50
285.8247599999205
 51
0.0
  0
ARC
  5
3A8
330
1F
100
AcDbEntity
  8
図
  6
Continuous
 62
     3
100
AcDbCircle
 10
358.036862
 20
673.016999
 30
0.0
 40
0.1999999999999886
100
AcDbArc
 50
0.0
 51
104.1652579998706
  0
ARC
  5
3A9
330
1F
100
AcDbEntity
  8
図
  6
Continuous
 62
     3
100
AcDbCircle
 10
361.129445
 20
666.841478
 30
0.0
 40
0.2000000000001014
100
AcDbArc
 50
310.2644170000805
 51
90.0
  0
ARC
  5
3AA
330
1F
100
AcDbEntity
  8
図
  6
Continuous
 62
     3
100
AcDbCircle
 10
341.840945
 20
613.318605
 30
0.0
 40
14.08839799999991
100
AcDbArc
 50
311.7793810000015
 51
338.1658759999993
  0
ARC
  5
3AB
330
1F
100
AcDbEntity
  8
図
  6
Continuous
 62
     3
100
AcDbCircle
 10
352.664035
 20
593.070739
 30
0.0
 40
0.2999999999999545
100
AcDbArc
 50
270.0
 51
0.0
  0
ARC
  5
3AC
330
1F
100
AcDbEntity
  8
図
  6
Continuous
 62
     3
100
AcDbCircle
 10
341.980688
 20
613.824615
 30
0.0
 40
12.59663599999973
100
AcDbArc
 50
309.5215459999993
 51
344.6252690000007
  0
ARC
  5
3AD
330
1F
100
AcDbEntity
  8
図
  6
Continuous
 62
     3
100
AcDbCircle
 10
352.939035
 20
602.720739
 30
0.0
 40
0.1999999999999886
100
AcDbArc
 50
180.0
 51
270.0
  0
ARC
  5
3AE
330
1F
100
AcDbEntity
  8
図
  6
Continuous
 62
     3
100
AcDbCircle
 10
352.939035
 20
603.820739
 30
0.0
 40
0.2000000000000455
100
AcDbArc
 50
90.0
 51
180.0
  0
ARC
  5
3AF
330
1F
100
AcDbEntity
  8
図
  6
Continuous
 62
     3
100
AcDbCircle
 10
325.370115
 20
598.898108
 30
0.0
 40
19.49394300000018
100
AcDbArc
 50
347.0218370000014
 51
0.60986399999885
  0
ARC
  5
3B0
330
1F
100
AcDbEntity
  8
図
  6
Continuous
 62
     3
100
AcDbCircle
 10
338.386208
 20
594.308079
 30
0.0
 40
12.26072800000016
100
AcDbArc
 50
7.76370699999794
 51
25.48229399999825
  0
ARC
  5
3B1
330
1F
100
AcDbEntity
  8
図
  6
Continuous
 62
     3
100
AcDbCircle
 10
323.423047
 20
591.091856
 30
0.0
 40
25.943145
100
AcDbArc
 50
10.31539400000096
 51
18.15824399999985
  0
ARC
  5
3B2
330
1F
100
AcDbEntity
  8
図
  6
Continuous
 62
     3
100
AcDbCircle
 10
320.778988
 20
600.303808
 30
0.0
 40
22.51539599999992
100
AcDbArc
 50
346.554369
 51
357.2530219999995
  0
ARC
  5
3B3
330
1F
100
AcDbEntity
  8
図
  6
Continuous
 62
     3
100
AcDbCircle
 10
292.277541
 20
613.622182
 30
0.0
 40
31.71374599999959
100
AcDbArc
 50
323.0197730000006
 51
334.5533170000007
  0
ARC
  5
3B4
330
1F
100
AcDbEntity
  8
図
  6
Continuous
 62
     3
100
AcDbCircle
 10
298.397373
 20
611.930347
 30
0.0
 40
23.80903699999987
100
AcDbArc
 50
318.2663809999985
 51
333.0823800000011
  0
ARC
  5
3B5
330
1F
100
AcDbEntity
  8
図
  6
Continuous
 62
     3
100
AcDbCircle
 10
286.160158
 20
613.060214
 30
0.0
 40
17.67373000000001
100
AcDbArc
 50
294.2351239999988
 51
319.644496000001
  0
ARC
  5
3B6
330
1F
100
AcDbEntity
  8
図
  6
Continuous
 62
     3
100
AcDbCircle
 10
328.43741
 20
596.611859
 30
0.0
 40
0.2000000000003784
100
AcDbArc
 50
51.21498600004461
 51
180.0
  0
ARC
  5
3B7
330
1F
100
AcDbEntity
  8
図
  6
Continuous
 62
     3
100
AcDbCircle
 10
316.812472
 20
607.716755
 30
0.0
 40
12.86281899999972
100
AcDbArc
 50
285.2698080000018
 51
316.1857589999998
  0
ARC
  5
3B8
330
1F
100
AcDbEntity
  8
図
  6
Continuous
 62
     3
100
AcDbCircle
 10
326.38741
 20
596.54646
 30
0.0
 40
0.1999999999999886
100
AcDbArc
 50
0.0
 51
132.663686999809
  0
ARC
  5
3B9
330
1F
100
AcDbEntity
  8
図
  6
Continuous
 62
     3
100
AcDbCircle
 10
338.324609
 20
609.448675
 30
0.0
 40
14.41576499999988
100
AcDbArc
 50
227.6057769999995
 51
252.5199649999983
  0
ARC
  5
3BA
330
1F
100
AcDbEntity
  8
図
  6
Continuous
 62
     3
100
AcDbCircle
 10
316.11077
 20
607.697319
 30
0.0
 40
14.96413499999997
100
AcDbArc
 50
288.270798000002
 51
312.6636869999978
  0
ARC
  5
3BB
330
1F
100
AcDbEntity
  8
図
  6
Continuous
 62
     3
100
AcDbCircle
 10
340.737405
 20
611.918165
 30
0.0
 40
19.43601
100
AcDbArc
 50
231.2149859999986
 51
247.4622900000009
  0
ARC
  5
3BC
330
1F
100
AcDbEntity
  8
図
  6
Continuous
 62
     3
100
AcDbCircle
 10
320.279095
 20
595.018632
 30
0.0
 40
0.2999999999998821
100
AcDbArc
 50
105.2698079999842
 51
198.9966540000329
  0
ARC
  5
3BD
330
1F
100
AcDbEntity
  8
図
  6
Continuous
 62
     3
100
AcDbCircle
 10
300.280681
 20
592.261364
 30
0.0
 40
0.3000000000000114
100
AcDbArc
 50
180.0
 51
270.0
  0
ARC
  5
3BE
330
1F
100
AcDbEntity
  8
図
  6
Continuous
 62
     3
100
AcDbCircle
 10
301.480681
 20
592.261364
 30
0.0
 40
0.2999999999999545
100
AcDbArc
 50
270.0
 51
0.0
  0
ARC
  5
3BF
330
1F
100
AcDbEntity
  8
図
  6
Continuous
 62
     3
100
AcDbCircle
 10
317.372197
 20
594.725577
 30
0.0
 40
0.300000000000604
100
AcDbArc
 50
220.3871060000439
 51
323.0197729999588
  0
ARC
  5
3C0
330
1F
100
AcDbEntity
  8
図
  6
Continuous
 62
     3
100
AcDbCircle
 10
316.388687
 20
595.881724
 30
0.0
 40
0.2999999999999213
100
AcDbArc
 50
138.2663809999704
 51
220.387106000154
  0
ARC
  5
3C1
330
1F
100
AcDbEntity
  8
図
  6
Continuous
 62
     3
100
AcDbCircle
 10
327.93741
 20
593.15
 30
0.0
 40
0.2999999999999545
100
AcDbArc
 50
270.0
 51
0.0
  0
ARC
  5
3C2
330
1F
100
AcDbEntity
  8
図
  6
Continuous
 62
     3
100
AcDbCircle
 10
320.708101
 20
593.772471
 30
0.0
 40
0.3000000000001063
100
AcDbArc
 50
198.9966539999693
 51
288.2707979999062
  0
ARC
  5
3C3
330
1F
100
AcDbEntity
  8
図
  6
Continuous
 62
     3
100
AcDbCircle
 10
326.88741
 20
593.15
 30
0.0
 40
0.3000000000000114
100
AcDbArc
 50
180.0
 51
270.0
  0
ARC
  5
3C4
330
1F
100
AcDbEntity
  8
図
  6
Continuous
 62
     3
100
AcDbCircle
 10
333.402737
 20
594.243621
 30
0.0
 40
0.2999999999995178
100
AcDbArc
 50
247.4622900000369
 51
336.7717380000245
  0
ARC
  5
3C5
330
1F
100
AcDbEntity
  8
図
  6
Continuous
 62
     3
100
AcDbCircle
 10
333.904384
 20
595.412459
 30
0.0
 40
0.2999999999994981
100
AcDbArc
 50
336.7717380000245
 51
72.51996499994449
  0
ARC
  5
3C6
330
1F
100
AcDbEntity
  8
図
  6
Continuous
 62
     3
100
AcDbCircle
 10
342.969037
 20
594.998714
 30
0.0
 40
0.3000000000000603
100
AcDbArc
 50
166.5543689999404
 51
249.5848689999759
  0
ARC
  5
3C7
330
1F
100
AcDbEntity
  8
図
  6
Continuous
 62
     3
100
AcDbCircle
 10
344.073762
 20
594.587538
 30
0.0
 40
0.300000000000437
100
AcDbArc
 50
249.5848689999759
 51
347.0218370000419
  0
ARC
  5
3C8
330
1F
100
AcDbEntity
  8
図
  6
Continuous
 62
     3
100
AcDbCircle
 10
347.114035
 20
592.845739
 30
0.0
 40
0.2999999999999545
100
AcDbArc
 50
270.0
 51
0.0
  0
ARC
  5
3C9
330
1F
100
AcDbEntity
  8
図
  6
Continuous
 62
     3
100
AcDbCircle
 10
346.064035
 20
592.845739
 30
0.0
 40
0.3000000000000114
100
AcDbArc
 50
180.0
 51
270.0
  0
ARC
  5
3CA
330
1F
100
AcDbEntity
  8
図
  6
Continuous
 62
     3
100
AcDbCircle
 10
349.242023
 20
595.791126
 30
0.0
 40
0.299999999999616
100
AcDbArc
 50
190.315393999923
 51
277.594642999934
  0
ARC
  5
3CB
330
1F
100
AcDbEntity
  8
図
  6
Continuous
 62
     3
100
AcDbCircle
 10
350.237299
 20
595.923829
 30
0.0
 40
0.3000000000000389
100
AcDbArc
 50
277.5946429999448
 51
7.76370699994899
  0
ARC
  5
3CC
330
1F
100
AcDbEntity
  8
図
  6
Continuous
 62
     3
100
AcDbCircle
 10
351.689035
 20
593.070739
 30
0.0
 40
0.3000000000000114
100
AcDbArc
 50
180.0
 51
270.0
  0
ARC
  5
3CD
330
1F
100
AcDbEntity
  8
図
  6
Continuous
 62
     3
100
AcDbCircle
 10
303.066697
 20
592.689876
 30
0.0
 40
22.14701900000003
100
AcDbArc
 50
38.32142700000124
 51
46.67823500000053
  0
ARC
  5
3CE
330
1F
100
AcDbEntity
  8
図
  6
Continuous
 62
     3
100
AcDbCircle
 10
291.452949
 20
582.686444
 30
0.0
 40
22.19466499999977
100
AcDbArc
 50
41.26361400000096
 51
58.36248299999775
  0
ARC
  5
3CF
330
1F
100
AcDbEntity
  8
図
  6
Continuous
 62
     3
100
AcDbCircle
 10
293.005681
 20
607.936364
 30
0.0
 40
0.2999999999999545
100
AcDbArc
 50
90.0
 51
180.0
  0
ARC
  5
3D0
330
1F
100
AcDbEntity
  8
図
  6
Continuous
 62
     3
100
AcDbCircle
 10
286.209134
 20
613.564551
 30
0.0
 40
16.00190599999959
100
AcDbArc
 50
292.7212109999991
 51
332.3704279999997
  0
ARC
  5
3D1
330
1F
100
AcDbEntity
  8
図
  6
Continuous
 62
     3
100
AcDbCircle
 10
292.505705
 20
598.527752
 30
0.0
 40
0.3000000000003188
100
AcDbArc
 50
112.7212110000383
 51
210.9637569999983
  0
ARC
  5
3D2
330
1F
100
AcDbEntity
  8
図
  6
Continuous
 62
     3
100
AcDbCircle
 10
293.291763
 20
597.217654
 30
0.0
 40
0.2999999999997314
100
AcDbArc
 50
210.9637569999983
 51
294.2351239999703
  0
ARC
  5
3D3
330
1F
100
AcDbEntity
  8
図
  6
Continuous
 62
     3
100
AcDbCircle
 10
293.005681
 20
606.736364
 30
0.0
 40
0.2999999999999545
100
AcDbArc
 50
180.0
 51
270.0
  0
ARC
  5
3D4
330
1F
100
AcDbEntity
  8
図
  6
Continuous
 62
     3
100
AcDbCircle
 10
299.780681
 20
601.486468
 30
0.0
 40
0.1999999999999886
100
AcDbArc
 50
0.0
 51
139.6444960000468
  0
ARC
  5
3D5
330
1F
100
AcDbEntity
  8
図
  6
Continuous
 62
     3
100
AcDbCircle
 10
303.252379
 20
601.838034
 30
0.0
 40
0.3000000000004696
100
AcDbArc
 50
142.0420389999483
 51
238.362483
  0
ARC
  5
3D6
330
1F
100
AcDbEntity
  8
図
  6
Continuous
 62
     3
100
AcDbCircle
 10
300.209059
 20
606.236364
 30
0.0
 40
0.2000000000001058
100
AcDbArc
 50
332.3704280001177
 51
90.0
  0
ARC
  5
3D7
330
1F
100
AcDbEntity
  8
図
  6
Continuous
 62
     3
100
AcDbCircle
 10
302.080681
 20
604.718036
 30
0.0
 40
0.2999999999994631
100
AcDbArc
 50
152.3459570000213
 51
180.0
  0
ARC
  5
3D8
330
1F
100
AcDbEntity
  8
図
  6
Continuous
 62
     3
100
AcDbCircle
 10
302.746757
 20
606.136364
 30
0.0
 40
0.3000000000000682
100
AcDbArc
 50
90.0
 51
157.3425680000384
  0
ARC
  5
3D9
330
1F
100
AcDbEntity
  8
図
  6
Continuous
 62
     3
100
AcDbCircle
 10
286.160158
 20
613.060214
 30
0.0
 40
17.67373000000013
100
AcDbArc
 50
332.3459570000018
 51
337.3425679999997
  0
ARC
  5
3DA
330
1F
100
AcDbEntity
  8
図
  6
Continuous
 62
     3
100
AcDbCircle
 10
309.130681
 20
607.936364
 30
0.0
 40
0.3000000000000114
100
AcDbArc
 50
0.0
 51
90.0
  0
ARC
  5
3DB
330
1F
100
AcDbEntity
  8
図
  6
Continuous
 62
     3
100
AcDbCircle
 10
294.773308
 20
585.402982
 30
0.0
 40
20.00258800000024
100
AcDbArc
 50
42.07632299999921
 51
62.04846900000159
  0
ARC
  5
3DC
330
1F
100
AcDbEntity
  8
図
  6
Continuous
 62
     3
100
AcDbCircle
 10
309.39761
 20
598.606079
 30
0.0
 40
0.2999999999999816
100
AcDbArc
 50
316.2986740001136
 51
42.07632299985357
  0
ARC
  5
3DD
330
1F
100
AcDbEntity
  8
図
  6
Continuous
 62
     3
100
AcDbCircle
 10
308.361808
 20
597.522225
 30
0.0
 40
0.3000000000003192
100
AcDbArc
 50
221.263613999915
 51
316.2986740001061
  0
ARC
  5
3DE
330
1F
100
AcDbEntity
  8
図
  6
Continuous
 62
     3
100
AcDbCircle
 10
304.008393
 20
602.807153
 30
0.0
 40
0.2999999999997499
100
AcDbArc
 50
62.04846899998959
 51
142.0420389999717
  0
ARC
  5
3DF
330
1F
100
AcDbEntity
  8
図
  6
Continuous
 62
     3
100
AcDbCircle
 10
309.130681
 20
606.736364
 30
0.0
 40
0.2999999999999545
100
AcDbArc
 50
270.0
 51
0.0
  0
ARC
  5
3E0
330
1F
100
AcDbEntity
  8
図
  6
Continuous
 62
     3
100
AcDbCircle
 10
319.805232
 20
601.061241
 30
0.0
 40
0.2000000000000455
100
AcDbArc
 50
46.39718099990596
 51
153.0823799999563
  0
ARC
  5
3E1
330
1F
100
AcDbEntity
  8
図
  6
Continuous
 62
     3
100
AcDbCircle
 10
317.155511
 20
607.77857
 30
0.0
 40
0.2999999999996902
100
AcDbArc
 50
131.8108640000435
 51
226.5127360000315
  0
ARC
  5
3E2
330
1F
100
AcDbEntity
  8
図
  6
Continuous
 62
     3
100
AcDbCircle
 10
307.346085
 20
597.43699
 30
0.0
 40
13.95388100000039
100
AcDbArc
 50
33.49625599999931
 51
46.51273600000211
  0
ARC
  5
3E3
330
1F
100
AcDbEntity
  8
図
  6
Continuous
 62
     3
100
AcDbCircle
 10
319.232709
 20
605.303457
 30
0.0
 40
0.3000000000003596
100
AcDbArc
 50
213.4962560000418
 51
313.7746090001419
  0
ARC
  5
3E4
330
1F
100
AcDbEntity
  8
図
  6
Continuous
 62
     3
100
AcDbCircle
 10
318.055823
 20
608.583849
 30
0.0
 40
0.2999999999999569
100
AcDbArc
 50
46.67823499992511
 51
131.8108640000354
  0
ARC
  5
3E5
330
1F
100
AcDbEntity
  8
図
  6
Continuous
 62
     3
100
AcDbCircle
 10
324.16241
 20
600.625
 30
0.0
 40
0.2000000000000455
100
AcDbArc
 50
180.0
 51
270.0
  0
ARC
  5
3E6
330
1F
100
AcDbEntity
  8
図
  6
Continuous
 62
     3
100
AcDbCircle
 10
324.16241
 20
601.725
 30
0.0
 40
0.1999999999999318
100
AcDbArc
 50
90.0
 51
180.0
  0
ARC
  5
3E7
330
1F
100
AcDbEntity
  8
図
  6
Continuous
 62
     3
100
AcDbCircle
 10
320.643698
 20
600.124606
 30
0.0
 40
0.2999999999998413
100
AcDbArc
 50
334.5533169999593
 51
46.39718099998083
  0
ARC
  5
3E8
330
1F
100
AcDbEntity
  8
図
  6
Continuous
 62
     3
100
AcDbCircle
 10
322.91241
 20
599.45
 30
0.0
 40
0.3000000000000114
100
AcDbArc
 50
180.0
 51
270.0
  0
ARC
  5
3E9
330
1F
100
AcDbEntity
  8
図
  6
Continuous
 62
     3
100
AcDbCircle
 10
326.38741
 20
601.725
 30
0.0
 40
0.1999999999999886
100
AcDbArc
 50
0.0
 51
90.0
  0
ARC
  5
3EA
330
1F
100
AcDbEntity
  8
図
  6
Continuous
 62
     3
100
AcDbCircle
 10
326.38741
 20
600.625
 30
0.0
 40
0.2000000000000455
100
AcDbArc
 50
270.0
 51
0.0
  0
ARC
  5
3EB
330
1F
100
AcDbEntity
  8
図
  6
Continuous
 62
     3
100
AcDbCircle
 10
325.949813
 20
598.95
 30
0.0
 40
0.1999999999996456
100
AcDbArc
 50
316.1857590000315
 51
90.0
  0
ARC
  5
3EC
330
1F
100
AcDbEntity
  8
図
  6
Continuous
 62
     3
100
AcDbCircle
 10
324.16241
 20
604.425
 30
0.0
 40
0.2000000000000455
100
AcDbArc
 50
90.0
 51
180.0
  0
ARC
  5
3ED
330
1F
100
AcDbEntity
  8
図
  6
Continuous
 62
     3
100
AcDbCircle
 10
324.16241
 20
603.4
 30
0.0
 40
0.2000000000000455
100
AcDbArc
 50
180.0
 51
270.0
  0
ARC
  5
3EE
330
1F
100
AcDbEntity
  8
図
  6
Continuous
 62
     3
100
AcDbCircle
 10
320.206657
 20
606.236612
 30
0.0
 40
0.2999999999997852
100
AcDbArc
 50
313.7746090000007
 51
38.32142699995468
  0
ARC
  5
3EF
330
1F
100
AcDbEntity
  8
図
  6
Continuous
 62
     3
100
AcDbCircle
 10
321.33741
 20
607.55
 30
0.0
 40
0.2999999999999545
100
AcDbArc
 50
180.0
 51
270.0
  0
ARC
  5
3F0
330
1F
100
AcDbEntity
  8
図
  6
Continuous
 62
     3
100
AcDbCircle
 10
322.91241
 20
605.6
 30
0.0
 40
0.2999999999999545
100
AcDbArc
 50
90.0
 51
180.0
  0
ARC
  5
3F1
330
1F
100
AcDbEntity
  8
図
  6
Continuous
 62
     3
100
AcDbCircle
 10
326.38741
 20
603.4
 30
0.0
 40
0.1999999999999318
100
AcDbArc
 50
270.0
 51
0.0
  0
ARC
  5
3F2
330
1F
100
AcDbEntity
  8
図
  6
Continuous
 62
     3
100
AcDbCircle
 10
326.38741
 20
604.425
 30
0.0
 40
0.1999999999999886
100
AcDbArc
 50
0.0
 51
90.0
  0
ARC
  5
3F3
330
1F
100
AcDbEntity
  8
図
  6
Continuous
 62
     3
100
AcDbCircle
 10
326.38741
 20
606.1
 30
0.0
 40
0.2000000000000455
100
AcDbArc
 50
270.0
 51
0.0
  0
ARC
  5
3F4
330
1F
100
AcDbEntity
  8
図
  6
Continuous
 62
     3
100
AcDbCircle
 10
326.38741
 20
607.05
 30
0.0
 40
0.1999999999999886
100
AcDbArc
 50
0.0
 51
90.0
  0
ARC
  5
3F5
330
1F
100
AcDbEntity
  8
図
  6
Continuous
 62
     3
100
AcDbCircle
 10
332.06241
 20
599.45
 30
0.0
 40
0.3000000000000682
100
AcDbArc
 50
270.0
 51
0.0
  0
ARC
  5
3F6
330
1F
100
AcDbEntity
  8
図
  6
Continuous
 62
     3
100
AcDbCircle
 10
330.73741
 20
601.725
 30
0.0
 40
0.1999999999999886
100
AcDbArc
 50
0.0
 51
90.0
  0
ARC
  5
3F7
330
1F
100
AcDbEntity
  8
図
  6
Continuous
 62
     3
100
AcDbCircle
 10
330.73741
 20
600.625
 30
0.0
 40
0.2000000000000455
100
AcDbArc
 50
270.0
 51
0.0
  0
ARC
  5
3F8
330
1F
100
AcDbEntity
  8
図
  6
Continuous
 62
     3
100
AcDbCircle
 10
328.43741
 20
600.625
 30
0.0
 40
0.1999999999999886
100
AcDbArc
 50
180.0
 51
270.0
  0
ARC
  5
3F9
330
1F
100
AcDbEntity
  8
図
  6
Continuous
 62
     3
100
AcDbCircle
 10
328.43741
 20
601.725
 30
0.0
 40
0.1999999999999318
100
AcDbArc
 50
90.0
 51
180.0
  0
ARC
  5
3FA
330
1F
100
AcDbEntity
  8
図
  6
Continuous
 62
     3
100
AcDbCircle
 10
328.739943
 20
598.95
 30
0.0
 40
0.1999999999999318
100
AcDbArc
 50
90.0
 51
227.6057769999313
  0
ARC
  5
3FB
330
1F
100
AcDbEntity
  8
図
  6
Continuous
 62
     3
100
AcDbCircle
 10
332.06241
 20
605.6
 30
0.0
 40
0.3000000000000114
100
AcDbArc
 50
0.0
 51
90.0
  0
ARC
  5
3FC
330
1F
100
AcDbEntity
  8
図
  6
Continuous
 62
     3
100
AcDbCircle
 10
328.43741
 20
604.425
 30
0.0
 40
0.2000000000000455
100
AcDbArc
 50
90.0
 51
180.0
  0
ARC
  5
3FD
330
1F
100
AcDbEntity
  8
図
  6
Continuous
 62
     3
100
AcDbCircle
 10
328.43741
 20
603.4
 30
0.0
 40
0.1999999999999886
100
AcDbArc
 50
180.0
 51
270.0
  0
ARC
  5
3FE
330
1F
100
AcDbEntity
  8
図
  6
Continuous
 62
     3
100
AcDbCircle
 10
330.73741
 20
603.4
 30
0.0
 40
0.1999999999999318
100
AcDbArc
 50
270.0
 51
0.0
  0
ARC
  5
3FF
330
1F
100
AcDbEntity
  8
図
  6
Continuous
 62
     3
100
AcDbCircle
 10
330.73741
 20
604.425
 30
0.0
 40
0.1999999999999886
100
AcDbArc
 50
0.0
 51
90.0
  0
ARC
  5
400
330
1F
100
AcDbEntity
  8
図
  6
Continuous
 62
     3
100
AcDbCircle
 10
328.43741
 20
606.1
 30
0.0
 40
0.1999999999999886
100
AcDbArc
 50
180.0
 51
270.0
  0
ARC
  5
401
330
1F
100
AcDbEntity
  8
図
  6
Continuous
 62
     3
100
AcDbCircle
 10
328.43741
 20
607.05
 30
0.0
 40
0.2000000000000455
100
AcDbArc
 50
90.0
 51
180.0
  0
ARC
  5
402
330
1F
100
AcDbEntity
  8
図
  6
Continuous
 62
     3
100
AcDbCircle
 10
333.48741
 20
607.55
 30
0.0
 40
0.2999999999999545
100
AcDbArc
 50
270.0
 51
0.0
  0
ARC
  5
403
330
1F
100
AcDbEntity
  8
図
  6
Continuous
 62
     3
100
AcDbCircle
 10
327.93741
 20
610.85
 30
0.0
 40
0.3000000000000114
100
AcDbArc
 50
0.0
 51
90.0
  0
ARC
  5
404
330
1F
100
AcDbEntity
  8
図
  6
Continuous
 62
     3
100
AcDbCircle
 10
321.33741
 20
608.45
 30
0.0
 40
0.2999999999999545
100
AcDbArc
 50
90.0
 51
180.0
  0
ARC
  5
405
330
1F
100
AcDbEntity
  8
図
  6
Continuous
 62
     3
100
AcDbCircle
 10
326.88741
 20
610.85
 30
0.0
 40
0.2999999999999545
100
AcDbArc
 50
90.0
 51
180.0
  0
ARC
  5
406
330
1F
100
AcDbEntity
  8
図
  6
Continuous
 62
     3
100
AcDbCircle
 10
326.38741
 20
608.95
 30
0.0
 40
0.2000000000000455
100
AcDbArc
 50
270.0
 51
0.0
  0
ARC
  5
407
330
1F
100
AcDbEntity
  8
図
  6
Continuous
 62
     3
100
AcDbCircle
 10
328.43741
 20
608.95
 30
0.0
 40
0.1999999999999886
100
AcDbArc
 50
180.0
 51
270.0
  0
ARC
  5
408
330
1F
100
AcDbEntity
  8
図
  6
Continuous
 62
     3
100
AcDbCircle
 10
333.48741
 20
608.45
 30
0.0
 40
0.3000000000000114
100
AcDbArc
 50
0.0
 51
90.0
  0
ARC
  5
409
330
1F
100
AcDbEntity
  8
図
  6
Continuous
 62
     3
100
AcDbCircle
 10
305.642727
 20
636.133278
 30
0.0
 40
49.74068499999991
100
AcDbArc
 50
322.9668760000002
 51
327.9516589999999
  0
ARC
  5
40A
330
1F
100
AcDbEntity
  8
図
  6
Continuous
 62
     3
100
AcDbCircle
 10
348.630343
 20
607.994731
 30
0.0
 40
0.2999999999998477
100
AcDbArc
 50
61.0139590000782
 51
149.9961199999386
  0
ARC
  5
40B
330
1F
100
AcDbEntity
  8
図
  6
Continuous
 62
     3
100
AcDbCircle
 10
310.19941
 20
629.2869
 30
0.0
 40
40.7759680000003
100
AcDbArc
 50
326.5942949999997
 51
332.5882950000004
  0
ARC
  5
40C
330
1F
100
AcDbEntity
  8
図
  6
Continuous
 62
     3
100
AcDbCircle
 10
344.252622
 20
602.716346
 30
0.0
 40
0.3000000000006299
100
AcDbArc
 50
272.6870000000596
 51
322.7218260000623
  0
ARC
  5
40D
330
1F
100
AcDbEntity
  8
図
  6
Continuous
 62
     3
100
AcDbCircle
 10
342.84516
 20
601.003805
 30
0.0
 40
0.300000000000491
100
AcDbArc
 50
189.1228960000664
 51
275.2006990000168
  0
ARC
  5
40E
330
1F
100
AcDbEntity
  8
図
  6
Continuous
 62
     3
100
AcDbCircle
 10
343.568168
 20
599.21037
 30
0.0
 40
0.2999999999999984
100
AcDbArc
 50
83.80609500008924
 51
177.2530219999143
  0
ARC
  5
40F
330
1F
100
AcDbEntity
  8
図
  6
Continuous
 62
     3
100
AcDbCircle
 10
342.678473
 20
602.041809
 30
0.0
 40
0.2999999999996052
100
AcDbArc
 50
92.6870000000579
 51
189.122896000076
  0
ARC
  5
410
330
1F
100
AcDbEntity
  8
図
  6
Continuous
 62
     3
100
AcDbCircle
 10
343.449918
 20
606.74475
 30
0.0
 40
0.299999999999759
100
AcDbArc
 50
58.18296500000797
 51
147.4192559999696
  0
ARC
  5
411
330
1F
100
AcDbEntity
  8
図
  6
Continuous
 62
     3
100
AcDbCircle
 10
342.959528
 20
605.977381
 30
0.0
 40
0.3000000000001757
100
AcDbArc
 50
147.4192560000814
 51
236.9409910000685
  0
ARC
  5
412
330
1F
100
AcDbEntity
  8
図
  6
Continuous
 62
     3
100
AcDbCircle
 10
344.071946
 20
606.947238
 30
0.0
 40
0.2000000000000526
100
AcDbArc
 50
238.1829650000331
 51
326.5942950000888
  0
ARC
  5
413
330
1F
100
AcDbEntity
  8
図
  6
Continuous
 62
     3
100
AcDbCircle
 10
340.52216
 20
598.001208
 30
0.0
 40
10.73836700000037
100
AcDbArc
 50
18.57092999999977
 51
36.09620300000061
  0
ARC
  5
414
330
1F
100
AcDbEntity
  8
図
  6
Continuous
 62
     3
100
AcDbCircle
 10
346.433427
 20
602.610651
 30
0.0
 40
0.1999999999995584
100
AcDbArc
 50
140.568497000084
 51
274.0396050000552
  0
ARC
  5
415
330
1F
100
AcDbEntity
  8
図
  6
Continuous
 62
     3
100
AcDbCircle
 10
344.56297
 20
599.102407
 30
0.0
 40
0.3000000000003599
100
AcDbArc
 50
0.60986399993645
 51
83.80609500009159
  0
ARC
  5
416
330
1F
100
AcDbEntity
  8
図
  6
Continuous
 62
     3
100
AcDbCircle
 10
348.359268
 20
599.270336
 30
0.0
 40
0.2999999999998291
100
AcDbArc
 50
102.5617740000658
 51
198.1582439999969
  0
ARC
  5
417
330
1F
100
AcDbEntity
  8
図
  6
Continuous
 62
     3
100
AcDbCircle
 10
345.564035
 20
600.749208
 30
0.0
 40
0.1999999999999886
100
AcDbArc
 50
0.0
 51
95.20069900013085
  0
ARC
  5
418
330
1F
100
AcDbEntity
  8
図
  6
Continuous
 62
     3
100
AcDbCircle
 10
347.614035
 20
600.978745
 30
0.0
 40
0.1999999999997143
100
AcDbArc
 50
93.62426699990377
 51
180.0
  0
ARC
  5
419
330
1F
100
AcDbEntity
  8
図
  6
Continuous
 62
     3
100
AcDbCircle
 10
349.183375
 20
599.453968
 30
0.0
 40
0.3000000000002936
100
AcDbArc
 50
25.48229399997693
 51
102.5617740000339
  0
ARC
  5
41A
330
1F
100
AcDbEntity
  8
図
  6
Continuous
 62
     3
100
AcDbCircle
 10
351.689035
 20
600.270739
 30
0.0
 40
0.2999999999999545
100
AcDbArc
 50
90.0
 51
180.0
  0
ARC
  5
41B
330
1F
100
AcDbEntity
  8
図
  6
Continuous
 62
     3
100
AcDbCircle
 10
349.558263
 20
600.992156
 30
0.0
 40
0.2999999999997426
100
AcDbArc
 50
199.5731260000054
 51
291.2210850001503
  0
ARC
  5
41C
330
1F
100
AcDbEntity
  8
図
  6
Continuous
 62
     3
100
AcDbCircle
 10
350.417002
 20
601.325602
 30
0.0
 40
0.3000000000002299
100
AcDbArc
 50
291.2210850000795
 51
18.57092999987633
  0
ARC
  5
41D
330
1F
100
AcDbEntity
  8
図
  6
Continuous
 62
     3
100
AcDbCircle
 10
286.965711
 20
651.512767
 30
0.0
 40
76.79237799999979
100
AcDbArc
 50
320.5684969999998
 51
324.8717619999996
  0
ARC
  5
41E
330
1F
100
AcDbEntity
  8
図
  6
Continuous
 62
     3
100
AcDbCircle
 10
341.376568
 20
599.451945
 30
0.0
 40
7.899546000000006
100
AcDbArc
 50
23.21445600000113
 51
32.08613500000065
  0
ARC
  5
41F
330
1F
100
AcDbEntity
  8
図
  6
Continuous
 62
     3
100
AcDbCircle
 10
348.323638
 20
603.807491
 30
0.0
 40
0.3000000000005558
100
AcDbArc
 50
118.4791080000362
 51
212.0861350001107
  0
ARC
  5
420
330
1F
100
AcDbEntity
  8
図
  6
Continuous
 62
     3
100
AcDbCircle
 10
324.646797
 20
621.843803
 30
0.0
 40
27.39489599999975
100
AcDbArc
 50
323.0838679999993
 51
329.9961200000008
  0
ARC
  5
421
330
1F
100
AcDbEntity
  8
図
  6
Continuous
 62
     3
100
AcDbCircle
 10
345.264491
 20
603.880563
 30
0.0
 40
0.1999999999997581
100
AcDbArc
 50
322.721826000057
 51
56.94099099994109
  0
ARC
  5
422
330
1F
100
AcDbEntity
  8
図
  6
Continuous
 62
     3
100
AcDbCircle
 10
345.509749
 20
606.05517
 30
0.0
 40
0.1999999999996399
100
AcDbArc
 50
142.9668760000238
 51
238.1829650000331
  0
ARC
  5
423
330
1F
100
AcDbEntity
  8
図
  6
Continuous
 62
     3
100
AcDbCircle
 10
346.38954
 20
605.509315
 30
0.0
 40
0.2000000000001492
100
AcDbArc
 50
238.1829650000502
 51
323.0838679999436
  0
ARC
  5
424
330
1F
100
AcDbEntity
  8
図
  6
Continuous
 62
     3
100
AcDbCircle
 10
349.526244
 20
607.49841
 30
0.0
 40
0.3000000000002921
100
AcDbArc
 50
324.8717620000167
 51
61.0139590000782
  0
ARC
  5
425
330
1F
100
AcDbEntity
  8
図
  6
Continuous
 62
     3
100
AcDbCircle
 10
350.187699
 20
603.876339
 30
0.0
 40
0.3000000000000084
100
AcDbArc
 50
129.5215460001161
 51
225.0000000000077
  0
ARC
  5
426
330
1F
100
AcDbEntity
  8
図
  6
Continuous
 62
     3
100
AcDbCircle
 10
351.02766
 20
603.036378
 30
0.0
 40
0.300000000000115
100
AcDbArc
 50
225.0
 51
311.7793810000966
  0
ARC
  5
427
330
1F
100
AcDbEntity
  8
図
  6
Continuous
 62
     3
100
AcDbCircle
 10
348.956662
 20
604.150897
 30
0.0
 40
0.3000000000001074
100
AcDbArc
 50
36.09620299992761
 51
118.4791080000362
  0
ARC
  5
428
330
1F
100
AcDbEntity
  8
図
  6
Continuous
 62
     3
100
AcDbCircle
 10
347.548686
 20
609.89834
 30
0.0
 40
0.3000000000004081
100
AcDbArc
 50
327.9516590000333
 51
61.63511899998127
  0
ARC
  5
429
330
1F
100
AcDbEntity
  8
図
  6
Continuous
 62
     3
100
AcDbCircle
 10
346.663424
 20
610.376298
 30
0.0
 40
0.299999999999804
100
AcDbArc
 50
61.63511900006994
 51
152.5882950000777
  0
ARC
  5
42A
330
1F
100
AcDbEntity
  8
図
  6
Continuous
 62
     3
100
AcDbCircle
 10
360.272404
 20
606.518244
 30
0.0
 40
15.04250200000026
100
AcDbArc
 50
305.2845520000016
 51
356.7336069999999
  0
ARC
  5
42B
330
1F
100
AcDbEntity
  8
図
  6
Continuous
 62
     3
100
AcDbCircle
 10
360.822698
 20
606.47112
 30
0.0
 40
12.83931000000042
100
AcDbArc
 50
304.1403759999998
 51
349.9397520000002
  0
ARC
  5
42C
330
1F
100
AcDbEntity
  8
図
  6
Continuous
 62
     3
100
AcDbCircle
 10
396.944596
 20
612.135396
 30
0.0
 40
19.57124299999963
100
AcDbArc
 50
210.5694759999998
 51
235.4894550000027
  0
ARC
  5
42D
330
1F
100
AcDbEntity
  8
図
  6
Continuous
 62
     3
100
AcDbCircle
 10
396.937992
 20
610.736522
 30
0.0
 40
20.45991799999979
100
AcDbArc
 50
204.2869189999998
 51
233.7881270000013
  0
ARC
  5
42E
330
1F
100
AcDbEntity
  8
図
  6
Continuous
 62
     3
100
AcDbCircle
 10
385.55795
 20
604.598282
 30
0.0
 40
11.99253700000043
100
AcDbArc
 50
318.6744949999991
 51
334.6234089999996
  0
ARC
  5
42F
330
1F
100
AcDbEntity
  8
図
  6
Continuous
 62
     3
100
AcDbCircle
 10
394.413795
 20
596.811245
 30
0.0
 40
0.2000000000002556
100
AcDbArc
 50
208.7824670000286
 51
318.674495000343
  0
ARC
  5
430
330
1F
100
AcDbEntity
  8
図
  6
Continuous
 62
     3
100
AcDbCircle
 10
353.164035
 20
595.445739
 30
0.0
 40
0.1999999999999886
100
AcDbArc
 50
180.0
 51
270.0
  0
ARC
  5
431
330
1F
100
AcDbEntity
  8
図
  6
Continuous
 62
     3
100
AcDbCircle
 10
353.164035
 20
593.770739
 30
0.0
 40
0.1999999999999318
100
AcDbArc
 50
90.0
 51
180.0
  0
ARC
  5
432
330
1F
100
AcDbEntity
  8
図
  6
Continuous
 62
     3
100
AcDbCircle
 10
358.214035
 20
593.295739
 30
0.0
 40
0.3000000000000114
100
AcDbArc
 50
180.0
 51
270.0
  0
ARC
  5
433
330
1F
100
AcDbEntity
  8
図
  6
Continuous
 62
     3
100
AcDbCircle
 10
359.189035
 20
593.295739
 30
0.0
 40
0.3000000000000682
100
AcDbArc
 50
270.0
 51
0.0
  0
ARC
  5
434
330
1F
100
AcDbEntity
  8
図
  6
Continuous
 62
     3
100
AcDbCircle
 10
357.639035
 20
595.445739
 30
0.0
 40
0.2000000000000455
100
AcDbArc
 50
270.0
 51
0.0
  0
ARC
  5
435
330
1F
100
AcDbEntity
  8
図
  6
Continuous
 62
     3
100
AcDbCircle
 10
357.714035
 20
593.770739
 30
0.0
 40
0.1999999999999886
100
AcDbArc
 50
0.0
 51
90.0
  0
ARC
  5
436
330
1F
100
AcDbEntity
  8
図
  6
Continuous
 62
     3
100
AcDbCircle
 10
368.196773
 20
595.596172
 30
0.0
 40
0.2999999999997843
100
AcDbArc
 50
124.140375999962
 51
208.0048570000345
  0
ARC
  5
437
330
1F
100
AcDbEntity
  8
図
  6
Continuous
 62
     3
100
AcDbCircle
 10
368.788226
 20
594.484037
 30
0.0
 40
0.2999999999997887
100
AcDbArc
 50
208.0048570000345
 51
305.2845519999457
  0
ARC
  5
438
330
1F
100
AcDbEntity
  8
図
  6
Continuous
 62
     3
100
AcDbCircle
 10
376.829451
 20
593.914036
 30
0.0
 40
1.087938000000254
100
AcDbArc
 50
278.5679779999836
 51
351.899739999995
  0
ARC
  5
439
330
1F
100
AcDbEntity
  8
図
  6
Continuous
 62
     3
100
AcDbCircle
 10
376.061535
 20
594.690739
 30
0.0
 40
0.3083219999996678
100
AcDbArc
 50
274.1849160000035
 51
341.56505099996
  0
ARC
  5
43A
330
1F
100
AcDbEntity
  8
図
  6
Continuous
 62
     3
100
AcDbCircle
 10
374.986542
 20
593.138239
 30
0.0
 40
0.3000000000003182
100
AcDbArc
 50
191.5237220000739
 51
270.0
  0
ARC
  5
43B
330
1F
100
AcDbEntity
  8
図
  6
Continuous
 62
     3
100
AcDbCircle
 10
374.671426
 20
594.183239
 30
0.0
 40
0.2000000000000455
100
AcDbArc
 50
90.0
 51
191.5237220000722
  0
ARC
  5
43C
330
1F
100
AcDbEntity
  8
図
  6
Continuous
 62
     3
100
AcDbCircle
 10
385.02806
 20
594.470737
 30
0.0
 40
0.2999999999993801
100
AcDbArc
 50
233.7881270000214
 51
332.9691400001004
  0
ARC
  5
43D
330
1F
100
AcDbEntity
  8
図
  6
Continuous
 62
     3
100
AcDbCircle
 10
385.686386
 20
595.761056
 30
0.0
 40
0.3000000000000151
100
AcDbArc
 50
332.969140000081
 51
55.48945500003382
  0
ARC
  5
43E
330
1F
100
AcDbEntity
  8
図
  6
Continuous
 62
     3
100
AcDbCircle
 10
397.074035
 20
592.898239
 30
0.0
 40
0.2999999999999545
100
AcDbArc
 50
180.0
 51
270.0
  0
ARC
  5
43F
330
1F
100
AcDbEntity
  8
図
  6
Continuous
 62
     3
100
AcDbCircle
 10
400.501535
 20
593.550739
 30
0.0
 40
0.3000000000000114
100
AcDbArc
 50
180.0
 51
270.0
  0
ARC
  5
440
330
1F
100
AcDbEntity
  8
図
  6
Continuous
 62
     3
100
AcDbCircle
 10
398.056535
 20
592.898239
 30
0.0
 40
0.2999999999999545
100
AcDbArc
 50
270.0
 51
0.0
  0
ARC
  5
441
330
1F
100
AcDbEntity
  8
図
  6
Continuous
 62
     3
100
AcDbCircle
 10
400.501535
 20
594.458239
 30
0.0
 40
0.2999999999999545
100
AcDbArc
 50
90.0
 51
180.0
  0
ARC
  5
442
330
1F
100
AcDbEntity
  8
図
  6
Continuous
 62
     3
100
AcDbCircle
 10
404.749035
 20
594.958239
 30
0.0
 40
0.2000000000000455
100
AcDbArc
 50
270.0
 51
0.0
  0
ARC
  5
443
330
1F
100
AcDbEntity
  8
図
  6
Continuous
 62
     3
100
AcDbCircle
 10
406.769035
 20
594.995739
 30
0.0
 40
0.1999999999999886
100
AcDbArc
 50
180.0
 51
270.0
  0
ARC
  5
444
330
1F
100
AcDbEntity
  8
図
  6
Continuous
 62
     3
100
AcDbCircle
 10
410.979035
 20
594.495739
 30
0.0
 40
0.3000000000000114
100
AcDbArc
 50
0.0
 51
90.0
  0
ARC
  5
445
330
1F
100
AcDbEntity
  8
図
  6
Continuous
 62
     3
100
AcDbCircle
 10
410.979035
 20
593.550739
 30
0.0
 40
0.3000000000000682
100
AcDbArc
 50
270.0
 51
0.0
  0
ARC
  5
446
330
1F
100
AcDbEntity
  8
図
  6
Continuous
 62
     3
100
AcDbCircle
 10
369.221535
 20
605.678239
 30
0.0
 40
0.3000000000000682
100
AcDbArc
 50
90.0
 51
180.0
  0
ARC
  5
447
330
1F
100
AcDbEntity
  8
図
  6
Continuous
 62
     3
100
AcDbCircle
 10
369.221535
 20
604.763239
 30
0.0
 40
0.3000000000000114
100
AcDbArc
 50
180.0
 51
270.0
  0
ARC
  5
448
330
1F
100
AcDbEntity
  8
図
  6
Continuous
 62
     3
100
AcDbCircle
 10
368.698469
 20
617.537475
 30
0.0
 40
15.07335999999988
100
AcDbArc
 50
208.4838990000009
 51
237.6860289999996
  0
ARC
  5
449
330
1F
100
AcDbEntity
  8
図
  6
Continuous
 62
     3
100
AcDbCircle
 10
353.164035
 20
599.020739
 30
0.0
 40
0.1999999999999318
100
AcDbArc
 50
90.0
 51
180.0
  0
ARC
  5
44A
330
1F
100
AcDbEntity
  8
図
  6
Continuous
 62
     3
100
AcDbCircle
 10
359.189035
 20
600.270739
 30
0.0
 40
0.3000000000000114
100
AcDbArc
 50
0.0
 51
90.0
  0
ARC
  5
44B
330
1F
100
AcDbEntity
  8
図
  6
Continuous
 62
     3
100
AcDbCircle
 10
357.639035
 20
599.020739
 30
0.0
 40
0.2000000000000455
100
AcDbArc
 50
0.0
 51
90.0
  0
ARC
  5
44C
330
1F
100
AcDbEntity
  8
図
  6
Continuous
 62
     3
100
AcDbCircle
 10
367.458419
 20
614.497938
 30
0.0
 40
13.7566539999997
100
AcDbArc
 50
207.727107
 51
234.5677310000032
  0
ARC
  5
44D
330
1F
100
AcDbEntity
  8
図
  6
Continuous
 62
     3
100
AcDbCircle
 10
355.104357
 20
608.004453
 30
0.0
 40
0.1999999999998566
100
AcDbArc
 50
27.72710700017315
 51
158.1658760000743
  0
ARC
  5
44E
330
1F
100
AcDbEntity
  8
図
  6
Continuous
 62
     3
100
AcDbCircle
 10
359.657056
 20
603.533437
 30
0.0
 40
0.3000000000000754
100
AcDbArc
 50
234.5677309999186
 51
320.8519860001279
  0
ARC
  5
44F
330
1F
100
AcDbEntity
  8
図
  6
Continuous
 62
     3
100
AcDbCircle
 10
360.48051
 20
604.544964
 30
0.0
 40
0.2999999999995028
100
AcDbArc
 50
320.8519860000113
 51
57.68602899978344
  0
ARC
  5
450
330
1F
100
AcDbEntity
  8
図
  6
Continuous
 62
     3
100
AcDbCircle
 10
357.714035
 20
603.820739
 30
0.0
 40
0.1999999999999886
100
AcDbArc
 50
0.0
 51
90.0
  0
ARC
  5
451
330
1F
100
AcDbEntity
  8
図
  6
Continuous
 62
     3
100
AcDbCircle
 10
357.714035
 20
602.720739
 30
0.0
 40
0.1999999999999318
100
AcDbArc
 50
270.0
 51
0.0
  0
ARC
  5
452
330
1F
100
AcDbEntity
  8
図
  6
Continuous
 62
     3
100
AcDbCircle
 10
355.186037
 20
610.205738
 30
0.0
 40
0.2999999999997487
100
AcDbArc
 50
28.48389899993207
 51
75.47359499992943
  0
ARC
  5
453
330
1F
100
AcDbEntity
  8
図
  6
Continuous
 62
     3
100
AcDbCircle
 10
354.415785
 20
610.405318
 30
0.0
 40
0.2999999999997873
100
AcDbArc
 50
75.47359499992943
 51
164.6252690000424
  0
ARC
  5
454
330
1F
100
AcDbEntity
  8
図
  6
Continuous
 62
     3
100
AcDbCircle
 10
373.267674
 20
604.263239
 30
0.0
 40
0.2000000000002971
100
AcDbArc
 50
349.9397519999781
 51
90.0
  0
ARC
  5
455
330
1F
100
AcDbEntity
  8
図
  6
Continuous
 62
     3
100
AcDbCircle
 10
374.990955
 20
605.678239
 30
0.0
 40
0.30000000000002
100
AcDbArc
 50
356.7336070000878
 51
90.0
  0
ARC
  5
456
330
1F
100
AcDbEntity
  8
図
  6
Continuous
 62
     3
100
AcDbCircle
 10
354.596869
 20
638.83457
 30
0.0
 40
44.46395200000034
100
AcDbArc
 50
305.0793460000003
 51
312.3091700000014
  0
ARC
  5
457
330
1F
100
AcDbEntity
  8
図
  6
Continuous
 62
     3
100
AcDbCircle
 10
378.106535
 20
602.238969
 30
0.0
 40
0.2000000000006601
100
AcDbArc
 50
24.28691900010836
 51
180.0
  0
ARC
  5
458
330
1F
100
AcDbEntity
  8
図
  6
Continuous
 62
     3
100
AcDbCircle
 10
380.265702
 20
602.283515
 30
0.0
 40
0.1999999999997447
100
AcDbArc
 50
125.079345999965
 51
210.5694760000544
  0
ARC
  5
459
330
1F
100
AcDbEntity
  8
図
  6
Continuous
 62
     3
100
AcDbCircle
 10
368.697249
 20
618.802322
 30
0.0
 40
18.40321299999992
100
AcDbArc
 50
305.3518730000004
 51
321.5315679999986
  0
ARC
  5
45A
330
1F
100
AcDbEntity
  8
図
  6
Continuous
 62
     3
100
AcDbCircle
 10
378.206535
 20
604.037087
 30
0.0
 40
0.2999999999999545
100
AcDbArc
 50
180.0
 51
270.0
  0
ARC
  5
45B
330
1F
100
AcDbEntity
  8
図
  6
Continuous
 62
     3
100
AcDbCircle
 10
379.1717
 20
604.037087
 30
0.0
 40
0.3000000000000682
100
AcDbArc
 50
270.0
 51
305.3518730001809
  0
ARC
  5
45C
330
1F
100
AcDbEntity
  8
図
  6
Continuous
 62
     3
100
AcDbCircle
 10
384.324989
 20
606.174296
 30
0.0
 40
0.3000000000000969
100
AcDbArc
 50
312.3091699999733
 51
44.738376999948
  0
ARC
  5
45D
330
1F
100
AcDbEntity
  8
図
  6
Continuous
 62
     3
100
AcDbCircle
 10
383.340948
 20
607.167365
 30
0.0
 40
0.3000000000004091
100
AcDbArc
 50
44.738376999948
 51
141.5315679999104
  0
ARC
  5
45E
330
1F
100
AcDbEntity
  8
図
  6
Continuous
 62
     3
100
AcDbCircle
 10
376.654035
 20
610.320739
 30
0.0
 40
0.2999999999999545
100
AcDbArc
 50
90.0
 51
180.0
  0
ARC
  5
45F
330
1F
100
AcDbEntity
  8
図
  6
Continuous
 62
     3
100
AcDbCircle
 10
377.606535
 20
610.320739
 30
0.0
 40
0.3000000000000114
100
AcDbArc
 50
0.0
 51
90.0
  0
ARC
  5
460
330
1F
100
AcDbEntity
  8
図
  6
Continuous
 62
     3
100
AcDbCircle
 10
396.182278
 20
613.337063
 30
0.0
 40
9.09246900000044
100
AcDbArc
 50
302.9070780000003
 51
341.1731690000022
  0
ARC
  5
461
330
1F
100
AcDbEntity
  8
図
  6
Continuous
 62
     3
100
AcDbCircle
 10
402.121535
 20
598.223239
 30
0.0
 40
0.3000000000000114
100
AcDbArc
 50
180.0
 51
270.0
  0
ARC
  5
462
330
1F
100
AcDbEntity
  8
図
  6
Continuous
 62
     3
100
AcDbCircle
 10
402.121535
 20
599.108239
 30
0.0
 40
0.2999999999999545
100
AcDbArc
 50
90.0
 51
180.0
  0
ARC
  5
463
330
1F
100
AcDbEntity
  8
図
  6
Continuous
 62
     3
100
AcDbCircle
 10
395.420365
 20
613.395277
 30
0.0
 40
11.29304700000031
100
AcDbArc
 50
296.9556459999997
 51
331.5759930000024
  0
ARC
  5
464
330
1F
100
AcDbEntity
  8
図
  6
Continuous
 62
     3
100
AcDbCircle
 10
383.115983
 20
607.442516
 30
0.0
 40
13.82690500000013
100
AcDbArc
 50
319.0050069999995
 51
350.0512719999995
  0
ARC
  5
465
330
1F
100
AcDbEntity
  8
図
  6
Continuous
 62
     3
100
AcDbCircle
 10
393.778503
 20
598.175365
 30
0.0
 40
0.2999999999994116
100
AcDbArc
 50
139.0050070000418
 51
208.7824670001148
  0
ARC
  5
466
330
1F
100
AcDbEntity
  8
図
  6
Continuous
 62
     3
100
AcDbCircle
 10
401.844035
 20
602.490739
 30
0.0
 40
0.3000000000000114
100
AcDbArc
 50
180.0
 51
270.0
  0
ARC
  5
467
330
1F
100
AcDbEntity
  8
図
  6
Continuous
 62
     3
100
AcDbCircle
 10
396.574035
 20
599.372975
 30
0.0
 40
0.2000000000000455
100
AcDbArc
 50
0.0
 51
154.6234089999828
  0
ARC
  5
468
330
1F
100
AcDbEntity
  8
図
  6
Continuous
 62
     3
100
AcDbCircle
 10
390.037361
 20
589.810717
 30
0.0
 40
14.96538700000002
100
AcDbArc
 50
45.42732499999994
 51
55.82300999999943
  0
ARC
  5
469
330
1F
100
AcDbEntity
  8
図
  6
Continuous
 62
     3
100
AcDbCircle
 10
398.556535
 20
599.760162
 30
0.0
 40
0.199999999999723
100
AcDbArc
 50
44.56485100002325
 51
180.0
  0
ARC
  5
46A
330
1F
100
AcDbEntity
  8
図
  6
Continuous
 62
     3
100
AcDbCircle
 10
399.773893
 20
599.094202
 30
0.0
 40
0.1999999999996825
100
AcDbArc
 50
224.5648510000347
 51
333.1160519998912
  0
ARC
  5
46B
330
1F
100
AcDbEntity
  8
図
  6
Continuous
 62
     3
100
AcDbCircle
 10
400.399907
 20
600.329
 30
0.0
 40
0.1999999999996813
100
AcDbArc
 50
333.1160519999203
 51
45.4273250000365
  0
ARC
  5
46C
330
1F
100
AcDbEntity
  8
図
  6
Continuous
 62
     3
100
AcDbCircle
 10
398.556535
 20
602.357136
 30
0.0
 40
0.1999999999999886
100
AcDbArc
 50
180.0
 51
235.8230100000495
  0
ARC
  5
46D
330
1F
100
AcDbEntity
  8
図
  6
Continuous
 62
     3
100
AcDbCircle
 10
394.351535
 20
606.465739
 30
0.0
 40
0.3000000000000682
100
AcDbArc
 50
90.0
 51
180.0
  0
ARC
  5
46E
330
1F
100
AcDbEntity
  8
図
  6
Continuous
 62
     3
100
AcDbCircle
 10
394.351535
 20
605.588239
 30
0.0
 40
0.3000000000000114
100
AcDbArc
 50
180.0
 51
270.0
  0
ARC
  5
46F
330
1F
100
AcDbEntity
  8
図
  6
Continuous
 62
     3
100
AcDbCircle
 10
396.537976
 20
605.088239
 30
0.0
 40
0.199999999999683
100
AcDbArc
 50
350.0512720000684
 51
90.0
  0
ARC
  5
470
330
1F
100
AcDbEntity
  8
図
  6
Continuous
 62
     3
100
AcDbCircle
 10
396.574035
 20
606.965739
 30
0.0
 40
0.1999999999999318
100
AcDbArc
 50
270.0
 51
0.0
  0
ARC
  5
471
330
1F
100
AcDbEntity
  8
図
  6
Continuous
 62
     3
100
AcDbCircle
 10
400.959035
 20
605.955321
 30
0.0
 40
0.2999999999999545
100
AcDbArc
 50
180.0
 51
302.9070780000177
  0
ARC
  5
472
330
1F
100
AcDbEntity
  8
図
  6
Continuous
 62
     3
100
AcDbCircle
 10
399.605518
 20
605.108239
 30
0.0
 40
0.1799999999999654
100
AcDbArc
 50
292.5876009998983
 51
90.0
  0
ARC
  5
473
330
1F
100
AcDbEntity
  8
図
  6
Continuous
 62
     3
100
AcDbCircle
 10
401.844035
 20
603.405739
 30
0.0
 40
0.2999999999999545
100
AcDbArc
 50
90.0
 51
180.0
  0
ARC
  5
474
330
1F
100
AcDbEntity
  8
図
  6
Continuous
 62
     3
100
AcDbCircle
 10
399.787766
 20
604.664178
 30
0.0
 40
0.2999999999996808
100
AcDbArc
 50
112.5736119999843
 51
209.9739490000116
  0
ARC
  5
475
330
1F
100
AcDbEntity
  8
図
  6
Continuous
 62
     3
100
AcDbCircle
 10
400.40352
 20
603.59654
 30
0.0
 40
0.3000000000003563
100
AcDbArc
 50
209.9739489999139
 51
296.9556459999023
  0
ARC
  5
476
330
1F
100
AcDbEntity
  8
図
  6
Continuous
 62
     3
100
AcDbCircle
 10
398.556535
 20
605.088239
 30
0.0
 40
0.1999999999999318
100
AcDbArc
 50
90.0
 51
180.0
  0
ARC
  5
477
330
1F
100
AcDbEntity
  8
図
  6
Continuous
 62
     3
100
AcDbCircle
 10
398.519035
 20
606.965739
 30
0.0
 40
0.1999999999999886
100
AcDbArc
 50
180.0
 51
270.0
  0
ARC
  5
478
330
1F
100
AcDbEntity
  8
図
  6
Continuous
 62
     3
100
AcDbCircle
 10
400.359035
 20
606.465739
 30
0.0
 40
0.3000000000000114
100
AcDbArc
 50
0.0
 51
90.0
  0
ARC
  5
479
330
1F
100
AcDbEntity
  8
図
  6
Continuous
 62
     3
100
AcDbCircle
 10
397.074035
 20
610.523239
 30
0.0
 40
0.2999999999999545
100
AcDbArc
 50
90.0
 51
180.0
  0
ARC
  5
47A
330
1F
100
AcDbEntity
  8
図
  6
Continuous
 62
     3
100
AcDbCircle
 10
398.019035
 20
610.523239
 30
0.0
 40
0.3000000000000114
100
AcDbArc
 50
0.0
 51
90.0
  0
ARC
  5
47B
330
1F
100
AcDbEntity
  8
図
  6
Continuous
 62
     3
100
AcDbCircle
 10
417.571639
 20
617.964277
 30
0.0
 40
14.06226700000037
100
AcDbArc
 50
215.8890039999999
 51
244.7663620000015
  0
ARC
  5
47C
330
1F
100
AcDbEntity
  8
図
  6
Continuous
 62
     3
100
AcDbCircle
 10
417.104863
 20
616.135323
 30
0.0
 40
13.99297399999988
100
AcDbArc
 50
215.3451969999991
 51
243.1465029999997
  0
ARC
  5
47D
330
1F
100
AcDbEntity
  8
図
  6
Continuous
 62
     3
100
AcDbCircle
 10
409.674035
 20
602.490739
 30
0.0
 40
0.2999999999999545
100
AcDbArc
 50
270.0
 51
0.0
  0
ARC
  5
47E
330
1F
100
AcDbEntity
  8
図
  6
Continuous
 62
     3
100
AcDbCircle
 10
404.749035
 20
597.723239
 30
0.0
 40
0.1999999999999886
100
AcDbArc
 50
0.0
 51
90.0
  0
ARC
  5
47F
330
1F
100
AcDbEntity
  8
図
  6
Continuous
 62
     3
100
AcDbCircle
 10
404.749035
 20
599.608239
 30
0.0
 40
0.2000000000000455
100
AcDbArc
 50
270.0
 51
0.0
  0
ARC
  5
480
330
1F
100
AcDbEntity
  8
図
  6
Continuous
 62
     3
100
AcDbCircle
 10
404.749035
 20
601.990739
 30
0.0
 40
0.1999999999999886
100
AcDbArc
 50
0.0
 51
90.0
  0
ARC
  5
481
330
1F
100
AcDbEntity
  8
図
  6
Continuous
 62
     3
100
AcDbCircle
 10
409.426535
 20
599.108239
 30
0.0
 40
0.3000000000000114
100
AcDbArc
 50
0.0
 51
90.0
  0
ARC
  5
482
330
1F
100
AcDbEntity
  8
図
  6
Continuous
 62
     3
100
AcDbCircle
 10
409.426535
 20
598.223239
 30
0.0
 40
0.3000000000000682
100
AcDbArc
 50
270.0
 51
0.0
  0
ARC
  5
483
330
1F
100
AcDbEntity
  8
図
  6
Continuous
 62
     3
100
AcDbCircle
 10
406.769035
 20
597.723239
 30
0.0
 40
0.1999999999999318
100
AcDbArc
 50
90.0
 51
180.0
  0
ARC
  5
484
330
1F
100
AcDbEntity
  8
図
  6
Continuous
 62
     3
100
AcDbCircle
 10
406.769035
 20
601.990739
 30
0.0
 40
0.2000000000000455
100
AcDbArc
 50
90.0
 51
180.0
  0
ARC
  5
485
330
1F
100
AcDbEntity
  8
図
  6
Continuous
 62
     3
100
AcDbCircle
 10
406.769035
 20
599.608239
 30
0.0
 40
0.1999999999999886
100
AcDbArc
 50
180.0
 51
270.0
  0
ARC
  5
486
330
1F
100
AcDbEntity
  8
図
  6
Continuous
 62
     3
100
AcDbCircle
 10
405.527917
 20
607.92467
 30
0.0
 40
0.1999999999994626
100
AcDbArc
 50
35.34519700002537
 51
151.5759930000382
  0
ARC
  5
487
330
1F
100
AcDbEntity
  8
図
  6
Continuous
 62
     3
100
AcDbCircle
 10
409.674035
 20
603.405739
 30
0.0
 40
0.3000000000000114
100
AcDbArc
 50
0.0
 51
90.0
  0
ARC
  5
488
330
1F
100
AcDbEntity
  8
図
  6
Continuous
 62
     3
100
AcDbCircle
 10
410.919599
 20
603.918938
 30
0.0
 40
0.2999999999997429
100
AcDbArc
 50
243.1465030000272
 51
333.3274519999715
  0
ARC
  5
489
330
1F
100
AcDbEntity
  8
図
  6
Continuous
 62
     3
100
AcDbCircle
 10
411.448854
 20
604.972502
 30
0.0
 40
0.2999999999998717
100
AcDbArc
 50
333.3274519999763
 51
64.76636199999699
  0
ARC
  5
48A
330
1F
100
AcDbEntity
  8
図
  6
Continuous
 62
     3
100
AcDbCircle
 10
405.995786
 20
610.156501
 30
0.0
 40
0.300000000000299
100
AcDbArc
 50
350.1305509999224
 51
80.80334399995748
  0
ARC
  5
48B
330
1F
100
AcDbEntity
  8
図
  6
Continuous
 62
     3
100
AcDbCircle
 10
405.072234
 20
610.306029
 30
0.0
 40
0.3000000000000135
100
AcDbArc
 50
80.80334399996094
 51
161.1731690000172
  0
ARC
  5
48C
330
1F
100
AcDbEntity
  8
図
  6
Continuous
 62
     3
100
AcDbCircle
 10
404.527285
 20
610.411989
 30
0.0
 40
1.790559999999922
100
AcDbArc
 50
337.2909080000074
 51
350.1305509999973
  0
ARC
  5
48D
330
1F
100
AcDbEntity
  8
図
  6
DOT_CENTER
 62
     3
100
AcDbCircle
 10
326.975
 20
516.0
 30
0.0
 40
5.0
100
AcDbArc
 50
90.0
 51
180.0
  0
ARC
  5
48E
330
1F
100
AcDbEntity
  8
図
  6
DOT_CENTER
 62
     3
100
AcDbCircle
 10
374.975
 20
516.0
 30
0.0
 40
5.0
100
AcDbArc
 50
0.0
 51
90.0
  0
ARC
  5
48F
330
1F
100
AcDbEntity
  8
図
  6
DOT_CENTER
 62
     3
100
AcDbCircle
 10
350.977556
 20
528.395792
 30
0.0
 40
9.00000000000005
100
AcDbArc
 50
29.99999999999982
 51
150.0000000000002
  0
ARC
  5
490
330
1F
100
AcDbEntity
  8
図
  6
DOT_CENTER
 62
     3
100
AcDbCircle
 10
350.977556
 20
528.395792
 30
0.0
 40
21.00000000000001
100
AcDbArc
 50
256.2258530000012
 51
283.7741469999988
  0
ARC
  5
491
330
1F
100
AcDbEntity
  8
図
  6
DOT_CENTER
 62
     3
100
AcDbCircle
 10
350.977556
 20
528.395792
 30
0.0
 40
13.50000000000007
100
AcDbArc
 50
150.0000000000002
 51
206.2310560000017
  0
ARC
  5
492
330
1F
100
AcDbEntity
  8
図
  6
DOT_CENTER
 62
     3
100
AcDbCircle
 10
350.977556
 20
528.395792
 30
0.0
 40
13.50000000000026
100
AcDbArc
 50
333.768948000001
 51
29.99999999999982
  0
ARC
  5
493
330
1F
100
AcDbEntity
  8
図
  6
Continuous
 62
     3
100
AcDbCircle
 10
351.92502
 20
533.599599
 30
0.0
 40
0.2999999999999545
100
AcDbArc
 50
0.0
 51
90.0
  0
ARC
  5
494
330
1F
100
AcDbEntity
  8
図
  6
Continuous
 62
     3
100
AcDbCircle
 10
350.02502
 20
533.599599
 30
0.0
 40
0.2999999999999545
100
AcDbArc
 50
90.0
 51
180.0
  0
ARC
  5
495
330
1F
100
AcDbEntity
  8
図
  6
Continuous
 62
     3
100
AcDbCircle
 10
350.02502
 20
523.199599
 30
0.0
 40
0.3000000000000114
100
AcDbArc
 50
180.0
 51
270.0
  0
ARC
  5
496
330
1F
100
AcDbEntity
  8
図
  6
Continuous
 62
     3
100
AcDbCircle
 10
351.92502
 20
523.199599
 30
0.0
 40
0.3000000000000682
100
AcDbArc
 50
270.0
 51
0.0
  0
ARC
  5
497
330
1F
100
AcDbEntity
  8
図
  6
Continuous
 62
     3
100
AcDbCircle
 10
474.975
 20
487.0
 30
0.0
 40
5.0
100
AcDbArc
 50
270.0
 51
0.0
  0
ARC
  5
498
330
1F
100
AcDbEntity
  8
図
  6
Continuous
 62
     3
100
AcDbCircle
 10
492.975
 20
501.0
 30
0.0
 40
3.0
100
AcDbArc
 50
270.0
 51
0.0
  0
ARC
  5
499
330
1F
100
AcDbEntity
  8
図
  6
Continuous
 62
     3
100
AcDbCircle
 10
481.975
 20
496.0
 30
0.0
 40
3.0
100
AcDbArc
 50
270.0
 51
0.0
  0
ARC
  5
49A
330
1F
100
AcDbEntity
  8
図
  6
Continuous
 62
     3
100
AcDbCircle
 10
471.575
 20
506.900416
 30
0.0
 40
3.0
100
AcDbArc
 50
270.0
 51
0.0
  0
ARC
  5
49B
330
1F
100
AcDbEntity
  8
図
  6
Continuous
 62
     3
100
AcDbCircle
 10
230.375
 20
506.900416
 30
0.0
 40
3.0
100
AcDbArc
 50
180.0
 51
270.0
  0
ARC
  5
49C
330
1F
100
AcDbEntity
  8
図
  6
Continuous
 62
     3
100
AcDbCircle
 10
226.975
 20
487.0
 30
0.0
 40
5.0
100
AcDbArc
 50
180.0
 51
270.0
  0
ARC
  5
49D
330
1F
100
AcDbEntity
  8
図
  6
Continuous
 62
     3
100
AcDbCircle
 10
219.975
 20
496.0
 30
0.0
 40
3.0
100
AcDbArc
 50
180.0
 51
270.0
  0
ARC
  5
49E
330
1F
100
AcDbEntity
  8
図
  6
Continuous
 62
     3
100
AcDbCircle
 10
208.975
 20
501.0
 30
0.0
 40
3.0
100
AcDbArc
 50
180.0
 51
270.0
  0
ARC
  5
49F
330
1F
100
AcDbEntity
  8
図
  6
Continuous
 62
     3
100
AcDbCircle
 10
492.975
 20
703.0
 30
0.0
 40
3.0
100
AcDbArc
 50
0.0
 51
90.0
  0
ARC
  5
4A0
330
1F
100
AcDbEntity
  8
図
  6
Continuous
 62
     3
100
AcDbCircle
 10
476.975
 20
719.0
 30
0.0
 40
3.0
100
AcDbArc
 50
0.0
 51
90.0
  0
ARC
  5
4A1
330
1F
100
AcDbEntity
  8
図
  6
Continuous
 62
     3
100
AcDbCircle
 10
479.975
 20
706.0
 30
0.0
 40
5.0
100
AcDbArc
 50
0.0
 51
90.0
  0
ARC
  5
4A2
330
1F
100
AcDbEntity
  8
図
  6
Continuous
 62
     3
100
AcDbCircle
 10
471.575
 20
697.100416
 30
0.0
 40
3.0
100
AcDbArc
 50
0.0
 51
90.0
  0
ARC
  5
4A3
330
1F
100
AcDbEntity
  8
図
  6
Continuous
 62
     3
100
AcDbCircle
 10
230.375
 20
697.100416
 30
0.0
 40
3.0
100
AcDbArc
 50
90.0
 51
180.0
  0
ARC
  5
4A4
330
1F
100
AcDbEntity
  8
図
  6
Continuous
 62
     3
100
AcDbCircle
 10
224.975
 20
719.0
 30
0.0
 40
3.0
100
AcDbArc
 50
90.0
 51
180.0
  0
ARC
  5
4A5
330
1F
100
AcDbEntity
  8
図
  6
Continuous
 62
     3
100
AcDbCircle
 10
221.975
 20
706.0
 30
0.0
 40
5.0
100
AcDbArc
 50
90.0
 51
180.0
  0
ARC
  5
4A6
330
1F
100
AcDbEntity
  8
図
  6
Continuous
 62
     3
100
AcDbCircle
 10
208.975
 20
703.0
 30
0.0
 40
3.0
100
AcDbArc
 50
90.0
 51
180.0
  0
ARC
  5
4A7
330
1F
100
AcDbEntity
  8
図
  6
Continuous
 62
     3
100
AcDbCircle
 10
353.475
 20
298.09965
 30
0.0
 40
1.0
100
AcDbArc
 50
0.0
 51
90.0
  0
ARC
  5
4A8
330
1F
100
AcDbEntity
  8
図
  6
Continuous
 62
     3
100
AcDbCircle
 10
348.475
 20
298.09965
 30
0.0
 40
1.0
100
AcDbArc
 50
90.0
 51
180.0
  0
ARC
  5
4A9
330
1F
100
AcDbEntity
  8
図
  6
Continuous
 62
     3
100
AcDbCircle
 10
344.479653
 20
288.6
 30
0.0
 40
2.800000000000456
100
AcDbArc
 50
248.9697669999965
 51
277.4495789999929
  0
ARC
  5
4AA
330
1F
100
AcDbEntity
  8
図
  6
Continuous
 62
     3
100
AcDbCircle
 10
350.974844
 20
283.6
 30
0.0
 40
2.799999999999955
100
AcDbArc
 50
90.0
 51
97.02164499999154
  0
ARC
  5
4AB
330
1F
100
AcDbEntity
  8
図
  6
Continuous
 62
     3
100
AcDbCircle
 10
350.974844
 20
283.6
 30
0.0
 40
3.0
100
AcDbArc
 50
90.0
 51
97.02164500000153
  0
ARC
  5
4AC
330
1F
100
AcDbEntity
  8
図
  6
Continuous
 62
     3
100
AcDbCircle
 10
332.974844
 20
287.6
 30
0.0
 40
1.0
100
AcDbArc
 50
180.0
 51
270.0
  0
ARC
  5
4AD
330
1F
100
AcDbEntity
  8
図
  6
Continuous
 62
     3
100
AcDbCircle
 10
369.974844
 20
306.3
 30
0.0
 40
1.0
100
AcDbArc
 50
90.0
 51
180.0
  0
ARC
  5
4AE
330
1F
100
AcDbEntity
  8
図
  6
Continuous
 62
     3
100
AcDbCircle
 10
343.475068
 20
287.100093
 30
0.0
 40
1.499999999999807
100
AcDbArc
 50
249.5507269999796
 51
270.0
  0
ARC
  5
4AF
330
1F
100
AcDbEntity
  8
図
  6
Continuous
 62
     3
100
AcDbCircle
 10
331.974844
 20
306.3
 30
0.0
 40
1.0
100
AcDbArc
 50
0.0
 51
90.0
  0
ARC
  5
4B0
330
1F
100
AcDbEntity
  8
図
  6
Continuous
 62
     3
100
AcDbCircle
 10
368.974844
 20
287.6
 30
0.0
 40
1.0
100
AcDbArc
 50
270.0
 51
0.0
  0
ARC
  5
4B1
330
1F
100
AcDbEntity
  8
図
  6
Continuous
 62
     3
100
AcDbCircle
 10
346.324844
 20
286.622543
 30
0.0
 40
0.5999999999999659
100
AcDbArc
 50
180.0
 51
277.4495240000415
  0
ARC
  5
4B2
330
1F
100
AcDbEntity
  8
図
  6
Continuous
 62
     3
100
AcDbCircle
 10
344.479653
 20
288.6
 30
0.0
 40
3.000000000000063
100
AcDbArc
 50
250.4313240000072
 51
277.4495790000041
  0
ARC
  5
4B3
330
1F
100
AcDbEntity
  8
図
  6
Continuous
 62
     3
100
AcDbCircle
 10
221.975
 20
307.3
 30
0.0
 40
1.919667000000004
100
AcDbArc
 50
180.0
 51
270.0
  0
ARC
  5
4B4
330
1F
100
AcDbEntity
  8
1
  6
Continuous
 62
     6
100
AcDbCircle
 10
827.15
 20
686.0
 30
0.0
 40
175.0000000000001
100
AcDbArc
 50
220.3985899837911
 51
268.0351882028307
  0
CIRCLE
  5
4B5
330
1F
100
AcDbEntity
  8
1
  6
Continuous
 62
     3
100
AcDbCircle
 10
689.678674548975
 20
313.26475798812
 30
0.0
 40
2.0
  0
CIRCLE
  5
4B6
330
1F
100
AcDbEntity
  8
図
  6
Continuous
 62
     3
100
AcDbCircle
 10
827.15
 20
686.0
 30
0.0
 40
3.0
  0
CIRCLE
  5
4B7
330
1F
100
AcDbEntity
  8
図
  6
Continuous
 62
     3
100
AcDbCircle
 10
350.975
 20
663.666478
 30
0.0
 40
13.21875
  0
CIRCLE
  5
4B8
330
1F
100
AcDbEntity
  8
図
  6
Continuous
 62
     3
100
AcDbCircle
 10
350.975
 20
663.666478
 30
0.0
 40
14.71875
  0
CIRCLE
  5
4B9
330
1F
100
AcDbEntity
  8
図
  6
Continuous
 62
     3
100
AcDbCircle
 10
350.97502
 20
528.399599
 30
0.0
 40
3.5
  0
CIRCLE
  5
4BA
330
1F
100
AcDbEntity
  8
図
  6
Continuous
 62
     3
100
AcDbCircle
 10
350.975
 20
528.4
 30
0.0
 40
10.0
  0
CIRCLE
  5
4BB
330
1F
100
AcDbEntity
  8
図
  6
Continuous
 62
     3
100
AcDbCircle
 10
351.012498
 20
295.09965
 30
0.0
 40
1.25056699999999
  0
SPLINE
  5
4BC
330
1F
100
AcDbEntity
  8
0
  6
Continuous
 62
     3
100
AcDbSpline
210
0.0
220
0.0
230
1.0
 70
     8
 71
     3
 72
    11
 73
     7
 74
     5
 42
0.0000000001
 43
0.0000000001
 44
0.00000001
 40
0.0
 40
0.0
 40
0.0
 40
0.0
 40
0.1961614902117376
 40
0.3923025702464423
 40
0.5082976968850361
 40
0.6249823853600581
 40
0.6249823853600581
 40
0.6249823853600581
 40
0.6249823853600581
 10
693.278674548975
 20
280.936921795534
 30
0.0
 10
693.2773330355667
 20
281.0025210018546
 30
0.0
 10
693.274650148332
 20
281.133712589041
 30
0.0
 10
693.2500459269936
 20
281.2995307234685
 30
0.0
 10
693.1811385079843
 20
281.4380854239214
 30
0.0
 10
693.1015034930541
 20
281.4558495849697
 30
0.0
 10
693.061567983804
 20
281.46475798812
 30
0.0
 11
693.278674548975
 21
280.936921795534
 31
0.0
 11
693.2705729411206
 21
281.1329159132831
 31
0.0
 11
693.2323270947443
 21
281.325292051388
 31
0.0
 11
693.1707504218377
 21
281.4235935404798
 31
0.0
 11
693.061567983804
 21
281.46475798812
 31
0.0
  0
SPLINE
  5
4BD
330
1F
100
AcDbEntity
  8
0
  6
Continuous
 62
     3
100
AcDbSpline
210
0.0
220
0.0
230
1.0
 70
     8
 71
     3
 72
    11
 73
     7
 74
     5
 42
0.0000000001
 43
0.0000000001
 44
0.00000001
 40
0.0
 40
0.0
 40
0.0
 40
0.0
 40
0.1167983502355437
 40
0.232909777516028
 40
0.4289207617308103
 40
0.6249549431857089
 40
0.6249549431857089
 40
0.6249549431857089
 40
0.6249549431857089
 10
693.061589247703
 20
278.064757989257
 30
0.0
 10
693.1015613212339
 20
278.0736947249436
 30
0.0
 10
693.181270381629
 20
278.091515636937
 30
0.0
 10
693.2500749911271
 20
278.2301698544067
 30
0.0
 10
693.2746609239546
 20
278.3959284665151
 30
0.0
 10
693.2773366211948
 20
278.5270363567499
 30
0.0
 10
693.278674548975
 20
278.592594180682
 30
0.0
 11
693.061589247703
 21
278.064757989257
 31
0.0
 11
693.170856122071
 21
278.1060206210634
 31
0.0
 11
693.2324189636296
 21
278.2044679678247
 31
0.0
 11
693.270587167649
 21
278.3967268925454
 31
0.0
 11
693.278674548975
 21
278.592594180682
 31
0.0
  0
SPLINE
  5
4BE
330
1F
100
AcDbEntity
  8
0
  6
Continuous
 62
     3
100
AcDbSpline
210
0.0
220
0.0
230
1.0
 70
     8
 71
     3
 72
    39
 73
    35
 74
    33
 42
0.0000000001
 43
0.0000000001
 44
0.00000001
 40
0.0
 40
0.0
 40
0.0
 40
0.0
 40
0.0898935049261231
 40
0.1793721519186592
 40
0.2387258476027366
 40
0.2981587022041665
 40
0.3672964587011788
 40
0.4363694828662029
 40
0.574631632196124
 40
0.7130664481965192
 40
0.8861449095932262
 40
1.059139668348681
 40
1.128008820847556
 40
1.196880745156636
 40
1.317365125285942
 40
1.437848889531236
 40
1.630516836649396
 40
1.823185631929267
 40
2.016197515761199
 40
2.209208549829585
 40
2.329743837207984
 40
2.450279743747469
 40
2.518969717195356
 40
2.587656909777502
 40
2.760817538133022
 40
2.934062375875966
 40
3.072598749828304
 40
3.210961417708645
 40
3.279977827708799
 40
3.349059130683639
 40
3.408450716763136
 40
3.467762571048884
 40
3.557169299104415
 40
3.646990158900918
 40
3.646990158900918
 40
3.646990158900918
 40
3.646990158900918
 10
694.753014701219
 20
278.06475798812
 30
0.0
 10
694.7834034831375
 20
278.0691438243128
 30
0.0
 10
694.8440408029458
 20
278.0778952560931
 30
0.0
 10
694.903362225097
 20
278.1369922509112
 30
0.0
 10
694.9409644583999
 20
278.1950337560939
 30
0.0
 10
694.9668750410759
 20
278.2523721697297
 30
0.0
 10
694.988398903499
 20
278.3146704248508
 30
0.0
 10
695.0117808745458
 20
278.4038891900148
 30
0.0
 10
695.0324376662162
 20
278.5174296066045
 30
0.0
 10
695.0491563908536
 20
278.6664732234308
 30
0.0
 10
695.0608379955759
 20
278.8275869586574
 30
0.0
 10
695.0666419689729
 20
278.9657922981883
 30
0.0
 10
695.0697720356143
 20
279.0693235195237
 30
0.0
 10
695.0718651226063
 20
279.1553737944683
 30
0.0
 10
695.073650510134
 20
279.2586394705706
 30
0.0
 10
695.0752292256107
 20
279.4031767138945
 30
0.0
 10
695.0762421785837
 20
279.5717813425405
 30
0.0
 10
695.0765303630501
 20
279.7645643673696
 30
0.0
 10
695.076243643446
 20
279.957461758481
 30
0.0
 10
695.0752296563302
 20
280.1263122881146
 30
0.0
 10
695.0736493129293
 20
280.2709982350834
 30
0.0
 10
695.0718636508445
 20
280.3742376058271
 30
0.0
 10
695.069772139733
 20
280.4601837576926
 30
0.0
 10
695.0666445331332
 20
280.5636490054805
 30
0.0
 10
695.060840776609
 20
280.7019045131914
 30
0.0
 10
695.0491472035122
 20
280.8631624635794
 30
0.0
 10
695.0324071833609
 20
281.0123274325759
 30
0.0
 10
695.0117221452881
 20
281.1259127262091
 30
0.0
 10
694.988315353028
 20
281.2151206843748
 30
0.0
 10
694.9667872880418
 20
281.2773632162458
 30
0.0
 10
694.9408728947135
 20
281.3346485705034
 30
0.0
 10
694.903271554296
 20
281.3926305737617
 30
0.0
 10
694.843966150629
 20
281.451645378417
 30
0.0
 10
694.7833785165731
 20
281.4603803903751
 30
0.0
 10
694.753014701219
 20
281.46475798812
 30
0.0
 11
694.753014701219
 21
278.06475798812
 31
0.0
 11
694.8401462463873
 21
278.0868698868279
 31
0.0
 11
694.9071930897469
 21
278.146124836521
 31
0.0
 11
694.9396846394886
 21
278.1957953548064
 31
0.0
 11
694.964740900434
 21
278.249688285637
 31
0.0
 11
694.9875644979198
 21
278.314950164029
 31
0.0
 11
695.0053579901867
 21
278.3816920122222
 31
0.0
 11
695.0308680256327
 21
278.5175804224303
 31
0.0
 11
695.0470651319099
 21
278.6550644288794
 31
0.0
 11
695.0599637808214
 21
278.8276615860278
 31
0.0
 11
695.0676140740613
 21
279.0004871037334
 31
0.0
 11
695.069704261713
 21
279.0693245301924
 31
0.0
 11
695.0713880687456
 21
279.138175868247
 31
0.0
 11
695.0735227010274
 21
279.2586413371589
 31
0.0
 11
695.0748904956547
 21
279.3791173371945
 31
0.0
 11
695.0760972615038
 21
279.5717815050174
 31
0.0
 11
695.0764345449229
 21
279.7644500050752
 31
0.0
 11
695.0760982799425
 21
279.9574615959867
 31
0.0
 11
695.0748898540319
 21
280.1504688470914
 31
0.0
 11
695.0735213078176
 21
280.2709963650474
 31
0.0
 11
695.0713847480405
 21
280.3915133342991
 31
0.0
 11
695.0697047235121
 21
280.4601827595906
 31
0.0
 11
695.0676204652102
 21
280.5288383223087
 31
0.0
 11
695.0599649772478
 21
280.701829642081
 31
0.0
 11
695.0470516136988
 21
280.8745925398525
 31
0.0
 11
695.0308336008943
 21
281.0121763432908
 31
0.0
 11
695.005279684793
 21
281.1481587878741
 31
0.0
 11
694.9874812165024
 21
281.2148407147795
 31
0.0
 11
694.9646541022856
 21
281.2800415527897
 31
0.0
 11
694.9395936402408
 21
281.3338870144289
 31
0.0
 11
694.9071020203519
 21
281.3835074809302
 31
0.0
 11
694.8400805390761
 21
281.442682510032
 31
0.0
 11
694.753014701219
 21
281.46475798812
 31
0.0
  0
SPLINE
  5
4BF
330
1F
100
AcDbEntity
  8
0
  6
Continuous
 62
     3
100
AcDbSpline
210
0.0
220
0.0
230
1.0
 70
     8
 71
     3
 72
    15
 73
    11
 74
     9
 42
0.0000000001
 43
0.0000000001
 44
0.00000001
 40
0.0
 40
0.0
 40
0.0
 40
0.0
 40
0.1722657229988157
 40
0.3444836538537195
 40
0.4829266501631424
 40
0.6214622571374263
 40
0.8189575159470518
 40
1.016425137288762
 40
1.35164203304538
 40
1.687337903212297
 40
1.687337903212297
 40
1.687337903212297
 40
1.687337903212297
 10
689.678674573453
 20
281.182756033712
 30
0.0
 10
689.7259348680052
 20
281.1500612112576
 30
0.0
 10
689.8204423455586
 20
281.0846806369615
 30
0.0
 10
689.9407638282289
 20
280.9771412838365
 30
0.0
 10
690.0440152532676
 20
280.868551322774
 30
0.0
 10
690.1434613389276
 20
280.7453674687101
 30
0.0
 10
690.2415934183443
 20
280.5964847901512
 30
0.0
 10
690.3507931086209
 20
280.3787195332229
 30
0.0
 10
690.4428122722899
 20
280.1008544172138
 30
0.0
 10
690.4561520519516
 20
279.8768434393862
 30
0.0
 10
690.462826703514
 20
279.76475798812
 30
0.0
 11
689.678674573453
 21
281.182756033712
 31
0.0
 11
689.818285066102
 21
281.081838296606
 31
0.0
 11
689.9473369948558
 21
280.9678005160555
 31
0.0
 11
690.0425916142185
 21
280.8673364890747
 31
0.0
 11
690.1296387758564
 21
280.7595640155459
 31
0.0
 11
690.2382024417999
 21
280.594584296522
 31
0.0
 11
690.3270019317347
 21
280.418209377484
 31
0.0
 11
690.4283435139808
 21
280.0986780786907
 31
0.0
 11
690.462826703514
 21
279.76475798812
 31
0.0
  0
SPLINE
  5
4C0
330
1F
100
AcDbEntity
  8
0
  6
Continuous
 62
     3
100
AcDbSpline
210
0.0
220
0.0
230
1.0
 70
     8
 71
     3
 72
    15
 73
    11
 74
     9
 42
0.0000000001
 43
0.0000000001
 44
0.00000001
 40
0.0
 40
0.0
 40
0.0
 40
0.0
 40
0.2668972848537791
 40
0.5338893242056714
 40
0.6729461714075554
 40
0.812045838132142
 40
1.009780035867162
 40
1.207541910314376
 40
1.545360970492096
 40
1.883180289960219
 40
1.883180289960219
 40
1.883180289960219
 40
1.883180289960219
 10
689.837489868651
 20
281.274793752275
 30
0.0
 10
689.9152508455101
 20
281.2312567264188
 30
0.0
 10
690.0708004061125
 20
281.14416721809
 30
0.0
 10
690.2438346851357
 20
280.9993462204887
 30
0.0
 10
690.3705935073197
 20
280.8690416296811
 30
0.0
 10
690.4718523533643
 20
280.7467199751613
 30
0.0
 10
690.5722180362667
 20
280.5988986246346
 30
0.0
 10
690.6848416457103
 20
280.3817221711697
 30
0.0
 10
690.7807694490765
 20
280.1031804817524
 30
0.0
 10
690.7947934110034
 20
279.8775655112516
 30
0.0
 10
690.801805394658
 20
279.764757982709
 30
0.0
 11
689.837489868651
 21
281.274793752275
 31
0.0
 11
690.0662066973813
 21
281.1372336820588
 31
0.0
 11
690.2724105115883
 21
280.9676319837072
 31
0.0
 11
690.3692109864511
 21
280.8677997503351
 31
0.0
 11
690.457938088061
 21
280.7606726355471
 31
0.0
 11
690.5688357953493
 21
280.5969640179605
 31
0.0
 11
690.6601367813138
 21
280.4215391367526
 31
0.0
 11
690.7657236460154
 21
280.1006448684619
 31
0.0
 11
690.801805394658
 21
279.764757982709
 31
0.0
  0
SPLINE
  5
4C1
330
1F
100
AcDbEntity
  8
0
  6
Continuous
 62
     3
100
AcDbSpline
210
0.0
220
0.0
230
1.0
 70
     8
 71
     3
 72
    19
 73
    15
 74
    13
 42
0.0000000001
 43
0.0000000001
 44
0.00000001
 40
0.0
 40
0.0
 40
0.0
 40
0.0
 40
0.2679127468308202
 40
0.5358301379445192
 40
0.6869294738015603
 40
0.8380260619325364
 40
1.00536779605221
 40
1.172709738897395
 40
1.340210880366439
 40
1.507711817385963
 40
1.658923021393579
 40
1.810136980653207
 40
2.077907070758852
 40
2.345672520075189
 40
2.345672520075189
 40
2.345672520075189
 40
2.345672520075189
 10
693.278674548975
 20
278.592594180682
 30
0.0
 10
693.2768724747825
 20
278.6818872912689
 30
0.0
 10
693.2732682951585
 20
278.8604750603441
 30
0.0
 10
693.2606774132315
 20
279.0891305993047
 30
0.0
 10
693.2523406423036
 20
279.2789843537547
 30
0.0
 10
693.2467214719697
 20
279.4353991794071
 30
0.0
 10
693.2429832238427
 20
279.5972882027522
 30
0.0
 10
693.2415991332037
 20
279.7646845306274
 30
0.0
 10
693.2429810158135
 20
279.9321339639586
 30
0.0
 10
693.2467223602332
 20
280.0941673086444
 30
0.0
 10
693.2523477435204
 20
280.2507114824785
 30
0.0
 10
693.2606877353136
 20
280.4405924257318
 30
0.0
 10
693.2732737949013
 20
280.6691881408402
 30
0.0
 10
693.2768743080175
 20
280.8476777595484
 30
0.0
 10
693.278674548975
 20
280.936921795534
 30
0.0
 11
693.278674548975
 21
278.592594180682
 31
0.0
 11
693.2717140610337
 21
278.8604164940206
 31
0.0
 11
693.2591711228754
 21
279.1280401162282
 31
0.0
 11
693.2525412300843
 21
279.2789939297542
 31
0.0
 11
693.247222170216
 21
279.4299968653115
 31
0.0
 11
693.2433964931671
 21
279.5972948634266
 31
0.0
 11
693.2420601295283
 21
279.7646314702029
 31
0.0
 11
693.2433950789149
 21
279.9321272919525
 31
0.0
 11
693.2472241212276
 21
280.0995844576319
 31
0.0
 11
693.2525484999047
 21
280.2507018927913
 31
0.0
 11
693.2591848692235
 21
280.4017701557628
 31
0.0
 11
693.2717202910515
 21
280.6692466675443
 31
0.0
 11
693.278674548975
 21
280.936921795534
 31
0.0
  0
SPLINE
  5
4C2
330
1F
100
AcDbEntity
  8
0
  6
Continuous
 62
     3
100
AcDbSpline
210
0.0
220
0.0
230
1.0
 70
    24
 71
     3
 72
     9
 73
     5
 74
     3
 42
0.0000000001
 43
0.0000000001
 44
0.00000001
 40
0.0
 40
0.0
 40
0.0
 40
0.0
 40
0.0000577226438851
 40
0.0001154452878839
 40
0.0001154452878839
 40
0.0001154452878839
 40
0.0001154452878839
 10
694.752899255972
 20
278.064757890883
 30
0.0
 10
694.7529184968464
 20
278.0647579070892
 30
0.0
 10
694.7529569785953
 20
278.0647579395015
 30
0.0
 10
694.7529954603444
 20
278.0647579719138
 30
0.0
 10
694.753014701219
 20
278.06475798812
 30
0.0
 11
694.752899255972
 21
278.064757890883
 31
0.0
 11
694.7529569785954
 21
278.0647579395015
 31
0.0
 11
694.753014701219
 21
278.06475798812
 31
0.0
  0
SPLINE
  5
4C3
330
1F
100
AcDbEntity
  8
0
  6
Continuous
 62
     3
100
AcDbSpline
210
0.0
220
0.0
230
1.0
 70
     8
 71
     3
 72
    19
 73
    15
 74
    13
 42
0.0000000001
 43
0.0000000001
 44
0.00000001
 40
0.0
 40
0.0
 40
0.0
 40
0.0
 40
0.3317821446406295
 40
0.6635692518383396
 40
0.8315275209426434
 40
0.9994850087313019
 40
1.167721082186509
 40
1.335958445307826
 40
1.503987861860217
 40
1.672007817308962
 40
1.839876291822668
 40
2.007782709320237
 40
2.343604683951306
 40
2.679046435758065
 40
2.679046435758065
 40
2.679046435758065
 40
2.679046435758065
 10
690.616374708377
 20
281.46475798812
 30
0.0
 10
690.5056195023909
 20
281.4583173265056
 30
0.0
 10
690.2841074338229
 20
281.445435906942
 30
0.0
 10
690.0172069423036
 20
281.3606412474566
 30
0.0
 10
689.815474022499
 20
281.2664233230606
 30
0.0
 10
689.6706007440041
 20
281.1806433757918
 30
0.0
 10
689.5344642797171
 20
281.081554308685
 30
0.0
 10
689.4083419841076
 20
280.9699257988783
 30
0.0
 10
689.2935231494946
 20
280.8467958072278
 30
0.0
 10
689.1911700555182
 20
280.7133020351196
 30
0.0
 10
689.1021864479022
 20
280.5704910966846
 30
0.0
 10
689.0035387403703
 20
280.3694291344779
 30
0.0
 10
688.9145915410284
 20
280.1008695488444
 30
0.0
 10
688.9012095833264
 20
279.8767528580248
 30
0.0
 10
688.894522394436
 20
279.764757985642
 30
0.0
 11
690.616374708377
 21
281.46475798812
 31
0.0
 11
690.2862396019149
 21
281.4317397661266
 31
0.0
 11
689.9687732238509
 21
281.3353147522475
 31
0.0
 11
689.8167141079784
 21
281.2639844961104
 31
0.0
 11
689.6721474577074
 21
281.1784847807091
 31
0.0
 11
689.5361375655716
 21
281.0794661680505
 31
0.0
 11
689.4101676462217
 21
280.9679520892578
 31
0.0
 11
689.2955853762859
 21
280.845050550442
 31
0.0
 11
689.1933655449574
 21
280.7117020914627
 31
0.0
 11
689.104689186951
 21
280.5691667335115
 31
0.0
 11
689.030491649879
 21
280.4185437255435
 31
0.0
 11
688.9290096372338
 21
280.0984221865078
 31
0.0
 11
688.894522394436
 21
279.764757985642
 31
0.0
  0
LWPOLYLINE
  5
4C4
330
1F
100
AcDbEntity
  8
図
  6
Continuous
 62
     3
100
AcDbPolyline
 90
        7
 70
     0
 43
0.0
 10
855.381089
 20
532.4
 10
855.703465
 20
530.4
 10
855.809703
 20
529.4
 10
855.85
 20
528.4
 10
855.809703
 20
527.4
 10
855.703465
 20
526.4
 10
855.381089
 20
524.4
  0
LWPOLYLINE
  5
4C5
330
1F
100
AcDbEntity
  8
図
  6
Continuous
 62
     3
100
AcDbPolyline
 90
        7
 70
     0
 43
0.0
 10
849.818911
 20
532.4
 10
849.496535
 20
530.4
 10
849.390297
 20
529.4
 10
849.35
 20
528.4
 10
849.390297
 20
527.4
 10
849.496535
 20
526.4
 10
849.818911
 20
524.4
  0
LWPOLYLINE
  5
4C6
330
1F
100
AcDbEntity
  8
図
  6
DOT_CENTER
 62
     6
100
AcDbPolyline
 90
        7
 70
     0
 43
0.0
 10
809.15
 20
663.331089
 10
807.15
 20
663.653466
 10
806.15
 20
663.759703
 10
805.15
 20
663.8
 10
804.15
 20
663.759703
 10
803.15
 20
663.653466
 10
801.15
 20
663.331089
  0
LWPOLYLINE
  5
4C7
330
1F
100
AcDbEntity
  8
図
  6
DOT_CENTER
 62
     6
100
AcDbPolyline
 90
        7
 70
     0
 43
0.0
 10
809.15
 20
657.768912
 10
807.15
 20
657.446535
 10
806.15
 20
657.340297
 10
805.15
 20
657.3
 10
804.15
 20
657.340297
 10
803.15
 20
657.446535
 10
801.15
 20
657.768912
  0
LWPOLYLINE
  5
4C8
330
1F
100
AcDbEntity
  8
図
  6
DOT_CENTER
 62
     6
100
AcDbPolyline
 90
        7
 70
     0
 43
0.0
 10
708.244042015114
 20
584.751160427026
 10
706.67317970827
 20
583.471973754539
 10
705.860273304821
 20
582.879968947231
 10
705.01439640134
 20
582.345070721055
 10
704.12822249782
 20
581.879968946249
 10
703.209078094267
 20
581.471973752575
 10
701.315838787107
 20
580.751160423097
  0
LWPOLYLINE
  5
4C9
330
1F
100
AcDbEntity
  8
図
  6
DOT_CENTER
 62
     6
100
AcDbPolyline
 90
        7
 70
     0
 43
0.0
 10
705.462953512382
 20
589.568147007794
 10
703.569714205222
 20
588.847333678316
 10
702.650570301669
 20
588.439337618617
 10
701.764396398148
 20
587.974235843811
 10
700.918519494667
 20
587.439337617635
 10
700.105612591218
 20
586.847333676352
 10
698.534750284375
 20
585.568147003865
  0
LWPOLYLINE
  5
4CA
330
1F
100
AcDbEntity
  8
図
  6
Continuous
 62
     3
100
AcDbPolyline
 90
       15
 70
     0
 43
0.0
 10
344.474996
 20
276.181
 10
344.556479
 20
276.051715
 10
344.79684
 20
275.928914
 10
345.184027
 20
275.818752
 10
345.698626
 20
275.726756
 10
346.314831
 20
275.657537
 10
347.001744
 20
275.614567
 10
347.72492
 20
275.6
 10
348.448096
 20
275.614567
 10
349.135009
 20
275.657537
 10
349.751214
 20
275.726756
 10
350.265813
 20
275.818752
 10
350.653
 20
275.928914
 10
350.893362
 20
276.051715
 10
350.974844
 20
276.181
  0
LWPOLYLINE
  5
4CB
330
1F
100
AcDbEntity
  8
図
  6
Continuous
 62
     3
100
AcDbPolyline
 90
       15
 70
     0
 43
0.0
 10
357.474728
 20
276.180593
 10
357.393238
 20
276.051313
 10
357.152869
 20
275.928527
 10
356.765674
 20
275.81839
 10
356.25107
 20
275.726425
 10
355.634861
 20
275.657245
 10
354.947945
 20
275.614318
 10
354.224768
 20
275.599796
 10
353.501593
 20
275.614409
 10
352.814682
 20
275.657422
 10
352.198481
 20
275.726679
 10
351.683889
 20
275.818708
 10
351.296708
 20
275.928893
 10
351.056355
 20
276.05171
 10
350.97488
 20
276.181
  0
LWPOLYLINE
  5
4CC
330
1F
100
AcDbEntity
  8
図
  6
Continuous
 62
     3
100
AcDbPolyline
 90
       15
 70
     0
 43
0.0
 10
357.474728
 20
281.519407
 10
357.393238
 20
281.648687
 10
357.152869
 20
281.771473
 10
356.765674
 20
281.88161
 10
356.25107
 20
281.973575
 10
355.634861
 20
282.042755
 10
354.947945
 20
282.085682
 10
354.224768
 20
282.100204
 10
353.501593
 20
282.085591
 10
352.814682
 20
282.042578
 10
352.198481
 20
281.973321
 10
351.683889
 20
281.881292
 10
351.296708
 20
281.771107
 10
351.056355
 20
281.64829
 10
350.97488
 20
281.519
  0
LWPOLYLINE
  5
4CD
330
1F
100
AcDbEntity
  8
図
  6
Continuous
 62
     3
100
AcDbPolyline
 90
       15
 70
     0
 43
0.0
 10
344.474996
 20
281.519
 10
344.556479
 20
281.648285
 10
344.79684
 20
281.771086
 10
345.184027
 20
281.881248
 10
345.698626
 20
281.973244
 10
346.314831
 20
282.042463
 10
347.001744
 20
282.085433
 10
347.72492
 20
282.1
 10
348.448096
 20
282.085433
 10
349.135009
 20
282.042463
 10
349.751214
 20
281.973244
 10
350.265813
 20
281.881248
 10
350.653
 20
281.771086
 10
350.893362
 20
281.648285
 10
350.974844
 20
281.519
  0
ENDSEC
  0
SECTION
  2
OBJECTS
  0
DICTIONARY
  5
C
330
0
100
AcDbDictionary
281
     1
  3
ACAD_GROUP
350
D
  3
ACAD_LAYOUT
350
1A
  3
ACAD_MATERIAL
350
3B
  3
ACAD_MLEADERSTYLE
350
4D0
  3
ACAD_MLINESTYLE
350
17
  3
ACAD_PLOTSETTINGS
350
19
  3
ACAD_PLOTSTYLENAME
350
E
  3
ACAD_VISUALSTYLE
350
2A
  3
AcDbVariableDictionary
350
4CE
  0
DICTIONARY
  5
D
102
{ACAD_REACTORS
330
C
102
}
330
C
100
AcDbDictionary
281
     1
  0
DICTIONARY
  5
1A
102
{ACAD_REACTORS
330
C
102
}
330
C
100
AcDbDictionary
281
     1
  3
Layout1
350
1E
  3
Layout2
350
26
  3
Model
350
22
  0
DICTIONARY
  5
3B
102
{ACAD_REACTORS
330
C
102
}
330
C
100
AcDbDictionary
281
     1
  3
ByBlock
350
3D
  3
ByLayer
350
3C
  3
Global
350
3E
  0
DICTIONARY
  5
4D0
102
{ACAD_REACTORS
330
C
102
}
330
C
100
AcDbDictionary
281
     1
  0
DICTIONARY
  5
17
102
{ACAD_REACTORS
330
C
102
}
330
C
100
AcDbDictionary
281
     1
  3
Standard
350
18
  0
DICTIONARY
  5
19
102
{ACAD_REACTORS
330
C
102
}
330
C
100
AcDbDictionary
281
     1
  0
ACDBDICTIONARYWDFLT
  5
E
102
{ACAD_REACTORS
330
C
102
}
330
C
100
AcDbDictionary
281
     1
  3
Normal
350
F
100
AcDbDictionaryWithDefault
340
F
  0
DICTIONARY
  5
2A
102
{ACAD_REACTORS
330
C
102
}
330
C
100
AcDbDictionary
281
     1
  3
2dWireframe
350
2F
  3
3D Hidden
350
31
  3
3dWireframe
350
30
  3
Basic
350
32
  3
Brighten
350
36
  3
ColorChange
350
3A
  3
Conceptual
350
34
  3
Dim
350
35
  3
Facepattern
350
39
  3
Flat
350
2B
  3
FlatWithEdges
350
2C
  3
Gouraud
350
2D
  3
GouraudWithEdges
350
2E
  3
Linepattern
350
38
  3
Realistic
350
33
  3
Thicken
350
37
  0
DICTIONARY
  5
4CE
102
{ACAD_REACTORS
330
C
102
}
330
C
100
AcDbDictionary
281
     1
  3
DIMASSOC
350
4D1
  3
HIDETEXT
350
4D2
  0
LAYOUT
  5
1E
102
{ACAD_REACTORS
330
1A
102
}
330
1A
100
AcDbPlotSettings
  1

  2
none_device
  4

  6

 40
0.0
 41
0.0
 42
0.0
 43
0.0
 44
0.0
 45
0.0
 46
0.0
 47
0.0
 48
0.0
 49
0.0
140
0.0
141
0.0
142
1.0
143
1.0
 70
   688
 72
     0
 73
     0
 74
     5
  7

 75
    16
147
1.0
148
0.0
149
0.0
100
AcDbLayout
  1
Layout1
 70
     1
 71
     1
 10
0.0
 20
0.0
 11
12.0
 21
9.0
 12
0.0
 22
0.0
 32
0.0
 14
1.00000000000000E+20
 24
1.00000000000000E+20
 34
1.00000000000000E+20
 15
-1.00000000000000E+20
 25
-1.00000000000000E+20
 35
-1.00000000000000E+20
146
0.0
 13
0.0
 23
0.0
 33
0.0
 16
1.0
 26
0.0
 36
0.0
 17
0.0
 27
1.0
 37
0.0
 76
     0
330
1B
  0
LAYOUT
  5
26
102
{ACAD_REACTORS
330
1A
102
}
330
1A
100
AcDbPlotSettings
  1

  2
none_device
  4

  6

 40
0.0
 41
0.0
 42
0.0
 43
0.0
 44
0.0
 45
0.0
 46
0.0
 47
0.0
 48
0.0
 49
0.0
140
0.0
141
0.0
142
1.0
143
1.0
 70
   688
 72
     0
 73
     0
 74
     5
  7

 75
    16
147
1.0
148
0.0
149
0.0
100
AcDbLayout
  1
Layout2
 70
     1
 71
     2
 10
0.0
 20
0.0
 11
0.0
 21
0.0
 12
0.0
 22
0.0
 32
0.0
 14
0.0
 24
0.0
 34
0.0
 15
0.0
 25
0.0
 35
0.0
146
0.0
 13
0.0
 23
0.0
 33
0.0
 16
1.0
 26
0.0
 36
0.0
 17
0.0
 27
1.0
 37
0.0
 76
     0
330
23
  0
LAYOUT
  5
22
102
{ACAD_REACTORS
330
1A
102
}
330
1A
100
AcDbPlotSettings
  1

  2
none_device
  4

  6

 40
0.0
 41
0.0
 42
0.0
 43
0.0
 44
0.0
 45
0.0
 46
0.0
 47
0.0
 48
0.0
 49
0.0
140
0.0
141
0.0
142
1.0
143
1.0
 70
  1712
 72
     0
 73
     0
 74
     0
  7

 75
     0
147
1.0
148
0.0
149
0.0
100
AcDbLayout
  1
Model
 70
     1
 71
     0
 10
0.0
 20
0.0
 11
12.0
 21
9.0
 12
0.0
 22
0.0
 32
0.0
 14
201.3
 24
98.2
 34
0.0
 15
1300.18535251538
 25
805.886836221096
 35
0.0
146
0.0
 13
0.0
 23
0.0
 33
0.0
 16
1.0
 26
0.0
 36
0.0
 17
0.0
 27
1.0
 37
0.0
 76
     0
330
1F
331
29
  0
MATERIAL
  5
3D
102
{ACAD_REACTORS
330
3B
102
}
102
{ACAD_XDICTIONARY
360
4F5
102
}
330
3B
100
AcDbMaterial
  1
ByBlock
  0
MATERIAL
  5
3C
102
{ACAD_REACTORS
330
3B
102
}
102
{ACAD_XDICTIONARY
360
4F3
102
}
330
3B
100
AcDbMaterial
  1
ByLayer
  0
MATERIAL
  5
3E
102
{ACAD_REACTORS
330
3B
102
}
102
{ACAD_XDICTIONARY
360
4F7
102
}
330
3B
100
AcDbMaterial
  1
Global
  0
MLINESTYLE
  5
18
102
{ACAD_REACTORS
330
17
102
}
330
17
100
AcDbMlineStyle
  2
Standard
 70
     0
  3

 62
   256
 51
90.0
 52
90.0
 71
     2
 49
0.5
 62
   256
  6
BYLAYER
 49
-0.5
 62
   256
  6
BYLAYER
  0
ACDBPLACEHOLDER
  5
F
102
{ACAD_REACTORS
330
E
102
}
330
E
  0
VISUALSTYLE
  5
2F
102
{ACAD_REACTORS
330
2A
102
}
102
{ACAD_XDICTIONARY
360
4DB
102
}
330
2A
100
AcDbVisualStyle
  2
2dWireframe
 70
     4
 71
     0
 72
     2
 73
     0
 90
        0
 40
-0.6
 41
-30.0
 62
     5
 63
     7
 74
     1
 91
        4
 64
     7
 65
   257
 75
     1
175
     1
 42
1.0
 92
        0
 66
   257
 43
1.0
 76
     1
 77
     6
 78
     2
 67
     7
 79
     5
170
     0
171
     0
290
     0
174
     0
 93
        1
 44
0.0
173
     0
291
     0
 45
0.0
1001
ACAD
1000
AcDbSavedByObjectVersion
1070
     0
  0
VISUALSTYLE
  5
31
102
{ACAD_REACTORS
330
2A
102
}
102
{ACAD_XDICTIONARY
360
4DF
102
}
330
2A
100
AcDbVisualStyle
  2
3D Hidden
 70
     6
 71
     1
 72
     2
 73
     2
 90
        0
 40
-0.6
 41
-30.0
 62
     5
 63
     7
 74
     2
 91
        2
 64
     7
 65
   257
 75
     2
175
     1
 42
40.0
 92
        0
 66
   257
 43
1.0
 76
     1
 77
     6
 78
     2
 67
     7
 79
     3
170
     0
171
     0
290
     0
174
     0
 93
        1
 44
0.0
173
     0
291
     0
 45
0.0
1001
ACAD
1000
AcDbSavedByObjectVersion
1070
     0
  0
VISUALSTYLE
  5
30
102
{ACAD_REACTORS
330
2A
102
}
102
{ACAD_XDICTIONARY
360
4DD
102
}
330
2A
100
AcDbVisualStyle
  2
3dWireframe
 70
     5
 71
     0
 72
     2
 73
     0
 90
        0
 40
-0.6
 41
-30.0
 62
     5
 63
     7
 74
     1
 91
        4
 64
     7
 65
   257
 75
     1
175
     1
 42
1.0
 92
        0
 66
   257
 43
1.0
 76
     1
 77
     6
 78
     2
 67
     7
 79
     5
170
     0
171
     0
290
     0
174
     0
 93
        1
 44
0.0
173
     0
291
     0
 45
0.0
1001
ACAD
1000
AcDbSavedByObjectVersion
1070
     0
  0
VISUALSTYLE
  5
32
102
{ACAD_REACTORS
330
2A
102
}
102
{ACAD_XDICTIONARY
360
4E1
102
}
330
2A
100
AcDbVisualStyle
  2
Basic
 70
     7
 71
     1
 72
     0
 73
     1
 90
        0
 40
-0.6
 41
-30.0
 62
     5
 63
     7
 74
     0
 91
        4
 64
     7
 65
   257
 75
     1
175
     1
 42
1.0
 92
        8
 66
     7
 43
1.0
 76
     1
 77
     6
 78
     2
 67
     7
 79
     5
170
     0
171
     0
290
     0
174
     0
 93
        1
 44
0.0
173
     0
291
     1
 45
0.0
1001
ACAD
1000
AcDbSavedByObjectVersion
1070
     0
  0
VISUALSTYLE
  5
36
102
{ACAD_REACTORS
330
2A
102
}
102
{ACAD_XDICTIONARY
360
4E9
102
}
330
2A
100
AcDbVisualStyle
  2
Brighten
 70
    12
 71
     2
 72
     2
 73
     0
 90
        0
 40
-0.6
 41
-30.0
 62
     5
 63
     7
 74
     1
 91
        4
 64
     7
 65
   257
 75
     1
175
     1
 42
1.0
 92
        8
 66
     7
 43
1.0
 76
     1
 77
     6
 78
     2
 67
     7
 79
     5
170
     0
171
     0
290
     0
174
     0
 93
        1
 44
50.0
173
     0
291
     1
 45
0.0
1001
ACAD
1000
AcDbSavedByObjectVersion
1070
     0
  0
VISUALSTYLE
  5
3A
102
{ACAD_REACTORS
330
2A
102
}
102
{ACAD_XDICTIONARY
360
4F1
102
}
330
2A
100
AcDbVisualStyle
  2
ColorChange
 70
    16
 71
     2
 72
     2
 73
     3
 90
        0
 40
-0.6
 41
-30.0
 62
     5
 63
     8
 74
     1
 91
        4
 64
     7
 65
   257
 75
     1
175
     1
 42
1.0
 92
        8
 66
     8
 43
1.0
 76
     1
 77
     6
 78
     2
 67
     7
 79
     5
170
     0
171
     0
290
     0
174
     0
 93
        1
 44
0.0
173
     0
291
     1
 45
0.0
1001
ACAD
1000
AcDbSavedByObjectVersion
1070
     0
  0
VISUALSTYLE
  5
34
102
{ACAD_REACTORS
330
2A
102
}
102
{ACAD_XDICTIONARY
360
4E5
102
}
330
2A
100
AcDbVisualStyle
  2
Conceptual
 70
     9
 71
     3
 72
     2
 73
     0
 90
        0
 40
-0.6
 41
-30.0
 62
     5
 63
     7
 74
     2
 91
        2
 64
     7
 65
   257
 75
     1
175
     1
 42
40.0
 92
        8
 66
     7
 43
1.0
 76
     1
 77
     6
 78
     2
 67
     7
 79
     3
170
     0
171
     0
290
     0
174
     0
 93
        1
 44
0.0
173
     0
291
     0
 45
0.0
1001
ACAD
1000
AcDbSavedByObjectVersion
1070
     0
  0
VISUALSTYLE
  5
35
102
{ACAD_REACTORS
330
2A
102
}
102
{ACAD_XDICTIONARY
360
4E7
102
}
330
2A
100
AcDbVisualStyle
  2
Dim
 70
    11
 71
     2
 72
     2
 73
     0
 90
        0
 40
-0.6
 41
-30.0
 62
     5
 63
     7
 74
     1
 91
        4
 64
     7
 65
   257
 75
     1
175
     1
 42
1.0
 92
        8
 66
     7
 43
1.0
 76
     1
 77
     6
 78
     2
 67
     7
 79
     5
170
     0
171
     0
290
     0
174
     0
 93
        1
 44
-50.0
173
     0
291
     1
 45
0.0
1001
ACAD
1000
AcDbSavedByObjectVersion
1070
     0
  0
VISUALSTYLE
  5
39
102
{ACAD_REACTORS
330
2A
102
}
102
{ACAD_XDICTIONARY
360
4EF
102
}
330
2A
100
AcDbVisualStyle
  2
Facepattern
 70
    15
 71
     2
 72
     2
 73
     0
 90
        0
 40
-0.6
 41
-30.0
 62
     5
 63
     7
 74
     1
 91
        4
 64
     7
 65
   257
 75
     1
175
     1
 42
1.0
 92
        8
 66
     7
 43
1.0
 76
     1
 77
     6
 78
     2
 67
     7
 79
     5
170
     0
171
     0
290
     0
174
     0
 93
        1
 44
0.0
173
     0
291
     1
 45
0.0
1001
ACAD
1000
AcDbSavedByObjectVersion
1070
     0
  0
VISUALSTYLE
  5
2B
102
{ACAD_REACTORS
330
2A
102
}
102
{ACAD_XDICTIONARY
360
4D3
102
}
330
2A
100
AcDbVisualStyle
  2
Flat
 70
     0
 71
     2
 72
     1
 73
     1
 90
        2
 40
-0.6
 41
30.0
 62
     5
 63
     7
 74
     0
 91
        4
 64
     7
 65
   257
 75
     1
175
     1
 42
1.0
 92
        8
 66
     7
 43
1.0
 76
     1
 77
     6
 78
     2
 67
     7
 79
     5
170
     0
171
     0
290
     0
174
     0
 93
       13
 44
0.0
173
     0
291
     1
 45
0.0
1001
ACAD
1000
AcDbSavedByObjectVersion
1070
     0
  0
VISUALSTYLE
  5
2C
102
{ACAD_REACTORS
330
2A
102
}
102
{ACAD_XDICTIONARY
360
4D5
102
}
330
2A
100
AcDbVisualStyle
  2
FlatWithEdges
 70
     1
 71
     2
 72
     1
 73
     1
 90
        2
 40
-0.6
 41
30.0
 62
     5
 63
     7
 74
     1
 91
        4
 64
     7
 65
   257
 75
     1
175
     1
 42
1.0
 92
        0
 66
   257
 43
1.0
 76
     1
 77
     6
 78
     2
 67
     7
 79
     5
170
     0
171
     0
290
     0
174
     0
 93
       13
 44
0.0
173
     0
291
     1
 45
0.0
1001
ACAD
1000
AcDbSavedByObjectVersion
1070
     0
  0
VISUALSTYLE
  5
2D
102
{ACAD_REACTORS
330
2A
102
}
102
{ACAD_XDICTIONARY
360
4D7
102
}
330
2A
100
AcDbVisualStyle
  2
Gouraud
 70
     2
 71
     2
 72
     2
 73
     1
 90
        2
 40
-0.6
 41
30.0
 62
     5
 63
     7
 74
     0
 91
        4
 64
     7
 65
   257
 75
     1
175
     1
 42
1.0
 92
        0
 66
     7
 43
1.0
 76
     1
 77
     6
 78
     2
 67
     7
 79
     5
170
     0
171
     0
290
     0
174
     0
 93
       13
 44
0.0
173
     0
291
     1
 45
0.0
1001
ACAD
1000
AcDbSavedByObjectVersion
1070
     0
  0
VISUALSTYLE
  5
2E
102
{ACAD_REACTORS
330
2A
102
}
102
{ACAD_XDICTIONARY
360
4D9
102
}
330
2A
100
AcDbVisualStyle
  2
GouraudWithEdges
 70
     3
 71
     2
 72
     2
 73
     1
 90
        2
 40
-0.6
 41
30.0
 62
     5
 63
     7
 74
     1
 91
        4
 64
     7
 65
   257
 75
     1
175
     1
 42
1.0
 92
        0
 66
   257
 43
1.0
 76
     1
 77
     6
 78
     2
 67
     7
 79
     5
170
     0
171
     0
290
     0
174
     0
 93
       13
 44
0.0
173
     0
291
     1
 45
0.0
1001
ACAD
1000
AcDbSavedByObjectVersion
1070
     0
  0
VISUALSTYLE
  5
38
102
{ACAD_REACTORS
330
2A
102
}
102
{ACAD_XDICTIONARY
360
4ED
102
}
330
2A
100
AcDbVisualStyle
  2
Linepattern
 70
    14
 71
     2
 72
     2
 73
     0
 90
        0
 40
-0.6
 41
-30.0
 62
     5
 63
     7
 74
     1
 91
        4
 64
     7
 65
   257
 75
     7
175
     7
 42
1.0
 92
        8
 66
     7
 43
1.0
 76
     1
 77
     6
 78
     2
 67
     7
 79
     5
170
     0
171
     0
290
     0
174
     0
 93
        1
 44
0.0
173
     0
291
     1
 45
0.0
1001
ACAD
1000
AcDbSavedByObjectVersion
1070
     0
  0
VISUALSTYLE
  5
33
102
{ACAD_REACTORS
330
2A
102
}
102
{ACAD_XDICTIONARY
360
4E3
102
}
330
2A
100
AcDbVisualStyle
  2
Realistic
 70
     8
 71
     2
 72
     2
 73
     0
 90
        0
 40
-0.6
 41
-30.0
 62
     5
 63
     7
 74
     1
 91
        0
 64
     7
 65
   257
 75
     1
175
     1
 42
1.0
 92
        8
 66
     8
 43
1.0
 76
     1
 77
     6
 78
     2
 67
     7
 79
     5
170
     0
171
     0
290
     0
174
     0
 93
       13
 44
0.0
173
     0
291
     0
 45
0.0
1001
ACAD
1000
AcDbSavedByObjectVersion
1070
     0
  0
VISUALSTYLE
  5
37
102
{ACAD_REACTORS
330
2A
102
}
102
{ACAD_XDICTIONARY
360
4EB
102
}
330
2A
100
AcDbVisualStyle
  2
Thicken
 70
    13
 71
     2
 72
     2
 73
     0
 90
        0
 40
-0.6
 41
-30.0
 62
     5
 63
     7
 74
     1
 91
        4
 64
     7
 65
   257
 75
     1
175
     1
 42
1.0
 92
       12
 66
     7
 43
1.0
 76
     1
 77
     6
 78
     2
 67
     7
 79
     5
170
     0
171
     0
290
     0
174
     0
 93
        1
 44
0.0
173
     0
291
     1
 45
0.0
1001
ACAD
1000
AcDbSavedByObjectVersion
1070
     0
  0
DICTIONARYVAR
  5
4D1
102
{ACAD_REACTORS
330
4CE
102
}
330
4CE
100
DictionaryVariables
280
     0
  1
2
  0
DICTIONARYVAR
  5
4D2
102
{ACAD_REACTORS
330
4CE
102
}
330
4CE
100
DictionaryVariables
280
     0
  1
1
  0
DICTIONARY
  5
4F5
330
3D
100
AcDbDictionary
280
     1
281
     1
  3
ACAD_XREC_ROUNDTRIP
360
4F6
  0
DICTIONARY
  5
4F3
330
3C
100
AcDbDictionary
280
     1
281
     1
  3
ACAD_XREC_ROUNDTRIP
360
4F4
  0
DICTIONARY
  5
4F7
330
3E
100
AcDbDictionary
280
     1
281
     1
  3
ACAD_XREC_ROUNDTRIP
360
4F8
  0
DICTIONARY
  5
4DB
330
2F
100
AcDbDictionary
280
     1
281
     1
  3
ACAD_XREC_ROUNDTRIP
360
4DC
  0
DICTIONARY
  5
4DF
330
31
100
AcDbDictionary
280
     1
281
     1
  3
ACAD_XREC_ROUNDTRIP
360
4E0
  0
DICTIONARY
  5
4DD
330
30
100
AcDbDictionary
280
     1
281
     1
  3
ACAD_XREC_ROUNDTRIP
360
4DE
  0
DICTIONARY
  5
4E1
330
32
100
AcDbDictionary
280
     1
281
     1
  3
ACAD_XREC_ROUNDTRIP
360
4E2
  0
DICTIONARY
  5
4E9
330
36
100
AcDbDictionary
280
     1
281
     1
  3
ACAD_XREC_ROUNDTRIP
360
4EA
  0
DICTIONARY
  5
4F1
330
3A
100
AcDbDictionary
280
     1
281
     1
  3
ACAD_XREC_ROUNDTRIP
360
4F2
  0
DICTIONARY
  5
4E5
330
34
100
AcDbDictionary
280
     1
281
     1
  3
ACAD_XREC_ROUNDTRIP
360
4E6
  0
DICTIONARY
  5
4E7
330
35
100
AcDbDictionary
280
     1
281
     1
  3
ACAD_XREC_ROUNDTRIP
360
4E8
  0
DICTIONARY
  5
4EF
330
39
100
AcDbDictionary
280
     1
281
     1
  3
ACAD_XREC_ROUNDTRIP
360
4F0
  0
DICTIONARY
  5
4D3
330
2B
100
AcDbDictionary
280
     1
281
     1
  3
ACAD_XREC_ROUNDTRIP
360
4D4
  0
DICTIONARY
  5
4D5
330
2C
100
AcDbDictionary
280
     1
281
     1
  3
ACAD_XREC_ROUNDTRIP
360
4D6
  0
DICTIONARY
  5
4D7
330
2D
100
AcDbDictionary
280
     1
281
     1
  3
ACAD_XREC_ROUNDTRIP
360
4D8
  0
DICTIONARY
  5
4D9
330
2E
100
AcDbDictionary
280
     1
281
     1
  3
ACAD_XREC_ROUNDTRIP
360
4DA
  0
DICTIONARY
  5
4ED
330
38
100
AcDbDictionary
280
     1
281
     1
  3
ACAD_XREC_ROUNDTRIP
360
4EE
  0
DICTIONARY
  5
4E3
330
33
100
AcDbDictionary
280
     1
281
     1
  3
ACAD_XREC_ROUNDTRIP
360
4E4
  0
DICTIONARY
  5
4EB
330
37
100
AcDbDictionary
280
     1
281
     1
  3
ACAD_XREC_ROUNDTRIP
360
4EC
  0
XRECORD
  5
4F6
102
{ACAD_REACTORS
330
4F5
102
}
330
4F5
100
AcDbXrecord
280
     1
102
MATERIAL
148
0.0
149
0.0
149
0.0
 93
        0
 94
      127
282
     0
 72
     1
 77
     1
171
     1
175
     1
179
     1
273
     0
  0
XRECORD
  5
4F4
102
{ACAD_REACTORS
330
4F3
102
}
330
4F3
100
AcDbXrecord
280
     1
102
MATERIAL
148
0.0
149
0.0
149
0.0
 93
        0
 94
      127
282
     0
 72
     1
 77
     1
171
     1
175
     1
179
     1
273
     0
  0
XRECORD
  5
4F8
102
{ACAD_REACTORS
330
4F7
102
}
330
4F7
100
AcDbXrecord
280
     1
102
MATERIAL
148
0.0
149
0.0
149
0.0
 93
        0
 94
      127
282
     0
 72
     1
 77
     1
171
     1
175
     1
179
     1
273
     0
  0
XRECORD
  5
4DC
102
{ACAD_REACTORS
330
4DB
102
}
330
4DB
100
AcDbXrecord
280
     1
102
RTVSPropertyOp0
 70
     1
102
RTVSPropertyOp1
 70
     1
102
RTVSPropertyOp2
 70
     1
102
RTVSPropertyOp3
 70
     1
102
RTVSPropertyOp4
 70
     1
102
RTVSPropertyOp5
 70
     1
102
RTVSPropertyOp6
 70
     1
102
RTVSPropertyOp7
 70
     1
102
RTVSPropertyOp8
 70
     1
102
RTVSPropertyOp9
 70
     1
102
RTVSPropertyOp10
 70
     1
102
RTVSPropertyOp11
 70
     1
102
RTVSPropertyOp12
 70
     1
102
RTVSPropertyOp13
 70
     1
102
RTVSPropertyOp14
 70
     1
102
RTVSPropertyOp15
 70
     1
102
RTVSPropertyOp16
 70
     1
102
RTVSPropertyOp17
 70
     1
102
RTVSPropertyOp18
 70
     1
102
RTVSPropertyOp19
 70
     1
102
RTVSPropertyOp20
 70
     1
102
RTVSPropertyOp21
 70
     1
102
RTVSPropertyOp22
 70
     1
102
RTVSPropertyOp23
 70
     1
102
RTVSPropertyOp24
 70
     1
102
RTVSPropertyOp25
 70
     1
102
RTVSPropertyOp26
 70
     1
102
RTVSPropertyOp27
 70
     1
  0
XRECORD
  5
4E0
102
{ACAD_REACTORS
330
4DF
102
}
330
4DF
100
AcDbXrecord
280
     1
102
RTVSPropertyOp0
 70
     1
102
RTVSPropertyOp1
 70
     1
102
RTVSPropertyOp2
 70
     1
102
RTVSPropertyOp3
 70
     1
102
RTVSPropertyOp4
 70
     1
102
RTVSPropertyOp5
 70
     1
102
RTVSPropertyOp6
 70
     1
102
RTVSPropertyOp7
 70
     1
102
RTVSPropertyOp8
 70
     1
102
RTVSPropertyOp9
 70
     1
102
RTVSPropertyOp10
 70
     1
102
RTVSPropertyOp11
 70
     1
102
RTVSPropertyOp12
 70
     1
102
RTVSPropertyOp13
 70
     1
102
RTVSPropertyOp14
 70
     1
102
RTVSPropertyOp15
 70
     1
102
RTVSPropertyOp16
 70
     1
102
RTVSPropertyOp17
 70
     1
102
RTVSPropertyOp18
 70
     1
102
RTVSPropertyOp19
 70
     1
102
RTVSPropertyOp20
 70
     1
102
RTVSPropertyOp21
 70
     1
102
RTVSPropertyOp22
 70
     1
102
RTVSPropertyOp23
 70
     1
102
RTVSPropertyOp24
 70
     1
102
RTVSPropertyOp25
 70
     1
102
RTVSPropertyOp26
 70
     1
102
RTVSPropertyOp27
 70
     1
  0
XRECORD
  5
4DE
102
{ACAD_REACTORS
330
4DD
102
}
330
4DD
100
AcDbXrecord
280
     1
102
RTVSPropertyOp0
 70
     1
102
RTVSPropertyOp1
 70
     1
102
RTVSPropertyOp2
 70
     1
102
RTVSPropertyOp3
 70
     1
102
RTVSPropertyOp4
 70
     1
102
RTVSPropertyOp5
 70
     1
102
RTVSPropertyOp6
 70
     1
102
RTVSPropertyOp7
 70
     1
102
RTVSPropertyOp8
 70
     1
102
RTVSPropertyOp9
 70
     1
102
RTVSPropertyOp10
 70
     1
102
RTVSPropertyOp11
 70
     1
102
RTVSPropertyOp12
 70
     1
102
RTVSPropertyOp13
 70
     1
102
RTVSPropertyOp14
 70
     1
102
RTVSPropertyOp15
 70
     1
102
RTVSPropertyOp16
 70
     1
102
RTVSPropertyOp17
 70
     1
102
RTVSPropertyOp18
 70
     1
102
RTVSPropertyOp19
 70
     1
102
RTVSPropertyOp20
 70
     1
102
RTVSPropertyOp21
 70
     1
102
RTVSPropertyOp22
 70
     1
102
RTVSPropertyOp23
 70
     1
102
RTVSPropertyOp24
 70
     1
102
RTVSPropertyOp25
 70
     1
102
RTVSPropertyOp26
 70
     1
102
RTVSPropertyOp27
 70
     1
  0
XRECORD
  5
4E2
102
{ACAD_REACTORS
330
4E1
102
}
330
4E1
100
AcDbXrecord
280
     1
102
RTVSPropertyOp0
 70
     1
102
RTVSPropertyOp1
 70
     1
102
RTVSPropertyOp2
 70
     1
102
RTVSPropertyOp3
 70
     1
102
RTVSPropertyOp4
 70
     1
102
RTVSPropertyOp5
 70
     1
102
RTVSPropertyOp6
 70
     1
102
RTVSPropertyOp7
 70
     1
102
RTVSPropertyOp8
 70
     1
102
RTVSPropertyOp9
 70
     1
102
RTVSPropertyOp10
 70
     1
102
RTVSPropertyOp11
 70
     1
102
RTVSPropertyOp12
 70
     1
102
RTVSPropertyOp13
 70
     1
102
RTVSPropertyOp14
 70
     1
102
RTVSPropertyOp15
 70
     1
102
RTVSPropertyOp16
 70
     1
102
RTVSPropertyOp17
 70
     1
102
RTVSPropertyOp18
 70
     1
102
RTVSPropertyOp19
 70
     1
102
RTVSPropertyOp20
 70
     1
102
RTVSPropertyOp21
 70
     1
102
RTVSPropertyOp22
 70
     1
102
RTVSPropertyOp23
 70
     1
102
RTVSPropertyOp24
 70
     1
102
RTVSPropertyOp25
 70
     1
102
RTVSPropertyOp26
 70
     1
102
RTVSPropertyOp27
 70
     1
  0
XRECORD
  5
4EA
102
{ACAD_REACTORS
330
4E9
102
}
330
4E9
100
AcDbXrecord
280
     1
102
RTVSPropertyOp0
 70
     1
102
RTVSPropertyOp1
 70
     1
102
RTVSPropertyOp2
 70
     1
102
RTVSPropertyOp3
 70
     1
102
RTVSPropertyOp4
 70
     1
102
RTVSPropertyOp5
 70
     1
102
RTVSPropertyOp6
 70
     1
102
RTVSPropertyOp7
 70
     1
102
RTVSPropertyOp8
 70
     1
102
RTVSPropertyOp9
 70
     1
102
RTVSPropertyOp10
 70
     1
102
RTVSPropertyOp11
 70
     1
102
RTVSPropertyOp12
 70
     1
102
RTVSPropertyOp13
 70
     1
102
RTVSPropertyOp14
 70
     1
102
RTVSPropertyOp15
 70
     1
102
RTVSPropertyOp16
 70
     1
102
RTVSPropertyOp17
 70
     1
102
RTVSPropertyOp18
 70
     1
102
RTVSPropertyOp19
 70
     1
102
RTVSPropertyOp20
 70
     1
102
RTVSPropertyOp21
 70
     1
102
RTVSPropertyOp22
 70
     1
102
RTVSPropertyOp23
 70
     1
102
RTVSPropertyOp24
 70
     1
102
RTVSPropertyOp25
 70
     1
102
RTVSPropertyOp26
 70
     1
102
RTVSPropertyOp27
 70
     1
  0
XRECORD
  5
4F2
102
{ACAD_REACTORS
330
4F1
102
}
330
4F1
100
AcDbXrecord
280
     1
102
RTVSPropertyOp0
 70
     1
102
RTVSPropertyOp1
 70
     1
102
RTVSPropertyOp2
 70
     1
102
RTVSPropertyOp3
 70
     1
102
RTVSPropertyOp4
 70
     1
102
RTVSPropertyOp5
 70
     1
102
RTVSPropertyOp6
 70
     1
102
RTVSPropertyOp7
 70
     1
102
RTVSPropertyOp8
 70
     1
102
RTVSPropertyOp9
 70
     1
102
RTVSPropertyOp10
 70
     1
102
RTVSPropertyOp11
 70
     1
102
RTVSPropertyOp12
 70
     1
102
RTVSPropertyOp13
 70
     1
102
RTVSPropertyOp14
 70
     1
102
RTVSPropertyOp15
 70
     1
102
RTVSPropertyOp16
 70
     1
102
RTVSPropertyOp17
 70
     1
102
RTVSPropertyOp18
 70
     1
102
RTVSPropertyOp19
 70
     1
102
RTVSPropertyOp20
 70
     1
102
RTVSPropertyOp21
 70
     1
102
RTVSPropertyOp22
 70
     1
102
RTVSPropertyOp23
 70
     1
102
RTVSPropertyOp24
 70
     1
102
RTVSPropertyOp25
 70
     1
102
RTVSPropertyOp26
 70
     1
102
RTVSPropertyOp27
 70
     1
  0
XRECORD
  5
4E6
102
{ACAD_REACTORS
330
4E5
102
}
330
4E5
100
AcDbXrecord
280
     1
102
RTVSPropertyOp0
 70
     1
102
RTVSPropertyOp1
 70
     1
102
RTVSPropertyOp2
 70
     1
102
RTVSPropertyOp3
 70
     1
102
RTVSPropertyOp4
 70
     1
102
RTVSPropertyOp5
 70
     1
102
RTVSPropertyOp6
 70
     1
102
RTVSPropertyOp7
 70
     1
102
RTVSPropertyOp8
 70
     1
102
RTVSPropertyOp9
 70
     1
102
RTVSPropertyOp10
 70
     1
102
RTVSPropertyOp11
 70
     1
102
RTVSPropertyOp12
 70
     1
102
RTVSPropertyOp13
 70
     1
102
RTVSPropertyOp14
 70
     1
102
RTVSPropertyOp15
 70
     1
102
RTVSPropertyOp16
 70
     1
102
RTVSPropertyOp17
 70
     1
102
RTVSPropertyOp18
 70
     1
102
RTVSPropertyOp19
 70
     1
102
RTVSPropertyOp20
 70
     1
102
RTVSPropertyOp21
 70
     1
102
RTVSPropertyOp22
 70
     1
102
RTVSPropertyOp23
 70
     1
102
RTVSPropertyOp24
 70
     1
102
RTVSPropertyOp25
 70
     1
102
RTVSPropertyOp26
 70
     1
102
RTVSPropertyOp27
 70
     1
  0
XRECORD
  5
4E8
102
{ACAD_REACTORS
330
4E7
102
}
330
4E7
100
AcDbXrecord
280
     1
102
RTVSPropertyOp0
 70
     1
102
RTVSPropertyOp1
 70
     1
102
RTVSPropertyOp2
 70
     1
102
RTVSPropertyOp3
 70
     1
102
RTVSPropertyOp4
 70
     1
102
RTVSPropertyOp5
 70
     1
102
RTVSPropertyOp6
 70
     1
102
RTVSPropertyOp7
 70
     1
102
RTVSPropertyOp8
 70
     1
102
RTVSPropertyOp9
 70
     1
102
RTVSPropertyOp10
 70
     1
102
RTVSPropertyOp11
 70
     1
102
RTVSPropertyOp12
 70
     1
102
RTVSPropertyOp13
 70
     1
102
RTVSPropertyOp14
 70
     1
102
RTVSPropertyOp15
 70
     1
102
RTVSPropertyOp16
 70
     1
102
RTVSPropertyOp17
 70
     1
102
RTVSPropertyOp18
 70
     1
102
RTVSPropertyOp19
 70
     1
102
RTVSPropertyOp20
 70
     1
102
RTVSPropertyOp21
 70
     1
102
RTVSPropertyOp22
 70
     1
102
RTVSPropertyOp23
 70
     1
102
RTVSPropertyOp24
 70
     1
102
RTVSPropertyOp25
 70
     1
102
RTVSPropertyOp26
 70
     1
102
RTVSPropertyOp27
 70
     1
  0
XRECORD
  5
4F0
102
{ACAD_REACTORS
330
4EF
102
}
330
4EF
100
AcDbXrecord
280
     1
102
RTVSPropertyOp0
 70
     1
102
RTVSPropertyOp1
 70
     1
102
RTVSPropertyOp2
 70
     1
102
RTVSPropertyOp3
 70
     1
102
RTVSPropertyOp4
 70
     1
102
RTVSPropertyOp5
 70
     1
102
RTVSPropertyOp6
 70
     1
102
RTVSPropertyOp7
 70
     1
102
RTVSPropertyOp8
 70
     1
102
RTVSPropertyOp9
 70
     1
102
RTVSPropertyOp10
 70
     1
102
RTVSPropertyOp11
 70
     1
102
RTVSPropertyOp12
 70
     1
102
RTVSPropertyOp13
 70
     1
102
RTVSPropertyOp14
 70
     1
102
RTVSPropertyOp15
 70
     1
102
RTVSPropertyOp16
 70
     1
102
RTVSPropertyOp17
 70
     1
102
RTVSPropertyOp18
 70
     1
102
RTVSPropertyOp19
 70
     1
102
RTVSPropertyOp20
 70
     1
102
RTVSPropertyOp21
 70
     1
102
RTVSPropertyOp22
 70
     1
102
RTVSPropertyOp23
 70
     1
102
RTVSPropertyOp24
 70
     1
102
RTVSPropertyOp25
 70
     1
102
RTVSPropertyOp26
 70
     1
102
RTVSPropertyOp27
 70
     1
  0
XRECORD
  5
4D4
102
{ACAD_REACTORS
330
4D3
102
}
330
4D3
100
AcDbXrecord
280
     1
102
RTVSPropertyOp0
 70
     1
102
RTVSPropertyOp1
 70
     1
102
RTVSPropertyOp2
 70
     1
102
RTVSPropertyOp3
 70
     1
102
RTVSPropertyOp4
 70
     1
102
RTVSPropertyOp5
 70
     1
102
RTVSPropertyOp6
 70
     1
102
RTVSPropertyOp7
 70
     1
102
RTVSPropertyOp8
 70
     1
102
RTVSPropertyOp9
 70
     1
102
RTVSPropertyOp10
 70
     1
102
RTVSPropertyOp11
 70
     1
102
RTVSPropertyOp12
 70
     1
102
RTVSPropertyOp13
 70
     1
102
RTVSPropertyOp14
 70
     1
102
RTVSPropertyOp15
 70
     1
102
RTVSPropertyOp16
 70
     1
102
RTVSPropertyOp17
 70
     1
102
RTVSPropertyOp18
 70
     1
102
RTVSPropertyOp19
 70
     1
102
RTVSPropertyOp20
 70
     1
102
RTVSPropertyOp21
 70
     1
102
RTVSPropertyOp22
 70
     1
102
RTVSPropertyOp23
 70
     1
102
RTVSPropertyOp24
 70
     1
102
RTVSPropertyOp25
 70
     1
102
RTVSPropertyOp26
 70
     1
102
RTVSPropertyOp27
 70
     1
  0
XRECORD
  5
4D6
102
{ACAD_REACTORS
330
4D5
102
}
330
4D5
100
AcDbXrecord
280
     1
102
RTVSPropertyOp0
 70
     1
102
RTVSPropertyOp1
 70
     1
102
RTVSPropertyOp2
 70
     1
102
RTVSPropertyOp3
 70
     1
102
RTVSPropertyOp4
 70
     1
102
RTVSPropertyOp5
 70
     1
102
RTVSPropertyOp6
 70
     1
102
RTVSPropertyOp7
 70
     1
102
RTVSPropertyOp8
 70
     1
102
RTVSPropertyOp9
 70
     1
102
RTVSPropertyOp10
 70
     1
102
RTVSPropertyOp11
 70
     1
102
RTVSPropertyOp12
 70
     1
102
RTVSPropertyOp13
 70
     1
102
RTVSPropertyOp14
 70
     1
102
RTVSPropertyOp15
 70
     1
102
RTVSPropertyOp16
 70
     1
102
RTVSPropertyOp17
 70
     1
102
RTVSPropertyOp18
 70
     1
102
RTVSPropertyOp19
 70
     1
102
RTVSPropertyOp20
 70
     1
102
RTVSPropertyOp21
 70
     1
102
RTVSPropertyOp22
 70
     1
102
RTVSPropertyOp23
 70
     1
102
RTVSPropertyOp24
 70
     1
102
RTVSPropertyOp25
 70
     1
102
RTVSPropertyOp26
 70
     1
102
RTVSPropertyOp27
 70
     1
  0
XRECORD
  5
4D8
102
{ACAD_REACTORS
330
4D7
102
}
330
4D7
100
AcDbXrecord
280
     1
102
RTVSPropertyOp0
 70
     1
102
RTVSPropertyOp1
 70
     1
102
RTVSPropertyOp2
 70
     1
102
RTVSPropertyOp3
 70
     1
102
RTVSPropertyOp4
 70
     1
102
RTVSPropertyOp5
 70
     1
102
RTVSPropertyOp6
 70
     1
102
RTVSPropertyOp7
 70
     1
102
RTVSPropertyOp8
 70
     1
102
RTVSPropertyOp9
 70
     1
102
RTVSPropertyOp10
 70
     1
102
RTVSPropertyOp11
 70
     1
102
RTVSPropertyOp12
 70
     1
102
RTVSPropertyOp13
 70
     1
102
RTVSPropertyOp14
 70
     1
102
RTVSPropertyOp15
 70
     1
102
RTVSPropertyOp16
 70
     1
102
RTVSPropertyOp17
 70
     1
102
RTVSPropertyOp18
 70
     1
102
RTVSPropertyOp19
 70
     1
102
RTVSPropertyOp20
 70
     1
102
RTVSPropertyOp21
 70
     1
102
RTVSPropertyOp22
 70
     1
102
RTVSPropertyOp23
 70
     1
102
RTVSPropertyOp24
 70
     1
102
RTVSPropertyOp25
 70
     1
102
RTVSPropertyOp26
 70
     1
102
RTVSPropertyOp27
 70
     1
  0
XRECORD
  5
4DA
102
{ACAD_REACTORS
330
4D9
102
}
330
4D9
100
AcDbXrecord
280
     1
102
RTVSPropertyOp0
 70
     1
102
RTVSPropertyOp1
 70
     1
102
RTVSPropertyOp2
 70
     1
102
RTVSPropertyOp3
 70
     1
102
RTVSPropertyOp4
 70
     1
102
RTVSPropertyOp5
 70
     1
102
RTVSPropertyOp6
 70
     1
102
RTVSPropertyOp7
 70
     1
102
RTVSPropertyOp8
 70
     1
102
RTVSPropertyOp9
 70
     1
102
RTVSPropertyOp10
 70
     1
102
RTVSPropertyOp11
 70
     1
102
RTVSPropertyOp12
 70
     1
102
RTVSPropertyOp13
 70
     1
102
RTVSPropertyOp14
 70
     1
102
RTVSPropertyOp15
 70
     1
102
RTVSPropertyOp16
 70
     1
102
RTVSPropertyOp17
 70
     1
102
RTVSPropertyOp18
 70
     1
102
RTVSPropertyOp19
 70
     1
102
RTVSPropertyOp20
 70
     1
102
RTVSPropertyOp21
 70
     1
102
RTVSPropertyOp22
 70
     1
102
RTVSPropertyOp23
 70
     1
102
RTVSPropertyOp24
 70
     1
102
RTVSPropertyOp25
 70
     1
102
RTVSPropertyOp26
 70
     1
102
RTVSPropertyOp27
 70
     1
  0
XRECORD
  5
4EE
102
{ACAD_REACTORS
330
4ED
102
}
330
4ED
100
AcDbXrecord
280
     1
102
RTVSPropertyOp0
 70
     1
102
RTVSPropertyOp1
 70
     1
102
RTVSPropertyOp2
 70
     1
102
RTVSPropertyOp3
 70
     1
102
RTVSPropertyOp4
 70
     1
102
RTVSPropertyOp5
 70
     1
102
RTVSPropertyOp6
 70
     1
102
RTVSPropertyOp7
 70
     1
102
RTVSPropertyOp8
 70
     1
102
RTVSPropertyOp9
 70
     1
102
RTVSPropertyOp10
 70
     1
102
RTVSPropertyOp11
 70
     1
102
RTVSPropertyOp12
 70
     1
102
RTVSPropertyOp13
 70
     1
102
RTVSPropertyOp14
 70
     1
102
RTVSPropertyOp15
 70
     1
102
RTVSPropertyOp16
 70
     1
102
RTVSPropertyOp17
 70
     1
102
RTVSPropertyOp18
 70
     1
102
RTVSPropertyOp19
 70
     1
102
RTVSPropertyOp20
 70
     1
102
RTVSPropertyOp21
 70
     1
102
RTVSPropertyOp22
 70
     1
102
RTVSPropertyOp23
 70
     1
102
RTVSPropertyOp24
 70
     1
102
RTVSPropertyOp25
 70
     1
102
RTVSPropertyOp26
 70
     1
102
RTVSPropertyOp27
 70
     1
  0
XRECORD
  5
4E4
102
{ACAD_REACTORS
330
4E3
102
}
330
4E3
100
AcDbXrecord
280
     1
102
RTVSPropertyOp0
 70
     1
102
RTVSPropertyOp1
 70
     1
102
RTVSPropertyOp2
 70
     1
102
RTVSPropertyOp3
 70
     1
102
RTVSPropertyOp4
 70
     1
102
RTVSPropertyOp5
 70
     1
102
RTVSPropertyOp6
 70
     1
102
RTVSPropertyOp7
 70
     1
102
RTVSPropertyOp8
 70
     1
102
RTVSPropertyOp9
 70
     1
102
RTVSPropertyOp10
 70
     1
102
RTVSPropertyOp11
 70
     1
102
RTVSPropertyOp12
 70
     1
102
RTVSPropertyOp13
 70
     1
102
RTVSPropertyOp14
 70
     1
102
RTVSPropertyOp15
 70
     1
102
RTVSPropertyOp16
 70
     1
102
RTVSPropertyOp17
 70
     1
102
RTVSPropertyOp18
 70
     1
102
RTVSPropertyOp19
 70
     1
102
RTVSPropertyOp20
 70
     1
102
RTVSPropertyOp21
 70
     1
102
RTVSPropertyOp22
 70
     1
102
RTVSPropertyOp23
 70
     1
102
RTVSPropertyOp24
 70
     1
102
RTVSPropertyOp25
 70
     1
102
RTVSPropertyOp26
 70
     1
102
RTVSPropertyOp27
 70
     1
  0
XRECORD
  5
4EC
102
{ACAD_REACTORS
330
4EB
102
}
330
4EB
100
AcDbXrecord
280
     1
102
RTVSPropertyOp0
 70
     1
102
RTVSPropertyOp1
 70
     1
102
RTVSPropertyOp2
 70
     1
102
RTVSPropertyOp3
 70
     1
102
RTVSPropertyOp4
 70
     1
102
RTVSPropertyOp5
 70
     1
102
RTVSPropertyOp6
 70
     1
102
RTVSPropertyOp7
 70
     1
102
RTVSPropertyOp8
 70
     1
102
RTVSPropertyOp9
 70
     1
102
RTVSPropertyOp10
 70
     1
102
RTVSPropertyOp11
 70
     1
102
RTVSPropertyOp12
 70
     1
102
RTVSPropertyOp13
 70
     1
102
RTVSPropertyOp14
 70
     1
102
RTVSPropertyOp15
 70
     1
102
RTVSPropertyOp16
 70
     1
102
RTVSPropertyOp17
 70
     1
102
RTVSPropertyOp18
 70
     1
102
RTVSPropertyOp19
 70
     1
102
RTVSPropertyOp20
 70
     1
102
RTVSPropertyOp21
 70
     1
102
RTVSPropertyOp22
 70
     1
102
RTVSPropertyOp23
 70
     1
102
RTVSPropertyOp24
 70
     1
102
RTVSPropertyOp25
 70
     1
102
RTVSPropertyOp26
 70
     1
102
RTVSPropertyOp27
 70
     1
  0
ENDSEC
  0
EOF
