  0
SECTION
  2
HEADER
  9
$ACADVER
  1
AC1015
  9
$ACADMAINTVER
 70
     6
  9
$DWGCODEPAGE
  3
ANSI_932
  9
$INSBASE
 10
0.0
 20
0.0
 30
0.0
  9
$EXTMIN
 10
289.0
 20
206.500050194935
 30
0.0
  9
$EXTMAX
 10
1149.17032967033
 20
836.999999999996
 30
0.0
  9
$LIMMIN
 10
0.0
 20
0.0
  9
$LIMMAX
 10
12.0
 20
9.0
  9
$ORTHOMODE
 70
     0
  9
$REGENMODE
 70
     1
  9
$FILLMODE
 70
     1
  9
$QTEXTMODE
 70
     0
  9
$MIRRTEXT
 70
     1
  9
$LTSCALE
 40
1.0
  9
$ATTMODE
 70
     1
  9
$TEXTSIZE
 40
0.2
  9
$TRACEWID
 40
0.05
  9
$TEXTSTYLE
  7
Standard
  9
$CLAYER
  8
0
  9
$CELTYPE
  6
ByLayer
  9
$CECOLOR
 62
   256
  9
$CELTSCALE
 40
1.0
  9
$DISPSILH
 70
     0
  9
$DIMSCALE
 40
1.0
  9
$DIMASZ
 40
0.18
  9
$DIMEXO
 40
0.0625
  9
$DIMDLI
 40
0.38
  9
$DIMRND
 40
0.0
  9
$DIMDLE
 40
0.0
  9
$DIMEXE
 40
0.18
  9
$DIMTP
 40
0.0
  9
$DIMTM
 40
0.0
  9
$DIMTXT
 40
0.18
  9
$DIMCEN
 40
0.09
  9
$DIMTSZ
 40
0.0
  9
$DIMTOL
 70
     0
  9
$DIMLIM
 70
     0
  9
$DIMTIH
 70
     1
  9
$DIMTOH
 70
     1
  9
$DIMSE1
 70
     0
  9
$DIMSE2
 70
     0
  9
$DIMTAD
 70
     0
  9
$DIMZIN
 70
     0
  9
$DIMBLK
  1

  9
$DIMASO
 70
     1
  9
$DIMSHO
 70
     1
  9
$DIMPOST
  1

  9
$DIMAPOST
  1

  9
$DIMALT
 70
     0
  9
$DIMALTD
 70
     2
  9
$DIMALTF
 40
25.4
  9
$DIMLFAC
 40
1.0
  9
$DIMTOFL
 70
     0
  9
$DIMTVP
 40
0.0
  9
$DIMTIX
 70
     0
  9
$DIMSOXD
 70
     0
  9
$DIMSAH
 70
     0
  9
$DIMBLK1
  1

  9
$DIMBLK2
  1

  9
$DIMSTYLE
  2
Standard
  9
$DIMCLRD
 70
     0
  9
$DIMCLRE
 70
     0
  9
$DIMCLRT
 70
     0
  9
$DIMTFAC
 40
1.0
  9
$DIMGAP
 40
0.09
  9
$DIMJUST
 70
     0
  9
$DIMSD1
 70
     0
  9
$DIMSD2
 70
     0
  9
$DIMTOLJ
 70
     1
  9
$DIMTZIN
 70
     0
  9
$DIMALTZ
 70
     0
  9
$DIMALTTZ
 70
     0
  9
$DIMUPT
 70
     0
  9
$DIMDEC
 70
     4
  9
$DIMTDEC
 70
     4
  9
$DIMALTU
 70
     2
  9
$DIMALTTD
 70
     2
  9
$DIMTXSTY
  7
Standard
  9
$DIMAUNIT
 70
     0
  9
$DIMADEC
 70
     0
  9
$DIMALTRND
 40
0.0
  9
$DIMAZIN
 70
     0
  9
$DIMDSEP
 70
    46
  9
$DIMATFIT
 70
     3
  9
$DIMFRAC
 70
     0
  9
$DIMLDRBLK
  1

  9
$DIMLUNIT
 70
     2
  9
$DIMLWD
 70
    -2
  9
$DIMLWE
 70
    -2
  9
$DIMTMOVE
 70
     0
  9
$LUNITS
 70
     2
  9
$LUPREC
 70
     4
  9
$SKETCHINC
 40
0.1
  9
$FILLETRAD
 40
0.5
  9
$AUNITS
 70
     0
  9
$AUPREC
 70
     0
  9
$MENU
  1
.
  9
$ELEVATION
 40
0.0
  9
$PELEVATION
 40
0.0
  9
$THICKNESS
 40
0.0
  9
$LIMCHECK
 70
     0
  9
$CHAMFERA
 40
0.5
  9
$CHAMFERB
 40
0.5
  9
$CHAMFERC
 40
1.0
  9
$CHAMFERD
 40
0.0
  9
$SKPOLY
 70
     0
  9
$TDCREATE
 40
2457568.698379063
  9
$TDUCREATE
 40
2457568.323379063
  9
$TDUPDATE
 40
2457568.698379074
  9
$TDUUPDATE
 40
2457568.323379074
  9
$TDINDWG
 40
0.0000000116
  9
$TDUSRTIMER
 40
0.0000000116
  9
$USRTIMER
 70
     1
  9
$ANGBASE
 50
0.0
  9
$ANGDIR
 70
     0
  9
$PDMODE
 70
     0
  9
$PDSIZE
 40
0.0
  9
$PLINEWID
 40
0.0
  9
$SPLFRAME
 70
     0
  9
$SPLINETYPE
 70
     6
  9
$SPLINESEGS
 70
     8
  9
$HANDSEED
  5
173
  9
$SURFTAB1
 70
     6
  9
$SURFTAB2
 70
     6
  9
$SURFTYPE
 70
     6
  9
$SURFU
 70
     6
  9
$SURFV
 70
     6
  9
$UCSBASE
  2

  9
$UCSNAME
  2

  9
$UCSORG
 10
0.0
 20
0.0
 30
0.0
  9
$UCSXDIR
 10
1.0
 20
0.0
 30
0.0
  9
$UCSYDIR
 10
0.0
 20
1.0
 30
0.0
  9
$UCSORTHOREF
  2

  9
$UCSORTHOVIEW
 70
     0
  9
$UCSORGTOP
 10
0.0
 20
0.0
 30
0.0
  9
$UCSORGBOTTOM
 10
0.0
 20
0.0
 30
0.0
  9
$UCSORGLEFT
 10
0.0
 20
0.0
 30
0.0
  9
$UCSORGRIGHT
 10
0.0
 20
0.0
 30
0.0
  9
$UCSORGFRONT
 10
0.0
 20
0.0
 30
0.0
  9
$UCSORGBACK
 10
0.0
 20
0.0
 30
0.0
  9
$PUCSBASE
  2

  9
$PUCSNAME
  2

  9
$PUCSORG
 10
0.0
 20
0.0
 30
0.0
  9
$PUCSXDIR
 10
1.0
 20
0.0
 30
0.0
  9
$PUCSYDIR
 10
0.0
 20
1.0
 30
0.0
  9
$PUCSORTHOREF
  2

  9
$PUCSORTHOVIEW
 70
     0
  9
$PUCSORGTOP
 10
0.0
 20
0.0
 30
0.0
  9
$PUCSORGBOTTOM
 10
0.0
 20
0.0
 30
0.0
  9
$PUCSORGLEFT
 10
0.0
 20
0.0
 30
0.0
  9
$PUCSORGRIGHT
 10
0.0
 20
0.0
 30
0.0
  9
$PUCSORGFRONT
 10
0.0
 20
0.0
 30
0.0
  9
$PUCSORGBACK
 10
0.0
 20
0.0
 30
0.0
  9
$USERI1
 70
     0
  9
$USERI2
 70
     0
  9
$USERI3
 70
     0
  9
$USERI4
 70
     0
  9
$USERI5
 70
     0
  9
$USERR1
 40
18.0
  9
$USERR2
 40
0.0
  9
$USERR3
 40
0.0
  9
$USERR4
 40
0.0
  9
$USERR5
 40
0.0
  9
$WORLDVIEW
 70
     1
  9
$SHADEDGE
 70
     3
  9
$SHADEDIF
 70
    70
  9
$TILEMODE
 70
     1
  9
$MAXACTVP
 70
    64
  9
$PINSBASE
 10
0.0
 20
0.0
 30
0.0
  9
$PLIMCHECK
 70
     0
  9
$PEXTMIN
 10
1.00000000000000E+20
 20
1.00000000000000E+20
 30
1.00000000000000E+20
  9
$PEXTMAX
 10
-1.00000000000000E+20
 20
-1.00000000000000E+20
 30
-1.00000000000000E+20
  9
$PLIMMIN
 10
0.0
 20
0.0
  9
$PLIMMAX
 10
12.0
 20
9.0
  9
$UNITMODE
 70
     0
  9
$VISRETAIN
 70
     1
  9
$PLINEGEN
 70
     0
  9
$PSLTSCALE
 70
     1
  9
$TREEDEPTH
 70
  3020
  9
$CMLSTYLE
  2
Standard
  9
$CMLJUST
 70
     0
  9
$CMLSCALE
 40
1.0
  9
$PROXYGRAPHICS
 70
     1
  9
$MEASUREMENT
 70
     1
  9
$CELWEIGHT
370
    -1
  9
$ENDCAPS
280
     0
  9
$JOINSTYLE
280
     0
  9
$LWDISPLAY
290
     0
  9
$INSUNITS
 70
     1
  9
$HYPERLINKBASE
  1

  9
$STYLESHEET
  1

  9
$XEDIT
290
     1
  9
$CEPSNTYPE
380
     0
  9
$PSTYLEMODE
290
     1
  9
$FINGERPRINTGUID
  2
{7CF47177-CE6C-4B3D-B416-FE967B2182A0}
  9
$VERSIONGUID
  2
{FAEB1C32-E019-11D5-929B-00C0DF256EC4}
  9
$EXTNAMES
290
     1
  9
$PSVPSCALE
 40
0.0
  9
$OLESTARTUP
290
     0
  0
ENDSEC
  0
SECTION
  2
CLASSES
  0
CLASS
  1
ACDBDICTIONARYWDFLT
  2
AcDbDictionaryWithDefault
  3
ObjectDBX Classes
 90
        0
280
     0
281
     0
  0
CLASS
  1
VISUALSTYLE
  2
AcDbVisualStyle
  3
ObjectDBX Classes
 90
     4095
280
     0
281
     0
  0
CLASS
  1
MATERIAL
  2
AcDbMaterial
  3
ObjectDBX Classes
 90
     1153
280
     0
281
     0
  0
CLASS
  1

  2
exOdDbCircle
  3

 90
        0
280
     0
281
     1
  0
CLASS
  1
DICTIONARYVAR
  2
AcDbDictionaryVar
  3
ObjectDBX Classes
 90
        0
280
     0
281
     0
  0
CLASS
  1
ACDBPLACEHOLDER
  2
AcDbPlaceHolder
  3
ObjectDBX Classes
 90
        0
280
     0
281
     0
  0
CLASS
  1
LAYOUT
  2
AcDbLayout
  3
ObjectDBX Classes
 90
        0
280
     0
281
     0
  0
ENDSEC
  0
SECTION
  2
TABLES
  0
TABLE
  2
VPORT
  5
8
330
0
100
AcDbSymbolTable
 70
     1
  0
VPORT
  5
29
330
8
100
AcDbSymbolTableRecord
100
AcDbViewportTableRecord
  2
*Active
 70
     0
 10
0.0
 20
0.0
 11
1.0
 21
1.0
 12
719.085164835165
 22
521.7500250974655
 13
0.0
 23
0.0
 14
0.5
 24
0.5
 15
0.5
 25
0.5
 16
0.0
 26
0.0
 36
1.0
 17
0.0
 27
0.0
 37
0.0
 40
693.5499447855673
 41
1.60267857142857
 42
50.0
 43
0.0
 44
0.0
 50
0.0
 51
0.0
 71
     0
 72
   100
 73
     1
 74
     3
 75
     0
 76
     0
 77
     0
 78
     0
281
     0
 65
     1
110
0.0
120
0.0
130
0.0
111
1.0
121
0.0
131
0.0
112
0.0
122
1.0
132
0.0
 79
     0
146
0.0
  0
ENDTAB
  0
TABLE
  2
LTYPE
  5
5
330
0
100
AcDbSymbolTable
 70
     9
  0
LTYPE
  5
14
330
5
100
AcDbSymbolTableRecord
100
AcDbLinetypeTableRecord
  2
ByBlock
 70
     0
  3

 72
    65
 73
     0
 40
0.0
  0
LTYPE
  5
15
330
5
100
AcDbSymbolTableRecord
100
AcDbLinetypeTableRecord
  2
ByLayer
 70
     0
  3

 72
    65
 73
     0
 40
0.0
  0
LTYPE
  5
16
330
5
100
AcDbSymbolTableRecord
100
AcDbLinetypeTableRecord
  2
Continuous
 70
     0
  3
Solid line
 72
    65
 73
     0
 40
0.0
  0
LTYPE
  5
3F
330
5
100
AcDbSymbolTableRecord
100
AcDbLinetypeTableRecord
  2
DASHED
 70
     0
  3
Dashed
 72
    65
 73
     2
 40
15.0
 49
7.0
 74
     0
 49
-8.0
 74
     0
  0
LTYPE
  5
40
330
5
100
AcDbSymbolTableRecord
100
AcDbLinetypeTableRecord
  2
DOTTED
 70
     0
  3
Dotted
 72
    65
 73
     2
 40
1.0
 49
0.0
 74
     0
 49
-1.0
 74
     0
  0
LTYPE
  5
41
330
5
100
AcDbSymbolTableRecord
100
AcDbLinetypeTableRecord
  2
DOT_CENTER
 70
     0
  3
Dot_Center
 72
    65
 73
     4
 40
14.0
 49
12.0
 74
     0
 49
-1.0
 74
     0
 49
0.0
 74
     0
 49
-1.0
 74
     0
  0
LTYPE
  5
42
330
5
100
AcDbSymbolTableRecord
100
AcDbLinetypeTableRecord
  2
LONG_DASHED
 70
     0
  3
Long_Dashed
 72
    65
 73
     2
 40
15.0
 49
10.0
 74
     0
 49
-5.0
 74
     0
  0
LTYPE
  5
43
330
5
100
AcDbSymbolTableRecord
100
AcDbLinetypeTableRecord
  2
DASH_CENTER
 70
     0
  3
Dash_Center
 72
    65
 73
     4
 40
14.0
 49
11.0
 74
     0
 49
-1.0
 74
     0
 49
1.0
 74
     0
 49
-1.0
 74
     0
  0
LTYPE
  5
44
330
5
100
AcDbSymbolTableRecord
100
AcDbLinetypeTableRecord
  2
PHANTOM
 70
     0
  3
Phantom
 72
    65
 73
     6
 40
13.0
 49
10.0
 74
     0
 49
-1.0
 74
     0
 49
0.0
 74
     0
 49
-1.0
 74
     0
 49
0.0
 74
     0
 49
-1.0
 74
     0
  0
LTYPE
  5
45
330
5
100
AcDbSymbolTableRecord
100
AcDbLinetypeTableRecord
  2
CENTER_DASH_DASH
 70
     0
  3
Center_Dash_Dash
 72
    65
 73
     6
 40
14.0
 49
9.0
 74
     0
 49
-1.0
 74
     0
 49
1.0
 74
     0
 49
-1.0
 74
     0
 49
1.0
 74
     0
 49
-1.0
 74
     0
  0
LTYPE
  5
46
330
5
100
AcDbSymbolTableRecord
100
AcDbLinetypeTableRecord
  2
DASHED1
 70
     0
  3
DASHED1
 72
    65
 73
     2
 40
10.0
 49
5.0
 74
     0
 49
-5.0
 74
     0
  0
ENDTAB
  0
TABLE
  2
LAYER
  5
2
330
0
100
AcDbSymbolTable
 70
     4
  0
LAYER
  5
10
330
2
100
AcDbSymbolTableRecord
100
AcDbLayerTableRecord
  2
0
 70
     0
 62
     7
  6
Continuous
370
    -3
390
F
  0
LAYER
  5
47
330
2
100
AcDbSymbolTableRecord
100
AcDbLayerTableRecord
  2
1
 70
     0
 62
     7
  6
Continuous
370
    -3
390
F
  0
LAYER
  5
48
330
2
100
AcDbSymbolTableRecord
100
AcDbLayerTableRecord
  2
20線分-細線
 70
     0
 62
     7
  6
Continuous
370
    -3
390
F
  0
LAYER
  5
49
330
2
100
AcDbSymbolTableRecord
100
AcDbLayerTableRecord
  2
_0-0_0
 70
     0
 62
     7
  6
Continuous
370
    -3
390
F
  0
ENDTAB
  0
TABLE
  2
STYLE
  5
3
330
0
100
AcDbSymbolTable
 70
     1
  0
STYLE
  5
11
330
3
100
AcDbSymbolTableRecord
100
AcDbTextStyleTableRecord
  2
Standard
 70
     0
 40
0.0
 41
1.0
 50
0.0
 71
     0
 42
0.2
  3
txt
  4

  0
ENDTAB
  0
TABLE
  2
VIEW
  5
6
330
0
100
AcDbSymbolTable
 70
     0
  0
ENDTAB
  0
TABLE
  2
UCS
  5
7
330
0
100
AcDbSymbolTable
 70
     0
  0
ENDTAB
  0
TABLE
  2
APPID
  5
9
330
0
100
AcDbSymbolTable
 70
     1
  0
APPID
  5
12
330
9
100
AcDbSymbolTableRecord
100
AcDbRegAppTableRecord
  2
ACAD
 70
     0
  0
ENDTAB
  0
TABLE
  2
DIMSTYLE
  5
A
330
0
100
AcDbSymbolTable
 70
     1
100
AcDbDimStyleTable
  0
DIMSTYLE
105
27
330
A
100
AcDbSymbolTableRecord
100
AcDbDimStyleTableRecord
  2
Standard
 70
     0
340
11
  0
ENDTAB
  0
TABLE
  2
BLOCK_RECORD
  5
1
330
0
100
AcDbSymbolTable
 70
     1
  0
BLOCK_RECORD
  5
1F
330
1
100
AcDbSymbolTableRecord
100
AcDbBlockTableRecord
  2
*Model_Space
340
22
  0
BLOCK_RECORD
  5
1B
330
1
100
AcDbSymbolTableRecord
100
AcDbBlockTableRecord
  2
*Paper_Space
340
1E
  0
BLOCK_RECORD
  5
23
330
1
100
AcDbSymbolTableRecord
100
AcDbBlockTableRecord
  2
*Paper_Space0
340
26
  0
ENDTAB
  0
ENDSEC
  0
SECTION
  2
BLOCKS
  0
BLOCK
  5
20
330
1F
100
AcDbEntity
  8
0
100
AcDbBlockBegin
  2
*Model_Space
 70
     0
 10
0.0
 20
0.0
 30
0.0
  3
*Model_Space
  1

  0
ENDBLK
  5
21
330
1F
100
AcDbEntity
  8
0
100
AcDbBlockEnd
  0
BLOCK
  5
1C
330
1B
100
AcDbEntity
 67
     1
  8
0
100
AcDbBlockBegin
  2
*Paper_Space
 70
     0
 10
0.0
 20
0.0
 30
0.0
  3
*Paper_Space
  1

  0
ENDBLK
  5
1D
330
1B
100
AcDbEntity
 67
     1
  8
0
100
AcDbBlockEnd
  0
BLOCK
  5
24
330
23
100
AcDbEntity
  8
0
100
AcDbBlockBegin
  2
*Paper_Space0
 70
     0
 10
0.0
 20
0.0
 30
0.0
  3
*Paper_Space0
  1

  0
ENDBLK
  5
25
330
23
100
AcDbEntity
  8
0
100
AcDbBlockEnd
  0
ENDSEC
  0
SECTION
  2
ENTITIES
  0
LINE
  5
4A
330
1F
100
AcDbEntity
  8
1
  6
DOT_CENTER
 62
     1
100
AcDbLine
 10
289.0
 20
672.0
 30
0.0
 11
719.0
 21
672.0
 31
0.0
  0
LINE
  5
4B
330
1F
100
AcDbEntity
  8
1
  6
DOT_CENTER
 62
     1
100
AcDbLine
 10
504.0
 20
507.000000000001
 30
0.0
 11
504.0
 21
836.999999999996
 31
0.0
  0
LINE
  5
4C
330
1F
100
AcDbEntity
  8
1
  6
DOT_CENTER
 62
     1
100
AcDbLine
 10
504.0
 20
206.500050194935
 30
0.0
 11
504.0
 21
367.0
 31
0.0
  0
LINE
  5
4D
330
1F
100
AcDbEntity
  8
_0-0_0
  6
Continuous
 62
     3
100
AcDbLine
 10
349.0
 20
821.999999999996
 30
0.0
 11
659.0
 21
821.999999999996
 31
0.0
  0
LINE
  5
4E
330
1F
100
AcDbEntity
  8
_0-0_0
  6
Continuous
 62
     3
100
AcDbLine
 10
304.0
 20
567.0
 30
0.0
 11
304.0
 21
776.999999999996
 31
0.0
  0
LINE
  5
4F
330
1F
100
AcDbEntity
  8
_0-0_0
  6
Continuous
 62
     3
100
AcDbLine
 10
349.0
 20
522.0
 30
0.0
 11
659.0
 21
522.0
 31
0.0
  0
LINE
  5
50
330
1F
100
AcDbEntity
  8
_0-0_0
  6
Continuous
 62
     3
100
AcDbLine
 10
704.0
 20
567.0
 30
0.0
 11
704.0
 21
776.999999999996
 31
0.0
  0
LINE
  5
51
330
1F
100
AcDbEntity
  8
_0-0_0
  6
Continuous
 62
     3
100
AcDbLine
 10
349.0
 20
819.999999999996
 30
0.0
 11
659.0
 21
819.999999999996
 31
0.0
  0
LINE
  5
52
330
1F
100
AcDbEntity
  8
_0-0_0
  6
Continuous
 62
     3
100
AcDbLine
 10
306.0
 20
567.0
 30
0.0
 11
306.0
 21
776.999999999996
 31
0.0
  0
LINE
  5
53
330
1F
100
AcDbEntity
  8
_0-0_0
  6
Continuous
 62
     3
100
AcDbLine
 10
349.0
 20
524.0
 30
0.0
 11
659.0
 21
524.0
 31
0.0
  0
LINE
  5
54
330
1F
100
AcDbEntity
  8
_0-0_0
  6
Continuous
 62
     3
100
AcDbLine
 10
702.0
 20
567.0
 30
0.0
 11
702.0
 21
776.999999999996
 31
0.0
  0
LINE
  5
55
330
1F
100
AcDbEntity
  8
_0-0_0
  6
Continuous
 62
     3
100
AcDbLine
 10
359.033998827198
 20
605.1
 30
0.0
 11
359.033998827198
 21
738.9
 31
0.0
  0
LINE
  5
56
330
1F
100
AcDbEntity
  8
_0-0_0
  6
Continuous
 62
     3
100
AcDbLine
 10
620.9
 20
577.0
 30
0.0
 11
387.133998827198
 21
577.0
 31
0.0
  0
LINE
  5
57
330
1F
100
AcDbEntity
  8
_0-0_0
  6
Continuous
 62
     3
100
AcDbLine
 10
620.9
 20
766.999999999996
 30
0.0
 11
387.133998827198
 21
766.999999999996
 31
0.0
  0
LINE
  5
58
330
1F
100
AcDbEntity
  8
_0-0_0
  6
Continuous
 62
     3
100
AcDbLine
 10
649.0
 20
738.9
 30
0.0
 11
649.0
 21
605.1
 31
0.0
  0
LINE
  5
59
330
1F
100
AcDbEntity
  8
_0-0_0
  6
Continuous
 62
     3
100
AcDbLine
 10
320.921334476955
 20
567.0
 30
0.0
 11
320.921334476955
 21
778.094779633056
 31
0.0
  0
LINE
  5
5A
330
1F
100
AcDbEntity
  8
_0-0_0
  6
Continuous
 62
     3
100
AcDbLine
 10
659.0
 20
805.099999999996
 30
0.0
 11
349.0
 21
805.099999999996
 31
0.0
  0
LINE
  5
5B
330
1F
100
AcDbEntity
  8
_0-0_0
  6
Continuous
 62
     3
100
AcDbLine
 10
349.021334476955
 20
538.9
 30
0.0
 11
659.0
 21
538.9
 31
0.0
  0
LINE
  5
5C
330
1F
100
AcDbEntity
  8
_0-0_0
  6
Continuous
 62
     3
100
AcDbLine
 10
687.1
 20
567.0
 30
0.0
 11
687.1
 21
776.999999999996
 31
0.0
  0
LINE
  5
5D
330
1F
100
AcDbEntity
  8
_0-0_0
  6
Continuous
 62
     3
100
AcDbLine
 10
702.397117558102
 20
347.433148081824
 30
0.0
 11
704.0
 21
329.0
 31
0.0
  0
LINE
  5
5E
330
1F
100
AcDbEntity
  8
_0-0_0
  6
Continuous
 62
     3
100
AcDbLine
 10
305.602882441897
 20
347.433148081824
 30
0.0
 11
304.0
 21
329.0
 31
0.0
  0
LINE
  5
5F
330
1F
100
AcDbEntity
  8
_0-0_0
  6
DASHED1
 62
     4
100
AcDbLine
 10
472.0
 20
265.000025185839
 30
0.0
 11
536.0
 21
265.000025185839
 31
0.0
  0
LINE
  5
60
330
1F
100
AcDbEntity
  8
_0-0_0
  6
Continuous
 62
     4
100
AcDbLine
 10
349.0
 20
256.0
 30
0.0
 11
659.0
 21
256.0
 31
0.0
  0
LINE
  5
61
330
1F
100
AcDbEntity
  8
_0-0_0
  6
Continuous
 62
     3
100
AcDbLine
 10
488.0
 20
221.500050194935
 30
0.0
 11
520.0
 21
221.500050194935
 31
0.0
  0
LINE
  5
62
330
1F
100
AcDbEntity
  8
_0-0_0
  6
Continuous
 62
     3
100
AcDbLine
 10
520.505442368178
 20
252.0
 30
0.0
 11
520.0
 21
250.500050194935
 31
0.0
  0
LINE
  5
63
330
1F
100
AcDbEntity
  8
_0-0_0
  6
Continuous
 62
     3
100
AcDbLine
 10
487.494557631822
 20
252.0
 30
0.0
 11
488.0
 21
250.500050194935
 31
0.0
  0
LINE
  5
64
330
1F
100
AcDbEntity
  8
_0-0_0
  6
Continuous
 62
     3
100
AcDbLine
 10
350.0
 20
252.0
 30
0.0
 11
658.0
 21
252.0
 31
0.0
  0
LINE
  5
65
330
1F
100
AcDbEntity
  8
_0-0_0
  6
Continuous
 62
     3
100
AcDbLine
 10
304.0
 20
329.0
 30
0.0
 11
704.0
 21
329.0
 31
0.0
  0
LINE
  5
66
330
1F
100
AcDbEntity
  8
_0-0_0
  6
Continuous
 62
     3
100
AcDbLine
 10
316.0
 20
327.0
 30
0.0
 11
692.0
 21
327.0
 31
0.0
  0
LINE
  5
67
330
1F
100
AcDbEntity
  8
_0-0_0
  6
Continuous
 62
     3
100
AcDbLine
 10
697.415914617124
 20
352.0
 30
0.0
 11
310.584085382876
 21
352.0
 31
0.0
  0
LINE
  5
68
330
1F
100
AcDbEntity
  8
_0-0_0
  6
DASHED1
 62
     4
100
AcDbLine
 10
630.766043200409
 20
269.194474941365
 30
0.0
 11
536.0
 21
265.000025185839
 31
0.0
  0
LINE
  5
69
330
1F
100
AcDbEntity
  8
_0-0_0
  6
DASHED1
 62
     4
100
AcDbLine
 10
656.644548631972
 20
286.520536385874
 30
0.0
 11
683.045367405782
 21
343.322297990131
 31
0.0
  0
LINE
  5
6A
330
1F
100
AcDbEntity
  8
_0-0_0
  6
DASHED1
 62
     4
100
AcDbLine
 10
377.233956799591
 20
269.194474941365
 30
0.0
 11
472.0
 21
265.000025185839
 31
0.0
  0
LINE
  5
6B
330
1F
100
AcDbEntity
  8
_0-0_0
  6
DASHED1
 62
     4
100
AcDbLine
 10
351.355451368027
 20
286.520536385874
 30
0.0
 11
324.954632594218
 21
343.322297990131
 31
0.0
  0
LINE
  5
6C
330
1F
100
AcDbEntity
  8
_0-0_0
  6
Continuous
 62
     3
100
AcDbLine
 10
692.0
 20
327.0
 30
0.0
 11
659.0
 21
256.0
 31
0.0
  0
LINE
  5
6D
330
1F
100
AcDbEntity
  8
_0-0_0
  6
Continuous
 62
     3
100
AcDbLine
 10
659.0
 20
256.0
 30
0.0
 11
658.0
 21
252.0
 31
0.0
  0
LINE
  5
6E
330
1F
100
AcDbEntity
  8
_0-0_0
  6
Continuous
 62
     3
100
AcDbLine
 10
692.0
 20
327.0
 30
0.0
 11
704.0
 21
329.0
 31
0.0
  0
LINE
  5
6F
330
1F
100
AcDbEntity
  8
_0-0_0
  6
Continuous
 62
     3
100
AcDbLine
 10
316.0
 20
327.0
 30
0.0
 11
349.0
 21
256.0
 31
0.0
  0
LINE
  5
70
330
1F
100
AcDbEntity
  8
_0-0_0
  6
Continuous
 62
     3
100
AcDbLine
 10
316.0
 20
327.0
 30
0.0
 11
304.0
 21
329.0
 31
0.0
  0
LINE
  5
71
330
1F
100
AcDbEntity
  8
_0-0_0
  6
Continuous
 62
     3
100
AcDbLine
 10
521.499993224403
 20
252.0
 30
0.0
 11
530.000005876236
 21
252.0
 31
0.0
  0
LINE
  5
72
330
1F
100
AcDbEntity
  8
_0-0_0
  6
Continuous
 62
     3
100
AcDbLine
 10
521.499993224403
 20
252.0
 30
0.0
 11
530.000005876236
 21
252.0
 31
0.0
  0
LINE
  5
73
330
1F
100
AcDbEntity
  8
_0-0_0
  6
Continuous
 62
     3
100
AcDbLine
 10
520.0
 20
250.500050194935
 30
0.0
 11
520.0
 21
221.500050194935
 31
0.0
  0
LINE
  5
74
330
1F
100
AcDbEntity
  8
_0-0_0
  6
Continuous
 62
     3
100
AcDbLine
 10
488.0
 20
250.500050194935
 30
0.0
 11
488.0
 21
221.500050194935
 31
0.0
  0
LINE
  5
75
330
1F
100
AcDbEntity
  8
_0-0_0
  6
Continuous
 62
     3
100
AcDbLine
 10
349.0
 20
256.0
 30
0.0
 11
350.0
 21
252.0
 31
0.0
  0
LINE
  5
76
330
1F
100
AcDbEntity
  8
20線分-細線
  6
Continuous
 62
     3
100
AcDbLine
 10
520.855176578528
 20
654.06
 30
0.0
 11
508.289999999772
 21
654.059999999924
 31
0.0
  0
LINE
  5
77
330
1F
100
AcDbEntity
  8
20線分-細線
  6
Continuous
 62
     3
100
AcDbLine
 10
520.855176578448
 20
658.74
 30
0.0
 11
508.289999999772
 21
658.739999999924
 31
0.0
  0
LINE
  5
78
330
1F
100
AcDbEntity
  8
20線分-細線
  6
Continuous
 62
     3
100
AcDbLine
 10
525.780167909764
 20
661.859999999612
 30
0.0
 11
520.379999999932
 21
661.859999999688
 31
0.0
  0
LINE
  5
79
330
1F
100
AcDbEntity
  8
20線分-細線
  6
Continuous
 62
     3
100
AcDbLine
 10
525.780167909764
 20
666.539999999612
 30
0.0
 11
520.379999999932
 21
666.539999999688
 31
0.0
  0
LINE
  5
7A
330
1F
100
AcDbEntity
  8
20線分-細線
  6
Continuous
 62
     3
100
AcDbLine
 10
482.219832090168
 20
666.54
 30
0.0
 11
487.620000000079
 21
666.54
 31
0.0
  0
LINE
  5
7B
330
1F
100
AcDbEntity
  8
20線分-細線
  6
Continuous
 62
     3
100
AcDbLine
 10
482.219832090089
 20
661.86
 30
0.0
 11
487.62
 21
661.86
 31
0.0
  0
LINE
  5
7C
330
1F
100
AcDbEntity
  8
20線分-細線
  6
Continuous
 62
     3
100
AcDbLine
 10
499.71
 20
669.66
 30
0.0
 11
480.99
 21
669.66
 31
0.0
  0
LINE
  5
7D
330
1F
100
AcDbEntity
  8
20線分-細線
  6
Continuous
 62
     3
100
AcDbLine
 10
499.71
 20
674.34
 30
0.0
 11
480.99
 21
674.34
 31
0.0
  0
LINE
  5
7E
330
1F
100
AcDbEntity
  8
20線分-細線
  6
Continuous
 62
     3
100
AcDbLine
 10
487.144823421404
 20
658.740000000313
 30
0.0
 11
499.710000000079
 21
658.74
 31
0.0
  0
LINE
  5
7F
330
1F
100
AcDbEntity
  8
20線分-細線
  6
Continuous
 62
     3
100
AcDbLine
 10
487.144823421324
 20
654.060000000312
 30
0.0
 11
499.71
 21
654.06
 31
0.0
  0
LINE
  5
80
330
1F
100
AcDbEntity
  8
20線分-細線
  6
Continuous
 62
     3
100
AcDbLine
 10
513.513122515807
 20
650.94
 30
0.0
 11
494.486877484272
 21
650.94
 31
0.0
  0
LINE
  5
81
330
1F
100
AcDbEntity
  8
20線分-細線
  6
Continuous
 62
     3
100
AcDbLine
 10
496.20000000008
 20
666.540000000312
 30
0.0
 11
511.800000000079
 21
666.54
 31
0.0
  0
LINE
  5
82
330
1F
100
AcDbEntity
  8
20線分-細線
  6
Continuous
 62
     3
100
AcDbLine
 10
496.2
 20
661.860000000313
 30
0.0
 11
511.8
 21
661.86
 31
0.0
  0
LINE
  5
83
330
1F
100
AcDbEntity
  8
20線分-細線
  6
Continuous
 62
     3
100
AcDbLine
 10
508.29
 20
674.34
 30
0.0
 11
527.01
 21
674.34
 31
0.0
  0
LINE
  5
84
330
1F
100
AcDbEntity
  8
20線分-細線
  6
Continuous
 62
     3
100
AcDbLine
 10
508.29
 20
669.66
 30
0.0
 11
527.01
 21
669.66
 31
0.0
  0
LINE
  5
85
330
1F
100
AcDbEntity
  8
20線分-細線
  6
Continuous
 62
     3
100
AcDbLine
 10
496.2
 20
682.139999999612
 30
0.0
 11
511.799999999932
 21
682.139999999924
 31
0.0
  0
LINE
  5
86
330
1F
100
AcDbEntity
  8
20線分-細線
  6
Continuous
 62
     3
100
AcDbLine
 10
496.20000000008
 20
677.459999999612
 30
0.0
 11
511.800000000079
 21
677.459999999924
 31
0.0
  0
LINE
  5
87
330
1F
100
AcDbEntity
  8
20線分-細線
  6
Continuous
 62
     3
100
AcDbLine
 10
513.513122515807
 20
693.06
 30
0.0
 11
494.486877484272
 21
693.06
 31
0.0
  0
LINE
  5
88
330
1F
100
AcDbEntity
  8
20線分-細線
  6
Continuous
 62
     3
100
AcDbLine
 10
487.144823421245
 20
689.939999999612
 30
0.0
 11
499.709999999932
 21
689.939999999924
 31
0.0
  0
LINE
  5
89
330
1F
100
AcDbEntity
  8
20線分-細線
  6
Continuous
 62
     3
100
AcDbLine
 10
487.144823421324
 20
685.259999999612
 30
0.0
 11
499.710000000079
 21
685.259999999924
 31
0.0
  0
LINE
  5
8A
330
1F
100
AcDbEntity
  8
20線分-細線
  6
Continuous
 62
     3
100
AcDbLine
 10
482.219832090089
 20
682.139999999924
 30
0.0
 11
487.619999999931
 21
682.139999999924
 31
0.0
  0
LINE
  5
8B
330
1F
100
AcDbEntity
  8
20線分-細線
  6
Continuous
 62
     3
100
AcDbLine
 10
482.219832090168
 20
677.459999999924
 30
0.0
 11
487.620000000079
 21
677.459999999924
 31
0.0
  0
LINE
  5
8C
330
1F
100
AcDbEntity
  8
20線分-細線
  6
Continuous
 62
     3
100
AcDbLine
 10
525.780167909764
 20
677.460000000312
 30
0.0
 11
520.379999999932
 21
677.460000000236
 31
0.0
  0
LINE
  5
8D
330
1F
100
AcDbEntity
  8
20線分-細線
  6
Continuous
 62
     3
100
AcDbLine
 10
525.780167909764
 20
682.140000000313
 30
0.0
 11
520.379999999932
 21
682.140000000236
 31
0.0
  0
LINE
  5
8E
330
1F
100
AcDbEntity
  8
20線分-細線
  6
Continuous
 62
     3
100
AcDbLine
 10
520.855176578448
 20
685.259999999924
 30
0.0
 11
508.289999999772
 21
685.26
 31
0.0
  0
LINE
  5
8F
330
1F
100
AcDbEntity
  8
20線分-細線
  6
Continuous
 62
     3
100
AcDbLine
 10
520.855176578448
 20
689.939999999924
 30
0.0
 11
508.289999999772
 21
689.94
 31
0.0
  0
LINE
  5
90
330
1F
100
AcDbEntity
  8
1
  6
DOT_CENTER
 62
     1
100
AcDbLine
 10
999.17032967033
 20
206.500050194935
 30
0.0
 11
999.17032967033
 21
367.0
 31
0.0
  0
LINE
  5
91
330
1F
100
AcDbEntity
  8
_0-0_0
  6
Continuous
 62
     3
100
AcDbLine
 10
1147.56744722843
 20
347.433148081824
 30
0.0
 11
1149.17032967033
 21
329.0
 31
0.0
  0
LINE
  5
92
330
1F
100
AcDbEntity
  8
_0-0_0
  6
Continuous
 62
     3
100
AcDbLine
 10
850.773212112227
 20
347.433148081824
 30
0.0
 11
849.17032967033
 21
329.0
 31
0.0
  0
LINE
  5
93
330
1F
100
AcDbEntity
  8
_0-0_0
  6
DASHED1
 62
     4
100
AcDbLine
 10
967.17032967033
 20
265.000025185839
 30
0.0
 11
1031.17032967033
 21
265.000025185839
 31
0.0
  0
LINE
  5
94
330
1F
100
AcDbEntity
  8
_0-0_0
  6
Continuous
 62
     4
100
AcDbLine
 10
894.17032967033
 20
256.0
 30
0.0
 11
1104.17032967033
 21
256.0
 31
0.0
  0
LINE
  5
95
330
1F
100
AcDbEntity
  8
_0-0_0
  6
Continuous
 62
     3
100
AcDbLine
 10
983.17032967033
 20
221.500050194935
 30
0.0
 11
1015.17032967033
 21
221.500050194935
 31
0.0
  0
LINE
  5
96
330
1F
100
AcDbEntity
  8
_0-0_0
  6
Continuous
 62
     3
100
AcDbLine
 10
1015.67577203851
 20
252.0
 30
0.0
 11
1015.17032967033
 21
250.500050194935
 31
0.0
  0
LINE
  5
97
330
1F
100
AcDbEntity
  8
_0-0_0
  6
Continuous
 62
     3
100
AcDbLine
 10
982.664887302152
 20
252.0
 30
0.0
 11
983.17032967033
 21
250.500050194935
 31
0.0
  0
LINE
  5
98
330
1F
100
AcDbEntity
  8
_0-0_0
  6
Continuous
 62
     3
100
AcDbLine
 10
895.17032967033
 20
252.0
 30
0.0
 11
1103.17032967033
 21
252.0
 31
0.0
  0
LINE
  5
99
330
1F
100
AcDbEntity
  8
_0-0_0
  6
Continuous
 62
     3
100
AcDbLine
 10
849.17032967033
 20
329.0
 30
0.0
 11
1149.17032967033
 21
329.0
 31
0.0
  0
LINE
  5
9A
330
1F
100
AcDbEntity
  8
_0-0_0
  6
Continuous
 62
     3
100
AcDbLine
 10
861.17032967033
 20
327.0
 30
0.0
 11
1137.17032967033
 21
327.0
 31
0.0
  0
LINE
  5
9B
330
1F
100
AcDbEntity
  8
_0-0_0
  6
Continuous
 62
     3
100
AcDbLine
 10
1142.58624428745
 20
352.0
 30
0.0
 11
855.754415053206
 21
352.0
 31
0.0
  0
LINE
  5
9C
330
1F
100
AcDbEntity
  8
_0-0_0
  6
DASHED1
 62
     4
100
AcDbLine
 10
1093.0861227603
 20
267.740486583391
 30
0.0
 11
1031.17032967033
 21
265.000025185839
 31
0.0
  0
LINE
  5
9D
330
1F
100
AcDbEntity
  8
_0-0_0
  6
DASHED1
 62
     4
100
AcDbLine
 10
1093.0861227603
 20
267.740486583391
 30
0.0
 11
1128.21569707611
 21
343.322297990131
 31
0.0
  0
LINE
  5
9E
330
1F
100
AcDbEntity
  8
_0-0_0
  6
DASHED1
 62
     4
100
AcDbLine
 10
905.254536580356
 20
267.740486583391
 30
0.0
 11
967.17032967033
 21
265.000025185839
 31
0.0
  0
LINE
  5
9F
330
1F
100
AcDbEntity
  8
_0-0_0
  6
DASHED1
 62
     4
100
AcDbLine
 10
905.254536580356
 20
267.740486583391
 30
0.0
 11
870.124962264548
 21
343.322297990131
 31
0.0
  0
LINE
  5
A0
330
1F
100
AcDbEntity
  8
_0-0_0
  6
Continuous
 62
     3
100
AcDbLine
 10
1137.17032967033
 20
327.0
 30
0.0
 11
1104.17032967033
 21
256.0
 31
0.0
  0
LINE
  5
A1
330
1F
100
AcDbEntity
  8
_0-0_0
  6
Continuous
 62
     3
100
AcDbLine
 10
1104.17032967033
 20
256.0
 30
0.0
 11
1103.17032967033
 21
252.0
 31
0.0
  0
LINE
  5
A2
330
1F
100
AcDbEntity
  8
_0-0_0
  6
Continuous
 62
     3
100
AcDbLine
 10
1137.17032967033
 20
327.0
 30
0.0
 11
1149.17032967033
 21
329.0
 31
0.0
  0
LINE
  5
A3
330
1F
100
AcDbEntity
  8
_0-0_0
  6
Continuous
 62
     3
100
AcDbLine
 10
861.17032967033
 20
327.0
 30
0.0
 11
894.17032967033
 21
256.0
 31
0.0
  0
LINE
  5
A4
330
1F
100
AcDbEntity
  8
_0-0_0
  6
Continuous
 62
     3
100
AcDbLine
 10
861.17032967033
 20
327.0
 30
0.0
 11
849.17032967033
 21
329.0
 31
0.0
  0
LINE
  5
A5
330
1F
100
AcDbEntity
  8
_0-0_0
  6
Continuous
 62
     3
100
AcDbLine
 10
1016.67032289473
 20
252.0
 30
0.0
 11
1025.17033554657
 21
252.0
 31
0.0
  0
LINE
  5
A6
330
1F
100
AcDbEntity
  8
_0-0_0
  6
Continuous
 62
     3
100
AcDbLine
 10
1016.67032289473
 20
252.0
 30
0.0
 11
1025.17033554657
 21
252.0
 31
0.0
  0
LINE
  5
A7
330
1F
100
AcDbEntity
  8
_0-0_0
  6
Continuous
 62
     3
100
AcDbLine
 10
1015.17032967033
 20
250.500050194935
 30
0.0
 11
1015.17032967033
 21
221.500050194935
 31
0.0
  0
LINE
  5
A8
330
1F
100
AcDbEntity
  8
_0-0_0
  6
Continuous
 62
     3
100
AcDbLine
 10
983.17032967033
 20
250.500050194935
 30
0.0
 11
983.17032967033
 21
221.500050194935
 31
0.0
  0
LINE
  5
A9
330
1F
100
AcDbEntity
  8
_0-0_0
  6
Continuous
 62
     3
100
AcDbLine
 10
894.17032967033
 20
256.0
 30
0.0
 11
895.17032967033
 21
252.0
 31
0.0
  0
LINE
  5
AA
330
1F
100
AcDbEntity
  8
1
  6
Continuous
 62
     4
100
AcDbLine
 10
901.637486169804
 20
761.030783200594
 30
0.0
 11
892.813956758039
 21
761.030783200594
 31
0.0
  0
LINE
  5
AB
330
1F
100
AcDbEntity
  8
1
  6
Continuous
 62
     4
100
AcDbLine
 10
892.813956758039
 20
761.030783200594
 30
0.0
 11
892.813956758039
 21
754.030783200594
 31
0.0
  0
LINE
  5
AC
330
1F
100
AcDbEntity
  8
1
  6
Continuous
 62
     4
100
AcDbLine
 10
892.813956758039
 20
746.030783200594
 30
0.0
 11
901.637486169804
 21
746.030783200594
 31
0.0
  0
LINE
  5
AD
330
1F
100
AcDbEntity
  8
1
  6
Continuous
 62
     4
100
AcDbLine
 10
892.813956758039
 20
754.030783200594
 30
0.0
 11
900.755133228627
 21
754.030783200594
 31
0.0
  0
LINE
  5
AE
330
1F
100
AcDbEntity
  8
1
  6
Continuous
 62
     4
100
AcDbLine
 10
892.813956758039
 20
754.030783200594
 30
0.0
 11
892.813956758039
 21
746.030783200594
 31
0.0
  0
LINE
  5
AF
330
1F
100
AcDbEntity
  8
1
  6
Continuous
 62
     4
100
AcDbLine
 10
906.049250875686
 20
753.530783200594
 30
0.0
 11
913.990427346274
 21
753.530783200594
 31
0.0
  0
LINE
  5
B0
330
1F
100
AcDbEntity
  8
1
  6
Continuous
 62
     4
100
AcDbLine
 10
928.108074405098
 20
757.530783200594
 30
0.0
 11
927.225721463921
 21
759.030783200594
 31
0.0
  0
LINE
  5
B1
330
1F
100
AcDbEntity
  8
1
  6
Continuous
 62
     4
100
AcDbLine
 10
927.225721463921
 20
759.030783200594
 30
0.0
 11
926.343368522745
 21
760.030783200594
 31
0.0
  0
LINE
  5
B2
330
1F
100
AcDbEntity
  8
1
  6
Continuous
 62
     4
100
AcDbLine
 10
926.343368522745
 20
760.030783200594
 30
0.0
 11
925.461015581568
 21
760.530783200594
 31
0.0
  0
LINE
  5
B3
330
1F
100
AcDbEntity
  8
1
  6
Continuous
 62
     4
100
AcDbLine
 10
925.461015581568
 20
760.530783200594
 30
0.0
 11
923.255133228627
 21
761.030783200594
 31
0.0
  0
LINE
  5
B4
330
1F
100
AcDbEntity
  8
1
  6
Continuous
 62
     4
100
AcDbLine
 10
923.255133228627
 20
761.030783200594
 30
0.0
 11
921.490427346274
 21
760.530783200594
 31
0.0
  0
LINE
  5
B5
330
1F
100
AcDbEntity
  8
1
  6
Continuous
 62
     4
100
AcDbLine
 10
921.490427346274
 20
760.530783200594
 30
0.0
 11
920.16689793451
 21
759.530783200594
 31
0.0
  0
LINE
  5
B6
330
1F
100
AcDbEntity
  8
1
  6
Continuous
 62
     4
100
AcDbLine
 10
920.16689793451
 20
759.530783200594
 30
0.0
 11
919.725721463921
 21
758.530783200594
 31
0.0
  0
LINE
  5
B7
330
1F
100
AcDbEntity
  8
1
  6
Continuous
 62
     4
100
AcDbLine
 10
919.725721463921
 20
758.530783200594
 30
0.0
 11
918.843368522745
 21
755.530783200594
 31
0.0
  0
LINE
  5
B8
330
1F
100
AcDbEntity
  8
1
  6
Continuous
 62
     4
100
AcDbLine
 10
918.843368522745
 20
755.530783200594
 30
0.0
 11
918.402192052157
 21
753.530783200594
 31
0.0
  0
LINE
  5
B9
330
1F
100
AcDbEntity
  8
1
  6
Continuous
 62
     4
100
AcDbLine
 10
918.402192052157
 20
753.530783200594
 30
0.0
 11
918.843368522745
 21
751.530783200594
 31
0.0
  0
LINE
  5
BA
330
1F
100
AcDbEntity
  8
1
  6
Continuous
 62
     4
100
AcDbLine
 10
918.843368522745
 20
751.530783200594
 30
0.0
 11
919.284544993333
 21
749.530783200594
 31
0.0
  0
LINE
  5
BB
330
1F
100
AcDbEntity
  8
1
  6
Continuous
 62
     4
100
AcDbLine
 10
919.284544993333
 20
749.530783200594
 30
0.0
 11
919.725721463921
 21
748.530783200594
 31
0.0
  0
LINE
  5
BC
330
1F
100
AcDbEntity
  8
1
  6
Continuous
 62
     4
100
AcDbLine
 10
919.725721463921
 20
748.530783200594
 30
0.0
 11
921.049250875686
 21
746.530783200594
 31
0.0
  0
LINE
  5
BD
330
1F
100
AcDbEntity
  8
1
  6
Continuous
 62
     4
100
AcDbLine
 10
921.049250875686
 20
746.530783200594
 30
0.0
 11
923.255133228627
 21
746.030783200594
 31
0.0
  0
LINE
  5
BE
330
1F
100
AcDbEntity
  8
1
  6
Continuous
 62
     4
100
AcDbLine
 10
923.255133228627
 20
746.030783200594
 30
0.0
 11
925.461015581568
 21
746.530783200594
 31
0.0
  0
LINE
  5
BF
330
1F
100
AcDbEntity
  8
1
  6
Continuous
 62
     4
100
AcDbLine
 10
925.461015581568
 20
746.530783200594
 30
0.0
 11
926.784544993333
 21
747.530783200594
 31
0.0
  0
LINE
  5
C0
330
1F
100
AcDbEntity
  8
1
  6
Continuous
 62
     4
100
AcDbLine
 10
926.784544993333
 20
747.530783200594
 30
0.0
 11
927.66689793451
 21
748.530783200594
 31
0.0
  0
LINE
  5
C1
330
1F
100
AcDbEntity
  8
1
  6
Continuous
 62
     4
100
AcDbLine
 10
927.66689793451
 20
748.530783200594
 30
0.0
 11
928.108074405098
 21
750.030783200594
 31
0.0
  0
LINE
  5
C2
330
1F
100
AcDbEntity
  8
1
  6
Continuous
 62
     4
100
AcDbLine
 10
928.108074405098
 20
750.030783200594
 30
0.0
 11
928.108074405098
 21
753.030783200594
 31
0.0
  0
LINE
  5
C3
330
1F
100
AcDbEntity
  8
1
  6
Continuous
 62
     4
100
AcDbLine
 10
928.108074405098
 20
753.030783200594
 30
0.0
 11
924.137486169804
 21
753.030783200594
 31
0.0
  0
LINE
  5
C4
330
1F
100
AcDbEntity
  8
1
  6
Continuous
 62
     4
100
AcDbLine
 10
932.51983911098
 20
746.030783200594
 30
0.0
 11
932.51983911098
 21
753.030783200594
 31
0.0
  0
LINE
  5
C5
330
1F
100
AcDbEntity
  8
1
  6
Continuous
 62
     4
100
AcDbLine
 10
932.51983911098
 20
760.530783200594
 30
0.0
 11
938.255133228627
 21
760.530783200594
 31
0.0
  0
LINE
  5
C6
330
1F
100
AcDbEntity
  8
1
  6
Continuous
 62
     4
100
AcDbLine
 10
938.255133228627
 20
760.530783200594
 30
0.0
 11
940.01983911098
 21
759.530783200594
 31
0.0
  0
LINE
  5
C7
330
1F
100
AcDbEntity
  8
1
  6
Continuous
 62
     4
100
AcDbLine
 10
940.01983911098
 20
759.530783200594
 30
0.0
 11
940.902192052157
 21
758.030783200594
 31
0.0
  0
LINE
  5
C8
330
1F
100
AcDbEntity
  8
1
  6
Continuous
 62
     4
100
AcDbLine
 10
940.902192052157
 20
758.030783200594
 30
0.0
 11
941.343368522745
 21
757.030783200594
 31
0.0
  0
LINE
  5
C9
330
1F
100
AcDbEntity
  8
1
  6
Continuous
 62
     4
100
AcDbLine
 10
941.343368522745
 20
757.030783200594
 30
0.0
 11
940.902192052157
 21
755.030783200594
 31
0.0
  0
LINE
  5
CA
330
1F
100
AcDbEntity
  8
1
  6
Continuous
 62
     4
100
AcDbLine
 10
940.902192052157
 20
755.030783200594
 30
0.0
 11
940.01983911098
 21
754.030783200594
 31
0.0
  0
LINE
  5
CB
330
1F
100
AcDbEntity
  8
1
  6
Continuous
 62
     4
100
AcDbLine
 10
940.01983911098
 20
754.030783200594
 30
0.0
 11
938.255133228627
 21
753.030783200594
 31
0.0
  0
LINE
  5
CC
330
1F
100
AcDbEntity
  8
1
  6
Continuous
 62
     4
100
AcDbLine
 10
938.255133228627
 20
753.030783200594
 30
0.0
 11
932.51983911098
 21
753.030783200594
 31
0.0
  0
LINE
  5
CD
330
1F
100
AcDbEntity
  8
1
  6
Continuous
 62
     4
100
AcDbLine
 10
932.51983911098
 20
753.030783200594
 30
0.0
 11
932.51983911098
 21
760.530783200594
 31
0.0
  0
LINE
  5
CE
330
1F
100
AcDbEntity
  8
1
  6
Continuous
 62
     4
100
AcDbLine
 10
945.755133228627
 20
761.030783200594
 30
0.0
 11
949.284544993333
 21
746.030783200594
 31
0.0
  0
LINE
  5
CF
330
1F
100
AcDbEntity
  8
1
  6
Continuous
 62
     4
100
AcDbLine
 10
949.284544993333
 20
746.030783200594
 30
0.0
 11
952.372780287451
 21
760.530783200594
 31
0.0
  0
LINE
  5
D0
330
1F
100
AcDbEntity
  8
1
  6
Continuous
 62
     4
100
AcDbLine
 10
952.372780287451
 20
760.530783200594
 30
0.0
 11
955.902192052157
 21
746.030783200594
 31
0.0
  0
LINE
  5
D1
330
1F
100
AcDbEntity
  8
1
  6
Continuous
 62
     4
100
AcDbLine
 10
955.902192052157
 20
746.030783200594
 30
0.0
 11
958.990427346274
 21
761.030783200594
 31
0.0
  0
LINE
  5
D2
330
1F
100
AcDbEntity
  8
1
  6
Continuous
 62
     4
100
AcDbLine
 10
972.66689793451
 20
759.530783200594
 30
0.0
 11
963.402192052157
 21
748.530783200594
 31
0.0
  0
LINE
  5
D3
330
1F
100
AcDbEntity
  8
1
  6
Continuous
 62
     4
100
AcDbLine
 10
985.902192052157
 20
761.030783200594
 30
0.0
 11
977.078662640392
 21
761.030783200594
 31
0.0
  0
LINE
  5
D4
330
1F
100
AcDbEntity
  8
1
  6
Continuous
 62
     4
100
AcDbLine
 10
977.078662640392
 20
761.030783200594
 30
0.0
 11
977.078662640392
 21
754.030783200594
 31
0.0
  0
LINE
  5
D5
330
1F
100
AcDbEntity
  8
1
  6
Continuous
 62
     4
100
AcDbLine
 10
977.078662640392
 20
746.030783200594
 30
0.0
 11
985.902192052157
 21
746.030783200594
 31
0.0
  0
LINE
  5
D6
330
1F
100
AcDbEntity
  8
1
  6
Continuous
 62
     4
100
AcDbLine
 10
977.078662640392
 20
754.030783200594
 30
0.0
 11
985.01983911098
 21
754.030783200594
 31
0.0
  0
LINE
  5
D7
330
1F
100
AcDbEntity
  8
1
  6
Continuous
 62
     4
100
AcDbLine
 10
977.078662640392
 20
754.030783200594
 30
0.0
 11
977.078662640392
 21
746.030783200594
 31
0.0
  0
LINE
  5
D8
330
1F
100
AcDbEntity
  8
1
  6
Continuous
 62
     4
100
AcDbLine
 10
990.313956758039
 20
753.530783200594
 30
0.0
 11
998.255133228627
 21
753.530783200594
 31
0.0
  0
LINE
  5
D9
330
1F
100
AcDbEntity
  8
1
  6
Continuous
 62
     4
100
AcDbLine
 10
1012.37278028745
 20
757.530783200594
 30
0.0
 11
1011.49042734627
 21
759.030783200594
 31
0.0
  0
LINE
  5
DA
330
1F
100
AcDbEntity
  8
1
  6
Continuous
 62
     4
100
AcDbLine
 10
1011.49042734627
 20
759.030783200594
 30
0.0
 11
1010.6080744051
 21
760.030783200594
 31
0.0
  0
LINE
  5
DB
330
1F
100
AcDbEntity
  8
1
  6
Continuous
 62
     4
100
AcDbLine
 10
1010.6080744051
 20
760.030783200594
 30
0.0
 11
1009.72572146392
 21
760.530783200594
 31
0.0
  0
LINE
  5
DC
330
1F
100
AcDbEntity
  8
1
  6
Continuous
 62
     4
100
AcDbLine
 10
1009.72572146392
 20
760.530783200594
 30
0.0
 11
1007.51983911098
 21
761.030783200594
 31
0.0
  0
LINE
  5
DD
330
1F
100
AcDbEntity
  8
1
  6
Continuous
 62
     4
100
AcDbLine
 10
1007.51983911098
 20
761.030783200594
 30
0.0
 11
1005.75513322863
 21
760.530783200594
 31
0.0
  0
LINE
  5
DE
330
1F
100
AcDbEntity
  8
1
  6
Continuous
 62
     4
100
AcDbLine
 10
1005.75513322863
 20
760.530783200594
 30
0.0
 11
1004.43160381686
 21
759.530783200594
 31
0.0
  0
LINE
  5
DF
330
1F
100
AcDbEntity
  8
1
  6
Continuous
 62
     4
100
AcDbLine
 10
1004.43160381686
 20
759.530783200594
 30
0.0
 11
1003.99042734627
 21
758.530783200594
 31
0.0
  0
LINE
  5
E0
330
1F
100
AcDbEntity
  8
1
  6
Continuous
 62
     4
100
AcDbLine
 10
1003.99042734627
 20
758.530783200594
 30
0.0
 11
1003.1080744051
 21
755.530783200594
 31
0.0
  0
LINE
  5
E1
330
1F
100
AcDbEntity
  8
1
  6
Continuous
 62
     4
100
AcDbLine
 10
1003.1080744051
 20
755.530783200594
 30
0.0
 11
1002.66689793451
 21
753.530783200594
 31
0.0
  0
LINE
  5
E2
330
1F
100
AcDbEntity
  8
1
  6
Continuous
 62
     4
100
AcDbLine
 10
1002.66689793451
 20
753.530783200594
 30
0.0
 11
1003.1080744051
 21
751.530783200594
 31
0.0
  0
LINE
  5
E3
330
1F
100
AcDbEntity
  8
1
  6
Continuous
 62
     4
100
AcDbLine
 10
1003.1080744051
 20
751.530783200594
 30
0.0
 11
1003.54925087569
 21
749.530783200594
 31
0.0
  0
LINE
  5
E4
330
1F
100
AcDbEntity
  8
1
  6
Continuous
 62
     4
100
AcDbLine
 10
1003.54925087569
 20
749.530783200594
 30
0.0
 11
1003.99042734627
 21
748.530783200594
 31
0.0
  0
LINE
  5
E5
330
1F
100
AcDbEntity
  8
1
  6
Continuous
 62
     4
100
AcDbLine
 10
1003.99042734627
 20
748.530783200594
 30
0.0
 11
1005.31395675804
 21
746.530783200594
 31
0.0
  0
LINE
  5
E6
330
1F
100
AcDbEntity
  8
1
  6
Continuous
 62
     4
100
AcDbLine
 10
1005.31395675804
 20
746.530783200594
 30
0.0
 11
1007.51983911098
 21
746.030783200594
 31
0.0
  0
LINE
  5
E7
330
1F
100
AcDbEntity
  8
1
  6
Continuous
 62
     4
100
AcDbLine
 10
1007.51983911098
 20
746.030783200594
 30
0.0
 11
1009.72572146392
 21
746.530783200594
 31
0.0
  0
LINE
  5
E8
330
1F
100
AcDbEntity
  8
1
  6
Continuous
 62
     4
100
AcDbLine
 10
1009.72572146392
 20
746.530783200594
 30
0.0
 11
1011.04925087569
 21
747.530783200594
 31
0.0
  0
LINE
  5
E9
330
1F
100
AcDbEntity
  8
1
  6
Continuous
 62
     4
100
AcDbLine
 10
1011.04925087569
 20
747.530783200594
 30
0.0
 11
1011.93160381686
 21
748.530783200594
 31
0.0
  0
LINE
  5
EA
330
1F
100
AcDbEntity
  8
1
  6
Continuous
 62
     4
100
AcDbLine
 10
1011.93160381686
 20
748.530783200594
 30
0.0
 11
1012.37278028745
 21
750.030783200594
 31
0.0
  0
LINE
  5
EB
330
1F
100
AcDbEntity
  8
1
  6
Continuous
 62
     4
100
AcDbLine
 10
1012.37278028745
 20
750.030783200594
 30
0.0
 11
1012.37278028745
 21
753.030783200594
 31
0.0
  0
LINE
  5
EC
330
1F
100
AcDbEntity
  8
1
  6
Continuous
 62
     4
100
AcDbLine
 10
1012.37278028745
 20
753.030783200594
 30
0.0
 11
1008.40219205216
 21
753.030783200594
 31
0.0
  0
LINE
  5
ED
330
1F
100
AcDbEntity
  8
1
  6
Continuous
 62
     4
100
AcDbLine
 10
1016.78454499333
 20
746.030783200594
 30
0.0
 11
1016.78454499333
 21
753.030783200594
 31
0.0
  0
LINE
  5
EE
330
1F
100
AcDbEntity
  8
1
  6
Continuous
 62
     4
100
AcDbLine
 10
1016.78454499333
 20
760.530783200594
 30
0.0
 11
1022.51983911098
 21
760.530783200594
 31
0.0
  0
LINE
  5
EF
330
1F
100
AcDbEntity
  8
1
  6
Continuous
 62
     4
100
AcDbLine
 10
1022.51983911098
 20
760.530783200594
 30
0.0
 11
1024.28454499333
 21
759.530783200594
 31
0.0
  0
LINE
  5
F0
330
1F
100
AcDbEntity
  8
1
  6
Continuous
 62
     4
100
AcDbLine
 10
1024.28454499333
 20
759.530783200594
 30
0.0
 11
1025.16689793451
 21
758.030783200594
 31
0.0
  0
LINE
  5
F1
330
1F
100
AcDbEntity
  8
1
  6
Continuous
 62
     4
100
AcDbLine
 10
1025.16689793451
 20
758.030783200594
 30
0.0
 11
1025.6080744051
 21
757.030783200594
 31
0.0
  0
LINE
  5
F2
330
1F
100
AcDbEntity
  8
1
  6
Continuous
 62
     4
100
AcDbLine
 10
1025.6080744051
 20
757.030783200594
 30
0.0
 11
1025.16689793451
 21
755.030783200594
 31
0.0
  0
LINE
  5
F3
330
1F
100
AcDbEntity
  8
1
  6
Continuous
 62
     4
100
AcDbLine
 10
1025.16689793451
 20
755.030783200594
 30
0.0
 11
1024.28454499333
 21
754.030783200594
 31
0.0
  0
LINE
  5
F4
330
1F
100
AcDbEntity
  8
1
  6
Continuous
 62
     4
100
AcDbLine
 10
1024.28454499333
 20
754.030783200594
 30
0.0
 11
1022.51983911098
 21
753.030783200594
 31
0.0
  0
LINE
  5
F5
330
1F
100
AcDbEntity
  8
1
  6
Continuous
 62
     4
100
AcDbLine
 10
1022.51983911098
 20
753.030783200594
 30
0.0
 11
1016.78454499333
 21
753.030783200594
 31
0.0
  0
LINE
  5
F6
330
1F
100
AcDbEntity
  8
1
  6
Continuous
 62
     4
100
AcDbLine
 10
1016.78454499333
 20
753.030783200594
 30
0.0
 11
1016.78454499333
 21
760.530783200594
 31
0.0
  0
LINE
  5
F7
330
1F
100
AcDbEntity
  8
1
  6
Continuous
 62
     4
100
AcDbLine
 10
1030.01983911098
 20
746.530783200594
 30
0.0
 11
1030.01983911098
 21
760.530783200594
 31
0.0
  0
LINE
  5
F8
330
1F
100
AcDbEntity
  8
1
  6
Continuous
 62
     4
100
AcDbLine
 10
1030.01983911098
 20
760.530783200594
 30
0.0
 11
1034.87278028745
 21
760.530783200594
 31
0.0
  0
LINE
  5
F9
330
1F
100
AcDbEntity
  8
1
  6
Continuous
 62
     4
100
AcDbLine
 10
1034.87278028745
 20
760.530783200594
 30
0.0
 11
1037.07866264039
 21
759.530783200594
 31
0.0
  0
LINE
  5
FA
330
1F
100
AcDbEntity
  8
1
  6
Continuous
 62
     4
100
AcDbLine
 10
1037.07866264039
 20
759.530783200594
 30
0.0
 11
1038.40219205216
 21
757.030783200594
 31
0.0
  0
LINE
  5
FB
330
1F
100
AcDbEntity
  8
1
  6
Continuous
 62
     4
100
AcDbLine
 10
1038.40219205216
 20
757.030783200594
 30
0.0
 11
1038.84336852275
 21
753.530783200594
 31
0.0
  0
LINE
  5
FC
330
1F
100
AcDbEntity
  8
1
  6
Continuous
 62
     4
100
AcDbLine
 10
1038.84336852275
 20
753.530783200594
 30
0.0
 11
1038.40219205216
 21
750.530783200594
 31
0.0
  0
LINE
  5
FD
330
1F
100
AcDbEntity
  8
1
  6
Continuous
 62
     4
100
AcDbLine
 10
1038.40219205216
 20
750.530783200594
 30
0.0
 11
1037.07866264039
 21
747.530783200594
 31
0.0
  0
LINE
  5
FE
330
1F
100
AcDbEntity
  8
1
  6
Continuous
 62
     4
100
AcDbLine
 10
1037.07866264039
 20
747.530783200594
 30
0.0
 11
1034.87278028745
 21
746.530783200594
 31
0.0
  0
LINE
  5
FF
330
1F
100
AcDbEntity
  8
1
  6
Continuous
 62
     4
100
AcDbLine
 10
1034.87278028745
 20
746.530783200594
 30
0.0
 11
1030.01983911098
 21
746.530783200594
 31
0.0
  0
LINE
  5
100
330
1F
100
AcDbEntity
  8
1
  6
Continuous
 62
     4
100
AcDbLine
 10
1043.25513322863
 20
746.030783200594
 30
0.0
 11
1043.25513322863
 21
760.030783200594
 31
0.0
  0
LINE
  5
101
330
1F
100
AcDbEntity
  8
1
  6
Continuous
 62
     4
100
AcDbLine
 10
1043.25513322863
 20
760.030783200594
 30
0.0
 11
1048.54925087569
 21
760.030783200594
 31
0.0
  0
LINE
  5
102
330
1F
100
AcDbEntity
  8
1
  6
Continuous
 62
     4
100
AcDbLine
 10
1048.54925087569
 20
760.030783200594
 30
0.0
 11
1050.75513322863
 21
759.030783200594
 31
0.0
  0
LINE
  5
103
330
1F
100
AcDbEntity
  8
1
  6
Continuous
 62
     4
100
AcDbLine
 10
1050.75513322863
 20
759.030783200594
 30
0.0
 11
1051.19630969922
 21
756.530783200594
 31
0.0
  0
LINE
  5
104
330
1F
100
AcDbEntity
  8
1
  6
Continuous
 62
     4
100
AcDbLine
 10
1051.19630969922
 20
756.530783200594
 30
0.0
 11
1050.75513322863
 21
754.530783200594
 31
0.0
  0
LINE
  5
105
330
1F
100
AcDbEntity
  8
1
  6
Continuous
 62
     4
100
AcDbLine
 10
1050.75513322863
 20
754.530783200594
 30
0.0
 11
1048.54925087569
 21
753.030783200594
 31
0.0
  0
LINE
  5
106
330
1F
100
AcDbEntity
  8
1
  6
Continuous
 62
     4
100
AcDbLine
 10
1048.54925087569
 20
753.030783200594
 30
0.0
 11
1043.25513322863
 21
753.030783200594
 31
0.0
  0
LINE
  5
107
330
1F
100
AcDbEntity
  8
1
  6
Continuous
 62
     4
100
AcDbLine
 10
1043.25513322863
 20
753.030783200594
 30
0.0
 11
1048.54925087569
 21
753.030783200594
 31
0.0
  0
LINE
  5
108
330
1F
100
AcDbEntity
  8
1
  6
Continuous
 62
     4
100
AcDbLine
 10
1048.54925087569
 20
753.030783200594
 30
0.0
 11
1051.19630969922
 21
752.030783200594
 31
0.0
  0
LINE
  5
109
330
1F
100
AcDbEntity
  8
1
  6
Continuous
 62
     4
100
AcDbLine
 10
1051.19630969922
 20
752.030783200594
 30
0.0
 11
1052.07866264039
 21
749.530783200594
 31
0.0
  0
LINE
  5
10A
330
1F
100
AcDbEntity
  8
1
  6
Continuous
 62
     4
100
AcDbLine
 10
1052.07866264039
 20
749.530783200594
 30
0.0
 11
1051.19630969922
 21
747.030783200594
 31
0.0
  0
LINE
  5
10B
330
1F
100
AcDbEntity
  8
1
  6
Continuous
 62
     4
100
AcDbLine
 10
1051.19630969922
 20
747.030783200594
 30
0.0
 11
1048.54925087569
 21
746.030783200594
 31
0.0
  0
LINE
  5
10C
330
1F
100
AcDbEntity
  8
1
  6
Continuous
 62
     4
100
AcDbLine
 10
1048.54925087569
 20
746.030783200594
 30
0.0
 11
1043.25513322863
 21
746.030783200594
 31
0.0
  0
ARC
  5
10D
330
1F
100
AcDbEntity
  8
_0-0_0
  6
Continuous
 62
     3
100
AcDbCircle
 10
349.0
 20
776.999999999996
 30
0.0
 40
45.0
100
AcDbArc
 50
90.0
 51
180.0
  0
ARC
  5
10E
330
1F
100
AcDbEntity
  8
_0-0_0
  6
Continuous
 62
     3
100
AcDbCircle
 10
349.0
 20
567.0
 30
0.0
 40
45.0
100
AcDbArc
 50
180.0
 51
270.0
  0
ARC
  5
10F
330
1F
100
AcDbEntity
  8
_0-0_0
  6
Continuous
 62
     3
100
AcDbCircle
 10
659.0
 20
776.999999999996
 30
0.0
 40
45.0
100
AcDbArc
 50
0.0
 51
90.0
  0
ARC
  5
110
330
1F
100
AcDbEntity
  8
_0-0_0
  6
Continuous
 62
     3
100
AcDbCircle
 10
659.0
 20
567.0
 30
0.0
 40
45.0
100
AcDbArc
 50
270.0
 51
0.0
  0
ARC
  5
111
330
1F
100
AcDbEntity
  8
_0-0_0
  6
Continuous
 62
     3
100
AcDbCircle
 10
349.0
 20
776.999999999996
 30
0.0
 40
43.0
100
AcDbArc
 50
90.0
 51
180.0
  0
ARC
  5
112
330
1F
100
AcDbEntity
  8
_0-0_0
  6
Continuous
 62
     3
100
AcDbCircle
 10
349.0
 20
567.0
 30
0.0
 40
43.0
100
AcDbArc
 50
180.0
 51
270.0
  0
ARC
  5
113
330
1F
100
AcDbEntity
  8
_0-0_0
  6
Continuous
 62
     3
100
AcDbCircle
 10
659.0
 20
567.0
 30
0.0
 40
43.0
100
AcDbArc
 50
270.0
 51
0.0
  0
ARC
  5
114
330
1F
100
AcDbEntity
  8
_0-0_0
  6
Continuous
 62
     3
100
AcDbCircle
 10
659.0
 20
776.999999999996
 30
0.0
 40
43.0
100
AcDbArc
 50
0.0
 51
90.0
  0
ARC
  5
115
330
1F
100
AcDbEntity
  8
_0-0_0
  6
Continuous
 62
     3
100
AcDbCircle
 10
387.133998827198
 20
738.9
 30
0.0
 40
28.09999999999604
100
AcDbArc
 50
90.0
 51
180.0
  0
ARC
  5
116
330
1F
100
AcDbEntity
  8
_0-0_0
  6
Continuous
 62
     3
100
AcDbCircle
 10
387.133998827198
 20
605.1
 30
0.0
 40
28.10000000000002
100
AcDbArc
 50
180.0
 51
270.0
  0
ARC
  5
117
330
1F
100
AcDbEntity
  8
_0-0_0
  6
Continuous
 62
     3
100
AcDbCircle
 10
620.9
 20
605.1
 30
0.0
 40
28.10000000000002
100
AcDbArc
 50
270.0
 51
0.0
  0
ARC
  5
118
330
1F
100
AcDbEntity
  8
_0-0_0
  6
Continuous
 62
     3
100
AcDbCircle
 10
620.9
 20
738.9
 30
0.0
 40
28.10000000000002
100
AcDbArc
 50
0.0
 51
90.0
  0
ARC
  5
119
330
1F
100
AcDbEntity
  8
_0-0_0
  6
Continuous
 62
     3
100
AcDbCircle
 10
349.0
 20
776.999999999996
 30
0.0
 40
28.10000000000002
100
AcDbArc
 50
90.0
 51
180.0
  0
ARC
  5
11A
330
1F
100
AcDbEntity
  8
_0-0_0
  6
Continuous
 62
     3
100
AcDbCircle
 10
659.0
 20
776.999999999996
 30
0.0
 40
28.10000000000002
100
AcDbArc
 50
0.0
 51
90.0
  0
ARC
  5
11B
330
1F
100
AcDbEntity
  8
_0-0_0
  6
Continuous
 62
     3
100
AcDbCircle
 10
349.021334476955
 20
567.0
 30
0.0
 40
28.10000000000002
100
AcDbArc
 50
180.0
 51
270.0
  0
ARC
  5
11C
330
1F
100
AcDbEntity
  8
_0-0_0
  6
Continuous
 62
     3
100
AcDbCircle
 10
659.0
 20
567.0
 30
0.0
 40
28.10000000000002
100
AcDbArc
 50
270.0
 51
0.0
  0
ARC
  5
11D
330
1F
100
AcDbEntity
  8
_0-0_0
  6
DASHED1
 62
     4
100
AcDbCircle
 10
629.439508795649
 20
299.165132366136
 30
0.0
 40
29.99999999999987
100
AcDbArc
 50
272.5343204072466
 51
335.0715258645402
  0
ARC
  5
11E
330
1F
100
AcDbEntity
  8
_0-0_0
  6
DASHED1
 62
     4
100
AcDbCircle
 10
696.647887323944
 20
337.0
 30
0.0
 40
15.0
100
AcDbArc
 50
90.0
 51
155.0715258645409
  0
ARC
  5
11F
330
1F
100
AcDbEntity
  8
_0-0_0
  6
DASHED1
 62
     4
100
AcDbCircle
 10
378.56049120435
 20
299.165132366136
 30
0.0
 40
29.99999999999967
100
AcDbArc
 50
204.9284741354599
 51
267.4656795927552
  0
ARC
  5
120
330
1F
100
AcDbEntity
  8
_0-0_0
  6
DASHED1
 62
     4
100
AcDbCircle
 10
311.352112676056
 20
337.0
 30
0.0
 40
15.00000000000032
100
AcDbArc
 50
24.92847413545902
 51
90.0
  0
ARC
  5
121
330
1F
100
AcDbEntity
  8
_0-0_0
  6
Continuous
 62
     3
100
AcDbCircle
 10
697.415914617124
 20
347.0
 30
0.0
 40
4.999999999999507
100
AcDbArc
 50
4.96974072810855
 51
90.0
  0
ARC
  5
122
330
1F
100
AcDbEntity
  8
_0-0_0
  6
Continuous
 62
     3
100
AcDbCircle
 10
310.584085382876
 20
347.0
 30
0.0
 40
5.0
100
AcDbArc
 50
90.0
 51
175.0302592718925
  0
ARC
  5
123
330
1F
100
AcDbEntity
  8
20線分-細線
  6
Continuous
 62
     3
100
AcDbCircle
 10
513.513122515807
 20
649.77
 30
0.0
 40
1.170000000003198
100
AcDbArc
 50
293.1680547331825
 51
90.0
  0
ARC
  5
124
330
1F
100
AcDbEntity
  8
20線分-細線
  6
Continuous
 62
     3
100
AcDbCircle
 10
511.8
 20
664.2
 30
0.0
 40
2.340000000000032
100
AcDbArc
 50
270.0
 51
89.99999999806536
  0
ARC
  5
125
330
1F
100
AcDbEntity
  8
20線分-細線
  6
Continuous
 62
     3
100
AcDbCircle
 10
508.289999999772
 20
656.399999999924
 30
0.0
 40
2.339999999999918
100
AcDbArc
 50
90.0
 51
270.0
  0
ARC
  5
126
330
1F
100
AcDbEntity
  8
20線分-細線
  6
Continuous
 62
     3
100
AcDbCircle
 10
525.780167909764
 20
664.199999999612
 30
0.0
 40
2.340000000000032
100
AcDbArc
 50
270.0
 51
90.0
  0
ARC
  5
127
330
1F
100
AcDbEntity
  8
20線分-細線
  6
Continuous
 62
     3
100
AcDbCircle
 10
520.855176578448
 20
656.4
 30
0.0
 40
2.340000000000032
100
AcDbArc
 50
270.0000000019597
 51
90.0
  0
ARC
  5
128
330
1F
100
AcDbEntity
  8
20線分-細線
  6
Continuous
 62
     3
100
AcDbCircle
 10
520.379999999932
 20
664.199999999688
 30
0.0
 40
2.340000000000032
100
AcDbArc
 50
90.0
 51
270.0
  0
ARC
  5
129
330
1F
100
AcDbEntity
  8
20線分-細線
  6
Continuous
 62
     3
100
AcDbCircle
 10
494.486877484272
 20
649.77
 30
0.0
 40
1.170000000000073
100
AcDbArc
 50
90.0
 51
246.8319452637412
  0
ARC
  5
12A
330
1F
100
AcDbEntity
  8
20線分-細線
  6
Continuous
 62
     3
100
AcDbCircle
 10
487.62
 20
664.2
 30
0.0
 40
2.340000000000032
100
AcDbArc
 50
270.0
 51
89.99999999806536
  0
ARC
  5
12B
330
1F
100
AcDbEntity
  8
20線分-細線
  6
Continuous
 62
     3
100
AcDbCircle
 10
487.144823421324
 20
656.400000000312
 30
0.0
 40
2.340000000000941
100
AcDbArc
 50
89.9999999980417
 51
270.0
  0
ARC
  5
12C
330
1F
100
AcDbEntity
  8
20線分-細線
  6
Continuous
 62
     3
100
AcDbCircle
 10
482.219832090089
 20
664.2
 30
0.0
 40
2.339999999999918
100
AcDbArc
 50
89.99999999806674
 51
270.0
  0
ARC
  5
12D
330
1F
100
AcDbEntity
  8
20線分-細線
  6
Continuous
 62
     3
100
AcDbCircle
 10
480.99
 20
672.0
 30
0.0
 40
2.340000000000032
100
AcDbArc
 50
90.0
 51
270.0
  0
ARC
  5
12E
330
1F
100
AcDbEntity
  8
20線分-細線
  6
Continuous
 62
     3
100
AcDbCircle
 10
496.2
 20
664.200000000312
 30
0.0
 40
2.340000000000032
100
AcDbArc
 50
89.99999999804031
 51
270.0
  0
ARC
  5
12F
330
1F
100
AcDbEntity
  8
20線分-細線
  6
Continuous
 62
     3
100
AcDbCircle
 10
499.71
 20
656.4
 30
0.0
 40
2.340000000000032
100
AcDbArc
 50
270.0
 51
89.99999999806536
  0
ARC
  5
130
330
1F
100
AcDbEntity
  8
20線分-細線
  6
Continuous
 62
     3
100
AcDbCircle
 10
504.0
 20
672.0
 30
0.0
 40
25.35000000001894
100
AcDbArc
 50
246.8319452642934
 51
293.1680547357288
  0
ARC
  5
131
330
1F
100
AcDbEntity
  8
20線分-細線
  6
Continuous
 62
     3
100
AcDbCircle
 10
499.71
 20
672.0
 30
0.0
 40
2.340000000000032
100
AcDbArc
 50
270.0
 51
90.0
  0
ARC
  5
132
330
1F
100
AcDbEntity
  8
20線分-細線
  6
Continuous
 62
     3
100
AcDbCircle
 10
508.29
 20
672.0
 30
0.0
 40
2.340000000000032
100
AcDbArc
 50
90.0
 51
270.0
  0
ARC
  5
133
330
1F
100
AcDbEntity
  8
20線分-細線
  6
Continuous
 62
     3
100
AcDbCircle
 10
527.01
 20
672.0
 30
0.0
 40
2.340000000000032
100
AcDbArc
 50
270.0
 51
90.0
  0
ARC
  5
134
330
1F
100
AcDbEntity
  8
20線分-細線
  6
Continuous
 62
     3
100
AcDbCircle
 10
504.0
 20
672.0
 30
0.0
 40
25.3500000000159
100
AcDbArc
 50
66.83194526443556
 51
113.1680547355395
  0
ARC
  5
135
330
1F
100
AcDbEntity
  8
20線分-細線
  6
Continuous
 62
     3
100
AcDbCircle
 10
499.71
 20
687.599999999924
 30
0.0
 40
2.339999999999918
100
AcDbArc
 50
270.0000000019347
 51
90.00000000166465
  0
ARC
  5
136
330
1F
100
AcDbEntity
  8
20線分-細線
  6
Continuous
 62
     3
100
AcDbCircle
 10
496.2
 20
679.799999999612
 30
0.0
 40
2.339999999999918
100
AcDbArc
 50
90.0
 51
270.0000000019597
  0
ARC
  5
137
330
1F
100
AcDbEntity
  8
20線分-細線
  6
Continuous
 62
     3
100
AcDbCircle
 10
482.219832090089
 20
679.799999999924
 30
0.0
 40
2.340000000000032
100
AcDbArc
 50
90.0
 51
270.0000000019332
  0
ARC
  5
138
330
1F
100
AcDbEntity
  8
20線分-細線
  6
Continuous
 62
     3
100
AcDbCircle
 10
487.144823421324
 20
687.599999999612
 30
0.0
 40
2.340000000000032
100
AcDbArc
 50
90.00000000193465
 51
270.0
  0
ARC
  5
139
330
1F
100
AcDbEntity
  8
20線分-細線
  6
Continuous
 62
     3
100
AcDbCircle
 10
487.62
 20
679.799999999924
 30
0.0
 40
2.340000000000032
100
AcDbArc
 50
270.0000000019347
 51
90.00000000168968
  0
ARC
  5
13A
330
1F
100
AcDbEntity
  8
20線分-細線
  6
Continuous
 62
     3
100
AcDbCircle
 10
494.486877484272
 20
694.23
 30
0.0
 40
1.170000000003883
100
AcDbArc
 50
113.1680547326384
 51
270.0
  0
ARC
  5
13B
330
1F
100
AcDbEntity
  8
20線分-細線
  6
Continuous
 62
     3
100
AcDbCircle
 10
520.379999999932
 20
679.800000000236
 30
0.0
 40
2.340000000000032
100
AcDbArc
 50
90.0
 51
270.0
  0
ARC
  5
13C
330
1F
100
AcDbEntity
  8
20線分-細線
  6
Continuous
 62
     3
100
AcDbCircle
 10
520.855176578448
 20
687.599999999924
 30
0.0
 40
2.339999999999918
100
AcDbArc
 50
270.0
 51
90.0
  0
ARC
  5
13D
330
1F
100
AcDbEntity
  8
20線分-細線
  6
Continuous
 62
     3
100
AcDbCircle
 10
525.780167909764
 20
679.800000000312
 30
0.0
 40
2.340000000000032
100
AcDbArc
 50
270.0
 51
90.0
  0
ARC
  5
13E
330
1F
100
AcDbEntity
  8
20線分-細線
  6
Continuous
 62
     3
100
AcDbCircle
 10
508.289999999772
 20
687.6
 30
0.0
 40
2.340000000000032
100
AcDbArc
 50
90.0
 51
270.0
  0
ARC
  5
13F
330
1F
100
AcDbEntity
  8
20線分-細線
  6
Continuous
 62
     3
100
AcDbCircle
 10
511.8
 20
679.799999999924
 30
0.0
 40
2.340000000000032
100
AcDbArc
 50
270.0000000019347
 51
90.00000000166465
  0
ARC
  5
140
330
1F
100
AcDbEntity
  8
20線分-細線
  6
Continuous
 62
     3
100
AcDbCircle
 10
513.513122515807
 20
694.23
 30
0.0
 40
1.170000000000073
100
AcDbArc
 50
270.0
 51
66.8319452703776
  0
ARC
  5
141
330
1F
100
AcDbEntity
  8
_0-0_0
  6
DASHED1
 62
     4
100
AcDbCircle
 10
1141.81821699427
 20
337.0
 30
0.0
 40
15.0
100
AcDbArc
 50
90.0
 51
155.0715258645376
  0
ARC
  5
142
330
1F
100
AcDbEntity
  8
_0-0_0
  6
DASHED1
 62
     4
100
AcDbCircle
 10
856.522442346386
 20
337.0
 30
0.0
 40
15.00000000000027
100
AcDbArc
 50
24.92847413545912
 51
90.0
  0
ARC
  5
143
330
1F
100
AcDbEntity
  8
_0-0_0
  6
Continuous
 62
     3
100
AcDbCircle
 10
1142.58624428745
 20
347.0
 30
0.0
 40
5.000000000001546
100
AcDbArc
 50
4.96974072810652
 51
90.0
  0
ARC
  5
144
330
1F
100
AcDbEntity
  8
_0-0_0
  6
Continuous
 62
     3
100
AcDbCircle
 10
855.754415053206
 20
347.0
 30
0.0
 40
5.0
100
AcDbArc
 50
90.0
 51
175.0302592718925
  0
CIRCLE
  5
145
330
1F
100
AcDbEntity
  8
_0-0_0
  6
Continuous
 62
     3
100
AcDbCircle
 10
504.0
 20
672.0
 30
0.0
 40
32.0
  0
CIRCLE
  5
146
330
1F
100
AcDbEntity
  8
_0-0_0
  6
Continuous
 62
     3
100
AcDbCircle
 10
504.0
 20
672.0
 30
0.0
 40
31.0
  0
CIRCLE
  5
147
330
1F
100
AcDbEntity
  8
1
  6
Continuous
 62
     3
100
AcDbCircle
 10
504.0
 20
672.0
 30
0.0
 40
30.0
  0
ENDSEC
  0
SECTION
  2
OBJECTS
  0
DICTIONARY
  5
C
330
0
100
AcDbDictionary
281
     1
  3
ACAD_GROUP
350
D
  3
ACAD_LAYOUT
350
1A
  3
ACAD_MATERIAL
350
3B
  3
ACAD_MLEADERSTYLE
350
14A
  3
ACAD_MLINESTYLE
350
17
  3
ACAD_PLOTSETTINGS
350
19
  3
ACAD_PLOTSTYLENAME
350
E
  3
ACAD_VISUALSTYLE
350
2A
  3
AcDbVariableDictionary
350
148
  0
DICTIONARY
  5
D
102
{ACAD_REACTORS
330
C
102
}
330
C
100
AcDbDictionary
281
     1
  0
DICTIONARY
  5
1A
102
{ACAD_REACTORS
330
C
102
}
330
C
100
AcDbDictionary
281
     1
  3
Layout1
350
1E
  3
Layout2
350
26
  3
Model
350
22
  0
DICTIONARY
  5
3B
102
{ACAD_REACTORS
330
C
102
}
330
C
100
AcDbDictionary
281
     1
  3
ByBlock
350
3D
  3
ByLayer
350
3C
  3
Global
350
3E
  0
DICTIONARY
  5
14A
102
{ACAD_REACTORS
330
C
102
}
330
C
100
AcDbDictionary
281
     1
  0
DICTIONARY
  5
17
102
{ACAD_REACTORS
330
C
102
}
330
C
100
AcDbDictionary
281
     1
  3
Standard
350
18
  0
DICTIONARY
  5
19
102
{ACAD_REACTORS
330
C
102
}
330
C
100
AcDbDictionary
281
     1
  0
ACDBDICTIONARYWDFLT
  5
E
102
{ACAD_REACTORS
330
C
102
}
330
C
100
AcDbDictionary
281
     1
  3
Normal
350
F
100
AcDbDictionaryWithDefault
340
F
  0
DICTIONARY
  5
2A
102
{ACAD_REACTORS
330
C
102
}
330
C
100
AcDbDictionary
281
     1
  3
2dWireframe
350
2F
  3
3D Hidden
350
31
  3
3dWireframe
350
30
  3
Basic
350
32
  3
Brighten
350
36
  3
ColorChange
350
3A
  3
Conceptual
350
34
  3
Dim
350
35
  3
Facepattern
350
39
  3
Flat
350
2B
  3
FlatWithEdges
350
2C
  3
Gouraud
350
2D
  3
GouraudWithEdges
350
2E
  3
Linepattern
350
38
  3
Realistic
350
33
  3
Thicken
350
37
  0
DICTIONARY
  5
148
102
{ACAD_REACTORS
330
C
102
}
330
C
100
AcDbDictionary
281
     1
  3
DIMASSOC
350
14B
  3
HIDETEXT
350
14C
  0
LAYOUT
  5
1E
102
{ACAD_REACTORS
330
1A
102
}
330
1A
100
AcDbPlotSettings
  1

  2
none_device
  4

  6

 40
0.0
 41
0.0
 42
0.0
 43
0.0
 44
0.0
 45
0.0
 46
0.0
 47
0.0
 48
0.0
 49
0.0
140
0.0
141
0.0
142
1.0
143
1.0
 70
   688
 72
     0
 73
     0
 74
     5
  7

 75
    16
147
1.0
148
0.0
149
0.0
100
AcDbLayout
  1
Layout1
 70
     1
 71
     1
 10
0.0
 20
0.0
 11
12.0
 21
9.0
 12
0.0
 22
0.0
 32
0.0
 14
1.00000000000000E+20
 24
1.00000000000000E+20
 34
1.00000000000000E+20
 15
-1.00000000000000E+20
 25
-1.00000000000000E+20
 35
-1.00000000000000E+20
146
0.0
 13
0.0
 23
0.0
 33
0.0
 16
1.0
 26
0.0
 36
0.0
 17
0.0
 27
1.0
 37
0.0
 76
     0
330
1B
  0
LAYOUT
  5
26
102
{ACAD_REACTORS
330
1A
102
}
330
1A
100
AcDbPlotSettings
  1

  2
none_device
  4

  6

 40
0.0
 41
0.0
 42
0.0
 43
0.0
 44
0.0
 45
0.0
 46
0.0
 47
0.0
 48
0.0
 49
0.0
140
0.0
141
0.0
142
1.0
143
1.0
 70
   688
 72
     0
 73
     0
 74
     5
  7

 75
    16
147
1.0
148
0.0
149
0.0
100
AcDbLayout
  1
Layout2
 70
     1
 71
     2
 10
0.0
 20
0.0
 11
0.0
 21
0.0
 12
0.0
 22
0.0
 32
0.0
 14
0.0
 24
0.0
 34
0.0
 15
0.0
 25
0.0
 35
0.0
146
0.0
 13
0.0
 23
0.0
 33
0.0
 16
1.0
 26
0.0
 36
0.0
 17
0.0
 27
1.0
 37
0.0
 76
     0
330
23
  0
LAYOUT
  5
22
102
{ACAD_REACTORS
330
1A
102
}
330
1A
100
AcDbPlotSettings
  1

  2
none_device
  4

  6

 40
0.0
 41
0.0
 42
0.0
 43
0.0
 44
0.0
 45
0.0
 46
0.0
 47
0.0
 48
0.0
 49
0.0
140
0.0
141
0.0
142
1.0
143
1.0
 70
  1712
 72
     0
 73
     0
 74
     0
  7

 75
     0
147
1.0
148
0.0
149
0.0
100
AcDbLayout
  1
Model
 70
     1
 71
     0
 10
0.0
 20
0.0
 11
12.0
 21
9.0
 12
0.0
 22
0.0
 32
0.0
 14
289.0
 24
206.500050194935
 34
0.0
 15
1149.17032967033
 25
836.999999999996
 35
0.0
146
0.0
 13
0.0
 23
0.0
 33
0.0
 16
1.0
 26
0.0
 36
0.0
 17
0.0
 27
1.0
 37
0.0
 76
     0
330
1F
331
29
  0
MATERIAL
  5
3D
102
{ACAD_REACTORS
330
3B
102
}
102
{ACAD_XDICTIONARY
360
16F
102
}
330
3B
100
AcDbMaterial
  1
ByBlock
  0
MATERIAL
  5
3C
102
{ACAD_REACTORS
330
3B
102
}
102
{ACAD_XDICTIONARY
360
16D
102
}
330
3B
100
AcDbMaterial
  1
ByLayer
  0
MATERIAL
  5
3E
102
{ACAD_REACTORS
330
3B
102
}
102
{ACAD_XDICTIONARY
360
171
102
}
330
3B
100
AcDbMaterial
  1
Global
  0
MLINESTYLE
  5
18
102
{ACAD_REACTORS
330
17
102
}
330
17
100
AcDbMlineStyle
  2
Standard
 70
     0
  3

 62
   256
 51
90.0
 52
90.0
 71
     2
 49
0.5
 62
   256
  6
BYLAYER
 49
-0.5
 62
   256
  6
BYLAYER
  0
ACDBPLACEHOLDER
  5
F
102
{ACAD_REACTORS
330
E
102
}
330
E
  0
VISUALSTYLE
  5
2F
102
{ACAD_REACTORS
330
2A
102
}
102
{ACAD_XDICTIONARY
360
155
102
}
330
2A
100
AcDbVisualStyle
  2
2dWireframe
 70
     4
 71
     0
 72
     2
 73
     0
 90
        0
 40
-0.6
 41
-30.0
 62
     5
 63
     7
 74
     1
 91
        4
 64
     7
 65
   257
 75
     1
175
     1
 42
1.0
 92
        0
 66
   257
 43
1.0
 76
     1
 77
     6
 78
     2
 67
     7
 79
     5
170
     0
171
     0
290
     0
174
     0
 93
        1
 44
0.0
173
     0
291
     0
 45
0.0
1001
ACAD
1000
AcDbSavedByObjectVersion
1070
     0
  0
VISUALSTYLE
  5
31
102
{ACAD_REACTORS
330
2A
102
}
102
{ACAD_XDICTIONARY
360
159
102
}
330
2A
100
AcDbVisualStyle
  2
3D Hidden
 70
     6
 71
     1
 72
     2
 73
     2
 90
        0
 40
-0.6
 41
-30.0
 62
     5
 63
     7
 74
     2
 91
        2
 64
     7
 65
   257
 75
     2
175
     1
 42
40.0
 92
        0
 66
   257
 43
1.0
 76
     1
 77
     6
 78
     2
 67
     7
 79
     3
170
     0
171
     0
290
     0
174
     0
 93
        1
 44
0.0
173
     0
291
     0
 45
0.0
1001
ACAD
1000
AcDbSavedByObjectVersion
1070
     0
  0
VISUALSTYLE
  5
30
102
{ACAD_REACTORS
330
2A
102
}
102
{ACAD_XDICTIONARY
360
157
102
}
330
2A
100
AcDbVisualStyle
  2
3dWireframe
 70
     5
 71
     0
 72
     2
 73
     0
 90
        0
 40
-0.6
 41
-30.0
 62
     5
 63
     7
 74
     1
 91
        4
 64
     7
 65
   257
 75
     1
175
     1
 42
1.0
 92
        0
 66
   257
 43
1.0
 76
     1
 77
     6
 78
     2
 67
     7
 79
     5
170
     0
171
     0
290
     0
174
     0
 93
        1
 44
0.0
173
     0
291
     0
 45
0.0
1001
ACAD
1000
AcDbSavedByObjectVersion
1070
     0
  0
VISUALSTYLE
  5
32
102
{ACAD_REACTORS
330
2A
102
}
102
{ACAD_XDICTIONARY
360
15B
102
}
330
2A
100
AcDbVisualStyle
  2
Basic
 70
     7
 71
     1
 72
     0
 73
     1
 90
        0
 40
-0.6
 41
-30.0
 62
     5
 63
     7
 74
     0
 91
        4
 64
     7
 65
   257
 75
     1
175
     1
 42
1.0
 92
        8
 66
     7
 43
1.0
 76
     1
 77
     6
 78
     2
 67
     7
 79
     5
170
     0
171
     0
290
     0
174
     0
 93
        1
 44
0.0
173
     0
291
     1
 45
0.0
1001
ACAD
1000
AcDbSavedByObjectVersion
1070
     0
  0
VISUALSTYLE
  5
36
102
{ACAD_REACTORS
330
2A
102
}
102
{ACAD_XDICTIONARY
360
163
102
}
330
2A
100
AcDbVisualStyle
  2
Brighten
 70
    12
 71
     2
 72
     2
 73
     0
 90
        0
 40
-0.6
 41
-30.0
 62
     5
 63
     7
 74
     1
 91
        4
 64
     7
 65
   257
 75
     1
175
     1
 42
1.0
 92
        8
 66
     7
 43
1.0
 76
     1
 77
     6
 78
     2
 67
     7
 79
     5
170
     0
171
     0
290
     0
174
     0
 93
        1
 44
50.0
173
     0
291
     1
 45
0.0
1001
ACAD
1000
AcDbSavedByObjectVersion
1070
     0
  0
VISUALSTYLE
  5
3A
102
{ACAD_REACTORS
330
2A
102
}
102
{ACAD_XDICTIONARY
360
16B
102
}
330
2A
100
AcDbVisualStyle
  2
ColorChange
 70
    16
 71
     2
 72
     2
 73
     3
 90
        0
 40
-0.6
 41
-30.0
 62
     5
 63
     8
 74
     1
 91
        4
 64
     7
 65
   257
 75
     1
175
     1
 42
1.0
 92
        8
 66
     8
 43
1.0
 76
     1
 77
     6
 78
     2
 67
     7
 79
     5
170
     0
171
     0
290
     0
174
     0
 93
        1
 44
0.0
173
     0
291
     1
 45
0.0
1001
ACAD
1000
AcDbSavedByObjectVersion
1070
     0
  0
VISUALSTYLE
  5
34
102
{ACAD_REACTORS
330
2A
102
}
102
{ACAD_XDICTIONARY
360
15F
102
}
330
2A
100
AcDbVisualStyle
  2
Conceptual
 70
     9
 71
     3
 72
     2
 73
     0
 90
        0
 40
-0.6
 41
-30.0
 62
     5
 63
     7
 74
     2
 91
        2
 64
     7
 65
   257
 75
     1
175
     1
 42
40.0
 92
        8
 66
     7
 43
1.0
 76
     1
 77
     6
 78
     2
 67
     7
 79
     3
170
     0
171
     0
290
     0
174
     0
 93
        1
 44
0.0
173
     0
291
     0
 45
0.0
1001
ACAD
1000
AcDbSavedByObjectVersion
1070
     0
  0
VISUALSTYLE
  5
35
102
{ACAD_REACTORS
330
2A
102
}
102
{ACAD_XDICTIONARY
360
161
102
}
330
2A
100
AcDbVisualStyle
  2
Dim
 70
    11
 71
     2
 72
     2
 73
     0
 90
        0
 40
-0.6
 41
-30.0
 62
     5
 63
     7
 74
     1
 91
        4
 64
     7
 65
   257
 75
     1
175
     1
 42
1.0
 92
        8
 66
     7
 43
1.0
 76
     1
 77
     6
 78
     2
 67
     7
 79
     5
170
     0
171
     0
290
     0
174
     0
 93
        1
 44
-50.0
173
     0
291
     1
 45
0.0
1001
ACAD
1000
AcDbSavedByObjectVersion
1070
     0
  0
VISUALSTYLE
  5
39
102
{ACAD_REACTORS
330
2A
102
}
102
{ACAD_XDICTIONARY
360
169
102
}
330
2A
100
AcDbVisualStyle
  2
Facepattern
 70
    15
 71
     2
 72
     2
 73
     0
 90
        0
 40
-0.6
 41
-30.0
 62
     5
 63
     7
 74
     1
 91
        4
 64
     7
 65
   257
 75
     1
175
     1
 42
1.0
 92
        8
 66
     7
 43
1.0
 76
     1
 77
     6
 78
     2
 67
     7
 79
     5
170
     0
171
     0
290
     0
174
     0
 93
        1
 44
0.0
173
     0
291
     1
 45
0.0
1001
ACAD
1000
AcDbSavedByObjectVersion
1070
     0
  0
VISUALSTYLE
  5
2B
102
{ACAD_REACTORS
330
2A
102
}
102
{ACAD_XDICTIONARY
360
14D
102
}
330
2A
100
AcDbVisualStyle
  2
Flat
 70
     0
 71
     2
 72
     1
 73
     1
 90
        2
 40
-0.6
 41
30.0
 62
     5
 63
     7
 74
     0
 91
        4
 64
     7
 65
   257
 75
     1
175
     1
 42
1.0
 92
        8
 66
     7
 43
1.0
 76
     1
 77
     6
 78
     2
 67
     7
 79
     5
170
     0
171
     0
290
     0
174
     0
 93
       13
 44
0.0
173
     0
291
     1
 45
0.0
1001
ACAD
1000
AcDbSavedByObjectVersion
1070
     0
  0
VISUALSTYLE
  5
2C
102
{ACAD_REACTORS
330
2A
102
}
102
{ACAD_XDICTIONARY
360
14F
102
}
330
2A
100
AcDbVisualStyle
  2
FlatWithEdges
 70
     1
 71
     2
 72
     1
 73
     1
 90
        2
 40
-0.6
 41
30.0
 62
     5
 63
     7
 74
     1
 91
        4
 64
     7
 65
   257
 75
     1
175
     1
 42
1.0
 92
        0
 66
   257
 43
1.0
 76
     1
 77
     6
 78
     2
 67
     7
 79
     5
170
     0
171
     0
290
     0
174
     0
 93
       13
 44
0.0
173
     0
291
     1
 45
0.0
1001
ACAD
1000
AcDbSavedByObjectVersion
1070
     0
  0
VISUALSTYLE
  5
2D
102
{ACAD_REACTORS
330
2A
102
}
102
{ACAD_XDICTIONARY
360
151
102
}
330
2A
100
AcDbVisualStyle
  2
Gouraud
 70
     2
 71
     2
 72
     2
 73
     1
 90
        2
 40
-0.6
 41
30.0
 62
     5
 63
     7
 74
     0
 91
        4
 64
     7
 65
   257
 75
     1
175
     1
 42
1.0
 92
        0
 66
     7
 43
1.0
 76
     1
 77
     6
 78
     2
 67
     7
 79
     5
170
     0
171
     0
290
     0
174
     0
 93
       13
 44
0.0
173
     0
291
     1
 45
0.0
1001
ACAD
1000
AcDbSavedByObjectVersion
1070
     0
  0
VISUALSTYLE
  5
2E
102
{ACAD_REACTORS
330
2A
102
}
102
{ACAD_XDICTIONARY
360
153
102
}
330
2A
100
AcDbVisualStyle
  2
GouraudWithEdges
 70
     3
 71
     2
 72
     2
 73
     1
 90
        2
 40
-0.6
 41
30.0
 62
     5
 63
     7
 74
     1
 91
        4
 64
     7
 65
   257
 75
     1
175
     1
 42
1.0
 92
        0
 66
   257
 43
1.0
 76
     1
 77
     6
 78
     2
 67
     7
 79
     5
170
     0
171
     0
290
     0
174
     0
 93
       13
 44
0.0
173
     0
291
     1
 45
0.0
1001
ACAD
1000
AcDbSavedByObjectVersion
1070
     0
  0
VISUALSTYLE
  5
38
102
{ACAD_REACTORS
330
2A
102
}
102
{ACAD_XDICTIONARY
360
167
102
}
330
2A
100
AcDbVisualStyle
  2
Linepattern
 70
    14
 71
     2
 72
     2
 73
     0
 90
        0
 40
-0.6
 41
-30.0
 62
     5
 63
     7
 74
     1
 91
        4
 64
     7
 65
   257
 75
     7
175
     7
 42
1.0
 92
        8
 66
     7
 43
1.0
 76
     1
 77
     6
 78
     2
 67
     7
 79
     5
170
     0
171
     0
290
     0
174
     0
 93
        1
 44
0.0
173
     0
291
     1
 45
0.0
1001
ACAD
1000
AcDbSavedByObjectVersion
1070
     0
  0
VISUALSTYLE
  5
33
102
{ACAD_REACTORS
330
2A
102
}
102
{ACAD_XDICTIONARY
360
15D
102
}
330
2A
100
AcDbVisualStyle
  2
Realistic
 70
     8
 71
     2
 72
     2
 73
     0
 90
        0
 40
-0.6
 41
-30.0
 62
     5
 63
     7
 74
     1
 91
        0
 64
     7
 65
   257
 75
     1
175
     1
 42
1.0
 92
        8
 66
     8
 43
1.0
 76
     1
 77
     6
 78
     2
 67
     7
 79
     5
170
     0
171
     0
290
     0
174
     0
 93
       13
 44
0.0
173
     0
291
     0
 45
0.0
1001
ACAD
1000
AcDbSavedByObjectVersion
1070
     0
  0
VISUALSTYLE
  5
37
102
{ACAD_REACTORS
330
2A
102
}
102
{ACAD_XDICTIONARY
360
165
102
}
330
2A
100
AcDbVisualStyle
  2
Thicken
 70
    13
 71
     2
 72
     2
 73
     0
 90
        0
 40
-0.6
 41
-30.0
 62
     5
 63
     7
 74
     1
 91
        4
 64
     7
 65
   257
 75
     1
175
     1
 42
1.0
 92
       12
 66
     7
 43
1.0
 76
     1
 77
     6
 78
     2
 67
     7
 79
     5
170
     0
171
     0
290
     0
174
     0
 93
        1
 44
0.0
173
     0
291
     1
 45
0.0
1001
ACAD
1000
AcDbSavedByObjectVersion
1070
     0
  0
DICTIONARYVAR
  5
14B
102
{ACAD_REACTORS
330
148
102
}
330
148
100
DictionaryVariables
280
     0
  1
2
  0
DICTIONARYVAR
  5
14C
102
{ACAD_REACTORS
330
148
102
}
330
148
100
DictionaryVariables
280
     0
  1
1
  0
DICTIONARY
  5
16F
330
3D
100
AcDbDictionary
280
     1
281
     1
  3
ACAD_XREC_ROUNDTRIP
360
170
  0
DICTIONARY
  5
16D
330
3C
100
AcDbDictionary
280
     1
281
     1
  3
ACAD_XREC_ROUNDTRIP
360
16E
  0
DICTIONARY
  5
171
330
3E
100
AcDbDictionary
280
     1
281
     1
  3
ACAD_XREC_ROUNDTRIP
360
172
  0
DICTIONARY
  5
155
330
2F
100
AcDbDictionary
280
     1
281
     1
  3
ACAD_XREC_ROUNDTRIP
360
156
  0
DICTIONARY
  5
159
330
31
100
AcDbDictionary
280
     1
281
     1
  3
ACAD_XREC_ROUNDTRIP
360
15A
  0
DICTIONARY
  5
157
330
30
100
AcDbDictionary
280
     1
281
     1
  3
ACAD_XREC_ROUNDTRIP
360
158
  0
DICTIONARY
  5
15B
330
32
100
AcDbDictionary
280
     1
281
     1
  3
ACAD_XREC_ROUNDTRIP
360
15C
  0
DICTIONARY
  5
163
330
36
100
AcDbDictionary
280
     1
281
     1
  3
ACAD_XREC_ROUNDTRIP
360
164
  0
DICTIONARY
  5
16B
330
3A
100
AcDbDictionary
280
     1
281
     1
  3
ACAD_XREC_ROUNDTRIP
360
16C
  0
DICTIONARY
  5
15F
330
34
100
AcDbDictionary
280
     1
281
     1
  3
ACAD_XREC_ROUNDTRIP
360
160
  0
DICTIONARY
  5
161
330
35
100
AcDbDictionary
280
     1
281
     1
  3
ACAD_XREC_ROUNDTRIP
360
162
  0
DICTIONARY
  5
169
330
39
100
AcDbDictionary
280
     1
281
     1
  3
ACAD_XREC_ROUNDTRIP
360
16A
  0
DICTIONARY
  5
14D
330
2B
100
AcDbDictionary
280
     1
281
     1
  3
ACAD_XREC_ROUNDTRIP
360
14E
  0
DICTIONARY
  5
14F
330
2C
100
AcDbDictionary
280
     1
281
     1
  3
ACAD_XREC_ROUNDTRIP
360
150
  0
DICTIONARY
  5
151
330
2D
100
AcDbDictionary
280
     1
281
     1
  3
ACAD_XREC_ROUNDTRIP
360
152
  0
DICTIONARY
  5
153
330
2E
100
AcDbDictionary
280
     1
281
     1
  3
ACAD_XREC_ROUNDTRIP
360
154
  0
DICTIONARY
  5
167
330
38
100
AcDbDictionary
280
     1
281
     1
  3
ACAD_XREC_ROUNDTRIP
360
168
  0
DICTIONARY
  5
15D
330
33
100
AcDbDictionary
280
     1
281
     1
  3
ACAD_XREC_ROUNDTRIP
360
15E
  0
DICTIONARY
  5
165
330
37
100
AcDbDictionary
280
     1
281
     1
  3
ACAD_XREC_ROUNDTRIP
360
166
  0
XRECORD
  5
170
102
{ACAD_REACTORS
330
16F
102
}
330
16F
100
AcDbXrecord
280
     1
102
MATERIAL
148
0.0
149
0.0
149
0.0
 93
        0
 94
      127
282
     0
 72
     1
 77
     1
171
     1
175
     1
179
     1
273
     0
  0
XRECORD
  5
16E
102
{ACAD_REACTORS
330
16D
102
}
330
16D
100
AcDbXrecord
280
     1
102
MATERIAL
148
0.0
149
0.0
149
0.0
 93
        0
 94
      127
282
     0
 72
     1
 77
     1
171
     1
175
     1
179
     1
273
     0
  0
XRECORD
  5
172
102
{ACAD_REACTORS
330
171
102
}
330
171
100
AcDbXrecord
280
     1
102
MATERIAL
148
0.0
149
0.0
149
0.0
 93
        0
 94
      127
282
     0
 72
     1
 77
     1
171
     1
175
     1
179
     1
273
     0
  0
XRECORD
  5
156
102
{ACAD_REACTORS
330
155
102
}
330
155
100
AcDbXrecord
280
     1
102
RTVSPropertyOp0
 70
     1
102
RTVSPropertyOp1
 70
     1
102
RTVSPropertyOp2
 70
     1
102
RTVSPropertyOp3
 70
     1
102
RTVSPropertyOp4
 70
     1
102
RTVSPropertyOp5
 70
     1
102
RTVSPropertyOp6
 70
     1
102
RTVSPropertyOp7
 70
     1
102
RTVSPropertyOp8
 70
     1
102
RTVSPropertyOp9
 70
     1
102
RTVSPropertyOp10
 70
     1
102
RTVSPropertyOp11
 70
     1
102
RTVSPropertyOp12
 70
     1
102
RTVSPropertyOp13
 70
     1
102
RTVSPropertyOp14
 70
     1
102
RTVSPropertyOp15
 70
     1
102
RTVSPropertyOp16
 70
     1
102
RTVSPropertyOp17
 70
     1
102
RTVSPropertyOp18
 70
     1
102
RTVSPropertyOp19
 70
     1
102
RTVSPropertyOp20
 70
     1
102
RTVSPropertyOp21
 70
     1
102
RTVSPropertyOp22
 70
     1
102
RTVSPropertyOp23
 70
     1
102
RTVSPropertyOp24
 70
     1
102
RTVSPropertyOp25
 70
     1
102
RTVSPropertyOp26
 70
     1
102
RTVSPropertyOp27
 70
     1
  0
XRECORD
  5
15A
102
{ACAD_REACTORS
330
159
102
}
330
159
100
AcDbXrecord
280
     1
102
RTVSPropertyOp0
 70
     1
102
RTVSPropertyOp1
 70
     1
102
RTVSPropertyOp2
 70
     1
102
RTVSPropertyOp3
 70
     1
102
RTVSPropertyOp4
 70
     1
102
RTVSPropertyOp5
 70
     1
102
RTVSPropertyOp6
 70
     1
102
RTVSPropertyOp7
 70
     1
102
RTVSPropertyOp8
 70
     1
102
RTVSPropertyOp9
 70
     1
102
RTVSPropertyOp10
 70
     1
102
RTVSPropertyOp11
 70
     1
102
RTVSPropertyOp12
 70
     1
102
RTVSPropertyOp13
 70
     1
102
RTVSPropertyOp14
 70
     1
102
RTVSPropertyOp15
 70
     1
102
RTVSPropertyOp16
 70
     1
102
RTVSPropertyOp17
 70
     1
102
RTVSPropertyOp18
 70
     1
102
RTVSPropertyOp19
 70
     1
102
RTVSPropertyOp20
 70
     1
102
RTVSPropertyOp21
 70
     1
102
RTVSPropertyOp22
 70
     1
102
RTVSPropertyOp23
 70
     1
102
RTVSPropertyOp24
 70
     1
102
RTVSPropertyOp25
 70
     1
102
RTVSPropertyOp26
 70
     1
102
RTVSPropertyOp27
 70
     1
  0
XRECORD
  5
158
102
{ACAD_REACTORS
330
157
102
}
330
157
100
AcDbXrecord
280
     1
102
RTVSPropertyOp0
 70
     1
102
RTVSPropertyOp1
 70
     1
102
RTVSPropertyOp2
 70
     1
102
RTVSPropertyOp3
 70
     1
102
RTVSPropertyOp4
 70
     1
102
RTVSPropertyOp5
 70
     1
102
RTVSPropertyOp6
 70
     1
102
RTVSPropertyOp7
 70
     1
102
RTVSPropertyOp8
 70
     1
102
RTVSPropertyOp9
 70
     1
102
RTVSPropertyOp10
 70
     1
102
RTVSPropertyOp11
 70
     1
102
RTVSPropertyOp12
 70
     1
102
RTVSPropertyOp13
 70
     1
102
RTVSPropertyOp14
 70
     1
102
RTVSPropertyOp15
 70
     1
102
RTVSPropertyOp16
 70
     1
102
RTVSPropertyOp17
 70
     1
102
RTVSPropertyOp18
 70
     1
102
RTVSPropertyOp19
 70
     1
102
RTVSPropertyOp20
 70
     1
102
RTVSPropertyOp21
 70
     1
102
RTVSPropertyOp22
 70
     1
102
RTVSPropertyOp23
 70
     1
102
RTVSPropertyOp24
 70
     1
102
RTVSPropertyOp25
 70
     1
102
RTVSPropertyOp26
 70
     1
102
RTVSPropertyOp27
 70
     1
  0
XRECORD
  5
15C
102
{ACAD_REACTORS
330
15B
102
}
330
15B
100
AcDbXrecord
280
     1
102
RTVSPropertyOp0
 70
     1
102
RTVSPropertyOp1
 70
     1
102
RTVSPropertyOp2
 70
     1
102
RTVSPropertyOp3
 70
     1
102
RTVSPropertyOp4
 70
     1
102
RTVSPropertyOp5
 70
     1
102
RTVSPropertyOp6
 70
     1
102
RTVSPropertyOp7
 70
     1
102
RTVSPropertyOp8
 70
     1
102
RTVSPropertyOp9
 70
     1
102
RTVSPropertyOp10
 70
     1
102
RTVSPropertyOp11
 70
     1
102
RTVSPropertyOp12
 70
     1
102
RTVSPropertyOp13
 70
     1
102
RTVSPropertyOp14
 70
     1
102
RTVSPropertyOp15
 70
     1
102
RTVSPropertyOp16
 70
     1
102
RTVSPropertyOp17
 70
     1
102
RTVSPropertyOp18
 70
     1
102
RTVSPropertyOp19
 70
     1
102
RTVSPropertyOp20
 70
     1
102
RTVSPropertyOp21
 70
     1
102
RTVSPropertyOp22
 70
     1
102
RTVSPropertyOp23
 70
     1
102
RTVSPropertyOp24
 70
     1
102
RTVSPropertyOp25
 70
     1
102
RTVSPropertyOp26
 70
     1
102
RTVSPropertyOp27
 70
     1
  0
XRECORD
  5
164
102
{ACAD_REACTORS
330
163
102
}
330
163
100
AcDbXrecord
280
     1
102
RTVSPropertyOp0
 70
     1
102
RTVSPropertyOp1
 70
     1
102
RTVSPropertyOp2
 70
     1
102
RTVSPropertyOp3
 70
     1
102
RTVSPropertyOp4
 70
     1
102
RTVSPropertyOp5
 70
     1
102
RTVSPropertyOp6
 70
     1
102
RTVSPropertyOp7
 70
     1
102
RTVSPropertyOp8
 70
     1
102
RTVSPropertyOp9
 70
     1
102
RTVSPropertyOp10
 70
     1
102
RTVSPropertyOp11
 70
     1
102
RTVSPropertyOp12
 70
     1
102
RTVSPropertyOp13
 70
     1
102
RTVSPropertyOp14
 70
     1
102
RTVSPropertyOp15
 70
     1
102
RTVSPropertyOp16
 70
     1
102
RTVSPropertyOp17
 70
     1
102
RTVSPropertyOp18
 70
     1
102
RTVSPropertyOp19
 70
     1
102
RTVSPropertyOp20
 70
     1
102
RTVSPropertyOp21
 70
     1
102
RTVSPropertyOp22
 70
     1
102
RTVSPropertyOp23
 70
     1
102
RTVSPropertyOp24
 70
     1
102
RTVSPropertyOp25
 70
     1
102
RTVSPropertyOp26
 70
     1
102
RTVSPropertyOp27
 70
     1
  0
XRECORD
  5
16C
102
{ACAD_REACTORS
330
16B
102
}
330
16B
100
AcDbXrecord
280
     1
102
RTVSPropertyOp0
 70
     1
102
RTVSPropertyOp1
 70
     1
102
RTVSPropertyOp2
 70
     1
102
RTVSPropertyOp3
 70
     1
102
RTVSPropertyOp4
 70
     1
102
RTVSPropertyOp5
 70
     1
102
RTVSPropertyOp6
 70
     1
102
RTVSPropertyOp7
 70
     1
102
RTVSPropertyOp8
 70
     1
102
RTVSPropertyOp9
 70
     1
102
RTVSPropertyOp10
 70
     1
102
RTVSPropertyOp11
 70
     1
102
RTVSPropertyOp12
 70
     1
102
RTVSPropertyOp13
 70
     1
102
RTVSPropertyOp14
 70
     1
102
RTVSPropertyOp15
 70
     1
102
RTVSPropertyOp16
 70
     1
102
RTVSPropertyOp17
 70
     1
102
RTVSPropertyOp18
 70
     1
102
RTVSPropertyOp19
 70
     1
102
RTVSPropertyOp20
 70
     1
102
RTVSPropertyOp21
 70
     1
102
RTVSPropertyOp22
 70
     1
102
RTVSPropertyOp23
 70
     1
102
RTVSPropertyOp24
 70
     1
102
RTVSPropertyOp25
 70
     1
102
RTVSPropertyOp26
 70
     1
102
RTVSPropertyOp27
 70
     1
  0
XRECORD
  5
160
102
{ACAD_REACTORS
330
15F
102
}
330
15F
100
AcDbXrecord
280
     1
102
RTVSPropertyOp0
 70
     1
102
RTVSPropertyOp1
 70
     1
102
RTVSPropertyOp2
 70
     1
102
RTVSPropertyOp3
 70
     1
102
RTVSPropertyOp4
 70
     1
102
RTVSPropertyOp5
 70
     1
102
RTVSPropertyOp6
 70
     1
102
RTVSPropertyOp7
 70
     1
102
RTVSPropertyOp8
 70
     1
102
RTVSPropertyOp9
 70
     1
102
RTVSPropertyOp10
 70
     1
102
RTVSPropertyOp11
 70
     1
102
RTVSPropertyOp12
 70
     1
102
RTVSPropertyOp13
 70
     1
102
RTVSPropertyOp14
 70
     1
102
RTVSPropertyOp15
 70
     1
102
RTVSPropertyOp16
 70
     1
102
RTVSPropertyOp17
 70
     1
102
RTVSPropertyOp18
 70
     1
102
RTVSPropertyOp19
 70
     1
102
RTVSPropertyOp20
 70
     1
102
RTVSPropertyOp21
 70
     1
102
RTVSPropertyOp22
 70
     1
102
RTVSPropertyOp23
 70
     1
102
RTVSPropertyOp24
 70
     1
102
RTVSPropertyOp25
 70
     1
102
RTVSPropertyOp26
 70
     1
102
RTVSPropertyOp27
 70
     1
  0
XRECORD
  5
162
102
{ACAD_REACTORS
330
161
102
}
330
161
100
AcDbXrecord
280
     1
102
RTVSPropertyOp0
 70
     1
102
RTVSPropertyOp1
 70
     1
102
RTVSPropertyOp2
 70
     1
102
RTVSPropertyOp3
 70
     1
102
RTVSPropertyOp4
 70
     1
102
RTVSPropertyOp5
 70
     1
102
RTVSPropertyOp6
 70
     1
102
RTVSPropertyOp7
 70
     1
102
RTVSPropertyOp8
 70
     1
102
RTVSPropertyOp9
 70
     1
102
RTVSPropertyOp10
 70
     1
102
RTVSPropertyOp11
 70
     1
102
RTVSPropertyOp12
 70
     1
102
RTVSPropertyOp13
 70
     1
102
RTVSPropertyOp14
 70
     1
102
RTVSPropertyOp15
 70
     1
102
RTVSPropertyOp16
 70
     1
102
RTVSPropertyOp17
 70
     1
102
RTVSPropertyOp18
 70
     1
102
RTVSPropertyOp19
 70
     1
102
RTVSPropertyOp20
 70
     1
102
RTVSPropertyOp21
 70
     1
102
RTVSPropertyOp22
 70
     1
102
RTVSPropertyOp23
 70
     1
102
RTVSPropertyOp24
 70
     1
102
RTVSPropertyOp25
 70
     1
102
RTVSPropertyOp26
 70
     1
102
RTVSPropertyOp27
 70
     1
  0
XRECORD
  5
16A
102
{ACAD_REACTORS
330
169
102
}
330
169
100
AcDbXrecord
280
     1
102
RTVSPropertyOp0
 70
     1
102
RTVSPropertyOp1
 70
     1
102
RTVSPropertyOp2
 70
     1
102
RTVSPropertyOp3
 70
     1
102
RTVSPropertyOp4
 70
     1
102
RTVSPropertyOp5
 70
     1
102
RTVSPropertyOp6
 70
     1
102
RTVSPropertyOp7
 70
     1
102
RTVSPropertyOp8
 70
     1
102
RTVSPropertyOp9
 70
     1
102
RTVSPropertyOp10
 70
     1
102
RTVSPropertyOp11
 70
     1
102
RTVSPropertyOp12
 70
     1
102
RTVSPropertyOp13
 70
     1
102
RTVSPropertyOp14
 70
     1
102
RTVSPropertyOp15
 70
     1
102
RTVSPropertyOp16
 70
     1
102
RTVSPropertyOp17
 70
     1
102
RTVSPropertyOp18
 70
     1
102
RTVSPropertyOp19
 70
     1
102
RTVSPropertyOp20
 70
     1
102
RTVSPropertyOp21
 70
     1
102
RTVSPropertyOp22
 70
     1
102
RTVSPropertyOp23
 70
     1
102
RTVSPropertyOp24
 70
     1
102
RTVSPropertyOp25
 70
     1
102
RTVSPropertyOp26
 70
     1
102
RTVSPropertyOp27
 70
     1
  0
XRECORD
  5
14E
102
{ACAD_REACTORS
330
14D
102
}
330
14D
100
AcDbXrecord
280
     1
102
RTVSPropertyOp0
 70
     1
102
RTVSPropertyOp1
 70
     1
102
RTVSPropertyOp2
 70
     1
102
RTVSPropertyOp3
 70
     1
102
RTVSPropertyOp4
 70
     1
102
RTVSPropertyOp5
 70
     1
102
RTVSPropertyOp6
 70
     1
102
RTVSPropertyOp7
 70
     1
102
RTVSPropertyOp8
 70
     1
102
RTVSPropertyOp9
 70
     1
102
RTVSPropertyOp10
 70
     1
102
RTVSPropertyOp11
 70
     1
102
RTVSPropertyOp12
 70
     1
102
RTVSPropertyOp13
 70
     1
102
RTVSPropertyOp14
 70
     1
102
RTVSPropertyOp15
 70
     1
102
RTVSPropertyOp16
 70
     1
102
RTVSPropertyOp17
 70
     1
102
RTVSPropertyOp18
 70
     1
102
RTVSPropertyOp19
 70
     1
102
RTVSPropertyOp20
 70
     1
102
RTVSPropertyOp21
 70
     1
102
RTVSPropertyOp22
 70
     1
102
RTVSPropertyOp23
 70
     1
102
RTVSPropertyOp24
 70
     1
102
RTVSPropertyOp25
 70
     1
102
RTVSPropertyOp26
 70
     1
102
RTVSPropertyOp27
 70
     1
  0
XRECORD
  5
150
102
{ACAD_REACTORS
330
14F
102
}
330
14F
100
AcDbXrecord
280
     1
102
RTVSPropertyOp0
 70
     1
102
RTVSPropertyOp1
 70
     1
102
RTVSPropertyOp2
 70
     1
102
RTVSPropertyOp3
 70
     1
102
RTVSPropertyOp4
 70
     1
102
RTVSPropertyOp5
 70
     1
102
RTVSPropertyOp6
 70
     1
102
RTVSPropertyOp7
 70
     1
102
RTVSPropertyOp8
 70
     1
102
RTVSPropertyOp9
 70
     1
102
RTVSPropertyOp10
 70
     1
102
RTVSPropertyOp11
 70
     1
102
RTVSPropertyOp12
 70
     1
102
RTVSPropertyOp13
 70
     1
102
RTVSPropertyOp14
 70
     1
102
RTVSPropertyOp15
 70
     1
102
RTVSPropertyOp16
 70
     1
102
RTVSPropertyOp17
 70
     1
102
RTVSPropertyOp18
 70
     1
102
RTVSPropertyOp19
 70
     1
102
RTVSPropertyOp20
 70
     1
102
RTVSPropertyOp21
 70
     1
102
RTVSPropertyOp22
 70
     1
102
RTVSPropertyOp23
 70
     1
102
RTVSPropertyOp24
 70
     1
102
RTVSPropertyOp25
 70
     1
102
RTVSPropertyOp26
 70
     1
102
RTVSPropertyOp27
 70
     1
  0
XRECORD
  5
152
102
{ACAD_REACTORS
330
151
102
}
330
151
100
AcDbXrecord
280
     1
102
RTVSPropertyOp0
 70
     1
102
RTVSPropertyOp1
 70
     1
102
RTVSPropertyOp2
 70
     1
102
RTVSPropertyOp3
 70
     1
102
RTVSPropertyOp4
 70
     1
102
RTVSPropertyOp5
 70
     1
102
RTVSPropertyOp6
 70
     1
102
RTVSPropertyOp7
 70
     1
102
RTVSPropertyOp8
 70
     1
102
RTVSPropertyOp9
 70
     1
102
RTVSPropertyOp10
 70
     1
102
RTVSPropertyOp11
 70
     1
102
RTVSPropertyOp12
 70
     1
102
RTVSPropertyOp13
 70
     1
102
RTVSPropertyOp14
 70
     1
102
RTVSPropertyOp15
 70
     1
102
RTVSPropertyOp16
 70
     1
102
RTVSPropertyOp17
 70
     1
102
RTVSPropertyOp18
 70
     1
102
RTVSPropertyOp19
 70
     1
102
RTVSPropertyOp20
 70
     1
102
RTVSPropertyOp21
 70
     1
102
RTVSPropertyOp22
 70
     1
102
RTVSPropertyOp23
 70
     1
102
RTVSPropertyOp24
 70
     1
102
RTVSPropertyOp25
 70
     1
102
RTVSPropertyOp26
 70
     1
102
RTVSPropertyOp27
 70
     1
  0
XRECORD
  5
154
102
{ACAD_REACTORS
330
153
102
}
330
153
100
AcDbXrecord
280
     1
102
RTVSPropertyOp0
 70
     1
102
RTVSPropertyOp1
 70
     1
102
RTVSPropertyOp2
 70
     1
102
RTVSPropertyOp3
 70
     1
102
RTVSPropertyOp4
 70
     1
102
RTVSPropertyOp5
 70
     1
102
RTVSPropertyOp6
 70
     1
102
RTVSPropertyOp7
 70
     1
102
RTVSPropertyOp8
 70
     1
102
RTVSPropertyOp9
 70
     1
102
RTVSPropertyOp10
 70
     1
102
RTVSPropertyOp11
 70
     1
102
RTVSPropertyOp12
 70
     1
102
RTVSPropertyOp13
 70
     1
102
RTVSPropertyOp14
 70
     1
102
RTVSPropertyOp15
 70
     1
102
RTVSPropertyOp16
 70
     1
102
RTVSPropertyOp17
 70
     1
102
RTVSPropertyOp18
 70
     1
102
RTVSPropertyOp19
 70
     1
102
RTVSPropertyOp20
 70
     1
102
RTVSPropertyOp21
 70
     1
102
RTVSPropertyOp22
 70
     1
102
RTVSPropertyOp23
 70
     1
102
RTVSPropertyOp24
 70
     1
102
RTVSPropertyOp25
 70
     1
102
RTVSPropertyOp26
 70
     1
102
RTVSPropertyOp27
 70
     1
  0
XRECORD
  5
168
102
{ACAD_REACTORS
330
167
102
}
330
167
100
AcDbXrecord
280
     1
102
RTVSPropertyOp0
 70
     1
102
RTVSPropertyOp1
 70
     1
102
RTVSPropertyOp2
 70
     1
102
RTVSPropertyOp3
 70
     1
102
RTVSPropertyOp4
 70
     1
102
RTVSPropertyOp5
 70
     1
102
RTVSPropertyOp6
 70
     1
102
RTVSPropertyOp7
 70
     1
102
RTVSPropertyOp8
 70
     1
102
RTVSPropertyOp9
 70
     1
102
RTVSPropertyOp10
 70
     1
102
RTVSPropertyOp11
 70
     1
102
RTVSPropertyOp12
 70
     1
102
RTVSPropertyOp13
 70
     1
102
RTVSPropertyOp14
 70
     1
102
RTVSPropertyOp15
 70
     1
102
RTVSPropertyOp16
 70
     1
102
RTVSPropertyOp17
 70
     1
102
RTVSPropertyOp18
 70
     1
102
RTVSPropertyOp19
 70
     1
102
RTVSPropertyOp20
 70
     1
102
RTVSPropertyOp21
 70
     1
102
RTVSPropertyOp22
 70
     1
102
RTVSPropertyOp23
 70
     1
102
RTVSPropertyOp24
 70
     1
102
RTVSPropertyOp25
 70
     1
102
RTVSPropertyOp26
 70
     1
102
RTVSPropertyOp27
 70
     1
  0
XRECORD
  5
15E
102
{ACAD_REACTORS
330
15D
102
}
330
15D
100
AcDbXrecord
280
     1
102
RTVSPropertyOp0
 70
     1
102
RTVSPropertyOp1
 70
     1
102
RTVSPropertyOp2
 70
     1
102
RTVSPropertyOp3
 70
     1
102
RTVSPropertyOp4
 70
     1
102
RTVSPropertyOp5
 70
     1
102
RTVSPropertyOp6
 70
     1
102
RTVSPropertyOp7
 70
     1
102
RTVSPropertyOp8
 70
     1
102
RTVSPropertyOp9
 70
     1
102
RTVSPropertyOp10
 70
     1
102
RTVSPropertyOp11
 70
     1
102
RTVSPropertyOp12
 70
     1
102
RTVSPropertyOp13
 70
     1
102
RTVSPropertyOp14
 70
     1
102
RTVSPropertyOp15
 70
     1
102
RTVSPropertyOp16
 70
     1
102
RTVSPropertyOp17
 70
     1
102
RTVSPropertyOp18
 70
     1
102
RTVSPropertyOp19
 70
     1
102
RTVSPropertyOp20
 70
     1
102
RTVSPropertyOp21
 70
     1
102
RTVSPropertyOp22
 70
     1
102
RTVSPropertyOp23
 70
     1
102
RTVSPropertyOp24
 70
     1
102
RTVSPropertyOp25
 70
     1
102
RTVSPropertyOp26
 70
     1
102
RTVSPropertyOp27
 70
     1
  0
XRECORD
  5
166
102
{ACAD_REACTORS
330
165
102
}
330
165
100
AcDbXrecord
280
     1
102
RTVSPropertyOp0
 70
     1
102
RTVSPropertyOp1
 70
     1
102
RTVSPropertyOp2
 70
     1
102
RTVSPropertyOp3
 70
     1
102
RTVSPropertyOp4
 70
     1
102
RTVSPropertyOp5
 70
     1
102
RTVSPropertyOp6
 70
     1
102
RTVSPropertyOp7
 70
     1
102
RTVSPropertyOp8
 70
     1
102
RTVSPropertyOp9
 70
     1
102
RTVSPropertyOp10
 70
     1
102
RTVSPropertyOp11
 70
     1
102
RTVSPropertyOp12
 70
     1
102
RTVSPropertyOp13
 70
     1
102
RTVSPropertyOp14
 70
     1
102
RTVSPropertyOp15
 70
     1
102
RTVSPropertyOp16
 70
     1
102
RTVSPropertyOp17
 70
     1
102
RTVSPropertyOp18
 70
     1
102
RTVSPropertyOp19
 70
     1
102
RTVSPropertyOp20
 70
     1
102
RTVSPropertyOp21
 70
     1
102
RTVSPropertyOp22
 70
     1
102
RTVSPropertyOp23
 70
     1
102
RTVSPropertyOp24
 70
     1
102
RTVSPropertyOp25
 70
     1
102
RTVSPropertyOp26
 70
     1
102
RTVSPropertyOp27
 70
     1
  0
ENDSEC
  0
EOF
