  0
SECTION
  2
HEADER
  9
$ACADVER
  1
AC1015
  9
$ACADMAINTVER
 70
     6
  9
$DWGCODEPAGE
  3
ANSI_932
  9
$INSBASE
 10
0.0
 20
0.0
 30
0.0
  9
$EXTMIN
 10
-83.2487444319391
 20
-120.980930768755
 30
0.0
  9
$EXTMAX
 10
651.0000011092
 20
566.75540446192
 30
0.0
  9
$LIMMIN
 10
0.0
 20
0.0
  9
$LIMMAX
 10
12.0
 20
9.0
  9
$ORTHOMODE
 70
     0
  9
$REGENMODE
 70
     1
  9
$FILLMODE
 70
     1
  9
$QTEXTMODE
 70
     0
  9
$MIRRTEXT
 70
     1
  9
$LTSCALE
 40
1.0
  9
$ATTMODE
 70
     1
  9
$TEXTSIZE
 40
0.2
  9
$TRACEWID
 40
0.05
  9
$TEXTSTYLE
  7
Standard
  9
$CLAYER
  8
0
  9
$CELTYPE
  6
ByLayer
  9
$CECOLOR
 62
   256
  9
$CELTSCALE
 40
1.0
  9
$DISPSILH
 70
     0
  9
$DIMSCALE
 40
1.0
  9
$DIMASZ
 40
0.18
  9
$DIMEXO
 40
0.0625
  9
$DIMDLI
 40
0.38
  9
$DIMRND
 40
0.0
  9
$DIMDLE
 40
0.0
  9
$DIMEXE
 40
0.18
  9
$DIMTP
 40
0.0
  9
$DIMTM
 40
0.0
  9
$DIMTXT
 40
0.18
  9
$DIMCEN
 40
0.09
  9
$DIMTSZ
 40
0.0
  9
$DIMTOL
 70
     0
  9
$DIMLIM
 70
     0
  9
$DIMTIH
 70
     1
  9
$DIMTOH
 70
     1
  9
$DIMSE1
 70
     0
  9
$DIMSE2
 70
     0
  9
$DIMTAD
 70
     0
  9
$DIMZIN
 70
     0
  9
$DIMBLK
  1

  9
$DIMASO
 70
     1
  9
$DIMSHO
 70
     1
  9
$DIMPOST
  1

  9
$DIMAPOST
  1

  9
$DIMALT
 70
     0
  9
$DIMALTD
 70
     2
  9
$DIMALTF
 40
25.4
  9
$DIMLFAC
 40
1.0
  9
$DIMTOFL
 70
     0
  9
$DIMTVP
 40
0.0
  9
$DIMTIX
 70
     0
  9
$DIMSOXD
 70
     0
  9
$DIMSAH
 70
     0
  9
$DIMBLK1
  1

  9
$DIMBLK2
  1

  9
$DIMSTYLE
  2
Standard
  9
$DIMCLRD
 70
     0
  9
$DIMCLRE
 70
     0
  9
$DIMCLRT
 70
     0
  9
$DIMTFAC
 40
1.0
  9
$DIMGAP
 40
0.09
  9
$DIMJUST
 70
     0
  9
$DIMSD1
 70
     0
  9
$DIMSD2
 70
     0
  9
$DIMTOLJ
 70
     1
  9
$DIMTZIN
 70
     0
  9
$DIMALTZ
 70
     0
  9
$DIMALTTZ
 70
     0
  9
$DIMUPT
 70
     0
  9
$DIMDEC
 70
     4
  9
$DIMTDEC
 70
     4
  9
$DIMALTU
 70
     2
  9
$DIMALTTD
 70
     2
  9
$DIMTXSTY
  7
Standard
  9
$DIMAUNIT
 70
     0
  9
$DIMADEC
 70
     0
  9
$DIMALTRND
 40
0.0
  9
$DIMAZIN
 70
     0
  9
$DIMDSEP
 70
    46
  9
$DIMATFIT
 70
     3
  9
$DIMFRAC
 70
     0
  9
$DIMLDRBLK
  1

  9
$DIMLUNIT
 70
     2
  9
$DIMLWD
 70
    -2
  9
$DIMLWE
 70
    -2
  9
$DIMTMOVE
 70
     0
  9
$LUNITS
 70
     2
  9
$LUPREC
 70
     4
  9
$SKETCHINC
 40
0.1
  9
$FILLETRAD
 40
0.5
  9
$AUNITS
 70
     0
  9
$AUPREC
 70
     0
  9
$MENU
  1
.
  9
$ELEVATION
 40
0.0
  9
$PELEVATION
 40
0.0
  9
$THICKNESS
 40
0.0
  9
$LIMCHECK
 70
     0
  9
$CHAMFERA
 40
0.5
  9
$CHAMFERB
 40
0.5
  9
$CHAMFERC
 40
1.0
  9
$CHAMFERD
 40
0.0
  9
$SKPOLY
 70
     0
  9
$TDCREATE
 40
2457624.479944282
  9
$TDUCREATE
 40
2457624.104944282
  9
$TDUPDATE
 40
2457624.479944294
  9
$TDUUPDATE
 40
2457624.104944294
  9
$TDINDWG
 40
0.0000000116
  9
$TDUSRTIMER
 40
0.0000000116
  9
$USRTIMER
 70
     1
  9
$ANGBASE
 50
0.0
  9
$ANGDIR
 70
     0
  9
$PDMODE
 70
     0
  9
$PDSIZE
 40
0.0
  9
$PLINEWID
 40
0.0
  9
$SPLFRAME
 70
     0
  9
$SPLINETYPE
 70
     6
  9
$SPLINESEGS
 70
     8
  9
$HANDSEED
  5
624
  9
$SURFTAB1
 70
     6
  9
$SURFTAB2
 70
     6
  9
$SURFTYPE
 70
     6
  9
$SURFU
 70
     6
  9
$SURFV
 70
     6
  9
$UCSBASE
  2

  9
$UCSNAME
  2

  9
$UCSORG
 10
0.0
 20
0.0
 30
0.0
  9
$UCSXDIR
 10
1.0
 20
0.0
 30
0.0
  9
$UCSYDIR
 10
0.0
 20
1.0
 30
0.0
  9
$UCSORTHOREF
  2

  9
$UCSORTHOVIEW
 70
     0
  9
$UCSORGTOP
 10
0.0
 20
0.0
 30
0.0
  9
$UCSORGBOTTOM
 10
0.0
 20
0.0
 30
0.0
  9
$UCSORGLEFT
 10
0.0
 20
0.0
 30
0.0
  9
$UCSORGRIGHT
 10
0.0
 20
0.0
 30
0.0
  9
$UCSORGFRONT
 10
0.0
 20
0.0
 30
0.0
  9
$UCSORGBACK
 10
0.0
 20
0.0
 30
0.0
  9
$PUCSBASE
  2

  9
$PUCSNAME
  2

  9
$PUCSORG
 10
0.0
 20
0.0
 30
0.0
  9
$PUCSXDIR
 10
1.0
 20
0.0
 30
0.0
  9
$PUCSYDIR
 10
0.0
 20
1.0
 30
0.0
  9
$PUCSORTHOREF
  2

  9
$PUCSORTHOVIEW
 70
     0
  9
$PUCSORGTOP
 10
0.0
 20
0.0
 30
0.0
  9
$PUCSORGBOTTOM
 10
0.0
 20
0.0
 30
0.0
  9
$PUCSORGLEFT
 10
0.0
 20
0.0
 30
0.0
  9
$PUCSORGRIGHT
 10
0.0
 20
0.0
 30
0.0
  9
$PUCSORGFRONT
 10
0.0
 20
0.0
 30
0.0
  9
$PUCSORGBACK
 10
0.0
 20
0.0
 30
0.0
  9
$USERI1
 70
     0
  9
$USERI2
 70
     0
  9
$USERI3
 70
     0
  9
$USERI4
 70
     0
  9
$USERI5
 70
     0
  9
$USERR1
 40
18.0
  9
$USERR2
 40
0.0
  9
$USERR3
 40
0.0
  9
$USERR4
 40
0.0
  9
$USERR5
 40
0.0
  9
$WORLDVIEW
 70
     1
  9
$SHADEDGE
 70
     3
  9
$SHADEDIF
 70
    70
  9
$TILEMODE
 70
     1
  9
$MAXACTVP
 70
    64
  9
$PINSBASE
 10
0.0
 20
0.0
 30
0.0
  9
$PLIMCHECK
 70
     0
  9
$PEXTMIN
 10
1.00000000000000E+20
 20
1.00000000000000E+20
 30
1.00000000000000E+20
  9
$PEXTMAX
 10
-1.00000000000000E+20
 20
-1.00000000000000E+20
 30
-1.00000000000000E+20
  9
$PLIMMIN
 10
0.0
 20
0.0
  9
$PLIMMAX
 10
12.0
 20
9.0
  9
$UNITMODE
 70
     0
  9
$VISRETAIN
 70
     1
  9
$PLINEGEN
 70
     0
  9
$PSLTSCALE
 70
     1
  9
$TREEDEPTH
 70
  3020
  9
$CMLSTYLE
  2
Standard
  9
$CMLJUST
 70
     0
  9
$CMLSCALE
 40
1.0
  9
$PROXYGRAPHICS
 70
     1
  9
$MEASUREMENT
 70
     1
  9
$CELWEIGHT
370
    -1
  9
$ENDCAPS
280
     0
  9
$JOINSTYLE
280
     0
  9
$LWDISPLAY
290
     0
  9
$INSUNITS
 70
     1
  9
$HYPERLINKBASE
  1

  9
$STYLESHEET
  1

  9
$XEDIT
290
     1
  9
$CEPSNTYPE
380
     0
  9
$PSTYLEMODE
290
     1
  9
$FINGERPRINTGUID
  2
{7BCC885D-7EBA-4977-B044-FE43047263F7}
  9
$VERSIONGUID
  2
{FAEB1C32-E019-11D5-929B-00C0DF256EC4}
  9
$EXTNAMES
290
     1
  9
$PSVPSCALE
 40
0.0
  9
$OLESTARTUP
290
     0
  0
ENDSEC
  0
SECTION
  2
CLASSES
  0
CLASS
  1
ACDBDICTIONARYWDFLT
  2
AcDbDictionaryWithDefault
  3
ObjectDBX Classes
 90
        0
280
     0
281
     0
  0
CLASS
  1
VISUALSTYLE
  2
AcDbVisualStyle
  3
ObjectDBX Classes
 90
     4095
280
     0
281
     0
  0
CLASS
  1
MATERIAL
  2
AcDbMaterial
  3
ObjectDBX Classes
 90
     1153
280
     0
281
     0
  0
CLASS
  1

  2
exOdDbCircle
  3

 90
        0
280
     0
281
     1
  0
CLASS
  1

  2
exOdDbSpline
  3

 90
        0
280
     0
281
     1
  0
CLASS
  1
DICTIONARYVAR
  2
AcDbDictionaryVar
  3
ObjectDBX Classes
 90
        0
280
     0
281
     0
  0
CLASS
  1
ACDBPLACEHOLDER
  2
AcDbPlaceHolder
  3
ObjectDBX Classes
 90
        0
280
     0
281
     0
  0
CLASS
  1
LAYOUT
  2
AcDbLayout
  3
ObjectDBX Classes
 90
        0
280
     0
281
     0
  0
ENDSEC
  0
SECTION
  2
TABLES
  0
TABLE
  2
VPORT
  5
8
330
0
100
AcDbSymbolTable
 70
     1
  0
VPORT
  5
29
330
8
100
AcDbSymbolTableRecord
100
AcDbViewportTableRecord
  2
*Active
 70
     0
 10
0.0
 20
0.0
 11
1.0
 21
1.0
 12
283.8756283386304
 22
222.8872368465825
 13
0.0
 23
0.0
 14
0.5
 24
0.5
 15
0.5
 25
0.5
 16
0.0
 26
0.0
 36
1.0
 17
0.0
 27
0.0
 37
0.0
 40
756.5099687537426
 41
1.60267857142857
 42
50.0
 43
0.0
 44
0.0
 50
0.0
 51
0.0
 71
     0
 72
   100
 73
     1
 74
     3
 75
     0
 76
     0
 77
     0
 78
     0
281
     0
 65
     1
110
0.0
120
0.0
130
0.0
111
1.0
121
0.0
131
0.0
112
0.0
122
1.0
132
0.0
 79
     0
146
0.0
  0
ENDTAB
  0
TABLE
  2
LTYPE
  5
5
330
0
100
AcDbSymbolTable
 70
     8
  0
LTYPE
  5
14
330
5
100
AcDbSymbolTableRecord
100
AcDbLinetypeTableRecord
  2
ByBlock
 70
     0
  3

 72
    65
 73
     0
 40
0.0
  0
LTYPE
  5
15
330
5
100
AcDbSymbolTableRecord
100
AcDbLinetypeTableRecord
  2
ByLayer
 70
     0
  3

 72
    65
 73
     0
 40
0.0
  0
LTYPE
  5
16
330
5
100
AcDbSymbolTableRecord
100
AcDbLinetypeTableRecord
  2
Continuous
 70
     0
  3
Solid line
 72
    65
 73
     0
 40
0.0
  0
LTYPE
  5
3F
330
5
100
AcDbSymbolTableRecord
100
AcDbLinetypeTableRecord
  2
DASHED
 70
     0
  3
Dashed
 72
    65
 73
     2
 40
15.0
 49
7.0
 74
     0
 49
-8.0
 74
     0
  0
LTYPE
  5
40
330
5
100
AcDbSymbolTableRecord
100
AcDbLinetypeTableRecord
  2
DOTTED
 70
     0
  3
Dotted
 72
    65
 73
     2
 40
1.0
 49
0.0
 74
     0
 49
-1.0
 74
     0
  0
LTYPE
  5
41
330
5
100
AcDbSymbolTableRecord
100
AcDbLinetypeTableRecord
  2
DOT_CENTER
 70
     0
  3
Dot_Center
 72
    65
 73
     4
 40
14.0
 49
12.0
 74
     0
 49
-1.0
 74
     0
 49
0.0
 74
     0
 49
-1.0
 74
     0
  0
LTYPE
  5
42
330
5
100
AcDbSymbolTableRecord
100
AcDbLinetypeTableRecord
  2
LONG_DASHED
 70
     0
  3
Long_Dashed
 72
    65
 73
     2
 40
15.0
 49
10.0
 74
     0
 49
-5.0
 74
     0
  0
LTYPE
  5
43
330
5
100
AcDbSymbolTableRecord
100
AcDbLinetypeTableRecord
  2
DASH_CENTER
 70
     0
  3
Dash_Center
 72
    65
 73
     4
 40
14.0
 49
11.0
 74
     0
 49
-1.0
 74
     0
 49
1.0
 74
     0
 49
-1.0
 74
     0
  0
LTYPE
  5
44
330
5
100
AcDbSymbolTableRecord
100
AcDbLinetypeTableRecord
  2
PHANTOM
 70
     0
  3
Phantom
 72
    65
 73
     6
 40
13.0
 49
10.0
 74
     0
 49
-1.0
 74
     0
 49
0.0
 74
     0
 49
-1.0
 74
     0
 49
0.0
 74
     0
 49
-1.0
 74
     0
  0
LTYPE
  5
45
330
5
100
AcDbSymbolTableRecord
100
AcDbLinetypeTableRecord
  2
CENTER_DASH_DASH
 70
     0
  3
Center_Dash_Dash
 72
    65
 73
     6
 40
14.0
 49
9.0
 74
     0
 49
-1.0
 74
     0
 49
1.0
 74
     0
 49
-1.0
 74
     0
 49
1.0
 74
     0
 49
-1.0
 74
     0
  0
ENDTAB
  0
TABLE
  2
LAYER
  5
2
330
0
100
AcDbSymbolTable
 70
     6
  0
LAYER
  5
10
330
2
100
AcDbSymbolTableRecord
100
AcDbLayerTableRecord
  2
0
 70
     0
 62
     7
  6
Continuous
370
    -3
390
F
  0
LAYER
  5
46
330
2
100
AcDbSymbolTableRecord
100
AcDbLayerTableRecord
  2
1
 70
     0
 62
     7
  6
Continuous
370
    -3
390
F
  0
LAYER
  5
47
330
2
100
AcDbSymbolTableRecord
100
AcDbLayerTableRecord
  2
100
 70
     0
 62
     7
  6
Continuous
370
    -3
390
F
  0
LAYER
  5
48
330
2
100
AcDbSymbolTableRecord
100
AcDbLayerTableRecord
  2
2
 70
     0
 62
     7
  6
Continuous
370
    -3
390
F
  0
LAYER
  5
49
330
2
100
AcDbSymbolTableRecord
100
AcDbLayerTableRecord
  2
4
 70
     0
 62
     7
  6
Continuous
370
    -3
390
F
  0
LAYER
  5
4A
330
2
100
AcDbSymbolTableRecord
100
AcDbLayerTableRecord
  2
5
 70
     0
 62
     7
  6
Continuous
370
    -3
390
F
  0
ENDTAB
  0
TABLE
  2
STYLE
  5
3
330
0
100
AcDbSymbolTable
 70
     1
  0
STYLE
  5
11
330
3
100
AcDbSymbolTableRecord
100
AcDbTextStyleTableRecord
  2
Standard
 70
     0
 40
0.0
 41
1.0
 50
0.0
 71
     0
 42
0.2
  3
txt
  4

  0
ENDTAB
  0
TABLE
  2
VIEW
  5
6
330
0
100
AcDbSymbolTable
 70
     0
  0
ENDTAB
  0
TABLE
  2
UCS
  5
7
330
0
100
AcDbSymbolTable
 70
     0
  0
ENDTAB
  0
TABLE
  2
APPID
  5
9
330
0
100
AcDbSymbolTable
 70
     1
  0
APPID
  5
12
330
9
100
AcDbSymbolTableRecord
100
AcDbRegAppTableRecord
  2
ACAD
 70
     0
  0
ENDTAB
  0
TABLE
  2
DIMSTYLE
  5
A
330
0
100
AcDbSymbolTable
 70
     1
100
AcDbDimStyleTable
  0
DIMSTYLE
105
27
330
A
100
AcDbSymbolTableRecord
100
AcDbDimStyleTableRecord
  2
Standard
 70
     0
340
11
  0
ENDTAB
  0
TABLE
  2
BLOCK_RECORD
  5
1
330
0
100
AcDbSymbolTable
 70
     1
  0
BLOCK_RECORD
  5
1F
330
1
100
AcDbSymbolTableRecord
100
AcDbBlockTableRecord
  2
*Model_Space
340
22
  0
BLOCK_RECORD
  5
1B
330
1
100
AcDbSymbolTableRecord
100
AcDbBlockTableRecord
  2
*Paper_Space
340
1E
  0
BLOCK_RECORD
  5
23
330
1
100
AcDbSymbolTableRecord
100
AcDbBlockTableRecord
  2
*Paper_Space0
340
26
  0
ENDTAB
  0
ENDSEC
  0
SECTION
  2
BLOCKS
  0
BLOCK
  5
20
330
1F
100
AcDbEntity
  8
0
100
AcDbBlockBegin
  2
*Model_Space
 70
     0
 10
0.0
 20
0.0
 30
0.0
  3
*Model_Space
  1

  0
ENDBLK
  5
21
330
1F
100
AcDbEntity
  8
0
100
AcDbBlockEnd
  0
BLOCK
  5
1C
330
1B
100
AcDbEntity
 67
     1
  8
0
100
AcDbBlockBegin
  2
*Paper_Space
 70
     0
 10
0.0
 20
0.0
 30
0.0
  3
*Paper_Space
  1

  0
ENDBLK
  5
1D
330
1B
100
AcDbEntity
 67
     1
  8
0
100
AcDbBlockEnd
  0
BLOCK
  5
24
330
23
100
AcDbEntity
  8
0
100
AcDbBlockBegin
  2
*Paper_Space0
 70
     0
 10
0.0
 20
0.0
 30
0.0
  3
*Paper_Space0
  1

  0
ENDBLK
  5
25
330
23
100
AcDbEntity
  8
0
100
AcDbBlockEnd
  0
ENDSEC
  0
SECTION
  2
ENTITIES
  0
POINT
  5
4B
330
1F
100
AcDbEntity
  8
1
 62
     3
 60
     1
100
AcDbPoint
 10
506.5
 20
30.549999999998
 30
0.0
  0
POINT
  5
4C
330
1F
100
AcDbEntity
  8
1
 62
     3
 60
     1
100
AcDbPoint
 10
529.5
 20
30.549999999998
 30
0.0
  0
LINE
  5
4D
330
1F
100
AcDbEntity
  8
1
  6
Continuous
 62
     4
100
AcDbLine
 10
288.505865202796
 20
32.6426063663321
 30
0.0
 11
289.054859811546
 21
33.8926063663321
 31
0.0
  0
LINE
  5
4E
330
1F
100
AcDbEntity
  8
1
  6
Continuous
 62
     4
100
AcDbLine
 10
287.956870594046
 20
32.0176063663321
 30
0.0
 11
288.505865202796
 21
32.6426063663321
 31
0.0
  0
LINE
  5
4F
330
1F
100
AcDbEntity
  8
1
  6
Continuous
 62
     4
100
AcDbLine
 10
287.251020382796
 20
31.6426063663321
 30
0.0
 11
287.956870594046
 21
32.0176063663321
 31
0.0
  0
LINE
  5
50
330
1F
100
AcDbEntity
  8
1
  6
Continuous
 62
     4
100
AcDbLine
 10
286.780453575296
 20
32.0176063663321
 30
0.0
 11
287.251020382796
 21
31.6426063663321
 31
0.0
  0
LINE
  5
51
330
1F
100
AcDbEntity
  8
1
  6
Continuous
 62
     4
100
AcDbLine
 10
286.388314569046
 20
32.8926063663321
 30
0.0
 11
286.780453575296
 21
32.0176063663321
 31
0.0
  0
LINE
  5
52
330
1F
100
AcDbEntity
  8
1
  6
Continuous
 62
     4
100
AcDbLine
 10
286.231458966546
 20
34.7676063663321
 30
0.0
 11
286.388314569046
 21
32.8926063663321
 31
0.0
  0
LINE
  5
53
330
1F
100
AcDbEntity
  8
1
  6
Continuous
 62
     4
100
AcDbLine
 10
286.231458966546
 20
39.5176063663321
 30
0.0
 11
286.231458966546
 21
34.7676063663321
 31
0.0
  0
LINE
  5
54
330
1F
100
AcDbEntity
  8
1
  6
Continuous
 62
     4
100
AcDbLine
 10
288.505865202796
 20
38.8926063663321
 30
0.0
 11
287.956870594046
 21
39.7676063663321
 31
0.0
  0
LINE
  5
55
330
1F
100
AcDbEntity
  8
1
  6
Continuous
 62
     4
100
AcDbLine
 10
287.643159389046
 20
39.1426063663321
 30
0.0
 11
288.113726196546
 21
38.2676063663321
 31
0.0
  0
LINE
  5
56
330
1F
100
AcDbEntity
  8
1
  6
Continuous
 62
     4
100
AcDbLine
 10
282.780635711546
 20
33.2676063663321
 30
0.0
 11
283.2512025190461
 21
32.2676063663321
 31
0.0
  0
LINE
  5
57
330
1F
100
AcDbEntity
  8
1
  6
Continuous
 62
     4
100
AcDbLine
 10
281.839502096546
 20
33.8926063663321
 30
0.0
 11
282.780635711546
 21
33.2676063663321
 31
0.0
  0
LINE
  5
58
330
1F
100
AcDbEntity
  8
1
  6
Continuous
 62
     4
100
AcDbLine
 10
281.368935289046
 20
33.5176063663321
 30
0.0
 11
281.839502096546
 21
33.8926063663321
 31
0.0
  0
LINE
  5
59
330
1F
100
AcDbEntity
  8
1
  6
Continuous
 62
     4
100
AcDbLine
 10
281.212079686546
 20
32.8926063663321
 30
0.0
 11
281.368935289046
 21
33.5176063663321
 31
0.0
  0
LINE
  5
5A
330
1F
100
AcDbEntity
  8
1
  6
Continuous
 62
     4
100
AcDbLine
 10
281.525790891546
 20
32.2676063663321
 30
0.0
 11
281.212079686546
 21
32.8926063663321
 31
0.0
  0
LINE
  5
5B
330
1F
100
AcDbEntity
  8
1
  6
Continuous
 62
     4
100
AcDbLine
 10
282.2316411027961
 20
32.6426063663321
 30
0.0
 11
281.525790891546
 21
32.2676063663321
 31
0.0
  0
LINE
  5
5C
330
1F
100
AcDbEntity
  8
1
  6
Continuous
 62
     4
100
AcDbLine
 10
282.937491314046
 20
33.8926063663321
 30
0.0
 11
282.2316411027961
 21
32.6426063663321
 31
0.0
  0
LINE
  5
5D
330
1F
100
AcDbEntity
  8
1
  6
Continuous
 62
     4
100
AcDbLine
 10
283.094346916546
 20
35.7676063663321
 30
0.0
 11
282.937491314046
 21
33.8926063663321
 31
0.0
  0
LINE
  5
5E
330
1F
100
AcDbEntity
  8
1
  6
Continuous
 62
     4
100
AcDbLine
 10
282.937491314046
 20
37.2676063663321
 30
0.0
 11
283.094346916546
 21
35.7676063663321
 31
0.0
  0
LINE
  5
5F
330
1F
100
AcDbEntity
  8
1
  6
Continuous
 62
     4
100
AcDbLine
 10
282.3884967052961
 20
38.2676063663321
 30
0.0
 11
282.937491314046
 21
37.2676063663321
 31
0.0
  0
LINE
  5
60
330
1F
100
AcDbEntity
  8
1
  6
Continuous
 62
     4
100
AcDbLine
 10
281.682646494046
 20
37.8926063663321
 30
0.0
 11
282.3884967052961
 21
38.2676063663321
 31
0.0
  0
LINE
  5
61
330
1F
100
AcDbEntity
  8
1
  6
Continuous
 62
     4
100
AcDbLine
 10
280.976796282796
 20
37.2676063663321
 30
0.0
 11
281.682646494046
 21
37.8926063663321
 31
0.0
  0
LINE
  5
62
330
1F
100
AcDbEntity
  8
1
  6
Continuous
 62
     4
100
AcDbLine
 10
280.1140904690461
 20
35.3926063663321
 30
0.0
 11
280.976796282796
 21
37.2676063663321
 31
0.0
  0
LINE
  5
63
330
1F
100
AcDbEntity
  8
1
  6
Continuous
 62
     4
100
AcDbLine
 10
279.9572348665461
 20
35.3926063663321
 30
0.0
 11
279.094529052796
 21
32.8926063663321
 31
0.0
  0
LINE
  5
64
330
1F
100
AcDbEntity
  8
1
  6
Continuous
 62
     4
100
AcDbLine
 10
280.506229475296
 20
37.6426063663321
 30
0.0
 11
279.9572348665461
 21
35.3926063663321
 31
0.0
  0
LINE
  5
65
330
1F
100
AcDbEntity
  8
1
  6
Continuous
 62
     4
100
AcDbLine
 10
279.094529052796
 20
37.0176063663321
 30
0.0
 11
280.506229475296
 21
37.6426063663321
 31
0.0
  0
LINE
  5
66
330
1F
100
AcDbEntity
  8
1
  6
Continuous
 62
     4
100
AcDbLine
 10
280.1140904690461
 20
35.3926063663321
 30
0.0
 11
280.506229475296
 21
40.1426063663321
 31
0.0
  0
LINE
  5
67
330
1F
100
AcDbEntity
  8
1
  6
Continuous
 62
     4
100
AcDbLine
 10
280.1140904690461
 20
32.0176063663321
 30
0.0
 11
280.1140904690461
 21
35.3926063663321
 31
0.0
  0
LINE
  5
68
330
1F
100
AcDbEntity
  8
1
  6
Continuous
 62
     4
100
AcDbLine
 10
276.5064116115461
 20
41.0176063663321
 30
0.0
 11
276.5064116115461
 21
31.0176063663321
 31
0.0
  0
LINE
  5
69
330
1F
100
AcDbEntity
  8
1
  6
Continuous
 62
     4
100
AcDbLine
 10
274.6241443815461
 20
38.0176063663321
 30
0.0
 11
276.5064116115461
 21
41.0176063663321
 31
0.0
  0
LINE
  5
6A
330
1F
100
AcDbEntity
  8
1
  6
Continuous
 62
     4
100
AcDbLine
 10
272.741877151546
 20
36.5176063663321
 30
0.0
 11
271.173321126546
 21
36.5176063663321
 31
0.0
  0
LINE
  5
6B
330
1F
100
AcDbEntity
  8
1
  6
Continuous
 62
     4
100
AcDbLine
 10
272.741877151546
 20
31.0176063663321
 30
0.0
 11
272.741877151546
 21
36.5176063663321
 31
0.0
  0
LINE
  5
6C
330
1F
100
AcDbEntity
  8
1
  6
Continuous
 62
     4
100
AcDbLine
 10
270.075331909046
 20
31.0176063663321
 30
0.0
 11
272.741877151546
 21
31.0176063663321
 31
0.0
  0
LINE
  5
6D
330
1F
100
AcDbEntity
  8
1
  6
Continuous
 62
     4
100
AcDbLine
 10
269.604765101546
 20
31.2676063663321
 30
0.0
 11
270.075331909046
 21
31.0176063663321
 31
0.0
  0
LINE
  5
6E
330
1F
100
AcDbEntity
  8
1
  6
Continuous
 62
     4
100
AcDbLine
 10
268.977342691546
 20
31.7676063663321
 30
0.0
 11
269.604765101546
 21
31.2676063663321
 31
0.0
  0
LINE
  5
6F
330
1F
100
AcDbEntity
  8
1
  6
Continuous
 62
     4
100
AcDbLine
 10
268.663631486546
 20
32.2676063663321
 30
0.0
 11
268.977342691546
 21
31.7676063663321
 31
0.0
  0
LINE
  5
70
330
1F
100
AcDbEntity
  8
1
  6
Continuous
 62
     4
100
AcDbLine
 10
268.506775884046
 20
33.0176063663321
 30
0.0
 11
268.663631486546
 21
32.2676063663321
 31
0.0
  0
LINE
  5
71
330
1F
100
AcDbEntity
  8
1
  6
Continuous
 62
     4
100
AcDbLine
 10
268.349920281546
 20
34.0176063663321
 30
0.0
 11
268.506775884046
 21
33.0176063663321
 31
0.0
  0
LINE
  5
72
330
1F
100
AcDbEntity
  8
1
  6
Continuous
 62
     4
100
AcDbLine
 10
268.349920281546
 20
38.0176063663321
 30
0.0
 11
268.349920281546
 21
34.0176063663321
 31
0.0
  0
LINE
  5
73
330
1F
100
AcDbEntity
  8
1
  6
Continuous
 62
     4
100
AcDbLine
 10
268.506775884046
 20
39.0176063663321
 30
0.0
 11
268.349920281546
 21
38.0176063663321
 31
0.0
  0
LINE
  5
74
330
1F
100
AcDbEntity
  8
1
  6
Continuous
 62
     4
100
AcDbLine
 10
268.663631486546
 20
39.7676063663321
 30
0.0
 11
268.506775884046
 21
39.0176063663321
 31
0.0
  0
LINE
  5
75
330
1F
100
AcDbEntity
  8
1
  6
Continuous
 62
     4
100
AcDbLine
 10
268.977342691546
 20
40.2676063663321
 30
0.0
 11
268.663631486546
 21
39.7676063663321
 31
0.0
  0
LINE
  5
76
330
1F
100
AcDbEntity
  8
1
  6
Continuous
 62
     4
100
AcDbLine
 10
269.447909499046
 20
40.7676063663321
 30
0.0
 11
268.977342691546
 21
40.2676063663321
 31
0.0
  0
LINE
  5
77
330
1F
100
AcDbEntity
  8
1
  6
Continuous
 62
     4
100
AcDbLine
 10
270.075331909046
 20
41.0176063663321
 30
0.0
 11
269.447909499046
 21
40.7676063663321
 31
0.0
  0
LINE
  5
78
330
1F
100
AcDbEntity
  8
1
  6
Continuous
 62
     4
100
AcDbLine
 10
272.741877151546
 20
41.0176063663321
 30
0.0
 11
270.075331909046
 21
41.0176063663321
 31
0.0
  0
LINE
  5
79
330
1F
100
AcDbEntity
  8
1
  6
Continuous
 62
     4
100
AcDbLine
 10
-43.585182047746
 20
149.873685753721
 30
0.0
 11
-43.036187438996
 21
151.123685753721
 31
0.0
  0
LINE
  5
7A
330
1F
100
AcDbEntity
  8
1
  6
Continuous
 62
     4
100
AcDbLine
 10
-44.134176656496
 20
149.248685753721
 30
0.0
 11
-43.585182047746
 21
149.873685753721
 31
0.0
  0
LINE
  5
7B
330
1F
100
AcDbEntity
  8
1
  6
Continuous
 62
     4
100
AcDbLine
 10
-44.84002686774601
 20
148.873685753721
 30
0.0
 11
-44.134176656496
 21
149.248685753721
 31
0.0
  0
LINE
  5
7C
330
1F
100
AcDbEntity
  8
1
  6
Continuous
 62
     4
100
AcDbLine
 10
-45.310593675246
 20
149.248685753721
 30
0.0
 11
-44.84002686774601
 21
148.873685753721
 31
0.0
  0
LINE
  5
7D
330
1F
100
AcDbEntity
  8
1
  6
Continuous
 62
     4
100
AcDbLine
 10
-45.702732681496
 20
150.123685753721
 30
0.0
 11
-45.310593675246
 21
149.248685753721
 31
0.0
  0
LINE
  5
7E
330
1F
100
AcDbEntity
  8
1
  6
Continuous
 62
     4
100
AcDbLine
 10
-45.859588283996
 20
151.998685753721
 30
0.0
 11
-45.702732681496
 21
150.123685753721
 31
0.0
  0
LINE
  5
7F
330
1F
100
AcDbEntity
  8
1
  6
Continuous
 62
     4
100
AcDbLine
 10
-45.859588283996
 20
156.748685753721
 30
0.0
 11
-45.859588283996
 21
151.998685753721
 31
0.0
  0
LINE
  5
80
330
1F
100
AcDbEntity
  8
1
  6
Continuous
 62
     4
100
AcDbLine
 10
-43.585182047746
 20
156.123685753721
 30
0.0
 11
-44.134176656496
 21
156.998685753721
 31
0.0
  0
LINE
  5
81
330
1F
100
AcDbEntity
  8
1
  6
Continuous
 62
     4
100
AcDbLine
 10
-44.44788786149601
 20
156.373685753721
 30
0.0
 11
-43.977321053996
 21
155.498685753721
 31
0.0
  0
LINE
  5
82
330
1F
100
AcDbEntity
  8
1
  6
Continuous
 62
     4
100
AcDbLine
 10
-49.31041153899601
 20
150.498685753721
 30
0.0
 11
-48.83984473149601
 21
149.498685753721
 31
0.0
  0
LINE
  5
83
330
1F
100
AcDbEntity
  8
1
  6
Continuous
 62
     4
100
AcDbLine
 10
-50.25154515399601
 20
151.123685753721
 30
0.0
 11
-49.31041153899601
 21
150.498685753721
 31
0.0
  0
LINE
  5
84
330
1F
100
AcDbEntity
  8
1
  6
Continuous
 62
     4
100
AcDbLine
 10
-50.72211196149601
 20
150.748685753721
 30
0.0
 11
-50.25154515399601
 21
151.123685753721
 31
0.0
  0
LINE
  5
85
330
1F
100
AcDbEntity
  8
1
  6
Continuous
 62
     4
100
AcDbLine
 10
-50.87896756399601
 20
150.123685753721
 30
0.0
 11
-50.72211196149601
 21
150.748685753721
 31
0.0
  0
LINE
  5
86
330
1F
100
AcDbEntity
  8
1
  6
Continuous
 62
     4
100
AcDbLine
 10
-50.56525635899601
 20
149.498685753721
 30
0.0
 11
-50.87896756399601
 21
150.123685753721
 31
0.0
  0
LINE
  5
87
330
1F
100
AcDbEntity
  8
1
  6
Continuous
 62
     4
100
AcDbLine
 10
-49.85940614774601
 20
149.873685753721
 30
0.0
 11
-50.56525635899601
 21
149.498685753721
 31
0.0
  0
LINE
  5
88
330
1F
100
AcDbEntity
  8
1
  6
Continuous
 62
     4
100
AcDbLine
 10
-49.15355593649601
 20
151.123685753721
 30
0.0
 11
-49.85940614774601
 21
149.873685753721
 31
0.0
  0
LINE
  5
89
330
1F
100
AcDbEntity
  8
1
  6
Continuous
 62
     4
100
AcDbLine
 10
-48.99670033399601
 20
152.998685753721
 30
0.0
 11
-49.15355593649601
 21
151.123685753721
 31
0.0
  0
LINE
  5
8A
330
1F
100
AcDbEntity
  8
1
  6
Continuous
 62
     4
100
AcDbLine
 10
-49.15355593649601
 20
154.498685753721
 30
0.0
 11
-48.99670033399601
 21
152.998685753721
 31
0.0
  0
LINE
  5
8B
330
1F
100
AcDbEntity
  8
1
  6
Continuous
 62
     4
100
AcDbLine
 10
-49.70255054524601
 20
155.498685753721
 30
0.0
 11
-49.15355593649601
 21
154.498685753721
 31
0.0
  0
LINE
  5
8C
330
1F
100
AcDbEntity
  8
1
  6
Continuous
 62
     4
100
AcDbLine
 10
-50.40840075649601
 20
155.123685753721
 30
0.0
 11
-49.70255054524601
 21
155.498685753721
 31
0.0
  0
LINE
  5
8D
330
1F
100
AcDbEntity
  8
1
  6
Continuous
 62
     4
100
AcDbLine
 10
-51.11425096774601
 20
154.498685753721
 30
0.0
 11
-50.40840075649601
 21
155.123685753721
 31
0.0
  0
LINE
  5
8E
330
1F
100
AcDbEntity
  8
1
  6
Continuous
 62
     4
100
AcDbLine
 10
-51.97695678149601
 20
152.623685753721
 30
0.0
 11
-51.11425096774601
 21
154.498685753721
 31
0.0
  0
LINE
  5
8F
330
1F
100
AcDbEntity
  8
1
  6
Continuous
 62
     4
100
AcDbLine
 10
-52.13381238399601
 20
152.623685753721
 30
0.0
 11
-52.99651819774601
 21
150.123685753721
 31
0.0
  0
LINE
  5
90
330
1F
100
AcDbEntity
  8
1
  6
Continuous
 62
     4
100
AcDbLine
 10
-51.58481777524601
 20
154.873685753721
 30
0.0
 11
-52.13381238399601
 21
152.623685753721
 31
0.0
  0
LINE
  5
91
330
1F
100
AcDbEntity
  8
1
  6
Continuous
 62
     4
100
AcDbLine
 10
-52.99651819774601
 20
154.248685753721
 30
0.0
 11
-51.58481777524601
 21
154.873685753721
 31
0.0
  0
LINE
  5
92
330
1F
100
AcDbEntity
  8
1
  6
Continuous
 62
     4
100
AcDbLine
 10
-51.97695678149601
 20
152.623685753721
 30
0.0
 11
-51.58481777524601
 21
157.373685753721
 31
0.0
  0
LINE
  5
93
330
1F
100
AcDbEntity
  8
1
  6
Continuous
 62
     4
100
AcDbLine
 10
-51.97695678149601
 20
149.248685753721
 30
0.0
 11
-51.97695678149601
 21
152.623685753721
 31
0.0
  0
LINE
  5
94
330
1F
100
AcDbEntity
  8
1
  6
Continuous
 62
     4
100
AcDbLine
 10
-56.525769253996
 20
152.248685753721
 30
0.0
 11
-56.525769253996
 21
148.248685753721
 31
0.0
  0
LINE
  5
95
330
1F
100
AcDbEntity
  8
1
  6
Continuous
 62
     4
100
AcDbLine
 10
-59.34917009899601
 20
150.248685753721
 30
0.0
 11
-55.58463563899601
 21
150.248685753721
 31
0.0
  0
LINE
  5
96
330
1F
100
AcDbEntity
  8
1
  6
Continuous
 62
     4
100
AcDbLine
 10
-56.525769253996
 20
158.248685753721
 30
0.0
 11
-59.34917009899601
 21
150.248685753721
 31
0.0
  0
LINE
  5
97
330
1F
100
AcDbEntity
  8
1
  6
Continuous
 62
     4
100
AcDbLine
 10
-63.74112696899601
 20
148.248685753721
 30
0.0
 11
-61.23143732899601
 21
158.248685753721
 31
0.0
  0
LINE
  5
98
330
1F
100
AcDbEntity
  8
1
  6
Continuous
 62
     4
100
AcDbLine
 10
-67.035094621496
 20
148.248685753721
 30
0.0
 11
-69.387928658996
 21
148.248685753721
 31
0.0
  0
LINE
  5
99
330
1F
100
AcDbEntity
  8
1
  6
Continuous
 62
     4
100
AcDbLine
 10
-66.56452781399601
 20
148.498685753721
 30
0.0
 11
-67.035094621496
 21
148.248685753721
 31
0.0
  0
LINE
  5
9A
330
1F
100
AcDbEntity
  8
1
  6
Continuous
 62
     4
100
AcDbLine
 10
-66.093961006496
 20
148.998685753721
 30
0.0
 11
-66.56452781399601
 21
148.498685753721
 31
0.0
  0
LINE
  5
9B
330
1F
100
AcDbEntity
  8
1
  6
Continuous
 62
     4
100
AcDbLine
 10
-65.780249801496
 20
149.748685753721
 30
0.0
 11
-66.093961006496
 21
148.998685753721
 31
0.0
  0
LINE
  5
9C
330
1F
100
AcDbEntity
  8
1
  6
Continuous
 62
     4
100
AcDbLine
 10
-65.62339419899601
 20
150.748685753721
 30
0.0
 11
-65.780249801496
 21
149.748685753721
 31
0.0
  0
LINE
  5
9D
330
1F
100
AcDbEntity
  8
1
  6
Continuous
 62
     4
100
AcDbLine
 10
-65.62339419899601
 20
151.998685753721
 30
0.0
 11
-65.62339419899601
 21
150.748685753721
 31
0.0
  0
LINE
  5
9E
330
1F
100
AcDbEntity
  8
1
  6
Continuous
 62
     4
100
AcDbLine
 10
-65.780249801496
 20
152.998685753721
 30
0.0
 11
-65.62339419899601
 21
151.998685753721
 31
0.0
  0
LINE
  5
9F
330
1F
100
AcDbEntity
  8
1
  6
Continuous
 62
     4
100
AcDbLine
 10
-65.937105403996
 20
153.498685753721
 30
0.0
 11
-65.780249801496
 21
152.998685753721
 31
0.0
  0
LINE
  5
A0
330
1F
100
AcDbEntity
  8
1
  6
Continuous
 62
     4
100
AcDbLine
 10
-66.250816608996
 20
153.998685753721
 30
0.0
 11
-65.937105403996
 21
153.498685753721
 31
0.0
  0
LINE
  5
A1
330
1F
100
AcDbEntity
  8
1
  6
Continuous
 62
     4
100
AcDbLine
 10
-66.878239018996
 20
154.248685753721
 30
0.0
 11
-66.250816608996
 21
153.998685753721
 31
0.0
  0
LINE
  5
A2
330
1F
100
AcDbEntity
  8
1
  6
Continuous
 62
     4
100
AcDbLine
 10
-66.407672211496
 20
154.498685753721
 30
0.0
 11
-66.878239018996
 21
154.248685753721
 31
0.0
  0
LINE
  5
A3
330
1F
100
AcDbEntity
  8
1
  6
Continuous
 62
     4
100
AcDbLine
 10
-66.093961006496
 20
154.748685753721
 30
0.0
 11
-66.407672211496
 21
154.498685753721
 31
0.0
  0
LINE
  5
A4
330
1F
100
AcDbEntity
  8
1
  6
Continuous
 62
     4
100
AcDbLine
 10
-65.780249801496
 20
155.248685753721
 30
0.0
 11
-66.093961006496
 21
154.748685753721
 31
0.0
  0
LINE
  5
A5
330
1F
100
AcDbEntity
  8
1
  6
Continuous
 62
     4
100
AcDbLine
 10
-65.62339419899601
 20
155.998685753721
 30
0.0
 11
-65.780249801496
 21
155.248685753721
 31
0.0
  0
LINE
  5
A6
330
1F
100
AcDbEntity
  8
1
  6
Continuous
 62
     4
100
AcDbLine
 10
-65.62339419899601
 20
156.748685753721
 30
0.0
 11
-65.62339419899601
 21
155.998685753721
 31
0.0
  0
LINE
  5
A7
330
1F
100
AcDbEntity
  8
1
  6
Continuous
 62
     4
100
AcDbLine
 10
-65.780249801496
 20
157.498685753721
 30
0.0
 11
-65.62339419899601
 21
156.748685753721
 31
0.0
  0
LINE
  5
A8
330
1F
100
AcDbEntity
  8
1
  6
Continuous
 62
     4
100
AcDbLine
 10
-66.250816608996
 20
157.998685753721
 30
0.0
 11
-65.780249801496
 21
157.498685753721
 31
0.0
  0
LINE
  5
A9
330
1F
100
AcDbEntity
  8
1
  6
Continuous
 62
     4
100
AcDbLine
 10
-67.035094621496
 20
158.248685753721
 30
0.0
 11
-66.250816608996
 21
157.998685753721
 31
0.0
  0
LINE
  5
AA
330
1F
100
AcDbEntity
  8
1
  6
Continuous
 62
     4
100
AcDbLine
 10
-69.387928658996
 20
158.248685753721
 30
0.0
 11
-67.035094621496
 21
158.248685753721
 31
0.0
  0
LINE
  5
AB
330
1F
100
AcDbEntity
  8
1
  6
Continuous
 62
     4
100
AcDbLine
 10
-68.446795043996
 20
154.248685753721
 30
0.0
 11
-66.878239018996
 21
154.248685753721
 31
0.0
  0
LINE
  5
AC
330
1F
100
AcDbEntity
  8
1
  6
Continuous
 62
     4
100
AcDbLine
 10
-73.623029926496
 20
148.248685753721
 30
0.0
 11
-71.27019588899601
 21
148.248685753721
 31
0.0
  0
LINE
  5
AD
330
1F
100
AcDbEntity
  8
1
  6
Continuous
 62
     4
100
AcDbLine
 10
-74.25045233649601
 20
148.498685753721
 30
0.0
 11
-73.623029926496
 21
148.248685753721
 31
0.0
  0
LINE
  5
AE
330
1F
100
AcDbEntity
  8
1
  6
Continuous
 62
     4
100
AcDbLine
 10
-74.564163541496
 20
148.748685753721
 30
0.0
 11
-74.25045233649601
 21
148.498685753721
 31
0.0
  0
LINE
  5
AF
330
1F
100
AcDbEntity
  8
1
  6
Continuous
 62
     4
100
AcDbLine
 10
-74.877874746496
 20
149.248685753721
 30
0.0
 11
-74.564163541496
 21
148.748685753721
 31
0.0
  0
LINE
  5
B0
330
1F
100
AcDbEntity
  8
1
  6
Continuous
 62
     4
100
AcDbLine
 10
-75.034730348996
 20
150.248685753721
 30
0.0
 11
-74.877874746496
 21
149.248685753721
 31
0.0
  0
LINE
  5
B1
330
1F
100
AcDbEntity
  8
1
  6
Continuous
 62
     4
100
AcDbLine
 10
-75.034730348996
 20
153.248685753721
 30
0.0
 11
-75.034730348996
 21
150.248685753721
 31
0.0
  0
LINE
  5
B2
330
1F
100
AcDbEntity
  8
1
  6
Continuous
 62
     4
100
AcDbLine
 10
-74.877874746496
 20
154.248685753721
 30
0.0
 11
-75.034730348996
 21
153.248685753721
 31
0.0
  0
LINE
  5
B3
330
1F
100
AcDbEntity
  8
1
  6
Continuous
 62
     4
100
AcDbLine
 10
-74.564163541496
 20
154.748685753721
 30
0.0
 11
-74.877874746496
 21
154.248685753721
 31
0.0
  0
LINE
  5
B4
330
1F
100
AcDbEntity
  8
1
  6
Continuous
 62
     4
100
AcDbLine
 10
-74.25045233649601
 20
154.998685753721
 30
0.0
 11
-74.564163541496
 21
154.748685753721
 31
0.0
  0
LINE
  5
B5
330
1F
100
AcDbEntity
  8
1
  6
Continuous
 62
     4
100
AcDbLine
 10
-73.623029926496
 20
155.248685753721
 30
0.0
 11
-74.25045233649601
 21
154.998685753721
 31
0.0
  0
LINE
  5
B6
330
1F
100
AcDbEntity
  8
1
  6
Continuous
 62
     4
100
AcDbLine
 10
-71.27019588899601
 20
155.248685753721
 30
0.0
 11
-73.623029926496
 21
155.248685753721
 31
0.0
  0
LINE
  5
B7
330
1F
100
AcDbEntity
  8
1
  6
Continuous
 62
     4
100
AcDbLine
 10
-81.308954448996
 20
148.248685753721
 30
0.0
 11
-81.308954448996
 21
153.248685753721
 31
0.0
  0
LINE
  5
B8
330
1F
100
AcDbEntity
  8
1
  6
Continuous
 62
     4
100
AcDbLine
 10
-78.799264808996
 20
153.248685753721
 30
0.0
 11
-76.916997578996
 21
148.248685753721
 31
0.0
  0
LINE
  5
B9
330
1F
100
AcDbEntity
  8
1
  6
Continuous
 62
     4
100
AcDbLine
 10
-78.32869800149601
 20
153.248685753721
 30
0.0
 11
-78.799264808996
 21
153.248685753721
 31
0.0
  0
LINE
  5
BA
330
1F
100
AcDbEntity
  8
1
  6
Continuous
 62
     4
100
AcDbLine
 10
-77.701275591496
 20
153.498685753721
 30
0.0
 11
-78.32869800149601
 21
153.248685753721
 31
0.0
  0
LINE
  5
BB
330
1F
100
AcDbEntity
  8
1
  6
Continuous
 62
     4
100
AcDbLine
 10
-77.23070878399601
 20
153.998685753721
 30
0.0
 11
-77.701275591496
 21
153.498685753721
 31
0.0
  0
LINE
  5
BC
330
1F
100
AcDbEntity
  8
1
  6
Continuous
 62
     4
100
AcDbLine
 10
-77.073853181496
 20
154.498685753721
 30
0.0
 11
-77.23070878399601
 21
153.998685753721
 31
0.0
  0
LINE
  5
BD
330
1F
100
AcDbEntity
  8
1
  6
Continuous
 62
     4
100
AcDbLine
 10
-76.916997578996
 20
155.248685753721
 30
0.0
 11
-77.073853181496
 21
154.498685753721
 31
0.0
  0
LINE
  5
BE
330
1F
100
AcDbEntity
  8
1
  6
Continuous
 62
     4
100
AcDbLine
 10
-76.916997578996
 20
156.248685753721
 30
0.0
 11
-76.916997578996
 21
155.248685753721
 31
0.0
  0
LINE
  5
BF
330
1F
100
AcDbEntity
  8
1
  6
Continuous
 62
     4
100
AcDbLine
 10
-77.073853181496
 20
156.998685753721
 30
0.0
 11
-76.916997578996
 21
156.248685753721
 31
0.0
  0
LINE
  5
C0
330
1F
100
AcDbEntity
  8
1
  6
Continuous
 62
     4
100
AcDbLine
 10
-77.23070878399601
 20
157.498685753721
 30
0.0
 11
-77.073853181496
 21
156.998685753721
 31
0.0
  0
LINE
  5
C1
330
1F
100
AcDbEntity
  8
1
  6
Continuous
 62
     4
100
AcDbLine
 10
-77.701275591496
 20
157.998685753721
 30
0.0
 11
-77.23070878399601
 21
157.498685753721
 31
0.0
  0
LINE
  5
C2
330
1F
100
AcDbEntity
  8
1
  6
Continuous
 62
     4
100
AcDbLine
 10
-78.32869800149601
 20
158.248685753721
 30
0.0
 11
-77.701275591496
 21
157.998685753721
 31
0.0
  0
LINE
  5
C3
330
1F
100
AcDbEntity
  8
1
  6
Continuous
 62
     4
100
AcDbLine
 10
-81.308954448996
 20
158.248685753721
 30
0.0
 11
-78.32869800149601
 21
158.248685753721
 31
0.0
  0
LINE
  5
C4
330
1F
100
AcDbEntity
  8
1
  6
Continuous
 62
     4
100
AcDbLine
 10
-81.308954448996
 20
153.248685753721
 30
0.0
 11
-81.308954448996
 21
158.248685753721
 31
0.0
  0
LINE
  5
C5
330
1F
100
AcDbEntity
  8
1
  6
Continuous
 62
     4
100
AcDbLine
 10
-78.799264808996
 20
153.248685753721
 30
0.0
 11
-81.308954448996
 21
153.248685753721
 31
0.0
  0
LINE
  5
C6
330
1F
100
AcDbEntity
  8
1
  6
Continuous
 62
     4
100
AcDbLine
 10
150.410220299577
 20
-110.980930768755
 30
0.0
 11
149.155375479577
 21
-113.480930768755
 31
0.0
  0
LINE
  5
C7
330
1F
100
AcDbEntity
  8
1
  6
Continuous
 62
     4
100
AcDbLine
 10
149.155375479577
 20
-108.480930768755
 30
0.0
 11
150.410220299577
 21
-110.980930768755
 31
0.0
  0
LINE
  5
C8
330
1F
100
AcDbEntity
  8
1
  6
Continuous
 62
     4
100
AcDbLine
 10
140.998884149577
 20
-110.980930768755
 30
0.0
 11
150.410220299577
 21
-110.980930768755
 31
0.0
  0
LINE
  5
C9
330
1F
100
AcDbEntity
  8
1
  6
Continuous
 62
     4
100
AcDbLine
 10
130.646414384577
 20
-105.230930768755
 30
0.0
 11
137.861772099577
 21
-105.230930768755
 31
0.0
  0
LINE
  5
CA
330
1F
100
AcDbEntity
  8
1
  6
Continuous
 62
     4
100
AcDbLine
 10
130.646414384577
 20
-105.230930768755
 30
0.0
 11
132.371826012077
 21
-101.480930768755
 31
0.0
  0
LINE
  5
CB
330
1F
100
AcDbEntity
  8
1
  6
Continuous
 62
     4
100
AcDbLine
 10
134.724660049577
 20
-114.730930768755
 30
0.0
 11
132.058114807077
 21
-114.730930768755
 31
0.0
  0
LINE
  5
CC
330
1F
100
AcDbEntity
  8
1
  6
Continuous
 62
     4
100
AcDbLine
 10
134.724660049577
 20
-109.730930768755
 30
0.0
 11
134.724660049577
 21
-114.730930768755
 31
0.0
  0
LINE
  5
CD
330
1F
100
AcDbEntity
  8
1
  6
Continuous
 62
     4
100
AcDbLine
 10
132.058114807077
 20
-109.730930768755
 30
0.0
 11
134.724660049577
 21
-109.730930768755
 31
0.0
  0
LINE
  5
CE
330
1F
100
AcDbEntity
  8
1
  6
Continuous
 62
     4
100
AcDbLine
 10
132.058114807077
 20
-114.730930768755
 30
0.0
 11
132.058114807077
 21
-109.730930768755
 31
0.0
  0
LINE
  5
CF
330
1F
100
AcDbEntity
  8
1
  6
Continuous
 62
     4
100
AcDbLine
 10
137.861772099577
 20
-120.230930768755
 30
0.0
 11
136.136360472077
 21
-120.230930768755
 31
0.0
  0
LINE
  5
D0
330
1F
100
AcDbEntity
  8
1
  6
Continuous
 62
     4
100
AcDbLine
 10
137.861772099577
 20
-105.230930768755
 30
0.0
 11
137.861772099577
 21
-120.230930768755
 31
0.0
  0
LINE
  5
D1
330
1F
100
AcDbEntity
  8
1
  6
Continuous
 62
     4
100
AcDbLine
 10
128.921002757077
 20
-105.230930768755
 30
0.0
 11
130.646414384577
 21
-105.230930768755
 31
0.0
  0
LINE
  5
D2
330
1F
100
AcDbEntity
  8
1
  6
Continuous
 62
     4
100
AcDbLine
 10
128.921002757077
 20
-120.230930768755
 30
0.0
 11
128.921002757077
 21
-105.230930768755
 31
0.0
  0
LINE
  5
D3
330
1F
100
AcDbEntity
  8
1
  6
Continuous
 62
     4
100
AcDbLine
 10
122.176211849577
 20
-120.980930768755
 30
0.0
 11
120.921367029577
 21
-119.730930768755
 31
0.0
  0
LINE
  5
D4
330
1F
100
AcDbEntity
  8
1
  6
Continuous
 62
     4
100
AcDbLine
 10
122.960489862077
 20
-118.980930768755
 30
0.0
 11
122.176211849577
 21
-120.980930768755
 31
0.0
  0
LINE
  5
D5
330
1F
100
AcDbEntity
  8
1
  6
Continuous
 62
     4
100
AcDbLine
 10
123.587912272077
 20
-115.980930768755
 30
0.0
 11
122.960489862077
 21
-118.980930768755
 31
0.0
  0
LINE
  5
D6
330
1F
100
AcDbEntity
  8
1
  6
Continuous
 62
     4
100
AcDbLine
 10
124.372190284577
 20
-111.480930768755
 30
0.0
 11
123.587912272077
 21
-115.980930768755
 31
0.0
  0
LINE
  5
D7
330
1F
100
AcDbEntity
  8
1
  6
Continuous
 62
     4
100
AcDbLine
 10
124.372190284577
 20
-109.730930768755
 30
0.0
 11
124.372190284577
 21
-111.480930768755
 31
0.0
  0
LINE
  5
D8
330
1F
100
AcDbEntity
  8
1
  6
Continuous
 62
     4
100
AcDbLine
 10
119.823377812077
 20
-109.730930768755
 30
0.0
 11
124.372190284577
 21
-109.730930768755
 31
0.0
  0
LINE
  5
D9
330
1F
100
AcDbEntity
  8
1
  6
Continuous
 62
     4
100
AcDbLine
 10
115.588276544577
 20
-104.730930768755
 30
0.0
 11
126.097601912077
 21
-104.730930768755
 31
0.0
  0
LINE
  5
DA
330
1F
100
AcDbEntity
  8
1
  6
Continuous
 62
     4
100
AcDbLine
 10
120.137089017077
 20
-106.480930768755
 30
0.0
 11
120.450800222077
 21
-101.480930768755
 31
0.0
  0
LINE
  5
DB
330
1F
100
AcDbEntity
  8
1
  6
Continuous
 62
     4
100
AcDbLine
 10
119.509666607077
 20
-111.480930768755
 30
0.0
 11
120.137089017077
 21
-106.480930768755
 31
0.0
  0
LINE
  5
DC
330
1F
100
AcDbEntity
  8
1
  6
Continuous
 62
     4
100
AcDbLine
 10
118.725388594577
 20
-114.730930768755
 30
0.0
 11
119.509666607077
 21
-111.480930768755
 31
0.0
  0
LINE
  5
DD
330
1F
100
AcDbEntity
  8
1
  6
Continuous
 62
     4
100
AcDbLine
 10
117.784254979577
 20
-117.730930768755
 30
0.0
 11
118.725388594577
 21
-114.730930768755
 31
0.0
  0
LINE
  5
DE
330
1F
100
AcDbEntity
  8
1
  6
Continuous
 62
     4
100
AcDbLine
 10
116.372554557077
 20
-120.230930768755
 30
0.0
 11
117.784254979577
 21
-117.730930768755
 31
0.0
  0
LINE
  5
DF
330
1F
100
AcDbEntity
  8
1
  6
Continuous
 62
     4
100
AcDbLine
 10
112.137453289577
 20
-114.730930768755
 30
0.0
 11
113.862864917077
 21
-117.730930768755
 31
0.0
  0
LINE
  5
E0
330
1F
100
AcDbEntity
  8
1
  6
Continuous
 62
     4
100
AcDbLine
 10
110.725752867077
 20
-110.980930768755
 30
0.0
 11
112.137453289577
 21
-114.730930768755
 31
0.0
  0
LINE
  5
E1
330
1F
100
AcDbEntity
  8
1
  6
Continuous
 62
     4
100
AcDbLine
 10
109.627763649577
 20
-106.480930768755
 30
0.0
 11
110.725752867077
 21
-110.980930768755
 31
0.0
  0
LINE
  5
E2
330
1F
100
AcDbEntity
  8
1
  6
Continuous
 62
     4
100
AcDbLine
 10
112.764875699577
 20
-105.980930768755
 30
0.0
 11
110.412041662077
 21
-108.980930768755
 31
0.0
  0
LINE
  5
E3
330
1F
100
AcDbEntity
  8
1
  6
Continuous
 62
     4
100
AcDbLine
 10
108.686630034577
 20
-120.980930768755
 30
0.0
 11
107.588640817077
 21
-120.230930768755
 31
0.0
  0
LINE
  5
E4
330
1F
100
AcDbEntity
  8
1
  6
Continuous
 62
     4
100
AcDbLine
 10
108.686630034577
 20
-101.480930768755
 30
0.0
 11
108.686630034577
 21
-120.980930768755
 31
0.0
  0
LINE
  5
E5
330
1F
100
AcDbEntity
  8
1
  6
Continuous
 62
     4
100
AcDbLine
 10
106.961218407077
 20
-107.730930768755
 30
0.0
 11
103.353539549577
 21
-107.730930768755
 31
0.0
  0
LINE
  5
E6
330
1F
100
AcDbEntity
  8
1
  6
Continuous
 62
     4
100
AcDbLine
 10
106.176940394577
 20
-111.480930768755
 30
0.0
 11
106.961218407077
 21
-107.730930768755
 31
0.0
  0
LINE
  5
E7
330
1F
100
AcDbEntity
  8
1
  6
Continuous
 62
     4
100
AcDbLine
 10
104.765239972077
 20
-115.230930768755
 30
0.0
 11
106.176940394577
 21
-111.480930768755
 31
0.0
  0
LINE
  5
E8
330
1F
100
AcDbEntity
  8
1
  6
Continuous
 62
     4
100
AcDbLine
 10
103.353539549577
 20
-117.730930768755
 30
0.0
 11
104.765239972077
 21
-115.230930768755
 31
0.0
  0
LINE
  5
E9
330
1F
100
AcDbEntity
  8
1
  6
Continuous
 62
     4
100
AcDbLine
 10
96.451893039577
 20
-103.980930768755
 30
0.0
 11
100.686994307077
 21
-103.980930768755
 31
0.0
  0
LINE
  5
EA
330
1F
100
AcDbEntity
  8
1
  6
Continuous
 62
     4
100
AcDbLine
 10
101.314416717077
 20
-118.980930768755
 30
0.0
 11
101.314416717077
 21
-117.730930768755
 31
0.0
  0
LINE
  5
EB
330
1F
100
AcDbEntity
  8
1
  6
Continuous
 62
     4
100
AcDbLine
 10
100.686994307077
 20
-120.230930768755
 30
0.0
 11
101.314416717077
 21
-118.980930768755
 31
0.0
  0
LINE
  5
EC
330
1F
100
AcDbEntity
  8
1
  6
Continuous
 62
     4
100
AcDbLine
 10
99.275293884577
 20
-120.230930768755
 30
0.0
 11
100.686994307077
 21
-120.230930768755
 31
0.0
  0
LINE
  5
ED
330
1F
100
AcDbEntity
  8
1
  6
Continuous
 62
     4
100
AcDbLine
 10
98.491015872077
 20
-118.480930768755
 30
0.0
 11
99.275293884577
 21
-120.230930768755
 31
0.0
  0
LINE
  5
EE
330
1F
100
AcDbEntity
  8
1
  6
Continuous
 62
     4
100
AcDbLine
 10
98.491015872077
 20
-112.230930768755
 30
0.0
 11
98.491015872077
 21
-118.480930768755
 31
0.0
  0
LINE
  5
EF
330
1F
100
AcDbEntity
  8
1
  6
Continuous
 62
     4
100
AcDbLine
 10
96.451893039577
 20
-120.230930768755
 30
0.0
 11
96.451893039577
 21
-112.230930768755
 31
0.0
  0
LINE
  5
F0
330
1F
100
AcDbEntity
  8
1
  6
Continuous
 62
     4
100
AcDbLine
 10
93.314780989577
 20
-119.730930768755
 30
0.0
 11
92.216791772077
 21
-120.980930768755
 31
0.0
  0
LINE
  5
F1
330
1F
100
AcDbEntity
  8
1
  6
Continuous
 62
     4
100
AcDbLine
 10
93.942203399577
 20
-118.480930768755
 30
0.0
 11
93.314780989577
 21
-119.730930768755
 31
0.0
  0
LINE
  5
F2
330
1F
100
AcDbEntity
  8
1
  6
Continuous
 62
     4
100
AcDbLine
 10
94.412770207077
 20
-116.480930768755
 30
0.0
 11
93.942203399577
 21
-118.480930768755
 31
0.0
  0
LINE
  5
F3
330
1F
100
AcDbEntity
  8
1
  6
Continuous
 62
     4
100
AcDbLine
 10
94.726481412077
 20
-112.230930768755
 30
0.0
 11
94.412770207077
 21
-116.480930768755
 31
0.0
  0
LINE
  5
F4
330
1F
100
AcDbEntity
  8
1
  6
Continuous
 62
     4
100
AcDbLine
 10
98.17730466707701
 20
-105.980930768755
 30
0.0
 11
99.589005089577
 21
-110.230930768755
 31
0.0
  0
LINE
  5
F5
330
1F
100
AcDbEntity
  8
1
  6
Continuous
 62
     4
100
AcDbLine
 10
93.628492194577
 20
-108.980930768755
 30
0.0
 11
98.961582679577
 21
-108.480930768755
 31
0.0
  0
LINE
  5
F6
330
1F
100
AcDbEntity
  8
1
  6
Continuous
 62
     4
100
AcDbLine
 10
96.451893039577
 20
-103.980930768755
 30
0.0
 11
95.040192617077
 21
-108.980930768755
 31
0.0
  0
LINE
  5
F7
330
1F
100
AcDbEntity
  8
1
  6
Continuous
 62
     4
100
AcDbLine
 10
96.765604244577
 20
-100.980930768755
 30
0.0
 11
96.765604244577
 21
-103.980930768755
 31
0.0
  0
LINE
  5
F8
330
1F
100
AcDbEntity
  8
1
  6
Continuous
 62
     4
100
AcDbLine
 10
93.001069784577
 20
-103.980930768755
 30
0.0
 11
96.451893039577
 21
-103.980930768755
 31
0.0
  0
LINE
  5
F9
330
1F
100
AcDbEntity
  8
1
  6
Continuous
 62
     4
100
AcDbLine
 10
90.49138014457701
 20
-120.230930768755
 30
0.0
 11
91.903080567077
 21
-112.230930768755
 31
0.0
  0
LINE
  5
FA
330
1F
100
AcDbEntity
  8
1
  6
Continuous
 62
     4
100
AcDbLine
 10
90.177668939577
 20
-107.230930768755
 30
0.0
 11
91.275658157077
 21
-108.980930768755
 31
0.0
  0
LINE
  5
FB
330
1F
100
AcDbEntity
  8
1
  6
Continuous
 62
     4
100
AcDbLine
 10
91.275658157077
 20
-101.480930768755
 30
0.0
 11
91.903080567077
 21
-103.480930768755
 31
0.0
  0
LINE
  5
FC
330
1F
100
AcDbEntity
  8
1
  6
DOT_CENTER
 62
     1
100
AcDbLine
 10
221.499347650085
 20
447.0
 30
0.0
 11
221.499347650085
 21
421.0
 31
0.0
  0
LINE
  5
FD
330
1F
100
AcDbEntity
  8
0
  6
Continuous
 62
     3
100
AcDbLine
 10
40.5403197950436
 20
428.819697040484
 30
0.0
 11
44.9979404015548
 21
428.819697040484
 31
0.0
  0
LINE
  5
FE
330
1F
100
AcDbEntity
  8
0
  6
Continuous
 62
     3
100
AcDbLine
 10
40.5403197958884
 20
439.180302959515
 30
0.0
 11
44.9979404028668
 21
439.180302959515
 31
0.0
  0
LINE
  5
FF
330
1F
100
AcDbEntity
  8
0
  6
Continuous
 62
     3
100
AcDbLine
 10
17.1483403226338
 20
422.0
 30
0.0
 11
37.6655341861932
 21
422.0
 31
0.0
  0
LINE
  5
100
330
1F
100
AcDbEntity
  8
1
  6
Continuous
 62
     3
100
AcDbLine
 10
44.9647282525566
 20
461.5
 30
0.0
 11
79.9723626483886
 21
461.5
 31
0.0
  0
LINE
  5
101
330
1F
100
AcDbEntity
  8
1
  6
Continuous
 62
     3
100
AcDbLine
 10
41.0970660293295
 20
406.5
 30
0.0
 11
32.9993476500848
 21
406.5
 31
0.0
  0
LINE
  5
102
330
1F
100
AcDbEntity
  8
0
  6
Continuous
 62
     3
100
AcDbLine
 10
40.540318159568
 20
432.49904786506
 30
0.0
 11
20.9999997701364
 21
432.49904786506
 31
0.0
  0
LINE
  5
103
330
1F
100
AcDbEntity
  8
0
  6
Continuous
 62
     3
100
AcDbLine
 10
40.5403181595658
 20
435.49904786506
 30
0.0
 11
20.9999997701364
 21
435.49904786506
 31
0.0
  0
LINE
  5
104
330
1F
100
AcDbEntity
  8
0
  6
Continuous
 62
     3
100
AcDbLine
 10
78.4993476500848
 20
457.0
 30
0.0
 11
54.913561212458
 21
457.0
 31
0.0
  0
LINE
  5
105
330
1F
100
AcDbEntity
  8
0
  6
Continuous
 62
     3
100
AcDbLine
 10
78.4993476500848
 20
411.0
 30
0.0
 11
54.913561212458
 21
411.0
 31
0.0
  0
LINE
  5
106
330
1F
100
AcDbEntity
  8
0
  6
Continuous
 62
     3
100
AcDbLine
 10
71.9121638313995
 20
440.707381198393
 30
0.0
 11
71.9121638313995
 21
455.282851109718
 31
0.0
  0
LINE
  5
107
330
1F
100
AcDbEntity
  8
0
  6
Continuous
 62
     3
100
AcDbLine
 10
59.5837367066533
 20
455.282851109718
 30
0.0
 11
71.9121638313995
 21
455.282851109718
 31
0.0
  0
LINE
  5
108
330
1F
100
AcDbEntity
  8
0
  6
Continuous
 62
     3
100
AcDbLine
 10
59.5837367066533
 20
412.715244620401
 30
0.0
 11
71.9121638313995
 21
412.715244620401
 31
0.0
  0
LINE
  5
109
330
1F
100
AcDbEntity
  8
0
  6
Continuous
 62
     3
100
AcDbLine
 10
68.5930057049732
 20
435.49904786506
 30
0.0
 11
59.5837367066055
 21
435.49904786506
 31
0.0
  0
LINE
  5
10A
330
1F
100
AcDbEntity
  8
0
  6
Continuous
 62
     3
100
AcDbLine
 10
68.5930057049732
 20
432.49904786506
 30
0.0
 11
59.5837367066055
 21
432.49904786506
 31
0.0
  0
LINE
  5
10B
330
1F
100
AcDbEntity
  8
0
  6
Continuous
 62
     3
100
AcDbLine
 10
71.9121638313995
 20
427.290714531727
 30
0.0
 11
71.9121638313995
 21
412.715244620401
 31
0.0
  0
LINE
  5
10C
330
1F
100
AcDbEntity
  8
0
  6
Continuous
 62
     3
100
AcDbLine
 10
40.540318159568
 20
432.49904786506
 30
0.0
 11
40.5403241137945
 21
419.103746355167
 31
0.0
  0
LINE
  5
10D
330
1F
100
AcDbEntity
  8
0
  6
Continuous
 62
     3
100
AcDbLine
 10
40.5403241137945
 20
419.103746355167
 30
0.0
 11
40.9642482168144
 21
406.964148368357
 31
0.0
  0
LINE
  5
10E
330
1F
100
AcDbEntity
  8
0
  6
Continuous
 62
     3
100
AcDbLine
 10
44.9979561258493
 20
405.99904786506
 30
0.0
 11
41.9636390438335
 21
405.99904786506
 31
0.0
  0
LINE
  5
10F
330
1F
100
AcDbEntity
  8
0
  6
Continuous
 62
     3
100
AcDbLine
 10
41.7707582302335
 20
412.846873952016
 30
0.0
 11
44.458711115026
 21
412.846873952016
 31
0.0
  0
LINE
  5
110
330
1F
100
AcDbEntity
  8
0
  6
Continuous
 62
     3
100
AcDbLine
 10
40.5403241137945
 20
448.894349374952
 30
0.0
 11
40.5403181595658
 21
435.49904786506
 31
0.0
  0
LINE
  5
111
330
1F
100
AcDbEntity
  8
0
  6
Continuous
 62
     3
100
AcDbLine
 10
40.5403241137945
 20
448.894349374952
 30
0.0
 11
40.9642482168143
 21
461.033947361761
 31
0.0
  0
LINE
  5
112
330
1F
100
AcDbEntity
  8
0
  6
Continuous
 62
     3
100
AcDbLine
 10
44.9979561258494
 20
461.999047865059
 30
0.0
 11
41.9636390438334
 21
461.999047865059
 31
0.0
  0
LINE
  5
113
330
1F
100
AcDbEntity
  8
0
  6
Continuous
 62
     3
100
AcDbLine
 10
41.7707582375934
 20
455.151221778103
 30
0.0
 11
44.4587111417392
 21
455.151221778103
 31
0.0
  0
LINE
  5
114
330
1F
100
AcDbEntity
  8
0
  6
Continuous
 62
     3
100
AcDbLine
 10
44.9979368325325
 20
433.999414703646
 30
0.0
 11
44.9979561258493
 21
405.99904786506
 31
0.0
  0
LINE
  5
115
330
1F
100
AcDbEntity
  8
1
  6
Continuous
 62
     3
100
AcDbLine
 10
53.0837367066533
 20
412.413261427433
 30
0.0
 11
54.2050570502619
 21
411.291941083824
 31
0.0
  0
LINE
  5
116
330
1F
100
AcDbEntity
  8
1
  6
Continuous
 62
     3
100
AcDbLine
 10
51.66952314428
 20
412.99904786506
 30
0.0
 11
44.9979513025833
 21
412.99904786506
 31
0.0
  0
LINE
  5
117
330
1F
100
AcDbEntity
  8
1
  6
Continuous
 62
     3
100
AcDbLine
 10
44.9979513025833
 20
454.99904786506
 30
0.0
 11
51.66952314428
 21
454.99904786506
 31
0.0
  0
LINE
  5
118
330
1F
100
AcDbEntity
  8
1
  6
Continuous
 62
     3
100
AcDbLine
 10
54.2050570502619
 20
456.706154646295
 30
0.0
 11
53.0837367066533
 21
455.584834302687
 31
0.0
  0
LINE
  5
119
330
1F
100
AcDbEntity
  8
0
  6
Continuous
 62
     3
100
AcDbLine
 10
44.9979561258494
 20
461.999047865059
 30
0.0
 11
44.9979368330378
 21
433.999414703646
 31
0.0
  0
LINE
  5
11A
330
1F
100
AcDbEntity
  8
0
  6
Continuous
 62
     3
100
AcDbLine
 10
59.5837367066055
 20
435.49904786506
 30
0.0
 11
59.5837367066533
 21
455.282851109718
 31
0.0
  0
LINE
  5
11B
330
1F
100
AcDbEntity
  8
0
  6
Continuous
 62
     3
100
AcDbLine
 10
59.5837367066533
 20
412.715244620401
 30
0.0
 11
59.5837367066055
 21
432.49904786506
 31
0.0
  0
LINE
  5
11C
330
1F
100
AcDbEntity
  8
0
  6
Continuous
 62
     3
100
AcDbLine
 10
17.317761693264
 20
446.0
 30
0.0
 11
37.6655341861932
 21
446.0
 31
0.0
  0
LINE
  5
11D
330
1F
100
AcDbEntity
  8
1
  6
DOT_CENTER
 62
     1
100
AcDbLine
 10
16.0000000000002
 20
0.0
 30
0.0
 11
260.5
 21
0.0
 31
0.0
  0
LINE
  5
11E
330
1F
100
AcDbEntity
  8
0
  6
Continuous
 62
     3
100
AcDbLine
 10
43.5
 20
-40.0
 30
0.0
 11
43.4999735597724
 21
-32.0019327647778
 31
0.0
  0
LINE
  5
11F
330
1F
100
AcDbEntity
  8
0
  6
Continuous
 62
     3
100
AcDbLine
 10
60.8660763819193
 20
-31.2763679134234
 30
0.0
 11
60.8660745714602
 21
-22.8113698964894
 31
0.0
  0
LINE
  5
120
330
1F
100
AcDbEntity
  8
0
  6
Continuous
 62
     3
100
AcDbLine
 10
75.0
 20
-40.0
 30
0.0
 11
75.0
 21
-32.0001118837347
 31
0.0
  0
LINE
  5
121
330
1F
100
AcDbEntity
  8
0
  6
Continuous
 62
     3
100
AcDbLine
 10
73.5
 20
-30.4997852728749
 30
0.0
 11
73.5
 21
-22.9999999995683
 31
0.0
  0
LINE
  5
122
330
1F
100
AcDbEntity
  8
0
  6
Continuous
 62
     3
100
AcDbLine
 10
78.5000000000001
 20
-23.0000000002441
 30
0.0
 11
73.5
 21
-22.9999999995683
 31
0.0
  0
LINE
  5
123
330
1F
100
AcDbEntity
  8
0
  6
Continuous
 62
     3
100
AcDbLine
 10
59.585786437578
 20
-19.4174920055392
 30
0.0
 11
59.585786437578
 21
-8.7177817959988
 31
0.0
  0
LINE
  5
124
330
1F
100
AcDbEntity
  8
0
  6
Continuous
 62
     3
100
AcDbLine
 10
71.9142135624222
 20
-8.7177817959988
 30
0.0
 11
59.585786437578
 21
-8.7177817959988
 31
0.0
  0
LINE
  5
125
330
1F
100
AcDbEntity
  8
0
  6
Continuous
 62
     3
100
AcDbLine
 10
71.9142135624222
 20
-15.9363034539101
 30
0.0
 11
71.9142135624222
 21
-8.7177817959988
 31
0.0
  0
LINE
  5
126
330
1F
100
AcDbEntity
  8
0
  6
Continuous
 62
     3
100
AcDbLine
 10
78.5000000000001
 20
-23.0000000002441
 30
0.0
 11
78.5000000000001
 21
23.000000481606
 31
0.0
  0
LINE
  5
127
330
1F
100
AcDbEntity
  8
0
  6
Continuous
 62
     3
100
AcDbLine
 10
68.6158715453609
 20
23.0000002797992
 30
0.0
 11
68.9325958955761
 21
32.069798993405
 31
0.0
  0
LINE
  5
128
330
1F
100
AcDbEntity
  8
0
  6
Continuous
 62
     3
100
AcDbLine
 10
70.9313775496142
 20
34.0
 30
0.0
 11
72.0686224503859
 21
34.0
 31
0.0
  0
LINE
  5
129
330
1F
100
AcDbEntity
  8
0
  6
Continuous
 62
     3
100
AcDbLine
 10
74.384128450525
 20
23.0000003975712
 30
0.0
 11
74.0674041044241
 21
32.069798993405
 31
0.0
  0
LINE
  5
12A
330
1F
100
AcDbEntity
  8
0
  6
Continuous
 62
     3
100
AcDbLine
 10
59.585786437578
 20
8.71778179599877
 30
0.0
 11
59.5857864375782
 21
22.9772727217709
 31
0.0
  0
LINE
  5
12B
330
1F
100
AcDbEntity
  8
0
  6
Continuous
 62
     3
100
AcDbLine
 10
71.9142135624222
 20
8.71778179599877
 30
0.0
 11
71.9142135623732
 21
23.000000000049
 31
0.0
  0
LINE
  5
12C
330
1F
100
AcDbEntity
  8
0
  6
Continuous
 62
     3
100
AcDbLine
 10
71.9142135624222
 20
8.71778179599877
 30
0.0
 11
59.585786437578
 21
8.71778179599877
 31
0.0
  0
LINE
  5
12D
330
1F
100
AcDbEntity
  8
0
  6
Continuous
 62
     3
100
AcDbLine
 10
53.0857864376269
 20
21.5857864376269
 30
0.0
 11
54.2071067812356
 21
22.7071067812355
 31
0.0
  0
LINE
  5
12E
330
1F
100
AcDbEntity
  8
0
  6
Continuous
 62
     3
100
AcDbLine
 10
78.5000000000001
 20
23.000000481606
 30
0.0
 11
54.9142135420049
 21
23.000000000049
 31
0.0
  0
LINE
  5
12F
330
1F
100
AcDbEntity
  8
0
  6
Continuous
 62
     3
100
AcDbLine
 10
51.6715728752538
 20
21.0
 30
0.0
 11
45.0
 21
21.0
 31
0.0
  0
LINE
  5
130
330
1F
100
AcDbEntity
  8
0
  6
Continuous
 62
     3
100
AcDbLine
 10
45.0
 20
21.0
 30
0.0
 11
45.0
 21
-30.4961801707646
 31
0.0
  0
LINE
  5
131
330
1F
100
AcDbEntity
  8
0
  6
Continuous
 62
     3
100
AcDbLine
 10
5.54183441299122
 20
21.9581655870085
 30
0.0
 11
5.54183441299122
 21
31.1473258196157
 31
0.0
  0
LINE
  5
132
330
1F
100
AcDbEntity
  8
0
  6
Continuous
 62
     3
100
AcDbLine
 10
-5.54183441299139
 20
31.1473258196956
 30
0.0
 11
-5.54183441299139
 21
21.9581655870085
 31
0.0
  0
LINE
  5
133
330
1F
100
AcDbEntity
  8
0
  6
Continuous
 62
     3
100
AcDbLine
 10
40.5423674923527
 20
20.4999999999998
 30
0.0
 11
40.5423761966764
 21
-28.0000000000002
 31
0.0
  0
LINE
  5
134
330
1F
100
AcDbEntity
  8
0
  6
Continuous
 62
     3
100
AcDbLine
 10
40.5423721012119
 20
-5.18030295951559
 30
0.0
 11
45.0
 21
-5.18030295951559
 31
0.0
  0
LINE
  5
135
330
1F
100
AcDbEntity
  8
0
  6
Continuous
 62
     3
100
AcDbLine
 10
40.5423702417878
 20
5.18030295951502
 30
0.0
 11
45.0
 21
5.18030295951502
 31
0.0
  0
LINE
  5
136
330
1F
100
AcDbEntity
  8
0
  6
Continuous
 62
     3
100
AcDbLine
 10
45.0
 20
-28.0000000000002
 30
0.0
 11
40.5423761966764
 21
-28.0000000000002
 31
0.0
  0
LINE
  5
137
330
1F
100
AcDbEntity
  8
0
  6
Continuous
 62
     3
100
AcDbLine
 10
39.2067542217118
 20
-18.627864547721
 30
0.0
 11
40.5423744936823
 21
-18.5110129151481
 31
0.0
  0
LINE
  5
138
330
1F
100
AcDbEntity
  8
0
  6
Continuous
 62
     3
100
AcDbLine
 10
39.2067542217118
 20
-27.3721354522795
 30
0.0
 11
40.5423761049646
 21
-27.4889872258213
 31
0.0
  0
LINE
  5
139
330
1F
100
AcDbEntity
  8
0
  6
Continuous
 62
     3
100
AcDbLine
 10
16.0
 20
-12.0
 30
0.0
 11
37.5442013637111
 21
-12.0000000000002
 31
0.0
  0
LINE
  5
13A
330
1F
100
AcDbEntity
  8
0
  6
Continuous
 62
     3
100
AcDbLine
 10
40.5423690717024
 20
11.6999525165226
 30
0.0
 11
16.0
 21
11.6999525165226
 31
0.0
  0
LINE
  5
13B
330
1F
100
AcDbEntity
  8
0
  6
Continuous
 62
     3
100
AcDbLine
 10
45.0
 20
20.4999999999998
 30
0.0
 11
11.999999999995
 21
20.4999999999998
 31
0.0
  0
LINE
  5
13C
330
1F
100
AcDbEntity
  8
0
  6
Continuous
 62
     3
100
AcDbLine
 10
11.6999525165178
 20
19.4935886896177
 30
0.0
 11
11.6999525165227
 21
15.9999999999999
 31
0.0
  0
LINE
  5
13D
330
1F
100
AcDbEntity
  8
0
  6
Continuous
 62
     3
100
AcDbLine
 10
11.9999999999948
 20
29.3073593128736
 30
0.0
 11
11.999999999995
 21
20.4999999999998
 31
0.0
  0
LINE
  5
13E
330
1F
100
AcDbEntity
  8
0
  6
Continuous
 62
     3
100
AcDbLine
 10
-12.0000000000002
 20
16.0000000000002
 30
0.0
 11
-12.0000000000002
 21
29.307359312879
 31
0.0
  0
LINE
  5
13F
330
1F
100
AcDbEntity
  8
1
  6
Continuous
 62
     4
100
AcDbLine
 10
311.218978614868
 20
273.826068023464
 30
0.0
 11
311.218978614868
 21
233.826068023464
 31
0.0
  0
LINE
  5
140
330
1F
100
AcDbEntity
  8
1
  6
Continuous
 62
     4
100
AcDbLine
 10
495.336625673692
 20
273.826068023464
 30
0.0
 11
311.218978614868
 21
273.826068023464
 31
0.0
  0
LINE
  5
141
330
1F
100
AcDbEntity
  8
1
  6
Continuous
 62
     4
100
AcDbLine
 10
495.336625673692
 20
233.826068023464
 30
0.0
 11
495.336625673692
 21
273.826068023464
 31
0.0
  0
LINE
  5
142
330
1F
100
AcDbEntity
  8
1
  6
Continuous
 62
     4
100
AcDbLine
 10
311.218978614868
 20
233.826068023464
 30
0.0
 11
495.336625673692
 21
233.826068023464
 31
0.0
  0
LINE
  5
143
330
1F
100
AcDbEntity
  8
1
  6
Continuous
 62
     4
100
AcDbLine
 10
473.571919791339
 20
253.159401356797
 30
0.0
 11
473.571919791339
 21
263.159401356797
 31
0.0
  0
LINE
  5
144
330
1F
100
AcDbEntity
  8
1
  6
Continuous
 62
     4
100
AcDbLine
 10
481.218978614868
 20
253.159401356797
 30
0.0
 11
473.571919791339
 21
253.159401356797
 31
0.0
  0
LINE
  5
145
330
1F
100
AcDbEntity
  8
1
  6
Continuous
 62
     4
100
AcDbLine
 10
483.571919791339
 20
254.492734690131
 30
0.0
 11
481.218978614868
 21
253.159401356797
 31
0.0
  0
LINE
  5
146
330
1F
100
AcDbEntity
  8
1
  6
Continuous
 62
     4
100
AcDbLine
 10
484.748390379574
 20
255.826068023464
 30
0.0
 11
483.571919791339
 21
254.492734690131
 31
0.0
  0
LINE
  5
147
330
1F
100
AcDbEntity
  8
1
  6
Continuous
 62
     4
100
AcDbLine
 10
485.336625673692
 20
258.492734690131
 30
0.0
 11
484.748390379574
 21
255.826068023464
 31
0.0
  0
LINE
  5
148
330
1F
100
AcDbEntity
  8
1
  6
Continuous
 62
     4
100
AcDbLine
 10
484.748390379574
 20
259.826068023464
 30
0.0
 11
485.336625673692
 21
258.492734690131
 31
0.0
  0
LINE
  5
149
330
1F
100
AcDbEntity
  8
1
  6
Continuous
 62
     4
100
AcDbLine
 10
483.571919791339
 20
261.826068023464
 30
0.0
 11
484.748390379574
 21
259.826068023464
 31
0.0
  0
LINE
  5
14A
330
1F
100
AcDbEntity
  8
1
  6
Continuous
 62
     4
100
AcDbLine
 10
481.218978614868
 20
263.159401356797
 30
0.0
 11
483.571919791339
 21
261.826068023464
 31
0.0
  0
LINE
  5
14B
330
1F
100
AcDbEntity
  8
1
  6
Continuous
 62
     4
100
AcDbLine
 10
473.571919791339
 20
263.159401356797
 30
0.0
 11
481.218978614868
 21
263.159401356797
 31
0.0
  0
LINE
  5
14C
330
1F
100
AcDbEntity
  8
1
  6
Continuous
 62
     4
100
AcDbLine
 10
473.571919791339
 20
243.826068023464
 30
0.0
 11
473.571919791339
 21
253.159401356797
 31
0.0
  0
LINE
  5
14D
330
1F
100
AcDbEntity
  8
1
  6
Continuous
 62
     4
100
AcDbLine
 10
457.101331556044
 20
253.826068023464
 30
0.0
 11
467.689566850162
 21
253.826068023464
 31
0.0
  0
LINE
  5
14E
330
1F
100
AcDbEntity
  8
1
  6
Continuous
 62
     4
100
AcDbLine
 10
440.63074332075
 20
245.826068023464
 30
0.0
 11
439.454272732515
 21
248.492734690131
 31
0.0
  0
LINE
  5
14F
330
1F
100
AcDbEntity
  8
1
  6
Continuous
 62
     4
100
AcDbLine
 10
442.395449203103
 20
244.492734690131
 30
0.0
 11
440.63074332075
 21
245.826068023464
 31
0.0
  0
LINE
  5
150
330
1F
100
AcDbEntity
  8
1
  6
Continuous
 62
     4
100
AcDbLine
 10
444.748390379574
 20
243.826068023464
 30
0.0
 11
442.395449203103
 21
244.492734690131
 31
0.0
  0
LINE
  5
151
330
1F
100
AcDbEntity
  8
1
  6
Continuous
 62
     4
100
AcDbLine
 10
447.101331556044
 20
243.826068023464
 30
0.0
 11
444.748390379574
 21
243.826068023464
 31
0.0
  0
LINE
  5
152
330
1F
100
AcDbEntity
  8
1
  6
Continuous
 62
     4
100
AcDbLine
 10
448.866037438397
 20
244.492734690131
 30
0.0
 11
447.101331556044
 21
243.826068023464
 31
0.0
  0
LINE
  5
153
330
1F
100
AcDbEntity
  8
1
  6
Continuous
 62
     4
100
AcDbLine
 10
450.63074332075
 20
245.826068023464
 30
0.0
 11
448.866037438397
 21
244.492734690131
 31
0.0
  0
LINE
  5
154
330
1F
100
AcDbEntity
  8
1
  6
Continuous
 62
     4
100
AcDbLine
 10
451.218978614868
 20
248.492734690131
 30
0.0
 11
450.63074332075
 21
245.826068023464
 31
0.0
  0
LINE
  5
155
330
1F
100
AcDbEntity
  8
1
  6
Continuous
 62
     4
100
AcDbLine
 10
450.63074332075
 20
251.159401356797
 30
0.0
 11
451.218978614868
 21
248.492734690131
 31
0.0
  0
LINE
  5
156
330
1F
100
AcDbEntity
  8
1
  6
Continuous
 62
     4
100
AcDbLine
 10
448.866037438397
 20
253.159401356797
 30
0.0
 11
450.63074332075
 21
251.159401356797
 31
0.0
  0
LINE
  5
157
330
1F
100
AcDbEntity
  8
1
  6
Continuous
 62
     4
100
AcDbLine
 10
447.101331556044
 20
253.826068023464
 30
0.0
 11
448.866037438397
 21
253.159401356797
 31
0.0
  0
LINE
  5
158
330
1F
100
AcDbEntity
  8
1
  6
Continuous
 62
     4
100
AcDbLine
 10
444.748390379574
 20
253.826068023464
 30
0.0
 11
447.101331556044
 21
253.826068023464
 31
0.0
  0
LINE
  5
159
330
1F
100
AcDbEntity
  8
1
  6
Continuous
 62
     4
100
AcDbLine
 10
442.395449203103
 20
254.492734690131
 30
0.0
 11
444.748390379574
 21
253.826068023464
 31
0.0
  0
LINE
  5
15A
330
1F
100
AcDbEntity
  8
1
  6
Continuous
 62
     4
100
AcDbLine
 10
441.218978614868
 20
255.159401356797
 30
0.0
 11
442.395449203103
 21
254.492734690131
 31
0.0
  0
LINE
  5
15B
330
1F
100
AcDbEntity
  8
1
  6
Continuous
 62
     4
100
AcDbLine
 10
440.042508026633
 20
256.492734690131
 30
0.0
 11
441.218978614868
 21
255.159401356797
 31
0.0
  0
LINE
  5
15C
330
1F
100
AcDbEntity
  8
1
  6
Continuous
 62
     4
100
AcDbLine
 10
439.454272732515
 20
259.159401356797
 30
0.0
 11
440.042508026633
 21
256.492734690131
 31
0.0
  0
LINE
  5
15D
330
1F
100
AcDbEntity
  8
1
  6
Continuous
 62
     4
100
AcDbLine
 10
440.042508026633
 20
261.159401356797
 30
0.0
 11
439.454272732515
 21
259.159401356797
 31
0.0
  0
LINE
  5
15E
330
1F
100
AcDbEntity
  8
1
  6
Continuous
 62
     4
100
AcDbLine
 10
441.807213908986
 20
262.492734690131
 30
0.0
 11
440.042508026633
 21
261.159401356797
 31
0.0
  0
LINE
  5
15F
330
1F
100
AcDbEntity
  8
1
  6
Continuous
 62
     4
100
AcDbLine
 10
442.983684497221
 20
263.159401356797
 30
0.0
 11
441.807213908986
 21
262.492734690131
 31
0.0
  0
LINE
  5
160
330
1F
100
AcDbEntity
  8
1
  6
Continuous
 62
     4
100
AcDbLine
 10
444.748390379574
 20
263.159401356797
 30
0.0
 11
442.983684497221
 21
263.159401356797
 31
0.0
  0
LINE
  5
161
330
1F
100
AcDbEntity
  8
1
  6
Continuous
 62
     4
100
AcDbLine
 10
447.101331556044
 20
263.159401356797
 30
0.0
 11
444.748390379574
 21
263.159401356797
 31
0.0
  0
LINE
  5
162
330
1F
100
AcDbEntity
  8
1
  6
Continuous
 62
     4
100
AcDbLine
 10
449.454272732515
 20
261.826068023464
 30
0.0
 11
447.101331556044
 21
263.159401356797
 31
0.0
  0
LINE
  5
163
330
1F
100
AcDbEntity
  8
1
  6
Continuous
 62
     4
100
AcDbLine
 10
450.63074332075
 20
259.826068023464
 30
0.0
 11
449.454272732515
 21
261.826068023464
 31
0.0
  0
LINE
  5
164
330
1F
100
AcDbEntity
  8
1
  6
Continuous
 62
     4
100
AcDbLine
 10
422.983684497221
 20
253.826068023464
 30
0.0
 11
433.571919791338
 21
253.826068023464
 31
0.0
  0
LINE
  5
165
330
1F
100
AcDbEntity
  8
1
  6
Continuous
 62
     4
100
AcDbLine
 10
405.336625673692
 20
245.826068023464
 30
0.0
 11
404.160155085456
 21
247.159401356797
 31
0.0
  0
LINE
  5
166
330
1F
100
AcDbEntity
  8
1
  6
Continuous
 62
     4
100
AcDbLine
 10
407.689566850162
 20
244.492734690131
 30
0.0
 11
405.336625673692
 21
245.826068023464
 31
0.0
  0
LINE
  5
167
330
1F
100
AcDbEntity
  8
1
  6
Continuous
 62
     4
100
AcDbLine
 10
410.63074332075
 20
243.826068023464
 30
0.0
 11
407.689566850162
 21
244.492734690131
 31
0.0
  0
LINE
  5
168
330
1F
100
AcDbEntity
  8
1
  6
Continuous
 62
     4
100
AcDbLine
 10
414.160155085456
 20
244.492734690131
 30
0.0
 11
410.63074332075
 21
243.826068023464
 31
0.0
  0
LINE
  5
169
330
1F
100
AcDbEntity
  8
1
  6
Continuous
 62
     4
100
AcDbLine
 10
415.924860967809
 20
245.826068023464
 30
0.0
 11
414.160155085456
 21
244.492734690131
 31
0.0
  0
LINE
  5
16A
330
1F
100
AcDbEntity
  8
1
  6
Continuous
 62
     4
100
AcDbLine
 10
417.101331556044
 20
249.159401356797
 30
0.0
 11
415.924860967809
 21
245.826068023464
 31
0.0
  0
LINE
  5
16B
330
1F
100
AcDbEntity
  8
1
  6
Continuous
 62
     4
100
AcDbLine
 10
415.924860967809
 20
252.492734690131
 30
0.0
 11
417.101331556044
 21
249.159401356797
 31
0.0
  0
LINE
  5
16C
330
1F
100
AcDbEntity
  8
1
  6
Continuous
 62
     4
100
AcDbLine
 10
412.983684497221
 20
254.492734690131
 30
0.0
 11
415.924860967809
 21
252.492734690131
 31
0.0
  0
LINE
  5
16D
330
1F
100
AcDbEntity
  8
1
  6
Continuous
 62
     4
100
AcDbLine
 10
410.042508026633
 20
254.492734690131
 30
0.0
 11
412.983684497221
 21
254.492734690131
 31
0.0
  0
LINE
  5
16E
330
1F
100
AcDbEntity
  8
1
  6
Continuous
 62
     4
100
AcDbLine
 10
412.983684497221
 20
254.492734690131
 30
0.0
 11
410.042508026633
 21
254.492734690131
 31
0.0
  0
LINE
  5
16F
330
1F
100
AcDbEntity
  8
1
  6
Continuous
 62
     4
100
AcDbLine
 10
415.336625673692
 20
255.826068023464
 30
0.0
 11
412.983684497221
 21
254.492734690131
 31
0.0
  0
LINE
  5
170
330
1F
100
AcDbEntity
  8
1
  6
Continuous
 62
     4
100
AcDbLine
 10
416.513096261927
 20
258.492734690131
 30
0.0
 11
415.336625673692
 21
255.826068023464
 31
0.0
  0
LINE
  5
171
330
1F
100
AcDbEntity
  8
1
  6
Continuous
 62
     4
100
AcDbLine
 10
415.924860967809
 20
260.492734690131
 30
0.0
 11
416.513096261927
 21
258.492734690131
 31
0.0
  0
LINE
  5
172
330
1F
100
AcDbEntity
  8
1
  6
Continuous
 62
     4
100
AcDbLine
 10
414.160155085456
 20
263.159401356797
 30
0.0
 11
415.924860967809
 21
260.492734690131
 31
0.0
  0
LINE
  5
173
330
1F
100
AcDbEntity
  8
1
  6
Continuous
 62
     4
100
AcDbLine
 10
410.63074332075
 20
263.826068023464
 30
0.0
 11
414.160155085456
 21
263.159401356797
 31
0.0
  0
LINE
  5
174
330
1F
100
AcDbEntity
  8
1
  6
Continuous
 62
     4
100
AcDbLine
 10
407.101331556044
 20
263.159401356797
 30
0.0
 11
410.63074332075
 21
263.826068023464
 31
0.0
  0
LINE
  5
175
330
1F
100
AcDbEntity
  8
1
  6
Continuous
 62
     4
100
AcDbLine
 10
404.748390379574
 20
260.492734690131
 30
0.0
 11
407.101331556044
 21
263.159401356797
 31
0.0
  0
LINE
  5
176
330
1F
100
AcDbEntity
  8
1
  6
Continuous
 62
     4
100
AcDbLine
 10
398.27780214428
 20
263.826068023464
 30
0.0
 11
398.27780214428
 21
243.826068023464
 31
0.0
  0
LINE
  5
177
330
1F
100
AcDbEntity
  8
1
  6
Continuous
 62
     4
100
AcDbLine
 10
395.336625673692
 20
261.826068023464
 30
0.0
 11
398.27780214428
 21
263.826068023464
 31
0.0
  0
LINE
  5
178
330
1F
100
AcDbEntity
  8
1
  6
Continuous
 62
     4
100
AcDbLine
 10
381.218978614868
 20
263.826068023464
 30
0.0
 11
385.924860967809
 21
263.826068023464
 31
0.0
  0
LINE
  5
179
330
1F
100
AcDbEntity
  8
1
  6
Continuous
 62
     4
100
AcDbLine
 10
385.924860967809
 20
263.826068023464
 30
0.0
 11
389.454272732515
 21
263.826068023464
 31
0.0
  0
LINE
  5
17A
330
1F
100
AcDbEntity
  8
1
  6
Continuous
 62
     4
100
AcDbLine
 10
385.924860967809
 20
243.826068023464
 30
0.0
 11
377.689566850162
 21
243.826068023464
 31
0.0
  0
LINE
  5
17B
330
1F
100
AcDbEntity
  8
1
  6
Continuous
 62
     4
100
AcDbLine
 10
385.924860967809
 20
263.826068023464
 30
0.0
 11
385.924860967809
 21
243.826068023464
 31
0.0
  0
LINE
  5
17C
330
1F
100
AcDbEntity
  8
1
  6
Continuous
 62
     4
100
AcDbLine
 10
377.689566850162
 20
263.826068023464
 30
0.0
 11
381.218978614868
 21
263.826068023464
 31
0.0
  0
LINE
  5
17D
330
1F
100
AcDbEntity
  8
1
  6
Continuous
 62
     4
100
AcDbLine
 10
381.218978614868
 20
263.826068023464
 30
0.0
 11
381.218978614868
 21
243.826068023464
 31
0.0
  0
LINE
  5
17E
330
1F
100
AcDbEntity
  8
1
  6
Continuous
 62
     4
100
AcDbLine
 10
389.454272732515
 20
243.826068023464
 30
0.0
 11
385.924860967809
 21
243.826068023464
 31
0.0
  0
LINE
  5
17F
330
1F
100
AcDbEntity
  8
1
  6
Continuous
 62
     4
100
AcDbLine
 10
360.63074332075
 20
253.826068023464
 30
0.0
 11
360.63074332075
 21
243.826068023464
 31
0.0
  0
LINE
  5
180
330
1F
100
AcDbEntity
  8
1
  6
Continuous
 62
     4
100
AcDbLine
 10
360.63074332075
 20
253.826068023464
 30
0.0
 11
370.63074332075
 21
253.826068023464
 31
0.0
  0
LINE
  5
181
330
1F
100
AcDbEntity
  8
1
  6
Continuous
 62
     4
100
AcDbLine
 10
360.63074332075
 20
263.826068023464
 30
0.0
 11
360.63074332075
 21
253.826068023464
 31
0.0
  0
LINE
  5
182
330
1F
100
AcDbEntity
  8
1
  6
Continuous
 62
     4
100
AcDbLine
 10
371.807213908986
 20
263.826068023464
 30
0.0
 11
360.63074332075
 21
263.826068023464
 31
0.0
  0
LINE
  5
183
330
1F
100
AcDbEntity
  8
1
  6
Continuous
 62
     4
100
AcDbLine
 10
354.748390379574
 20
263.826068023464
 30
0.0
 11
354.748390379574
 21
243.826068023464
 31
0.0
  0
LINE
  5
184
330
1F
100
AcDbEntity
  8
1
  6
Continuous
 62
     4
100
AcDbLine
 10
347.101331556044
 20
244.492734690131
 30
0.0
 11
354.748390379574
 21
263.826068023464
 31
0.0
  0
LINE
  5
185
330
1F
100
AcDbEntity
  8
1
  6
Continuous
 62
     4
100
AcDbLine
 10
339.454272732515
 20
263.826068023464
 30
0.0
 11
347.101331556044
 21
244.492734690131
 31
0.0
  0
LINE
  5
186
330
1F
100
AcDbEntity
  8
1
  6
Continuous
 62
     4
100
AcDbLine
 10
339.454272732515
 20
243.826068023464
 30
0.0
 11
339.454272732515
 21
263.826068023464
 31
0.0
  0
LINE
  5
187
330
1F
100
AcDbEntity
  8
1
  6
Continuous
 62
     4
100
AcDbLine
 10
332.395449203103
 20
246.492734690131
 30
0.0
 11
333.571919791339
 21
248.492734690131
 31
0.0
  0
LINE
  5
188
330
1F
100
AcDbEntity
  8
1
  6
Continuous
 62
     4
100
AcDbLine
 10
330.042508026633
 20
244.492734690131
 30
0.0
 11
332.395449203103
 21
246.492734690131
 31
0.0
  0
LINE
  5
189
330
1F
100
AcDbEntity
  8
1
  6
Continuous
 62
     4
100
AcDbLine
 10
327.101331556044
 20
243.826068023464
 30
0.0
 11
330.042508026633
 21
244.492734690131
 31
0.0
  0
LINE
  5
18A
330
1F
100
AcDbEntity
  8
1
  6
Continuous
 62
     4
100
AcDbLine
 10
323.571919791339
 20
245.159401356797
 30
0.0
 11
327.101331556044
 21
243.826068023464
 31
0.0
  0
LINE
  5
18B
330
1F
100
AcDbEntity
  8
1
  6
Continuous
 62
     4
100
AcDbLine
 10
321.807213908986
 20
249.159401356797
 30
0.0
 11
323.571919791339
 21
245.159401356797
 31
0.0
  0
LINE
  5
18C
330
1F
100
AcDbEntity
  8
1
  6
Continuous
 62
     4
100
AcDbLine
 10
321.218978614868
 20
253.826068023464
 30
0.0
 11
321.807213908986
 21
249.159401356797
 31
0.0
  0
LINE
  5
18D
330
1F
100
AcDbEntity
  8
1
  6
Continuous
 62
     4
100
AcDbLine
 10
321.807213908986
 20
258.492734690131
 30
0.0
 11
321.218978614868
 21
253.826068023464
 31
0.0
  0
LINE
  5
18E
330
1F
100
AcDbEntity
  8
1
  6
Continuous
 62
     4
100
AcDbLine
 10
323.571919791339
 20
261.826068023464
 30
0.0
 11
321.807213908986
 21
258.492734690131
 31
0.0
  0
LINE
  5
18F
330
1F
100
AcDbEntity
  8
1
  6
Continuous
 62
     4
100
AcDbLine
 10
327.101331556044
 20
263.826068023464
 30
0.0
 11
323.571919791339
 21
261.826068023464
 31
0.0
  0
LINE
  5
190
330
1F
100
AcDbEntity
  8
1
  6
Continuous
 62
     4
100
AcDbLine
 10
330.042508026633
 20
263.159401356797
 30
0.0
 11
327.101331556044
 21
263.826068023464
 31
0.0
  0
LINE
  5
191
330
1F
100
AcDbEntity
  8
1
  6
Continuous
 62
     4
100
AcDbLine
 10
331.807213908986
 20
261.826068023464
 30
0.0
 11
330.042508026633
 21
263.159401356797
 31
0.0
  0
LINE
  5
192
330
1F
100
AcDbEntity
  8
1
  6
Continuous
 62
     4
100
AcDbLine
 10
333.571919791339
 20
259.826068023464
 30
0.0
 11
331.807213908986
 21
261.826068023464
 31
0.0
  0
LINE
  5
193
330
1F
100
AcDbEntity
  8
1
  6
DOT_CENTER
 62
     2
100
AcDbLine
 10
-0.00000000000291
 20
301.24459553808
 30
0.0
 11
-0.00000000000291
 21
360.244595538079
 31
0.0
  0
LINE
  5
194
330
1F
100
AcDbEntity
  8
0
  6
Continuous
 62
     3
100
AcDbLine
 10
181.0
 20
-15.85
 30
0.0
 11
181.0
 21
0.0
 31
0.0
  0
LINE
  5
195
330
1F
100
AcDbEntity
  8
0
  6
Continuous
 62
     3
100
AcDbLine
 10
191.5
 20
-15.85
 30
0.0
 11
181.0
 21
-15.85
 31
0.0
  0
LINE
  5
196
330
1F
100
AcDbEntity
  8
0
  6
Continuous
 62
     3
100
AcDbLine
 10
201.5
 20
-2.0
 30
0.0
 11
196.5
 21
-2.00000000000006
 31
0.0
  0
LINE
  5
197
330
1F
100
AcDbEntity
  8
0
  6
Continuous
 62
     3
100
AcDbLine
 10
201.5
 20
-17.4386090267893
 30
0.0
 11
196.5
 21
-17.4386090267893
 31
0.0
  0
LINE
  5
198
330
1F
100
AcDbEntity
  8
0
  6
Continuous
 62
     3
100
AcDbLine
 10
194.0
 20
22.7499999999999
 30
0.0
 11
194.0
 21
18.4932420089069
 31
0.0
  0
LINE
  5
199
330
1F
100
AcDbEntity
  8
0
  6
Continuous
 62
     3
100
AcDbLine
 10
201.5
 20
22.7499999999999
 30
0.0
 11
194.0
 21
22.7499999999999
 31
0.0
  0
LINE
  5
19A
330
1F
100
AcDbEntity
  8
0
  6
Continuous
 62
     3
100
AcDbLine
 10
194.0
 20
18.4932420089069
 30
0.0
 11
191.499999999951
 21
18.4932420089069
 31
0.0
  0
LINE
  5
19B
330
1F
100
AcDbEntity
  8
0
  6
Continuous
 62
     3
100
AcDbLine
 10
201.5
 20
13.0630095048725
 30
0.0
 11
196.5
 21
13.0630095048725
 31
0.0
  0
LINE
  5
19C
330
1F
100
AcDbEntity
  8
0
  6
Continuous
 62
     3
100
AcDbLine
 10
191.5
 20
-22.7499999999797
 30
0.0
 11
191.5
 21
-15.85
 31
0.0
  0
LINE
  5
19D
330
1F
100
AcDbEntity
  8
0
  6
Continuous
 62
     3
100
AcDbLine
 10
191.5
 20
0.0
 30
0.0
 11
191.499999999951
 21
18.4932420089069
 31
0.0
  0
LINE
  5
19E
330
1F
100
AcDbEntity
  8
0
  6
Continuous
 62
     3
100
AcDbLine
 10
191.5
 20
-15.85
 30
0.0
 11
191.5
 21
0.0
 31
0.0
  0
LINE
  5
19F
330
1F
100
AcDbEntity
  8
0
  6
Continuous
 62
     3
100
AcDbLine
 10
201.5
 20
-14.6101819020431
 30
0.0
 11
196.5
 21
-14.6101819020431
 31
0.0
  0
LINE
  5
1A0
330
1F
100
AcDbEntity
  8
0
  6
Continuous
 62
     3
100
AcDbLine
 10
201.5
 20
-22.7500000001841
 30
0.0
 11
191.5
 21
-22.7499999999797
 31
0.0
  0
LINE
  5
1A1
330
1F
100
AcDbEntity
  8
0
  6
Continuous
 62
     3
100
AcDbLine
 10
181.0
 20
0.0
 30
0.0
 11
191.5
 21
0.0
 31
0.0
  0
LINE
  5
1A2
330
1F
100
AcDbEntity
  8
0
  6
Continuous
 62
     3
100
AcDbLine
 10
201.5
 20
9.59890788973468
 30
0.0
 11
196.5
 21
9.59890788973468
 31
0.0
  0
LINE
  5
1A3
330
1F
100
AcDbEntity
  8
0
  6
Continuous
 62
     3
100
AcDbLine
 10
201.5
 20
2.0
 30
0.0
 11
196.5
 21
2.0
 31
0.0
  0
LINE
  5
1A4
330
1F
100
AcDbEntity
  8
0
  6
Continuous
 62
     3
100
AcDbLine
 10
497.000000000009
 20
83.2500011091995
 30
0.0
 11
497.000000000009
 21
74.0000011091995
 31
0.0
  0
LINE
  5
1A5
330
1F
100
AcDbEntity
  8
0
  6
Continuous
 62
     3
100
AcDbLine
 10
497.000000000009
 20
83.2500011091995
 30
0.0
 11
493.000000000009
 21
83.2500011091995
 31
0.0
  0
LINE
  5
1A6
330
1F
100
AcDbEntity
  8
0
  6
Continuous
 62
     3
100
AcDbLine
 10
526.000000000009
 20
101.0000011092
 30
0.0
 11
510.000000000009
 21
101.0000011092
 31
0.0
  0
LINE
  5
1A7
330
1F
100
AcDbEntity
  8
0
  6
Continuous
 62
     3
100
AcDbLine
 10
526.000000000009
 20
81.0000011091995
 30
0.0
 11
526.000000000009
 21
101.0000011092
 31
0.0
  0
LINE
  5
1A8
330
1F
100
AcDbEntity
  8
0
  6
Continuous
 62
     3
100
AcDbLine
 10
510.000000000009
 20
101.0000011092
 30
0.0
 11
510.000000000009
 21
81.0000011091995
 31
0.0
  0
LINE
  5
1A9
330
1F
100
AcDbEntity
  8
0
  6
Continuous
 62
     3
100
AcDbLine
 10
538.000000000009
 20
101.5000011092
 30
0.0
 11
535.500000000009
 21
104.0000011092
 31
0.0
  0
LINE
  5
1AA
330
1F
100
AcDbEntity
  8
0
  6
Continuous
 62
     3
100
AcDbLine
 10
535.500000000009
 20
108.500001109198
 30
0.0
 11
533.750000000009
 21
110.250001109201
 31
0.0
  0
LINE
  5
1AB
330
1F
100
AcDbEntity
  8
0
  6
Continuous
 62
     3
100
AcDbLine
 10
499.058136494903
 20
115.342824363089
 30
0.0
 11
502.250000000009
 21
113.500001109199
 31
0.0
  0
LINE
  5
1AC
330
1F
100
AcDbEntity
  8
0
  6
Continuous
 62
     3
100
AcDbLine
 10
500.499999050391
 20
108.500001590098
 30
0.0
 11
502.250000000009
 21
110.250000389421
 31
0.0
  0
LINE
  5
1AD
330
1F
100
AcDbEntity
  8
0
  6
Continuous
 62
     3
100
AcDbLine
 10
499.058136494892
 20
129.0000011092
 30
0.0
 11
504.606079867231
 21
129.0000011092
 31
0.0
  0
LINE
  5
1AE
330
1F
100
AcDbEntity
  8
0
  6
Continuous
 62
     3
100
AcDbLine
 10
504.606079867231
 20
115.342824363095
 30
0.0
 11
504.606079867231
 21
129.0000011092
 31
0.0
  0
LINE
  5
1AF
330
1F
100
AcDbEntity
  8
0
  6
Continuous
 62
     3
100
AcDbLine
 10
504.606079867231
 20
129.0000011092
 30
0.0
 11
518.000000000009
 21
129.0000011092
 31
0.0
  0
LINE
  5
1B0
330
1F
100
AcDbEntity
  8
0
  6
Continuous
 62
     3
100
AcDbLine
 10
518.0
 20
115.342824363085
 30
0.0
 11
518.000000000009
 21
129.0000011092
 31
0.0
  0
LINE
  5
1B1
330
1F
100
AcDbEntity
  8
0
  6
Continuous
 62
     3
100
AcDbLine
 10
505.371446731961
 20
130.0000011092
 30
0.0
 11
518.000000000009
 21
130.0000011092
 31
0.0
  0
LINE
  5
1B2
330
1F
100
AcDbEntity
  8
0
  6
Continuous
 62
     3
100
AcDbLine
 10
504.606079867231
 20
129.0000011092
 30
0.0
 11
505.371446731961
 21
130.0000011092
 31
0.0
  0
LINE
  5
1B3
330
1F
100
AcDbEntity
  8
0
  6
Continuous
 62
     3
100
AcDbLine
 10
518.000000000009
 20
129.0000011092
 30
0.0
 11
518.000000000009
 21
130.0000011092
 31
0.0
  0
LINE
  5
1B4
330
1F
100
AcDbEntity
  8
0
  6
Continuous
 62
     3
100
AcDbLine
 10
518.000000000009
 20
129.0000011092
 30
0.0
 11
531.393920132787
 21
129.0000011092
 31
0.0
  0
LINE
  5
1B5
330
1F
100
AcDbEntity
  8
0
  6
Continuous
 62
     3
100
AcDbLine
 10
531.393920133561
 20
115.342824362649
 30
0.0
 11
531.393920132787
 21
129.0000011092
 31
0.0
  0
LINE
  5
1B6
330
1F
100
AcDbEntity
  8
0
  6
Continuous
 62
     3
100
AcDbLine
 10
502.250000000009
 20
110.250000389421
 30
0.0
 11
502.250000000009
 21
113.500001109199
 31
0.0
  0
LINE
  5
1B7
330
1F
100
AcDbEntity
  8
0
  6
Continuous
 62
     3
100
AcDbLine
 10
533.750000000009
 20
110.250001109201
 30
0.0
 11
533.750000000009
 21
113.5000011092
 31
0.0
  0
LINE
  5
1B8
330
1F
100
AcDbEntity
  8
0
  6
Continuous
 62
     3
100
AcDbLine
 10
518.000000000009
 20
130.0000011092
 30
0.0
 11
530.628553268057
 21
130.0000011092
 31
0.0
  0
LINE
  5
1B9
330
1F
100
AcDbEntity
  8
0
  6
Continuous
 62
     3
100
AcDbLine
 10
493.000000000009
 20
80.2500045641657
 30
0.0
 11
493.000000000009
 21
105.750004084767
 31
0.0
  0
LINE
  5
1BA
330
1F
100
AcDbEntity
  8
0
  6
Continuous
 62
     3
100
AcDbLine
 10
500.500000537575
 20
102.7500011092
 30
0.0
 11
500.499999050391
 21
108.500001590098
 31
0.0
  0
LINE
  5
1BB
330
1F
100
AcDbEntity
  8
0
  6
Continuous
 62
     3
100
AcDbLine
 10
500.500000537575
 20
102.7500011092
 30
0.0
 11
493.000000000009
 21
102.7500011092
 31
0.0
  0
LINE
  5
1BC
330
1F
100
AcDbEntity
  8
0
  6
Continuous
 62
     3
100
AcDbLine
 10
536.941863505126
 20
115.342824363095
 30
0.0
 11
533.750000000009
 21
113.5000011092
 31
0.0
  0
LINE
  5
1BD
330
1F
100
AcDbEntity
  8
0
  6
Continuous
 62
     3
100
AcDbLine
 10
535.500000000009
 20
104.0000011092
 30
0.0
 11
535.500000000009
 21
108.500001109198
 31
0.0
  0
LINE
  5
1BE
330
1F
100
AcDbEntity
  8
0
  6
Continuous
 62
     3
100
AcDbLine
 10
539.000000000009
 20
87.1826769228806
 30
0.0
 11
539.000000000009
 21
74.0000011091995
 31
0.0
  0
LINE
  5
1BF
330
1F
100
AcDbEntity
  8
0
  6
Continuous
 62
     3
100
AcDbLine
 10
538.000000000009
 20
101.5000011092
 30
0.0
 11
538.000000000009
 21
89.8284282339457
 31
0.0
  0
LINE
  5
1C0
330
1F
100
AcDbEntity
  8
0
  6
Continuous
 62
     3
100
AcDbLine
 10
531.393920132787
 20
129.0000011092
 30
0.0
 11
536.941863505126
 21
129.0000011092
 31
0.0
  0
LINE
  5
1C1
330
1F
100
AcDbEntity
  8
0
  6
Continuous
 62
     3
100
AcDbLine
 10
536.941863505126
 20
115.342824363095
 30
0.0
 11
536.941863505126
 21
129.0000011092
 31
0.0
  0
LINE
  5
1C2
330
1F
100
AcDbEntity
  8
0
  6
Continuous
 62
     3
100
AcDbLine
 10
530.628553268057
 20
130.0000011092
 30
0.0
 11
535.859471304834
 21
130.0000011092
 31
0.0
  0
LINE
  5
1C3
330
1F
100
AcDbEntity
  8
0
  6
Continuous
 62
     3
100
AcDbLine
 10
531.393920132787
 20
129.0000011092
 30
0.0
 11
530.628553268057
 21
130.0000011092
 31
0.0
  0
LINE
  5
1C4
330
1F
100
AcDbEntity
  8
0
  6
Continuous
 62
     3
100
AcDbLine
 10
536.941863505126
 20
129.0000011092
 30
0.0
 11
535.859471304834
 21
130.0000011092
 31
0.0
  0
LINE
  5
1C5
330
1F
100
AcDbEntity
  8
0
  6
DOT_CENTER
 62
     1
100
AcDbLine
 10
541.000000000009
 20
93.0000011091995
 30
0.0
 11
451.000000000009
 21
93.0000011091995
 31
0.0
  0
LINE
  5
1C6
330
1F
100
AcDbEntity
  8
1
  6
Continuous
 62
     3
100
AcDbLine
 10
499.058136494903
 20
115.342824363089
 30
0.0
 11
499.058136494892
 21
129.0000011092
 31
0.0
  0
LINE
  5
1C7
330
1F
100
AcDbEntity
  8
1
  6
Continuous
 62
     3
100
AcDbLine
 10
505.371446731961
 20
130.0000011092
 30
0.0
 11
500.058136494903
 21
130.0000011092
 31
0.0
  0
LINE
  5
1C8
330
1F
100
AcDbEntity
  8
1
  6
Continuous
 62
     3
100
AcDbLine
 10
499.058136494892
 20
129.0000011092
 30
0.0
 11
500.058136494903
 21
130.0000011092
 31
0.0
  0
LINE
  5
1C9
330
1F
100
AcDbEntity
  8
0
  6
Continuous
 62
     3
100
AcDbLine
 10
510.000000000009
 20
81.0000011091995
 30
0.0
 11
526.000000000009
 21
81.0000011091995
 31
0.0
  0
LINE
  5
1CA
330
1F
100
AcDbEntity
  8
4
  6
Continuous
 62
     3
100
AcDbLine
 10
516.469266299318
 20
71.6922493452088
 30
0.0
 11
516.469266299318
 21
65.933013802899
 31
0.0
  0
LINE
  5
1CB
330
1F
100
AcDbEntity
  8
4
  6
Continuous
 62
     3
100
AcDbLine
 10
507.416180286359
 20
71.6922493452088
 30
0.0
 11
507.416180286359
 21
65.933013802899
 31
0.0
  0
LINE
  5
1CC
330
1F
100
AcDbEntity
  8
4
  6
Continuous
 62
     3
100
AcDbLine
 10
509.580964646246
 20
71.692249366576
 30
0.0
 11
509.580964646246
 21
65.933013802899
 31
0.0
  0
LINE
  5
1CD
330
1F
100
AcDbEntity
  8
4
  6
Continuous
 62
     3
100
AcDbLine
 10
519.530733700682
 20
71.6922493452088
 30
0.0
 11
519.530733700682
 21
65.933013802899
 31
0.0
  0
LINE
  5
1CE
330
1F
100
AcDbEntity
  8
4
  6
Continuous
 62
     3
100
AcDbLine
 10
528.583819713641
 20
71.6922493452088
 30
0.0
 11
528.583819713641
 21
65.933013802899
 31
0.0
  0
LINE
  5
1CF
330
1F
100
AcDbEntity
  8
4
  6
Continuous
 62
     3
100
AcDbLine
 10
526.419035353754
 20
71.692249366576
 30
0.0
 11
526.419035353754
 21
65.933013802899
 31
0.0
  0
LINE
  5
1D0
330
1F
100
AcDbEntity
  8
4
  6
Continuous
 62
     3
100
AcDbLine
 10
507.416180286359
 20
65.933013802899
 30
0.0
 11
509.580964646246
 21
65.933013802899
 31
0.0
  0
LINE
  5
1D1
330
1F
100
AcDbEntity
  8
4
  6
Continuous
 62
     3
100
AcDbLine
 10
516.469266299318
 20
65.933013802899
 30
0.0
 11
519.530733700682
 21
65.933013802899
 31
0.0
  0
LINE
  5
1D2
330
1F
100
AcDbEntity
  8
4
  6
Continuous
 62
     3
100
AcDbLine
 10
526.419035353754
 20
65.933013802899
 30
0.0
 11
528.583819713641
 21
65.933013802899
 31
0.0
  0
LINE
  5
1D3
330
1F
100
AcDbEntity
  8
1
  6
Continuous
 62
     3
100
AcDbLine
 10
531.0
 20
65.5000011091474
 30
0.0
 11
505.0
 21
65.5000011091474
 31
0.0
  0
LINE
  5
1D4
330
1F
100
AcDbEntity
  8
100
  6
Continuous
 62
     3
100
AcDbLine
 10
504.258470197504
 20
65.9281235402303
 30
0.0
 11
504.258470197229
 21
72.0000011092902
 31
0.0
  0
LINE
  5
1D5
330
1F
100
AcDbEntity
  8
100
  6
Continuous
 62
     3
100
AcDbLine
 10
505.0
 20
65.5000011091474
 30
0.0
 11
504.258470197504
 21
65.9281235402303
 31
0.0
  0
LINE
  5
1D6
330
1F
100
AcDbEntity
  8
1
  6
Continuous
 62
     3
100
AcDbLine
 10
497.000000000009
 20
74.0000011091995
 30
0.0
 11
539.000000000009
 21
74.0000011091995
 31
0.0
  0
LINE
  5
1D7
330
1F
100
AcDbEntity
  8
100
  6
Continuous
 62
     3
100
AcDbLine
 10
531.741529802631
 20
65.9281235403089
 30
0.0
 11
531.0
 21
65.5000011091474
 31
0.0
  0
LINE
  5
1D8
330
1F
100
AcDbEntity
  8
100
  6
Continuous
 62
     3
100
AcDbLine
 10
531.0
 20
65.5000011091474
 30
0.0
 11
531.0
 21
57.5007735875606
 31
0.0
  0
LINE
  5
1D9
330
1F
100
AcDbEntity
  8
100
  6
Continuous
 62
     3
100
AcDbLine
 10
505.0
 20
65.5000011091474
 30
0.0
 11
505.0
 21
57.5007735875606
 31
0.0
  0
LINE
  5
1DA
330
1F
100
AcDbEntity
  8
100
  6
Continuous
 62
     3
100
AcDbLine
 10
531.741529802771
 20
72.0000011092902
 30
0.0
 11
531.741529802631
 21
65.9281235403089
 31
0.0
  0
LINE
  5
1DB
330
1F
100
AcDbEntity
  8
1
  6
Continuous
 62
     3
100
AcDbLine
 10
451.846110532384
 20
116.879352521108
 30
0.0
 11
451.846110532384
 21
116.979352521109
 31
0.0
  0
LINE
  5
1DC
330
1F
100
AcDbEntity
  8
100
  6
Continuous
 62
     3
100
AcDbLine
 10
471.9999966018
 20
73.0000011092
 30
0.0
 11
467.333111587253
 21
64.9167191509234
 31
0.0
  0
LINE
  5
1DD
330
1F
100
AcDbEntity
  8
100
  6
Continuous
 62
     3
100
AcDbLine
 10
467.333111587253
 20
64.9167191509234
 30
0.0
 11
454.584643304141
 21
66.0320656030158
 31
0.0
  0
LINE
  5
1DE
330
1F
100
AcDbEntity
  8
100
  6
Continuous
 62
     3
100
AcDbLine
 10
467.333111587254
 20
121.083283067476
 30
0.0
 11
454.584643304141
 21
119.967936615383
 31
0.0
  0
LINE
  5
1DF
330
1F
100
AcDbEntity
  8
100
  6
Continuous
 62
     3
100
AcDbLine
 10
457.464187753983
 20
81.0974825386131
 30
0.0
 11
457.662986992378
 21
82.6381766361783
 31
0.0
  0
LINE
  5
1E0
330
1F
100
AcDbEntity
  8
100
  6
Continuous
 62
     3
100
AcDbLine
 10
452.24803432103
 20
70.5206496972912
 30
0.0
 11
456.206663125486
 21
77.3771959149146
 31
0.0
  0
LINE
  5
1E1
330
1F
100
AcDbEntity
  8
100
  6
Continuous
 62
     3
100
AcDbLine
 10
471.9999966018
 20
113.000001109199
 30
0.0
 11
467.333111587254
 21
121.083283067476
 31
0.0
  0
LINE
  5
1E2
330
1F
100
AcDbEntity
  8
100
  6
Continuous
 62
     3
100
AcDbLine
 10
471.9999966018
 20
73.0000011092
 30
0.0
 11
471.9999966018
 21
113.000001109199
 31
0.0
  0
LINE
  5
1E3
330
1F
100
AcDbEntity
  8
100
  6
Continuous
 62
     3
100
AcDbLine
 10
452.24803432103
 20
115.479352521109
 30
0.0
 11
456.206663125487
 21
108.622806303484
 31
0.0
  0
LINE
  5
1E4
330
1F
100
AcDbEntity
  8
100
  6
Continuous
 62
     3
100
AcDbLine
 10
455.9999966018
 20
100.180791487189
 30
0.0
 11
455.9999966018
 21
100.0000011092
 31
0.0
  0
LINE
  5
1E5
330
1F
100
AcDbEntity
  8
100
  6
Continuous
 62
     3
100
AcDbLine
 10
455.9999966018
 20
86.0000011091995
 30
0.0
 11
455.9999966018
 21
85.8192107312102
 31
0.0
  0
LINE
  5
1E6
330
1F
100
AcDbEntity
  8
100
  6
Continuous
 62
     3
100
AcDbLine
 10
455.9999966018
 20
93.0000011091995
 30
0.0
 11
455.999996601801
 21
85.3140623007632
 31
0.0
  0
LINE
  5
1E7
330
1F
100
AcDbEntity
  8
100
  6
Continuous
 62
     3
100
AcDbLine
 10
457.464187753983
 20
104.902519679786
 30
0.0
 11
457.66298699237
 21
103.361825582284
 31
0.0
  0
LINE
  5
1E8
330
1F
100
AcDbEntity
  8
100
  6
Continuous
 62
     3
100
AcDbLine
 10
455.9999966018
 20
100.685939917637
 30
0.0
 11
455.9999966018
 21
93.0000011091995
 31
0.0
  0
LINE
  5
1E9
330
1F
100
AcDbEntity
  8
100
  6
Continuous
 62
     3
100
AcDbLine
 10
480.5000017753
 20
93.0000011091995
 30
0.0
 11
480.5000017753
 21
80.7500045641657
 31
0.0
  0
LINE
  5
1EA
330
1F
100
AcDbEntity
  8
100
  6
Continuous
 62
     3
100
AcDbLine
 10
480.5000017753
 20
105.250004084767
 30
0.0
 11
480.5000017753
 21
93.0000011091995
 31
0.0
  0
LINE
  5
1EB
330
1F
100
AcDbEntity
  8
100
  6
Continuous
 62
     3
100
AcDbLine
 10
481.0000017753
 20
80.2500045641657
 30
0.0
 11
493.000000000009
 21
80.2500045641657
 31
0.0
  0
LINE
  5
1EC
330
1F
100
AcDbEntity
  8
100
  6
Continuous
 62
     3
100
AcDbLine
 10
472.00004749857
 20
98.0000030097654
 30
0.0
 11
480.5000017753
 21
98.0000030097654
 31
0.0
  0
LINE
  5
1ED
330
1F
100
AcDbEntity
  8
100
  6
Continuous
 62
     3
100
AcDbLine
 10
481.0000017753
 20
105.750004084767
 30
0.0
 11
493.000000000009
 21
105.750004084767
 31
0.0
  0
LINE
  5
1EE
330
1F
100
AcDbEntity
  8
1
  6
Continuous
 62
     3
100
AcDbLine
 10
481.0000017753
 20
105.750004084767
 30
0.0
 11
480.5000017753
 21
105.250004084767
 31
0.0
  0
LINE
  5
1EF
330
1F
100
AcDbEntity
  8
1
  6
Continuous
 62
     3
100
AcDbLine
 10
481.0000017753
 20
80.2500045641657
 30
0.0
 11
480.5000017753
 21
80.7500045641657
 31
0.0
  0
LINE
  5
1F0
330
1F
100
AcDbEntity
  8
100
  6
Continuous
 62
     3
100
AcDbLine
 10
471.9999966018
 20
87.9999992086325
 30
0.0
 11
480.5000017753
 21
87.9999992086325
 31
0.0
  0
LINE
  5
1F1
330
1F
100
AcDbEntity
  8
1
  6
Continuous
 62
     3
100
AcDbLine
 10
499.0000003619
 20
57.5007735875606
 30
0.0
 11
499.0000003619
 21
35.5007740011606
 31
0.0
  0
LINE
  5
1F2
330
1F
100
AcDbEntity
  8
1
  6
Continuous
 62
     3
100
AcDbLine
 10
536.9999996381
 20
57.5007735875606
 30
0.0
 11
536.9999996381
 21
35.5007740011606
 31
0.0
  0
LINE
  5
1F3
330
1F
100
AcDbEntity
  8
5
  6
Continuous
 62
     3
100
AcDbLine
 10
499.0000003619
 20
57.5007735875606
 30
0.0
 11
536.9999996381
 21
57.5007735875606
 31
0.0
  0
LINE
  5
1F4
330
1F
100
AcDbEntity
  8
1
  6
Continuous
 62
     3
100
AcDbLine
 10
518.0
 20
42.697773552454
 30
0.0
 11
518.0
 21
50.3037496222676
 31
0.0
  0
LINE
  5
1F5
330
1F
100
AcDbEntity
  8
1
  6
Continuous
 62
     3
100
AcDbLine
 10
536.9999996381
 20
41.0007740011602
 30
0.0
 11
499.0000003619
 21
41.0007740011602
 31
0.0
  0
LINE
  5
1F6
330
1F
100
AcDbEntity
  8
1
  6
Continuous
 62
     3
100
AcDbLine
 10
536.9999996381
 20
52.0007735875611
 30
0.0
 11
499.0000003619
 21
52.0007735875611
 31
0.0
  0
LINE
  5
1F7
330
1F
100
AcDbEntity
  8
5
  6
Continuous
 62
     3
100
AcDbLine
 10
526.082903768655
 20
35.5007740011606
 30
0.0
 11
536.9999996381
 21
35.5007740011606
 31
0.0
  0
LINE
  5
1F8
330
1F
100
AcDbEntity
  8
0
  6
Continuous
 62
     3
100
AcDbLine
 10
524.5
 20
41.000769109961
 30
0.0
 11
518.0
 21
41.000769109961
 31
0.0
  0
LINE
  5
1F9
330
1F
100
AcDbEntity
  8
0
  6
Continuous
 62
     3
100
AcDbLine
 10
518.0
 20
41.000769109961
 30
0.0
 11
511.5
 21
41.000769109961
 31
0.0
  0
LINE
  5
1FA
330
1F
100
AcDbEntity
  8
5
  6
DASHED
 62
     2
100
AcDbLine
 10
-18.9999996381029
 20
469.5000048912
 30
0.0
 11
18.9999996380972
 21
469.5000048912
 31
0.0
  0
LINE
  5
1FB
330
1F
100
AcDbEntity
  8
1
  6
DASHED
 62
     2
100
AcDbLine
 10
18.9999996380972
 20
491.500004477599
 30
0.0
 11
18.9999996380972
 21
469.5000048912
 31
0.0
  0
LINE
  5
1FC
330
1F
100
AcDbEntity
  8
1
  6
DASHED
 62
     2
100
AcDbLine
 10
-18.9999996381029
 20
491.500004477599
 30
0.0
 11
-18.9999996381029
 21
469.5000048912
 31
0.0
  0
LINE
  5
1FD
330
1F
100
AcDbEntity
  8
0
  6
Continuous
 62
     3
100
AcDbLine
 10
506.0
 20
20.2051973511769
 30
0.0
 11
506.0
 21
29.307359312879
 31
0.0
  0
LINE
  5
1FE
330
1F
100
AcDbEntity
  8
0
  6
Continuous
 62
     3
100
AcDbLine
 10
530.0
 20
20.2051973511765
 30
0.0
 11
530.0
 21
29.307359312879
 31
0.0
  0
LINE
  5
1FF
330
1F
100
AcDbEntity
  8
0
  6
Continuous
 62
     3
100
AcDbLine
 10
530.87867965644
 20
31.4286796564384
 30
0.0
 11
534.950774001161
 21
35.5007740011606
 31
0.0
  0
LINE
  5
200
330
1F
100
AcDbEntity
  8
0
  6
Continuous
 62
     3
100
AcDbLine
 10
505.12132034356
 20
31.4286796564384
 30
0.0
 11
501.049225998838
 21
35.5007740011606
 31
0.0
  0
LINE
  5
201
330
1F
100
AcDbEntity
  8
0
  6
Continuous
 62
     3
100
AcDbLine
 10
498.355222010223
 20
-40.0000000015306
 30
0.0
 11
498.355222010223
 21
-33.2186953990797
 31
0.0
  0
LINE
  5
202
330
1F
100
AcDbEntity
  8
0
  6
Continuous
 62
     3
100
AcDbLine
 10
535.855222010223
 20
-33.062129510633
 30
0.0
 11
535.855222010223
 21
-15.1079449312685
 31
0.0
  0
LINE
  5
203
330
1F
100
AcDbEntity
  8
0
  6
Continuous
 62
     3
100
AcDbLine
 10
499.855222010223
 20
-33.0874624005521
 30
0.0
 11
499.855222010223
 21
-15.1079449312689
 31
0.0
  0
LINE
  5
204
330
1F
100
AcDbEntity
  8
0
  6
Continuous
 62
     3
100
AcDbLine
 10
537.355222010223
 20
-40.0000000015306
 30
0.0
 11
537.355222010223
 21
-33.1933625059219
 31
0.0
  0
LINE
  5
205
330
1F
100
AcDbEntity
  8
0
  6
Continuous
 62
     3
100
AcDbLine
 10
541.366642891096
 20
-2.49999999999989
 30
0.0
 11
550.965891572886
 21
-2.49999999999989
 31
0.0
  0
LINE
  5
206
330
1F
100
AcDbEntity
  8
0
  6
Continuous
 62
     3
100
AcDbLine
 10
541.366642891096
 20
2.5
 30
0.0
 11
550.965891495464
 21
2.5
 31
0.0
  0
LINE
  5
207
330
1F
100
AcDbEntity
  8
0
  6
Continuous
 62
     3
100
AcDbLine
 10
494.633357108904
 20
2.5
 30
0.0
 11
485.034108427114
 21
2.5
 31
0.0
  0
LINE
  5
208
330
1F
100
AcDbEntity
  8
0
  6
Continuous
 62
     3
100
AcDbLine
 10
494.633357108904
 20
-2.49999999999989
 30
0.0
 11
485.034108504536
 21
-2.49999999999989
 31
0.0
  0
LINE
  5
209
330
1F
100
AcDbEntity
  8
1
  6
DOT_CENTER
 62
     1
100
AcDbLine
 10
478.0
 20
0.0
 30
0.0
 11
558.0
 21
0.0
 31
0.0
  0
LINE
  5
20A
330
1F
100
AcDbEntity
  8
0
  6
Continuous
 62
     3
100
AcDbLine
 10
528.0
 20
29.0
 30
0.0
 11
508.000000253053
 21
29.0
 31
0.0
  0
LINE
  5
20B
330
1F
100
AcDbEntity
  8
0
  6
Continuous
 62
     3
100
AcDbLine
 10
516.499999938206
 20
16.3814681825117
 30
0.0
 11
516.499999938206
 21
17.9864538244154
 31
0.0
  0
LINE
  5
20C
330
1F
100
AcDbEntity
  8
0
  6
Continuous
 62
     3
100
AcDbLine
 10
519.499999938206
 20
17.9864538681935
 30
0.0
 11
519.499999938206
 21
16.3814681938283
 31
0.0
  0
LINE
  5
20D
330
1F
100
AcDbEntity
  8
0
  6
Continuous
 62
     3
100
AcDbLine
 10
524.0
 20
-19.0787840283389
 30
0.0
 11
524.0
 21
-32.0249319811555
 31
0.0
  0
LINE
  5
20E
330
1F
100
AcDbEntity
  8
0
  6
Continuous
 62
     3
100
AcDbLine
 10
512.0
 20
-19.0787840283389
 30
0.0
 11
512.0
 21
-32.0249319791845
 31
0.0
  0
LINE
  5
20F
330
1F
100
AcDbEntity
  8
0
  6
Continuous
 62
     3
100
AcDbLine
 10
525.5
 20
-32.1561649764444
 30
0.0
 11
525.5
 21
-39.9355953119468
 31
0.0
  0
LINE
  5
210
330
1F
100
AcDbEntity
  8
0
  6
Continuous
 62
     3
100
AcDbLine
 10
510.5
 20
-32.1561649777122
 30
0.0
 11
510.5
 21
-39.9355952969793
 31
0.0
  0
LINE
  5
211
330
1F
100
AcDbEntity
  8
0
  6
Continuous
 62
     3
100
AcDbLine
 10
537.355222010223
 20
-33.1933625059219
 30
0.0
 11
517.999999914696
 21
-31.4999999925369
 31
0.0
  0
LINE
  5
212
330
1F
100
AcDbEntity
  8
0
  6
Continuous
 62
     3
100
AcDbLine
 10
517.999999914696
 20
-31.4999999925369
 30
0.0
 11
498.355222010223
 21
-33.2186953990797
 31
0.0
  0
LINE
  5
213
330
1F
100
AcDbEntity
  8
0
  6
Continuous
 62
     3
100
AcDbLine
 10
528.0
 20
29.0
 30
0.0
 11
528.0
 21
21.2661703181368
 31
0.0
  0
LINE
  5
214
330
1F
100
AcDbEntity
  8
0
  6
Continuous
 62
     3
100
AcDbLine
 10
536.5
 20
-33.1185402752295
 30
0.0
 11
536.5
 21
-40.0
 31
0.0
  0
LINE
  5
215
330
1F
100
AcDbEntity
  8
0
  6
Continuous
 62
     3
100
AcDbLine
 10
535.0
 20
-16.2754132251554
 30
0.0
 11
535.0
 21
-32.9873072799407
 31
0.0
  0
LINE
  5
216
330
1F
100
AcDbEntity
  8
0
  6
Continuous
 62
     3
100
AcDbLine
 10
516.499999938206
 20
-17.9864538170019
 30
0.0
 11
516.499999938206
 21
-16.3814681825117
 31
0.0
  0
LINE
  5
217
330
1F
100
AcDbEntity
  8
0
  6
Continuous
 62
     3
100
AcDbLine
 10
519.499999938206
 20
-16.3814681938283
 30
0.0
 11
519.499999938206
 21
-17.9864538681935
 31
0.0
  0
LINE
  5
218
330
1F
100
AcDbEntity
  8
0
  6
Continuous
 62
     3
100
AcDbLine
 10
508.000000253053
 20
29.0
 30
0.0
 11
507.999998897158
 21
21.2661697995473
 31
0.0
  0
LINE
  5
219
330
1F
100
AcDbEntity
  8
0
  6
Continuous
 62
     3
100
AcDbLine
 10
501.0
 20
-16.2754132587289
 30
0.0
 11
501.0
 21
-32.9873073017208
 31
0.0
  0
LINE
  5
21A
330
1F
100
AcDbEntity
  8
0
  6
Continuous
 62
     3
100
AcDbLine
 10
499.5
 20
-33.1185403002485
 30
0.0
 11
499.5
 21
-40.0
 31
0.0
  0
LINE
  5
21B
330
1F
100
AcDbEntity
  8
0
  6
Continuous
 62
     3
100
AcDbLine
 10
511.390562500001
 20
29.0
 30
0.0
 11
511.249937500001
 21
33.4999999999999
 31
0.0
  0
LINE
  5
21C
330
1F
100
AcDbEntity
  8
0
  6
Continuous
 62
     3
100
AcDbLine
 10
524.609437499999
 20
29.0
 30
0.0
 11
524.750062499999
 21
33.4999999999999
 31
0.0
  0
LINE
  5
21D
330
1F
100
AcDbEntity
  8
0
  6
Continuous
 62
     3
100
AcDbLine
 10
522.0414518843
 20
40.086110083084
 30
0.0
 11
522.041451884328
 21
34.8328412686553
 31
0.0
  0
LINE
  5
21E
330
1F
100
AcDbEntity
  8
0
  6
Continuous
 62
     3
100
AcDbLine
 10
518.0
 20
33.4999999999999
 30
0.0
 11
511.249937500001
 21
33.4999999999999
 31
0.0
  0
LINE
  5
21F
330
1F
100
AcDbEntity
  8
0
  6
Continuous
 62
     3
100
AcDbLine
 10
518.0
 20
40.9999999999999
 30
0.0
 11
511.5
 21
40.9999999999999
 31
0.0
  0
LINE
  5
220
330
1F
100
AcDbEntity
  8
0
  6
Continuous
 62
     3
100
AcDbLine
 10
513.958548115673
 20
40.0861100830658
 30
0.0
 11
513.958548115673
 21
34.832841268655
 31
0.0
  0
LINE
  5
221
330
1F
100
AcDbEntity
  8
0
  6
Continuous
 62
     3
100
AcDbLine
 10
509.917096231346
 20
40.0861100830658
 30
0.0
 11
509.917096231346
 21
34.832841268655
 31
0.0
  0
LINE
  5
222
330
1F
100
AcDbEntity
  8
0
  6
Continuous
 62
     3
100
AcDbLine
 10
511.5
 20
40.9999999999999
 30
0.0
 11
509.917096231346
 21
40.0861100830658
 31
0.0
  0
LINE
  5
223
330
1F
100
AcDbEntity
  8
0
  6
Continuous
 62
     3
100
AcDbLine
 10
511.249937500001
 20
33.4999999999999
 30
0.0
 11
509.917096231346
 21
34.832841268655
 31
0.0
  0
LINE
  5
224
330
1F
100
AcDbEntity
  8
0
  6
Continuous
 62
     3
100
AcDbLine
 10
524.5
 20
40.9999999999999
 30
0.0
 11
526.082903768655
 21
40.0861100830658
 31
0.0
  0
LINE
  5
225
330
1F
100
AcDbEntity
  8
0
  6
Continuous
 62
     3
100
AcDbLine
 10
524.5
 20
40.9999999999999
 30
0.0
 11
518.0
 21
40.9999999999999
 31
0.0
  0
LINE
  5
226
330
1F
100
AcDbEntity
  8
0
  6
Continuous
 62
     3
100
AcDbLine
 10
524.750062499999
 20
33.4999999999999
 30
0.0
 11
518.0
 21
33.4999999999999
 31
0.0
  0
LINE
  5
227
330
1F
100
AcDbEntity
  8
0
  6
Continuous
 62
     3
100
AcDbLine
 10
524.750062499999
 20
33.4999999999999
 30
0.0
 11
526.082903768655
 21
34.832841268655
 31
0.0
  0
LINE
  5
228
330
1F
100
AcDbEntity
  8
0
  6
Continuous
 62
     3
100
AcDbLine
 10
526.082903768655
 20
40.0861100830658
 30
0.0
 11
526.082903768655
 21
34.832841268655
 31
0.0
  0
LINE
  5
229
330
1F
100
AcDbEntity
  8
1
  6
Continuous
 62
     3
100
AcDbLine
 10
235.5
 20
-18.9418635051172
 30
0.0
 11
235.5
 21
-16.4500000000007
 31
0.0
  0
LINE
  5
22A
330
1F
100
AcDbEntity
  8
0
  6
Continuous
 62
     3
100
AcDbLine
 10
253.000000000004
 20
16.450000000001
 30
0.0
 11
235.5
 21
16.450000000001
 31
0.0
  0
LINE
  5
22B
330
1F
100
AcDbEntity
  8
100
  6
Continuous
 62
     3
100
AcDbLine
 10
-13.0000000000012
 20
58.2500137297995
 30
0.0
 11
-13.7500092522011
 21
57.5000044775995
 31
0.0
  0
LINE
  5
22C
330
1F
100
AcDbEntity
  8
100
  6
Continuous
 62
     3
100
AcDbLine
 10
12.9999999999988
 20
58.2500137297995
 30
0.0
 11
13.7500092521988
 21
57.5000044775995
 31
0.0
  0
LINE
  5
22D
330
1F
100
AcDbEntity
  8
1
  6
Continuous
 62
     3
100
AcDbLine
 10
2.99915877805166
 20
74.0000011091995
 30
0.0
 11
20.9999999999988
 21
74.0000011091995
 31
0.0
  0
LINE
  5
22E
330
1F
100
AcDbEntity
  8
100
  6
Continuous
 62
     3
100
AcDbLine
 10
13.7415298027697
 20
72.0000011092902
 30
0.0
 11
13.7415298024942
 21
65.9281235402304
 31
0.0
  0
LINE
  5
22F
330
1F
100
AcDbEntity
  8
100
  6
Continuous
 62
     3
100
AcDbLine
 10
-13.0000000000012
 20
65.5000011091474
 30
0.0
 11
-13.0000000000012
 21
58.2500137297995
 31
0.0
  0
LINE
  5
230
330
1F
100
AcDbEntity
  8
100
  6
Continuous
 62
     3
100
AcDbLine
 10
12.9999999999988
 20
65.5000011091474
 30
0.0
 11
12.9999999999988
 21
58.2500137297995
 31
0.0
  0
LINE
  5
231
330
1F
100
AcDbEntity
  8
100
  6
Continuous
 62
     3
100
AcDbLine
 10
13.7415298026301
 20
65.9281235403089
 30
0.0
 11
12.9999999999988
 21
65.5000011091474
 31
0.0
  0
LINE
  5
232
330
1F
100
AcDbEntity
  8
1
  6
Continuous
 62
     3
100
AcDbLine
 10
-21.0000000000012
 20
74.0000011091995
 30
0.0
 11
-2.99915877805164
 21
74.0000011091995
 31
0.0
  0
LINE
  5
233
330
1F
100
AcDbEntity
  8
1
  6
Continuous
 62
     3
100
AcDbLine
 10
-21.0000000000012
 20
77.0000011091995
 30
0.0
 11
-2.99999999999834
 21
77.0000011091995
 31
0.0
  0
LINE
  5
234
330
1F
100
AcDbEntity
  8
100
  6
Continuous
 62
     3
100
AcDbLine
 10
-13.0000000000012
 20
65.5000011091474
 30
0.0
 11
-13.7415298026328
 21
65.9281235403089
 31
0.0
  0
LINE
  5
235
330
1F
100
AcDbEntity
  8
100
  6
Continuous
 62
     3
100
AcDbLine
 10
-13.7415298024969
 20
65.9281235402304
 30
0.0
 11
-13.741529802772
 21
72.0000011092902
 31
0.0
  0
LINE
  5
236
330
1F
100
AcDbEntity
  8
1
  6
Continuous
 62
     3
100
AcDbLine
 10
12.9999999999988
 20
65.5000011091474
 30
0.0
 11
-13.0000000000012
 21
65.5000011091474
 31
0.0
  0
LINE
  5
237
330
1F
100
AcDbEntity
  8
4
  6
Continuous
 62
     3
100
AcDbLine
 10
-13.7415295442914
 20
71.707197264195
 30
0.0
 11
-13.7415295442914
 21
65.9281235322601
 31
0.0
  0
LINE
  5
238
330
1F
100
AcDbEntity
  8
4
  6
Continuous
 62
     3
100
AcDbLine
 10
8.41903535375265
 20
65.933013802899
 30
0.0
 11
10.5838197136403
 21
65.933013802899
 31
0.0
  0
LINE
  5
239
330
1F
100
AcDbEntity
  8
4
  6
Continuous
 62
     3
100
AcDbLine
 10
-10.5838197136425
 20
65.933013802899
 30
0.0
 11
-8.41903535375535
 21
65.933013802899
 31
0.0
  0
LINE
  5
23A
330
1F
100
AcDbEntity
  8
4
  6
Continuous
 62
     3
100
AcDbLine
 10
8.41903535375265
 20
71.6922493665761
 30
0.0
 11
8.41903535375265
 21
65.933013802899
 31
0.0
  0
LINE
  5
23B
330
1F
100
AcDbEntity
  8
4
  6
Continuous
 62
     3
100
AcDbLine
 10
10.5838197136403
 20
71.6922493452089
 30
0.0
 11
10.5838197136403
 21
65.933013802899
 31
0.0
  0
LINE
  5
23C
330
1F
100
AcDbEntity
  8
4
  6
Continuous
 62
     3
100
AcDbLine
 10
13.74152954429
 20
71.707197264195
 30
0.0
 11
13.74152954429
 21
65.9281235322601
 31
0.0
  0
LINE
  5
23D
330
1F
100
AcDbEntity
  8
4
  6
Continuous
 62
     3
100
AcDbLine
 10
-8.41903535375535
 20
71.6922493665761
 30
0.0
 11
-8.41903535375535
 21
65.933013802899
 31
0.0
  0
LINE
  5
23E
330
1F
100
AcDbEntity
  8
4
  6
Continuous
 62
     3
100
AcDbLine
 10
-10.5838197136425
 20
71.6922493452089
 30
0.0
 11
-10.5838197136425
 21
65.933013802899
 31
0.0
  0
LINE
  5
23F
330
1F
100
AcDbEntity
  8
0
  6
Continuous
 62
     3
100
AcDbLine
 10
-0.00000000000118
 20
129.0000011092
 30
0.0
 11
-0.00000000000118
 21
130.0000011092
 31
0.0
  0
LINE
  5
240
330
1F
100
AcDbEntity
  8
0
  6
Continuous
 62
     3
100
AcDbLine
 10
-12.6285532680492
 20
130.0000011092
 30
0.0
 11
-0.00000000000118
 21
130.0000011092
 31
0.0
  0
LINE
  5
241
330
1F
100
AcDbEntity
  8
0
  6
Continuous
 62
     3
100
AcDbLine
 10
-0.00000000000118
 20
129.0000011092
 30
0.0
 11
-0.00000000000118
 21
120.896563049491
 31
0.0
  0
LINE
  5
242
330
1F
100
AcDbEntity
  8
0
  6
Continuous
 62
     3
100
AcDbLine
 10
-13.3939201327791
 20
129.0000011092
 30
0.0
 11
-0.00000000000118
 21
129.0000011092
 31
0.0
  0
LINE
  5
243
330
1F
100
AcDbEntity
  8
0
  6
Continuous
 62
     3
100
AcDbLine
 10
-13.3939201327791
 20
129.0000011092
 30
0.0
 11
-13.3939201327674
 21
115.342824363085
 31
0.0
  0
LINE
  5
244
330
1F
100
AcDbEntity
  8
0
  6
Continuous
 62
     3
100
AcDbLine
 10
15.7499999999988
 20
113.500001109202
 30
0.0
 11
15.7499999999988
 21
110.250004359497
 31
0.0
  0
LINE
  5
245
330
1F
100
AcDbEntity
  8
0
  6
Continuous
 62
     3
100
AcDbLine
 10
15.7499999999988
 20
110.250004359497
 30
0.0
 11
17.4999957118596
 21
108.499998937603
 31
0.0
  0
LINE
  5
246
330
1F
100
AcDbEntity
  8
0
  6
Continuous
 62
     3
100
AcDbLine
 10
17.4999957118596
 20
108.499998937603
 30
0.0
 11
17.5000009675433
 21
104.000001766082
 31
0.0
  0
LINE
  5
247
330
1F
100
AcDbEntity
  8
0
  6
Continuous
 62
     3
100
AcDbLine
 10
-15.7500000000012
 20
113.5000011092
 30
0.0
 11
-15.7500000000012
 21
110.249997865174
 31
0.0
  0
LINE
  5
248
330
1F
100
AcDbEntity
  8
0
  6
Continuous
 62
     3
100
AcDbLine
 10
20.9999999999988
 20
74.0000011091995
 30
0.0
 11
20.9999999999988
 21
100.499993027871
 31
0.0
  0
LINE
  5
249
330
1F
100
AcDbEntity
  8
0
  6
Continuous
 62
     3
100
AcDbLine
 10
17.8594713048236
 20
130.0000011092
 30
0.0
 11
18.9418635051158
 21
129.0000011092
 31
0.0
  0
LINE
  5
24A
330
1F
100
AcDbEntity
  8
0
  6
Continuous
 62
     3
100
AcDbLine
 10
15.7499999999988
 20
113.500001109202
 30
0.0
 11
18.9418635051076
 21
115.342824363085
 31
0.0
  0
LINE
  5
24B
330
1F
100
AcDbEntity
  8
0
  6
Continuous
 62
     3
100
AcDbLine
 10
13.3939201327768
 20
129.0000011092
 30
0.0
 11
18.9418635051158
 21
129.0000011092
 31
0.0
  0
LINE
  5
24C
330
1F
100
AcDbEntity
  8
0
  6
Continuous
 62
     3
100
AcDbLine
 10
18.9418635051158
 20
129.0000011092
 30
0.0
 11
18.9418635051076
 21
115.342824363085
 31
0.0
  0
LINE
  5
24D
330
1F
100
AcDbEntity
  8
0
  6
Continuous
 62
     3
100
AcDbLine
 10
13.3939201327768
 20
129.0000011092
 30
0.0
 11
13.3939201335517
 21
115.342824362648
 31
0.0
  0
LINE
  5
24E
330
1F
100
AcDbEntity
  8
0
  6
Continuous
 62
     3
100
AcDbLine
 10
12.6285532680469
 20
130.0000011092
 30
0.0
 11
17.8594713048236
 21
130.0000011092
 31
0.0
  0
LINE
  5
24F
330
1F
100
AcDbEntity
  8
0
  6
Continuous
 62
     3
100
AcDbLine
 10
12.6285532680469
 20
130.0000011092
 30
0.0
 11
13.3939201327768
 21
129.0000011092
 31
0.0
  0
LINE
  5
250
330
1F
100
AcDbEntity
  8
0
  6
Continuous
 62
     3
100
AcDbLine
 10
-17.4999990343108
 20
104.000000453584
 30
0.0
 11
-21.0000000000012
 21
100.500009174983
 31
0.0
  0
LINE
  5
251
330
1F
100
AcDbEntity
  8
0
  6
Continuous
 62
     3
100
AcDbLine
 10
-17.8594713048258
 20
130.0000011092
 30
0.0
 11
-18.9418635051182
 21
129.0000011092
 31
0.0
  0
LINE
  5
252
330
1F
100
AcDbEntity
  8
0
  6
Continuous
 62
     3
100
AcDbLine
 10
-12.6285532680492
 20
130.0000011092
 30
0.0
 11
-13.3939201327791
 21
129.0000011092
 31
0.0
  0
LINE
  5
253
330
1F
100
AcDbEntity
  8
0
  6
Continuous
 62
     3
100
AcDbLine
 10
-18.9418635051182
 20
129.0000011092
 30
0.0
 11
-18.9418635051182
 21
115.342824363095
 31
0.0
  0
LINE
  5
254
330
1F
100
AcDbEntity
  8
0
  6
Continuous
 62
     3
100
AcDbLine
 10
-15.7500000000012
 20
113.5000011092
 30
0.0
 11
-18.9418635051182
 21
115.342824363095
 31
0.0
  0
LINE
  5
255
330
1F
100
AcDbEntity
  8
0
  6
Continuous
 62
     3
100
AcDbLine
 10
-18.9418635051182
 20
129.0000011092
 30
0.0
 11
-13.3939201327791
 21
129.0000011092
 31
0.0
  0
LINE
  5
256
330
1F
100
AcDbEntity
  8
0
  6
Continuous
 62
     3
100
AcDbLine
 10
-17.8594713048258
 20
130.0000011092
 30
0.0
 11
-12.6285532680492
 21
130.0000011092
 31
0.0
  0
LINE
  5
257
330
1F
100
AcDbEntity
  8
0
  6
Continuous
 62
     3
100
AcDbLine
 10
-17.5000042799216
 20
108.5000032766
 30
0.0
 11
-17.4999990343108
 21
104.000000453584
 31
0.0
  0
LINE
  5
258
330
1F
100
AcDbEntity
  8
0
  6
Continuous
 62
     3
100
AcDbLine
 10
-15.7500000000012
 20
110.249997865174
 30
0.0
 11
-17.5000042799216
 21
108.5000032766
 31
0.0
  0
LINE
  5
259
330
1F
100
AcDbEntity
  8
0
  6
Continuous
 62
     3
100
AcDbLine
 10
-0.00000000000118
 20
130.0000011092
 30
0.0
 11
12.6285532680469
 21
130.0000011092
 31
0.0
  0
LINE
  5
25A
330
1F
100
AcDbEntity
  8
0
  6
Continuous
 62
     3
100
AcDbLine
 10
-0.00000000000118
 20
129.0000011092
 30
0.0
 11
13.3939201327768
 21
129.0000011092
 31
0.0
  0
LINE
  5
25B
330
1F
100
AcDbEntity
  8
0
  6
Continuous
 62
     3
100
AcDbLine
 10
-21.0000000000012
 20
74.0000011091995
 30
0.0
 11
-21.0000000000012
 21
100.500009174983
 31
0.0
  0
LINE
  5
25C
330
1F
100
AcDbEntity
  8
0
  6
Continuous
 62
     3
100
AcDbLine
 10
20.4999999999988
 20
77.0000011091995
 30
0.0
 11
2.99999999999842
 21
77.0000011091995
 31
0.0
  0
LINE
  5
25D
330
1F
100
AcDbEntity
  8
5
  6
Continuous
 62
     3
100
AcDbLine
 10
2.50531410741424
 20
93.5005581983057
 30
0.0
 11
2.50531410741424
 21
92.5005582171059
 31
0.0
  0
LINE
  5
25E
330
1F
100
AcDbEntity
  8
5
  6
Continuous
 62
     3
100
AcDbLine
 10
-2.49468579858534
 20
93.5005581983057
 30
0.0
 11
-2.49468579858534
 21
92.5005582171059
 31
0.0
  0
LINE
  5
25F
330
1F
100
AcDbEntity
  8
5
  6
Continuous
 62
     3
100
AcDbLine
 10
-0.49468583618527
 20
95.5005581607059
 30
0.0
 11
0.50531414501462
 21
95.5005581607059
 31
0.0
  0
LINE
  5
260
330
1F
100
AcDbEntity
  8
5
  6
Continuous
 62
     3
100
AcDbLine
 10
-0.49468583618527
 20
90.5005582547058
 30
0.0
 11
0.50531414501462
 21
90.5005582547058
 31
0.0
  0
LINE
  5
261
330
1F
100
AcDbEntity
  8
5
  6
Continuous
 62
     3
100
AcDbLine
 10
-2.49468579858534
 20
92.5005582171059
 30
0.0
 11
-1.49468581738556
 21
92.5005582171059
 31
0.0
  0
LINE
  5
262
330
1F
100
AcDbEntity
  8
5
  6
Continuous
 62
     3
100
AcDbLine
 10
-2.49468579858534
 20
93.5005581983057
 30
0.0
 11
-1.49468581738556
 21
93.5005581983057
 31
0.0
  0
LINE
  5
263
330
1F
100
AcDbEntity
  8
5
  6
Continuous
 62
     3
100
AcDbLine
 10
0.50531414501462
 20
94.5005581795058
 30
0.0
 11
0.50531414501462
 21
95.5005581607059
 31
0.0
  0
LINE
  5
264
330
1F
100
AcDbEntity
  8
5
  6
Continuous
 62
     3
100
AcDbLine
 10
0.50531414501462
 20
90.5005582547058
 30
0.0
 11
0.50531414501462
 21
91.5005582359056
 31
0.0
  0
LINE
  5
265
330
1F
100
AcDbEntity
  8
5
  6
Continuous
 62
     3
100
AcDbLine
 10
-0.49468583618527
 20
94.5005581795058
 30
0.0
 11
-0.49468583618527
 21
95.5005581607059
 31
0.0
  0
LINE
  5
266
330
1F
100
AcDbEntity
  8
5
  6
Continuous
 62
     3
100
AcDbLine
 10
-0.49468583618527
 20
90.5005582547058
 30
0.0
 11
-0.49468583618527
 21
91.5005582359056
 31
0.0
  0
LINE
  5
267
330
1F
100
AcDbEntity
  8
5
  6
Continuous
 62
     3
100
AcDbLine
 10
1.50531412621446
 20
93.5005581983057
 30
0.0
 11
2.50531410741424
 21
93.5005581983057
 31
0.0
  0
LINE
  5
268
330
1F
100
AcDbEntity
  8
5
  6
Continuous
 62
     3
100
AcDbLine
 10
1.50531412621446
 20
92.5005582171059
 30
0.0
 11
2.50531410741424
 21
92.5005582171059
 31
0.0
  0
LINE
  5
269
330
1F
100
AcDbEntity
  8
0
  6
Continuous
 62
     3
100
AcDbLine
 10
0.99999999999842
 20
120.896563049491
 30
0.0
 11
-0.99999999999834
 21
120.896563049491
 31
0.0
  0
LINE
  5
26A
330
1F
100
AcDbEntity
  8
0
  6
Continuous
 62
     3
100
AcDbLine
 10
2.99999999999842
 20
105.631806205883
 30
0.0
 11
2.99999999999842
 21
118.896563049491
 31
0.0
  0
LINE
  5
26B
330
1F
100
AcDbEntity
  8
0
  6
Continuous
 62
     3
100
AcDbLine
 10
-2.99999999999834
 20
80.3681960134263
 30
0.0
 11
-2.99999999999834
 21
67.6034391689138
 31
0.0
  0
LINE
  5
26C
330
1F
100
AcDbEntity
  8
0
  6
Continuous
 62
     3
100
AcDbLine
 10
2.99999999999842
 20
67.6034391689138
 30
0.0
 11
2.99999999999842
 21
80.3681960134457
 31
0.0
  0
LINE
  5
26D
330
1F
100
AcDbEntity
  8
0
  6
Continuous
 62
     3
100
AcDbLine
 10
-2.99999999999834
 20
118.896563049491
 30
0.0
 11
-2.99999999999834
 21
105.631806204973
 31
0.0
  0
LINE
  5
26E
330
1F
100
AcDbEntity
  8
0
  6
Continuous
 62
     3
100
AcDbLine
 10
-0.99999999999834
 20
65.6034391689138
 30
0.0
 11
0.99999999999842
 21
65.6034391689138
 31
0.0
  0
LINE
  5
26F
330
1F
100
AcDbEntity
  8
0
  6
DOT_CENTER
 62
     1
100
AcDbLine
 10
15.7499999768035
 20
92.9992319992384
 30
0.0
 11
-15.7499999768059
 21
92.9992319992384
 31
0.0
  0
LINE
  5
270
330
1F
100
AcDbEntity
  8
1
  6
Continuous
 62
     3
100
AcDbLine
 10
-19.0000000000004
 20
41.0000048911995
 30
0.0
 11
18.9999999999996
 21
41.0000048911995
 31
0.0
  0
LINE
  5
271
330
1F
100
AcDbEntity
  8
1
  6
Continuous
 62
     3
100
AcDbLine
 10
18.9999999999996
 20
52.0000044775995
 30
0.0
 11
-19.0000000000004
 21
52.0000044775995
 31
0.0
  0
LINE
  5
272
330
1F
100
AcDbEntity
  8
1
  6
Continuous
 62
     3
100
AcDbLine
 10
-19.0000000000004
 20
41.0000048911995
 30
0.0
 11
-19.0000000000004
 21
35.5000048911995
 31
0.0
  0
LINE
  5
273
330
1F
100
AcDbEntity
  8
1
  6
Continuous
 62
     3
100
AcDbLine
 10
18.9999999999996
 20
35.5000048911995
 30
0.0
 11
-0.00000000000044
 21
35.5000048911995
 31
0.0
  0
LINE
  5
274
330
1F
100
AcDbEntity
  8
1
  6
Continuous
 62
     3
100
AcDbLine
 10
-19.0000000000004
 20
52.0000044775995
 30
0.0
 11
-19.0000000000004
 21
57.5000044775995
 31
0.0
  0
LINE
  5
275
330
1F
100
AcDbEntity
  8
1
  6
Continuous
 62
     3
100
AcDbLine
 10
18.9999999999996
 20
52.0000044775995
 30
0.0
 11
18.9999999999996
 21
57.5000044775995
 31
0.0
  0
LINE
  5
276
330
1F
100
AcDbEntity
  8
1
  6
Continuous
 62
     3
100
AcDbLine
 10
18.9999999999996
 20
41.0000048911995
 30
0.0
 11
18.9999999999996
 21
35.5000048911995
 31
0.0
  0
LINE
  5
277
330
1F
100
AcDbEntity
  8
1
  6
Continuous
 62
     3
100
AcDbLine
 10
18.9999999999996
 20
52.0000044775995
 30
0.0
 11
21.9393102292052
 21
50.3029929255358
 31
0.0
  0
LINE
  5
278
330
1F
100
AcDbEntity
  8
1
  6
Continuous
 62
     3
100
AcDbLine
 10
-19.0000000000004
 20
41.0000048911995
 30
0.0
 11
-21.939310229206
 21
42.6970164432635
 31
0.0
  0
LINE
  5
279
330
1F
100
AcDbEntity
  8
1
  6
Continuous
 62
     3
100
AcDbLine
 10
-19.0000000000004
 20
52.0000044775995
 30
0.0
 11
-21.939310229206
 21
50.3029929255358
 31
0.0
  0
LINE
  5
27A
330
1F
100
AcDbEntity
  8
1
  6
Continuous
 62
     3
100
AcDbLine
 10
18.9999999999996
 20
41.0000048911995
 30
0.0
 11
21.9393102292052
 21
42.6970164432635
 31
0.0
  0
LINE
  5
27B
330
1F
100
AcDbEntity
  8
1
  6
Continuous
 62
     3
100
AcDbLine
 10
-10.9696551146035
 20
42.6970164432635
 30
0.0
 11
-10.9696551146035
 21
50.3029929255358
 31
0.0
  0
LINE
  5
27C
330
1F
100
AcDbEntity
  8
1
  6
Continuous
 62
     3
100
AcDbLine
 10
10.9696551146026
 20
42.6970164432635
 30
0.0
 11
10.9696551146026
 21
50.3029929255358
 31
0.0
  0
LINE
  5
27D
330
1F
100
AcDbEntity
  8
1
  6
Continuous
 62
     3
100
AcDbLine
 10
-21.939310229206
 20
42.6970164432635
 30
0.0
 11
-21.939310229206
 21
50.3029929255358
 31
0.0
  0
LINE
  5
27E
330
1F
100
AcDbEntity
  8
1
  6
Continuous
 62
     3
100
AcDbLine
 10
21.9393102292052
 20
42.6970164432635
 30
0.0
 11
21.9393102292052
 21
50.3029929255358
 31
0.0
  0
LINE
  5
27F
330
1F
100
AcDbEntity
  8
2
  6
Continuous
 62
     3
100
AcDbLine
 10
-19.0000000000004
 20
57.5000044775995
 30
0.0
 11
18.9999999999996
 21
57.5000044775995
 31
0.0
  0
LINE
  5
280
330
1F
100
AcDbEntity
  8
1
  6
Continuous
 62
     3
100
AcDbLine
 10
-0.00000000000044
 20
35.5000048911995
 30
0.0
 11
-19.0000000000004
 21
35.5000048911995
 31
0.0
  0
LINE
  5
281
330
1F
100
AcDbEntity
  8
0
  6
Continuous
 62
     3
100
AcDbLine
 10
90.2674041044242
 20
-32.0697989934049
 30
0.0
 11
90.6190492339017
 21
-22.0
 31
0.0
  0
LINE
  5
282
330
1F
100
AcDbEntity
  8
0
  6
Continuous
 62
     3
100
AcDbLine
 10
88.2686224503859
 20
-34.0
 30
0.0
 11
82.1313775496142
 21
-34.0
 31
0.0
  0
LINE
  5
283
330
1F
100
AcDbEntity
  8
0
  6
Continuous
 62
     3
100
AcDbLine
 10
80.1325958955763
 20
-32.0697989934049
 30
0.0
 11
79.7809507660994
 21
-22.0
 31
0.0
  0
LINE
  5
284
330
1F
100
AcDbEntity
  8
0
  6
Continuous
 62
     3
100
AcDbLine
 10
90.6190492339017
 20
22.0
 30
0.0
 11
90.2674041044242
 21
32.0697989934049
 31
0.0
  0
LINE
  5
285
330
1F
100
AcDbEntity
  8
0
  6
Continuous
 62
     3
100
AcDbLine
 10
82.1313775496142
 20
34.0
 30
0.0
 11
88.2686224503859
 21
34.0
 31
0.0
  0
LINE
  5
286
330
1F
100
AcDbEntity
  8
0
  6
Continuous
 62
     3
100
AcDbLine
 10
79.7809507660994
 20
22.0
 30
0.0
 11
80.1325958955763
 21
32.0697989934049
 31
0.0
  0
LINE
  5
287
330
1F
100
AcDbEntity
  8
1
  6
Continuous
 62
     3
100
AcDbLine
 10
91.7000000000003
 20
-22.0
 30
0.0
 11
78.7000000000003
 21
-22.0
 31
0.0
  0
LINE
  5
288
330
1F
100
AcDbEntity
  8
1
  6
Continuous
 62
     3
100
AcDbLine
 10
78.7000000000003
 20
22.0
 30
0.0
 11
91.7000000000003
 21
22.0
 31
0.0
  0
LINE
  5
289
330
1F
100
AcDbEntity
  8
0
  6
Continuous
 62
     3
100
AcDbLine
 10
78.7000000000003
 20
22.0
 30
0.0
 11
78.7000000000003
 21
17.9500000000003
 31
0.0
  0
LINE
  5
28A
330
1F
100
AcDbEntity
  8
0
  6
Continuous
 62
     3
100
AcDbLine
 10
91.7000000000003
 20
-22.0
 30
0.0
 11
91.7000000000003
 21
22.0
 31
0.0
  0
LINE
  5
28B
330
1F
100
AcDbEntity
  8
0
  6
Continuous
 62
     3
100
AcDbLine
 10
78.7000000000003
 20
17.9500000000003
 30
0.0
 11
78.7000000000003
 21
-22.0
 31
0.0
  0
LINE
  5
28C
330
1F
100
AcDbEntity
  8
0
  6
Continuous
 62
     3
100
AcDbLine
 10
78.7000000000003
 20
17.9500000000003
 30
0.0
 11
78.5
 21
17.9500000000003
 31
0.0
  0
LINE
  5
28D
330
1F
100
AcDbEntity
  8
1
  6
Continuous
 62
     3
100
AcDbLine
 10
98.2000000000004
 20
-22.0
 30
0.0
 11
111.2
 21
-22.0
 31
0.0
  0
LINE
  5
28E
330
1F
100
AcDbEntity
  8
1
  6
Continuous
 62
     3
100
AcDbLine
 10
98.2000000000004
 20
-18.5
 30
0.0
 11
98.2000000000004
 21
-22.0
 31
0.0
  0
LINE
  5
28F
330
1F
100
AcDbEntity
  8
1
  6
Continuous
 62
     3
100
AcDbLine
 10
97.2000000000004
 20
19.0
 30
0.0
 11
97.2000000000004
 21
13.2499999999999
 31
0.0
  0
LINE
  5
290
330
1F
100
AcDbEntity
  8
1
  6
Continuous
 62
     3
100
AcDbLine
 10
111.2
 20
-4.0
 30
0.0
 11
111.2
 21
-13.7500000000007
 31
0.0
  0
LINE
  5
291
330
1F
100
AcDbEntity
  8
1
  6
Continuous
 62
     3
100
AcDbLine
 10
97.2000000000004
 20
-4.0
 30
0.0
 11
111.2
 21
-4.0
 31
0.0
  0
LINE
  5
292
330
1F
100
AcDbEntity
  8
1
  6
Continuous
 62
     3
100
AcDbLine
 10
97.2000000000004
 20
19.0
 30
0.0
 11
91.7000000000003
 21
19.0
 31
0.0
  0
LINE
  5
293
330
1F
100
AcDbEntity
  8
1
  6
Continuous
 62
     3
100
AcDbLine
 10
111.2
 20
-18.5
 30
0.0
 11
91.7000000000003
 21
-18.5
 31
0.0
  0
LINE
  5
294
330
1F
100
AcDbEntity
  8
1
  6
Continuous
 62
     3
100
AcDbLine
 10
97.2000000000004
 20
13.2499999999999
 30
0.0
 11
97.2000000000004
 21
-18.5
 31
0.0
  0
LINE
  5
295
330
1F
100
AcDbEntity
  8
1
  6
Continuous
 62
     3
100
AcDbLine
 10
111.2
 20
-18.5
 30
0.0
 11
111.2
 21
-22.0
 31
0.0
  0
LINE
  5
296
330
1F
100
AcDbEntity
  8
1
  6
Continuous
 62
     3
100
AcDbLine
 10
111.2
 20
-13.7500000000007
 30
0.0
 11
111.2
 21
-18.5
 31
0.0
  0
LINE
  5
297
330
1F
100
AcDbEntity
  8
1
  6
Continuous
 62
     3
100
AcDbLine
 10
214.749937499999
 20
33.4999999999999
 30
0.0
 11
228.2500625
 21
33.4999999999999
 31
0.0
  0
LINE
  5
298
330
1F
100
AcDbEntity
  8
1
  6
Continuous
 62
     3
100
AcDbLine
 10
214.798921178473
 20
31.9325222888641
 30
0.0
 11
228.201078821527
 21
31.9325222888641
 31
0.0
  0
LINE
  5
299
330
1F
100
AcDbEntity
  8
1
  6
Continuous
 62
     3
100
AcDbLine
 10
213.417096231344
 20
34.832841268655
 30
0.0
 11
214.749937499999
 21
33.4999999999999
 31
0.0
  0
LINE
  5
29A
330
1F
100
AcDbEntity
  8
1
  6
Continuous
 62
     3
100
AcDbLine
 10
215.654921178473
 20
31.9325222888641
 30
0.0
 11
214.749937499999
 21
33.4999999999999
 31
0.0
  0
LINE
  5
29B
330
1F
100
AcDbEntity
  8
1
  6
Continuous
 62
     3
100
AcDbLine
 10
228.2500625
 20
33.4999999999999
 30
0.0
 11
227.345078821527
 21
31.9325222888641
 31
0.0
  0
LINE
  5
29C
330
1F
100
AcDbEntity
  8
1
  6
Continuous
 62
     3
100
AcDbLine
 10
228.2500625
 20
33.4999999999999
 30
0.0
 11
229.582903768655
 21
34.832841268655
 31
0.0
  0
LINE
  5
29D
330
1F
100
AcDbEntity
  8
1
  6
Continuous
 62
     3
100
AcDbLine
 10
217.458548115672
 20
34.8487787686548
 30
0.0
 11
217.458548115672
 21
40.0861100830638
 31
0.0
  0
LINE
  5
29E
330
1F
100
AcDbEntity
  8
1
  6
Continuous
 62
     3
100
AcDbLine
 10
225.541451884327
 20
34.848778768658
 30
0.0
 11
225.541451884327
 21
40.086110083073
 31
0.0
  0
LINE
  5
29F
330
1F
100
AcDbEntity
  8
1
  6
Continuous
 62
     3
100
AcDbLine
 10
215.0
 20
40.9999999999999
 30
0.0
 11
213.417096231344
 21
40.0861100830656
 31
0.0
  0
LINE
  5
2A0
330
1F
100
AcDbEntity
  8
1
  6
Continuous
 62
     3
100
AcDbLine
 10
228.0
 20
40.9999999999999
 30
0.0
 11
229.582903768655
 21
40.0861100830656
 31
0.0
  0
LINE
  5
2A1
330
1F
100
AcDbEntity
  8
1
  6
Continuous
 62
     3
100
AcDbLine
 10
213.417096231344
 20
34.832841268655
 30
0.0
 11
213.417096231344
 21
40.0861100830656
 31
0.0
  0
LINE
  5
2A2
330
1F
100
AcDbEntity
  8
1
  6
Continuous
 62
     3
100
AcDbLine
 10
229.582903768655
 20
34.832841268655
 30
0.0
 11
229.582903768655
 21
40.0861100830656
 31
0.0
  0
LINE
  5
2A3
330
1F
100
AcDbEntity
  8
1
  6
Continuous
 62
     3
100
AcDbLine
 10
228.0
 20
40.9999999999999
 30
0.0
 11
215.0
 21
40.9999999999999
 31
0.0
  0
LINE
  5
2A4
330
1F
100
AcDbEntity
  8
1
  6
Continuous
 62
     3
100
AcDbLine
 10
228.1094375
 20
29.0
 30
0.0
 11
228.2500625
 21
33.4999999999999
 31
0.0
  0
LINE
  5
2A5
330
1F
100
AcDbEntity
  8
1
  6
Continuous
 62
     3
100
AcDbLine
 10
227.345078821527
 20
31.9325222888641
 30
0.0
 11
227.2534375
 21
29.0
 31
0.0
  0
LINE
  5
2A6
330
1F
100
AcDbEntity
  8
1
  6
Continuous
 62
     3
100
AcDbLine
 10
215.7465625
 20
29.0
 30
0.0
 11
215.654921178473
 21
31.9325222888641
 31
0.0
  0
LINE
  5
2A7
330
1F
100
AcDbEntity
  8
1
  6
Continuous
 62
     3
100
AcDbLine
 10
214.749937499999
 20
33.4999999999999
 30
0.0
 11
214.8905625
 21
29.0
 31
0.0
  0
LINE
  5
2A8
330
1F
100
AcDbEntity
  8
1
  6
DOT_CENTER
 62
     1
100
AcDbLine
 10
221.5
 20
43.9999999999999
 30
0.0
 11
221.5
 21
19.0
 31
0.0
  0
LINE
  5
2A9
330
1F
100
AcDbEntity
  8
0
  6
Continuous
 62
     3
100
AcDbLine
 10
12.8786796564401
 20
31.4286796564384
 30
0.0
 11
16.4500000000011
 21
35.0
 31
0.0
  0
LINE
  5
2AA
330
1F
100
AcDbEntity
  8
0
  6
Continuous
 62
     3
100
AcDbLine
 10
-16.4500000000012
 20
35.0
 30
0.0
 11
-16.4500000000012
 21
35.5000048911995
 31
0.0
  0
LINE
  5
2AB
330
1F
100
AcDbEntity
  8
0
  6
Continuous
 62
     3
100
AcDbLine
 10
16.4500000000011
 20
35.0
 30
0.0
 11
16.4500000000011
 21
35.4999922705997
 31
0.0
  0
LINE
  5
2AC
330
1F
100
AcDbEntity
  8
0
  6
Continuous
 62
     3
100
AcDbLine
 10
-12.8786796564402
 20
31.4286796564384
 30
0.0
 11
-16.4500000000012
 21
35.0
 31
0.0
  0
LINE
  5
2AD
330
1F
100
AcDbEntity
  8
1
  6
Continuous
 62
     3
100
AcDbLine
 10
237.240539721526
 20
-16.4500000000007
 30
0.0
 11
239.5
 21
-15.1455000000001
 31
0.0
  0
LINE
  5
2AE
330
1F
100
AcDbEntity
  8
1
  6
Continuous
 62
     3
100
AcDbLine
 10
239.5
 20
-16.450000000001
 30
0.0
 11
239.5
 21
0.0
 31
0.0
  0
LINE
  5
2AF
330
1F
100
AcDbEntity
  8
1
  6
Continuous
 62
     3
100
AcDbLine
 10
239.5
 20
-15.1455000000001
 30
0.0
 11
254.304500000002
 21
-15.1455000000001
 31
0.0
  0
LINE
  5
2B0
330
1F
100
AcDbEntity
  8
1
  6
Continuous
 62
     3
100
AcDbLine
 10
239.5
 20
16.450000000001
 30
0.0
 11
239.5
 21
0.0
 31
0.0
  0
LINE
  5
2B1
330
1F
100
AcDbEntity
  8
1
  6
Continuous
 62
     3
100
AcDbLine
 10
237.240539721525
 20
16.450000000001
 30
0.0
 11
239.5
 21
15.1455000000001
 31
0.0
  0
LINE
  5
2B2
330
1F
100
AcDbEntity
  8
1
  6
Continuous
 62
     3
100
AcDbLine
 10
239.5
 20
15.1455000000001
 30
0.0
 11
254.304500000002
 21
15.1455000000001
 31
0.0
  0
LINE
  5
2B3
330
1F
100
AcDbEntity
  8
0
  6
Continuous
 62
     3
100
AcDbLine
 10
218.535906300149
 20
-32.9068450873351
 30
0.0
 11
218.535906300149
 21
-39.7854803533337
 31
0.0
  0
LINE
  5
2B4
330
1F
100
AcDbEntity
  8
0
  6
Continuous
 62
     3
100
AcDbLine
 10
219.792893303687
 20
-22.0710068476469
 30
0.0
 11
219.792893218814
 21
17.4452858996237
 31
0.0
  0
LINE
  5
2B5
330
1F
100
AcDbEntity
  8
0
  6
Continuous
 62
     3
100
AcDbLine
 10
223.828427124747
 20
-18.7436666787069
 30
0.0
 11
223.828427124747
 21
17.0367610141161
 31
0.0
  0
LINE
  5
2B6
330
1F
100
AcDbEntity
  8
0
  6
Continuous
 62
     3
100
AcDbLine
 10
203.0
 20
-31.9999533776918
 30
0.0
 11
203.0
 21
-39.9999999999998
 31
0.0
  0
LINE
  5
2B7
330
1F
100
AcDbEntity
  8
0
  6
Continuous
 62
     3
100
AcDbLine
 10
212.914213562373
 20
-16.0593987327466
 30
0.0
 11
212.914213562373
 21
20.37250808304
 31
0.0
  0
LINE
  5
2B8
330
1F
100
AcDbEntity
  8
0
  6
Continuous
 62
     3
100
AcDbLine
 10
231.5
 20
29.0
 30
0.0
 11
211.499989377529
 21
29.0
 31
0.0
  0
LINE
  5
2B9
330
1F
100
AcDbEntity
  8
0
  6
Continuous
 62
     3
100
AcDbLine
 10
231.5
 20
29.0
 30
0.0
 11
231.5
 21
18.9418635307134
 31
0.0
  0
LINE
  5
2BA
330
1F
100
AcDbEntity
  8
0
  6
Continuous
 62
     3
100
AcDbLine
 10
211.499989377529
 20
29.0
 30
0.0
 11
211.500037214359
 21
22.49995712374
 31
0.0
  0
LINE
  5
2BB
330
1F
100
AcDbEntity
  8
0
  6
Continuous
 62
     3
100
AcDbLine
 10
201.5
 20
22.500007232558
 30
0.0
 11
211.500037214359
 21
22.49995712374
 31
0.0
  0
LINE
  5
2BC
330
1F
100
AcDbEntity
  8
0
  6
Continuous
 62
     3
100
AcDbLine
 10
254.5
 20
14.9500000000003
 30
0.0
 11
253.000000000004
 21
16.450000000001
 31
0.0
  0
LINE
  5
2BD
330
1F
100
AcDbEntity
  8
0
  6
Continuous
 62
     3
100
AcDbLine
 10
204.5
 20
-30.5001048755644
 30
0.0
 11
204.5
 21
-22.4999999999998
 31
0.0
  0
LINE
  5
2BE
330
1F
100
AcDbEntity
  8
0
  6
Continuous
 62
     3
100
AcDbLine
 10
217.101899318018
 20
-31.2757286867416
 30
0.0
 11
217.101899318018
 21
-23.3496613118016
 31
0.0
  0
LINE
  5
2BF
330
1F
100
AcDbEntity
  8
0
  6
Continuous
 62
     3
100
AcDbLine
 10
253.000000000004
 20
-16.4500000000007
 30
0.0
 11
235.5
 21
-16.4500000000007
 31
0.0
  0
LINE
  5
2C0
330
1F
100
AcDbEntity
  8
0
  6
Continuous
 62
     3
100
AcDbLine
 10
254.5
 20
-14.9500000000001
 30
0.0
 11
253.000000000004
 21
-16.4500000000007
 31
0.0
  0
LINE
  5
2C1
330
1F
100
AcDbEntity
  8
0
  6
Continuous
 62
     3
100
AcDbLine
 10
254.5
 20
-14.9500000000001
 30
0.0
 11
254.5
 21
14.9500000000003
 31
0.0
  0
LINE
  5
2C2
330
1F
100
AcDbEntity
  8
0
  6
Continuous
 62
     3
100
AcDbLine
 10
234.500005898636
 20
-32.001957365183
 30
0.0
 11
234.5
 21
-39.9999999999998
 31
0.0
  0
LINE
  5
2C3
330
1F
100
AcDbEntity
  8
0
  6
Continuous
 62
     3
100
AcDbLine
 10
233.584264813656
 20
-17.4093644630711
 30
0.0
 11
233.58425513053
 21
17.4093656853406
 31
0.0
  0
LINE
  5
2C4
330
1F
100
AcDbEntity
  8
0
  6
Continuous
 62
     3
100
AcDbLine
 10
232.9999991658
 20
-18.9418635051165
 30
0.0
 11
233.000008070715
 21
-30.4961801723059
 31
0.0
  0
LINE
  5
2C5
330
1F
100
AcDbEntity
  8
0
  6
Continuous
 62
     3
100
AcDbLine
 10
220.098879212036
 20
-31.1086012332521
 30
0.0
 11
220.098879212036
 21
-23.6235571030718
 31
0.0
  0
LINE
  5
2C6
330
1F
100
AcDbEntity
  8
0
  6
Continuous
 62
     3
100
AcDbLine
 10
235.5
 20
-18.9418635051172
 30
0.0
 11
232.9999991658
 21
-18.9418635051165
 31
0.0
  0
LINE
  5
2C7
330
1F
100
AcDbEntity
  8
0
  6
Continuous
 62
     3
100
AcDbLine
 10
253.000000000004
 20
-16.4500000000007
 30
0.0
 11
253.000000000004
 21
16.450000000001
 31
0.0
  0
LINE
  5
2C8
330
1F
100
AcDbEntity
  8
0
  6
Continuous
 62
     3
100
AcDbLine
 10
235.5
 20
16.450000000001
 30
0.0
 11
235.5
 21
18.9418635307125
 31
0.0
  0
LINE
  5
2C9
330
1F
100
AcDbEntity
  8
0
  6
Continuous
 62
     3
100
AcDbLine
 10
235.5
 20
18.9418635307125
 30
0.0
 11
231.5
 21
18.9418635307134
 31
0.0
  0
LINE
  5
2CA
330
1F
100
AcDbEntity
  8
1
  6
Continuous
 62
     4
100
AcDbLine
 10
185.8205
 20
13.2204999999999
 30
0.0
 11
185.8205
 21
0.0
 31
0.0
  0
LINE
  5
2CB
330
1F
100
AcDbEntity
  8
1
  6
Continuous
 62
     4
100
AcDbLine
 10
105.618941869331
 20
13.2204999999999
 30
0.0
 11
105.618941869331
 21
-4.0
 31
0.0
  0
LINE
  5
2CC
330
1F
100
AcDbEntity
  8
5
  6
Continuous
 62
     4
100
AcDbLine
 10
108.100000000001
 20
57.0000000000005
 30
0.0
 11
108.100000000001
 21
69.0000000000005
 31
0.0
  0
LINE
  5
2CD
330
1F
100
AcDbEntity
  8
5
  6
Continuous
 62
     4
100
AcDbLine
 10
108.100000000001
 20
69.0000000000005
 30
0.0
 11
184.100000000001
 21
69.0000000000005
 31
0.0
  0
LINE
  5
2CE
330
1F
100
AcDbEntity
  8
5
  6
Continuous
 62
     4
100
AcDbLine
 10
184.100000000001
 20
69.0000000000005
 30
0.0
 11
184.100000000001
 21
64.0000000000005
 31
0.0
  0
LINE
  5
2CF
330
1F
100
AcDbEntity
  8
5
  6
Continuous
 62
     4
100
AcDbLine
 10
190.600000000001
 20
64.0000000000005
 30
0.0
 11
190.600000000001
 21
72.0000000000005
 31
0.0
  0
LINE
  5
2D0
330
1F
100
AcDbEntity
  8
5
  6
Continuous
 62
     4
100
AcDbLine
 10
190.600000000001
 20
72.0000000000005
 30
0.0
 11
178.100000000001
 21
72.0000000000005
 31
0.0
  0
LINE
  5
2D1
330
1F
100
AcDbEntity
  8
5
  6
Continuous
 62
     4
100
AcDbLine
 10
178.100000000001
 20
72.0000000000005
 30
0.0
 11
178.100000000001
 21
69.0000000000005
 31
0.0
  0
LINE
  5
2D2
330
1F
100
AcDbEntity
  8
5
  6
Continuous
 62
     4
100
AcDbLine
 10
183.100000000001
 20
69.0000000000005
 30
0.0
 11
183.100000000001
 21
57.0000000000005
 31
0.0
  0
LINE
  5
2D3
330
1F
100
AcDbEntity
  8
5
  6
Continuous
 62
     4
100
AcDbLine
 10
184.100000000001
 20
64.0000000000005
 30
0.0
 11
99.6000000000005
 21
64.0000000000005
 31
0.0
  0
LINE
  5
2D4
330
1F
100
AcDbEntity
  8
5
  6
Continuous
 62
     4
100
AcDbLine
 10
99.6000000000005
 20
64.0000000000005
 30
0.0
 11
99.6000000000005
 21
42.0
 31
0.0
  0
LINE
  5
2D5
330
1F
100
AcDbEntity
  8
5
  6
Continuous
 62
     4
100
AcDbLine
 10
99.6000000000005
 20
42.0
 30
0.0
 11
106.600000000001
 21
42.0
 31
0.0
  0
LINE
  5
2D6
330
1F
100
AcDbEntity
  8
5
  6
Continuous
 62
     4
100
AcDbLine
 10
184.600000000001
 20
42.0
 30
0.0
 11
191.600000000001
 21
42.0
 31
0.0
  0
LINE
  5
2D7
330
1F
100
AcDbEntity
  8
5
  6
Continuous
 62
     4
100
AcDbLine
 10
191.600000000001
 20
42.0
 30
0.0
 11
191.600000000001
 21
64.0000000000005
 31
0.0
  0
LINE
  5
2D8
330
1F
100
AcDbEntity
  8
5
  6
Continuous
 62
     4
100
AcDbLine
 10
191.600000000001
 20
64.0000000000005
 30
0.0
 11
190.600000000001
 21
64.0000000000005
 31
0.0
  0
LINE
  5
2D9
330
1F
100
AcDbEntity
  8
5
  6
Continuous
 62
     4
100
AcDbLine
 10
106.600000000001
 20
42.0
 30
0.0
 11
106.600000000001
 21
57.0000000000005
 31
0.0
  0
LINE
  5
2DA
330
1F
100
AcDbEntity
  8
5
  6
Continuous
 62
     4
100
AcDbLine
 10
106.600000000001
 20
57.0000000000005
 30
0.0
 11
184.600000000001
 21
57.0000000000005
 31
0.0
  0
LINE
  5
2DB
330
1F
100
AcDbEntity
  8
5
  6
Continuous
 62
     4
100
AcDbLine
 10
184.600000000001
 20
57.0000000000005
 30
0.0
 11
184.600000000001
 21
41.0
 31
0.0
  0
LINE
  5
2DC
330
1F
100
AcDbEntity
  8
5
  6
Continuous
 62
     4
100
AcDbLine
 10
184.600000000001
 20
41.0
 30
0.0
 11
106.600000000001
 21
41.0
 31
0.0
  0
LINE
  5
2DD
330
1F
100
AcDbEntity
  8
5
  6
Continuous
 62
     4
100
AcDbLine
 10
106.600000000001
 20
41.0
 30
0.0
 11
106.600000000001
 21
42.0
 31
0.0
  0
LINE
  5
2DE
330
1F
100
AcDbEntity
  8
5
  6
Continuous
 62
     4
100
AcDbLine
 10
148.600000000001
 20
57.0000000000005
 30
0.0
 11
148.600000000001
 21
41.0
 31
0.0
  0
LINE
  5
2DF
330
1F
100
AcDbEntity
  8
5
  6
Continuous
 62
     4
100
AcDbLine
 10
142.600000000001
 20
57.0000000000005
 30
0.0
 11
142.600000000001
 21
41.0
 31
0.0
  0
LINE
  5
2E0
330
1F
100
AcDbEntity
  8
5
  6
Continuous
 62
     4
100
AcDbLine
 10
105.892893218814
 20
12.7071067811862
 30
0.0
 11
109.221320343561
 21
9.37867965644
 31
0.0
  0
LINE
  5
2E1
330
1F
100
AcDbEntity
  8
5
  6
Continuous
 62
     4
100
AcDbLine
 10
111.34264068712
 20
8.5
 30
0.0
 11
111.600000000001
 21
8.5
 31
0.0
  0
LINE
  5
2E2
330
1F
100
AcDbEntity
  8
5
  6
Continuous
 62
     4
100
AcDbLine
 10
177.600000000001
 20
41.0
 30
0.0
 11
177.600000000001
 21
-11.0
 31
0.0
  0
LINE
  5
2E3
330
1F
100
AcDbEntity
  8
5
  6
Continuous
 62
     4
100
AcDbLine
 10
177.600000000001
 20
-11.0
 30
0.0
 11
113.600000000001
 21
-11.0
 31
0.0
  0
LINE
  5
2E4
330
1F
100
AcDbEntity
  8
5
  6
Continuous
 62
     4
100
AcDbLine
 10
113.600000000001
 20
-11.0
 30
0.0
 11
113.600000000001
 21
41.0
 31
0.0
  0
LINE
  5
2E5
330
1F
100
AcDbEntity
  8
5
  6
Continuous
 62
     4
100
AcDbLine
 10
148.600000000001
 20
5.0
 30
0.0
 11
156.100000000001
 21
0.0
 31
0.0
  0
LINE
  5
2E6
330
1F
100
AcDbEntity
  8
5
  6
Continuous
 62
     4
100
AcDbLine
 10
156.100000000001
 20
0.0
 30
0.0
 11
135.100000000001
 21
0.0
 31
0.0
  0
LINE
  5
2E7
330
1F
100
AcDbEntity
  8
5
  6
Continuous
 62
     4
100
AcDbLine
 10
135.100000000001
 20
0.0
 30
0.0
 11
133.600000000001
 21
5.0
 31
0.0
  0
LINE
  5
2E8
330
1F
100
AcDbEntity
  8
5
  6
Continuous
 62
     4
100
AcDbLine
 10
133.600000000001
 20
5.0
 30
0.0
 11
143.600000000001
 21
5.0
 31
0.0
  0
LINE
  5
2E9
330
1F
100
AcDbEntity
  8
5
  6
Continuous
 62
     4
100
AcDbLine
 10
143.600000000001
 20
5.0
 30
0.0
 11
144.500000000001
 21
2.0
 31
0.0
  0
LINE
  5
2EA
330
1F
100
AcDbEntity
  8
5
  6
Continuous
 62
     4
100
AcDbLine
 10
144.500000000001
 20
2.0
 30
0.0
 11
150.100000000001
 21
2.0
 31
0.0
  0
LINE
  5
2EB
330
1F
100
AcDbEntity
  8
5
  6
Continuous
 62
     4
100
AcDbLine
 10
150.100000000001
 20
2.0
 30
0.0
 11
148.600000000001
 21
5.0
 31
0.0
  0
LINE
  5
2EC
330
1F
100
AcDbEntity
  8
5
  6
Continuous
 62
     4
100
AcDbLine
 10
185.8205
 20
13.2204999999999
 30
0.0
 11
191.5
 21
13.2204999999999
 31
0.0
  0
LINE
  5
2ED
330
1F
100
AcDbEntity
  8
5
  6
Continuous
 62
     4
100
AcDbLine
 10
185.8205
 20
13.2204999999999
 30
0.0
 11
181.978679656441
 21
9.37867965644
 31
0.0
  0
LINE
  5
2EE
330
1F
100
AcDbEntity
  8
5
  6
Continuous
 62
     4
100
AcDbLine
 10
179.857359312881
 20
8.5
 30
0.0
 11
179.600000000001
 21
8.5
 31
0.0
  0
LINE
  5
2EF
330
1F
100
AcDbEntity
  8
5
  6
Continuous
 62
     4
100
AcDbLine
 10
184.849999999997
 20
12.2499999999964
 30
0.0
 11
191.5
 21
12.2499999999986
 31
0.0
  0
LINE
  5
2F0
330
1F
100
AcDbEntity
  8
5
  6
Continuous
 62
     4
100
AcDbLine
 10
170.671796769726
 20
-23.0
 30
0.0
 11
171.0
 21
-22.4315353299559
 31
0.0
  0
LINE
  5
2F1
330
1F
100
AcDbEntity
  8
5
  6
Continuous
 62
     4
100
AcDbLine
 10
179.600000000001
 20
-8.5
 30
0.0
 11
179.857359312881
 21
-8.5
 31
0.0
  0
LINE
  5
2F2
330
1F
100
AcDbEntity
  8
5
  6
Continuous
 62
     4
100
AcDbLine
 10
143.600000000001
 20
-11.0
 30
0.0
 11
143.600000000001
 21
-23.0
 31
0.0
  0
LINE
  5
2F3
330
1F
100
AcDbEntity
  8
5
  6
Continuous
 62
     4
100
AcDbLine
 10
147.600000000001
 20
-11.0
 30
0.0
 11
147.600000000001
 21
-23.0
 31
0.0
  0
LINE
  5
2F4
330
1F
100
AcDbEntity
  8
5
  6
Continuous
 62
     4
100
AcDbLine
 10
120.528203230276
 20
-23.0
 30
0.0
 11
170.671796769726
 21
-23.0
 31
0.0
  0
LINE
  5
2F5
330
1F
100
AcDbEntity
  8
5
  6
Continuous
 62
     4
100
AcDbLine
 10
113.600000000001
 20
-11.0
 30
0.0
 11
120.528203230276
 21
-23.0
 31
0.0
  0
LINE
  5
2F6
330
1F
100
AcDbEntity
  8
5
  6
Continuous
 62
     4
100
AcDbLine
 10
111.600000000001
 20
-8.5
 30
0.0
 11
111.2
 21
-8.5
 31
0.0
  0
LINE
  5
2F7
330
1F
100
AcDbEntity
  8
5
  6
Continuous
 62
     4
100
AcDbLine
 10
105.618941869331
 20
13.2204999999999
 30
0.0
 11
97.2000000000004
 21
13.2204999999999
 31
0.0
  0
LINE
  5
2F8
330
1F
100
AcDbEntity
  8
5
  6
Continuous
 62
     4
100
AcDbLine
 10
97.2000000000004
 20
12.25
 30
0.0
 11
106.350000000001
 21
12.25
 31
0.0
  0
LINE
  5
2F9
330
1F
100
AcDbEntity
  8
0
  6
Continuous
 62
     3
100
AcDbLine
 10
78.4993476500848
 20
434.0
 30
0.0
 11
78.4993476500848
 21
457.0
 31
0.0
  0
LINE
  5
2FA
330
1F
100
AcDbEntity
  8
0
  6
Continuous
 62
     3
100
AcDbLine
 10
78.4993476500848
 20
411.0
 30
0.0
 11
78.4993476500848
 21
434.0
 31
0.0
  0
LINE
  5
2FB
330
1F
100
AcDbEntity
  8
1
  6
Continuous
 62
     4
100
AcDbLine
 10
185.819847650085
 20
435.0
 30
0.0
 11
185.819847650085
 21
420.7795
 31
0.0
  0
LINE
  5
2FC
330
1F
100
AcDbEntity
  8
1
  6
Continuous
 62
     4
100
AcDbLine
 10
105.618289519416
 20
439.0
 30
0.0
 11
105.618289519416
 21
420.7795
 31
0.0
  0
LINE
  5
2FD
330
1F
100
AcDbEntity
  8
5
  6
Continuous
 62
     4
100
AcDbLine
 10
105.892240868899
 20
446.707106781186
 30
0.0
 11
106.786206164138
 21
445.813141485947
 31
0.0
  0
LINE
  5
2FE
330
1F
100
AcDbEntity
  8
5
  6
Continuous
 62
     4
100
AcDbLine
 10
190.599347650086
 20
447.2205
 30
0.0
 11
193.999347650085
 21
447.2205
 31
0.0
  0
LINE
  5
2FF
330
1F
100
AcDbEntity
  8
5
  6
Continuous
 62
     4
100
AcDbLine
 10
190.599347650086
 20
446.249999999998
 30
0.0
 11
193.999347650085
 21
446.249999999999
 31
0.0
  0
LINE
  5
300
330
1F
100
AcDbEntity
  8
5
  6
Continuous
 62
     4
100
AcDbLine
 10
185.819847650085
 20
420.7795
 30
0.0
 11
193.999347650085
 21
420.7795
 31
0.0
  0
LINE
  5
301
330
1F
100
AcDbEntity
  8
5
  6
Continuous
 62
     4
100
AcDbLine
 10
180.988534582085
 20
425.610813068001
 30
0.0
 11
185.819847650085
 21
420.7795
 31
0.0
  0
LINE
  5
302
330
1F
100
AcDbEntity
  8
5
  6
Continuous
 62
     4
100
AcDbLine
 10
184.849347650085
 20
421.75
 30
0.0
 11
193.999347650085
 21
421.75
 31
0.0
  0
LINE
  5
303
330
1F
100
AcDbEntity
  8
5
  6
Continuous
 62
     4
100
AcDbLine
 10
110.210160718087
 20
425.610813068
 30
0.0
 11
105.892240868899
 21
421.292893218813
 31
0.0
  0
LINE
  5
304
330
1F
100
AcDbEntity
  8
5
  6
Continuous
 62
     4
100
AcDbLine
 10
97.1993476500851
 20
421.75
 30
0.0
 11
106.349347650086
 21
421.75
 31
0.0
  0
LINE
  5
305
330
1F
100
AcDbEntity
  8
5
  6
Continuous
 62
     4
100
AcDbLine
 10
97.1993476500851
 20
420.7795
 30
0.0
 11
105.618289519416
 21
420.7795
 31
0.0
  0
LINE
  5
306
330
1F
100
AcDbEntity
  8
5
  6
Continuous
 62
     4
100
AcDbLine
 10
105.618289519416
 20
447.2205
 30
0.0
 11
97.1993476500851
 21
447.2205
 31
0.0
  0
LINE
  5
307
330
1F
100
AcDbEntity
  8
5
  6
Continuous
 62
     4
100
AcDbLine
 10
97.1993476500851
 20
446.25
 30
0.0
 11
106.349347650085
 21
446.25
 31
0.0
  0
LINE
  5
308
330
1F
100
AcDbEntity
  8
5
  6
Continuous
 62
     4
100
AcDbLine
 10
190.599347650086
 20
449.0
 30
0.0
 11
178.099347650086
 21
449.0
 31
0.0
  0
LINE
  5
309
330
1F
100
AcDbEntity
  8
5
  6
Continuous
 62
     4
100
AcDbLine
 10
190.599347650086
 20
445.0
 30
0.0
 11
191.599347650086
 21
445.0
 31
0.0
  0
LINE
  5
30A
330
1F
100
AcDbEntity
  8
5
  6
Continuous
 62
     4
100
AcDbLine
 10
178.099347650086
 20
449.0
 30
0.0
 11
178.099347650086
 21
442.0
 31
0.0
  0
LINE
  5
30B
330
1F
100
AcDbEntity
  8
5
  6
Continuous
 62
     4
100
AcDbLine
 10
178.099347650086
 20
442.0
 30
0.0
 11
178.099347650086
 21
435.0
 31
0.0
  0
LINE
  5
30C
330
1F
100
AcDbEntity
  8
5
  6
Continuous
 62
     4
100
AcDbLine
 10
178.099347650086
 20
435.0
 30
0.0
 11
190.599347650086
 21
435.0
 31
0.0
  0
LINE
  5
30D
330
1F
100
AcDbEntity
  8
5
  6
Continuous
 62
     4
100
AcDbLine
 10
190.599347650086
 20
435.0
 30
0.0
 11
190.599347650086
 21
442.0
 31
0.0
  0
LINE
  5
30E
330
1F
100
AcDbEntity
  8
5
  6
Continuous
 62
     4
100
AcDbLine
 10
190.599347650086
 20
442.0
 30
0.0
 11
190.599347650086
 21
449.0
 31
0.0
  0
LINE
  5
30F
330
1F
100
AcDbEntity
  8
5
  6
Continuous
 62
     4
100
AcDbLine
 10
191.599347650086
 20
445.0
 30
0.0
 11
191.599347650086
 21
442.0
 31
0.0
  0
LINE
  5
310
330
1F
100
AcDbEntity
  8
5
  6
Continuous
 62
     4
100
AcDbLine
 10
191.599347650086
 20
442.0
 30
0.0
 11
191.599347650086
 21
439.0
 31
0.0
  0
LINE
  5
311
330
1F
100
AcDbEntity
  8
5
  6
Continuous
 62
     4
100
AcDbLine
 10
191.599347650086
 20
439.0
 30
0.0
 11
190.599347650086
 21
439.0
 31
0.0
  0
LINE
  5
312
330
1F
100
AcDbEntity
  8
5
  6
Continuous
 62
     4
100
AcDbLine
 10
148.599347650086
 20
403.115555809553
 30
0.0
 11
148.599347650086
 21
396.0
 31
0.0
  0
LINE
  5
313
330
1F
100
AcDbEntity
  8
5
  6
Continuous
 62
     4
100
AcDbLine
 10
148.599347650086
 20
396.0
 30
0.0
 11
142.599347650086
 21
396.0
 31
0.0
  0
LINE
  5
314
330
1F
100
AcDbEntity
  8
5
  6
Continuous
 62
     4
100
AcDbLine
 10
142.599347650086
 20
396.0
 30
0.0
 11
142.599347650086
 21
403.115555809553
 31
0.0
  0
LINE
  5
315
330
1F
100
AcDbEntity
  8
5
  6
Continuous
 62
     4
100
AcDbLine
 10
142.599347650086
 20
480.884444190447
 30
0.0
 11
142.599347650086
 21
488.0
 31
0.0
  0
LINE
  5
316
330
1F
100
AcDbEntity
  8
5
  6
Continuous
 62
     4
100
AcDbLine
 10
142.599347650086
 20
488.0
 30
0.0
 11
148.599347650086
 21
488.0
 31
0.0
  0
LINE
  5
317
330
1F
100
AcDbEntity
  8
5
  6
Continuous
 62
     4
100
AcDbLine
 10
148.599347650086
 20
488.0
 30
0.0
 11
148.599347650086
 21
480.884444190447
 31
0.0
  0
LINE
  5
318
330
1F
100
AcDbEntity
  8
5
  6
Continuous
 62
     4
100
AcDbLine
 10
108.219540266954
 20
439.0
 30
0.0
 11
99.5993476500856
 21
439.0
 31
0.0
  0
LINE
  5
319
330
1F
100
AcDbEntity
  8
5
  6
Continuous
 62
     4
100
AcDbLine
 10
99.5993476500856
 20
439.0
 30
0.0
 11
99.5993476500856
 21
442.0
 31
0.0
  0
LINE
  5
31A
330
1F
100
AcDbEntity
  8
5
  6
Continuous
 62
     4
100
AcDbLine
 10
99.5993476500856
 20
442.0
 30
0.0
 11
99.5993476500856
 21
445.0
 31
0.0
  0
LINE
  5
31B
330
1F
100
AcDbEntity
  8
5
  6
Continuous
 62
     4
100
AcDbLine
 10
99.5993476500856
 20
445.0
 30
0.0
 11
108.219540266954
 21
445.0
 31
0.0
  0
LINE
  5
31C
330
1F
100
AcDbEntity
  8
0
  6
Continuous
 62
     3
100
AcDbLine
 10
90.266751754509
 20
401.930201006595
 30
0.0
 11
90.6183968839865
 21
412.0
 31
0.0
  0
LINE
  5
31D
330
1F
100
AcDbEntity
  8
0
  6
Continuous
 62
     3
100
AcDbLine
 10
88.2679701004707
 20
400.0
 30
0.0
 11
82.130725199699
 21
400.0
 31
0.0
  0
LINE
  5
31E
330
1F
100
AcDbEntity
  8
0
  6
Continuous
 62
     3
100
AcDbLine
 10
80.1319435456611
 20
401.930201006595
 30
0.0
 11
79.7802984161842
 21
412.0
 31
0.0
  0
LINE
  5
31F
330
1F
100
AcDbEntity
  8
0
  6
Continuous
 62
     3
100
AcDbLine
 10
90.6183968839865
 20
456.0
 30
0.0
 11
90.266751754509
 21
466.069798993405
 31
0.0
  0
LINE
  5
320
330
1F
100
AcDbEntity
  8
0
  6
Continuous
 62
     3
100
AcDbLine
 10
82.130725199699
 20
468.0
 30
0.0
 11
88.2679701004707
 21
468.0
 31
0.0
  0
LINE
  5
321
330
1F
100
AcDbEntity
  8
0
  6
Continuous
 62
     3
100
AcDbLine
 10
79.7802984161842
 20
456.0
 30
0.0
 11
80.1319435456611
 21
466.069798993405
 31
0.0
  0
LINE
  5
322
330
1F
100
AcDbEntity
  8
1
  6
Continuous
 62
     3
100
AcDbLine
 10
91.6993476500851
 20
412.0
 30
0.0
 11
78.6993476500851
 21
412.0
 31
0.0
  0
LINE
  5
323
330
1F
100
AcDbEntity
  8
1
  6
Continuous
 62
     3
100
AcDbLine
 10
78.6993476500851
 20
456.0
 30
0.0
 11
91.6993476500851
 21
456.0
 31
0.0
  0
LINE
  5
324
330
1F
100
AcDbEntity
  8
0
  6
Continuous
 62
     3
100
AcDbLine
 10
91.6993476500851
 20
412.0
 30
0.0
 11
91.6993476500851
 21
456.0
 31
0.0
  0
LINE
  5
325
330
1F
100
AcDbEntity
  8
0
  6
Continuous
 62
     3
100
AcDbLine
 10
78.6993476500851
 20
456.0
 30
0.0
 11
78.6993476500851
 21
412.0
 31
0.0
  0
LINE
  5
326
330
1F
100
AcDbEntity
  8
0
  6
Continuous
 62
     3
100
AcDbLine
 10
97.1993476500851
 20
415.0
 30
0.0
 11
91.6993476500851
 21
415.0
 31
0.0
  0
LINE
  5
327
330
1F
100
AcDbEntity
  8
0
  6
Continuous
 62
     3
100
AcDbLine
 10
111.199347650086
 20
420.75
 30
0.0
 11
97.1993476500851
 21
420.750000000001
 31
0.0
  0
LINE
  5
328
330
1F
100
AcDbEntity
  8
0
  6
Continuous
 62
     3
100
AcDbLine
 10
97.1993476500851
 20
414.914665316008
 30
0.0
 11
97.1993476500851
 21
421.36819490334
 31
0.0
  0
LINE
  5
329
330
1F
100
AcDbEntity
  8
0
  6
Continuous
 62
     3
100
AcDbLine
 10
97.1993476500851
 20
414.914665316008
 30
0.0
 11
111.199347650086
 21
414.914665316008
 31
0.0
  0
LINE
  5
32A
330
1F
100
AcDbEntity
  8
0
  6
Continuous
 62
     3
100
AcDbLine
 10
111.199347650086
 20
414.914665316008
 30
0.0
 11
111.199347650086
 21
423.625017006809
 31
0.0
  0
LINE
  5
32B
330
1F
100
AcDbEntity
  8
0
  6
Continuous
 62
     3
100
AcDbLine
 10
97.1993476500851
 20
421.36819490334
 30
0.0
 11
97.1993476500851
 21
446.63180509666
 31
0.0
  0
LINE
  5
32C
330
1F
100
AcDbEntity
  8
0
  6
Continuous
 62
     3
100
AcDbLine
 10
97.1993476500851
 20
453.0
 30
0.0
 11
91.6993476500851
 21
453.0
 31
0.0
  0
LINE
  5
32D
330
1F
100
AcDbEntity
  8
0
  6
Continuous
 62
     3
100
AcDbLine
 10
97.1993476500851
 20
453.085334683992
 30
0.0
 11
108.207966892699
 21
453.085334683992
 31
0.0
  0
LINE
  5
32E
330
1F
100
AcDbEntity
  8
0
  6
Continuous
 62
     3
100
AcDbLine
 10
97.1993476500851
 20
453.085334683992
 30
0.0
 11
97.1993476500851
 21
446.63180509666
 31
0.0
  0
LINE
  5
32F
330
1F
100
AcDbEntity
  8
0
  6
Continuous
 62
     3
100
AcDbLine
 10
106.954328566121
 20
447.25
 30
0.0
 11
97.1993476500851
 21
447.249999999999
 31
0.0
  0
LINE
  5
330
330
1F
100
AcDbEntity
  8
0
  6
Continuous
 62
     3
100
AcDbLine
 10
217.457895765757
 20
440.999999999999
 30
0.0
 11
225.540799534412
 21
441.0
 31
0.0
  0
LINE
  5
331
330
1F
100
AcDbEntity
  8
0
  6
Continuous
 62
     3
100
AcDbLine
 10
225.540799534412
 20
441.0
 30
0.0
 11
229.582251418739
 21
434.000000000001
 31
0.0
  0
LINE
  5
332
330
1F
100
AcDbEntity
  8
0
  6
Continuous
 62
     3
100
AcDbLine
 10
225.540799534413
 20
427.0
 30
0.0
 11
221.499347650085
 21
427.0
 31
0.0
  0
LINE
  5
333
330
1F
100
AcDbEntity
  8
0
  6
Continuous
 62
     3
100
AcDbLine
 10
229.582251418739
 20
434.000000000001
 30
0.0
 11
225.540799534413
 21
427.0
 31
0.0
  0
LINE
  5
334
330
1F
100
AcDbEntity
  8
0
  6
Continuous
 62
     3
100
AcDbLine
 10
221.499347650085
 20
427.0
 30
0.0
 11
217.457895765757
 21
426.999999999999
 31
0.0
  0
LINE
  5
335
330
1F
100
AcDbEntity
  8
0
  6
Continuous
 62
     3
100
AcDbLine
 10
217.457895765757
 20
426.999999999999
 30
0.0
 11
213.41644388143
 21
433.999999999999
 31
0.0
  0
LINE
  5
336
330
1F
100
AcDbEntity
  8
0
  6
Continuous
 62
     3
100
AcDbLine
 10
213.41644388143
 20
433.999999999999
 30
0.0
 11
217.457895765757
 21
440.999999999999
 31
0.0
  0
LINE
  5
337
330
1F
100
AcDbEntity
  8
1
  6
Continuous
 62
     3
100
AcDbLine
 10
212.499347650085
 20
427.0
 30
0.0
 11
212.499347650085
 21
411.0
 31
0.0
  0
LINE
  5
338
330
1F
100
AcDbEntity
  8
1
  6
Continuous
 62
     3
100
AcDbLine
 10
219.499347650085
 20
423.0
 30
0.0
 11
219.499347650085
 21
411.0
 31
0.0
  0
LINE
  5
339
330
1F
100
AcDbEntity
  8
1
  6
Continuous
 62
     3
100
AcDbLine
 10
222.999347650085
 20
423.0
 30
0.0
 11
222.999347650085
 21
414.5
 31
0.0
  0
LINE
  5
33A
330
1F
100
AcDbEntity
  8
1
  6
Continuous
 62
     3
100
AcDbLine
 10
212.499347650085
 20
457.0
 30
0.0
 11
212.499347650085
 21
441.0
 31
0.0
  0
LINE
  5
33B
330
1F
100
AcDbEntity
  8
1
  6
Continuous
 62
     3
100
AcDbLine
 10
219.499347650085
 20
457.0
 30
0.0
 11
219.499347650085
 21
445.0
 31
0.0
  0
LINE
  5
33C
330
1F
100
AcDbEntity
  8
1
  6
Continuous
 62
     3
100
AcDbLine
 10
222.999347650085
 20
453.5
 30
0.0
 11
222.999347650085
 21
445.0
 31
0.0
  0
LINE
  5
33D
330
1F
100
AcDbEntity
  8
1
  6
Continuous
 62
     3
100
AcDbLine
 10
239.499347650085
 20
417.549999999999
 30
0.0
 11
239.499347650085
 21
434.0
 31
0.0
  0
LINE
  5
33E
330
1F
100
AcDbEntity
  8
1
  6
Continuous
 62
     3
100
AcDbLine
 10
238.343055970774
 20
418.186914687688
 30
0.0
 11
239.499347650085
 21
418.8545
 31
0.0
  0
LINE
  5
33F
330
1F
100
AcDbEntity
  8
1
  6
Continuous
 62
     3
100
AcDbLine
 10
239.499347650085
 20
418.8545
 30
0.0
 11
254.303847650086
 21
418.8545
 31
0.0
  0
LINE
  5
340
330
1F
100
AcDbEntity
  8
1
  6
Continuous
 62
     3
100
AcDbLine
 10
239.499347650085
 20
450.450000000001
 30
0.0
 11
239.499347650085
 21
434.0
 31
0.0
  0
LINE
  5
341
330
1F
100
AcDbEntity
  8
1
  6
Continuous
 62
     3
100
AcDbLine
 10
238.343055970774
 20
449.813085312312
 30
0.0
 11
239.499347650085
 21
449.1455
 31
0.0
  0
LINE
  5
342
330
1F
100
AcDbEntity
  8
1
  6
Continuous
 62
     3
100
AcDbLine
 10
239.499347650085
 20
449.1455
 30
0.0
 11
254.303847650086
 21
449.1455
 31
0.0
  0
LINE
  5
343
330
1F
100
AcDbEntity
  8
0
  6
Continuous
 62
     3
100
AcDbLine
 10
239.364565587052
 20
417.549999999999
 30
0.0
 11
252.999347650089
 21
417.549999999999
 31
0.0
  0
LINE
  5
344
330
1F
100
AcDbEntity
  8
0
  6
Continuous
 62
     3
100
AcDbLine
 10
235.096294082636
 20
418.25
 30
0.0
 11
237.844697171695
 21
418.25
 31
0.0
  0
LINE
  5
345
330
1F
100
AcDbEntity
  8
0
  6
Continuous
 62
     3
100
AcDbLine
 10
235.096294082636
 20
449.75
 30
0.0
 11
237.844697171695
 21
449.75
 31
0.0
  0
LINE
  5
346
330
1F
100
AcDbEntity
  8
0
  6
Continuous
 62
     3
100
AcDbLine
 10
233.597207842107
 20
416.802349245054
 30
0.0
 11
233.597207842107
 21
432.500000061794
 31
0.0
  0
LINE
  5
347
330
1F
100
AcDbEntity
  8
0
  6
Continuous
 62
     3
100
AcDbLine
 10
233.583602780615
 20
416.412751258244
 30
0.0
 11
233.597207842107
 21
416.802349245054
 31
0.0
  0
LINE
  5
348
330
1F
100
AcDbEntity
  8
0
  6
Continuous
 62
     3
100
AcDbLine
 10
252.999347650089
 20
417.549999999999
 30
0.0
 11
252.999347650089
 21
450.450000000001
 31
0.0
  0
LINE
  5
349
330
1F
100
AcDbEntity
  8
0
  6
Continuous
 62
     3
100
AcDbLine
 10
254.499347650085
 20
419.05
 30
0.0
 11
254.499347650085
 21
448.95
 31
0.0
  0
LINE
  5
34A
330
1F
100
AcDbEntity
  8
0
  6
Continuous
 62
     3
100
AcDbLine
 10
212.206454431272
 20
457.207106781186
 30
0.0
 11
212.085134087712
 21
457.085786437627
 31
0.0
  0
LINE
  5
34B
330
1F
100
AcDbEntity
  8
0
  6
Continuous
 62
     3
100
AcDbLine
 10
239.364565587052
 20
450.450000000001
 30
0.0
 11
252.999347650089
 21
450.450000000001
 31
0.0
  0
LINE
  5
34C
330
1F
100
AcDbEntity
  8
0
  6
Continuous
 62
     3
100
AcDbLine
 10
223.827774774831
 20
454.0
 30
0.0
 11
231.085125713067
 21
454.0
 31
0.0
  0
LINE
  5
34D
330
1F
100
AcDbEntity
  8
0
  6
Continuous
 62
     3
100
AcDbLine
 10
233.597207842107
 20
435.500000061794
 30
0.0
 11
233.597207842107
 21
451.197650754946
 31
0.0
  0
LINE
  5
34E
330
1F
100
AcDbEntity
  8
0
  6
Continuous
 62
     3
100
AcDbLine
 10
233.597207842107
 20
432.500000061794
 30
0.0
 11
239.364565874185
 21
432.500000061794
 31
0.0
  0
LINE
  5
34F
330
1F
100
AcDbEntity
  8
0
  6
Continuous
 62
     3
100
AcDbLine
 10
233.597207842107
 20
435.500000061794
 30
0.0
 11
239.364569245208
 21
435.500000061794
 31
0.0
  0
LINE
  5
350
330
1F
100
AcDbEntity
  8
0
  6
Continuous
 62
     3
100
AcDbLine
 10
233.583602780615
 20
451.587248741756
 30
0.0
 11
233.597207842107
 21
451.197650754946
 31
0.0
  0
LINE
  5
351
330
1F
100
AcDbEntity
  8
0
  6
Continuous
 62
     3
100
AcDbLine
 10
252.999347650089
 20
450.450000000001
 30
0.0
 11
254.499347650085
 21
448.95
 31
0.0
  0
LINE
  5
352
330
1F
100
AcDbEntity
  8
0
  6
Continuous
 62
     3
100
AcDbLine
 10
212.913561212458
 20
410.5
 30
0.0
 11
219.085134087712
 21
410.5
 31
0.0
  0
LINE
  5
353
330
1F
100
AcDbEntity
  8
0
  6
Continuous
 62
     3
100
AcDbLine
 10
210.670920525339
 20
411.5
 30
0.0
 11
201.499347650085
 21
411.5
 31
0.0
  0
LINE
  5
354
330
1F
100
AcDbEntity
  8
0
  6
Continuous
 62
     3
100
AcDbLine
 10
212.206454431272
 20
410.792893218813
 30
0.0
 11
212.085134087712
 21
410.914213562373
 31
0.0
  0
LINE
  5
355
330
1F
100
AcDbEntity
  8
0
  6
Continuous
 62
     3
100
AcDbLine
 10
239.364565587052
 20
450.450000000001
 30
0.0
 11
239.364569245208
 21
435.500000061794
 31
0.0
  0
LINE
  5
356
330
1F
100
AcDbEntity
  8
0
  6
Continuous
 62
     3
100
AcDbLine
 10
212.913561212458
 20
457.5
 30
0.0
 11
219.085134087712
 21
457.5
 31
0.0
  0
LINE
  5
357
330
1F
100
AcDbEntity
  8
0
  6
Continuous
 62
     3
100
AcDbLine
 10
210.670920525339
 20
456.5
 30
0.0
 11
201.499347650085
 21
456.5
 31
0.0
  0
LINE
  5
358
330
1F
100
AcDbEntity
  8
0
  6
Continuous
 62
     3
100
AcDbLine
 10
223.827774774831
 20
414.0
 30
0.0
 11
231.085125713067
 21
414.0
 31
0.0
  0
LINE
  5
359
330
1F
100
AcDbEntity
  8
0
  6
Continuous
 62
     3
100
AcDbLine
 10
239.364565874185
 20
432.500000061794
 30
0.0
 11
239.364565587052
 21
417.549999999999
 31
0.0
  0
LINE
  5
35A
330
1F
100
AcDbEntity
  8
0
  6
Continuous
 62
     3
100
AcDbLine
 10
219.792240868898
 20
410.792893218813
 30
0.0
 11
222.413561212458
 21
413.414213562373
 31
0.0
  0
LINE
  5
35B
330
1F
100
AcDbEntity
  8
0
  6
Continuous
 62
     3
100
AcDbLine
 10
252.999347650089
 20
417.549999999999
 30
0.0
 11
254.499347650085
 21
419.05
 31
0.0
  0
LINE
  5
35C
330
1F
100
AcDbEntity
  8
0
  6
Continuous
 62
     3
100
AcDbLine
 10
219.792240868898
 20
457.207106781186
 30
0.0
 11
222.413561212458
 21
454.585786437627
 31
0.0
  0
LINE
  5
35D
330
1F
100
AcDbEntity
  8
0
  6
Continuous
 62
     3
100
AcDbLine
 10
201.499347650085
 20
456.5
 30
0.0
 11
201.499347650085
 21
411.5
 31
0.0
  0
LINE
  5
35E
330
1F
100
AcDbEntity
  8
0
  6
Continuous
 62
     3
100
AcDbLine
 10
201.499347650085
 20
453.97366596101
 30
0.0
 11
196.499347650085
 21
453.97366596101
 31
0.0
  0
LINE
  5
35F
330
1F
100
AcDbEntity
  8
0
  6
Continuous
 62
     3
100
AcDbLine
 10
201.499347650085
 20
451.97366596101
 30
0.0
 11
196.499347650085
 21
451.97366596101
 31
0.0
  0
LINE
  5
360
330
1F
100
AcDbEntity
  8
0
  6
Continuous
 62
     3
100
AcDbLine
 10
191.499347650085
 20
456.0
 30
0.0
 11
191.499347650085
 21
449.85
 31
0.0
  0
LINE
  5
361
330
1F
100
AcDbEntity
  8
0
  6
Continuous
 62
     3
100
AcDbLine
 10
201.499347650085
 20
456.0
 30
0.0
 11
191.499347650085
 21
456.0
 31
0.0
  0
LINE
  5
362
330
1F
100
AcDbEntity
  8
0
  6
Continuous
 62
     3
100
AcDbLine
 10
193.999347650085
 20
447.25
 30
0.0
 11
193.999347650085
 21
420.75
 31
0.0
  0
LINE
  5
363
330
1F
100
AcDbEntity
  8
0
  6
Continuous
 62
     3
100
AcDbLine
 10
191.499347650085
 20
447.25
 30
0.0
 11
192.499347650085
 21
447.25
 31
0.0
  0
LINE
  5
364
330
1F
100
AcDbEntity
  8
0
  6
Continuous
 62
     3
100
AcDbLine
 10
190.599347650086
 20
447.25
 30
0.0
 11
191.499347650085
 21
447.25
 31
0.0
  0
LINE
  5
365
330
1F
100
AcDbEntity
  8
0
  6
Continuous
 62
     3
100
AcDbLine
 10
192.499347650085
 20
447.25
 30
0.0
 11
193.999347650085
 21
447.25
 31
0.0
  0
LINE
  5
366
330
1F
100
AcDbEntity
  8
0
  6
Continuous
 62
     3
100
AcDbLine
 10
191.499347650085
 20
449.85
 30
0.0
 11
183.801147345911
 21
449.85
 31
0.0
  0
LINE
  5
367
330
1F
100
AcDbEntity
  8
0
  6
Continuous
 62
     3
100
AcDbLine
 10
191.499347650085
 20
449.85
 30
0.0
 11
191.499347650085
 21
447.25
 31
0.0
  0
LINE
  5
368
330
1F
100
AcDbEntity
  8
0
  6
Continuous
 62
     3
100
AcDbLine
 10
180.999347650085
 20
419.75
 30
0.0
 11
180.999347650085
 21
425.600000000001
 31
0.0
  0
LINE
  5
369
330
1F
100
AcDbEntity
  8
0
  6
Continuous
 62
     3
100
AcDbLine
 10
181.999347650085
 20
420.75
 30
0.0
 11
191.499347650085
 21
420.75
 31
0.0
  0
LINE
  5
36A
330
1F
100
AcDbEntity
  8
0
  6
Continuous
 62
     3
100
AcDbLine
 10
180.999347650085
 20
418.15
 30
0.0
 11
180.999347650085
 21
419.75
 31
0.0
  0
LINE
  5
36B
330
1F
100
AcDbEntity
  8
0
  6
Continuous
 62
     3
100
AcDbLine
 10
191.499347650085
 20
418.15
 30
0.0
 11
180.999347650085
 21
418.15
 31
0.0
  0
LINE
  5
36C
330
1F
100
AcDbEntity
  8
0
  6
Continuous
 62
     3
100
AcDbLine
 10
201.499347650085
 20
416.02633403899
 30
0.0
 11
196.499347650085
 21
416.02633403899
 31
0.0
  0
LINE
  5
36D
330
1F
100
AcDbEntity
  8
0
  6
Continuous
 62
     3
100
AcDbLine
 10
201.499347650085
 20
414.02633403899
 30
0.0
 11
196.499347650085
 21
414.02633403899
 31
0.0
  0
LINE
  5
36E
330
1F
100
AcDbEntity
  8
0
  6
Continuous
 62
     3
100
AcDbLine
 10
201.499347650085
 20
412.091097699794
 30
0.0
 11
191.499347650085
 21
412.091097699794
 31
0.0
  0
LINE
  5
36F
330
1F
100
AcDbEntity
  8
0
  6
Continuous
 62
     3
100
AcDbLine
 10
191.499347650085
 20
418.15
 30
0.0
 11
191.499347650085
 21
412.091097699794
 31
0.0
  0
LINE
  5
370
330
1F
100
AcDbEntity
  8
0
  6
Continuous
 62
     3
100
AcDbLine
 10
192.499347650085
 20
420.75
 30
0.0
 11
193.999347650085
 21
420.75
 31
0.0
  0
LINE
  5
371
330
1F
100
AcDbEntity
  8
0
  6
Continuous
 62
     3
100
AcDbLine
 10
192.499347650085
 20
420.75
 30
0.0
 11
191.499347650085
 21
420.75
 31
0.0
  0
LINE
  5
372
330
1F
100
AcDbEntity
  8
0
  6
Continuous
 62
     3
100
AcDbLine
 10
191.499347650085
 20
420.75
 30
0.0
 11
191.499347650085
 21
418.15
 31
0.0
  0
LINE
  5
373
330
1F
100
AcDbEntity
  8
1
  6
Continuous
 62
     3
100
AcDbLine
 10
8.57180951220235
 20
388.122134866893
 30
0.0
 11
8.3046291818363
 21
372.57061056436
 31
0.0
  0
LINE
  5
374
330
1F
100
AcDbEntity
  8
0
  6
Continuous
 62
     3
100
AcDbLine
 10
2.60116601389668
 20
369.944561062852
 30
0.0
 11
2.81647387947592
 21
388.122134866893
 31
0.0
  0
LINE
  5
375
330
1F
100
AcDbEntity
  8
0
  6
Continuous
 62
     3
100
AcDbLine
 10
-8.96255114852975
 20
388.122134866893
 30
0.0
 11
8.57180951220235
 21
388.122134866893
 31
0.0
  0
LINE
  5
376
330
1F
100
AcDbEntity
  8
0
  6
Continuous
 62
     3
100
AcDbLine
 10
-3.01770035352832
 20
372.122134866893
 30
0.0
 11
-7.8612120068803
 21
372.122134866893
 31
0.0
  0
LINE
  5
377
330
1F
100
AcDbEntity
  8
0
  6
Continuous
 62
     3
100
AcDbLine
 10
-3.20721551580521
 20
388.122134866893
 30
0.0
 11
-2.99190765022611
 21
369.944561062852
 31
0.0
  0
LINE
  5
378
330
1F
100
AcDbEntity
  8
0
  6
Continuous
 62
     3
100
AcDbLine
 10
0.60130629599824
 20
367.968248796538
 30
0.0
 11
-0.99204793232767
 21
367.968248796538
 31
0.0
  0
LINE
  5
379
330
1F
100
AcDbEntity
  8
0
  6
Continuous
 62
     3
100
AcDbLine
 10
7.47047037055279
 20
372.122134866893
 30
0.0
 11
2.62695871719899
 21
372.122134866893
 31
0.0
  0
LINE
  5
37A
330
1F
100
AcDbEntity
  8
1
  6
Continuous
 62
     3
100
AcDbLine
 10
-8.6953708181637
 20
372.57061056436
 30
0.0
 11
-8.96255114852975
 21
388.122134866893
 31
0.0
  0
LINE
  5
37B
330
1F
100
AcDbEntity
  8
100
  6
Continuous
 62
     3
100
AcDbLine
 10
4.8783496807431
 20
396.622089139628
 30
0.0
 11
4.8783496807431
 21
388.622083787528
 31
0.0
  0
LINE
  5
37C
330
1F
100
AcDbEntity
  8
100
  6
Continuous
 62
     3
100
AcDbLine
 10
-5.12165412038951
 20
396.622089139628
 30
0.0
 11
-5.12165412038951
 21
388.622083787528
 31
0.0
  0
LINE
  5
37D
330
1F
100
AcDbEntity
  8
100
  6
Continuous
 62
     3
100
AcDbLine
 10
4.8783496807431
 20
388.622083787528
 30
0.0
 11
-0.1216522198225
 21
388.622083787528
 31
0.0
  0
LINE
  5
37E
330
1F
100
AcDbEntity
  8
100
  6
Continuous
 62
     3
100
AcDbLine
 10
4.82809515542828
 20
388.622083787528
 30
0.0
 11
4.82809515542828
 21
388.122134866893
 31
0.0
  0
LINE
  5
37F
330
1F
100
AcDbEntity
  8
100
  6
Continuous
 62
     3
100
AcDbLine
 10
-0.1216522198225
 20
388.622083787528
 30
0.0
 11
-5.12165412038951
 21
388.622083787528
 31
0.0
  0
LINE
  5
380
330
1F
100
AcDbEntity
  8
100
  6
Continuous
 62
     3
100
AcDbLine
 10
-5.07139959507379
 20
388.622083787528
 30
0.0
 11
-5.07139959507379
 21
388.12213486893
 31
0.0
  0
LINE
  5
381
330
1F
100
AcDbEntity
  8
1
  6
Continuous
 62
     3
100
AcDbLine
 10
4.3783458796114
 20
371.31851344817
 30
0.0
 11
4.3783458796114
 21
372.122134866893
 31
0.0
  0
LINE
  5
382
330
1F
100
AcDbEntity
  8
1
  6
Continuous
 62
     3
100
AcDbLine
 10
-4.6216541203886
 20
371.31851344817
 30
0.0
 11
-4.6216541203886
 21
372.122134866893
 31
0.0
  0
LINE
  5
383
330
1F
100
AcDbEntity
  8
1
  6
Continuous
 62
     3
100
AcDbLine
 10
18.999942955253
 20
423.151864750189
 30
0.0
 11
18.999942955253
 21
425.177246638483
 31
0.0
  0
LINE
  5
384
330
1F
100
AcDbEntity
  8
1
  6
Continuous
 62
     3
100
AcDbLine
 10
17.2458625488278
 20
422.139145955359
 30
0.0
 11
18.999942955253
 21
423.151864750189
 31
0.0
  0
LINE
  5
385
330
1F
100
AcDbEntity
  8
1
  6
Continuous
 62
     3
100
AcDbLine
 10
18.999942955253
 20
443.065737389735
 30
0.0
 11
18.999942955253
 21
445.091174979395
 31
0.0
  0
LINE
  5
386
330
1F
100
AcDbEntity
  8
1
  6
Continuous
 62
     3
100
AcDbLine
 10
18.999942955253
 20
445.091174979395
 30
0.0
 11
17.2459107876251
 21
446.103865923542
 31
0.0
  0
LINE
  5
387
330
1F
100
AcDbEntity
  8
1
  6
Continuous
 62
     3
100
AcDbLine
 10
-0.000057044747
 20
456.060830093997
 30
0.0
 11
-1.7538425495979
 21
455.048281560671
 31
0.0
  0
LINE
  5
388
330
1F
100
AcDbEntity
  8
1
  6
Continuous
 62
     3
100
AcDbLine
 10
1.75370952978559
 20
455.048292490095
 30
0.0
 11
-0.000057044747
 21
456.060830093997
 31
0.0
  0
LINE
  5
389
330
1F
100
AcDbEntity
  8
1
  6
Continuous
 62
     3
100
AcDbLine
 10
-19.000057044747
 20
445.091174979395
 30
0.0
 11
-19.000057044747
 21
443.066077912741
 31
0.0
  0
LINE
  5
38A
330
1F
100
AcDbEntity
  8
1
  6
Continuous
 62
     3
100
AcDbLine
 10
-17.2462904702144
 20
446.103712583296
 30
0.0
 11
-19.000057044747
 21
445.091174979395
 31
0.0
  0
LINE
  5
38B
330
1F
100
AcDbEntity
  8
0
  6
Continuous
 62
     3
100
AcDbLine
 10
-21.0000002298636
 20
426.121645973725
 30
0.0
 11
-21.0000002298636
 21
442.121645973725
 31
0.0
  0
LINE
  5
38C
330
1F
100
AcDbEntity
  8
0
  6
Continuous
 62
     3
100
AcDbLine
 10
-21.0000002298636
 20
442.121645973725
 30
0.0
 11
-18.3303030096872
 21
442.121645973725
 31
0.0
  0
LINE
  5
38D
330
1F
100
AcDbEntity
  8
1
  6
Continuous
 62
     3
100
AcDbLine
 10
-19.000057044747
 20
425.17748839109
 30
0.0
 11
-19.000057044747
 21
423.151864750189
 31
0.0
  0
LINE
  5
38E
330
1F
100
AcDbEntity
  8
1
  6
Continuous
 62
     3
100
AcDbLine
 10
-19.000057044747
 20
423.151864750189
 30
0.0
 11
-17.2457866516981
 21
422.13903626653
 31
0.0
  0
LINE
  5
38F
330
1F
100
AcDbEntity
  8
0
  6
Continuous
 62
     3
100
AcDbLine
 10
-9.75000022986359
 20
411.200073098471
 30
0.0
 11
-9.75000107321962
 21
416.659149184542
 31
0.0
  0
LINE
  5
390
330
1F
100
AcDbEntity
  8
0
  6
Continuous
 62
     3
100
AcDbLine
 10
9.74999977013641
 20
411.200073098471
 30
0.0
 11
9.74999977013641
 21
416.659136576233
 31
0.0
  0
LINE
  5
391
330
1F
100
AcDbEntity
  8
1
  6
Continuous
 62
     3
100
AcDbLine
 10
-12.8716551953895
 20
409.122088820028
 30
0.0
 11
12.628350755744
 21
409.122088820028
 31
0.0
  0
LINE
  5
392
330
1F
100
AcDbEntity
  8
1
  6
Continuous
 62
     3
100
AcDbLine
 10
12.628350755744
 20
409.122088820028
 30
0.0
 11
12.628350755744
 21
396.622089139628
 31
0.0
  0
LINE
  5
393
330
1F
100
AcDbEntity
  8
0
  6
Continuous
 62
     3
100
AcDbLine
 10
-10.3383101956835
 20
409.785648576787
 30
0.0
 11
-11.0025237580564
 21
409.121435014414
 31
0.0
  0
LINE
  5
394
330
1F
100
AcDbEntity
  8
0
  6
Continuous
 62
     3
100
AcDbLine
 10
10.3332626795703
 20
409.785648576787
 30
0.0
 11
10.9968224363296
 21
409.122088820028
 31
0.0
  0
LINE
  5
395
330
1F
100
AcDbEntity
  8
100
  6
Continuous
 62
     3
100
AcDbLine
 10
-12.8716551953895
 20
396.622089139628
 30
0.0
 11
12.628350755744
 21
396.622089139628
 31
0.0
  0
LINE
  5
396
330
1F
100
AcDbEntity
  8
100
  6
Continuous
 62
     3
100
AcDbLine
 10
-12.8716551953895
 20
396.622089139628
 30
0.0
 11
-12.8716551953895
 21
409.122088820028
 31
0.0
  0
LINE
  5
397
330
1F
100
AcDbEntity
  8
0
  6
Continuous
 62
     3
100
AcDbLine
 10
13.2722679129546
 20
420.793828050656
 30
0.0
 11
18.8202112852926
 21
434.187748183434
 31
0.0
  0
LINE
  5
398
330
1F
100
AcDbEntity
  8
0
  6
Continuous
 62
     3
100
AcDbLine
 10
18.8202112852926
 20
434.187748183434
 30
0.0
 11
13.2722679129537
 21
447.581668316212
 31
0.0
  0
LINE
  5
399
330
1F
100
AcDbEntity
  8
0
  6
Continuous
 62
     3
100
AcDbLine
 10
13.2722679129537
 20
447.581668316212
 30
0.0
 11
-0.1216522198244
 21
453.129611688551
 31
0.0
  0
LINE
  5
39A
330
1F
100
AcDbEntity
  8
0
  6
Continuous
 62
     3
100
AcDbLine
 10
-13.5155723526024
 20
447.581668316212
 30
0.0
 11
-19.0635157249414
 21
434.187748183434
 31
0.0
  0
LINE
  5
39B
330
1F
100
AcDbEntity
  8
0
  6
Continuous
 62
     3
100
AcDbLine
 10
-13.5155723526024
 20
420.793828050656
 30
0.0
 11
-0.12165221982435
 21
415.245884678318
 31
0.0
  0
LINE
  5
39C
330
1F
100
AcDbEntity
  8
0
  6
Continuous
 62
     3
100
AcDbLine
 10
-0.12165221982435
 20
415.245884678318
 30
0.0
 11
13.2722679129546
 21
420.793828050656
 31
0.0
  0
LINE
  5
39D
330
1F
100
AcDbEntity
  8
0
  6
Continuous
 62
     3
100
AcDbLine
 10
-0.1216522198244
 20
453.129611688551
 30
0.0
 11
-13.5155723526024
 21
447.581668316212
 31
0.0
  0
LINE
  5
39E
330
1F
100
AcDbEntity
  8
0
  6
Continuous
 62
     3
100
AcDbLine
 10
-19.0635157249414
 20
434.187748183434
 30
0.0
 11
-13.5155723526024
 21
420.793828050656
 31
0.0
  0
LINE
  5
39F
330
1F
100
AcDbEntity
  8
1
  6
Continuous
 62
     3
100
AcDbLine
 10
263.999347650085
 20
427.5
 30
0.0
 11
281.999347650085
 21
427.5
 31
0.0
  0
LINE
  5
3A0
330
1F
100
AcDbEntity
  8
1
  6
DOT_CENTER
 62
     1
100
AcDbLine
 10
-0.0000000000029
 20
461.12165198996
 30
0.0
 11
-0.0000000000029
 21
361.968248796538
 31
0.0
  0
LINE
  5
3A1
330
1F
100
AcDbEntity
  8
1
  6
Continuous
 62
     3
100
AcDbLine
 10
90.4263326517815
 20
461.5
 30
0.0
 11
111.824356902493
 21
461.5
 31
0.0
  0
LINE
  5
3A2
330
1F
100
AcDbEntity
  8
1
  6
Continuous
 62
     3
100
AcDbLine
 10
79.9723626483886
 20
406.5
 30
0.0
 11
44.9667001885689
 21
406.5
 31
0.0
  0
LINE
  5
3A3
330
1F
100
AcDbEntity
  8
1
  6
Continuous
 62
     3
100
AcDbLine
 10
248.999347650085
 20
417.549999999999
 30
0.0
 11
248.999347650085
 21
399.0
 31
0.0
  0
LINE
  5
3A4
330
1F
100
AcDbEntity
  8
1
  6
Continuous
 62
     3
100
AcDbLine
 10
22.9993476500848
 20
422.0
 30
0.0
 11
22.9993476500848
 21
399.0
 31
0.0
  0
LINE
  5
3A5
330
1F
100
AcDbEntity
  8
1
  6
Continuous
 62
     3
100
AcDbLine
 10
267.332680983418
 20
403.0
 30
0.0
 11
281.599347650085
 21
413.7
 31
0.0
  0
LINE
  5
3A6
330
1F
100
AcDbEntity
  8
1
  6
Continuous
 62
     3
100
AcDbLine
 10
267.332680983418
 20
465.0
 30
0.0
 11
281.599347650085
 21
454.3
 31
0.0
  0
LINE
  5
3A7
330
1F
100
AcDbEntity
  8
1
  6
Continuous
 62
     3
100
AcDbLine
 10
-9.6006523499151
 20
454.3
 30
0.0
 11
4.66601431675181
 21
465.0
 31
0.0
  0
LINE
  5
3A8
330
1F
100
AcDbEntity
  8
1
  6
Continuous
 62
     3
100
AcDbLine
 10
283.999347650085
 20
442.5
 30
0.0
 11
283.999347650085
 21
449.5
 31
0.0
  0
LINE
  5
3A9
330
1F
100
AcDbEntity
  8
1
  6
Continuous
 62
     3
100
AcDbLine
 10
283.999347650085
 20
425.5
 30
0.0
 11
283.999347650085
 21
418.5
 31
0.0
  0
LINE
  5
3AA
330
1F
100
AcDbEntity
  8
1
  6
Continuous
 62
     3
100
AcDbLine
 10
26.1993476500851
 20
399.0
 30
0.0
 11
16.6660143167518
 21
399.0
 31
0.0
  0
LINE
  5
3AB
330
1F
100
AcDbEntity
  8
1
  6
Continuous
 62
     3
100
AcDbLine
 10
26.1993476500851
 20
469.0
 30
0.0
 11
16.6660143167518
 21
469.0
 31
0.0
  0
LINE
  5
3AC
330
1F
100
AcDbEntity
  8
1
  6
Continuous
 62
     3
100
AcDbLine
 10
245.799347650085
 20
399.0
 30
0.0
 11
255.332680983418
 21
399.0
 31
0.0
  0
LINE
  5
3AD
330
1F
100
AcDbEntity
  8
1
  6
Continuous
 62
     3
100
AcDbLine
 10
245.799347650085
 20
469.0
 30
0.0
 11
255.332680983418
 21
469.0
 31
0.0
  0
LINE
  5
3AE
330
1F
100
AcDbEntity
  8
1
  6
Continuous
 62
     3
100
AcDbLine
 10
22.9993476500848
 20
469.0
 30
0.0
 11
22.9993476500848
 21
446.0
 31
0.0
  0
LINE
  5
3AF
330
1F
100
AcDbEntity
  8
1
  6
Continuous
 62
     3
100
AcDbLine
 10
248.999347650085
 20
469.0
 30
0.0
 11
248.999347650085
 21
450.450000000001
 31
0.0
  0
LINE
  5
3B0
330
1F
100
AcDbEntity
  8
1
  6
Continuous
 62
     3
100
AcDbLine
 10
26.1993476500851
 20
419.5
 30
0.0
 11
26.1993476500851
 21
399.0
 31
0.0
  0
LINE
  5
3B1
330
1F
100
AcDbEntity
  8
1
  6
Continuous
 62
     3
100
AcDbLine
 10
26.1993476500851
 20
469.0
 30
0.0
 11
26.1993476500851
 21
448.5
 31
0.0
  0
LINE
  5
3B2
330
1F
100
AcDbEntity
  8
1
  6
Continuous
 62
     3
100
AcDbLine
 10
245.799347650085
 20
417.549999999999
 30
0.0
 11
245.799347650085
 21
399.0
 31
0.0
  0
LINE
  5
3B3
330
1F
100
AcDbEntity
  8
1
  6
Continuous
 62
     3
100
AcDbLine
 10
245.799347650085
 20
469.0
 30
0.0
 11
245.799347650085
 21
450.450000000001
 31
0.0
  0
LINE
  5
3B4
330
1F
100
AcDbEntity
  8
1
  6
Continuous
 62
     3
100
AcDbLine
 10
32.9993476500848
 20
452.0
 30
0.0
 11
32.9993476500848
 21
461.5
 31
0.0
  0
LINE
  5
3B5
330
1F
100
AcDbEntity
  8
1
  6
Continuous
 62
     3
100
AcDbLine
 10
238.999347650085
 20
416.0
 30
0.0
 11
238.999347650085
 21
406.5
 31
0.0
  0
LINE
  5
3B6
330
1F
100
AcDbEntity
  8
1
  6
Continuous
 62
     3
100
AcDbLine
 10
29.4993476500848
 20
419.5
 30
0.0
 11
22.9993476500848
 21
419.5
 31
0.0
  0
LINE
  5
3B7
330
1F
100
AcDbEntity
  8
1
  6
Continuous
 62
     3
100
AcDbLine
 10
29.4993476500848
 20
448.5
 30
0.0
 11
22.9993476500848
 21
448.5
 31
0.0
  0
LINE
  5
3B8
330
1F
100
AcDbEntity
  8
1
  6
Continuous
 62
     3
100
AcDbLine
 10
281.999347650085
 20
440.5
 30
0.0
 11
263.999347650085
 21
440.5
 31
0.0
  0
LINE
  5
3B9
330
1F
100
AcDbEntity
  8
1
  6
Continuous
 62
     3
100
AcDbLine
 10
238.999347650085
 20
461.5
 30
0.0
 11
238.999347650085
 21
452.0
 31
0.0
  0
LINE
  5
3BA
330
1F
100
AcDbEntity
  8
1
  6
Continuous
 62
     3
100
AcDbLine
 10
238.999347650085
 20
406.5
 30
0.0
 11
161.747102912042
 21
406.5
 31
0.0
  0
LINE
  5
3BB
330
1F
100
AcDbEntity
  8
1
  6
Continuous
 62
     3
100
AcDbLine
 10
32.9993476500848
 20
406.5
 30
0.0
 11
32.9993476500848
 21
416.0
 31
0.0
  0
LINE
  5
3BC
330
1F
100
AcDbEntity
  8
1
  6
DOT_CENTER
 62
     1
100
AcDbLine
 10
-27.0000002298636
 20
434.0
 30
0.0
 11
289.999347650085
 21
434.0
 31
0.0
  0
LINE
  5
3BD
330
1F
100
AcDbEntity
  8
1
  6
Continuous
 62
     3
100
AcDbLine
 10
32.9993476500848
 20
461.5
 30
0.0
 11
41.0981654662657
 21
461.5
 31
0.0
  0
LINE
  5
3BE
330
1F
100
AcDbEntity
  8
1
  6
DOT_CENTER
 62
     1
100
AcDbLine
 10
-0.00000000000153
 20
136.0000011092
 30
0.0
 11
0.00000000000006
 21
16.0000000000002
 31
0.0
  0
LINE
  5
3BF
330
1F
100
AcDbEntity
  8
1
  6
Continuous
 62
     3
100
AcDbLine
 10
33.0000000000001
 20
-43.2000000000001
 30
0.0
 11
29.2000000000001
 21
-43.2000000000001
 31
0.0
  0
LINE
  5
3C0
330
1F
100
AcDbEntity
  8
1
  6
DOT_CENTER
 62
     1
100
AcDbLine
 10
8.00000000000006
 20
-97.3000000000003
 30
0.0
 11
8.00000000000006
 21
-106.5
 31
0.0
  0
LINE
  5
3C1
330
1F
100
AcDbEntity
  8
1
  6
Continuous
 62
     3
100
AcDbLine
 10
26.2000000000001
 20
-97.3000000000003
 30
0.0
 11
26.2000000000001
 21
-46.2000000000001
 31
0.0
  0
LINE
  5
3C2
330
1F
100
AcDbEntity
  8
1
  6
Continuous
 62
     3
100
AcDbLine
 10
-11.9999999999999
 20
-103.5
 30
0.0
 11
20.0000000000001
 21
-103.5
 31
0.0
  0
LINE
  5
3C3
330
1F
100
AcDbEntity
  8
1
  6
Continuous
 62
     3
100
AcDbLine
 10
-11.9999999999999
 20
-100.3
 30
0.0
 11
-11.9999999999999
 21
-103.5
 31
0.0
  0
LINE
  5
3C4
330
1F
100
AcDbEntity
  8
1
  6
Continuous
 62
     3
100
AcDbLine
 10
20.0000000000001
 20
-100.3
 30
0.0
 11
-11.9999999999999
 21
-100.3
 31
0.0
  0
LINE
  5
3C5
330
1F
100
AcDbEntity
  8
1
  6
Continuous
 62
     3
100
AcDbLine
 10
23.0000000000001
 20
-46.2000000000001
 30
0.0
 11
23.0000000000001
 21
-97.3000000000003
 31
0.0
  0
LINE
  5
3C6
330
1F
100
AcDbEntity
  8
1
  6
Continuous
 62
     3
100
AcDbLine
 10
245.8
 20
-77.5
 30
0.0
 11
249.0
 21
-77.5
 31
0.0
  0
LINE
  5
3C7
330
1F
100
AcDbEntity
  8
1
  6
Continuous
 62
     3
100
AcDbLine
 10
245.8
 20
-52.0
 30
0.0
 11
249.0
 21
-52.0
 31
0.0
  0
LINE
  5
3C8
330
1F
100
AcDbEntity
  8
1
  6
DOT_CENTER
 62
     1
100
AcDbLine
 10
264.0
 20
-97.3000000000003
 30
0.0
 11
264.0
 21
-106.5
 31
0.0
  0
LINE
  5
3C9
330
1F
100
AcDbEntity
  8
1
  6
Continuous
 62
     3
100
AcDbLine
 10
245.8
 20
-97.1000000000001
 30
0.0
 11
245.8
 21
-46.2000000000001
 31
0.0
  0
LINE
  5
3CA
330
1F
100
AcDbEntity
  8
1
  6
Continuous
 62
     3
100
AcDbLine
 10
284.0
 20
-103.5
 30
0.0
 11
252.2
 21
-103.5
 31
0.0
  0
LINE
  5
3CB
330
1F
100
AcDbEntity
  8
1
  6
Continuous
 62
     3
100
AcDbLine
 10
284.0
 20
-100.3
 30
0.0
 11
284.0
 21
-103.5
 31
0.0
  0
LINE
  5
3CC
330
1F
100
AcDbEntity
  8
1
  6
Continuous
 62
     3
100
AcDbLine
 10
252.0
 20
-100.3
 30
0.0
 11
284.0
 21
-100.3
 31
0.0
  0
LINE
  5
3CD
330
1F
100
AcDbEntity
  8
1
  6
Continuous
 62
     3
100
AcDbLine
 10
249.0
 20
-46.4000000000001
 30
0.0
 11
249.0
 21
-97.3000000000003
 31
0.0
  0
LINE
  5
3CE
330
1F
100
AcDbEntity
  8
1
  6
Continuous
 62
     3
100
AcDbLine
 10
239.0
 20
-43.2000000000001
 30
0.0
 11
242.8
 21
-43.2000000000001
 31
0.0
  0
LINE
  5
3CF
330
1F
100
AcDbEntity
  8
1
  6
Continuous
 62
     3
100
AcDbLine
 10
105.2
 20
-22.0
 30
0.0
 11
105.2
 21
-36.8000000000003
 31
0.0
  0
LINE
  5
3D0
330
1F
100
AcDbEntity
  8
1
  6
Continuous
 62
     3
100
AcDbLine
 10
102.0
 20
-37.0
 30
0.0
 11
102.0
 21
-22.0
 31
0.0
  0
LINE
  5
3D1
330
1F
100
AcDbEntity
  8
1
  6
Continuous
 62
     3
100
AcDbLine
 10
33.0000000000001
 20
-40.0
 30
0.0
 11
33.0000000000001
 21
-49.9289321881347
 31
0.0
  0
LINE
  5
3D2
330
1F
100
AcDbEntity
  8
1
  6
Continuous
 62
     3
100
AcDbLine
 10
239.0
 20
-40.0
 30
0.0
 11
239.0
 21
-49.9289321881347
 31
0.0
  0
LINE
  5
3D3
330
1F
100
AcDbEntity
  8
1
  6
Continuous
 62
     3
100
AcDbLine
 10
23.0000000000001
 20
-52.0
 30
0.0
 11
26.2000000000001
 21
-52.0
 31
0.0
  0
LINE
  5
3D4
330
1F
100
AcDbEntity
  8
1
  6
Continuous
 62
     3
100
AcDbLine
 10
23.0000000000001
 20
-77.5
 30
0.0
 11
26.2000000000001
 21
-77.5
 31
0.0
  0
LINE
  5
3D5
330
1F
100
AcDbEntity
  8
1
  6
Continuous
 62
     3
100
AcDbLine
 10
237.535533905933
 20
-53.4644660940672
 30
0.0
 11
223.964466094068
 21
-67.0355339059327
 31
0.0
  0
LINE
  5
3D6
330
1F
100
AcDbEntity
  8
1
  6
Continuous
 62
     3
100
AcDbLine
 10
34.4644660940675
 20
-53.4644660940672
 30
0.0
 11
48.0355339059328
 21
-67.0355339059327
 31
0.0
  0
LINE
  5
3D7
330
1F
100
AcDbEntity
  8
1
  6
Continuous
 62
     3
100
AcDbLine
 10
51.5710678118656
 20
-68.5
 30
0.0
 11
220.428932188135
 21
-68.5
 31
0.0
  0
LINE
  5
3D8
330
1F
100
AcDbEntity
  8
1
  6
Continuous
 62
     3
100
AcDbLine
 10
242.6
 20
-40.0
 30
0.0
 11
29.2000000000001
 21
-40.0
 31
0.0
  0
LINE
  5
3D9
330
1F
100
AcDbEntity
  8
1
  6
Continuous
 62
     3
100
AcDbLine
 10
182.0
 20
-40.0
 30
0.0
 11
182.0
 21
-20.0
 31
0.0
  0
LINE
  5
3DA
330
1F
100
AcDbEntity
  8
1
  6
Continuous
 62
     3
100
AcDbLine
 10
182.0
 20
-20.0
 30
0.0
 11
171.0
 21
-20.0
 31
0.0
  0
LINE
  5
3DB
330
1F
100
AcDbEntity
  8
1
  6
Continuous
 62
     3
100
AcDbLine
 10
171.0
 20
-40.0
 30
0.0
 11
171.0
 21
-20.0
 31
0.0
  0
LINE
  5
3DC
330
1F
100
AcDbEntity
  8
1
  6
DOT_CENTER
 62
     1
100
AcDbLine
 10
518.0
 20
135.934551248675
 30
0.0
 11
518.0
 21
-109.5
 31
0.0
  0
LINE
  5
3DD
330
1F
100
AcDbEntity
  8
1
  6
Continuous
 62
     3
100
AcDbLine
 10
501.73500536645
 20
-54.1954811295375
 30
0.0
 11
486.309364937906
 21
-73.3834728821173
 31
0.0
  0
LINE
  5
3DE
330
1F
100
AcDbEntity
  8
1
  6
Continuous
 62
     3
100
AcDbLine
 10
534.26499463355
 20
-54.1954811295375
 30
0.0
 11
549.690635062094
 21
-73.3834728821173
 31
0.0
  0
LINE
  5
3DF
330
1F
100
AcDbEntity
  8
1
  6
Continuous
 62
     3
100
AcDbLine
 10
503.5
 20
-43.2000000000001
 30
0.0
 11
496.7
 21
-43.2000000000001
 31
0.0
  0
LINE
  5
3E0
330
1F
100
AcDbEntity
  8
1
  6
Continuous
 62
     3
100
AcDbLine
 10
542.3
 20
-64.1902439024391
 30
0.0
 11
542.3
 21
-46.2000000000001
 31
0.0
  0
LINE
  5
3E1
330
1F
100
AcDbEntity
  8
1
  6
Continuous
 62
     3
100
AcDbLine
 10
490.5
 20
-68.1707317073171
 30
0.0
 11
490.5
 21
-46.2000000000001
 31
0.0
  0
LINE
  5
3E2
330
1F
100
AcDbEntity
  8
1
  6
Continuous
 62
     3
100
AcDbLine
 10
553.0
 20
-103.5
 30
0.0
 11
553.0
 21
-82.7818265594872
 31
0.0
  0
LINE
  5
3E3
330
1F
100
AcDbEntity
  8
1
  6
Continuous
 62
     3
100
AcDbLine
 10
483.0
 20
-82.7818265594872
 30
0.0
 11
483.0
 21
-103.5
 31
0.0
  0
LINE
  5
3E4
330
1F
100
AcDbEntity
  8
1
  6
Continuous
 62
     3
100
AcDbLine
 10
512.5
 20
-100.3
 30
0.0
 11
512.5
 21
-103.5
 31
0.0
  0
LINE
  5
3E5
330
1F
100
AcDbEntity
  8
1
  6
Continuous
 62
     3
100
AcDbLine
 10
523.5
 20
-100.3
 30
0.0
 11
523.5
 21
-103.5
 31
0.0
  0
LINE
  5
3E6
330
1F
100
AcDbEntity
  8
1
  6
Continuous
 62
     3
100
AcDbLine
 10
532.5
 20
-40.0
 30
0.0
 11
532.5
 21
-49.18302583494
 31
0.0
  0
LINE
  5
3E7
330
1F
100
AcDbEntity
  8
1
  6
Continuous
 62
     3
100
AcDbLine
 10
503.5
 20
-40.0
 30
0.0
 11
503.5
 21
-49.18302583494
 31
0.0
  0
LINE
  5
3E8
330
1F
100
AcDbEntity
  8
1
  6
Continuous
 62
     3
100
AcDbLine
 10
483.0
 20
-100.3
 30
0.0
 11
553.0
 21
-100.3
 31
0.0
  0
LINE
  5
3E9
330
1F
100
AcDbEntity
  8
1
  6
Continuous
 62
     3
100
AcDbLine
 10
483.0
 20
-103.5
 30
0.0
 11
553.0
 21
-103.5
 31
0.0
  0
LINE
  5
3EA
330
1F
100
AcDbEntity
  8
1
  6
Continuous
 62
     3
100
AcDbLine
 10
496.7
 20
-40.0
 30
0.0
 11
539.3
 21
-40.0
 31
0.0
  0
LINE
  5
3EB
330
1F
100
AcDbEntity
  8
1
  6
Continuous
 62
     3
100
AcDbLine
 10
545.5
 20
-46.2000000000001
 30
0.0
 11
545.5
 21
-68.1707317073171
 31
0.0
  0
LINE
  5
3EC
330
1F
100
AcDbEntity
  8
1
  6
Continuous
 62
     3
100
AcDbLine
 10
539.3
 20
-43.2000000000001
 30
0.0
 11
532.5
 21
-43.2000000000001
 31
0.0
  0
LINE
  5
3ED
330
1F
100
AcDbEntity
  8
1
  6
Continuous
 62
     3
100
AcDbLine
 10
493.7
 20
-46.2000000000001
 30
0.0
 11
493.7
 21
-64.1902439024391
 31
0.0
  0
LINE
  5
3EE
330
1F
100
AcDbEntity
  8
1
  6
Continuous
 62
     3
100
AcDbLine
 10
500.5
 20
-100.3
 30
0.0
 11
500.5
 21
-103.5
 31
0.0
  0
LINE
  5
3EF
330
1F
100
AcDbEntity
  8
1
  6
Continuous
 62
     3
100
AcDbLine
 10
535.5
 20
-103.5
 30
0.0
 11
535.5
 21
-100.3
 31
0.0
  0
LINE
  5
3F0
330
1F
100
AcDbEntity
  8
1
  6
Continuous
 62
     3
100
AcDbLine
 10
493.7
 20
-52.0
 30
0.0
 11
490.5
 21
-52.0
 31
0.0
  0
LINE
  5
3F1
330
1F
100
AcDbEntity
  8
1
  6
Continuous
 62
     3
100
AcDbLine
 10
542.3
 20
-52.0
 30
0.0
 11
545.5
 21
-52.0
 31
0.0
  0
LINE
  5
3F2
330
1F
100
AcDbEntity
  8
1
  6
Continuous
 62
     3
100
AcDbLine
 10
201.5
 20
22.7499999999999
 30
0.0
 11
201.5
 21
-22.7500000001841
 31
0.0
  0
LINE
  5
3F3
330
1F
100
AcDbEntity
  8
1
  6
Continuous
 62
     3
100
AcDbLine
 10
179.374338397679
 20
461.5
 30
0.0
 11
238.999347650085
 21
461.5
 31
0.0
  0
LINE
  5
3F4
330
1F
100
AcDbEntity
  8
1
  6
Continuous
 62
     3
100
AcDbLine
 10
129.45159238813
 20
406.5
 30
0.0
 11
90.4263326517815
 21
406.5
 31
0.0
  0
LINE
  5
3F5
330
1F
100
AcDbEntity
  8
5
  6
Continuous
 62
     4
100
AcDbLine
 10
172.403847577294
 20
-20.0
 30
0.0
 11
177.600000000001
 21
-11.0
 31
0.0
  0
LINE
  5
3F6
330
1F
100
AcDbEntity
  8
1
  6
Continuous
 62
     4
100
AcDbLine
 10
246.757253088771
 20
16.450000000001
 30
0.0
 11
253.727928169558
 21
24.1043690720108
 31
0.0
  0
LINE
  5
3F7
330
1F
100
AcDbEntity
  8
1
  6
Continuous
 62
     4
100
AcDbLine
 10
246.757253088771
 20
16.450000000001
 30
0.0
 11
256.621219326265
 21
19.5935405259098
 31
0.0
  0
LINE
  5
3F8
330
1F
100
AcDbEntity
  8
1
  6
Continuous
 62
     4
100
AcDbLine
 10
-0.00000000000118
 20
130.0000011092
 30
0.0
 11
-4.9554202549455
 21
133.745464205663
 31
0.0
  0
LINE
  5
3F9
330
1F
100
AcDbEntity
  8
1
  6
Continuous
 62
     4
100
AcDbLine
 10
-0.00000000000118
 20
130.0000011092
 30
0.0
 11
-2.41878827897923
 21
135.721377427146
 31
0.0
  0
LINE
  5
3FA
330
1F
100
AcDbEntity
  8
0
  6
DASHED
 62
     2
100
AcDbLine
 10
2.99999999999687
 20
353.631803986555
 30
0.0
 11
2.99999999999687
 21
363.160252928642
 31
0.0
  0
LINE
  5
3FB
330
1F
100
AcDbEntity
  8
1
  6
DASHED
 62
     2
100
AcDbLine
 10
19.9999999999972
 20
359.9999988908
 30
0.0
 11
2.99915877804989
 21
359.9999988908
 31
0.0
  0
LINE
  5
3FC
330
1F
100
AcDbEntity
  8
1
  6
DASHED
 62
     2
100
AcDbLine
 10
-2.99915877805319
 20
359.9999988908
 30
0.0
 11
-20.0000000000031
 21
359.9999988908
 31
0.0
  0
LINE
  5
3FD
330
1F
100
AcDbEntity
  8
0
  6
DASHED
 62
     2
100
AcDbLine
 10
18.9418635051146
 20
303.9999988908
 30
0.0
 11
-18.9418635051199
 21
303.9999988908
 31
0.0
  0
LINE
  5
3FE
330
1F
100
AcDbEntity
  8
0
  6
DASHED
 62
     2
100
AcDbLine
 10
15.7499999999972
 20
323.749995640503
 30
0.0
 11
15.7499999999972
 21
320.499998890798
 31
0.0
  0
LINE
  5
3FF
330
1F
100
AcDbEntity
  8
0
  6
DASHED
 62
     2
100
AcDbLine
 10
17.4999957118582
 20
325.500001062397
 30
0.0
 11
15.7499999999972
 21
323.749995640503
 31
0.0
  0
LINE
  5
400
330
1F
100
AcDbEntity
  8
0
  6
DASHED
 62
     2
100
AcDbLine
 10
17.5000009675416
 20
329.999998233918
 30
0.0
 11
17.4999957118582
 21
325.500001062397
 31
0.0
  0
LINE
  5
401
330
1F
100
AcDbEntity
  8
0
  6
DASHED
 62
     2
100
AcDbLine
 10
-15.7500000000029
 20
323.750002134826
 30
0.0
 11
-15.7500000000029
 21
320.499998890801
 31
0.0
  0
LINE
  5
402
330
1F
100
AcDbEntity
  8
0
  6
DASHED
 62
     2
100
AcDbLine
 10
20.9999999999972
 20
333.500006972129
 30
0.0
 11
17.5000009675416
 21
329.999998233918
 31
0.0
  0
LINE
  5
403
330
1F
100
AcDbEntity
  8
0
  6
DASHED
 62
     2
100
AcDbLine
 10
20.9999999999972
 20
333.500006972129
 30
0.0
 11
20.9999999999972
 21
358.9999988908
 31
0.0
  0
LINE
  5
404
330
1F
100
AcDbEntity
  8
0
  6
DASHED
 62
     2
100
AcDbLine
 10
18.941863505106
 20
318.657175636915
 30
0.0
 11
15.7499999999972
 21
320.499998890798
 31
0.0
  0
LINE
  5
405
330
1F
100
AcDbEntity
  8
0
  6
DASHED
 62
     2
100
AcDbLine
 10
18.941863505106
 20
318.657175636915
 30
0.0
 11
18.9418635051146
 21
303.9999988908
 31
0.0
  0
LINE
  5
406
330
1F
100
AcDbEntity
  8
0
  6
DASHED
 62
     2
100
AcDbLine
 10
-21.0000000000029
 20
333.499990825017
 30
0.0
 11
-17.4999990343124
 21
329.999999546416
 31
0.0
  0
LINE
  5
407
330
1F
100
AcDbEntity
  8
0
  6
DASHED
 62
     2
100
AcDbLine
 10
-18.9418635051199
 20
318.657175636905
 30
0.0
 11
-18.9418635051199
 21
303.9999988908
 31
0.0
  0
LINE
  5
408
330
1F
100
AcDbEntity
  8
0
  6
DASHED
 62
     2
100
AcDbLine
 10
-18.9418635051199
 20
318.657175636905
 30
0.0
 11
-15.7500000000029
 21
320.499998890801
 31
0.0
  0
LINE
  5
409
330
1F
100
AcDbEntity
  8
0
  6
DASHED
 62
     2
100
AcDbLine
 10
-17.4999990343124
 20
329.999999546416
 30
0.0
 11
-17.5000042799234
 21
325.499996723401
 31
0.0
  0
LINE
  5
40A
330
1F
100
AcDbEntity
  8
0
  6
DASHED
 62
     2
100
AcDbLine
 10
-17.5000042799234
 20
325.499996723401
 30
0.0
 11
-15.7500000000029
 21
323.750002134826
 31
0.0
  0
LINE
  5
40B
330
1F
100
AcDbEntity
  8
0
  6
DASHED
 62
     2
100
AcDbLine
 10
-21.0000000000029
 20
333.499990825017
 30
0.0
 11
-21.0000000000029
 21
358.9999988908
 31
0.0
  0
LINE
  5
40C
330
1F
100
AcDbEntity
  8
0
  6
DASHED
 62
     2
100
AcDbLine
 10
-1.00000000000017
 20
313.103436950509
 30
0.0
 11
0.99999999999687
 21
313.103436950509
 31
0.0
  0
LINE
  5
40D
330
1F
100
AcDbEntity
  8
0
  6
DASHED
 62
     2
100
AcDbLine
 10
2.99999999999687
 20
315.103436950509
 30
0.0
 11
2.99999999999687
 21
328.368193794117
 31
0.0
  0
LINE
  5
40E
330
1F
100
AcDbEntity
  8
0
  6
DASHED
 62
     2
100
AcDbLine
 10
-3.00000000000017
 20
363.160252928642
 30
0.0
 11
-3.00000000000017
 21
353.631803985686
 31
0.0
  0
LINE
  5
40F
330
1F
100
AcDbEntity
  8
0
  6
DASHED
 62
     2
100
AcDbLine
 10
-3.00000000000017
 20
328.368193794986
 30
0.0
 11
-3.00000000000017
 21
315.103436950509
 31
0.0
  0
LINE
  5
410
330
1F
100
AcDbEntity
  8
0
  6
DOT_CENTER
 62
     2
100
AcDbLine
 10
-15.7499999768076
 20
341.000768000762
 30
0.0
 11
15.7499999768019
 21
341.000768000762
 31
0.0
  0
LINE
  5
411
330
1F
100
AcDbEntity
  8
1
  6
DASHED
 62
     2
100
AcDbLine
 10
575.500773587561
 20
18.9999996381
 30
0.0
 11
553.500774001161
 21
18.9999996381
 31
0.0
  0
LINE
  5
412
330
1F
100
AcDbEntity
  8
5
  6
DASHED
 62
     2
100
AcDbLine
 10
575.500773587561
 20
18.9999996381
 30
0.0
 11
575.500773587561
 21
-18.9999996381
 31
0.0
  0
LINE
  5
413
330
1F
100
AcDbEntity
  8
0
  6
DASHED
 62
     2
100
AcDbLine
 10
620.750001109199
 20
24.9999999999907
 30
0.0
 11
623.750004084766
 21
24.9999999999907
 31
0.0
  0
LINE
  5
414
330
1F
100
AcDbEntity
  8
0
  6
DASHED
 62
     2
100
AcDbLine
 10
601.250001109199
 20
20.9999999999907
 30
0.0
 11
592.000001109199
 21
20.9999999999907
 31
0.0
  0
LINE
  5
415
330
1F
100
AcDbEntity
  8
0
  6
DASHED
 62
     2
100
AcDbLine
 10
601.250001109199
 20
20.9999999999907
 30
0.0
 11
601.2500011092
 21
24.9999999999907
 31
0.0
  0
LINE
  5
416
330
1F
100
AcDbEntity
  8
0
  6
DASHED
 62
     2
100
AcDbLine
 10
619.500001109199
 20
-20.0000000000093
 30
0.0
 11
622.0000011092
 21
-17.5000000000093
 31
0.0
  0
LINE
  5
417
330
1F
100
AcDbEntity
  8
0
  6
DASHED
 62
     2
100
AcDbLine
 10
626.500001109198
 20
-17.5000000000093
 30
0.0
 11
628.250001109201
 21
-15.7500000000093
 31
0.0
  0
LINE
  5
418
330
1F
100
AcDbEntity
  8
0
  6
DASHED
 62
     2
100
AcDbLine
 10
633.342824363089
 20
18.9418635050972
 30
0.0
 11
631.5000011092
 21
15.7499999999907
 31
0.0
  0
LINE
  5
419
330
1F
100
AcDbEntity
  8
0
  6
DASHED
 62
     2
100
AcDbLine
 10
626.500001590099
 20
17.5000009496085
 30
0.0
 11
628.250000389421
 21
15.7499999999907
 31
0.0
  0
LINE
  5
41A
330
1F
100
AcDbEntity
  8
0
  6
DASHED
 62
     2
100
AcDbLine
 10
628.250000389421
 20
15.7499999999907
 30
0.0
 11
631.5000011092
 21
15.7499999999907
 31
0.0
  0
LINE
  5
41B
330
1F
100
AcDbEntity
  8
0
  6
DASHED
 62
     2
100
AcDbLine
 10
628.250001109201
 20
-15.7500000000093
 30
0.0
 11
631.5000011092
 21
-15.7500000000093
 31
0.0
  0
LINE
  5
41C
330
1F
100
AcDbEntity
  8
0
  6
DASHED
 62
     2
100
AcDbLine
 10
620.750001109199
 20
17.4999994624252
 30
0.0
 11
626.500001590099
 21
17.5000009496085
 31
0.0
  0
LINE
  5
41D
330
1F
100
AcDbEntity
  8
0
  6
DASHED
 62
     2
100
AcDbLine
 10
620.750001109199
 20
17.4999994624252
 30
0.0
 11
620.750001109199
 21
24.9999999999907
 31
0.0
  0
LINE
  5
41E
330
1F
100
AcDbEntity
  8
0
  6
DASHED
 62
     2
100
AcDbLine
 10
633.342824363095
 20
-18.9418635051261
 30
0.0
 11
631.5000011092
 21
-15.7500000000093
 31
0.0
  0
LINE
  5
41F
330
1F
100
AcDbEntity
  8
0
  6
DASHED
 62
     2
100
AcDbLine
 10
622.0000011092
 20
-17.5000000000093
 30
0.0
 11
626.500001109198
 21
-17.5000000000093
 31
0.0
  0
LINE
  5
420
330
1F
100
AcDbEntity
  8
0
  6
DASHED
 62
     2
100
AcDbLine
 10
605.182676922881
 20
-21.0000000000093
 30
0.0
 11
592.000001109199
 21
-21.0000000000093
 31
0.0
  0
LINE
  5
421
330
1F
100
AcDbEntity
  8
0
  6
DASHED
 62
     2
100
AcDbLine
 10
619.500001109199
 20
-20.0000000000093
 30
0.0
 11
607.828428233946
 21
-20.0000000000093
 31
0.0
  0
LINE
  5
422
330
1F
100
AcDbEntity
  8
0
  6
DASHED
 62
     2
100
AcDbLine
 10
633.342824363095
 20
-18.9418635051261
 30
0.0
 11
648.000001109199
 21
-18.9418635051261
 31
0.0
  0
LINE
  5
423
330
1F
100
AcDbEntity
  8
0
  6
DASHED
 62
     2
100
AcDbLine
 10
648.000001109199
 20
18.9418635050972
 30
0.0
 11
648.000001109199
 21
-18.9418635051261
 31
0.0
  0
LINE
  5
424
330
1F
100
AcDbEntity
  8
1
  6
DASHED
 62
     2
100
AcDbLine
 10
633.342824363089
 20
18.9418635050972
 30
0.0
 11
648.000001109199
 21
18.9418635050972
 31
0.0
  0
LINE
  5
425
330
1F
100
AcDbEntity
  8
4
  6
DASHED
 62
     2
100
AcDbLine
 10
592.000001109199
 20
-13.7415295442913
 30
0.0
 11
575.500773587561
 21
-13.7415295442913
 31
0.0
  0
LINE
  5
426
330
1F
100
AcDbEntity
  8
100
  6
DASHED
 62
     2
100
AcDbLine
 10
575.500773587561
 20
13.7415298021137
 30
0.0
 11
592.000001109199
 21
13.7415298028616
 31
0.0
  0
LINE
  5
427
330
1F
100
AcDbEntity
  8
1
  6
DASHED
 62
     2
100
AcDbLine
 10
592.000001109199
 20
20.9999999999907
 30
0.0
 11
592.000001109199
 21
-21.0000000000093
 31
0.0
  0
LINE
  5
428
330
1F
100
AcDbEntity
  8
1
  6
DASHED
 62
     2
100
AcDbLine
 10
634.879352521108
 20
66.1538894676156
 30
0.0
 11
634.979352521109
 21
66.1538894676156
 31
0.0
  0
LINE
  5
429
330
1F
100
AcDbEntity
  8
100
  6
DASHED
 62
     2
100
AcDbLine
 10
591.000001109201
 20
46.0000033981997
 30
0.0
 11
582.916719150924
 21
50.6668884127458
 31
0.0
  0
LINE
  5
42A
330
1F
100
AcDbEntity
  8
100
  6
DASHED
 62
     2
100
AcDbLine
 10
582.916719150924
 20
50.6668884127458
 30
0.0
 11
584.032065603016
 21
63.4153566958587
 31
0.0
  0
LINE
  5
42B
330
1F
100
AcDbEntity
  8
100
  6
DASHED
 62
     2
100
AcDbLine
 10
639.083283067476
 20
50.6668884127459
 30
0.0
 11
637.967936615383
 21
63.4153566958587
 31
0.0
  0
LINE
  5
42C
330
1F
100
AcDbEntity
  8
100
  6
DASHED
 62
     2
100
AcDbLine
 10
611.000001109199
 20
45.9999525014297
 30
0.0
 11
630.999912953407
 21
45.9999525014297
 31
0.0
  0
LINE
  5
42D
330
1F
100
AcDbEntity
  8
100
  6
DASHED
 62
     2
100
AcDbLine
 10
599.097482538613
 20
60.5358122460166
 30
0.0
 11
600.638176636178
 21
60.3370130076217
 31
0.0
  0
LINE
  5
42E
330
1F
100
AcDbEntity
  8
100
  6
DASHED
 62
     2
100
AcDbLine
 10
588.520649697291
 20
65.7519656789697
 30
0.0
 11
595.377195914915
 21
61.7933368745138
 31
0.0
  0
LINE
  5
42F
330
1F
100
AcDbEntity
  8
100
  6
DASHED
 62
     2
100
AcDbLine
 10
630.999912953407
 20
45.9999525014297
 30
0.0
 11
639.083283067476
 21
50.6668884127459
 31
0.0
  0
LINE
  5
430
330
1F
100
AcDbEntity
  8
100
  6
DASHED
 62
     2
100
AcDbLine
 10
591.000001109201
 20
46.0000033981997
 30
0.0
 11
611.000001109199
 21
46.0000033981997
 31
0.0
  0
LINE
  5
431
330
1F
100
AcDbEntity
  8
100
  6
DASHED
 62
     2
100
AcDbLine
 10
633.479352521109
 20
65.7519656789697
 30
0.0
 11
626.622806303484
 21
61.7933368745126
 31
0.0
  0
LINE
  5
432
330
1F
100
AcDbEntity
  8
100
  6
DASHED
 62
     2
100
AcDbLine
 10
618.180791487189
 20
62.0000033981997
 30
0.0
 11
618.000001109199
 21
62.0000033981997
 31
0.0
  0
LINE
  5
433
330
1F
100
AcDbEntity
  8
100
  6
DASHED
 62
     2
100
AcDbLine
 10
604.000001109199
 20
62.0000033981997
 30
0.0
 11
603.81921073121
 21
62.0000033981997
 31
0.0
  0
LINE
  5
434
330
1F
100
AcDbEntity
  8
100
  6
DASHED
 62
     2
100
AcDbLine
 10
611.000001109199
 20
62.0000033981997
 30
0.0
 11
603.314062300763
 21
62.0000033981989
 31
0.0
  0
LINE
  5
435
330
1F
100
AcDbEntity
  8
100
  6
DASHED
 62
     2
100
AcDbLine
 10
622.902519679786
 20
60.5358122460166
 30
0.0
 11
621.361825582284
 21
60.3370130076297
 31
0.0
  0
LINE
  5
436
330
1F
100
AcDbEntity
  8
100
  6
DASHED
 62
     2
100
AcDbLine
 10
618.685939917637
 20
62.0000033981997
 30
0.0
 11
611.000001109199
 21
62.0000033981997
 31
0.0
  0
LINE
  5
437
330
1F
100
AcDbEntity
  8
100
  6
DASHED
 62
     2
100
AcDbLine
 10
611.000001109199
 20
37.4999982246997
 30
0.0
 11
598.750004564166
 21
37.4999982246997
 31
0.0
  0
LINE
  5
438
330
1F
100
AcDbEntity
  8
100
  6
DASHED
 62
     2
100
AcDbLine
 10
623.250004084766
 20
37.4999982246997
 30
0.0
 11
611.000001109199
 21
37.4999982246997
 31
0.0
  0
LINE
  5
439
330
1F
100
AcDbEntity
  8
100
  6
DASHED
 62
     2
100
AcDbLine
 10
598.250004564166
 20
36.9999982246997
 30
0.0
 11
598.250004564166
 21
24.9999999999907
 31
0.0
  0
LINE
  5
43A
330
1F
100
AcDbEntity
  8
100
  6
DASHED
 62
     2
100
AcDbLine
 10
616.000003009765
 20
45.9999525014297
 30
0.0
 11
616.000003009765
 21
37.4999982246997
 31
0.0
  0
LINE
  5
43B
330
1F
100
AcDbEntity
  8
100
  6
DASHED
 62
     2
100
AcDbLine
 10
623.750004084766
 20
36.9999982246997
 30
0.0
 11
623.750004084766
 21
24.9999999999907
 31
0.0
  0
LINE
  5
43C
330
1F
100
AcDbEntity
  8
1
  6
DASHED
 62
     2
100
AcDbLine
 10
623.750004084766
 20
36.9999982246997
 30
0.0
 11
623.250004084766
 21
37.4999982246997
 31
0.0
  0
LINE
  5
43D
330
1F
100
AcDbEntity
  8
1
  6
DASHED
 62
     2
100
AcDbLine
 10
598.250004564166
 20
36.9999982246997
 30
0.0
 11
598.750004564166
 21
37.4999982246997
 31
0.0
  0
LINE
  5
43E
330
1F
100
AcDbEntity
  8
100
  6
DASHED
 62
     2
100
AcDbLine
 10
605.999999208633
 20
46.0000033981997
 30
0.0
 11
605.999999208633
 21
37.4999982246997
 31
0.0
  0
LINE
  5
43F
330
1F
100
AcDbEntity
  8
1
  6
DASHED
 62
     2
100
AcDbLine
 10
575.500773587561
 20
-18.9999996381
 30
0.0
 11
553.500774001161
 21
-18.9999996381
 31
0.0
  0
LINE
  5
440
330
1F
100
AcDbEntity
  8
5
  6
DASHED
 62
     2
100
AcDbLine
 10
553.500774001161
 20
18.9999996381
 30
0.0
 11
553.500774001161
 21
-18.9999996381
 31
0.0
  0
LINE
  5
441
330
1F
100
AcDbEntity
  8
5
  6
Continuous
 62
     3
100
AcDbLine
 10
499.0000003619
 20
35.5007740011606
 30
0.0
 11
509.917096231346
 21
35.5007740011606
 31
0.0
  0
LINE
  5
442
330
1F
100
AcDbEntity
  8
0
  6
Continuous
 62
     3
100
AcDbLine
 10
539.0
 20
77.0000011091995
 30
0.0
 11
497.0
 21
77.0000011091995
 31
0.0
  0
LINE
  5
443
330
1F
100
AcDbEntity
  8
0
  6
DASHED
 62
     2
100
AcDbLine
 10
598.250004564166
 20
24.9999999999907
 30
0.0
 11
601.2500011092
 21
24.9999999999907
 31
0.0
  0
LINE
  5
444
330
1F
100
AcDbEntity
  8
0
  6
DOT_CENTER
 62
     2
100
AcDbLine
 10
611.000001109199
 20
-3.0
 30
0.0
 11
611.0000011092
 21
66.0
 31
0.0
  0
LINE
  5
445
330
1F
100
AcDbEntity
  8
1
  6
DOT_CENTER
 62
     2
100
AcDbLine
 10
550.500774001161
 20
-0.00000000000932
 30
0.0
 11
651.0000011092
 21
-0.00000000000932
 31
0.0
  0
LINE
  5
446
330
1F
100
AcDbEntity
  8
0
  6
DOT_CENTER
 62
     2
100
AcDbLine
 10
424.9999988908
 20
66.0
 30
0.0
 11
424.999998890801
 21
-3.0
 31
0.0
  0
LINE
  5
447
330
1F
100
AcDbEntity
  8
0
  6
DASHED
 62
     2
100
AcDbLine
 10
434.749998890801
 20
24.9999999999907
 30
0.0
 11
437.749995435834
 21
24.9999999999907
 31
0.0
  0
LINE
  5
448
330
1F
100
AcDbEntity
  8
5
  6
DASHED
 62
     2
100
AcDbLine
 10
482.499225998839
 20
-18.9999996381
 30
0.0
 11
482.499225998839
 21
18.9999996381
 31
0.0
  0
LINE
  5
449
330
1F
100
AcDbEntity
  8
1
  6
DASHED
 62
     2
100
AcDbLine
 10
482.499225998839
 20
-18.9999996381
 30
0.0
 11
460.499226412439
 21
-18.9999996381
 31
0.0
  0
LINE
  5
44A
330
1F
100
AcDbEntity
  8
100
  6
DASHED
 62
     2
100
AcDbLine
 10
430.000000791367
 20
37.4999982246997
 30
0.0
 11
430.000000791367
 21
46.0000033981997
 31
0.0
  0
LINE
  5
44B
330
1F
100
AcDbEntity
  8
1
  6
DASHED
 62
     2
100
AcDbLine
 10
437.249995435834
 20
37.4999982246997
 30
0.0
 11
437.749995435834
 21
36.9999982246997
 31
0.0
  0
LINE
  5
44C
330
1F
100
AcDbEntity
  8
1
  6
DASHED
 62
     2
100
AcDbLine
 10
412.749995915234
 20
37.4999982246997
 30
0.0
 11
412.249995915234
 21
36.9999982246997
 31
0.0
  0
LINE
  5
44D
330
1F
100
AcDbEntity
  8
100
  6
DASHED
 62
     2
100
AcDbLine
 10
412.249995915234
 20
24.9999999999907
 30
0.0
 11
412.249995915234
 21
36.9999982246997
 31
0.0
  0
LINE
  5
44E
330
1F
100
AcDbEntity
  8
100
  6
DASHED
 62
     2
100
AcDbLine
 10
419.999996990235
 20
37.4999982246997
 30
0.0
 11
419.999996990235
 21
45.9999525014297
 31
0.0
  0
LINE
  5
44F
330
1F
100
AcDbEntity
  8
100
  6
DASHED
 62
     2
100
AcDbLine
 10
437.749995435834
 20
24.9999999999907
 30
0.0
 11
437.749995435834
 21
36.9999982246997
 31
0.0
  0
LINE
  5
450
330
1F
100
AcDbEntity
  8
100
  6
DASHED
 62
     2
100
AcDbLine
 10
424.999998890801
 20
37.4999982246997
 30
0.0
 11
412.749995915234
 21
37.4999982246997
 31
0.0
  0
LINE
  5
451
330
1F
100
AcDbEntity
  8
100
  6
DASHED
 62
     2
100
AcDbLine
 10
437.249995435834
 20
37.4999982246997
 30
0.0
 11
424.999998890801
 21
37.4999982246997
 31
0.0
  0
LINE
  5
452
330
1F
100
AcDbEntity
  8
100
  6
DASHED
 62
     2
100
AcDbLine
 10
424.999998890801
 20
62.0000033981997
 30
0.0
 11
417.314060082363
 21
62.0000033981997
 31
0.0
  0
LINE
  5
453
330
1F
100
AcDbEntity
  8
100
  6
DASHED
 62
     2
100
AcDbLine
 10
414.638174417716
 20
60.3370130076297
 30
0.0
 11
413.097480320214
 21
60.5358122460166
 31
0.0
  0
LINE
  5
454
330
1F
100
AcDbEntity
  8
100
  6
DASHED
 62
     2
100
AcDbLine
 10
432.685937699237
 20
62.0000033981989
 30
0.0
 11
424.999998890801
 21
62.0000033981997
 31
0.0
  0
LINE
  5
455
330
1F
100
AcDbEntity
  8
100
  6
DASHED
 62
     2
100
AcDbLine
 10
432.18078926879
 20
62.0000033981997
 30
0.0
 11
431.999998890801
 21
62.0000033981997
 31
0.0
  0
LINE
  5
456
330
1F
100
AcDbEntity
  8
100
  6
DASHED
 62
     2
100
AcDbLine
 10
417.999998890801
 20
62.0000033981997
 30
0.0
 11
417.819208512811
 21
62.0000033981997
 31
0.0
  0
LINE
  5
457
330
1F
100
AcDbEntity
  8
100
  6
DASHED
 62
     2
100
AcDbLine
 10
409.377193696516
 20
61.7933368745126
 30
0.0
 11
402.520647478891
 21
65.7519656789697
 31
0.0
  0
LINE
  5
458
330
1F
100
AcDbEntity
  8
100
  6
DASHED
 62
     2
100
AcDbLine
 10
424.999998890801
 20
46.0000033981997
 30
0.0
 11
444.999998890799
 21
46.0000033981997
 31
0.0
  0
LINE
  5
459
330
1F
100
AcDbEntity
  8
100
  6
DASHED
 62
     2
100
AcDbLine
 10
396.916716932524
 20
50.6668884127459
 30
0.0
 11
405.000087046593
 21
45.9999525014297
 31
0.0
  0
LINE
  5
45A
330
1F
100
AcDbEntity
  8
100
  6
DASHED
 62
     2
100
AcDbLine
 10
440.622804085085
 20
61.7933368745138
 30
0.0
 11
447.479350302709
 21
65.7519656789697
 31
0.0
  0
LINE
  5
45B
330
1F
100
AcDbEntity
  8
100
  6
DASHED
 62
     2
100
AcDbLine
 10
435.361823363822
 20
60.3370130076217
 30
0.0
 11
436.902517461387
 21
60.5358122460166
 31
0.0
  0
LINE
  5
45C
330
1F
100
AcDbEntity
  8
100
  6
DASHED
 62
     2
100
AcDbLine
 10
405.000087046593
 20
45.9999525014297
 30
0.0
 11
424.999998890801
 21
45.9999525014297
 31
0.0
  0
LINE
  5
45D
330
1F
100
AcDbEntity
  8
100
  6
DASHED
 62
     2
100
AcDbLine
 10
398.032063384617
 20
63.4153566958587
 30
0.0
 11
396.916716932524
 21
50.6668884127459
 31
0.0
  0
LINE
  5
45E
330
1F
100
AcDbEntity
  8
100
  6
DASHED
 62
     2
100
AcDbLine
 10
451.967934396984
 20
63.4153566958587
 30
0.0
 11
453.083280849076
 21
50.6668884127458
 31
0.0
  0
LINE
  5
45F
330
1F
100
AcDbEntity
  8
100
  6
DASHED
 62
     2
100
AcDbLine
 10
453.083280849076
 20
50.6668884127458
 30
0.0
 11
444.999998890799
 21
46.0000033981997
 31
0.0
  0
LINE
  5
460
330
1F
100
AcDbEntity
  8
1
  6
DASHED
 62
     2
100
AcDbLine
 10
401.020647478891
 20
66.1538894676156
 30
0.0
 11
401.120647478892
 21
66.1538894676156
 31
0.0
  0
LINE
  5
461
330
1F
100
AcDbEntity
  8
1
  6
DASHED
 62
     2
100
AcDbLine
 10
443.999998890801
 20
-21.0000000000093
 30
0.0
 11
443.999998890801
 21
20.9999999999907
 31
0.0
  0
LINE
  5
462
330
1F
100
AcDbEntity
  8
100
  6
DASHED
 62
     2
100
AcDbLine
 10
443.999998890801
 20
13.7415298028616
 30
0.0
 11
460.499226412439
 21
13.7415298021137
 31
0.0
  0
LINE
  5
463
330
1F
100
AcDbEntity
  8
4
  6
DASHED
 62
     2
100
AcDbLine
 10
460.499226412439
 20
-13.7415295442913
 30
0.0
 11
443.999998890801
 21
-13.7415295442913
 31
0.0
  0
LINE
  5
464
330
1F
100
AcDbEntity
  8
1
  6
DASHED
 62
     2
100
AcDbLine
 10
387.999998890801
 20
18.9418635050972
 30
0.0
 11
402.657175636911
 21
18.9418635050972
 31
0.0
  0
LINE
  5
465
330
1F
100
AcDbEntity
  8
0
  6
DASHED
 62
     2
100
AcDbLine
 10
387.999998890801
 20
-18.9418635051261
 30
0.0
 11
387.999998890801
 21
18.9418635050972
 31
0.0
  0
LINE
  5
466
330
1F
100
AcDbEntity
  8
0
  6
DASHED
 62
     2
100
AcDbLine
 10
387.999998890801
 20
-18.9418635051261
 30
0.0
 11
402.657175636905
 21
-18.9418635051261
 31
0.0
  0
LINE
  5
467
330
1F
100
AcDbEntity
  8
0
  6
DASHED
 62
     2
100
AcDbLine
 10
428.171571766054
 20
-20.0000000000093
 30
0.0
 11
416.499998890801
 21
-20.0000000000093
 31
0.0
  0
LINE
  5
468
330
1F
100
AcDbEntity
  8
0
  6
DASHED
 62
     2
100
AcDbLine
 10
443.999998890801
 20
-21.0000000000093
 30
0.0
 11
430.817323077119
 21
-21.0000000000093
 31
0.0
  0
LINE
  5
469
330
1F
100
AcDbEntity
  8
0
  6
DASHED
 62
     2
100
AcDbLine
 10
409.499998890802
 20
-17.5000000000093
 30
0.0
 11
413.9999988908
 21
-17.5000000000093
 31
0.0
  0
LINE
  5
46A
330
1F
100
AcDbEntity
  8
0
  6
DASHED
 62
     2
100
AcDbLine
 10
404.499998890801
 20
-15.7500000000093
 30
0.0
 11
402.657175636905
 21
-18.9418635051261
 31
0.0
  0
LINE
  5
46B
330
1F
100
AcDbEntity
  8
0
  6
DASHED
 62
     2
100
AcDbLine
 10
415.249998890801
 20
24.9999999999907
 30
0.0
 11
415.249998890801
 21
17.4999994624252
 31
0.0
  0
LINE
  5
46C
330
1F
100
AcDbEntity
  8
0
  6
DASHED
 62
     2
100
AcDbLine
 10
409.499998409901
 20
17.5000009496085
 30
0.0
 11
415.249998890801
 21
17.4999994624252
 31
0.0
  0
LINE
  5
46D
330
1F
100
AcDbEntity
  8
0
  6
DASHED
 62
     2
100
AcDbLine
 10
404.499998890801
 20
-15.7500000000093
 30
0.0
 11
407.749998890799
 21
-15.7500000000093
 31
0.0
  0
LINE
  5
46E
330
1F
100
AcDbEntity
  8
0
  6
DASHED
 62
     2
100
AcDbLine
 10
404.499998890801
 20
15.7499999999907
 30
0.0
 11
407.749999610579
 21
15.7499999999907
 31
0.0
  0
LINE
  5
46F
330
1F
100
AcDbEntity
  8
0
  6
DASHED
 62
     2
100
AcDbLine
 10
407.749999610579
 20
15.7499999999907
 30
0.0
 11
409.499998409901
 21
17.5000009496085
 31
0.0
  0
LINE
  5
470
330
1F
100
AcDbEntity
  8
0
  6
DASHED
 62
     2
100
AcDbLine
 10
404.499998890801
 20
15.7499999999907
 30
0.0
 11
402.657175636911
 21
18.9418635050972
 31
0.0
  0
LINE
  5
471
330
1F
100
AcDbEntity
  8
0
  6
DASHED
 62
     2
100
AcDbLine
 10
407.749998890799
 20
-15.7500000000093
 30
0.0
 11
409.499998890802
 21
-17.5000000000093
 31
0.0
  0
LINE
  5
472
330
1F
100
AcDbEntity
  8
0
  6
DASHED
 62
     2
100
AcDbLine
 10
413.9999988908
 20
-17.5000000000093
 30
0.0
 11
416.499998890801
 21
-20.0000000000093
 31
0.0
  0
LINE
  5
473
330
1F
100
AcDbEntity
  8
0
  6
DASHED
 62
     2
100
AcDbLine
 10
434.749998890801
 20
24.9999999999907
 30
0.0
 11
434.749998890801
 21
20.9999999999907
 31
0.0
  0
LINE
  5
474
330
1F
100
AcDbEntity
  8
0
  6
DASHED
 62
     2
100
AcDbLine
 10
443.999998890801
 20
20.9999999999907
 30
0.0
 11
434.749998890801
 21
20.9999999999907
 31
0.0
  0
LINE
  5
475
330
1F
100
AcDbEntity
  8
0
  6
DASHED
 62
     2
100
AcDbLine
 10
412.249995915234
 20
24.9999999999907
 30
0.0
 11
415.249998890801
 21
24.9999999999907
 31
0.0
  0
LINE
  5
476
330
1F
100
AcDbEntity
  8
5
  6
DASHED
 62
     2
100
AcDbLine
 10
460.499226412439
 20
-18.9999996381
 30
0.0
 11
460.499226412439
 21
18.9999996381
 31
0.0
  0
LINE
  5
477
330
1F
100
AcDbEntity
  8
1
  6
DASHED
 62
     2
100
AcDbLine
 10
482.499225998839
 20
18.9999996381
 30
0.0
 11
460.499226412439
 21
18.9999996381
 31
0.0
  0
LINE
  5
478
330
1F
100
AcDbEntity
  8
1
  6
DOT_CENTER
 62
     2
100
AcDbLine
 10
384.9999988908
 20
-0.00000000000932
 30
0.0
 11
485.499225998839
 21
-0.00000000000932
 31
0.0
  0
LINE
  5
479
330
1F
100
AcDbEntity
  8
1
  6
Continuous
 62
     3
100
AcDbLine
 10
233.000008070715
 20
-30.4961801723059
 30
0.0
 11
234.500005898636
 21
-32.001957365183
 31
0.0
  0
LINE
  5
47A
330
1F
100
AcDbEntity
  8
1
  6
Continuous
 62
     3
100
AcDbLine
 10
218.535906300149
 20
-32.9068450873351
 30
0.0
 11
217.101899318018
 21
-31.2757286867416
 31
0.0
  0
LINE
  5
47B
330
1F
100
AcDbEntity
  8
1
  6
Continuous
 62
     3
100
AcDbLine
 10
203.0
 20
-31.9999533776918
 30
0.0
 11
204.5
 21
-30.5001048755644
 31
0.0
  0
LINE
  5
47C
330
1F
100
AcDbEntity
  8
1
  6
Continuous
 62
     3
100
AcDbLine
 10
201.5
 20
-22.4999999999998
 30
0.0
 11
204.5
 21
-22.4999999999998
 31
0.0
  0
LINE
  5
47D
330
1F
100
AcDbEntity
  8
1
  6
Continuous
 62
     3
100
AcDbLine
 10
59.9093795324475
 20
-33.1413598333407
 30
0.0
 11
59.9093795324475
 21
-40.0
 31
0.0
  0
LINE
  5
47E
330
1F
100
AcDbEntity
  8
1
  6
Continuous
 62
     3
100
AcDbLine
 10
75.0
 20
-32.0001118837347
 30
0.0
 11
73.5
 21
-30.4997852728749
 31
0.0
  0
LINE
  5
47F
330
1F
100
AcDbEntity
  8
1
  6
Continuous
 62
     3
100
AcDbLine
 10
43.4999735597724
 20
-32.0019327647778
 30
0.0
 11
45.0
 21
-30.4961801707646
 31
0.0
  0
LINE
  5
480
330
1F
100
AcDbEntity
  8
1
  6
Continuous
 62
     3
100
AcDbLine
 10
89.6634752620041
 20
2.86907372674199
 30
0.0
 11
80.736524829931
 21
2.86907372674199
 31
0.0
  0
LINE
  5
481
330
1F
100
AcDbEntity
  8
1
  6
Continuous
 62
     3
100
AcDbLine
 10
79.736524829931
 20
1.869073726742
 30
0.0
 11
79.736524829931
 21
-1.86907053295126
 31
0.0
  0
LINE
  5
482
330
1F
100
AcDbEntity
  8
1
  6
Continuous
 62
     3
100
AcDbLine
 10
80.736524829931
 20
-2.86907053295126
 30
0.0
 11
89.6634752620041
 21
-2.86907053295126
 31
0.0
  0
LINE
  5
483
330
1F
100
AcDbEntity
  8
1
  6
Continuous
 62
     3
100
AcDbLine
 10
90.6634752620041
 20
-1.86907053295126
 30
0.0
 11
90.6634752620041
 21
1.869073726742
 31
0.0
  0
LINE
  5
484
330
1F
100
AcDbEntity
  8
1
  6
Continuous
 62
     3
100
AcDbLine
 10
5.54183441299122
 20
21.9581655870085
 30
0.0
 11
-5.45816558700878
 21
21.9581655870085
 31
0.0
  0
LINE
  5
485
330
1F
100
AcDbEntity
  8
0
  6
Continuous
 62
     3
100
AcDbLine
 10
17.5000009675433
 20
104.000001766082
 30
0.0
 11
20.9999999999988
 21
100.499993027871
 31
0.0
  0
LINE
  5
486
330
1F
100
AcDbEntity
  8
0
  6
Continuous
 62
     3
100
AcDbLine
 10
2.76176556449796
 20
383.503332713376
 30
0.0
 11
-3.15250720082729
 21
383.503332713376
 31
0.0
  0
LINE
  5
487
330
1F
100
AcDbEntity
  8
0
  6
Continuous
 62
     3
100
AcDbLine
 10
-21.0000002298636
 20
426.121645973725
 30
0.0
 11
-18.3303021326082
 21
426.121645973725
 31
0.0
  0
LINE
  5
488
330
1F
100
AcDbEntity
  8
0
  6
Continuous
 62
     3
100
AcDbLine
 10
18.3303021326024
 20
426.121645973725
 30
0.0
 11
21.0000002298578
 21
426.121645973725
 31
0.0
  0
LINE
  5
489
330
1F
100
AcDbEntity
  8
0
  6
Continuous
 62
     3
100
AcDbLine
 10
21.0000002298578
 20
442.121645973725
 30
0.0
 11
21.0000002298578
 21
426.121645973725
 31
0.0
  0
LINE
  5
48A
330
1F
100
AcDbEntity
  8
0
  6
Continuous
 62
     3
100
AcDbLine
 10
18.3303030096814
 20
442.121645973725
 30
0.0
 11
21.0000002298578
 21
442.121645973725
 31
0.0
  0
LINE
  5
48B
330
1F
100
AcDbEntity
  8
1
  6
Continuous
 62
     3
100
AcDbLine
 10
89.6633528301884
 20
436.86906787065
 30
0.0
 11
80.7357348458653
 21
436.86906787065
 31
0.0
  0
LINE
  5
48C
330
1F
100
AcDbEntity
  8
1
  6
Continuous
 62
     3
100
AcDbLine
 10
79.7357348458653
 20
435.86906787065
 30
0.0
 11
79.7357348458653
 21
432.130934521434
 31
0.0
  0
LINE
  5
48D
330
1F
100
AcDbEntity
  8
1
  6
Continuous
 62
     3
100
AcDbLine
 10
80.7357348458653
 20
431.130934521434
 30
0.0
 11
89.6633528301884
 21
431.130934521434
 31
0.0
  0
LINE
  5
48E
330
1F
100
AcDbEntity
  8
1
  6
Continuous
 62
     3
100
AcDbLine
 10
90.6633528301884
 20
432.130934521434
 30
0.0
 11
90.6633528301884
 21
435.86906787065
 31
0.0
  0
LINE
  5
48F
330
1F
100
AcDbEntity
  8
1
  6
Continuous
 62
     3
100
AcDbLine
 10
73.3483816366725
 20
439.99904786506
 30
0.0
 11
69.5930057049732
 21
439.99904786506
 31
0.0
  0
LINE
  5
490
330
1F
100
AcDbEntity
  8
1
  6
Continuous
 62
     3
100
AcDbLine
 10
68.5930057049732
 20
438.99904786506
 30
0.0
 11
68.5930057049732
 21
435.49904786506
 31
0.0
  0
LINE
  5
491
330
1F
100
AcDbEntity
  8
1
  6
Continuous
 62
     3
100
AcDbLine
 10
69.5930057049732
 20
427.99904786506
 30
0.0
 11
73.3483816366725
 21
427.99904786506
 31
0.0
  0
LINE
  5
492
330
1F
100
AcDbEntity
  8
1
  6
Continuous
 62
     3
100
AcDbLine
 10
74.3483816366725
 20
428.99904786506
 30
0.0
 11
74.3483816366725
 21
438.99904786506
 31
0.0
  0
LINE
  5
493
330
1F
100
AcDbEntity
  8
1
  6
Continuous
 62
     3
100
AcDbLine
 10
68.5930057049732
 20
432.49904786506
 30
0.0
 11
68.5930057049732
 21
428.99904786506
 31
0.0
  0
LINE
  5
494
330
1F
100
AcDbEntity
  8
100
  6
DASHED
 62
     2
100
AcDbLine
 10
12.9999999999972
 20
508.0000011092
 30
0.0
 11
12.9999999999972
 21
491.500004477599
 31
0.0
  0
LINE
  5
495
330
1F
100
AcDbEntity
  8
100
  6
DASHED
 62
     2
100
AcDbLine
 10
-13.0000000000033
 20
508.0000011092
 30
0.0
 11
-13.0000000000029
 21
491.500004477599
 31
0.0
  0
LINE
  5
496
330
1F
100
AcDbEntity
  8
5
  6
DASHED
 62
     2
100
AcDbLine
 10
-18.9999996381029
 20
491.500004477599
 30
0.0
 11
18.9999996380972
 21
491.500004477599
 31
0.0
  0
LINE
  5
497
330
1F
100
AcDbEntity
  8
0
  6
DOT_CENTER
 62
     2
100
AcDbLine
 10
15.7499999768019
 20
526.999231999238
 30
0.0
 11
-15.7499999768076
 21
526.999231999238
 31
0.0
  0
LINE
  5
498
330
1F
100
AcDbEntity
  8
0
  6
DASHED
 62
     2
100
AcDbLine
 10
-3.00000000000017
 20
552.896563049491
 30
0.0
 11
-3.00000000000017
 21
539.631806205014
 31
0.0
  0
LINE
  5
499
330
1F
100
AcDbEntity
  8
0
  6
DASHED
 62
     2
100
AcDbLine
 10
2.99999999999687
 20
539.631806205883
 30
0.0
 11
2.99999999999687
 21
552.896563049491
 31
0.0
  0
LINE
  5
49A
330
1F
100
AcDbEntity
  8
0
  6
DASHED
 62
     2
100
AcDbLine
 10
0.99999999999687
 20
554.896563049491
 30
0.0
 11
-1.00000000000017
 21
554.896563049491
 31
0.0
  0
LINE
  5
49B
330
1F
100
AcDbEntity
  8
0
  6
DASHED
 62
     2
100
AcDbLine
 10
-21.0000000000029
 20
509.0000011092
 30
0.0
 11
-21.0000000000029
 21
534.500009174983
 31
0.0
  0
LINE
  5
49C
330
1F
100
AcDbEntity
  8
0
  6
DASHED
 62
     2
100
AcDbLine
 10
-15.7500000000029
 20
544.249997865174
 30
0.0
 11
-17.5000042799234
 21
542.5000032766
 31
0.0
  0
LINE
  5
49D
330
1F
100
AcDbEntity
  8
0
  6
DASHED
 62
     2
100
AcDbLine
 10
-17.5000042799234
 20
542.5000032766
 30
0.0
 11
-17.4999990343124
 21
538.000000453584
 31
0.0
  0
LINE
  5
49E
330
1F
100
AcDbEntity
  8
0
  6
DASHED
 62
     2
100
AcDbLine
 10
-15.7500000000029
 20
547.5000011092
 30
0.0
 11
-18.9418635051199
 21
549.342824363095
 31
0.0
  0
LINE
  5
49F
330
1F
100
AcDbEntity
  8
0
  6
DASHED
 62
     2
100
AcDbLine
 10
-18.9418635051199
 20
564.0000011092
 30
0.0
 11
-18.9418635051199
 21
549.342824363095
 31
0.0
  0
LINE
  5
4A0
330
1F
100
AcDbEntity
  8
0
  6
DASHED
 62
     2
100
AcDbLine
 10
-17.4999990343124
 20
538.000000453584
 30
0.0
 11
-21.0000000000029
 21
534.500009174983
 31
0.0
  0
LINE
  5
4A1
330
1F
100
AcDbEntity
  8
0
  6
DASHED
 62
     2
100
AcDbLine
 10
18.9418635051146
 20
564.0000011092
 30
0.0
 11
18.941863505106
 21
549.342824363085
 31
0.0
  0
LINE
  5
4A2
330
1F
100
AcDbEntity
  8
0
  6
DASHED
 62
     2
100
AcDbLine
 10
15.7499999999972
 20
547.500001109202
 30
0.0
 11
18.941863505106
 21
549.342824363085
 31
0.0
  0
LINE
  5
4A3
330
1F
100
AcDbEntity
  8
0
  6
DASHED
 62
     2
100
AcDbLine
 10
20.9999999999972
 20
509.0000011092
 30
0.0
 11
20.9999999999972
 21
534.499993027871
 31
0.0
  0
LINE
  5
4A4
330
1F
100
AcDbEntity
  8
0
  6
DASHED
 62
     2
100
AcDbLine
 10
17.5000009675416
 20
538.000001766082
 30
0.0
 11
20.9999999999972
 21
534.499993027871
 31
0.0
  0
LINE
  5
4A5
330
1F
100
AcDbEntity
  8
0
  6
DASHED
 62
     2
100
AcDbLine
 10
-15.7500000000029
 20
547.5000011092
 30
0.0
 11
-15.7500000000029
 21
544.249997865174
 31
0.0
  0
LINE
  5
4A6
330
1F
100
AcDbEntity
  8
0
  6
DASHED
 62
     2
100
AcDbLine
 10
17.4999957118582
 20
542.499998937603
 30
0.0
 11
17.5000009675416
 21
538.000001766082
 31
0.0
  0
LINE
  5
4A7
330
1F
100
AcDbEntity
  8
0
  6
DASHED
 62
     2
100
AcDbLine
 10
15.7499999999972
 20
544.250004359497
 30
0.0
 11
17.4999957118582
 21
542.499998937603
 31
0.0
  0
LINE
  5
4A8
330
1F
100
AcDbEntity
  8
0
  6
DASHED
 62
     2
100
AcDbLine
 10
15.7499999999972
 20
547.500001109202
 30
0.0
 11
15.7499999999972
 21
544.250004359497
 31
0.0
  0
LINE
  5
4A9
330
1F
100
AcDbEntity
  8
0
  6
DASHED
 62
     2
100
AcDbLine
 10
-18.9418635051199
 20
564.0000011092
 30
0.0
 11
18.9418635051146
 21
564.0000011092
 31
0.0
  0
LINE
  5
4AA
330
1F
100
AcDbEntity
  8
1
  6
DASHED
 62
     2
100
AcDbLine
 10
-20.0000000000031
 20
508.0000011092
 30
0.0
 11
-2.99915877805319
 21
508.0000011092
 31
0.0
  0
LINE
  5
4AB
330
1F
100
AcDbEntity
  8
1
  6
DASHED
 62
     2
100
AcDbLine
 10
2.99915877804989
 20
508.0000011092
 30
0.0
 11
19.9999999999972
 21
508.0000011092
 31
0.0
  0
LINE
  5
4AC
330
1F
100
AcDbEntity
  8
1
  6
DOT_CENTER
 62
     2
100
AcDbLine
 10
-0.00000000000291
 20
465.755404461921
 30
0.0
 11
-0.00000000000291
 21
566.75540446192
 31
0.0
  0
LINE
  5
4AD
330
1F
100
AcDbEntity
  8
0
  6
DASHED
 62
     2
100
AcDbLine
 10
2.99999999999687
 20
501.101900948985
 30
0.0
 11
2.99999999999687
 21
514.368196013445
 31
0.0
  0
LINE
  5
4AE
330
1F
100
AcDbEntity
  8
0
  6
DASHED
 62
     2
100
AcDbLine
 10
-3.00000000000017
 20
514.368196014314
 30
0.0
 11
-3.00000000000017
 21
501.101900948985
 31
0.0
  0
LINE
  5
4AF
330
1F
100
AcDbEntity
  8
0
  6
DASHED
 62
     2
100
AcDbLine
 10
-1.00000000000017
 20
499.101900948985
 30
0.0
 11
0.99999999999687
 21
499.101900948985
 31
0.0
  0
ARC
  5
4B0
330
1F
100
AcDbEntity
  8
1
  6
Continuous
 62
     3
100
AcDbCircle
 10
89.6634752620041
 20
1.869073726742
 30
0.0
 40
1.0
100
AcDbArc
 50
0.0
 51
90.0
  0
ARC
  5
4B1
330
1F
100
AcDbEntity
  8
1
  6
Continuous
 62
     3
100
AcDbCircle
 10
89.6634752620041
 20
-1.86907053295126
 30
0.0
 40
0.9999999999999998
100
AcDbArc
 50
270.0
 51
0.0
  0
ARC
  5
4B2
330
1F
100
AcDbEntity
  8
1
  6
Continuous
 62
     3
100
AcDbCircle
 10
80.736524829931
 20
-1.86907053295126
 30
0.0
 40
1.0
100
AcDbArc
 50
180.0
 51
270.0
  0
ARC
  5
4B3
330
1F
100
AcDbEntity
  8
1
  6
Continuous
 62
     3
100
AcDbCircle
 10
80.736524829931
 20
1.869073726742
 30
0.0
 40
0.99999999999999
100
AcDbArc
 50
90.0
 51
180.0
  0
ARC
  5
4B4
330
1F
100
AcDbEntity
  8
1
  6
Continuous
 62
     3
100
AcDbCircle
 10
0.99999999999842
 20
67.6034391689138
 30
0.0
 40
2.0
100
AcDbArc
 50
270.0
 51
0.0
  0
ARC
  5
4B5
330
1F
100
AcDbEntity
  8
1
  6
Continuous
 62
     3
100
AcDbCircle
 10
-0.99999999999834
 20
67.6034391689138
 30
0.0
 40
2.0
100
AcDbArc
 50
180.0
 51
270.0
  0
ARC
  5
4B6
330
1F
100
AcDbEntity
  8
1
  6
Continuous
 62
     3
100
AcDbCircle
 10
0.99999999999842
 20
118.896563049491
 30
0.0
 40
2.0
100
AcDbArc
 50
0.0
 51
90.0
  0
ARC
  5
4B7
330
1F
100
AcDbEntity
  8
1
  6
Continuous
 62
     3
100
AcDbCircle
 10
-0.99999999999834
 20
118.896563049491
 30
0.0
 40
2.0
100
AcDbArc
 50
90.0
 51
180.0
  0
ARC
  5
4B8
330
1F
100
AcDbEntity
  8
1
  6
Continuous
 62
     3
100
AcDbCircle
 10
10.9999999999984
 20
105.631806205883
 30
0.0
 40
7.99999999999998
100
AcDbArc
 50
180.0
 51
228.9500736601745
  0
ARC
  5
4B9
330
1F
100
AcDbEntity
  8
1
  6
Continuous
 62
     3
100
AcDbCircle
 10
-10.9999999999983
 20
105.631806204973
 30
0.0
 40
8.000000000000197
100
AcDbArc
 50
311.0499263408187
 51
0.0
  0
ARC
  5
4BA
330
1F
100
AcDbEntity
  8
1
  6
Continuous
 62
     3
100
AcDbCircle
 10
-10.9999999999983
 20
80.3681960134263
 30
0.0
 40
7.99999999999996
100
AcDbArc
 50
0.0
 51
48.95007365917986
  0
ARC
  5
4BB
330
1F
100
AcDbEntity
  8
1
  6
Continuous
 62
     3
100
AcDbCircle
 10
10.9999999999984
 20
80.3681960134457
 30
0.0
 40
8.00000000000001
100
AcDbArc
 50
131.049926339826
 51
180.0
  0
ARC
  5
4BC
330
1F
100
AcDbEntity
  8
1
  6
DASHED
 62
     2
100
AcDbCircle
 10
-11.0000000000002
 20
328.368193794986
 30
0.0
 40
8.00000000000003
100
AcDbArc
 50
0.0
 51
48.95007365822804
  0
ARC
  5
4BD
330
1F
100
AcDbEntity
  8
1
  6
DASHED
 62
     2
100
AcDbCircle
 10
-11.0000000000002
 20
353.631803985686
 30
0.0
 40
7.999999999999996
100
AcDbArc
 50
311.049926341772
 51
0.0
  0
ARC
  5
4BE
330
1F
100
AcDbEntity
  8
1
  6
DASHED
 62
     2
100
AcDbCircle
 10
10.9999999999969
 20
353.631803986555
 30
0.0
 40
8.00000000000003
100
AcDbArc
 50
180.0
 51
228.9500736601761
  0
ARC
  5
4BF
330
1F
100
AcDbEntity
  8
1
  6
DASHED
 62
     2
100
AcDbCircle
 10
10.9999999999969
 20
328.368193794117
 30
0.0
 40
8.000000000000414
100
AcDbArc
 50
131.049926339824
 51
180.0
  0
ARC
  5
4C0
330
1F
100
AcDbEntity
  8
1
  6
DASHED
 62
     2
100
AcDbCircle
 10
-1.00000000000017
 20
315.103436950509
 30
0.0
 40
2.0
100
AcDbArc
 50
180.0
 51
270.0
  0
ARC
  5
4C1
330
1F
100
AcDbEntity
  8
1
  6
DASHED
 62
     2
100
AcDbCircle
 10
0.99999999999687
 20
315.103436950509
 30
0.0
 40
2.0
100
AcDbArc
 50
270.0
 51
0.0
  0
ARC
  5
4C2
330
1F
100
AcDbEntity
  8
1
  6
Continuous
 62
     3
100
AcDbCircle
 10
-0.99204793232767
 20
369.968248796538
 30
0.0
 40
2.000000000000001
100
AcDbArc
 50
180.6786194496523
 51
270.0
  0
ARC
  5
4C3
330
1F
100
AcDbEntity
  8
1
  6
Continuous
 62
     3
100
AcDbCircle
 10
0.60130629599824
 20
369.968248796538
 30
0.0
 40
2.0
100
AcDbArc
 50
270.0
 51
359.3213805503477
  0
ARC
  5
4C4
330
1F
100
AcDbEntity
  8
1
  6
Continuous
 62
     3
100
AcDbCircle
 10
41.9636390438334
 20
460.999047865059
 30
0.0
 40
1.0
100
AcDbArc
 50
90.0
 51
178.0000000000289
  0
ARC
  5
4C5
330
1F
100
AcDbEntity
  8
1
  6
Continuous
 62
     3
100
AcDbCircle
 10
41.9636390438335
 20
406.99904786506
 30
0.0
 40
1.000000000000028
100
AcDbArc
 50
182.0000000000297
 51
270.0
  0
ARC
  5
4C6
330
1F
100
AcDbEntity
  8
1
  6
Continuous
 62
     3
100
AcDbCircle
 10
89.6633528301884
 20
435.86906787065
 30
0.0
 40
1.0
100
AcDbArc
 50
0.0
 51
90.0
  0
ARC
  5
4C7
330
1F
100
AcDbEntity
  8
1
  6
Continuous
 62
     3
100
AcDbCircle
 10
89.6633528301884
 20
432.130934521434
 30
0.0
 40
1.0
100
AcDbArc
 50
270.0
 51
0.0
  0
ARC
  5
4C8
330
1F
100
AcDbEntity
  8
1
  6
Continuous
 62
     3
100
AcDbCircle
 10
80.7357348458653
 20
432.130934521434
 30
0.0
 40
1.0
100
AcDbArc
 50
180.0
 51
270.0
  0
ARC
  5
4C9
330
1F
100
AcDbEntity
  8
1
  6
Continuous
 62
     3
100
AcDbCircle
 10
80.7357348458653
 20
435.86906787065
 30
0.0
 40
1.0
100
AcDbArc
 50
90.0
 51
180.0
  0
ARC
  5
4CA
330
1F
100
AcDbEntity
  8
1
  6
Continuous
 62
     3
100
AcDbCircle
 10
73.3483816366725
 20
438.99904786506
 30
0.0
 40
1.0
100
AcDbArc
 50
0.0
 51
90.0
  0
ARC
  5
4CB
330
1F
100
AcDbEntity
  8
1
  6
Continuous
 62
     3
100
AcDbCircle
 10
69.5930057049732
 20
438.99904786506
 30
0.0
 40
1.0
100
AcDbArc
 50
90.0
 51
180.0
  0
ARC
  5
4CC
330
1F
100
AcDbEntity
  8
1
  6
Continuous
 62
     3
100
AcDbCircle
 10
69.5930057049732
 20
428.99904786506
 30
0.0
 40
1.0
100
AcDbArc
 50
180.0
 51
270.0
  0
ARC
  5
4CD
330
1F
100
AcDbEntity
  8
1
  6
Continuous
 62
     3
100
AcDbCircle
 10
73.3483816366725
 20
428.99904786506
 30
0.0
 40
1.0
100
AcDbArc
 50
270.0
 51
0.0
  0
ARC
  5
4CE
330
1F
100
AcDbEntity
  8
1
  6
DASHED
 62
     2
100
AcDbCircle
 10
0.99999999999687
 20
552.896563049491
 30
0.0
 40
2.0
100
AcDbArc
 50
0.0
 51
90.0
  0
ARC
  5
4CF
330
1F
100
AcDbEntity
  8
1
  6
DASHED
 62
     2
100
AcDbCircle
 10
-1.00000000000017
 20
552.896563049491
 30
0.0
 40
2.0
100
AcDbArc
 50
90.0
 51
180.0
  0
ARC
  5
4D0
330
1F
100
AcDbEntity
  8
1
  6
DASHED
 62
     2
100
AcDbCircle
 10
10.9999999999969
 20
539.631806205883
 30
0.0
 40
8.00000000000003
100
AcDbArc
 50
180.0
 51
228.9500736601763
  0
ARC
  5
4D1
330
1F
100
AcDbEntity
  8
1
  6
DASHED
 62
     2
100
AcDbCircle
 10
10.9999999999969
 20
514.368196013445
 30
0.0
 40
8.000000000000458
100
AcDbArc
 50
131.0499263398237
 51
180.0
  0
ARC
  5
4D2
330
1F
100
AcDbEntity
  8
1
  6
DASHED
 62
     2
100
AcDbCircle
 10
-11.0000000000002
 20
514.368196014314
 30
0.0
 40
8.00000000000003
100
AcDbArc
 50
0.0
 51
48.95007365822762
  0
ARC
  5
4D3
330
1F
100
AcDbEntity
  8
1
  6
DASHED
 62
     2
100
AcDbCircle
 10
-11.0000000000002
 20
539.631806205014
 30
0.0
 40
7.99999999999996
100
AcDbArc
 50
311.0499263417724
 51
0.0
  0
ARC
  5
4D4
330
1F
100
AcDbEntity
  8
1
  6
DASHED
 62
     2
100
AcDbCircle
 10
-1.00000000000017
 20
501.101900948985
 30
0.0
 40
2.0
100
AcDbArc
 50
180.0
 51
270.0
  0
ARC
  5
4D5
330
1F
100
AcDbEntity
  8
1
  6
DASHED
 62
     2
100
AcDbCircle
 10
0.99999999999687
 20
501.101900948985
 30
0.0
 40
2.0
100
AcDbArc
 50
270.0
 51
0.0
  0
ARC
  5
4D6
330
1F
100
AcDbEntity
  8
0
  6
Continuous
 62
     3
100
AcDbCircle
 10
37.5421516327372
 20
418.99904786506
 30
0.0
 40
2.999999999999992
100
AcDbArc
 50
1.99999999999062
 51
90.0
  0
ARC
  5
4D7
330
1F
100
AcDbEntity
  8
1
  6
Continuous
 62
     3
100
AcDbCircle
 10
54.9121638314486
 20
411.999047865011
 30
0.0
 40
1.000000000000435
100
AcDbArc
 50
225.0000000000124
 51
269.9999999999768
  0
ARC
  5
4D8
330
1F
100
AcDbEntity
  8
1
  6
Continuous
 62
     3
100
AcDbCircle
 10
54.9121638314486
 20
455.999047865109
 30
0.0
 40
1.0
100
AcDbArc
 50
90.0000000000232
 51
135.0000000000291
  0
ARC
  5
4D9
330
1F
100
AcDbEntity
  8
0
  6
Continuous
 62
     3
100
AcDbCircle
 10
54.912054342903
 20
455.999043165563
 30
0.0
 40
1.000004705539811
100
AcDbArc
 50
89.99372679796134
 51
94.91551414257725
  0
ARC
  5
4DA
330
1F
100
AcDbEntity
  8
0
  6
Continuous
 62
     3
100
AcDbCircle
 10
54.9120543429036
 20
411.999052564556
 30
0.0
 40
1.000004705490334
100
AcDbArc
 50
265.0844858573874
 51
270.0062732020044
  0
ARC
  5
4DB
330
1F
100
AcDbEntity
  8
0
  6
Continuous
 62
     3
100
AcDbCircle
 10
37.5421516327372
 20
448.99904786506
 30
0.0
 40
3.0
100
AcDbArc
 50
270.0
 51
357.9999999999909
  0
ARC
  5
4DC
330
1F
100
AcDbEntity
  8
0
  6
Continuous
 62
     3
100
AcDbCircle
 10
70.9313775496142
 20
32.0
 30
0.0
 40
2.0
100
AcDbArc
 50
90.0
 51
177.9999999999999
  0
ARC
  5
4DD
330
1F
100
AcDbEntity
  8
0
  6
Continuous
 62
     3
100
AcDbCircle
 10
72.0686224503859
 20
32.0
 30
0.0
 40
2.000000000000005
100
AcDbArc
 50
1.99999999999998
 51
90.0
  0
ARC
  5
4DE
330
1F
100
AcDbEntity
  8
0
  6
Continuous
 62
     3
100
AcDbCircle
 10
54.9142135624223
 20
22.000000000049
 30
0.0
 40
1.0
100
AcDbArc
 50
90.00000116983061
 51
135.0000000000079
  0
ARC
  5
4DF
330
1F
100
AcDbEntity
  8
0
  6
Continuous
 62
     3
100
AcDbCircle
 10
51.6715728752538
 20
23.0
 30
0.0
 40
2.0
100
AcDbArc
 50
270.0
 51
315.0
  0
ARC
  5
4E0
330
1F
100
AcDbEntity
  8
0
  6
Continuous
 62
     3
100
AcDbCircle
 10
37.5442013637111
 20
-15.0000000000002
 30
0.0
 40
3.000000000000008
100
AcDbArc
 50
1.99999999999994
 51
90.0
  0
ARC
  5
4E1
330
1F
100
AcDbEntity
  8
0
  6
Continuous
 62
     3
100
AcDbCircle
 10
39.3462034101081
 20
-20.2217760646677
 30
0.0
 40
1.599999999999913
100
AcDbArc
 50
95.00000000000216
 51
164.5060324994795
  0
ARC
  5
4E2
330
1F
100
AcDbEntity
  8
0
  6
Continuous
 62
     3
100
AcDbCircle
 10
49.3682526898286
 20
-23.0000000000002
 30
0.0
 40
12.00000000000011
100
AcDbArc
 50
164.5060324994779
 51
168.1390911773378
  0
ARC
  5
4E3
330
1F
100
AcDbEntity
  8
0
  6
Continuous
 62
     3
100
AcDbCircle
 10
39.3462034101081
 20
-25.7782239353327
 30
0.0
 40
1.599999999999889
100
AcDbArc
 50
195.4939675005224
 51
264.9999999999982
  0
ARC
  5
4E4
330
1F
100
AcDbEntity
  8
0
  6
Continuous
 62
     3
100
AcDbCircle
 10
49.3682526898286
 20
-23.0000000000002
 30
0.0
 40
11.99999999999993
100
AcDbArc
 50
168.1390911773378
 51
195.4939675005224
  0
ARC
  5
4E5
330
1F
100
AcDbEntity
  8
0
  6
Continuous
 62
     3
100
AcDbCircle
 10
16.0
 20
16.0000000000002
 30
0.0
 40
28.0000000000002
100
AcDbArc
 50
180.0
 51
270.0
  0
ARC
  5
4E6
330
1F
100
AcDbEntity
  8
1
  6
DOT_CENTER
 62
     1
100
AcDbCircle
 10
16.0
 20
16.0000000000002
 30
0.0
 40
15.99999999999994
100
AcDbArc
 50
180.0
 51
270.0000000000007
  0
ARC
  5
4E7
330
1F
100
AcDbEntity
  8
0
  6
Continuous
 62
     3
100
AcDbCircle
 10
16.0
 20
16.0000000000002
 30
0.0
 40
4.3000474834773
100
AcDbArc
 50
180.000000000004
 51
270.0
  0
ARC
  5
4E8
330
1F
100
AcDbEntity
  8
0
  6
Continuous
 62
     3
100
AcDbCircle
 10
14.9999999999998
 20
29.307359312879
 30
0.0
 40
2.999999999999869
100
AcDbArc
 50
135.000000000004
 51
180.0000000001031
  0
ARC
  5
4E9
330
1F
100
AcDbEntity
  8
0
  6
Continuous
 62
     3
100
AcDbCircle
 10
-15.0000000000002
 20
29.307359312879
 30
0.0
 40
3.0
100
AcDbArc
 50
0.0
 51
44.9999999999919
  0
ARC
  5
4EA
330
1F
100
AcDbEntity
  8
0
  6
Continuous
 62
     3
100
AcDbCircle
 10
196.5
 20
-0.00000000000006
 30
0.0
 40
2.00000000000006
100
AcDbArc
 50
90.0
 51
270.0
  0
ARC
  5
4EB
330
1F
100
AcDbEntity
  8
0
  6
Continuous
 62
     3
100
AcDbCircle
 10
537.000000000008
 20
87.1826769228806
 30
0.0
 40
2.000000000001023
100
AcDbArc
 50
0.0
 51
41.40962210926013
  0
ARC
  5
4EC
330
1F
100
AcDbEntity
  8
0
  6
Continuous
 62
     3
100
AcDbCircle
 10
540.000000000009
 20
89.8284282339457
 30
0.0
 40
2.0
100
AcDbArc
 50
180.0
 51
221.4096221092731
  0
ARC
  5
4ED
330
1F
100
AcDbEntity
  8
100
  6
Continuous
 62
     3
100
AcDbCircle
 10
454.846110532383
 20
69.0206496972912
 30
0.0
 40
2.999999999999754
100
AcDbArc
 50
149.9999999999973
 51
265.0000000000189
  0
ARC
  5
4EE
330
1F
100
AcDbEntity
  8
100
  6
Continuous
 62
     3
100
AcDbCircle
 10
457.177947346935
 20
90.2217772260967
 30
0.0
 40
1.59999996992003
100
AcDbArc
 50
195.4939675004905
 51
222.5896599482149
  0
ARC
  5
4EF
330
1F
100
AcDbEntity
  8
100
  6
Continuous
 62
     3
100
AcDbCircle
 10
467.199996438241
 20
93.0000011091995
 30
0.0
 40
11.99999977440041
100
AcDbArc
 50
164.5060324994759
 51
195.4939675005223
  0
ARC
  5
4F0
330
1F
100
AcDbEntity
  8
100
  6
Continuous
 62
     3
100
AcDbCircle
 10
457.177947346935
 20
95.7782249923007
 30
0.0
 40
1.599999969920978
100
AcDbArc
 50
137.4103400517878
 51
164.5060324994404
  0
ARC
  5
4F1
330
1F
100
AcDbEntity
  8
100
  6
Continuous
 62
     3
100
AcDbCircle
 10
447.546409087643
 20
82.3771959149151
 30
0.0
 40
9.999999999999059
100
AcDbArc
 50
329.9999999999935
 51
352.6476206401073
  0
ARC
  5
4F2
330
1F
100
AcDbEntity
  8
100
  6
Continuous
 62
     3
100
AcDbCircle
 10
454.846110532384
 20
116.979352521109
 30
0.0
 40
2.999999999998756
100
AcDbArc
 50
95.00000000000188
 51
209.9999999999935
  0
ARC
  5
4F3
330
1F
100
AcDbEntity
  8
100
  6
Continuous
 62
     3
100
AcDbCircle
 10
447.546409087641
 20
103.622806303484
 30
0.0
 40
10.00000000000177
100
AcDbArc
 50
7.35237935989123
 51
29.99999999999534
  0
ARC
  5
4F4
330
1F
100
AcDbEntity
  8
100
  6
Continuous
 62
     3
100
AcDbCircle
 10
456.026553512432
 20
82.849329343268
 30
0.0
 40
1.649999999999932
100
AcDbArc
 50
352.9777639989666
 51
68.44852245276583
  0
ARC
  5
4F5
330
1F
100
AcDbEntity
  8
100
  6
Continuous
 62
     3
100
AcDbCircle
 10
456.999996601801
 20
85.3140623007632
 30
0.0
 40
1.0
100
AcDbArc
 50
180.0
 51
248.448522452684
  0
ARC
  5
4F6
330
1F
100
AcDbEntity
  8
100
  6
Continuous
 62
     3
100
AcDbCircle
 10
456.9999966018
 20
100.685939917637
 30
0.0
 40
0.9999999999994512
100
AcDbArc
 50
111.5514775472678
 51
180.0
  0
ARC
  5
4F7
330
1F
100
AcDbEntity
  8
100
  6
Continuous
 62
     3
100
AcDbCircle
 10
456.026553512431
 20
103.150672875195
 30
0.0
 40
1.650000000059568
100
AcDbArc
 50
291.5514775464605
 51
7.02223600100701
  0
ARC
  5
4F8
330
1F
100
AcDbEntity
  8
1
  6
Continuous
 62
     3
100
AcDbCircle
 10
527.49999981905
 20
68.4403228118939
 30
0.0
 40
27.43954881073375
100
AcDbArc
 50
249.7439819020007
 51
290.2560180979993
  0
ARC
  5
4F9
330
1F
100
AcDbEntity
  8
1
  6
Continuous
 62
     3
100
AcDbCircle
 10
527.49999981905
 20
24.5615951182592
 30
0.0
 40
27.43917846930171
100
AcDbArc
 50
69.74369652020044
 51
110.2563034797996
  0
ARC
  5
4FA
330
1F
100
AcDbEntity
  8
1
  6
Continuous
 62
     3
100
AcDbCircle
 10
508.50000018095
 20
24.5894739168644
 30
0.0
 40
27.41302558302238
100
AcDbArc
 50
69.72352251087926
 51
110.2764774891207
  0
ARC
  5
4FB
330
1F
100
AcDbEntity
  8
1
  6
Continuous
 62
     3
100
AcDbCircle
 10
508.50000018095
 20
68.4403228118938
 30
0.0
 40
27.43954881073374
100
AcDbArc
 50
249.7439819020007
 51
290.2560180979994
  0
ARC
  5
4FC
330
1F
100
AcDbEntity
  8
0
  6
Continuous
 62
     3
100
AcDbCircle
 10
503.0
 20
29.307359312879
 30
0.0
 40
3.0
100
AcDbArc
 50
0.0
 51
44.9999999999919
  0
ARC
  5
4FD
330
1F
100
AcDbEntity
  8
0
  6
Continuous
 62
     3
100
AcDbCircle
 10
533.0
 20
29.307359312879
 30
0.0
 40
3.000000000000082
100
AcDbArc
 50
135.0000000000081
 51
180.0
  0
ARC
  5
4FE
330
1F
100
AcDbEntity
  8
0
  6
Continuous
 62
     3
100
AcDbCircle
 10
550.965891463754
 20
-1.49999999999989
 30
0.0
 40
1.000000000000006
100
AcDbArc
 50
270.0000062528015
 51
357.3947163532886
  0
ARC
  5
4FF
330
1F
100
AcDbEntity
  8
0
  6
Continuous
 62
     3
100
AcDbCircle
 10
550.965891463754
 20
1.50000000000011
 30
0.0
 40
1.000000000000083
100
AcDbArc
 50
2.60525285287084
 51
89.99999818315155
  0
ARC
  5
500
330
1F
100
AcDbEntity
  8
0
  6
Continuous
 62
     3
100
AcDbCircle
 10
518.0
 20
0.0
 30
0.0
 40
34.00000000000002
100
AcDbArc
 50
357.3947477825413
 51
2.60525131175786
  0
ARC
  5
501
330
1F
100
AcDbEntity
  8
0
  6
Continuous
 62
     3
100
AcDbCircle
 10
485.034108536246
 20
1.5
 30
0.0
 40
1.000000000000006
100
AcDbArc
 50
90.00000625280155
 51
177.3947163532936
  0
ARC
  5
502
330
1F
100
AcDbEntity
  8
0
  6
Continuous
 62
     3
100
AcDbCircle
 10
518.0
 20
0.0
 30
0.0
 40
33.99999999999996
100
AcDbArc
 50
177.3947477825413
 51
182.6052513117575
  0
ARC
  5
503
330
1F
100
AcDbEntity
  8
0
  6
Continuous
 62
     3
100
AcDbCircle
 10
485.034108536246
 20
-1.49999999999989
 30
0.0
 40
1.000000000000083
100
AcDbArc
 50
182.6052528528708
 51
269.9999981831515
  0
ARC
  5
504
330
1F
100
AcDbEntity
  8
0
  6
Continuous
 62
     3
100
AcDbCircle
 10
518.0
 20
0.0
 30
0.0
 40
23.50000000000007
100
AcDbArc
 50
284.7924970414015
 51
64.81566346602413
  0
ARC
  5
505
330
1F
100
AcDbEntity
  8
0
  6
Continuous
 62
     3
100
AcDbCircle
 10
518.0
 20
0.0
 30
0.0
 40
23.5
100
AcDbArc
 50
180.0
 51
255.2075029585988
  0
ARC
  5
506
330
1F
100
AcDbEntity
  8
0
  6
Continuous
 62
     3
100
AcDbCircle
 10
518.0
 20
0.0
 30
0.0
 40
23.50000000000041
100
AcDbArc
 50
115.1843395052765
 51
180.0
  0
ARC
  5
507
330
1F
100
AcDbEntity
  8
0
  6
Continuous
 62
     3
100
AcDbCircle
 10
518.0
 20
0.0
 30
0.0
 40
16.4500000000008
100
AcDbArc
 50
90.0
 51
270.0
  0
ARC
  5
508
330
1F
100
AcDbEntity
  8
0
  6
Continuous
 62
     3
100
AcDbCircle
 10
518.0
 20
0.0
 30
0.0
 40
16.4500000000008
100
AcDbArc
 50
270.0
 51
90.0
  0
ARC
  5
509
330
1F
100
AcDbEntity
  8
1
  6
Continuous
 62
     3
100
AcDbCircle
 10
518.0
 20
0.0
 30
0.0
 40
7.999999999999878
100
AcDbArc
 50
22.72842259751375
 51
67.49162633814385
  0
ARC
  5
50A
330
1F
100
AcDbEntity
  8
1
  6
Continuous
 62
     3
100
AcDbCircle
 10
518.0
 20
0.0
 30
0.0
 40
7.999999999999963
100
AcDbArc
 50
112.5083736618563
 51
157.271577402484
  0
ARC
  5
50B
330
1F
100
AcDbEntity
  8
1
  6
Continuous
 62
     3
100
AcDbCircle
 10
518.0
 20
0.0
 30
0.0
 40
7.999999999999931
100
AcDbArc
 50
202.7284225975136
 51
247.4916263381438
  0
ARC
  5
50C
330
1F
100
AcDbEntity
  8
1
  6
Continuous
 62
     3
100
AcDbCircle
 10
518.0
 20
0.0
 30
0.0
 40
7.999999999999963
100
AcDbArc
 50
292.5083736618563
 51
337.2715774024882
  0
ARC
  5
50D
330
1F
100
AcDbEntity
  8
1
  6
Continuous
 62
     3
100
AcDbCircle
 10
-0.00000000000118
 20
93.0000011096643
 30
0.0
 40
12.75000000000204
100
AcDbArc
 50
103.9080319578885
 51
256.3910393692186
  0
ARC
  5
50E
330
1F
100
AcDbEntity
  8
1
  6
Continuous
 62
     3
100
AcDbCircle
 10
-0.00000000000118
 20
93.0000011096643
 30
0.0
 40
12.25000000000131
100
AcDbArc
 50
104.8549565090571
 51
255.1450434710755
  0
ARC
  5
50F
330
1F
100
AcDbEntity
  8
1
  6
Continuous
 62
     3
100
AcDbCircle
 10
-0.00000000000118
 20
93.0000011096643
 30
0.0
 40
12.25000000000024
100
AcDbArc
 50
284.8549565289275
 51
75.14504349094416
  0
ARC
  5
510
330
1F
100
AcDbEntity
  8
1
  6
Continuous
 62
     3
100
AcDbCircle
 10
-0.00000000000118
 20
93.0000011096643
 30
0.0
 40
12.75000000000124
100
AcDbArc
 50
283.6089606307797
 51
76.09196804211066
  0
ARC
  5
511
330
1F
100
AcDbEntity
  8
5
  6
Continuous
 62
     3
100
AcDbCircle
 10
1.50531412621446
 20
91.5005582359056
 30
0.0
 40
0.999999981200304
100
AcDbArc
 50
90.0
 51
180.0
  0
ARC
  5
512
330
1F
100
AcDbEntity
  8
5
  6
Continuous
 62
     3
100
AcDbCircle
 10
1.50531412621446
 20
94.5005581795058
 30
0.0
 40
0.99999998119984
100
AcDbArc
 50
180.0
 51
270.0
  0
ARC
  5
513
330
1F
100
AcDbEntity
  8
5
  6
Continuous
 62
     3
100
AcDbCircle
 10
-1.49468581738556
 20
94.5005581795058
 30
0.0
 40
0.999999981200105
100
AcDbArc
 50
270.0
 51
0.0
  0
ARC
  5
514
330
1F
100
AcDbEntity
  8
5
  6
Continuous
 62
     3
100
AcDbCircle
 10
-1.49468581738556
 20
91.5005582359056
 30
0.0
 40
0.99999998120029
100
AcDbArc
 50
0.0
 51
90.0
  0
ARC
  5
515
330
1F
100
AcDbEntity
  8
0
  6
Continuous
 62
     3
100
AcDbCircle
 10
-0.00000000000118
 20
93.0000011096643
 30
0.0
 40
8.749999999667002
100
AcDbArc
 50
311.0499263398261
 51
48.95007366017384
  0
ARC
  5
516
330
1F
100
AcDbEntity
  8
0
  6
Continuous
 62
     3
100
AcDbCircle
 10
-0.00000000000118
 20
93.0000011091995
 30
0.0
 40
8.749999999329534
100
AcDbArc
 50
131.0499263408203
 51
228.9500736591797
  0
ARC
  5
517
330
1F
100
AcDbEntity
  8
1
  6
Continuous
 62
     3
100
AcDbCircle
 10
-16.4544826719048
 20
42.2878780335916
 30
0.0
 40
9.712126444007888
100
AcDbArc
 50
55.61575253195875
 51
124.3842474680408
  0
ARC
  5
518
330
1F
100
AcDbEntity
  8
1
  6
Continuous
 62
     3
100
AcDbCircle
 10
-16.4544826719048
 20
50.7121313352075
 30
0.0
 40
9.712126444007676
100
AcDbArc
 50
235.6157525319586
 51
304.3842474680419
  0
ARC
  5
519
330
1F
100
AcDbEntity
  8
1
  6
Continuous
 62
     3
100
AcDbCircle
 10
-0.00000000000044
 20
77.302993339136
 30
0.0
 40
36.30298844793632
100
AcDbArc
 50
252.4120462260059
 51
287.5879537739939
  0
ARC
  5
51A
330
1F
100
AcDbEntity
  8
1
  6
Continuous
 62
     3
100
AcDbCircle
 10
-0.00000000000044
 20
15.6970160296632
 30
0.0
 40
36.30298844793641
100
AcDbArc
 50
72.41204622600608
 51
107.5879537739939
  0
ARC
  5
51B
330
1F
100
AcDbEntity
  8
1
  6
Continuous
 62
     3
100
AcDbCircle
 10
16.4544826719039
 20
42.2878780335916
 30
0.0
 40
9.71212644400789
100
AcDbArc
 50
55.61575253195875
 51
124.3842474680413
  0
ARC
  5
51C
330
1F
100
AcDbEntity
  8
1
  6
Continuous
 62
     3
100
AcDbCircle
 10
16.4544826719039
 20
50.7121313352075
 30
0.0
 40
9.71212644400773
100
AcDbArc
 50
235.6157525319581
 51
304.3842474680419
  0
ARC
  5
51D
330
1F
100
AcDbEntity
  8
0
  6
Continuous
 62
     3
100
AcDbCircle
 10
88.2686224503859
 20
-32.0
 30
0.0
 40
2.0
100
AcDbArc
 50
270.0
 51
358.000000000003
  0
ARC
  5
51E
330
1F
100
AcDbEntity
  8
0
  6
Continuous
 62
     3
100
AcDbCircle
 10
82.1313775496142
 20
-32.0
 30
0.0
 40
1.999999999999704
100
AcDbArc
 50
181.9999999999974
 51
270.0
  0
ARC
  5
51F
330
1F
100
AcDbEntity
  8
0
  6
Continuous
 62
     3
100
AcDbCircle
 10
88.2686224503859
 20
32.0
 30
0.0
 40
2.000000000000101
100
AcDbArc
 50
1.99999999999703
 51
90.0
  0
ARC
  5
520
330
1F
100
AcDbEntity
  8
0
  6
Continuous
 62
     3
100
AcDbCircle
 10
82.1313775496142
 20
32.0
 30
0.0
 40
2.0
100
AcDbArc
 50
90.0
 51
178.0000000000026
  0
ARC
  5
521
330
1F
100
AcDbEntity
  8
1
  6
Continuous
 62
     3
100
AcDbCircle
 10
221.5
 20
42.6130883908244
 30
0.0
 40
8.753161556960654
100
AcDbArc
 50
242.5022752779254
 51
297.4977247220783
  0
ARC
  5
522
330
1F
100
AcDbEntity
  8
1
  6
Continuous
 62
     3
100
AcDbCircle
 10
215.437822173508
 20
36.4190366986509
 30
0.0
 40
2.559109864786902
100
AcDbArc
 50
220.2928992422216
 51
322.1500728472267
  0
ARC
  5
523
330
1F
100
AcDbEntity
  8
1
  6
Continuous
 62
     3
100
AcDbCircle
 10
227.562177826491
 20
36.4190366986509
 30
0.0
 40
2.559109864785057
100
AcDbArc
 50
217.8499271527163
 51
310.2928992427555
  0
ARC
  5
524
330
1F
100
AcDbEntity
  8
1
  6
Continuous
 62
     3
100
AcDbCircle
 10
227.562177826491
 20
37.1331730176129
 30
0.0
 40
3.57815184779224
100
AcDbArc
 50
55.61575253195004
 51
124.384247467983
  0
ARC
  5
525
330
1F
100
AcDbEntity
  8
1
  6
Continuous
 62
     3
100
AcDbCircle
 10
221.5
 20
27.3365396477442
 30
0.0
 40
13.37478521766763
100
AcDbArc
 50
72.41204622601738
 51
107.5879537739987
  0
ARC
  5
526
330
1F
100
AcDbEntity
  8
1
  6
Continuous
 62
     3
100
AcDbCircle
 10
215.437822173508
 20
37.1331730176129
 30
0.0
 40
3.57815184779074
100
AcDbArc
 50
55.61575253193416
 51
124.38424746805
  0
ARC
  5
527
330
1F
100
AcDbEntity
  8
5
  6
Continuous
 62
     4
100
AcDbCircle
 10
187.350000000001
 20
64.0000000000005
 30
0.0
 40
3.25
100
AcDbArc
 50
180.0
 51
0.0
  0
ARC
  5
528
330
1F
100
AcDbEntity
  8
5
  6
Continuous
 62
     4
100
AcDbCircle
 10
187.350000000001
 20
64.0000000000005
 30
0.0
 40
1.5
100
AcDbArc
 50
0.0
 51
180.0
  0
ARC
  5
529
330
1F
100
AcDbEntity
  8
5
  6
Continuous
 62
     4
100
AcDbCircle
 10
187.350000000001
 20
64.0000000000005
 30
0.0
 40
1.5
100
AcDbArc
 50
180.0
 51
0.0
  0
ARC
  5
52A
330
1F
100
AcDbEntity
  8
5
  6
Continuous
 62
     4
100
AcDbCircle
 10
106.600000000005
 20
13.4142135623751
 30
0.0
 40
1.000000000004827
100
AcDbArc
 50
191.1695832822454
 51
224.9999999999149
  0
ARC
  5
52B
330
1F
100
AcDbEntity
  8
5
  6
Continuous
 62
     4
100
AcDbCircle
 10
111.342640687119
 20
11.4999999999982
 30
0.0
 40
2.999999999997817
100
AcDbArc
 50
225.0000000000028
 51
270.000000000019
  0
ARC
  5
52C
330
1F
100
AcDbEntity
  8
5
  6
Continuous
 62
     4
100
AcDbCircle
 10
111.600000000001
 20
10.5
 30
0.0
 40
2.0
100
AcDbArc
 50
270.0
 51
0.0
  0
ARC
  5
52D
330
1F
100
AcDbEntity
  8
5
  6
Continuous
 62
     4
100
AcDbCircle
 10
179.857359312881
 20
11.5000000000032
 30
0.0
 40
3.000000000003199
100
AcDbArc
 50
270.0
 51
314.9999999999568
  0
ARC
  5
52E
330
1F
100
AcDbEntity
  8
5
  6
Continuous
 62
     4
100
AcDbCircle
 10
179.600000000001
 20
10.5000000000009
 30
0.0
 40
2.0
100
AcDbArc
 50
180.0000000000258
 51
270.0
  0
ARC
  5
52F
330
1F
100
AcDbEntity
  8
5
  6
Continuous
 62
     4
100
AcDbCircle
 10
179.600000000001
 20
-10.5000000000009
 30
0.0
 40
2.000000000000901
100
AcDbArc
 50
90.0
 51
179.9999999999742
  0
ARC
  5
530
330
1F
100
AcDbEntity
  8
5
  6
Continuous
 62
     4
100
AcDbCircle
 10
179.857359312881
 20
-11.5
 30
0.0
 40
2.999999999999846
100
AcDbArc
 50
67.61178327128879
 51
90.0
  0
ARC
  5
531
330
1F
100
AcDbEntity
  8
5
  6
Continuous
 62
     4
100
AcDbCircle
 10
111.600000000001
 20
-10.5
 30
0.0
 40
2.0
100
AcDbArc
 50
0.0
 51
90.0
  0
ARC
  5
532
330
1F
100
AcDbEntity
  8
5
  6
Continuous
 62
     4
100
AcDbCircle
 10
106.599347650089
 20
447.414213562375
 30
0.0
 40
1.000000000003806
100
AcDbArc
 50
191.1695832822434
 51
224.9999999999591
  0
ARC
  5
533
330
1F
100
AcDbEntity
  8
5
  6
Continuous
 62
     4
100
AcDbCircle
 10
106.599347650082
 20
420.585786437628
 30
0.0
 40
0.9999999999964106
100
AcDbArc
 50
134.9999999999183
 51
168.830416717845
  0
ARC
  5
534
330
1F
100
AcDbEntity
  8
5
  6
Continuous
 62
     4
100
AcDbCircle
 10
145.599347650085
 20
442.0
 30
0.0
 40
38.99999999999994
100
AcDbArc
 50
274.4117257857717
 51
349.6601091060725
  0
ARC
  5
535
330
1F
100
AcDbEntity
  8
5
  6
Continuous
 62
     4
100
AcDbCircle
 10
145.599347650085
 20
442.0
 30
0.0
 40
38.99999999999885
100
AcDbArc
 50
184.4117257857703
 51
265.5882742142313
  0
ARC
  5
536
330
1F
100
AcDbEntity
  8
5
  6
Continuous
 62
     4
100
AcDbCircle
 10
145.599347650085
 20
442.0
 30
0.0
 40
37.49999999999967
100
AcDbArc
 50
175.4114342642141
 51
349.2416817710047
  0
ARC
  5
537
330
1F
100
AcDbEntity
  8
5
  6
Continuous
 62
     4
100
AcDbCircle
 10
145.599347650085
 20
442.0
 30
0.0
 40
37.50000000000068
100
AcDbArc
 50
10.75831822899505
 51
175.4114342642141
  0
ARC
  5
538
330
1F
100
AcDbEntity
  8
5
  6
Continuous
 62
     4
100
AcDbCircle
 10
145.599347650085
 20
442.0
 30
0.0
 40
38.99999999999979
100
AcDbArc
 50
94.41172578576875
 51
175.5882742142298
  0
ARC
  5
539
330
1F
100
AcDbEntity
  8
5
  6
Continuous
 62
     4
100
AcDbCircle
 10
145.599347650085
 20
442.0
 30
0.0
 40
39.00000000000122
100
AcDbArc
 50
10.33989089392723
 51
85.58827421422835
  0
ARC
  5
53A
330
1F
100
AcDbEntity
  8
0
  6
Continuous
 62
     3
100
AcDbCircle
 10
88.2679701004707
 20
402.0
 30
0.0
 40
2.0
100
AcDbArc
 50
270.0
 51
357.9999999999997
  0
ARC
  5
53B
330
1F
100
AcDbEntity
  8
0
  6
Continuous
 62
     3
100
AcDbCircle
 10
82.130725199699
 20
402.0
 30
0.0
 40
1.999999999999708
100
AcDbArc
 50
182.0000000000007
 51
270.0
  0
ARC
  5
53C
330
1F
100
AcDbEntity
  8
0
  6
Continuous
 62
     3
100
AcDbCircle
 10
88.2679701004707
 20
466.0
 30
0.0
 40
2.000000000000105
100
AcDbArc
 50
2.00000000000029
 51
90.0
  0
ARC
  5
53D
330
1F
100
AcDbEntity
  8
0
  6
Continuous
 62
     3
100
AcDbCircle
 10
82.130725199699
 20
466.0
 30
0.0
 40
2.0
100
AcDbArc
 50
90.0
 51
177.9999999999993
  0
ARC
  5
53E
330
1F
100
AcDbEntity
  8
0
  6
Continuous
 62
     3
100
AcDbCircle
 10
235.096294082636
 20
416.75
 30
0.0
 40
1.5
100
AcDbArc
 50
90.0
 51
177.9999999999903
  0
ARC
  5
53F
330
1F
100
AcDbEntity
  8
0
  6
Continuous
 62
     3
100
AcDbCircle
 10
231.085125713067
 20
416.5
 30
0.0
 40
2.5
100
AcDbArc
 50
270.0
 51
358.0000000000057
  0
ARC
  5
540
330
1F
100
AcDbEntity
  8
0
  6
Continuous
 62
     3
100
AcDbCircle
 10
212.913561212458
 20
456.5
 30
0.0
 40
1.0
100
AcDbArc
 50
90.0
 51
135.0000000000011
  0
ARC
  5
541
330
1F
100
AcDbEntity
  8
0
  6
Continuous
 62
     3
100
AcDbCircle
 10
210.670920525339
 20
458.5
 30
0.0
 40
2.0
100
AcDbArc
 50
270.0
 51
315.0
  0
ARC
  5
542
330
1F
100
AcDbEntity
  8
0
  6
Continuous
 62
     3
100
AcDbCircle
 10
235.096294082636
 20
451.25
 30
0.0
 40
1.500000000000375
100
AcDbArc
 50
182.0000000000097
 51
270.0
  0
ARC
  5
543
330
1F
100
AcDbEntity
  8
0
  6
Continuous
 62
     3
100
AcDbCircle
 10
231.085125713067
 20
451.5
 30
0.0
 40
2.500000000000262
100
AcDbArc
 50
1.99999999999432
 51
90.0
  0
ARC
  5
544
330
1F
100
AcDbEntity
  8
0
  6
Continuous
 62
     3
100
AcDbCircle
 10
212.913561212458
 20
411.5
 30
0.0
 40
0.9999999999999477
100
AcDbArc
 50
225.0000000000403
 51
270.0
  0
ARC
  5
545
330
1F
100
AcDbEntity
  8
0
  6
Continuous
 62
     3
100
AcDbCircle
 10
210.670920525339
 20
409.5
 30
0.0
 40
1.999999999999855
100
AcDbArc
 50
45.0
 51
90.0
  0
ARC
  5
546
330
1F
100
AcDbEntity
  8
0
  6
Continuous
 62
     3
100
AcDbCircle
 10
237.844697171695
 20
451.75
 30
0.0
 40
2.0
100
AcDbArc
 50
270.0
 51
319.4583981265162
  0
ARC
  5
547
330
1F
100
AcDbEntity
  8
0
  6
Continuous
 62
     3
100
AcDbCircle
 10
223.827774774831
 20
412.0
 30
0.0
 40
2.0
100
AcDbArc
 50
90.0
 51
135.0
  0
ARC
  5
548
330
1F
100
AcDbEntity
  8
0
  6
Continuous
 62
     3
100
AcDbCircle
 10
219.085134087712
 20
411.5
 30
0.0
 40
1.0
100
AcDbArc
 50
270.0
 51
314.9999999999597
  0
ARC
  5
549
330
1F
100
AcDbEntity
  8
0
  6
Continuous
 62
     3
100
AcDbCircle
 10
237.844697171695
 20
416.25
 30
0.0
 40
1.999999999999289
100
AcDbArc
 50
40.54160187348381
 51
90.0
  0
ARC
  5
54A
330
1F
100
AcDbEntity
  8
0
  6
Continuous
 62
     3
100
AcDbCircle
 10
219.085134087712
 20
456.5
 30
0.0
 40
0.9999999999992243
100
AcDbArc
 50
44.99999999999885
 51
90.0
  0
ARC
  5
54B
330
1F
100
AcDbEntity
  8
0
  6
Continuous
 62
     3
100
AcDbCircle
 10
223.827774774831
 20
456.0
 30
0.0
 40
1.999999999999855
100
AcDbArc
 50
225.0
 51
270.0
  0
ARC
  5
54C
330
1F
100
AcDbEntity
  8
0
  6
Continuous
 62
     3
100
AcDbCircle
 10
181.999347650085
 20
419.75
 30
0.0
 40
1.0
100
AcDbArc
 50
90.0
 51
180.0
  0
ARC
  5
54D
330
1F
100
AcDbEntity
  8
0
  6
Continuous
 62
     3
100
AcDbCircle
 10
7.47047037055279
 20
373.122134866893
 30
0.0
 40
1.0
100
AcDbArc
 50
270.0
 51
326.5283492126692
  0
ARC
  5
54E
330
1F
100
AcDbEntity
  8
0
  6
Continuous
 62
     3
100
AcDbCircle
 10
-7.8612120068803
 20
373.122134866893
 30
0.0
 40
0.9999999999998468
100
AcDbArc
 50
213.4716507873364
 51
270.0
  0
ARC
  5
54F
330
1F
100
AcDbEntity
  8
1
  6
Continuous
 62
     3
100
AcDbCircle
 10
-0.1216541203886
 20
378.322083966128
 30
0.0
 40
9.000000000000547
100
AcDbArc
 50
245.4438746932871
 51
251.4147240158127
  0
ARC
  5
550
330
1F
100
AcDbEntity
  8
1
  6
Continuous
 62
     3
100
AcDbCircle
 10
-0.1216541203886
 20
378.322083966128
 30
0.0
 40
8.999999999999977
100
AcDbArc
 50
287.5940076858775
 51
294.5561253067096
  0
ARC
  5
551
330
1F
100
AcDbEntity
  8
0
  6
Continuous
 62
     3
100
AcDbCircle
 10
0.00003453571778
 20
434.12160654895
 30
0.0
 40
20.00001528947742
100
AcDbArc
 50
180.3483789811108
 51
240.8235117650819
  0
ARC
  5
552
330
1F
100
AcDbEntity
  8
0
  6
Continuous
 62
     3
100
AcDbCircle
 10
-0.00004624031419
 20
434.121593797034
 30
0.0
 40
20.00002023484499
100
AcDbArc
 50
299.1765144528694
 51
359.6516576372199
  0
ARC
  5
553
330
1F
100
AcDbEntity
  8
0
  6
Continuous
 62
     3
100
AcDbCircle
 10
0.0000028330067
 20
434.12164927995
 30
0.0
 40
21.00000150622825
100
AcDbArc
 50
297.6639929066935
 51
337.6073041315364
  0
ARC
  5
554
330
1F
100
AcDbEntity
  8
0
  6
Continuous
 62
     3
100
AcDbCircle
 10
-0.00000022986359
 20
434.121645973726
 30
0.0
 40
19.9999999999998
100
AcDbArc
 50
359.651507806807
 51
180.3484921931929
  0
ARC
  5
555
330
1F
100
AcDbEntity
  8
0
  6
Continuous
 62
     3
100
AcDbCircle
 10
-0.00000130313601
 20
434.121645973725
 30
0.0
 40
21.00000085968129
100
AcDbArc
 50
22.39268683899455
 51
157.6073131610054
  0
ARC
  5
556
330
1F
100
AcDbEntity
  8
0
  6
Continuous
 62
     3
100
AcDbCircle
 10
-0.00000312305031
 20
434.121649096773
 30
0.0
 40
21.00000142277352
100
AcDbArc
 50
202.3926954217451
 51
242.3360064512333
  0
ARC
  5
557
330
1F
100
AcDbEntity
  8
0
  6
Continuous
 62
     3
100
AcDbCircle
 10
-11.7500002298636
 20
411.200073098471
 30
0.0
 40
1.999999999999107
100
AcDbArc
 50
315.0000000000177
 51
0.0
  0
ARC
  5
558
330
1F
100
AcDbEntity
  8
0
  6
Continuous
 62
     3
100
AcDbCircle
 10
11.7499997701364
 20
411.200073098471
 30
0.0
 40
1.999999999999989
100
AcDbArc
 50
180.0
 51
224.999999999999
  0
ARC
  5
559
330
1F
100
AcDbEntity
  8
5
  6
Continuous
 62
     3
100
AcDbCircle
 10
-1.2822291295162
 20
441.025456360589
 30
0.0
 40
0.2999999943598776
100
AcDbArc
 50
26.77894159256608
 51
98.44781013539091
  0
ARC
  5
55A
330
1F
100
AcDbEntity
  8
5
  6
Continuous
 62
     3
100
AcDbCircle
 10
-0.12165223638721
 20
441.611170635292
 30
0.0
 40
0.999999981200062
100
AcDbArc
 50
206.7789415924868
 51
333.2210584075211
  0
ARC
  5
55B
330
1F
100
AcDbEntity
  8
5
  6
Continuous
 62
     3
100
AcDbCircle
 10
1.03892465674229
 20
441.025456360589
 30
0.0
 40
0.2999999943600019
100
AcDbArc
 50
81.55218986465631
 51
153.2210584074513
  0
ARC
  5
55C
330
1F
100
AcDbEntity
  8
5
  6
Continuous
 62
     3
100
AcDbCircle
 10
-6.68026387536171
 20
436.568780764527
 30
0.0
 40
0.2999999943598876
100
AcDbArc
 50
86.7789415925034
 51
158.4478101354468
  0
ARC
  5
55D
330
1F
100
AcDbEntity
  8
5
  6
Continuous
 62
     3
100
AcDbCircle
 10
-6.6072188700488
 20
437.866726974374
 30
0.0
 40
0.9999999812006317
100
AcDbArc
 50
266.7789415924832
 51
33.2210584074712
  0
ARC
  5
55E
330
1F
100
AcDbEntity
  8
5
  6
Continuous
 62
     3
100
AcDbCircle
 10
-5.51968698223272
 20
438.578958909518
 30
0.0
 40
0.2999999943595147
100
AcDbArc
 50
141.5521898646989
 51
213.2210584077161
  0
ARC
  5
55F
330
1F
100
AcDbEntity
  8
5
  6
Continuous
 62
     3
100
AcDbCircle
 10
-6.60721885348511
 20
430.377839681227
 30
0.0
 40
0.9999999812003846
100
AcDbArc
 50
326.7789415924602
 51
93.22105840751757
  0
ARC
  5
560
330
1F
100
AcDbEntity
  8
5
  6
Continuous
 62
     3
100
AcDbCircle
 10
-5.519686965669
 20
429.665607746083
 30
0.0
 40
0.299999994359532
100
AcDbArc
 50
146.7789415925248
 51
218.4478101355456
  0
ARC
  5
561
330
1F
100
AcDbEntity
  8
5
  6
Continuous
 62
     3
100
AcDbCircle
 10
-6.68026385879799
 20
431.675785891073
 30
0.0
 40
0.299999994359996
100
AcDbArc
 50
201.5521898645563
 51
273.2210584074985
  0
ARC
  5
562
330
1F
100
AcDbEntity
  8
5
  6
Continuous
 62
     3
100
AcDbCircle
 10
1.0389246898697
 20
427.219110323701
 30
0.0
 40
0.2999999943598034
100
AcDbArc
 50
206.7789415925732
 51
278.4478101354038
  0
ARC
  5
563
330
1F
100
AcDbEntity
  8
5
  6
Continuous
 62
     3
100
AcDbCircle
 10
-0.12165220325969
 20
426.633396048998
 30
0.0
 40
0.9999999812004676
100
AcDbArc
 50
26.77894159247144
 51
153.2210584075174
  0
ARC
  5
564
330
1F
100
AcDbEntity
  8
5
  6
Continuous
 62
     3
100
AcDbCircle
 10
-1.28222909638879
 20
427.219110323701
 30
0.0
 40
0.2999999943600073
100
AcDbArc
 50
261.5521898645753
 51
333.221058407439
  0
ARC
  5
565
330
1F
100
AcDbEntity
  8
5
  6
Continuous
 62
     3
100
AcDbCircle
 10
6.43695943571521
 20
431.675785919763
 30
0.0
 40
0.2999999943598307
100
AcDbArc
 50
266.778941592503
 51
338.4478101354426
  0
ARC
  5
566
330
1F
100
AcDbEntity
  8
5
  6
Continuous
 62
     3
100
AcDbCircle
 10
5.27638254258579
 20
429.665607774772
 30
0.0
 40
0.2999999943598514
100
AcDbArc
 50
321.5521898647499
 51
33.22105840769417
  0
ARC
  5
567
330
1F
100
AcDbEntity
  8
5
  6
Continuous
 62
     3
100
AcDbCircle
 10
6.3639144304023
 20
430.377839709916
 30
0.0
 40
0.9999999812006884
100
AcDbArc
 50
86.77894159248343
 51
213.2210584074616
  0
ARC
  5
568
330
1F
100
AcDbEntity
  8
5
  6
Continuous
 62
     3
100
AcDbCircle
 10
6.43695941915149
 20
436.568780793216
 30
0.0
 40
0.2999999943604533
100
AcDbArc
 50
21.55218986472029
 51
93.22105840747933
  0
ARC
  5
569
330
1F
100
AcDbEntity
  8
5
  6
Continuous
 62
     3
100
AcDbCircle
 10
6.36391441383861
 20
437.866727003063
 30
0.0
 40
0.9999999812007508
100
AcDbArc
 50
146.7789415924701
 51
273.2210584075202
  0
ARC
  5
56A
330
1F
100
AcDbEntity
  8
5
  6
Continuous
 62
     3
100
AcDbCircle
 10
5.2763825260221
 20
438.578958938207
 30
0.0
 40
0.299999994359532
100
AcDbArc
 50
326.7789415925248
 51
38.44781013529986
  0
ARC
  5
56B
330
1F
100
AcDbEntity
  8
1
  6
Continuous
 62
     3
100
AcDbCircle
 10
263.999347650085
 20
434.0
 30
0.0
 40
6.5
100
AcDbArc
 50
90.0
 51
270.0
  0
ARC
  5
56C
330
1F
100
AcDbEntity
  8
1
  6
Continuous
 62
     3
100
AcDbCircle
 10
502.258470197229
 20
72.0000011091995
 30
0.0
 40
2.0
100
AcDbArc
 50
0.00000000259818
 51
90.0
  0
ARC
  5
56D
330
1F
100
AcDbEntity
  8
1
  6
Continuous
 62
     3
100
AcDbCircle
 10
533.741529802771
 20
72.0000011091995
 30
0.0
 40
2.0
100
AcDbArc
 50
90.0
 51
179.9999999974018
  0
ARC
  5
56E
330
1F
100
AcDbEntity
  8
1
  6
Continuous
 62
     3
100
AcDbCircle
 10
522.211002965354
 20
10.1620595366187
 30
0.0
 40
3.00000000000015
100
AcDbArc
 50
184.5273181275539
 51
247.4916263381284
  0
ARC
  5
56F
330
1F
100
AcDbEntity
  8
1
  6
Continuous
 62
     3
100
AcDbCircle
 10
513.788997034646
 20
10.1620595366187
 30
0.0
 40
3.000000000000207
100
AcDbArc
 50
292.5083736618712
 51
355.4726818724457
  0
ARC
  5
570
330
1F
100
AcDbEntity
  8
1
  6
Continuous
 62
     3
100
AcDbCircle
 10
507.854188056148
 20
4.24999999999999
 30
0.0
 40
2.999999999999982
100
AcDbArc
 50
274.3072691919016
 51
337.2715774024979
  0
ARC
  5
571
330
1F
100
AcDbEntity
  8
1
  6
Continuous
 62
     3
100
AcDbCircle
 10
507.854188056148
 20
-4.25
 30
0.0
 40
3.000000000000502
100
AcDbArc
 50
22.72842259750853
 51
85.69273080809913
  0
ARC
  5
572
330
1F
100
AcDbEntity
  8
1
  6
Continuous
 62
     3
100
AcDbCircle
 10
513.788997034646
 20
-10.1620595366187
 30
0.0
 40
3.000000000000151
100
AcDbArc
 50
4.52731812755409
 51
67.49162633812837
  0
ARC
  5
573
330
1F
100
AcDbEntity
  8
1
  6
Continuous
 62
     3
100
AcDbCircle
 10
522.211002965354
 20
-10.1620595366187
 30
0.0
 40
3.000000000000207
100
AcDbArc
 50
112.5083736618713
 51
175.4726818724467
  0
ARC
  5
574
330
1F
100
AcDbEntity
  8
1
  6
Continuous
 62
     3
100
AcDbCircle
 10
528.145811943852
 20
-4.25
 30
0.0
 40
2.999999999999982
100
AcDbArc
 50
94.30726919190163
 51
157.2715774024866
  0
ARC
  5
575
330
1F
100
AcDbEntity
  8
1
  6
Continuous
 62
     3
100
AcDbCircle
 10
528.145811943852
 20
4.24999999999999
 30
0.0
 40
3.000000000000551
100
AcDbArc
 50
202.7284225975079
 51
265.6927308080992
  0
ARC
  5
576
330
1F
100
AcDbEntity
  8
1
  6
Continuous
 62
     3
100
AcDbCircle
 10
15.7415298027697
 20
72.0000011091995
 30
0.0
 40
2.0
100
AcDbArc
 50
90.0
 51
179.9999999974018
  0
ARC
  5
577
330
1F
100
AcDbEntity
  8
1
  6
Continuous
 62
     3
100
AcDbCircle
 10
-15.741529802772
 20
72.0000011091995
 30
0.0
 40
2.0
100
AcDbArc
 50
0.00000000259818
 51
90.0
  0
ARC
  5
578
330
1F
100
AcDbEntity
  8
1
  6
Continuous
 62
     3
100
AcDbCircle
 10
-3.32165412038839
 20
371.31851344817
 30
0.0
 40
1.30000000000021
100
AcDbArc
 50
180.0
 51
245.4438746932646
  0
ARC
  5
579
330
1F
100
AcDbEntity
  8
1
  6
Continuous
 62
     3
100
AcDbCircle
 10
3.0783458796117
 20
371.31851344817
 30
0.0
 40
1.299999999999517
100
AcDbArc
 50
294.5561253066929
 51
0.0
  0
ARC
  5
57A
330
1F
100
AcDbEntity
  8
1
  6
Continuous
 62
     3
100
AcDbCircle
 10
-6.00065234991519
 20
449.5
 30
0.0
 40
5.999999999999955
100
AcDbArc
 50
126.8698976458433
 51
159.3354805366344
  0
ARC
  5
57B
330
1F
100
AcDbEntity
  8
1
  6
Continuous
 62
     3
100
AcDbCircle
 10
277.999347650085
 20
418.5
 30
0.0
 40
6.000000000000022
100
AcDbArc
 50
306.8698976458441
 51
0.0
  0
ARC
  5
57C
330
1F
100
AcDbEntity
  8
1
  6
Continuous
 62
     3
100
AcDbCircle
 10
277.999347650085
 20
449.5
 30
0.0
 40
6.0
100
AcDbArc
 50
0.0
 51
53.13010235415587
  0
ARC
  5
57D
330
1F
100
AcDbEntity
  8
1
  6
Continuous
 62
     3
100
AcDbCircle
 10
255.332680983418
 20
449.0
 30
0.0
 40
20.00000000000002
100
AcDbArc
 50
53.13010235415592
 51
90.0
  0
ARC
  5
57E
330
1F
100
AcDbEntity
  8
1
  6
Continuous
 62
     3
100
AcDbCircle
 10
255.332680983418
 20
419.0
 30
0.0
 40
20.0
100
AcDbArc
 50
270.0
 51
306.869897645844
  0
ARC
  5
57F
330
1F
100
AcDbEntity
  8
1
  6
Continuous
 62
     3
100
AcDbCircle
 10
16.6660143167518
 20
449.0
 30
0.0
 40
20.0
100
AcDbArc
 50
90.0
 51
126.869897645844
  0
ARC
  5
580
330
1F
100
AcDbEntity
  8
1
  6
Continuous
 62
     3
100
AcDbCircle
 10
16.6660143167518
 20
419.0
 30
0.0
 40
20.00000000000061
100
AcDbArc
 50
258.3528961959627
 51
270.0
  0
ARC
  5
581
330
1F
100
AcDbEntity
  8
1
  6
Continuous
 62
     3
100
AcDbCircle
 10
-6.00065234991519
 20
418.5
 30
0.0
 40
5.999999999999972
100
AcDbArc
 50
197.4675888413948
 51
231.3257868164137
  0
ARC
  5
582
330
1F
100
AcDbEntity
  8
1
  6
Continuous
 62
     3
100
AcDbCircle
 10
242.499347650085
 20
416.0
 30
0.0
 40
3.499999999999879
100
AcDbArc
 50
153.7136793166328
 51
180.0
  0
ARC
  5
583
330
1F
100
AcDbEntity
  8
1
  6
Continuous
 62
     3
100
AcDbCircle
 10
242.499347650085
 20
452.0
 30
0.0
 40
3.5
100
AcDbArc
 50
180.0
 51
206.2863206833673
  0
ARC
  5
584
330
1F
100
AcDbEntity
  8
1
  6
Continuous
 62
     3
100
AcDbCircle
 10
29.4993476500848
 20
416.0
 30
0.0
 40
3.5
100
AcDbArc
 50
0.0
 51
90.0
  0
ARC
  5
585
330
1F
100
AcDbEntity
  8
1
  6
Continuous
 62
     3
100
AcDbCircle
 10
29.4993476500848
 20
452.0
 30
0.0
 40
3.5
100
AcDbArc
 50
270.0
 51
0.0
  0
ARC
  5
586
330
1F
100
AcDbEntity
  8
1
  6
Continuous
 62
     3
100
AcDbCircle
 10
281.999347650085
 20
425.5
 30
0.0
 40
2.0
100
AcDbArc
 50
0.0
 51
90.0
  0
ARC
  5
587
330
1F
100
AcDbEntity
  8
1
  6
Continuous
 62
     3
100
AcDbCircle
 10
281.999347650085
 20
442.5
 30
0.0
 40
2.0
100
AcDbArc
 50
270.0
 51
0.0
  0
ARC
  5
588
330
1F
100
AcDbEntity
  8
1
  6
Continuous
 62
     3
100
AcDbCircle
 10
20.0000000000001
 20
-97.3000000000003
 30
0.0
 40
6.199999999999704
100
AcDbArc
 50
270.0
 51
0.0
  0
ARC
  5
589
330
1F
100
AcDbEntity
  8
1
  6
Continuous
 62
     3
100
AcDbCircle
 10
29.2000000000001
 20
-46.2000000000001
 30
0.0
 40
6.200000000000102
100
AcDbArc
 50
90.0
 51
180.0
  0
ARC
  5
58A
330
1F
100
AcDbEntity
  8
1
  6
Continuous
 62
     3
100
AcDbCircle
 10
20.0000000000001
 20
-97.3000000000003
 30
0.0
 40
2.999999999999702
100
AcDbArc
 50
270.0
 51
0.0
  0
ARC
  5
58B
330
1F
100
AcDbEntity
  8
1
  6
Continuous
 62
     3
100
AcDbCircle
 10
29.2000000000001
 20
-46.2000000000001
 30
0.0
 40
3.0
100
AcDbArc
 50
90.0
 51
180.0
  0
ARC
  5
58C
330
1F
100
AcDbEntity
  8
1
  6
Continuous
 62
     3
100
AcDbCircle
 10
252.0
 20
-97.3000000000003
 30
0.0
 40
3.0
100
AcDbArc
 50
180.0
 51
270.0
  0
ARC
  5
58D
330
1F
100
AcDbEntity
  8
1
  6
Continuous
 62
     3
100
AcDbCircle
 10
252.2
 20
-97.1000000000001
 30
0.0
 40
6.399999999999977
100
AcDbArc
 50
180.0
 51
270.0
  0
ARC
  5
58E
330
1F
100
AcDbEntity
  8
1
  6
Continuous
 62
     3
100
AcDbCircle
 10
242.6
 20
-46.4000000000001
 30
0.0
 40
6.400000000000006
100
AcDbArc
 50
0.0
 51
90.0
  0
ARC
  5
58F
330
1F
100
AcDbEntity
  8
1
  6
Continuous
 62
     3
100
AcDbCircle
 10
242.8
 20
-46.2000000000001
 30
0.0
 40
3.0
100
AcDbArc
 50
0.0
 51
90.0
  0
ARC
  5
590
330
1F
100
AcDbEntity
  8
1
  6
Continuous
 62
     3
100
AcDbCircle
 10
98.8000000000001
 20
-36.8000000000003
 30
0.0
 40
6.400000000000278
100
AcDbArc
 50
330.0000000000046
 51
0.0
  0
ARC
  5
591
330
1F
100
AcDbEntity
  8
1
  6
Continuous
 62
     3
100
AcDbCircle
 10
99.0000000000001
 20
-37.0
 30
0.0
 40
3.0
100
AcDbArc
 50
270.0
 51
0.0
  0
ARC
  5
592
330
1F
100
AcDbEntity
  8
1
  6
Continuous
 62
     3
100
AcDbCircle
 10
38.0000000000001
 20
-49.9289321881347
 30
0.0
 40
5.0
100
AcDbArc
 50
180.0
 51
224.9999999999991
  0
ARC
  5
593
330
1F
100
AcDbEntity
  8
1
  6
Continuous
 62
     3
100
AcDbCircle
 10
51.5710678118656
 20
-63.5
 30
0.0
 40
5.000000000000015
100
AcDbArc
 50
224.9999999999991
 51
270.0
  0
ARC
  5
594
330
1F
100
AcDbEntity
  8
1
  6
Continuous
 62
     3
100
AcDbCircle
 10
234.0
 20
-49.9289321881347
 30
0.0
 40
5.000000000000011
100
AcDbArc
 50
315.000000000004
 51
0.0
  0
ARC
  5
595
330
1F
100
AcDbEntity
  8
1
  6
Continuous
 62
     3
100
AcDbCircle
 10
220.428932188135
 20
-63.5
 30
0.0
 40
5.0
100
AcDbArc
 50
270.0
 51
315.0000000000024
  0
ARC
  5
596
330
1F
100
AcDbEntity
  8
1
  6
Continuous
 62
     3
100
AcDbCircle
 10
538.0
 20
-82.7818265594872
 30
0.0
 40
15.0
100
AcDbArc
 50
0.0
 51
38.79655209830885
  0
ARC
  5
597
330
1F
100
AcDbEntity
  8
1
  6
Continuous
 62
     3
100
AcDbCircle
 10
540.5
 20
-49.18302583494
 30
0.0
 40
8.0
100
AcDbArc
 50
180.0
 51
218.7965520983108
  0
ARC
  5
598
330
1F
100
AcDbEntity
  8
1
  6
Continuous
 62
     3
100
AcDbCircle
 10
498.0
 20
-82.7818265594872
 30
0.0
 40
14.99999999999977
100
AcDbArc
 50
141.2034479016912
 51
180.0
  0
ARC
  5
599
330
1F
100
AcDbEntity
  8
1
  6
Continuous
 62
     3
100
AcDbCircle
 10
495.5
 20
-49.18302583494
 30
0.0
 40
7.999999999999946
100
AcDbArc
 50
321.2034479016895
 51
0.0
  0
ARC
  5
59A
330
1F
100
AcDbEntity
  8
1
  6
Continuous
 62
     3
100
AcDbCircle
 10
496.7
 20
-46.2000000000001
 30
0.0
 40
3.0
100
AcDbArc
 50
90.0
 51
180.0
  0
ARC
  5
59B
330
1F
100
AcDbEntity
  8
1
  6
Continuous
 62
     3
100
AcDbCircle
 10
539.3
 20
-46.2000000000001
 30
0.0
 40
3.0
100
AcDbArc
 50
0.0
 51
90.0
  0
ARC
  5
59C
330
1F
100
AcDbEntity
  8
1
  6
Continuous
 62
     3
100
AcDbCircle
 10
539.3
 20
-46.2000000000001
 30
0.0
 40
6.200000000000045
100
AcDbArc
 50
0.0
 51
90.0
  0
ARC
  5
59D
330
1F
100
AcDbEntity
  8
1
  6
Continuous
 62
     3
100
AcDbCircle
 10
496.7
 20
-46.2000000000001
 30
0.0
 40
6.200000000000102
100
AcDbArc
 50
90.0
 51
180.0
  0
ARC
  5
59E
330
1F
100
AcDbEntity
  8
1
  6
DASHED
 62
     2
100
AcDbCircle
 10
19.9999999999972
 20
358.9999988908
 30
0.0
 40
1.0
100
AcDbArc
 50
0.0
 51
90.0
  0
ARC
  5
59F
330
1F
100
AcDbEntity
  8
1
  6
DASHED
 62
     2
100
AcDbCircle
 10
-20.0000000000031
 20
358.9999988908
 30
0.0
 40
1.0
100
AcDbArc
 50
90.0
 51
180.0
  0
ARC
  5
5A0
330
1F
100
AcDbEntity
  8
0
  6
DASHED
 62
     2
100
AcDbCircle
 10
-0.0000000000029
 20
340.999998890336
 30
0.0
 40
8.74999999966701
100
AcDbArc
 50
311.0499263398275
 51
48.95007366017259
  0
ARC
  5
5A1
330
1F
100
AcDbEntity
  8
0
  6
DASHED
 62
     2
100
AcDbCircle
 10
-0.0000000000029
 20
340.999998890336
 30
0.0
 40
8.749999999010512
100
AcDbArc
 50
131.0499263417706
 51
228.9500736582291
  0
ARC
  5
5A2
330
1F
100
AcDbEntity
  8
0
  6
DASHED
 62
     2
100
AcDbCircle
 10
605.182676922881
 20
-19.0000000000077
 30
0.0
 40
2.000000000001602
100
AcDbArc
 50
270.0
 51
311.4096221092231
  0
ARC
  5
5A3
330
1F
100
AcDbEntity
  8
0
  6
DASHED
 62
     2
100
AcDbCircle
 10
607.828428233946
 20
-22.0000000000093
 30
0.0
 40
2.0
100
AcDbArc
 50
90.0
 51
131.4096221092982
  0
ARC
  5
5A4
330
1F
100
AcDbEntity
  8
100
  6
DASHED
 62
     2
100
AcDbCircle
 10
587.020649697291
 20
63.1538894676168
 30
0.0
 40
2.999999999999637
100
AcDbArc
 50
59.999999999996
 51
175.0000000000201
  0
ARC
  5
5A5
330
1F
100
AcDbEntity
  8
100
  6
DASHED
 62
     2
100
AcDbCircle
 10
608.221777226097
 20
60.8220526530649
 30
0.0
 40
1.599999969921208
100
AcDbArc
 50
105.4939675005533
 51
132.5896599482147
  0
ARC
  5
5A6
330
1F
100
AcDbEntity
  8
100
  6
DASHED
 62
     2
100
AcDbCircle
 10
611.000001109199
 20
50.8000035617587
 30
0.0
 40
11.99999977440142
100
AcDbArc
 50
74.50603249947268
 51
105.4939675005272
  0
ARC
  5
5A7
330
1F
100
AcDbEntity
  8
100
  6
DASHED
 62
     2
100
AcDbCircle
 10
613.778224992301
 20
60.8220526530649
 30
0.0
 40
1.599999969921188
100
AcDbArc
 50
47.41034005178291
 51
74.50603249944187
  0
ARC
  5
5A8
330
1F
100
AcDbEntity
  8
100
  6
DASHED
 62
     2
100
AcDbCircle
 10
600.377195914915
 20
70.4535909123568
 30
0.0
 40
9.999999999998803
100
AcDbArc
 50
239.9999999999961
 51
262.6476206401076
  0
ARC
  5
5A9
330
1F
100
AcDbEntity
  8
100
  6
DASHED
 62
     2
100
AcDbCircle
 10
634.979352521109
 20
63.1538894676158
 30
0.0
 40
2.999999999998722
100
AcDbArc
 50
5.0000000000007
 51
119.9999999999944
  0
ARC
  5
5AA
330
1F
100
AcDbEntity
  8
100
  6
DASHED
 62
     2
100
AcDbCircle
 10
621.622806303484
 20
70.4535909123587
 30
0.0
 40
10.00000000000184
100
AcDbArc
 50
277.352379359891
 51
299.9999999999951
  0
ARC
  5
5AB
330
1F
100
AcDbEntity
  8
100
  6
DASHED
 62
     2
100
AcDbCircle
 10
600.849329343268
 20
61.9734464875677
 30
0.0
 40
1.649999999999445
100
AcDbArc
 50
262.9777639989809
 51
338.4485224527683
  0
ARC
  5
5AC
330
1F
100
AcDbEntity
  8
100
  6
DASHED
 62
     2
100
AcDbCircle
 10
603.314062300763
 20
61.0000033981989
 30
0.0
 40
1.0
100
AcDbArc
 50
90.0
 51
158.4485224526882
  0
ARC
  5
5AD
330
1F
100
AcDbEntity
  8
100
  6
DASHED
 62
     2
100
AcDbCircle
 10
618.685939917637
 20
61.0000033981997
 30
0.0
 40
1.000000000057993
100
AcDbArc
 50
21.55147754594344
 51
90.0
  0
ARC
  5
5AE
330
1F
100
AcDbEntity
  8
100
  6
DASHED
 62
     2
100
AcDbCircle
 10
621.150672875195
 20
61.9734464875689
 30
0.0
 40
1.65000000000111
100
AcDbArc
 50
201.5514775472705
 51
277.022236001008
  0
ARC
  5
5AF
330
1F
100
AcDbEntity
  8
1
  6
Continuous
 62
     3
100
AcDbCircle
 10
51.66952314428
 20
410.99904786506
 30
0.0
 40
2.000000000000071
100
AcDbArc
 50
44.99999999999381
 51
90.0
  0
ARC
  5
5B0
330
1F
100
AcDbEntity
  8
1
  6
Continuous
 62
     3
100
AcDbCircle
 10
51.66952314428
 20
456.99904786506
 30
0.0
 40
2.0
100
AcDbArc
 50
270.0
 51
315.0000000000062
  0
ARC
  5
5B1
330
1F
100
AcDbEntity
  8
1
  6
Continuous
 62
     3
100
AcDbCircle
 10
524.062177826492
 20
36.1768473016262
 30
0.0
 40
2.426867435604295
100
AcDbArc
 50
213.6282956231589
 51
326.3717043768233
  0
ARC
  5
5B2
330
1F
100
AcDbEntity
  8
1
  6
Continuous
 62
     3
100
AcDbCircle
 10
518.0
 20
41.8328413144975
 30
0.0
 40
8.082903808355333
100
AcDbArc
 50
240.00000016248
 51
299.9999998375274
  0
ARC
  5
5B3
330
1F
100
AcDbEntity
  8
1
  6
Continuous
 62
     3
100
AcDbCircle
 10
511.93782217351
 20
36.2008016466032
 30
0.0
 40
2.440214934994619
100
AcDbArc
 50
214.0966181517839
 51
325.9033818482026
  0
ARC
  5
5B4
330
1F
100
AcDbEntity
  8
1
  6
Continuous
 62
     3
100
AcDbCircle
 10
518.000000000015
 20
27.33653964765
 30
0.0
 40
13.37478521775523
100
AcDbArc
 50
72.41204622632486
 51
107.5879537739313
  0
ARC
  5
5B5
330
1F
100
AcDbEntity
  8
1
  6
Continuous
 62
     3
100
AcDbCircle
 10
511.93782217351
 20
37.1297353867575
 30
0.0
 40
3.580989343505847
100
AcDbArc
 50
55.64681439596635
 51
124.3531856040471
  0
ARC
  5
5B6
330
1F
100
AcDbEntity
  8
1
  6
Continuous
 62
     3
100
AcDbCircle
 10
524.062177826464
 20
37.1321754529864
 30
0.0
 40
3.578975151104856
100
AcDbArc
 50
55.62477143305433
 51
124.3752285664236
  0
ARC
  5
5B7
330
1F
100
AcDbEntity
  8
1
  6
Continuous
 62
     3
100
AcDbCircle
 10
470.837569069796
 20
98.699549142635
 30
0.0
 40
30.92441760231113
100
AcDbArc
 50
331.0986839974482
 51
6.21123015196818
  0
ARC
  5
5B8
330
1F
100
AcDbEntity
  8
1
  6
Continuous
 62
     3
100
AcDbCircle
 10
511.303039933635
 20
141.875193815256
 30
0.0
 40
27.36450077887364
100
AcDbArc
 50
255.8340229814951
 51
284.1659770184207
  0
ARC
  5
5B9
330
1F
100
AcDbEntity
  8
1
  6
Continuous
 62
     3
100
AcDbCircle
 10
524.696960067644
 20
141.864856155052
 30
0.0
 40
27.354477595482
100
AcDbArc
 50
255.8287238237663
 51
284.1712761725029
  0
ARC
  5
5BA
330
1F
100
AcDbEntity
  8
1
  6
Continuous
 62
     3
100
AcDbCircle
 10
534.167891819004
 20
119.566678898932
 30
0.0
 40
5.053302489987921
100
AcDbArc
 50
236.7055168168136
 51
303.2944831923969
  0
ARC
  5
5BB
330
1F
100
AcDbEntity
  8
1
  6
Continuous
 62
     3
100
AcDbCircle
 10
501.832108181063
 20
119.567283992533
 30
0.0
 40
5.05380827460041
100
AcDbArc
 50
236.7092825717964
 51
303.290717428317
  0
ARC
  5
5BC
330
1F
100
AcDbEntity
  8
100
  6
DASHED
 62
     2
100
AcDbCircle
 10
414.849327124805
 20
61.9734464875689
 30
0.0
 40
1.65000000000113
100
AcDbArc
 50
262.9777639989901
 51
338.4485224527303
  0
ARC
  5
5BD
330
1F
100
AcDbEntity
  8
100
  6
DASHED
 62
     2
100
AcDbCircle
 10
417.314060082363
 20
61.0000033981997
 30
0.0
 40
1.0
100
AcDbArc
 50
90.0
 51
158.4485224540564
  0
ARC
  5
5BE
330
1F
100
AcDbEntity
  8
100
  6
DASHED
 62
     2
100
AcDbCircle
 10
432.685937699237
 20
61.0000033981989
 30
0.0
 40
1.00000000000077
100
AcDbArc
 50
21.55147754730618
 51
90.0
  0
ARC
  5
5BF
330
1F
100
AcDbEntity
  8
100
  6
DASHED
 62
     2
100
AcDbCircle
 10
435.150670656732
 20
61.9734464875677
 30
0.0
 40
1.649999999999608
100
AcDbArc
 50
201.5514775472351
 51
277.0222360010163
  0
ARC
  5
5C0
330
1F
100
AcDbEntity
  8
100
  6
DASHED
 62
     2
100
AcDbCircle
 10
414.377193696516
 20
70.4535909123587
 30
0.0
 40
10.00000000000149
100
AcDbArc
 50
240.0000000000049
 51
262.647620640109
  0
ARC
  5
5C1
330
1F
100
AcDbEntity
  8
100
  6
DASHED
 62
     2
100
AcDbCircle
 10
401.020647478891
 20
63.1538894676158
 30
0.0
 40
3.000000000000504
100
AcDbArc
 50
60.00000000000557
 51
174.9999999999994
  0
ARC
  5
5C2
330
1F
100
AcDbEntity
  8
100
  6
DASHED
 62
     2
100
AcDbCircle
 10
435.622804085085
 20
70.4535909123568
 30
0.0
 40
9.999999999999954
100
AcDbArc
 50
277.3523793598924
 51
300.0000000000039
  0
ARC
  5
5C3
330
1F
100
AcDbEntity
  8
100
  6
DASHED
 62
     2
100
AcDbCircle
 10
422.221775007699
 20
60.8220526530649
 30
0.0
 40
1.599999969921239
100
AcDbArc
 50
105.4939675005572
 51
132.5896599482186
  0
ARC
  5
5C4
330
1F
100
AcDbEntity
  8
100
  6
DASHED
 62
     2
100
AcDbCircle
 10
424.999998890801
 20
50.8000035617587
 30
0.0
 40
11.99999977440151
100
AcDbArc
 50
74.50603249947281
 51
105.4939675005272
  0
ARC
  5
5C5
330
1F
100
AcDbEntity
  8
100
  6
DASHED
 62
     2
100
AcDbCircle
 10
427.778222773903
 20
60.8220526530649
 30
0.0
 40
1.5999999699213
100
AcDbArc
 50
47.41034005178383
 51
74.50603249944282
  0
ARC
  5
5C6
330
1F
100
AcDbEntity
  8
100
  6
DASHED
 62
     2
100
AcDbCircle
 10
448.979350302709
 20
63.1538894676168
 30
0.0
 40
2.999999999999654
100
AcDbArc
 50
4.99999999997994
 51
120.000000000004
  0
ARC
  5
5C7
330
1F
100
AcDbEntity
  8
0
  6
DASHED
 62
     2
100
AcDbCircle
 10
428.171571766054
 20
-22.0000000000093
 30
0.0
 40
2.000000000000004
100
AcDbArc
 50
48.59037789070301
 51
90.0
  0
ARC
  5
5C8
330
1F
100
AcDbEntity
  8
0
  6
DASHED
 62
     2
100
AcDbCircle
 10
430.817323077119
 20
-19.0000000000077
 30
0.0
 40
2.000000000001467
100
AcDbArc
 50
228.5903778907769
 51
270.0
  0
ARC
  5
5C9
330
1F
100
AcDbEntity
  8
1
  6
Continuous
 62
     3
100
AcDbCircle
 10
211.49025848396
 20
14.9588536261199
 30
0.0
 40
48.02764205404173
100
AcDbArc
 50
261.0361718758721
 51
277.0518353697313
  0
ARC
  5
5CA
330
1F
100
AcDbEntity
  8
1
  6
Continuous
 62
     3
100
AcDbCircle
 10
223.139401766478
 20
90.286050054218
 30
0.0
 40
122.4337060144583
100
AcDbArc
 50
268.345904169646
 51
274.8841841383605
  0
ARC
  5
5CB
330
1F
100
AcDbEntity
  8
1
  6
Continuous
 62
     3
100
AcDbCircle
 10
211.014929676984
 20
-22.3297356983831
 30
0.0
 40
6.090727233108408
100
AcDbArc
 50
353.4385955453143
 51
175.325445842009
  0
ARC
  5
5CC
330
1F
100
AcDbEntity
  8
1
  6
Continuous
 62
     3
100
AcDbCircle
 10
232.419785605998
 20
-39.4360895389088
 30
0.0
 40
20.00000000000005
100
AcDbArc
 50
89.77774819181774
 51
125.9104152857811
  0
ARC
  5
5CD
330
1F
100
AcDbEntity
  8
1
  6
Continuous
 62
     3
100
AcDbCircle
 10
218.97246420697
 20
-21.0457248511988
 30
0.0
 40
2.782641576929304
100
AcDbArc
 50
236.4299031558172
 51
289.9616299630041
  0
ARC
  5
5CE
330
1F
100
AcDbEntity
  8
1
  6
Continuous
 62
     3
100
AcDbCircle
 10
226.332755096387
 20
45.6612158477303
 30
0.0
 40
27.53153208046697
100
AcDbArc
 50
239.4034993630636
 51
278.6319367366987
  0
ARC
  5
5CF
330
1F
100
AcDbEntity
  8
1
  6
Continuous
 62
     3
100
AcDbCircle
 10
51.8396082978563
 20
41.3545110801781
 30
0.0
 40
74.00000000000003
100
AcDbArc
 50
264.1434185871551
 51
275.8565814128449
  0
ARC
  5
5D0
330
1F
100
AcDbEntity
  8
1
  6
Continuous
 62
     3
100
AcDbCircle
 10
65.7197744236078
 20
-3.37493499067072
 30
0.0
 40
29.87084726535031
100
AcDbArc
 50
260.6267367341412
 51
286.5143859882678
  0
ARC
  5
5D1
330
1F
100
AcDbEntity
  8
1
  6
Continuous
 62
     3
100
AcDbCircle
 10
16.1678918189981
 20
119.552431288278
 30
0.0
 40
5.04139954575814
100
AcDbArc
 50
236.6166293651619
 51
303.3833706438636
  0
ARC
  5
5D2
330
1F
100
AcDbEntity
  8
1
  6
Continuous
 62
     3
100
AcDbCircle
 10
6.71931560730071
 20
141.923519980953
 30
0.0
 40
27.40590675629668
100
AcDbArc
 50
262.1746122587777
 51
284.0959351066488
  0
ARC
  5
5D3
330
1F
100
AcDbEntity
  8
1
  6
Continuous
 62
     3
100
AcDbCircle
 10
-6.73269042863961
 20
141.679344845539
 30
0.0
 40
27.16586630854744
100
AcDbArc
 50
255.8060000602826
 51
277.9234525686404
  0
ARC
  5
5D4
330
1F
100
AcDbEntity
  8
1
  6
Continuous
 62
     3
100
AcDbCircle
 10
-16.1678918189352
 20
119.561127327477
 30
0.0
 40
5.048663072047772
100
AcDbArc
 50
236.6709317152559
 51
303.3290682845376
  0
ARC
  5
5D5
330
1F
100
AcDbEntity
  8
0
  6
DASHED
 62
     2
100
AcDbCircle
 10
-0.0000000000029
 20
527.000001109664
 30
0.0
 40
8.74999999901046
100
AcDbArc
 50
131.0499263417708
 51
228.9500736582297
  0
ARC
  5
5D6
330
1F
100
AcDbEntity
  8
0
  6
DASHED
 62
     2
100
AcDbCircle
 10
-0.0000000000029
 20
527.000001109664
 30
0.0
 40
8.749999999667054
100
AcDbArc
 50
311.0499263398273
 51
48.95007366017225
  0
ARC
  5
5D7
330
1F
100
AcDbEntity
  8
1
  6
DASHED
 62
     2
100
AcDbCircle
 10
-20.0000000000031
 20
509.0000011092
 30
0.0
 40
0.9999999999997975
100
AcDbArc
 50
180.0
 51
270.0
  0
ARC
  5
5D8
330
1F
100
AcDbEntity
  8
1
  6
DASHED
 62
     2
100
AcDbCircle
 10
19.9999999999972
 20
509.0000011092
 30
0.0
 40
1.0
100
AcDbArc
 50
270.0
 51
0.0
  0
CIRCLE
  5
5D9
330
1F
100
AcDbEntity
  8
100
  6
Continuous
 62
     3
100
AcDbCircle
 10
463.9999966018
 20
115.000001109168
 30
0.0
 40
3.0
  0
CIRCLE
  5
5DA
330
1F
100
AcDbEntity
  8
1
  6
Continuous
 62
     3
100
AcDbCircle
 10
518.0
 20
0.0
 30
0.0
 40
20.0
  0
CIRCLE
  5
5DB
330
1F
100
AcDbEntity
  8
1
  6
Continuous
 62
     3
100
AcDbCircle
 10
518.0
 20
0.0
 30
0.0
 40
15.14549999999997
  0
CIRCLE
  5
5DC
330
1F
100
AcDbEntity
  8
0
  6
Continuous
 62
     3
100
AcDbCircle
 10
518.0
 20
0.0
 30
0.0
 40
10.00000000000205
  0
CIRCLE
  5
5DD
330
1F
100
AcDbEntity
  8
1
  6
Continuous
 62
     3
100
AcDbCircle
 10
518.0
 20
0.0
 30
0.0
 40
1.250014941183963
  0
CIRCLE
  5
5DE
330
1F
100
AcDbEntity
  8
1
  6
Continuous
 62
     3
100
AcDbCircle
 10
518.000000045144
 20
-0.00000001681019
 30
0.0
 40
2.600000000000023
  0
CIRCLE
  5
5DF
330
1F
100
AcDbEntity
  8
1
  6
Continuous
 62
     3
100
AcDbCircle
 10
518.0
 20
0.0
 30
0.0
 40
2.700000000000045
  0
CIRCLE
  5
5E0
330
1F
100
AcDbEntity
  8
1
  6
Continuous
 62
     3
100
AcDbCircle
 10
0.00531414548256
 20
93.0005582288329
 30
0.0
 40
4.5
  0
CIRCLE
  5
5E1
330
1F
100
AcDbEntity
  8
1
  6
Continuous
 62
     3
100
AcDbCircle
 10
-0.00000000000118
 20
93.0000011091995
 30
0.0
 40
6.5
  0
CIRCLE
  5
5E2
330
1F
100
AcDbEntity
  8
1
  6
Continuous
 62
     3
100
AcDbCircle
 10
-0.00000000000118
 20
93.0000011091995
 30
0.0
 40
5.0
  0
CIRCLE
  5
5E3
330
1F
100
AcDbEntity
  8
0
  6
Continuous
 62
     3
100
AcDbCircle
 10
85.2000000000003
 20
-28.5
 30
0.0
 40
3.0
  0
CIRCLE
  5
5E4
330
1F
100
AcDbEntity
  8
0
  6
Continuous
 62
     3
100
AcDbCircle
 10
85.2000000000003
 20
28.5
 30
0.0
 40
3.0
  0
CIRCLE
  5
5E5
330
1F
100
AcDbEntity
  8
0
  6
Continuous
 62
     3
100
AcDbCircle
 10
85.1993476500851
 20
405.5
 30
0.0
 40
3.0
  0
CIRCLE
  5
5E6
330
1F
100
AcDbEntity
  8
0
  6
Continuous
 62
     3
100
AcDbCircle
 10
85.1993476500851
 20
462.5
 30
0.0
 40
3.0
  0
CIRCLE
  5
5E7
330
1F
100
AcDbEntity
  8
0
  6
Continuous
 62
     3
100
AcDbCircle
 10
221.499347650085
 20
434.0
 30
0.0
 40
6.5
  0
CIRCLE
  5
5E8
330
1F
100
AcDbEntity
  8
0
  6
Continuous
 62
     3
100
AcDbCircle
 10
221.499347650085
 20
434.0
 30
0.0
 40
8.5
  0
CIRCLE
  5
5E9
330
1F
100
AcDbEntity
  8
1
  6
Continuous
 62
     3
100
AcDbCircle
 10
221.499347650085
 20
434.0
 30
0.0
 40
10.0
  0
CIRCLE
  5
5EA
330
1F
100
AcDbEntity
  8
1
  6
Continuous
 62
     3
100
AcDbCircle
 10
-0.12165221982349
 20
434.122298323639
 30
0.0
 40
13.15511729446879
  0
CIRCLE
  5
5EB
330
1F
100
AcDbEntity
  8
1
  6
Continuous
 62
     3
100
AcDbCircle
 10
-0.12165221982349
 20
434.122298323639
 30
0.0
 40
11.94624909007599
  0
CIRCLE
  5
5EC
330
1F
100
AcDbEntity
  8
1
  6
Continuous
 62
     3
100
AcDbCircle
 10
-0.12165226496711
 20
434.122283358955
 30
0.0
 40
9.7999999843004
  0
CIRCLE
  5
5ED
330
1F
100
AcDbEntity
  8
1
  6
Continuous
 62
     3
100
AcDbCircle
 10
-0.12165221982349
 20
434.122283342145
 30
0.0
 40
8.80000000000018
  0
CIRCLE
  5
5EE
330
1F
100
AcDbEntity
  8
1
  6
Continuous
 62
     3
100
AcDbCircle
 10
-0.12165221982349
 20
434.122283342145
 30
0.0
 40
7.30000000000018
  0
CIRCLE
  5
5EF
330
1F
100
AcDbEntity
  8
1
  6
Continuous
 62
     3
100
AcDbCircle
 10
-0.12165221982349
 20
434.122283342145
 30
0.0
 40
7.80000000000018
  0
CIRCLE
  5
5F0
330
1F
100
AcDbEntity
  8
1
  6
Continuous
 62
     3
100
AcDbCircle
 10
-0.12165221982349
 20
434.122298323639
 30
0.0
 40
17.31827520467949
  0
CIRCLE
  5
5F1
330
1F
100
AcDbEntity
  8
100
  6
DASHED
 62
     2
100
AcDbCircle
 10
633.000001109168
 20
54.0000033981997
 30
0.0
 40
3.0
  0
CIRCLE
  5
5F2
330
1F
100
AcDbEntity
  8
100
  6
DASHED
 62
     2
100
AcDbCircle
 10
402.999998890832
 20
54.0000033981997
 30
0.0
 40
3.0
  0
SPLINE
  5
5F3
330
1F
100
AcDbEntity
  8
1
  6
Continuous
 62
     3
100
AcDbSpline
210
0.0
220
0.0
230
1.0
 70
     8
 71
     3
 72
    15
 73
    11
 74
     9
 42
0.0000000001
 43
0.0000000001
 44
0.00000001
 40
0.0
 40
0.0
 40
0.0
 40
0.0
 40
1.116139511020311
 40
2.232924709687567
 40
2.472174480248678
 40
2.715878024860873
 40
2.96441949619088
 40
3.209987083868404
 40
4.27165456105313
 40
5.333278727841257
 40
5.333278727841257
 40
5.333278727841257
 40
5.333278727841257
 10
196.5
 20
-17.4386090267893
 30
0.0
 10
196.1301864152011
 20
-17.40534828993287
 30
0.0
 10
195.3903453081331
 20
-17.33880757485574
 30
0.0
 10
194.6314762866048
 20
-16.76844357407417
 30
0.0
 10
194.5170535704788
 20
-16.24036875577855
 30
0.0
 10
194.5159238807423
 20
-15.99535041658351
 30
0.0
 10
194.5602314581118
 20
-15.75188470987347
 30
0.0
 10
194.7514580423711
 20
-15.26608599907933
 30
0.0
 10
195.4382671182289
 20
-14.72937562507624
 30
0.0
 10
196.1460938521033
 20
-14.64991260276489
 30
0.0
 10
196.5
 20
-14.6101819020431
 30
0.0
 11
196.5
 21
-17.4386090267893
 31
0.0
 11
195.4041546785172
 21
-17.22673538651059
 31
0.0
 11
194.5786480221315
 21
-16.47457320969952
 31
0.0
 11
194.5256664611074
 21
-16.2412635294353
 31
0.0
 11
194.5233632845346
 21
-15.99757086841692
 31
0.0
 11
194.5682688841893
 21
-15.75311974837339
 31
0.0
 11
194.6588526613784
 21
-15.52486984272626
 31
0.0
 11
195.4613345312113
 21
-14.82977223756477
 31
0.0
 11
196.5
 21
-14.6101819020431
 31
0.0
  0
SPLINE
  5
5F4
330
1F
100
AcDbEntity
  8
1
  6
Continuous
 62
     3
100
AcDbSpline
210
0.0
220
0.0
230
1.0
 70
     8
 71
     3
 72
    15
 73
    11
 74
     9
 42
0.0000000001
 43
0.0000000001
 44
0.00000001
 40
0.0
 40
0.0
 40
0.0
 40
0.0
 40
1.19663339686603
 40
2.393294541247608
 40
2.682662116100356
 40
2.97333019987172
 40
3.262626891232405
 40
3.550251507896424
 40
4.672796731847605
 40
5.795341185288335
 40
5.795341185288335
 40
5.795341185288335
 40
5.795341185288335
 10
196.5
 20
9.59890788973468
 30
0.0
 10
196.0968638292782
 20
9.662473570593912
 30
0.0
 10
195.2905821399196
 20
9.789606406272336
 30
0.0
 10
194.6523509656665
 20
10.55740543769118
 30
0.0
 10
194.5146185892186
 20
11.1347513850091
 30
0.0
 10
194.4993131859733
 20
11.42585367692093
 30
0.0
 10
194.534479804057
 20
11.71455013762272
 30
0.0
 10
194.7066167574546
 20
12.25660626809569
 30
0.0
 10
195.3673681121123
 20
12.91840162377077
 30
0.0
 10
196.1224561237523
 20
13.01480688886729
 30
0.0
 10
196.5
 20
13.0630095048725
 30
0.0
 11
196.5
 21
9.59890788973468
 31
0.0
 11
195.3498135771437
 21
9.929063427583248
 31
0.0
 11
194.5910535385687
 21
10.8544180073711
 31
0.0
 11
194.5233687962825
 21
11.13575831560618
 31
0.0
 11
194.5077586904149
 21
11.42600693234383
 31
0.0
 11
194.5433611752331
 21
11.71310454415384
 31
0.0
 11
194.6314114791774
 21
11.98692029258047
 31
0.0
 11
195.4097118623138
 21
12.79584321438778
 31
0.0
 11
196.5
 21
13.0630095048725
 31
0.0
  0
SPLINE
  5
5F5
330
1F
100
AcDbEntity
  8
1
  6
Continuous
 62
     3
100
AcDbSpline
210
0.0
220
0.0
230
1.0
 70
     8
 71
     3
 72
    19
 73
    15
 74
    13
 42
0.0000000001
 43
0.0000000001
 44
0.00000001
 40
0.0
 40
0.0
 40
0.0
 40
0.0
 40
0.8950476232941684
 40
1.790140736849893
 40
1.940053532788323
 40
2.09198142636748
 40
2.233576543430359
 40
2.371643272904236
 40
2.560557029472097
 40
2.756712400858238
 40
2.974563570283412
 40
3.189559488959758
 40
4.006982732419894
 40
4.824432079228374
 40
4.824432079228374
 40
4.824432079228374
 40
4.824432079228374
 10
196.499347650085
 20
414.02633403899
 30
0.0
 10
196.2031633998769
 20
414.0400316487251
 30
0.0
 10
195.6107798460727
 20
414.0674275643682
 30
0.0
 10
194.957051068636
 20
414.2755582039397
 30
0.0
 10
194.6736318450559
 20
414.5593411466276
 30
0.0
 10
194.5864504789447
 20
414.6794548979804
 30
0.0
 10
194.521895270622
 20
414.808801255303
 30
0.0
 10
194.4868613292449
 20
414.9639930390233
 30
0.0
 10
194.5256791149365
 20
415.1398445294805
 30
0.0
 10
194.6268778679122
 20
415.315014778138
 30
0.0
 10
194.7667241715759
 20
415.4732261843855
 30
0.0
 10
195.0948510981063
 20
415.731714748382
 30
0.0
 10
195.679865709765
 20
415.9811213483092
 30
0.0
 10
196.2261840956969
 20
416.0112629816767
 30
0.0
 10
196.499347650085
 20
416.02633403899
 30
0.0
 11
196.499347650085
 21
414.02633403899
 31
0.0
 11
195.608087546178
 21
414.1085877632113
 31
0.0
 11
194.7827559145634
 21
414.4550258959149
 31
0.0
 11
194.677100894849
 21
414.5613784379401
 31
0.0
 11
194.5881172696942
 21
414.6845206293357
 31
0.0
 11
194.5267305913329
 21
414.8121170748028
 31
0.0
 11
194.4993476500848
 21
414.947441116703
 31
0.0
 11
194.53382088872
 21
415.133182881631
 31
0.0
 11
194.628299786505
 21
415.3050859578017
 31
0.0
 11
194.7717572973325
 21
415.4690343478734
 31
0.0
 11
194.9391559920653
 21
415.6039451408043
 31
0.0
 11
195.687181096011
 21
415.9335497566943
 31
0.0
 11
196.499347650085
 21
416.02633403899
 31
0.0
  0
SPLINE
  5
5F6
330
1F
100
AcDbEntity
  8
1
  6
Continuous
 62
     3
100
AcDbSpline
210
0.0
220
0.0
230
1.0
 70
     8
 71
     3
 72
    19
 73
    15
 74
    13
 42
0.0000000001
 43
0.0000000001
 44
0.00000001
 40
0.0
 40
0.0
 40
0.0
 40
0.0
 40
0.995991444781431
 40
1.992026552804667
 40
2.107572721375816
 40
2.224007101974521
 40
2.334526109524895
 40
2.44347359278422
 40
2.599289317572373
 40
2.759004106030603
 40
2.931170975816395
 40
3.10138685782511
 40
3.958584372066137
 40
4.815793412131195
 40
4.815793412131195
 40
4.815793412131195
 40
4.815793412131195
 10
196.499347650085
 20
451.97366596101
 30
0.0
 10
196.1691688017798
 20
451.99897816702
 30
0.0
 10
195.5087966304679
 20
452.049603688701
 30
0.0
 10
194.8323446825897
 20
452.3981788381839
 30
0.0
 10
194.5975156547773
 20
452.7349082006473
 30
0.0
 10
194.5446242960932
 20
452.8364864355541
 30
0.0
 10
194.508004928539
 20
452.9427917832666
 30
0.0
 10
194.4919870565347
 20
453.0683372567072
 30
0.0
 10
194.5246216918483
 20
453.2094007402953
 30
0.0
 10
194.6035606788703
 20
453.3527735042067
 30
0.0
 10
194.7114737999602
 20
453.4819417365444
 30
0.0
 10
195.018401539886
 20
453.7412901224009
 30
0.0
 10
195.6464529908248
 20
453.9308693940936
 30
0.0
 10
196.2150481561244
 20
453.9594003747674
 30
0.0
 10
196.499347650085
 20
453.97366596101
 30
0.0
 11
196.499347650085
 21
451.97366596101
 31
0.0
 11
195.5140624294907
 21
452.1193093342067
 31
0.0
 11
194.6655301696354
 21
452.6409212017862
 31
0.0
 11
194.5998033495796
 21
452.7359522609029
 31
0.0
 11
194.5464232960132
 21
452.8394294799738
 31
0.0
 11
194.5115255563299
 21
452.9442941489282
 31
0.0
 11
194.499347650085
 21
453.0525588832974
 31
0.0
 11
194.5308606294508
 21
453.2051546637854
 31
0.0
 11
194.6056237407894
 21
453.3462903815723
 31
0.0
 11
194.715437279707
 21
453.4788890909259
 31
0.0
 11
194.8448109941571
 21
453.5895050413914
 31
0.0
 11
195.6457662214027
 21
453.8948872647918
 31
0.0
 11
196.499347650085
 21
453.97366596101
 31
0.0
  0
LEADER
  5
5F7
330
1F
100
AcDbEntity
  8
1
  6
Continuous
 62
     4
100
AcDbLeader
  3
Standard
 71
     0
 76
     3
 10
246.757253088771
 20
16.450000000001
 30
0.0
 10
266.195868809725
 20
28.9181251768416
 30
0.0
 10
309.296370929104
 20
28.9181251768416
 30
0.0
  0
LEADER
  5
5F8
330
1F
100
AcDbEntity
  8
1
  6
Continuous
 62
     4
100
AcDbLeader
  3
Standard
 71
     0
 76
     3
 10
-0.00000000000118
 20
130.0000011092
 30
0.0
 10
-13.0107916833512
 20
146.702956409963
 30
0.0
 10
-83.2487444319391
 20
146.702956409963
 30
0.0
  0
ENDSEC
  0
SECTION
  2
OBJECTS
  0
DICTIONARY
  5
C
330
0
100
AcDbDictionary
281
     1
  3
ACAD_GROUP
350
D
  3
ACAD_LAYOUT
350
1A
  3
ACAD_MATERIAL
350
3B
  3
ACAD_MLEADERSTYLE
350
5FB
  3
ACAD_MLINESTYLE
350
17
  3
ACAD_PLOTSETTINGS
350
19
  3
ACAD_PLOTSTYLENAME
350
E
  3
ACAD_VISUALSTYLE
350
2A
  3
AcDbVariableDictionary
350
5F9
  0
DICTIONARY
  5
D
102
{ACAD_REACTORS
330
C
102
}
330
C
100
AcDbDictionary
281
     1
  0
DICTIONARY
  5
1A
102
{ACAD_REACTORS
330
C
102
}
330
C
100
AcDbDictionary
281
     1
  3
Layout1
350
1E
  3
Layout2
350
26
  3
Model
350
22
  0
DICTIONARY
  5
3B
102
{ACAD_REACTORS
330
C
102
}
330
C
100
AcDbDictionary
281
     1
  3
ByBlock
350
3D
  3
ByLayer
350
3C
  3
Global
350
3E
  0
DICTIONARY
  5
5FB
102
{ACAD_REACTORS
330
C
102
}
330
C
100
AcDbDictionary
281
     1
  0
DICTIONARY
  5
17
102
{ACAD_REACTORS
330
C
102
}
330
C
100
AcDbDictionary
281
     1
  3
Standard
350
18
  0
DICTIONARY
  5
19
102
{ACAD_REACTORS
330
C
102
}
330
C
100
AcDbDictionary
281
     1
  0
ACDBDICTIONARYWDFLT
  5
E
102
{ACAD_REACTORS
330
C
102
}
330
C
100
AcDbDictionary
281
     1
  3
Normal
350
F
100
AcDbDictionaryWithDefault
340
F
  0
DICTIONARY
  5
2A
102
{ACAD_REACTORS
330
C
102
}
330
C
100
AcDbDictionary
281
     1
  3
2dWireframe
350
2F
  3
3D Hidden
350
31
  3
3dWireframe
350
30
  3
Basic
350
32
  3
Brighten
350
36
  3
ColorChange
350
3A
  3
Conceptual
350
34
  3
Dim
350
35
  3
Facepattern
350
39
  3
Flat
350
2B
  3
FlatWithEdges
350
2C
  3
Gouraud
350
2D
  3
GouraudWithEdges
350
2E
  3
Linepattern
350
38
  3
Realistic
350
33
  3
Thicken
350
37
  0
DICTIONARY
  5
5F9
102
{ACAD_REACTORS
330
C
102
}
330
C
100
AcDbDictionary
281
     1
  3
DIMASSOC
350
5FC
  3
HIDETEXT
350
5FD
  0
LAYOUT
  5
1E
102
{ACAD_REACTORS
330
1A
102
}
330
1A
100
AcDbPlotSettings
  1

  2
none_device
  4

  6

 40
0.0
 41
0.0
 42
0.0
 43
0.0
 44
0.0
 45
0.0
 46
0.0
 47
0.0
 48
0.0
 49
0.0
140
0.0
141
0.0
142
1.0
143
1.0
 70
   688
 72
     0
 73
     0
 74
     5
  7

 75
    16
147
1.0
148
0.0
149
0.0
100
AcDbLayout
  1
Layout1
 70
     1
 71
     1
 10
0.0
 20
0.0
 11
12.0
 21
9.0
 12
0.0
 22
0.0
 32
0.0
 14
1.00000000000000E+20
 24
1.00000000000000E+20
 34
1.00000000000000E+20
 15
-1.00000000000000E+20
 25
-1.00000000000000E+20
 35
-1.00000000000000E+20
146
0.0
 13
0.0
 23
0.0
 33
0.0
 16
1.0
 26
0.0
 36
0.0
 17
0.0
 27
1.0
 37
0.0
 76
     0
330
1B
  0
LAYOUT
  5
26
102
{ACAD_REACTORS
330
1A
102
}
330
1A
100
AcDbPlotSettings
  1

  2
none_device
  4

  6

 40
0.0
 41
0.0
 42
0.0
 43
0.0
 44
0.0
 45
0.0
 46
0.0
 47
0.0
 48
0.0
 49
0.0
140
0.0
141
0.0
142
1.0
143
1.0
 70
   688
 72
     0
 73
     0
 74
     5
  7

 75
    16
147
1.0
148
0.0
149
0.0
100
AcDbLayout
  1
Layout2
 70
     1
 71
     2
 10
0.0
 20
0.0
 11
0.0
 21
0.0
 12
0.0
 22
0.0
 32
0.0
 14
0.0
 24
0.0
 34
0.0
 15
0.0
 25
0.0
 35
0.0
146
0.0
 13
0.0
 23
0.0
 33
0.0
 16
1.0
 26
0.0
 36
0.0
 17
0.0
 27
1.0
 37
0.0
 76
     0
330
23
  0
LAYOUT
  5
22
102
{ACAD_REACTORS
330
1A
102
}
330
1A
100
AcDbPlotSettings
  1

  2
none_device
  4

  6

 40
0.0
 41
0.0
 42
0.0
 43
0.0
 44
0.0
 45
0.0
 46
0.0
 47
0.0
 48
0.0
 49
0.0
140
0.0
141
0.0
142
1.0
143
1.0
 70
  1712
 72
     0
 73
     0
 74
     0
  7

 75
     0
147
1.0
148
0.0
149
0.0
100
AcDbLayout
  1
Model
 70
     1
 71
     0
 10
0.0
 20
0.0
 11
12.0
 21
9.0
 12
0.0
 22
0.0
 32
0.0
 14
-83.2487444319391
 24
-120.980930768755
 34
0.0
 15
651.0000011092
 25
566.75540446192
 35
0.0
146
0.0
 13
0.0
 23
0.0
 33
0.0
 16
1.0
 26
0.0
 36
0.0
 17
0.0
 27
1.0
 37
0.0
 76
     0
330
1F
331
29
  0
MATERIAL
  5
3D
102
{ACAD_REACTORS
330
3B
102
}
102
{ACAD_XDICTIONARY
360
620
102
}
330
3B
100
AcDbMaterial
  1
ByBlock
  0
MATERIAL
  5
3C
102
{ACAD_REACTORS
330
3B
102
}
102
{ACAD_XDICTIONARY
360
61E
102
}
330
3B
100
AcDbMaterial
  1
ByLayer
  0
MATERIAL
  5
3E
102
{ACAD_REACTORS
330
3B
102
}
102
{ACAD_XDICTIONARY
360
622
102
}
330
3B
100
AcDbMaterial
  1
Global
  0
MLINESTYLE
  5
18
102
{ACAD_REACTORS
330
17
102
}
330
17
100
AcDbMlineStyle
  2
Standard
 70
     0
  3

 62
   256
 51
90.0
 52
90.0
 71
     2
 49
0.5
 62
   256
  6
BYLAYER
 49
-0.5
 62
   256
  6
BYLAYER
  0
ACDBPLACEHOLDER
  5
F
102
{ACAD_REACTORS
330
E
102
}
330
E
  0
VISUALSTYLE
  5
2F
102
{ACAD_REACTORS
330
2A
102
}
102
{ACAD_XDICTIONARY
360
606
102
}
330
2A
100
AcDbVisualStyle
  2
2dWireframe
 70
     4
 71
     0
 72
     2
 73
     0
 90
        0
 40
-0.6
 41
-30.0
 62
     5
 63
     7
 74
     1
 91
        4
 64
     7
 65
   257
 75
     1
175
     1
 42
1.0
 92
        0
 66
   257
 43
1.0
 76
     1
 77
     6
 78
     2
 67
     7
 79
     5
170
     0
171
     0
290
     0
174
     0
 93
        1
 44
0.0
173
     0
291
     0
 45
0.0
1001
ACAD
1000
AcDbSavedByObjectVersion
1070
     0
  0
VISUALSTYLE
  5
31
102
{ACAD_REACTORS
330
2A
102
}
102
{ACAD_XDICTIONARY
360
60A
102
}
330
2A
100
AcDbVisualStyle
  2
3D Hidden
 70
     6
 71
     1
 72
     2
 73
     2
 90
        0
 40
-0.6
 41
-30.0
 62
     5
 63
     7
 74
     2
 91
        2
 64
     7
 65
   257
 75
     2
175
     1
 42
40.0
 92
        0
 66
   257
 43
1.0
 76
     1
 77
     6
 78
     2
 67
     7
 79
     3
170
     0
171
     0
290
     0
174
     0
 93
        1
 44
0.0
173
     0
291
     0
 45
0.0
1001
ACAD
1000
AcDbSavedByObjectVersion
1070
     0
  0
VISUALSTYLE
  5
30
102
{ACAD_REACTORS
330
2A
102
}
102
{ACAD_XDICTIONARY
360
608
102
}
330
2A
100
AcDbVisualStyle
  2
3dWireframe
 70
     5
 71
     0
 72
     2
 73
     0
 90
        0
 40
-0.6
 41
-30.0
 62
     5
 63
     7
 74
     1
 91
        4
 64
     7
 65
   257
 75
     1
175
     1
 42
1.0
 92
        0
 66
   257
 43
1.0
 76
     1
 77
     6
 78
     2
 67
     7
 79
     5
170
     0
171
     0
290
     0
174
     0
 93
        1
 44
0.0
173
     0
291
     0
 45
0.0
1001
ACAD
1000
AcDbSavedByObjectVersion
1070
     0
  0
VISUALSTYLE
  5
32
102
{ACAD_REACTORS
330
2A
102
}
102
{ACAD_XDICTIONARY
360
60C
102
}
330
2A
100
AcDbVisualStyle
  2
Basic
 70
     7
 71
     1
 72
     0
 73
     1
 90
        0
 40
-0.6
 41
-30.0
 62
     5
 63
     7
 74
     0
 91
        4
 64
     7
 65
   257
 75
     1
175
     1
 42
1.0
 92
        8
 66
     7
 43
1.0
 76
     1
 77
     6
 78
     2
 67
     7
 79
     5
170
     0
171
     0
290
     0
174
     0
 93
        1
 44
0.0
173
     0
291
     1
 45
0.0
1001
ACAD
1000
AcDbSavedByObjectVersion
1070
     0
  0
VISUALSTYLE
  5
36
102
{ACAD_REACTORS
330
2A
102
}
102
{ACAD_XDICTIONARY
360
614
102
}
330
2A
100
AcDbVisualStyle
  2
Brighten
 70
    12
 71
     2
 72
     2
 73
     0
 90
        0
 40
-0.6
 41
-30.0
 62
     5
 63
     7
 74
     1
 91
        4
 64
     7
 65
   257
 75
     1
175
     1
 42
1.0
 92
        8
 66
     7
 43
1.0
 76
     1
 77
     6
 78
     2
 67
     7
 79
     5
170
     0
171
     0
290
     0
174
     0
 93
        1
 44
50.0
173
     0
291
     1
 45
0.0
1001
ACAD
1000
AcDbSavedByObjectVersion
1070
     0
  0
VISUALSTYLE
  5
3A
102
{ACAD_REACTORS
330
2A
102
}
102
{ACAD_XDICTIONARY
360
61C
102
}
330
2A
100
AcDbVisualStyle
  2
ColorChange
 70
    16
 71
     2
 72
     2
 73
     3
 90
        0
 40
-0.6
 41
-30.0
 62
     5
 63
     8
 74
     1
 91
        4
 64
     7
 65
   257
 75
     1
175
     1
 42
1.0
 92
        8
 66
     8
 43
1.0
 76
     1
 77
     6
 78
     2
 67
     7
 79
     5
170
     0
171
     0
290
     0
174
     0
 93
        1
 44
0.0
173
     0
291
     1
 45
0.0
1001
ACAD
1000
AcDbSavedByObjectVersion
1070
     0
  0
VISUALSTYLE
  5
34
102
{ACAD_REACTORS
330
2A
102
}
102
{ACAD_XDICTIONARY
360
610
102
}
330
2A
100
AcDbVisualStyle
  2
Conceptual
 70
     9
 71
     3
 72
     2
 73
     0
 90
        0
 40
-0.6
 41
-30.0
 62
     5
 63
     7
 74
     2
 91
        2
 64
     7
 65
   257
 75
     1
175
     1
 42
40.0
 92
        8
 66
     7
 43
1.0
 76
     1
 77
     6
 78
     2
 67
     7
 79
     3
170
     0
171
     0
290
     0
174
     0
 93
        1
 44
0.0
173
     0
291
     0
 45
0.0
1001
ACAD
1000
AcDbSavedByObjectVersion
1070
     0
  0
VISUALSTYLE
  5
35
102
{ACAD_REACTORS
330
2A
102
}
102
{ACAD_XDICTIONARY
360
612
102
}
330
2A
100
AcDbVisualStyle
  2
Dim
 70
    11
 71
     2
 72
     2
 73
     0
 90
        0
 40
-0.6
 41
-30.0
 62
     5
 63
     7
 74
     1
 91
        4
 64
     7
 65
   257
 75
     1
175
     1
 42
1.0
 92
        8
 66
     7
 43
1.0
 76
     1
 77
     6
 78
     2
 67
     7
 79
     5
170
     0
171
     0
290
     0
174
     0
 93
        1
 44
-50.0
173
     0
291
     1
 45
0.0
1001
ACAD
1000
AcDbSavedByObjectVersion
1070
     0
  0
VISUALSTYLE
  5
39
102
{ACAD_REACTORS
330
2A
102
}
102
{ACAD_XDICTIONARY
360
61A
102
}
330
2A
100
AcDbVisualStyle
  2
Facepattern
 70
    15
 71
     2
 72
     2
 73
     0
 90
        0
 40
-0.6
 41
-30.0
 62
     5
 63
     7
 74
     1
 91
        4
 64
     7
 65
   257
 75
     1
175
     1
 42
1.0
 92
        8
 66
     7
 43
1.0
 76
     1
 77
     6
 78
     2
 67
     7
 79
     5
170
     0
171
     0
290
     0
174
     0
 93
        1
 44
0.0
173
     0
291
     1
 45
0.0
1001
ACAD
1000
AcDbSavedByObjectVersion
1070
     0
  0
VISUALSTYLE
  5
2B
102
{ACAD_REACTORS
330
2A
102
}
102
{ACAD_XDICTIONARY
360
5FE
102
}
330
2A
100
AcDbVisualStyle
  2
Flat
 70
     0
 71
     2
 72
     1
 73
     1
 90
        2
 40
-0.6
 41
30.0
 62
     5
 63
     7
 74
     0
 91
        4
 64
     7
 65
   257
 75
     1
175
     1
 42
1.0
 92
        8
 66
     7
 43
1.0
 76
     1
 77
     6
 78
     2
 67
     7
 79
     5
170
     0
171
     0
290
     0
174
     0
 93
       13
 44
0.0
173
     0
291
     1
 45
0.0
1001
ACAD
1000
AcDbSavedByObjectVersion
1070
     0
  0
VISUALSTYLE
  5
2C
102
{ACAD_REACTORS
330
2A
102
}
102
{ACAD_XDICTIONARY
360
600
102
}
330
2A
100
AcDbVisualStyle
  2
FlatWithEdges
 70
     1
 71
     2
 72
     1
 73
     1
 90
        2
 40
-0.6
 41
30.0
 62
     5
 63
     7
 74
     1
 91
        4
 64
     7
 65
   257
 75
     1
175
     1
 42
1.0
 92
        0
 66
   257
 43
1.0
 76
     1
 77
     6
 78
     2
 67
     7
 79
     5
170
     0
171
     0
290
     0
174
     0
 93
       13
 44
0.0
173
     0
291
     1
 45
0.0
1001
ACAD
1000
AcDbSavedByObjectVersion
1070
     0
  0
VISUALSTYLE
  5
2D
102
{ACAD_REACTORS
330
2A
102
}
102
{ACAD_XDICTIONARY
360
602
102
}
330
2A
100
AcDbVisualStyle
  2
Gouraud
 70
     2
 71
     2
 72
     2
 73
     1
 90
        2
 40
-0.6
 41
30.0
 62
     5
 63
     7
 74
     0
 91
        4
 64
     7
 65
   257
 75
     1
175
     1
 42
1.0
 92
        0
 66
     7
 43
1.0
 76
     1
 77
     6
 78
     2
 67
     7
 79
     5
170
     0
171
     0
290
     0
174
     0
 93
       13
 44
0.0
173
     0
291
     1
 45
0.0
1001
ACAD
1000
AcDbSavedByObjectVersion
1070
     0
  0
VISUALSTYLE
  5
2E
102
{ACAD_REACTORS
330
2A
102
}
102
{ACAD_XDICTIONARY
360
604
102
}
330
2A
100
AcDbVisualStyle
  2
GouraudWithEdges
 70
     3
 71
     2
 72
     2
 73
     1
 90
        2
 40
-0.6
 41
30.0
 62
     5
 63
     7
 74
     1
 91
        4
 64
     7
 65
   257
 75
     1
175
     1
 42
1.0
 92
        0
 66
   257
 43
1.0
 76
     1
 77
     6
 78
     2
 67
     7
 79
     5
170
     0
171
     0
290
     0
174
     0
 93
       13
 44
0.0
173
     0
291
     1
 45
0.0
1001
ACAD
1000
AcDbSavedByObjectVersion
1070
     0
  0
VISUALSTYLE
  5
38
102
{ACAD_REACTORS
330
2A
102
}
102
{ACAD_XDICTIONARY
360
618
102
}
330
2A
100
AcDbVisualStyle
  2
Linepattern
 70
    14
 71
     2
 72
     2
 73
     0
 90
        0
 40
-0.6
 41
-30.0
 62
     5
 63
     7
 74
     1
 91
        4
 64
     7
 65
   257
 75
     7
175
     7
 42
1.0
 92
        8
 66
     7
 43
1.0
 76
     1
 77
     6
 78
     2
 67
     7
 79
     5
170
     0
171
     0
290
     0
174
     0
 93
        1
 44
0.0
173
     0
291
     1
 45
0.0
1001
ACAD
1000
AcDbSavedByObjectVersion
1070
     0
  0
VISUALSTYLE
  5
33
102
{ACAD_REACTORS
330
2A
102
}
102
{ACAD_XDICTIONARY
360
60E
102
}
330
2A
100
AcDbVisualStyle
  2
Realistic
 70
     8
 71
     2
 72
     2
 73
     0
 90
        0
 40
-0.6
 41
-30.0
 62
     5
 63
     7
 74
     1
 91
        0
 64
     7
 65
   257
 75
     1
175
     1
 42
1.0
 92
        8
 66
     8
 43
1.0
 76
     1
 77
     6
 78
     2
 67
     7
 79
     5
170
     0
171
     0
290
     0
174
     0
 93
       13
 44
0.0
173
     0
291
     0
 45
0.0
1001
ACAD
1000
AcDbSavedByObjectVersion
1070
     0
  0
VISUALSTYLE
  5
37
102
{ACAD_REACTORS
330
2A
102
}
102
{ACAD_XDICTIONARY
360
616
102
}
330
2A
100
AcDbVisualStyle
  2
Thicken
 70
    13
 71
     2
 72
     2
 73
     0
 90
        0
 40
-0.6
 41
-30.0
 62
     5
 63
     7
 74
     1
 91
        4
 64
     7
 65
   257
 75
     1
175
     1
 42
1.0
 92
       12
 66
     7
 43
1.0
 76
     1
 77
     6
 78
     2
 67
     7
 79
     5
170
     0
171
     0
290
     0
174
     0
 93
        1
 44
0.0
173
     0
291
     1
 45
0.0
1001
ACAD
1000
AcDbSavedByObjectVersion
1070
     0
  0
DICTIONARYVAR
  5
5FC
102
{ACAD_REACTORS
330
5F9
102
}
330
5F9
100
DictionaryVariables
280
     0
  1
2
  0
DICTIONARYVAR
  5
5FD
102
{ACAD_REACTORS
330
5F9
102
}
330
5F9
100
DictionaryVariables
280
     0
  1
1
  0
DICTIONARY
  5
620
330
3D
100
AcDbDictionary
280
     1
281
     1
  3
ACAD_XREC_ROUNDTRIP
360
621
  0
DICTIONARY
  5
61E
330
3C
100
AcDbDictionary
280
     1
281
     1
  3
ACAD_XREC_ROUNDTRIP
360
61F
  0
DICTIONARY
  5
622
330
3E
100
AcDbDictionary
280
     1
281
     1
  3
ACAD_XREC_ROUNDTRIP
360
623
  0
DICTIONARY
  5
606
330
2F
100
AcDbDictionary
280
     1
281
     1
  3
ACAD_XREC_ROUNDTRIP
360
607
  0
DICTIONARY
  5
60A
330
31
100
AcDbDictionary
280
     1
281
     1
  3
ACAD_XREC_ROUNDTRIP
360
60B
  0
DICTIONARY
  5
608
330
30
100
AcDbDictionary
280
     1
281
     1
  3
ACAD_XREC_ROUNDTRIP
360
609
  0
DICTIONARY
  5
60C
330
32
100
AcDbDictionary
280
     1
281
     1
  3
ACAD_XREC_ROUNDTRIP
360
60D
  0
DICTIONARY
  5
614
330
36
100
AcDbDictionary
280
     1
281
     1
  3
ACAD_XREC_ROUNDTRIP
360
615
  0
DICTIONARY
  5
61C
330
3A
100
AcDbDictionary
280
     1
281
     1
  3
ACAD_XREC_ROUNDTRIP
360
61D
  0
DICTIONARY
  5
610
330
34
100
AcDbDictionary
280
     1
281
     1
  3
ACAD_XREC_ROUNDTRIP
360
611
  0
DICTIONARY
  5
612
330
35
100
AcDbDictionary
280
     1
281
     1
  3
ACAD_XREC_ROUNDTRIP
360
613
  0
DICTIONARY
  5
61A
330
39
100
AcDbDictionary
280
     1
281
     1
  3
ACAD_XREC_ROUNDTRIP
360
61B
  0
DICTIONARY
  5
5FE
330
2B
100
AcDbDictionary
280
     1
281
     1
  3
ACAD_XREC_ROUNDTRIP
360
5FF
  0
DICTIONARY
  5
600
330
2C
100
AcDbDictionary
280
     1
281
     1
  3
ACAD_XREC_ROUNDTRIP
360
601
  0
DICTIONARY
  5
602
330
2D
100
AcDbDictionary
280
     1
281
     1
  3
ACAD_XREC_ROUNDTRIP
360
603
  0
DICTIONARY
  5
604
330
2E
100
AcDbDictionary
280
     1
281
     1
  3
ACAD_XREC_ROUNDTRIP
360
605
  0
DICTIONARY
  5
618
330
38
100
AcDbDictionary
280
     1
281
     1
  3
ACAD_XREC_ROUNDTRIP
360
619
  0
DICTIONARY
  5
60E
330
33
100
AcDbDictionary
280
     1
281
     1
  3
ACAD_XREC_ROUNDTRIP
360
60F
  0
DICTIONARY
  5
616
330
37
100
AcDbDictionary
280
     1
281
     1
  3
ACAD_XREC_ROUNDTRIP
360
617
  0
XRECORD
  5
621
102
{ACAD_REACTORS
330
620
102
}
330
620
100
AcDbXrecord
280
     1
102
MATERIAL
148
0.0
149
0.0
149
0.0
 93
        0
 94
      127
282
     0
 72
     1
 77
     1
171
     1
175
     1
179
     1
273
     0
  0
XRECORD
  5
61F
102
{ACAD_REACTORS
330
61E
102
}
330
61E
100
AcDbXrecord
280
     1
102
MATERIAL
148
0.0
149
0.0
149
0.0
 93
        0
 94
      127
282
     0
 72
     1
 77
     1
171
     1
175
     1
179
     1
273
     0
  0
XRECORD
  5
623
102
{ACAD_REACTORS
330
622
102
}
330
622
100
AcDbXrecord
280
     1
102
MATERIAL
148
0.0
149
0.0
149
0.0
 93
        0
 94
      127
282
     0
 72
     1
 77
     1
171
     1
175
     1
179
     1
273
     0
  0
XRECORD
  5
607
102
{ACAD_REACTORS
330
606
102
}
330
606
100
AcDbXrecord
280
     1
102
RTVSPropertyOp0
 70
     1
102
RTVSPropertyOp1
 70
     1
102
RTVSPropertyOp2
 70
     1
102
RTVSPropertyOp3
 70
     1
102
RTVSPropertyOp4
 70
     1
102
RTVSPropertyOp5
 70
     1
102
RTVSPropertyOp6
 70
     1
102
RTVSPropertyOp7
 70
     1
102
RTVSPropertyOp8
 70
     1
102
RTVSPropertyOp9
 70
     1
102
RTVSPropertyOp10
 70
     1
102
RTVSPropertyOp11
 70
     1
102
RTVSPropertyOp12
 70
     1
102
RTVSPropertyOp13
 70
     1
102
RTVSPropertyOp14
 70
     1
102
RTVSPropertyOp15
 70
     1
102
RTVSPropertyOp16
 70
     1
102
RTVSPropertyOp17
 70
     1
102
RTVSPropertyOp18
 70
     1
102
RTVSPropertyOp19
 70
     1
102
RTVSPropertyOp20
 70
     1
102
RTVSPropertyOp21
 70
     1
102
RTVSPropertyOp22
 70
     1
102
RTVSPropertyOp23
 70
     1
102
RTVSPropertyOp24
 70
     1
102
RTVSPropertyOp25
 70
     1
102
RTVSPropertyOp26
 70
     1
102
RTVSPropertyOp27
 70
     1
  0
XRECORD
  5
60B
102
{ACAD_REACTORS
330
60A
102
}
330
60A
100
AcDbXrecord
280
     1
102
RTVSPropertyOp0
 70
     1
102
RTVSPropertyOp1
 70
     1
102
RTVSPropertyOp2
 70
     1
102
RTVSPropertyOp3
 70
     1
102
RTVSPropertyOp4
 70
     1
102
RTVSPropertyOp5
 70
     1
102
RTVSPropertyOp6
 70
     1
102
RTVSPropertyOp7
 70
     1
102
RTVSPropertyOp8
 70
     1
102
RTVSPropertyOp9
 70
     1
102
RTVSPropertyOp10
 70
     1
102
RTVSPropertyOp11
 70
     1
102
RTVSPropertyOp12
 70
     1
102
RTVSPropertyOp13
 70
     1
102
RTVSPropertyOp14
 70
     1
102
RTVSPropertyOp15
 70
     1
102
RTVSPropertyOp16
 70
     1
102
RTVSPropertyOp17
 70
     1
102
RTVSPropertyOp18
 70
     1
102
RTVSPropertyOp19
 70
     1
102
RTVSPropertyOp20
 70
     1
102
RTVSPropertyOp21
 70
     1
102
RTVSPropertyOp22
 70
     1
102
RTVSPropertyOp23
 70
     1
102
RTVSPropertyOp24
 70
     1
102
RTVSPropertyOp25
 70
     1
102
RTVSPropertyOp26
 70
     1
102
RTVSPropertyOp27
 70
     1
  0
XRECORD
  5
609
102
{ACAD_REACTORS
330
608
102
}
330
608
100
AcDbXrecord
280
     1
102
RTVSPropertyOp0
 70
     1
102
RTVSPropertyOp1
 70
     1
102
RTVSPropertyOp2
 70
     1
102
RTVSPropertyOp3
 70
     1
102
RTVSPropertyOp4
 70
     1
102
RTVSPropertyOp5
 70
     1
102
RTVSPropertyOp6
 70
     1
102
RTVSPropertyOp7
 70
     1
102
RTVSPropertyOp8
 70
     1
102
RTVSPropertyOp9
 70
     1
102
RTVSPropertyOp10
 70
     1
102
RTVSPropertyOp11
 70
     1
102
RTVSPropertyOp12
 70
     1
102
RTVSPropertyOp13
 70
     1
102
RTVSPropertyOp14
 70
     1
102
RTVSPropertyOp15
 70
     1
102
RTVSPropertyOp16
 70
     1
102
RTVSPropertyOp17
 70
     1
102
RTVSPropertyOp18
 70
     1
102
RTVSPropertyOp19
 70
     1
102
RTVSPropertyOp20
 70
     1
102
RTVSPropertyOp21
 70
     1
102
RTVSPropertyOp22
 70
     1
102
RTVSPropertyOp23
 70
     1
102
RTVSPropertyOp24
 70
     1
102
RTVSPropertyOp25
 70
     1
102
RTVSPropertyOp26
 70
     1
102
RTVSPropertyOp27
 70
     1
  0
XRECORD
  5
60D
102
{ACAD_REACTORS
330
60C
102
}
330
60C
100
AcDbXrecord
280
     1
102
RTVSPropertyOp0
 70
     1
102
RTVSPropertyOp1
 70
     1
102
RTVSPropertyOp2
 70
     1
102
RTVSPropertyOp3
 70
     1
102
RTVSPropertyOp4
 70
     1
102
RTVSPropertyOp5
 70
     1
102
RTVSPropertyOp6
 70
     1
102
RTVSPropertyOp7
 70
     1
102
RTVSPropertyOp8
 70
     1
102
RTVSPropertyOp9
 70
     1
102
RTVSPropertyOp10
 70
     1
102
RTVSPropertyOp11
 70
     1
102
RTVSPropertyOp12
 70
     1
102
RTVSPropertyOp13
 70
     1
102
RTVSPropertyOp14
 70
     1
102
RTVSPropertyOp15
 70
     1
102
RTVSPropertyOp16
 70
     1
102
RTVSPropertyOp17
 70
     1
102
RTVSPropertyOp18
 70
     1
102
RTVSPropertyOp19
 70
     1
102
RTVSPropertyOp20
 70
     1
102
RTVSPropertyOp21
 70
     1
102
RTVSPropertyOp22
 70
     1
102
RTVSPropertyOp23
 70
     1
102
RTVSPropertyOp24
 70
     1
102
RTVSPropertyOp25
 70
     1
102
RTVSPropertyOp26
 70
     1
102
RTVSPropertyOp27
 70
     1
  0
XRECORD
  5
615
102
{ACAD_REACTORS
330
614
102
}
330
614
100
AcDbXrecord
280
     1
102
RTVSPropertyOp0
 70
     1
102
RTVSPropertyOp1
 70
     1
102
RTVSPropertyOp2
 70
     1
102
RTVSPropertyOp3
 70
     1
102
RTVSPropertyOp4
 70
     1
102
RTVSPropertyOp5
 70
     1
102
RTVSPropertyOp6
 70
     1
102
RTVSPropertyOp7
 70
     1
102
RTVSPropertyOp8
 70
     1
102
RTVSPropertyOp9
 70
     1
102
RTVSPropertyOp10
 70
     1
102
RTVSPropertyOp11
 70
     1
102
RTVSPropertyOp12
 70
     1
102
RTVSPropertyOp13
 70
     1
102
RTVSPropertyOp14
 70
     1
102
RTVSPropertyOp15
 70
     1
102
RTVSPropertyOp16
 70
     1
102
RTVSPropertyOp17
 70
     1
102
RTVSPropertyOp18
 70
     1
102
RTVSPropertyOp19
 70
     1
102
RTVSPropertyOp20
 70
     1
102
RTVSPropertyOp21
 70
     1
102
RTVSPropertyOp22
 70
     1
102
RTVSPropertyOp23
 70
     1
102
RTVSPropertyOp24
 70
     1
102
RTVSPropertyOp25
 70
     1
102
RTVSPropertyOp26
 70
     1
102
RTVSPropertyOp27
 70
     1
  0
XRECORD
  5
61D
102
{ACAD_REACTORS
330
61C
102
}
330
61C
100
AcDbXrecord
280
     1
102
RTVSPropertyOp0
 70
     1
102
RTVSPropertyOp1
 70
     1
102
RTVSPropertyOp2
 70
     1
102
RTVSPropertyOp3
 70
     1
102
RTVSPropertyOp4
 70
     1
102
RTVSPropertyOp5
 70
     1
102
RTVSPropertyOp6
 70
     1
102
RTVSPropertyOp7
 70
     1
102
RTVSPropertyOp8
 70
     1
102
RTVSPropertyOp9
 70
     1
102
RTVSPropertyOp10
 70
     1
102
RTVSPropertyOp11
 70
     1
102
RTVSPropertyOp12
 70
     1
102
RTVSPropertyOp13
 70
     1
102
RTVSPropertyOp14
 70
     1
102
RTVSPropertyOp15
 70
     1
102
RTVSPropertyOp16
 70
     1
102
RTVSPropertyOp17
 70
     1
102
RTVSPropertyOp18
 70
     1
102
RTVSPropertyOp19
 70
     1
102
RTVSPropertyOp20
 70
     1
102
RTVSPropertyOp21
 70
     1
102
RTVSPropertyOp22
 70
     1
102
RTVSPropertyOp23
 70
     1
102
RTVSPropertyOp24
 70
     1
102
RTVSPropertyOp25
 70
     1
102
RTVSPropertyOp26
 70
     1
102
RTVSPropertyOp27
 70
     1
  0
XRECORD
  5
611
102
{ACAD_REACTORS
330
610
102
}
330
610
100
AcDbXrecord
280
     1
102
RTVSPropertyOp0
 70
     1
102
RTVSPropertyOp1
 70
     1
102
RTVSPropertyOp2
 70
     1
102
RTVSPropertyOp3
 70
     1
102
RTVSPropertyOp4
 70
     1
102
RTVSPropertyOp5
 70
     1
102
RTVSPropertyOp6
 70
     1
102
RTVSPropertyOp7
 70
     1
102
RTVSPropertyOp8
 70
     1
102
RTVSPropertyOp9
 70
     1
102
RTVSPropertyOp10
 70
     1
102
RTVSPropertyOp11
 70
     1
102
RTVSPropertyOp12
 70
     1
102
RTVSPropertyOp13
 70
     1
102
RTVSPropertyOp14
 70
     1
102
RTVSPropertyOp15
 70
     1
102
RTVSPropertyOp16
 70
     1
102
RTVSPropertyOp17
 70
     1
102
RTVSPropertyOp18
 70
     1
102
RTVSPropertyOp19
 70
     1
102
RTVSPropertyOp20
 70
     1
102
RTVSPropertyOp21
 70
     1
102
RTVSPropertyOp22
 70
     1
102
RTVSPropertyOp23
 70
     1
102
RTVSPropertyOp24
 70
     1
102
RTVSPropertyOp25
 70
     1
102
RTVSPropertyOp26
 70
     1
102
RTVSPropertyOp27
 70
     1
  0
XRECORD
  5
613
102
{ACAD_REACTORS
330
612
102
}
330
612
100
AcDbXrecord
280
     1
102
RTVSPropertyOp0
 70
     1
102
RTVSPropertyOp1
 70
     1
102
RTVSPropertyOp2
 70
     1
102
RTVSPropertyOp3
 70
     1
102
RTVSPropertyOp4
 70
     1
102
RTVSPropertyOp5
 70
     1
102
RTVSPropertyOp6
 70
     1
102
RTVSPropertyOp7
 70
     1
102
RTVSPropertyOp8
 70
     1
102
RTVSPropertyOp9
 70
     1
102
RTVSPropertyOp10
 70
     1
102
RTVSPropertyOp11
 70
     1
102
RTVSPropertyOp12
 70
     1
102
RTVSPropertyOp13
 70
     1
102
RTVSPropertyOp14
 70
     1
102
RTVSPropertyOp15
 70
     1
102
RTVSPropertyOp16
 70
     1
102
RTVSPropertyOp17
 70
     1
102
RTVSPropertyOp18
 70
     1
102
RTVSPropertyOp19
 70
     1
102
RTVSPropertyOp20
 70
     1
102
RTVSPropertyOp21
 70
     1
102
RTVSPropertyOp22
 70
     1
102
RTVSPropertyOp23
 70
     1
102
RTVSPropertyOp24
 70
     1
102
RTVSPropertyOp25
 70
     1
102
RTVSPropertyOp26
 70
     1
102
RTVSPropertyOp27
 70
     1
  0
XRECORD
  5
61B
102
{ACAD_REACTORS
330
61A
102
}
330
61A
100
AcDbXrecord
280
     1
102
RTVSPropertyOp0
 70
     1
102
RTVSPropertyOp1
 70
     1
102
RTVSPropertyOp2
 70
     1
102
RTVSPropertyOp3
 70
     1
102
RTVSPropertyOp4
 70
     1
102
RTVSPropertyOp5
 70
     1
102
RTVSPropertyOp6
 70
     1
102
RTVSPropertyOp7
 70
     1
102
RTVSPropertyOp8
 70
     1
102
RTVSPropertyOp9
 70
     1
102
RTVSPropertyOp10
 70
     1
102
RTVSPropertyOp11
 70
     1
102
RTVSPropertyOp12
 70
     1
102
RTVSPropertyOp13
 70
     1
102
RTVSPropertyOp14
 70
     1
102
RTVSPropertyOp15
 70
     1
102
RTVSPropertyOp16
 70
     1
102
RTVSPropertyOp17
 70
     1
102
RTVSPropertyOp18
 70
     1
102
RTVSPropertyOp19
 70
     1
102
RTVSPropertyOp20
 70
     1
102
RTVSPropertyOp21
 70
     1
102
RTVSPropertyOp22
 70
     1
102
RTVSPropertyOp23
 70
     1
102
RTVSPropertyOp24
 70
     1
102
RTVSPropertyOp25
 70
     1
102
RTVSPropertyOp26
 70
     1
102
RTVSPropertyOp27
 70
     1
  0
XRECORD
  5
5FF
102
{ACAD_REACTORS
330
5FE
102
}
330
5FE
100
AcDbXrecord
280
     1
102
RTVSPropertyOp0
 70
     1
102
RTVSPropertyOp1
 70
     1
102
RTVSPropertyOp2
 70
     1
102
RTVSPropertyOp3
 70
     1
102
RTVSPropertyOp4
 70
     1
102
RTVSPropertyOp5
 70
     1
102
RTVSPropertyOp6
 70
     1
102
RTVSPropertyOp7
 70
     1
102
RTVSPropertyOp8
 70
     1
102
RTVSPropertyOp9
 70
     1
102
RTVSPropertyOp10
 70
     1
102
RTVSPropertyOp11
 70
     1
102
RTVSPropertyOp12
 70
     1
102
RTVSPropertyOp13
 70
     1
102
RTVSPropertyOp14
 70
     1
102
RTVSPropertyOp15
 70
     1
102
RTVSPropertyOp16
 70
     1
102
RTVSPropertyOp17
 70
     1
102
RTVSPropertyOp18
 70
     1
102
RTVSPropertyOp19
 70
     1
102
RTVSPropertyOp20
 70
     1
102
RTVSPropertyOp21
 70
     1
102
RTVSPropertyOp22
 70
     1
102
RTVSPropertyOp23
 70
     1
102
RTVSPropertyOp24
 70
     1
102
RTVSPropertyOp25
 70
     1
102
RTVSPropertyOp26
 70
     1
102
RTVSPropertyOp27
 70
     1
  0
XRECORD
  5
601
102
{ACAD_REACTORS
330
600
102
}
330
600
100
AcDbXrecord
280
     1
102
RTVSPropertyOp0
 70
     1
102
RTVSPropertyOp1
 70
     1
102
RTVSPropertyOp2
 70
     1
102
RTVSPropertyOp3
 70
     1
102
RTVSPropertyOp4
 70
     1
102
RTVSPropertyOp5
 70
     1
102
RTVSPropertyOp6
 70
     1
102
RTVSPropertyOp7
 70
     1
102
RTVSPropertyOp8
 70
     1
102
RTVSPropertyOp9
 70
     1
102
RTVSPropertyOp10
 70
     1
102
RTVSPropertyOp11
 70
     1
102
RTVSPropertyOp12
 70
     1
102
RTVSPropertyOp13
 70
     1
102
RTVSPropertyOp14
 70
     1
102
RTVSPropertyOp15
 70
     1
102
RTVSPropertyOp16
 70
     1
102
RTVSPropertyOp17
 70
     1
102
RTVSPropertyOp18
 70
     1
102
RTVSPropertyOp19
 70
     1
102
RTVSPropertyOp20
 70
     1
102
RTVSPropertyOp21
 70
     1
102
RTVSPropertyOp22
 70
     1
102
RTVSPropertyOp23
 70
     1
102
RTVSPropertyOp24
 70
     1
102
RTVSPropertyOp25
 70
     1
102
RTVSPropertyOp26
 70
     1
102
RTVSPropertyOp27
 70
     1
  0
XRECORD
  5
603
102
{ACAD_REACTORS
330
602
102
}
330
602
100
AcDbXrecord
280
     1
102
RTVSPropertyOp0
 70
     1
102
RTVSPropertyOp1
 70
     1
102
RTVSPropertyOp2
 70
     1
102
RTVSPropertyOp3
 70
     1
102
RTVSPropertyOp4
 70
     1
102
RTVSPropertyOp5
 70
     1
102
RTVSPropertyOp6
 70
     1
102
RTVSPropertyOp7
 70
     1
102
RTVSPropertyOp8
 70
     1
102
RTVSPropertyOp9
 70
     1
102
RTVSPropertyOp10
 70
     1
102
RTVSPropertyOp11
 70
     1
102
RTVSPropertyOp12
 70
     1
102
RTVSPropertyOp13
 70
     1
102
RTVSPropertyOp14
 70
     1
102
RTVSPropertyOp15
 70
     1
102
RTVSPropertyOp16
 70
     1
102
RTVSPropertyOp17
 70
     1
102
RTVSPropertyOp18
 70
     1
102
RTVSPropertyOp19
 70
     1
102
RTVSPropertyOp20
 70
     1
102
RTVSPropertyOp21
 70
     1
102
RTVSPropertyOp22
 70
     1
102
RTVSPropertyOp23
 70
     1
102
RTVSPropertyOp24
 70
     1
102
RTVSPropertyOp25
 70
     1
102
RTVSPropertyOp26
 70
     1
102
RTVSPropertyOp27
 70
     1
  0
XRECORD
  5
605
102
{ACAD_REACTORS
330
604
102
}
330
604
100
AcDbXrecord
280
     1
102
RTVSPropertyOp0
 70
     1
102
RTVSPropertyOp1
 70
     1
102
RTVSPropertyOp2
 70
     1
102
RTVSPropertyOp3
 70
     1
102
RTVSPropertyOp4
 70
     1
102
RTVSPropertyOp5
 70
     1
102
RTVSPropertyOp6
 70
     1
102
RTVSPropertyOp7
 70
     1
102
RTVSPropertyOp8
 70
     1
102
RTVSPropertyOp9
 70
     1
102
RTVSPropertyOp10
 70
     1
102
RTVSPropertyOp11
 70
     1
102
RTVSPropertyOp12
 70
     1
102
RTVSPropertyOp13
 70
     1
102
RTVSPropertyOp14
 70
     1
102
RTVSPropertyOp15
 70
     1
102
RTVSPropertyOp16
 70
     1
102
RTVSPropertyOp17
 70
     1
102
RTVSPropertyOp18
 70
     1
102
RTVSPropertyOp19
 70
     1
102
RTVSPropertyOp20
 70
     1
102
RTVSPropertyOp21
 70
     1
102
RTVSPropertyOp22
 70
     1
102
RTVSPropertyOp23
 70
     1
102
RTVSPropertyOp24
 70
     1
102
RTVSPropertyOp25
 70
     1
102
RTVSPropertyOp26
 70
     1
102
RTVSPropertyOp27
 70
     1
  0
XRECORD
  5
619
102
{ACAD_REACTORS
330
618
102
}
330
618
100
AcDbXrecord
280
     1
102
RTVSPropertyOp0
 70
     1
102
RTVSPropertyOp1
 70
     1
102
RTVSPropertyOp2
 70
     1
102
RTVSPropertyOp3
 70
     1
102
RTVSPropertyOp4
 70
     1
102
RTVSPropertyOp5
 70
     1
102
RTVSPropertyOp6
 70
     1
102
RTVSPropertyOp7
 70
     1
102
RTVSPropertyOp8
 70
     1
102
RTVSPropertyOp9
 70
     1
102
RTVSPropertyOp10
 70
     1
102
RTVSPropertyOp11
 70
     1
102
RTVSPropertyOp12
 70
     1
102
RTVSPropertyOp13
 70
     1
102
RTVSPropertyOp14
 70
     1
102
RTVSPropertyOp15
 70
     1
102
RTVSPropertyOp16
 70
     1
102
RTVSPropertyOp17
 70
     1
102
RTVSPropertyOp18
 70
     1
102
RTVSPropertyOp19
 70
     1
102
RTVSPropertyOp20
 70
     1
102
RTVSPropertyOp21
 70
     1
102
RTVSPropertyOp22
 70
     1
102
RTVSPropertyOp23
 70
     1
102
RTVSPropertyOp24
 70
     1
102
RTVSPropertyOp25
 70
     1
102
RTVSPropertyOp26
 70
     1
102
RTVSPropertyOp27
 70
     1
  0
XRECORD
  5
60F
102
{ACAD_REACTORS
330
60E
102
}
330
60E
100
AcDbXrecord
280
     1
102
RTVSPropertyOp0
 70
     1
102
RTVSPropertyOp1
 70
     1
102
RTVSPropertyOp2
 70
     1
102
RTVSPropertyOp3
 70
     1
102
RTVSPropertyOp4
 70
     1
102
RTVSPropertyOp5
 70
     1
102
RTVSPropertyOp6
 70
     1
102
RTVSPropertyOp7
 70
     1
102
RTVSPropertyOp8
 70
     1
102
RTVSPropertyOp9
 70
     1
102
RTVSPropertyOp10
 70
     1
102
RTVSPropertyOp11
 70
     1
102
RTVSPropertyOp12
 70
     1
102
RTVSPropertyOp13
 70
     1
102
RTVSPropertyOp14
 70
     1
102
RTVSPropertyOp15
 70
     1
102
RTVSPropertyOp16
 70
     1
102
RTVSPropertyOp17
 70
     1
102
RTVSPropertyOp18
 70
     1
102
RTVSPropertyOp19
 70
     1
102
RTVSPropertyOp20
 70
     1
102
RTVSPropertyOp21
 70
     1
102
RTVSPropertyOp22
 70
     1
102
RTVSPropertyOp23
 70
     1
102
RTVSPropertyOp24
 70
     1
102
RTVSPropertyOp25
 70
     1
102
RTVSPropertyOp26
 70
     1
102
RTVSPropertyOp27
 70
     1
  0
XRECORD
  5
617
102
{ACAD_REACTORS
330
616
102
}
330
616
100
AcDbXrecord
280
     1
102
RTVSPropertyOp0
 70
     1
102
RTVSPropertyOp1
 70
     1
102
RTVSPropertyOp2
 70
     1
102
RTVSPropertyOp3
 70
     1
102
RTVSPropertyOp4
 70
     1
102
RTVSPropertyOp5
 70
     1
102
RTVSPropertyOp6
 70
     1
102
RTVSPropertyOp7
 70
     1
102
RTVSPropertyOp8
 70
     1
102
RTVSPropertyOp9
 70
     1
102
RTVSPropertyOp10
 70
     1
102
RTVSPropertyOp11
 70
     1
102
RTVSPropertyOp12
 70
     1
102
RTVSPropertyOp13
 70
     1
102
RTVSPropertyOp14
 70
     1
102
RTVSPropertyOp15
 70
     1
102
RTVSPropertyOp16
 70
     1
102
RTVSPropertyOp17
 70
     1
102
RTVSPropertyOp18
 70
     1
102
RTVSPropertyOp19
 70
     1
102
RTVSPropertyOp20
 70
     1
102
RTVSPropertyOp21
 70
     1
102
RTVSPropertyOp22
 70
     1
102
RTVSPropertyOp23
 70
     1
102
RTVSPropertyOp24
 70
     1
102
RTVSPropertyOp25
 70
     1
102
RTVSPropertyOp26
 70
     1
102
RTVSPropertyOp27
 70
     1
  0
ENDSEC
  0
EOF
