  0
SECTION
  2
HEADER
  9
$ACADVER
  1
AC1015
  9
$ACADMAINTVER
 70
     6
  9
$DWGCODEPAGE
  3
ANSI_932
  9
$INSBASE
 10
0.0
 20
0.0
 30
0.0
  9
$EXTMIN
 10
572.24973666246
 20
1254.99344770823
 30
0.0
  9
$EXTMAX
 10
1176.68430528762
 20
1561.39368373664
 30
0.0
  9
$LIMMIN
 10
0.0
 20
0.0
  9
$LIMMAX
 10
12.0
 20
9.0
  9
$ORTHOMODE
 70
     0
  9
$REGENMODE
 70
     1
  9
$FILLMODE
 70
     1
  9
$QTEXTMODE
 70
     0
  9
$MIRRTEXT
 70
     1
  9
$LTSCALE
 40
1.0
  9
$ATTMODE
 70
     1
  9
$TEXTSIZE
 40
0.2
  9
$TRACEWID
 40
0.05
  9
$TEXTSTYLE
  7
Standard
  9
$CLAYER
  8
0
  9
$CELTYPE
  6
ByLayer
  9
$CECOLOR
 62
   256
  9
$CELTSCALE
 40
1.0
  9
$DISPSILH
 70
     0
  9
$DIMSCALE
 40
1.0
  9
$DIMASZ
 40
0.18
  9
$DIMEXO
 40
0.0625
  9
$DIMDLI
 40
0.38
  9
$DIMRND
 40
0.0
  9
$DIMDLE
 40
0.0
  9
$DIMEXE
 40
0.18
  9
$DIMTP
 40
0.0
  9
$DIMTM
 40
0.0
  9
$DIMTXT
 40
0.18
  9
$DIMCEN
 40
0.09
  9
$DIMTSZ
 40
0.0
  9
$DIMTOL
 70
     0
  9
$DIMLIM
 70
     0
  9
$DIMTIH
 70
     1
  9
$DIMTOH
 70
     1
  9
$DIMSE1
 70
     0
  9
$DIMSE2
 70
     0
  9
$DIMTAD
 70
     0
  9
$DIMZIN
 70
     0
  9
$DIMBLK
  1

  9
$DIMASO
 70
     1
  9
$DIMSHO
 70
     1
  9
$DIMPOST
  1

  9
$DIMAPOST
  1

  9
$DIMALT
 70
     0
  9
$DIMALTD
 70
     2
  9
$DIMALTF
 40
25.4
  9
$DIMLFAC
 40
1.0
  9
$DIMTOFL
 70
     0
  9
$DIMTVP
 40
0.0
  9
$DIMTIX
 70
     0
  9
$DIMSOXD
 70
     0
  9
$DIMSAH
 70
     0
  9
$DIMBLK1
  1

  9
$DIMBLK2
  1

  9
$DIMSTYLE
  2
Standard
  9
$DIMCLRD
 70
     0
  9
$DIMCLRE
 70
     0
  9
$DIMCLRT
 70
     0
  9
$DIMTFAC
 40
1.0
  9
$DIMGAP
 40
0.09
  9
$DIMJUST
 70
     0
  9
$DIMSD1
 70
     0
  9
$DIMSD2
 70
     0
  9
$DIMTOLJ
 70
     1
  9
$DIMTZIN
 70
     0
  9
$DIMALTZ
 70
     0
  9
$DIMALTTZ
 70
     0
  9
$DIMUPT
 70
     0
  9
$DIMDEC
 70
     4
  9
$DIMTDEC
 70
     4
  9
$DIMALTU
 70
     2
  9
$DIMALTTD
 70
     2
  9
$DIMTXSTY
  7
Standard
  9
$DIMAUNIT
 70
     0
  9
$DIMADEC
 70
     0
  9
$DIMALTRND
 40
0.0
  9
$DIMAZIN
 70
     0
  9
$DIMDSEP
 70
    46
  9
$DIMATFIT
 70
     3
  9
$DIMFRAC
 70
     0
  9
$DIMLDRBLK
  1

  9
$DIMLUNIT
 70
     2
  9
$DIMLWD
 70
    -2
  9
$DIMLWE
 70
    -2
  9
$DIMTMOVE
 70
     0
  9
$LUNITS
 70
     2
  9
$LUPREC
 70
     4
  9
$SKETCHINC
 40
0.1
  9
$FILLETRAD
 40
0.5
  9
$AUNITS
 70
     0
  9
$AUPREC
 70
     0
  9
$MENU
  1
.
  9
$ELEVATION
 40
0.0
  9
$PELEVATION
 40
0.0
  9
$THICKNESS
 40
0.0
  9
$LIMCHECK
 70
     0
  9
$CHAMFERA
 40
0.5
  9
$CHAMFERB
 40
0.5
  9
$CHAMFERC
 40
1.0
  9
$CHAMFERD
 40
0.0
  9
$SKPOLY
 70
     0
  9
$TDCREATE
 40
2457624.569425567
  9
$TDUCREATE
 40
2457624.194425567
  9
$TDUPDATE
 40
2457624.569425579
  9
$TDUUPDATE
 40
2457624.194425579
  9
$TDINDWG
 40
0.0000000116
  9
$TDUSRTIMER
 40
0.0000000116
  9
$USRTIMER
 70
     1
  9
$ANGBASE
 50
0.0
  9
$ANGDIR
 70
     0
  9
$PDMODE
 70
     0
  9
$PDSIZE
 40
0.0
  9
$PLINEWID
 40
0.0
  9
$SPLFRAME
 70
     0
  9
$SPLINETYPE
 70
     6
  9
$SPLINESEGS
 70
     8
  9
$HANDSEED
  5
2E1
  9
$SURFTAB1
 70
     6
  9
$SURFTAB2
 70
     6
  9
$SURFTYPE
 70
     6
  9
$SURFU
 70
     6
  9
$SURFV
 70
     6
  9
$UCSBASE
  2

  9
$UCSNAME
  2

  9
$UCSORG
 10
0.0
 20
0.0
 30
0.0
  9
$UCSXDIR
 10
1.0
 20
0.0
 30
0.0
  9
$UCSYDIR
 10
0.0
 20
1.0
 30
0.0
  9
$UCSORTHOREF
  2

  9
$UCSORTHOVIEW
 70
     0
  9
$UCSORGTOP
 10
0.0
 20
0.0
 30
0.0
  9
$UCSORGBOTTOM
 10
0.0
 20
0.0
 30
0.0
  9
$UCSORGLEFT
 10
0.0
 20
0.0
 30
0.0
  9
$UCSORGRIGHT
 10
0.0
 20
0.0
 30
0.0
  9
$UCSORGFRONT
 10
0.0
 20
0.0
 30
0.0
  9
$UCSORGBACK
 10
0.0
 20
0.0
 30
0.0
  9
$PUCSBASE
  2

  9
$PUCSNAME
  2

  9
$PUCSORG
 10
0.0
 20
0.0
 30
0.0
  9
$PUCSXDIR
 10
1.0
 20
0.0
 30
0.0
  9
$PUCSYDIR
 10
0.0
 20
1.0
 30
0.0
  9
$PUCSORTHOREF
  2

  9
$PUCSORTHOVIEW
 70
     0
  9
$PUCSORGTOP
 10
0.0
 20
0.0
 30
0.0
  9
$PUCSORGBOTTOM
 10
0.0
 20
0.0
 30
0.0
  9
$PUCSORGLEFT
 10
0.0
 20
0.0
 30
0.0
  9
$PUCSORGRIGHT
 10
0.0
 20
0.0
 30
0.0
  9
$PUCSORGFRONT
 10
0.0
 20
0.0
 30
0.0
  9
$PUCSORGBACK
 10
0.0
 20
0.0
 30
0.0
  9
$USERI1
 70
     0
  9
$USERI2
 70
     0
  9
$USERI3
 70
     0
  9
$USERI4
 70
     0
  9
$USERI5
 70
     0
  9
$USERR1
 40
18.0
  9
$USERR2
 40
0.0
  9
$USERR3
 40
0.0
  9
$USERR4
 40
0.0
  9
$USERR5
 40
0.0
  9
$WORLDVIEW
 70
     1
  9
$SHADEDGE
 70
     3
  9
$SHADEDIF
 70
    70
  9
$TILEMODE
 70
     1
  9
$MAXACTVP
 70
    64
  9
$PINSBASE
 10
0.0
 20
0.0
 30
0.0
  9
$PLIMCHECK
 70
     0
  9
$PEXTMIN
 10
1.00000000000000E+20
 20
1.00000000000000E+20
 30
1.00000000000000E+20
  9
$PEXTMAX
 10
-1.00000000000000E+20
 20
-1.00000000000000E+20
 30
-1.00000000000000E+20
  9
$PLIMMIN
 10
0.0
 20
0.0
  9
$PLIMMAX
 10
12.0
 20
9.0
  9
$UNITMODE
 70
     0
  9
$VISRETAIN
 70
     1
  9
$PLINEGEN
 70
     0
  9
$PSLTSCALE
 70
     1
  9
$TREEDEPTH
 70
  3020
  9
$CMLSTYLE
  2
Standard
  9
$CMLJUST
 70
     0
  9
$CMLSCALE
 40
1.0
  9
$PROXYGRAPHICS
 70
     1
  9
$MEASUREMENT
 70
     1
  9
$CELWEIGHT
370
    -1
  9
$ENDCAPS
280
     0
  9
$JOINSTYLE
280
     0
  9
$LWDISPLAY
290
     0
  9
$INSUNITS
 70
     1
  9
$HYPERLINKBASE
  1

  9
$STYLESHEET
  1

  9
$XEDIT
290
     1
  9
$CEPSNTYPE
380
     0
  9
$PSTYLEMODE
290
     1
  9
$FINGERPRINTGUID
  2
{ADB7E9A9-DE1B-4060-8CE0-170937DCB4E9}
  9
$VERSIONGUID
  2
{FAEB1C32-E019-11D5-929B-00C0DF256EC4}
  9
$EXTNAMES
290
     1
  9
$PSVPSCALE
 40
0.0
  9
$OLESTARTUP
290
     0
  0
ENDSEC
  0
SECTION
  2
CLASSES
  0
CLASS
  1
ACDBDICTIONARYWDFLT
  2
AcDbDictionaryWithDefault
  3
ObjectDBX Classes
 90
        0
280
     0
281
     0
  0
CLASS
  1
VISUALSTYLE
  2
AcDbVisualStyle
  3
ObjectDBX Classes
 90
     4095
280
     0
281
     0
  0
CLASS
  1
MATERIAL
  2
AcDbMaterial
  3
ObjectDBX Classes
 90
     1153
280
     0
281
     0
  0
CLASS
  1

  2
exOdDbCircle
  3

 90
        0
280
     0
281
     1
  0
CLASS
  1

  2
exOdDbPolyline
  3

 90
        0
280
     0
281
     1
  0
CLASS
  1
DICTIONARYVAR
  2
AcDbDictionaryVar
  3
ObjectDBX Classes
 90
        0
280
     0
281
     0
  0
CLASS
  1
ACDBPLACEHOLDER
  2
AcDbPlaceHolder
  3
ObjectDBX Classes
 90
        0
280
     0
281
     0
  0
CLASS
  1
LAYOUT
  2
AcDbLayout
  3
ObjectDBX Classes
 90
        0
280
     0
281
     0
  0
ENDSEC
  0
SECTION
  2
TABLES
  0
TABLE
  2
VPORT
  5
8
330
0
100
AcDbSymbolTable
 70
     1
  0
VPORT
  5
29
330
8
100
AcDbSymbolTableRecord
100
AcDbViewportTableRecord
  2
*Active
 70
     0
 10
0.0
 20
0.0
 11
1.0
 21
1.0
 12
874.46702097504
 22
1408.193565722435
 13
0.0
 23
0.0
 14
0.5
 24
0.5
 15
0.5
 25
0.5
 16
0.0
 26
0.0
 36
1.0
 17
0.0
 27
0.0
 37
0.0
 40
414.8542554574916
 41
1.60267857142857
 42
50.0
 43
0.0
 44
0.0
 50
0.0
 51
0.0
 71
     0
 72
   100
 73
     1
 74
     3
 75
     0
 76
     0
 77
     0
 78
     0
281
     0
 65
     1
110
0.0
120
0.0
130
0.0
111
1.0
121
0.0
131
0.0
112
0.0
122
1.0
132
0.0
 79
     0
146
0.0
  0
ENDTAB
  0
TABLE
  2
LTYPE
  5
5
330
0
100
AcDbSymbolTable
 70
     8
  0
LTYPE
  5
14
330
5
100
AcDbSymbolTableRecord
100
AcDbLinetypeTableRecord
  2
ByBlock
 70
     0
  3

 72
    65
 73
     0
 40
0.0
  0
LTYPE
  5
15
330
5
100
AcDbSymbolTableRecord
100
AcDbLinetypeTableRecord
  2
ByLayer
 70
     0
  3

 72
    65
 73
     0
 40
0.0
  0
LTYPE
  5
16
330
5
100
AcDbSymbolTableRecord
100
AcDbLinetypeTableRecord
  2
Continuous
 70
     0
  3
Solid line
 72
    65
 73
     0
 40
0.0
  0
LTYPE
  5
3F
330
5
100
AcDbSymbolTableRecord
100
AcDbLinetypeTableRecord
  2
DASHED
 70
     0
  3
Dashed
 72
    65
 73
     2
 40
15.0
 49
7.0
 74
     0
 49
-8.0
 74
     0
  0
LTYPE
  5
40
330
5
100
AcDbSymbolTableRecord
100
AcDbLinetypeTableRecord
  2
DOTTED
 70
     0
  3
Dotted
 72
    65
 73
     2
 40
1.0
 49
0.0
 74
     0
 49
-1.0
 74
     0
  0
LTYPE
  5
41
330
5
100
AcDbSymbolTableRecord
100
AcDbLinetypeTableRecord
  2
DOT_CENTER
 70
     0
  3
Dot_Center
 72
    65
 73
     4
 40
14.0
 49
12.0
 74
     0
 49
-1.0
 74
     0
 49
0.0
 74
     0
 49
-1.0
 74
     0
  0
LTYPE
  5
42
330
5
100
AcDbSymbolTableRecord
100
AcDbLinetypeTableRecord
  2
LONG_DASHED
 70
     0
  3
Long_Dashed
 72
    65
 73
     2
 40
15.0
 49
10.0
 74
     0
 49
-5.0
 74
     0
  0
LTYPE
  5
43
330
5
100
AcDbSymbolTableRecord
100
AcDbLinetypeTableRecord
  2
DASH_CENTER
 70
     0
  3
Dash_Center
 72
    65
 73
     4
 40
14.0
 49
11.0
 74
     0
 49
-1.0
 74
     0
 49
1.0
 74
     0
 49
-1.0
 74
     0
  0
LTYPE
  5
44
330
5
100
AcDbSymbolTableRecord
100
AcDbLinetypeTableRecord
  2
PHANTOM
 70
     0
  3
Phantom
 72
    65
 73
     6
 40
13.0
 49
10.0
 74
     0
 49
-1.0
 74
     0
 49
0.0
 74
     0
 49
-1.0
 74
     0
 49
0.0
 74
     0
 49
-1.0
 74
     0
  0
LTYPE
  5
45
330
5
100
AcDbSymbolTableRecord
100
AcDbLinetypeTableRecord
  2
CENTER_DASH_DASH
 70
     0
  3
Center_Dash_Dash
 72
    65
 73
     6
 40
14.0
 49
9.0
 74
     0
 49
-1.0
 74
     0
 49
1.0
 74
     0
 49
-1.0
 74
     0
 49
1.0
 74
     0
 49
-1.0
 74
     0
  0
ENDTAB
  0
TABLE
  2
LAYER
  5
2
330
0
100
AcDbSymbolTable
 70
     5
  0
LAYER
  5
10
330
2
100
AcDbSymbolTableRecord
100
AcDbLayerTableRecord
  2
0
 70
     0
 62
     7
  6
Continuous
370
    -3
390
F
  0
LAYER
  5
46
330
2
100
AcDbSymbolTableRecord
100
AcDbLayerTableRecord
  2
1
 70
     0
 62
     7
  6
Continuous
370
    -3
390
F
  0
LAYER
  5
47
330
2
100
AcDbSymbolTableRecord
100
AcDbLayerTableRecord
  2
100
 70
     0
 62
     7
  6
Continuous
370
    -3
390
F
  0
LAYER
  5
48
330
2
100
AcDbSymbolTableRecord
100
AcDbLayerTableRecord
  2
2
 70
     0
 62
     7
  6
Continuous
370
    -3
390
F
  0
LAYER
  5
49
330
2
100
AcDbSymbolTableRecord
100
AcDbLayerTableRecord
  2
4
 70
     0
 62
     7
  6
Continuous
370
    -3
390
F
  0
ENDTAB
  0
TABLE
  2
STYLE
  5
3
330
0
100
AcDbSymbolTable
 70
     1
  0
STYLE
  5
11
330
3
100
AcDbSymbolTableRecord
100
AcDbTextStyleTableRecord
  2
Standard
 70
     0
 40
0.0
 41
1.0
 50
0.0
 71
     0
 42
0.2
  3
txt
  4

  0
ENDTAB
  0
TABLE
  2
VIEW
  5
6
330
0
100
AcDbSymbolTable
 70
     0
  0
ENDTAB
  0
TABLE
  2
UCS
  5
7
330
0
100
AcDbSymbolTable
 70
     0
  0
ENDTAB
  0
TABLE
  2
APPID
  5
9
330
0
100
AcDbSymbolTable
 70
     1
  0
APPID
  5
12
330
9
100
AcDbSymbolTableRecord
100
AcDbRegAppTableRecord
  2
ACAD
 70
     0
  0
ENDTAB
  0
TABLE
  2
DIMSTYLE
  5
A
330
0
100
AcDbSymbolTable
 70
     1
100
AcDbDimStyleTable
  0
DIMSTYLE
105
27
330
A
100
AcDbSymbolTableRecord
100
AcDbDimStyleTableRecord
  2
Standard
 70
     0
340
11
  0
ENDTAB
  0
TABLE
  2
BLOCK_RECORD
  5
1
330
0
100
AcDbSymbolTable
 70
     1
  0
BLOCK_RECORD
  5
1F
330
1
100
AcDbSymbolTableRecord
100
AcDbBlockTableRecord
  2
*Model_Space
340
22
  0
BLOCK_RECORD
  5
1B
330
1
100
AcDbSymbolTableRecord
100
AcDbBlockTableRecord
  2
*Paper_Space
340
1E
  0
BLOCK_RECORD
  5
23
330
1
100
AcDbSymbolTableRecord
100
AcDbBlockTableRecord
  2
*Paper_Space0
340
26
  0
ENDTAB
  0
ENDSEC
  0
SECTION
  2
BLOCKS
  0
BLOCK
  5
20
330
1F
100
AcDbEntity
  8
0
100
AcDbBlockBegin
  2
*Model_Space
 70
     0
 10
0.0
 20
0.0
 30
0.0
  3
*Model_Space
  1

  0
ENDBLK
  5
21
330
1F
100
AcDbEntity
  8
0
100
AcDbBlockEnd
  0
BLOCK
  5
1C
330
1B
100
AcDbEntity
 67
     1
  8
0
100
AcDbBlockBegin
  2
*Paper_Space
 70
     0
 10
0.0
 20
0.0
 30
0.0
  3
*Paper_Space
  1

  0
ENDBLK
  5
1D
330
1B
100
AcDbEntity
 67
     1
  8
0
100
AcDbBlockEnd
  0
BLOCK
  5
24
330
23
100
AcDbEntity
  8
0
100
AcDbBlockBegin
  2
*Paper_Space0
 70
     0
 10
0.0
 20
0.0
 30
0.0
  3
*Paper_Space0
  1

  0
ENDBLK
  5
25
330
23
100
AcDbEntity
  8
0
100
AcDbBlockEnd
  0
ENDSEC
  0
SECTION
  2
ENTITIES
  0
LINE
  5
4A
330
1F
100
AcDbEntity
  8
1
  6
Continuous
 62
     4
100
AcDbLine
 10
801.039785184126
 20
1259.99344770823
 30
0.0
 11
800.247685184126
 21
1258.74344770823
 31
0.0
  0
LINE
  5
4B
330
1F
100
AcDbEntity
  8
1
  6
Continuous
 62
     4
100
AcDbLine
 10
800.247685184126
 20
1261.24344770823
 30
0.0
 11
801.039785184126
 21
1259.99344770823
 31
0.0
  0
LINE
  5
4C
330
1F
100
AcDbEntity
  8
1
  6
Continuous
 62
     4
100
AcDbLine
 10
795.0990351841259
 20
1259.99344770823
 30
0.0
 11
801.039785184126
 21
1259.99344770823
 31
0.0
  0
LINE
  5
4D
330
1F
100
AcDbEntity
  8
1
  6
Continuous
 62
     4
100
AcDbLine
 10
788.5642101841261
 20
1262.86844770823
 30
0.0
 11
793.1187851841261
 21
1262.86844770823
 31
0.0
  0
LINE
  5
4E
330
1F
100
AcDbEntity
  8
1
  6
Continuous
 62
     4
100
AcDbLine
 10
788.5642101841261
 20
1262.86844770823
 30
0.0
 11
789.6533476841261
 21
1264.74344770823
 31
0.0
  0
LINE
  5
4F
330
1F
100
AcDbEntity
  8
1
  6
Continuous
 62
     4
100
AcDbLine
 10
791.138535184126
 20
1258.11844770823
 30
0.0
 11
789.455322684126
 21
1258.11844770823
 31
0.0
  0
LINE
  5
50
330
1F
100
AcDbEntity
  8
1
  6
Continuous
 62
     4
100
AcDbLine
 10
791.138535184126
 20
1260.61844770823
 30
0.0
 11
791.138535184126
 21
1258.11844770823
 31
0.0
  0
LINE
  5
51
330
1F
100
AcDbEntity
  8
1
  6
Continuous
 62
     4
100
AcDbLine
 10
789.455322684126
 20
1260.61844770823
 30
0.0
 11
791.138535184126
 21
1260.61844770823
 31
0.0
  0
LINE
  5
52
330
1F
100
AcDbEntity
  8
1
  6
Continuous
 62
     4
100
AcDbLine
 10
789.455322684126
 20
1258.11844770823
 30
0.0
 11
789.455322684126
 21
1260.61844770823
 31
0.0
  0
LINE
  5
53
330
1F
100
AcDbEntity
  8
1
  6
Continuous
 62
     4
100
AcDbLine
 10
793.1187851841261
 20
1255.36844770823
 30
0.0
 11
792.0296476841261
 21
1255.36844770823
 31
0.0
  0
LINE
  5
54
330
1F
100
AcDbEntity
  8
1
  6
Continuous
 62
     4
100
AcDbLine
 10
793.1187851841261
 20
1262.86844770823
 30
0.0
 11
793.1187851841261
 21
1255.36844770823
 31
0.0
  0
LINE
  5
55
330
1F
100
AcDbEntity
  8
1
  6
Continuous
 62
     4
100
AcDbLine
 10
787.4750726841261
 20
1262.86844770823
 30
0.0
 11
788.5642101841261
 21
1262.86844770823
 31
0.0
  0
LINE
  5
56
330
1F
100
AcDbEntity
  8
1
  6
Continuous
 62
     4
100
AcDbLine
 10
787.4750726841261
 20
1255.36844770823
 30
0.0
 11
787.4750726841261
 21
1262.86844770823
 31
0.0
  0
LINE
  5
57
330
1F
100
AcDbEntity
  8
1
  6
Continuous
 62
     4
100
AcDbLine
 10
783.217535184126
 20
1254.99344770823
 30
0.0
 11
782.425435184126
 21
1255.61844770823
 31
0.0
  0
LINE
  5
58
330
1F
100
AcDbEntity
  8
1
  6
Continuous
 62
     4
100
AcDbLine
 10
783.712597684126
 20
1255.99344770823
 30
0.0
 11
783.217535184126
 21
1254.99344770823
 31
0.0
  0
LINE
  5
59
330
1F
100
AcDbEntity
  8
1
  6
Continuous
 62
     4
100
AcDbLine
 10
784.108647684126
 20
1257.49344770823
 30
0.0
 11
783.712597684126
 21
1255.99344770823
 31
0.0
  0
LINE
  5
5A
330
1F
100
AcDbEntity
  8
1
  6
Continuous
 62
     4
100
AcDbLine
 10
784.6037101841259
 20
1259.74344770823
 30
0.0
 11
784.108647684126
 21
1257.49344770823
 31
0.0
  0
LINE
  5
5B
330
1F
100
AcDbEntity
  8
1
  6
Continuous
 62
     4
100
AcDbLine
 10
784.6037101841259
 20
1260.61844770823
 30
0.0
 11
784.6037101841259
 21
1259.74344770823
 31
0.0
  0
LINE
  5
5C
330
1F
100
AcDbEntity
  8
1
  6
Continuous
 62
     4
100
AcDbLine
 10
781.732347684126
 20
1260.61844770823
 30
0.0
 11
784.6037101841259
 21
1260.61844770823
 31
0.0
  0
LINE
  5
5D
330
1F
100
AcDbEntity
  8
1
  6
Continuous
 62
     4
100
AcDbLine
 10
779.059010184126
 20
1263.11844770823
 30
0.0
 11
785.692847684126
 21
1263.11844770823
 31
0.0
  0
LINE
  5
5E
330
1F
100
AcDbEntity
  8
1
  6
Continuous
 62
     4
100
AcDbLine
 10
781.9303726841259
 20
1262.24344770823
 30
0.0
 11
782.128397684126
 21
1264.74344770823
 31
0.0
  0
LINE
  5
5F
330
1F
100
AcDbEntity
  8
1
  6
Continuous
 62
     4
100
AcDbLine
 10
781.534322684126
 20
1259.74344770823
 30
0.0
 11
781.9303726841259
 21
1262.24344770823
 31
0.0
  0
LINE
  5
60
330
1F
100
AcDbEntity
  8
1
  6
Continuous
 62
     4
100
AcDbLine
 10
781.039260184126
 20
1258.11844770823
 30
0.0
 11
781.534322684126
 21
1259.74344770823
 31
0.0
  0
LINE
  5
61
330
1F
100
AcDbEntity
  8
1
  6
Continuous
 62
     4
100
AcDbLine
 10
780.445185184126
 20
1256.61844770823
 30
0.0
 11
781.039260184126
 21
1258.11844770823
 31
0.0
  0
LINE
  5
62
330
1F
100
AcDbEntity
  8
1
  6
Continuous
 62
     4
100
AcDbLine
 10
779.554072684126
 20
1255.36844770823
 30
0.0
 11
780.445185184126
 21
1256.61844770823
 31
0.0
  0
LINE
  5
63
330
1F
100
AcDbEntity
  8
1
  6
Continuous
 62
     4
100
AcDbLine
 10
776.880735184126
 20
1258.11844770823
 30
0.0
 11
777.969872684126
 21
1256.61844770823
 31
0.0
  0
LINE
  5
64
330
1F
100
AcDbEntity
  8
1
  6
Continuous
 62
     4
100
AcDbLine
 10
775.9896226841261
 20
1259.99344770823
 30
0.0
 11
776.880735184126
 21
1258.11844770823
 31
0.0
  0
LINE
  5
65
330
1F
100
AcDbEntity
  8
1
  6
Continuous
 62
     4
100
AcDbLine
 10
775.296535184126
 20
1262.24344770823
 30
0.0
 11
775.9896226841261
 21
1259.99344770823
 31
0.0
  0
LINE
  5
66
330
1F
100
AcDbEntity
  8
1
  6
Continuous
 62
     4
100
AcDbLine
 10
777.2767851841261
 20
1262.49344770823
 30
0.0
 11
775.791597684126
 21
1260.99344770823
 31
0.0
  0
LINE
  5
67
330
1F
100
AcDbEntity
  8
1
  6
Continuous
 62
     4
100
AcDbLine
 10
774.702460184126
 20
1254.99344770823
 30
0.0
 11
774.009372684126
 21
1255.36844770823
 31
0.0
  0
LINE
  5
68
330
1F
100
AcDbEntity
  8
1
  6
Continuous
 62
     4
100
AcDbLine
 10
774.702460184126
 20
1264.74344770823
 30
0.0
 11
774.702460184126
 21
1254.99344770823
 31
0.0
  0
LINE
  5
69
330
1F
100
AcDbEntity
  8
1
  6
Continuous
 62
     4
100
AcDbLine
 10
773.613322684126
 20
1261.61844770823
 30
0.0
 11
771.336035184126
 21
1261.61844770823
 31
0.0
  0
LINE
  5
6A
330
1F
100
AcDbEntity
  8
1
  6
Continuous
 62
     4
100
AcDbLine
 10
773.118260184126
 20
1259.74344770823
 30
0.0
 11
773.613322684126
 21
1261.61844770823
 31
0.0
  0
LINE
  5
6B
330
1F
100
AcDbEntity
  8
1
  6
Continuous
 62
     4
100
AcDbLine
 10
772.2271476841261
 20
1257.86844770823
 30
0.0
 11
773.118260184126
 21
1259.74344770823
 31
0.0
  0
LINE
  5
6C
330
1F
100
AcDbEntity
  8
1
  6
Continuous
 62
     4
100
AcDbLine
 10
771.336035184126
 20
1256.61844770823
 30
0.0
 11
772.2271476841261
 21
1257.86844770823
 31
0.0
  0
LINE
  5
6D
330
1F
100
AcDbEntity
  8
1
  6
Continuous
 62
     4
100
AcDbLine
 10
766.979485184126
 20
1263.49344770823
 30
0.0
 11
769.652822684126
 21
1263.49344770823
 31
0.0
  0
LINE
  5
6E
330
1F
100
AcDbEntity
  8
1
  6
Continuous
 62
     4
100
AcDbLine
 10
770.048872684126
 20
1255.99344770823
 30
0.0
 11
770.048872684126
 21
1256.61844770823
 31
0.0
  0
LINE
  5
6F
330
1F
100
AcDbEntity
  8
1
  6
Continuous
 62
     4
100
AcDbLine
 10
769.652822684126
 20
1255.36844770823
 30
0.0
 11
770.048872684126
 21
1255.99344770823
 31
0.0
  0
LINE
  5
70
330
1F
100
AcDbEntity
  8
1
  6
Continuous
 62
     4
100
AcDbLine
 10
768.761710184126
 20
1255.36844770823
 30
0.0
 11
769.652822684126
 21
1255.36844770823
 31
0.0
  0
LINE
  5
71
330
1F
100
AcDbEntity
  8
1
  6
Continuous
 62
     4
100
AcDbLine
 10
768.266647684126
 20
1256.24344770823
 30
0.0
 11
768.761710184126
 21
1255.36844770823
 31
0.0
  0
LINE
  5
72
330
1F
100
AcDbEntity
  8
1
  6
Continuous
 62
     4
100
AcDbLine
 10
768.266647684126
 20
1259.36844770823
 30
0.0
 11
768.266647684126
 21
1256.24344770823
 31
0.0
  0
LINE
  5
73
330
1F
100
AcDbEntity
  8
1
  6
Continuous
 62
     4
100
AcDbLine
 10
766.979485184126
 20
1255.36844770823
 30
0.0
 11
766.979485184126
 21
1259.36844770823
 31
0.0
  0
LINE
  5
74
330
1F
100
AcDbEntity
  8
1
  6
Continuous
 62
     4
100
AcDbLine
 10
764.999235184126
 20
1255.61844770823
 30
0.0
 11
764.306147684126
 21
1254.99344770823
 31
0.0
  0
LINE
  5
75
330
1F
100
AcDbEntity
  8
1
  6
Continuous
 62
     4
100
AcDbLine
 10
765.395285184126
 20
1256.24344770823
 30
0.0
 11
764.999235184126
 21
1255.61844770823
 31
0.0
  0
LINE
  5
76
330
1F
100
AcDbEntity
  8
1
  6
Continuous
 62
     4
100
AcDbLine
 10
765.692322684126
 20
1257.24344770823
 30
0.0
 11
765.395285184126
 21
1256.24344770823
 31
0.0
  0
LINE
  5
77
330
1F
100
AcDbEntity
  8
1
  6
Continuous
 62
     4
100
AcDbLine
 10
765.890347684126
 20
1259.36844770823
 30
0.0
 11
765.692322684126
 21
1257.24344770823
 31
0.0
  0
LINE
  5
78
330
1F
100
AcDbEntity
  8
1
  6
Continuous
 62
     4
100
AcDbLine
 10
768.068622684126
 20
1262.49344770823
 30
0.0
 11
768.959735184126
 21
1260.36844770823
 31
0.0
  0
LINE
  5
79
330
1F
100
AcDbEntity
  8
1
  6
Continuous
 62
     4
100
AcDbLine
 10
765.197260184126
 20
1260.99344770823
 30
0.0
 11
768.563685184126
 21
1261.24344770823
 31
0.0
  0
LINE
  5
7A
330
1F
100
AcDbEntity
  8
1
  6
Continuous
 62
     4
100
AcDbLine
 10
766.979485184126
 20
1263.49344770823
 30
0.0
 11
766.0883726841259
 21
1260.99344770823
 31
0.0
  0
LINE
  5
7B
330
1F
100
AcDbEntity
  8
1
  6
Continuous
 62
     4
100
AcDbLine
 10
767.177510184126
 20
1264.99344770823
 30
0.0
 11
767.177510184126
 21
1263.49344770823
 31
0.0
  0
LINE
  5
7C
330
1F
100
AcDbEntity
  8
1
  6
Continuous
 62
     4
100
AcDbLine
 10
764.801210184126
 20
1263.49344770823
 30
0.0
 11
766.979485184126
 21
1263.49344770823
 31
0.0
  0
LINE
  5
7D
330
1F
100
AcDbEntity
  8
1
  6
Continuous
 62
     4
100
AcDbLine
 10
763.217010184126
 20
1255.36844770823
 30
0.0
 11
764.108122684126
 21
1259.36844770823
 31
0.0
  0
LINE
  5
7E
330
1F
100
AcDbEntity
  8
1
  6
Continuous
 62
     4
100
AcDbLine
 10
763.018985184126
 20
1261.86844770823
 30
0.0
 11
763.712072684126
 21
1260.99344770823
 31
0.0
  0
LINE
  5
7F
330
1F
100
AcDbEntity
  8
1
  6
Continuous
 62
     4
100
AcDbLine
 10
763.712072684126
 20
1264.74344770823
 30
0.0
 11
764.108122684126
 21
1263.74344770823
 31
0.0
  0
LINE
  5
80
330
1F
100
AcDbEntity
  8
1
  6
Continuous
 62
     4
100
AcDbLine
 10
1176.68430528762
 20
1548.32125059687
 30
0.0
 11
1176.68430528762
 21
1545.82125059687
 31
0.0
  0
LINE
  5
81
330
1F
100
AcDbEntity
  8
1
  6
Continuous
 62
     4
100
AcDbLine
 10
1176.43430528762
 20
1549.82125059687
 30
0.0
 11
1176.68430528762
 21
1548.32125059687
 31
0.0
  0
LINE
  5
82
330
1F
100
AcDbEntity
  8
1
  6
Continuous
 62
     4
100
AcDbLine
 10
1175.93430528762
 20
1550.82125059687
 30
0.0
 11
1176.43430528762
 21
1549.82125059687
 31
0.0
  0
LINE
  5
83
330
1F
100
AcDbEntity
  8
1
  6
Continuous
 62
     4
100
AcDbLine
 10
1175.43430528762
 20
1551.32125059687
 30
0.0
 11
1175.93430528762
 21
1550.82125059687
 31
0.0
  0
LINE
  5
84
330
1F
100
AcDbEntity
  8
1
  6
Continuous
 62
     4
100
AcDbLine
 10
1174.68430528762
 20
1551.82125059687
 30
0.0
 11
1175.43430528762
 21
1551.32125059687
 31
0.0
  0
LINE
  5
85
330
1F
100
AcDbEntity
  8
1
  6
Continuous
 62
     4
100
AcDbLine
 10
1173.93430528762
 20
1552.07125059687
 30
0.0
 11
1174.68430528762
 21
1551.82125059687
 31
0.0
  0
LINE
  5
86
330
1F
100
AcDbEntity
  8
1
  6
Continuous
 62
     4
100
AcDbLine
 10
1173.43430528762
 20
1552.07125059687
 30
0.0
 11
1173.93430528762
 21
1552.07125059687
 31
0.0
  0
LINE
  5
87
330
1F
100
AcDbEntity
  8
1
  6
Continuous
 62
     4
100
AcDbLine
 10
1172.68430528762
 20
1551.82125059687
 30
0.0
 11
1173.43430528762
 21
1552.07125059687
 31
0.0
  0
LINE
  5
88
330
1F
100
AcDbEntity
  8
1
  6
Continuous
 62
     4
100
AcDbLine
 10
1171.93430528762
 20
1551.32125059687
 30
0.0
 11
1172.68430528762
 21
1551.82125059687
 31
0.0
  0
LINE
  5
89
330
1F
100
AcDbEntity
  8
1
  6
Continuous
 62
     4
100
AcDbLine
 10
1171.43430528762
 20
1550.82125059687
 30
0.0
 11
1171.93430528762
 21
1551.32125059687
 31
0.0
  0
LINE
  5
8A
330
1F
100
AcDbEntity
  8
1
  6
Continuous
 62
     4
100
AcDbLine
 10
1170.93430528762
 20
1549.82125059687
 30
0.0
 11
1171.43430528762
 21
1550.82125059687
 31
0.0
  0
LINE
  5
8B
330
1F
100
AcDbEntity
  8
1
  6
Continuous
 62
     4
100
AcDbLine
 10
1170.68430528762
 20
1548.32125059687
 30
0.0
 11
1170.93430528762
 21
1549.82125059687
 31
0.0
  0
LINE
  5
8C
330
1F
100
AcDbEntity
  8
1
  6
Continuous
 62
     4
100
AcDbLine
 10
1170.68430528762
 20
1545.82125059687
 30
0.0
 11
1170.68430528762
 21
1548.32125059687
 31
0.0
  0
LINE
  5
8D
330
1F
100
AcDbEntity
  8
1
  6
Continuous
 62
     4
100
AcDbLine
 10
1170.93430528762
 20
1544.32125059687
 30
0.0
 11
1170.68430528762
 21
1545.82125059687
 31
0.0
  0
LINE
  5
8E
330
1F
100
AcDbEntity
  8
1
  6
Continuous
 62
     4
100
AcDbLine
 10
1171.43430528762
 20
1543.32125059687
 30
0.0
 11
1170.93430528762
 21
1544.32125059687
 31
0.0
  0
LINE
  5
8F
330
1F
100
AcDbEntity
  8
1
  6
Continuous
 62
     4
100
AcDbLine
 10
1171.93430528762
 20
1542.82125059687
 30
0.0
 11
1171.43430528762
 21
1543.32125059687
 31
0.0
  0
LINE
  5
90
330
1F
100
AcDbEntity
  8
1
  6
Continuous
 62
     4
100
AcDbLine
 10
1172.68430528762
 20
1542.32125059687
 30
0.0
 11
1171.93430528762
 21
1542.82125059687
 31
0.0
  0
LINE
  5
91
330
1F
100
AcDbEntity
  8
1
  6
Continuous
 62
     4
100
AcDbLine
 10
1173.43430528762
 20
1542.07125059687
 30
0.0
 11
1172.68430528762
 21
1542.32125059687
 31
0.0
  0
LINE
  5
92
330
1F
100
AcDbEntity
  8
1
  6
Continuous
 62
     4
100
AcDbLine
 10
1173.93430528762
 20
1542.07125059687
 30
0.0
 11
1173.43430528762
 21
1542.07125059687
 31
0.0
  0
LINE
  5
93
330
1F
100
AcDbEntity
  8
1
  6
Continuous
 62
     4
100
AcDbLine
 10
1174.68430528762
 20
1542.32125059687
 30
0.0
 11
1173.93430528762
 21
1542.07125059687
 31
0.0
  0
LINE
  5
94
330
1F
100
AcDbEntity
  8
1
  6
Continuous
 62
     4
100
AcDbLine
 10
1175.43430528762
 20
1542.82125059687
 30
0.0
 11
1174.68430528762
 21
1542.32125059687
 31
0.0
  0
LINE
  5
95
330
1F
100
AcDbEntity
  8
1
  6
Continuous
 62
     4
100
AcDbLine
 10
1175.93430528762
 20
1543.32125059687
 30
0.0
 11
1175.43430528762
 21
1542.82125059687
 31
0.0
  0
LINE
  5
96
330
1F
100
AcDbEntity
  8
1
  6
Continuous
 62
     4
100
AcDbLine
 10
1176.43430528762
 20
1544.32125059687
 30
0.0
 11
1175.93430528762
 21
1543.32125059687
 31
0.0
  0
LINE
  5
97
330
1F
100
AcDbEntity
  8
1
  6
Continuous
 62
     4
100
AcDbLine
 10
1176.68430528762
 20
1545.82125059687
 30
0.0
 11
1176.43430528762
 21
1544.32125059687
 31
0.0
  0
LINE
  5
98
330
1F
100
AcDbEntity
  8
1
  6
Continuous
 62
     4
100
AcDbLine
 10
1161.68430528762
 20
1542.07125059687
 30
0.0
 11
1167.68430528762
 21
1542.07125059687
 31
0.0
  0
LINE
  5
99
330
1F
100
AcDbEntity
  8
1
  6
Continuous
 62
     4
100
AcDbLine
 10
1167.18430528762
 20
1548.57125059687
 30
0.0
 11
1161.68430528762
 21
1542.07125059687
 31
0.0
  0
LINE
  5
9A
330
1F
100
AcDbEntity
  8
1
  6
Continuous
 62
     4
100
AcDbLine
 10
1167.68430528762
 20
1549.57125059687
 30
0.0
 11
1167.18430528762
 21
1548.57125059687
 31
0.0
  0
LINE
  5
9B
330
1F
100
AcDbEntity
  8
1
  6
Continuous
 62
     4
100
AcDbLine
 10
1167.68430528762
 20
1550.57125059687
 30
0.0
 11
1167.68430528762
 21
1549.57125059687
 31
0.0
  0
LINE
  5
9C
330
1F
100
AcDbEntity
  8
1
  6
Continuous
 62
     4
100
AcDbLine
 10
1167.18430528762
 20
1551.32125059687
 30
0.0
 11
1167.68430528762
 21
1550.57125059687
 31
0.0
  0
LINE
  5
9D
330
1F
100
AcDbEntity
  8
1
  6
Continuous
 62
     4
100
AcDbLine
 10
1166.43430528762
 20
1551.82125059687
 30
0.0
 11
1167.18430528762
 21
1551.32125059687
 31
0.0
  0
LINE
  5
9E
330
1F
100
AcDbEntity
  8
1
  6
Continuous
 62
     4
100
AcDbLine
 10
1165.43430528762
 20
1552.07125059687
 30
0.0
 11
1166.43430528762
 21
1551.82125059687
 31
0.0
  0
LINE
  5
9F
330
1F
100
AcDbEntity
  8
1
  6
Continuous
 62
     4
100
AcDbLine
 10
1163.93430528762
 20
1552.07125059687
 30
0.0
 11
1165.43430528762
 21
1552.07125059687
 31
0.0
  0
LINE
  5
A0
330
1F
100
AcDbEntity
  8
1
  6
Continuous
 62
     4
100
AcDbLine
 10
1162.93430528762
 20
1551.82125059687
 30
0.0
 11
1163.93430528762
 21
1552.07125059687
 31
0.0
  0
LINE
  5
A1
330
1F
100
AcDbEntity
  8
1
  6
Continuous
 62
     4
100
AcDbLine
 10
1162.18430528762
 20
1551.32125059687
 30
0.0
 11
1162.93430528762
 21
1551.82125059687
 31
0.0
  0
LINE
  5
A2
330
1F
100
AcDbEntity
  8
1
  6
Continuous
 62
     4
100
AcDbLine
 10
1161.68430528762
 20
1550.57125059687
 30
0.0
 11
1162.18430528762
 21
1551.32125059687
 31
0.0
  0
LINE
  5
A3
330
1F
100
AcDbEntity
  8
1
  6
Continuous
 62
     4
100
AcDbLine
 10
1153.68430528762
 20
1545.57125059687
 30
0.0
 11
1158.68430528762
 21
1545.57125059687
 31
0.0
  0
LINE
  5
A4
330
1F
100
AcDbEntity
  8
1
  6
Continuous
 62
     4
100
AcDbLine
 10
1150.68430528762
 20
1547.57125059687
 30
0.0
 11
1148.18430528762
 21
1547.57125059687
 31
0.0
  0
LINE
  5
A5
330
1F
100
AcDbEntity
  8
1
  6
Continuous
 62
     4
100
AcDbLine
 10
1150.68430528762
 20
1542.07125059687
 30
0.0
 11
1150.68430528762
 21
1547.57125059687
 31
0.0
  0
LINE
  5
A6
330
1F
100
AcDbEntity
  8
1
  6
Continuous
 62
     4
100
AcDbLine
 10
1146.43430528762
 20
1542.07125059687
 30
0.0
 11
1150.68430528762
 21
1542.07125059687
 31
0.0
  0
LINE
  5
A7
330
1F
100
AcDbEntity
  8
1
  6
Continuous
 62
     4
100
AcDbLine
 10
1145.68430528762
 20
1542.32125059687
 30
0.0
 11
1146.43430528762
 21
1542.07125059687
 31
0.0
  0
LINE
  5
A8
330
1F
100
AcDbEntity
  8
1
  6
Continuous
 62
     4
100
AcDbLine
 10
1144.68430528762
 20
1542.82125059687
 30
0.0
 11
1145.68430528762
 21
1542.32125059687
 31
0.0
  0
LINE
  5
A9
330
1F
100
AcDbEntity
  8
1
  6
Continuous
 62
     4
100
AcDbLine
 10
1144.18430528762
 20
1543.32125059687
 30
0.0
 11
1144.68430528762
 21
1542.82125059687
 31
0.0
  0
LINE
  5
AA
330
1F
100
AcDbEntity
  8
1
  6
Continuous
 62
     4
100
AcDbLine
 10
1143.93430528762
 20
1544.07125059687
 30
0.0
 11
1144.18430528762
 21
1543.32125059687
 31
0.0
  0
LINE
  5
AB
330
1F
100
AcDbEntity
  8
1
  6
Continuous
 62
     4
100
AcDbLine
 10
1143.68430528762
 20
1545.07125059687
 30
0.0
 11
1143.93430528762
 21
1544.07125059687
 31
0.0
  0
LINE
  5
AC
330
1F
100
AcDbEntity
  8
1
  6
Continuous
 62
     4
100
AcDbLine
 10
1143.68430528762
 20
1549.07125059687
 30
0.0
 11
1143.68430528762
 21
1545.07125059687
 31
0.0
  0
LINE
  5
AD
330
1F
100
AcDbEntity
  8
1
  6
Continuous
 62
     4
100
AcDbLine
 10
1143.93430528762
 20
1550.07125059687
 30
0.0
 11
1143.68430528762
 21
1549.07125059687
 31
0.0
  0
LINE
  5
AE
330
1F
100
AcDbEntity
  8
1
  6
Continuous
 62
     4
100
AcDbLine
 10
1144.18430528762
 20
1550.82125059687
 30
0.0
 11
1143.93430528762
 21
1550.07125059687
 31
0.0
  0
LINE
  5
AF
330
1F
100
AcDbEntity
  8
1
  6
Continuous
 62
     4
100
AcDbLine
 10
1144.68430528762
 20
1551.32125059687
 30
0.0
 11
1144.18430528762
 21
1550.82125059687
 31
0.0
  0
LINE
  5
B0
330
1F
100
AcDbEntity
  8
1
  6
Continuous
 62
     4
100
AcDbLine
 10
1145.43430528762
 20
1551.82125059687
 30
0.0
 11
1144.68430528762
 21
1551.32125059687
 31
0.0
  0
LINE
  5
B1
330
1F
100
AcDbEntity
  8
1
  6
Continuous
 62
     4
100
AcDbLine
 10
1146.43430528762
 20
1552.07125059687
 30
0.0
 11
1145.43430528762
 21
1551.82125059687
 31
0.0
  0
LINE
  5
B2
330
1F
100
AcDbEntity
  8
1
  6
Continuous
 62
     4
100
AcDbLine
 10
1150.68430528762
 20
1552.07125059687
 30
0.0
 11
1146.43430528762
 21
1552.07125059687
 31
0.0
  0
LINE
  5
B3
330
1F
100
AcDbEntity
  8
1
  6
Continuous
 62
     4
100
AcDbLine
 10
1138.68430528762
 20
1542.07125059687
 30
0.0
 11
1140.68430528762
 21
1552.07125059687
 31
0.0
  0
LINE
  5
B4
330
1F
100
AcDbEntity
  8
1
  6
Continuous
 62
     4
100
AcDbLine
 10
1136.18430528762
 20
1549.07125059687
 30
0.0
 11
1138.68430528762
 21
1542.07125059687
 31
0.0
  0
LINE
  5
B5
330
1F
100
AcDbEntity
  8
1
  6
Continuous
 62
     4
100
AcDbLine
 10
1133.68430528762
 20
1542.07125059687
 30
0.0
 11
1136.18430528762
 21
1549.07125059687
 31
0.0
  0
LINE
  5
B6
330
1F
100
AcDbEntity
  8
1
  6
Continuous
 62
     4
100
AcDbLine
 10
1131.68430528762
 20
1552.07125059687
 30
0.0
 11
1133.68430528762
 21
1542.07125059687
 31
0.0
  0
LINE
  5
B7
330
1F
100
AcDbEntity
  8
1
  6
Continuous
 62
     4
100
AcDbLine
 10
1127.18430528762
 20
1546.07125059687
 30
0.0
 11
1127.18430528762
 21
1542.07125059687
 31
0.0
  0
LINE
  5
B8
330
1F
100
AcDbEntity
  8
1
  6
Continuous
 62
     4
100
AcDbLine
 10
1122.68430528762
 20
1544.07125059687
 30
0.0
 11
1128.68430528762
 21
1544.07125059687
 31
0.0
  0
LINE
  5
B9
330
1F
100
AcDbEntity
  8
1
  6
Continuous
 62
     4
100
AcDbLine
 10
1127.18430528762
 20
1552.07125059687
 30
0.0
 11
1122.68430528762
 21
1544.07125059687
 31
0.0
  0
LINE
  5
BA
330
1F
100
AcDbEntity
  8
1
  6
Continuous
 62
     4
100
AcDbLine
 10
1113.18430528762
 20
1547.57125059687
 30
0.0
 11
1113.18430528762
 21
1552.07125059687
 31
0.0
  0
LINE
  5
BB
330
1F
100
AcDbEntity
  8
1
  6
Continuous
 62
     4
100
AcDbLine
 10
1117.93430528762
 20
1547.82125059687
 30
0.0
 11
1117.18430528762
 21
1547.57125059687
 31
0.0
  0
LINE
  5
BC
330
1F
100
AcDbEntity
  8
1
  6
Continuous
 62
     4
100
AcDbLine
 10
1118.68430528762
 20
1548.32125059687
 30
0.0
 11
1117.93430528762
 21
1547.82125059687
 31
0.0
  0
LINE
  5
BD
330
1F
100
AcDbEntity
  8
1
  6
Continuous
 62
     4
100
AcDbLine
 10
1119.18430528762
 20
1549.32125059687
 30
0.0
 11
1118.68430528762
 21
1548.32125059687
 31
0.0
  0
LINE
  5
BE
330
1F
100
AcDbEntity
  8
1
  6
Continuous
 62
     4
100
AcDbLine
 10
1119.18430528762
 20
1550.07125059687
 30
0.0
 11
1119.18430528762
 21
1549.32125059687
 31
0.0
  0
LINE
  5
BF
330
1F
100
AcDbEntity
  8
1
  6
Continuous
 62
     4
100
AcDbLine
 10
1118.93430528762
 20
1551.07125059687
 30
0.0
 11
1119.18430528762
 21
1550.07125059687
 31
0.0
  0
LINE
  5
C0
330
1F
100
AcDbEntity
  8
1
  6
Continuous
 62
     4
100
AcDbLine
 10
1118.18430528762
 20
1551.82125059687
 30
0.0
 11
1118.93430528762
 21
1551.07125059687
 31
0.0
  0
LINE
  5
C1
330
1F
100
AcDbEntity
  8
1
  6
Continuous
 62
     4
100
AcDbLine
 10
1116.93430528762
 20
1552.07125059687
 30
0.0
 11
1118.18430528762
 21
1551.82125059687
 31
0.0
  0
LINE
  5
C2
330
1F
100
AcDbEntity
  8
1
  6
Continuous
 62
     4
100
AcDbLine
 10
1113.18430528762
 20
1552.07125059687
 30
0.0
 11
1116.93430528762
 21
1552.07125059687
 31
0.0
  0
LINE
  5
C3
330
1F
100
AcDbEntity
  8
1
  6
Continuous
 62
     4
100
AcDbLine
 10
1113.18430528762
 20
1542.07125059687
 30
0.0
 11
1113.18430528762
 21
1547.57125059687
 31
0.0
  0
LINE
  5
C4
330
1F
100
AcDbEntity
  8
1
  6
Continuous
 62
     4
100
AcDbLine
 10
1117.68430528762
 20
1542.07125059687
 30
0.0
 11
1113.18430528762
 21
1542.07125059687
 31
0.0
  0
LINE
  5
C5
330
1F
100
AcDbEntity
  8
1
  6
Continuous
 62
     4
100
AcDbLine
 10
1118.68430528762
 20
1542.57125059687
 30
0.0
 11
1117.68430528762
 21
1542.07125059687
 31
0.0
  0
LINE
  5
C6
330
1F
100
AcDbEntity
  8
1
  6
Continuous
 62
     4
100
AcDbLine
 10
1119.18430528762
 20
1543.07125059687
 30
0.0
 11
1118.68430528762
 21
1542.57125059687
 31
0.0
  0
LINE
  5
C7
330
1F
100
AcDbEntity
  8
1
  6
Continuous
 62
     4
100
AcDbLine
 10
1119.68430528762
 20
1544.07125059687
 30
0.0
 11
1119.18430528762
 21
1543.07125059687
 31
0.0
  0
LINE
  5
C8
330
1F
100
AcDbEntity
  8
1
  6
Continuous
 62
     4
100
AcDbLine
 10
1119.68430528762
 20
1545.32125059687
 30
0.0
 11
1119.68430528762
 21
1544.07125059687
 31
0.0
  0
LINE
  5
C9
330
1F
100
AcDbEntity
  8
1
  6
Continuous
 62
     4
100
AcDbLine
 10
1119.18430528762
 20
1546.57125059687
 30
0.0
 11
1119.68430528762
 21
1545.32125059687
 31
0.0
  0
LINE
  5
CA
330
1F
100
AcDbEntity
  8
1
  6
Continuous
 62
     4
100
AcDbLine
 10
1118.68430528762
 20
1547.07125059687
 30
0.0
 11
1119.18430528762
 21
1546.57125059687
 31
0.0
  0
LINE
  5
CB
330
1F
100
AcDbEntity
  8
1
  6
Continuous
 62
     4
100
AcDbLine
 10
1117.68430528762
 20
1547.57125059687
 30
0.0
 11
1118.68430528762
 21
1547.07125059687
 31
0.0
  0
LINE
  5
CC
330
1F
100
AcDbEntity
  8
1
  6
Continuous
 62
     4
100
AcDbLine
 10
1117.18430528762
 20
1547.57125059687
 30
0.0
 11
1117.68430528762
 21
1547.57125059687
 31
0.0
  0
LINE
  5
CD
330
1F
100
AcDbEntity
  8
1
  6
Continuous
 62
     4
100
AcDbLine
 10
1113.18430528762
 20
1547.57125059687
 30
0.0
 11
1117.18430528762
 21
1547.57125059687
 31
0.0
  0
LINE
  5
CE
330
1F
100
AcDbEntity
  8
1
  6
Continuous
 62
     4
100
AcDbLine
 10
1105.18430528762
 20
1545.57125059687
 30
0.0
 11
1110.18430528762
 21
1545.57125059687
 31
0.0
  0
LINE
  5
CF
330
1F
100
AcDbEntity
  8
1
  6
Continuous
 62
     4
100
AcDbLine
 10
1095.18430528762
 20
1547.57125059687
 30
0.0
 11
1095.18430528762
 21
1547.07125059687
 31
0.0
  0
LINE
  5
D0
330
1F
100
AcDbEntity
  8
1
  6
Continuous
 62
     4
100
AcDbLine
 10
1095.18430528762
 20
1542.07125059687
 30
0.0
 11
1102.18430528762
 21
1542.07125059687
 31
0.0
  0
LINE
  5
D1
330
1F
100
AcDbEntity
  8
1
  6
Continuous
 62
     4
100
AcDbLine
 10
1095.18430528762
 20
1547.07125059687
 30
0.0
 11
1095.18430528762
 21
1542.07125059687
 31
0.0
  0
LINE
  5
D2
330
1F
100
AcDbEntity
  8
1
  6
Continuous
 62
     4
100
AcDbLine
 10
1095.18430528762
 20
1552.07125059687
 30
0.0
 11
1095.18430528762
 21
1547.57125059687
 31
0.0
  0
LINE
  5
D3
330
1F
100
AcDbEntity
  8
1
  6
Continuous
 62
     4
100
AcDbLine
 10
1102.18430528762
 20
1552.07125059687
 30
0.0
 11
1095.18430528762
 21
1552.07125059687
 31
0.0
  0
LINE
  5
D4
330
1F
100
AcDbEntity
  8
1
  6
Continuous
 62
     4
100
AcDbLine
 10
1101.18430528762
 20
1547.57125059687
 30
0.0
 11
1095.18430528762
 21
1547.57125059687
 31
0.0
  0
LINE
  5
D5
330
1F
100
AcDbEntity
  8
1
  6
Continuous
 62
     4
100
AcDbLine
 10
1092.18430528762
 20
1552.07125059687
 30
0.0
 11
1092.18430528762
 21
1542.07125059687
 31
0.0
  0
LINE
  5
D6
330
1F
100
AcDbEntity
  8
1
  6
Continuous
 62
     4
100
AcDbLine
 10
1088.68430528762
 20
1546.57125059687
 30
0.0
 11
1092.18430528762
 21
1552.07125059687
 31
0.0
  0
LINE
  5
D7
330
1F
100
AcDbEntity
  8
1
  6
Continuous
 62
     4
100
AcDbLine
 10
1085.18430528762
 20
1552.07125059687
 30
0.0
 11
1088.68430528762
 21
1546.57125059687
 31
0.0
  0
LINE
  5
D8
330
1F
100
AcDbEntity
  8
1
  6
Continuous
 62
     4
100
AcDbLine
 10
1085.18430528762
 20
1542.07125059687
 30
0.0
 11
1085.18430528762
 21
1552.07125059687
 31
0.0
  0
LINE
  5
D9
330
1F
100
AcDbEntity
  8
1
  6
Continuous
 62
     4
100
AcDbLine
 10
1078.93430528762
 20
1552.07125059687
 30
0.0
 11
1082.18430528762
 21
1552.07125059687
 31
0.0
  0
LINE
  5
DA
330
1F
100
AcDbEntity
  8
1
  6
Continuous
 62
     4
100
AcDbLine
 10
1077.93430528762
 20
1551.82125059687
 30
0.0
 11
1078.93430528762
 21
1552.07125059687
 31
0.0
  0
LINE
  5
DB
330
1F
100
AcDbEntity
  8
1
  6
Continuous
 62
     4
100
AcDbLine
 10
1077.18430528762
 20
1551.32125059687
 30
0.0
 11
1077.93430528762
 21
1551.82125059687
 31
0.0
  0
LINE
  5
DC
330
1F
100
AcDbEntity
  8
1
  6
Continuous
 62
     4
100
AcDbLine
 10
1076.68430528762
 20
1550.82125059687
 30
0.0
 11
1077.18430528762
 21
1551.32125059687
 31
0.0
  0
LINE
  5
DD
330
1F
100
AcDbEntity
  8
1
  6
Continuous
 62
     4
100
AcDbLine
 10
1076.43430528762
 20
1550.07125059687
 30
0.0
 11
1076.68430528762
 21
1550.82125059687
 31
0.0
  0
LINE
  5
DE
330
1F
100
AcDbEntity
  8
1
  6
Continuous
 62
     4
100
AcDbLine
 10
1076.18430528762
 20
1549.07125059687
 30
0.0
 11
1076.43430528762
 21
1550.07125059687
 31
0.0
  0
LINE
  5
DF
330
1F
100
AcDbEntity
  8
1
  6
Continuous
 62
     4
100
AcDbLine
 10
1076.18430528762
 20
1545.07125059687
 30
0.0
 11
1076.18430528762
 21
1549.07125059687
 31
0.0
  0
LINE
  5
E0
330
1F
100
AcDbEntity
  8
1
  6
Continuous
 62
     4
100
AcDbLine
 10
1076.43430528762
 20
1544.07125059687
 30
0.0
 11
1076.18430528762
 21
1545.07125059687
 31
0.0
  0
LINE
  5
E1
330
1F
100
AcDbEntity
  8
1
  6
Continuous
 62
     4
100
AcDbLine
 10
1076.68430528762
 20
1543.32125059687
 30
0.0
 11
1076.43430528762
 21
1544.07125059687
 31
0.0
  0
LINE
  5
E2
330
1F
100
AcDbEntity
  8
1
  6
Continuous
 62
     4
100
AcDbLine
 10
1077.18430528762
 20
1542.82125059687
 30
0.0
 11
1076.68430528762
 21
1543.32125059687
 31
0.0
  0
LINE
  5
E3
330
1F
100
AcDbEntity
  8
1
  6
Continuous
 62
     4
100
AcDbLine
 10
1077.93430528762
 20
1542.32125059687
 30
0.0
 11
1077.18430528762
 21
1542.82125059687
 31
0.0
  0
LINE
  5
E4
330
1F
100
AcDbEntity
  8
1
  6
Continuous
 62
     4
100
AcDbLine
 10
1078.93430528762
 20
1542.07125059687
 30
0.0
 11
1077.93430528762
 21
1542.32125059687
 31
0.0
  0
LINE
  5
E5
330
1F
100
AcDbEntity
  8
1
  6
Continuous
 62
     4
100
AcDbLine
 10
1082.18430528762
 20
1542.07125059687
 30
0.0
 11
1078.93430528762
 21
1542.07125059687
 31
0.0
  0
LINE
  5
E6
330
1F
100
AcDbEntity
  8
1
  6
Continuous
 62
     4
100
AcDbLine
 10
1028.81570910734
 20
1482.86822570728
 30
0.0
 11
1028.81570910734
 21
1472.86822570728
 31
0.0
  0
LINE
  5
E7
330
1F
100
AcDbEntity
  8
1
  6
Continuous
 62
     4
100
AcDbLine
 10
1025.81570910734
 20
1479.86822570728
 30
0.0
 11
1028.81570910734
 21
1482.86822570728
 31
0.0
  0
LINE
  5
E8
330
1F
100
AcDbEntity
  8
1
  6
Continuous
 62
     4
100
AcDbLine
 10
1022.81570910734
 20
1478.36822570728
 30
0.0
 11
1020.31570910734
 21
1478.36822570728
 31
0.0
  0
LINE
  5
E9
330
1F
100
AcDbEntity
  8
1
  6
Continuous
 62
     4
100
AcDbLine
 10
1022.81570910734
 20
1472.86822570728
 30
0.0
 11
1022.81570910734
 21
1478.36822570728
 31
0.0
  0
LINE
  5
EA
330
1F
100
AcDbEntity
  8
1
  6
Continuous
 62
     4
100
AcDbLine
 10
1018.56570910734
 20
1472.86822570728
 30
0.0
 11
1022.81570910734
 21
1472.86822570728
 31
0.0
  0
LINE
  5
EB
330
1F
100
AcDbEntity
  8
1
  6
Continuous
 62
     4
100
AcDbLine
 10
1017.81570910734
 20
1473.11822570728
 30
0.0
 11
1018.56570910734
 21
1472.86822570728
 31
0.0
  0
LINE
  5
EC
330
1F
100
AcDbEntity
  8
1
  6
Continuous
 62
     4
100
AcDbLine
 10
1016.81570910734
 20
1473.61822570728
 30
0.0
 11
1017.81570910734
 21
1473.11822570728
 31
0.0
  0
LINE
  5
ED
330
1F
100
AcDbEntity
  8
1
  6
Continuous
 62
     4
100
AcDbLine
 10
1016.31570910734
 20
1474.11822570728
 30
0.0
 11
1016.81570910734
 21
1473.61822570728
 31
0.0
  0
LINE
  5
EE
330
1F
100
AcDbEntity
  8
1
  6
Continuous
 62
     4
100
AcDbLine
 10
1016.06570910734
 20
1474.86822570728
 30
0.0
 11
1016.31570910734
 21
1474.11822570728
 31
0.0
  0
LINE
  5
EF
330
1F
100
AcDbEntity
  8
1
  6
Continuous
 62
     4
100
AcDbLine
 10
1015.81570910734
 20
1475.86822570728
 30
0.0
 11
1016.06570910734
 21
1474.86822570728
 31
0.0
  0
LINE
  5
F0
330
1F
100
AcDbEntity
  8
1
  6
Continuous
 62
     4
100
AcDbLine
 10
1015.81570910734
 20
1479.86822570728
 30
0.0
 11
1015.81570910734
 21
1475.86822570728
 31
0.0
  0
LINE
  5
F1
330
1F
100
AcDbEntity
  8
1
  6
Continuous
 62
     4
100
AcDbLine
 10
1016.06570910734
 20
1480.86822570728
 30
0.0
 11
1015.81570910734
 21
1479.86822570728
 31
0.0
  0
LINE
  5
F2
330
1F
100
AcDbEntity
  8
1
  6
Continuous
 62
     4
100
AcDbLine
 10
1016.31570910734
 20
1481.61822570728
 30
0.0
 11
1016.06570910734
 21
1480.86822570728
 31
0.0
  0
LINE
  5
F3
330
1F
100
AcDbEntity
  8
1
  6
Continuous
 62
     4
100
AcDbLine
 10
1016.81570910734
 20
1482.11822570728
 30
0.0
 11
1016.31570910734
 21
1481.61822570728
 31
0.0
  0
LINE
  5
F4
330
1F
100
AcDbEntity
  8
1
  6
Continuous
 62
     4
100
AcDbLine
 10
1017.56570910734
 20
1482.61822570728
 30
0.0
 11
1016.81570910734
 21
1482.11822570728
 31
0.0
  0
LINE
  5
F5
330
1F
100
AcDbEntity
  8
1
  6
Continuous
 62
     4
100
AcDbLine
 10
1018.56570910734
 20
1482.86822570728
 30
0.0
 11
1017.56570910734
 21
1482.61822570728
 31
0.0
  0
LINE
  5
F6
330
1F
100
AcDbEntity
  8
1
  6
Continuous
 62
     4
100
AcDbLine
 10
1022.81570910734
 20
1482.86822570728
 30
0.0
 11
1018.56570910734
 21
1482.86822570728
 31
0.0
  0
LINE
  5
F7
330
1F
100
AcDbEntity
  8
1
  6
Continuous
 62
     4
100
AcDbLine
 10
588.566678426738
 20
1485.07683288461
 30
0.0
 11
588.566678426738
 21
1475.07683288461
 31
0.0
  0
LINE
  5
F8
330
1F
100
AcDbEntity
  8
1
  6
Continuous
 62
     4
100
AcDbLine
 10
585.566678426738
 20
1482.07683288461
 30
0.0
 11
588.566678426738
 21
1485.07683288461
 31
0.0
  0
LINE
  5
F9
330
1F
100
AcDbEntity
  8
1
  6
Continuous
 62
     4
100
AcDbLine
 10
582.566678426738
 20
1480.57683288461
 30
0.0
 11
580.066678426738
 21
1480.57683288461
 31
0.0
  0
LINE
  5
FA
330
1F
100
AcDbEntity
  8
1
  6
Continuous
 62
     4
100
AcDbLine
 10
582.566678426738
 20
1475.07683288461
 30
0.0
 11
582.566678426738
 21
1480.57683288461
 31
0.0
  0
LINE
  5
FB
330
1F
100
AcDbEntity
  8
1
  6
Continuous
 62
     4
100
AcDbLine
 10
578.316678426738
 20
1475.07683288461
 30
0.0
 11
582.566678426738
 21
1475.07683288461
 31
0.0
  0
LINE
  5
FC
330
1F
100
AcDbEntity
  8
1
  6
Continuous
 62
     4
100
AcDbLine
 10
577.566678426738
 20
1475.32683288461
 30
0.0
 11
578.316678426738
 21
1475.07683288461
 31
0.0
  0
LINE
  5
FD
330
1F
100
AcDbEntity
  8
1
  6
Continuous
 62
     4
100
AcDbLine
 10
576.566678426738
 20
1475.82683288461
 30
0.0
 11
577.566678426738
 21
1475.32683288461
 31
0.0
  0
LINE
  5
FE
330
1F
100
AcDbEntity
  8
1
  6
Continuous
 62
     4
100
AcDbLine
 10
576.066678426738
 20
1476.32683288461
 30
0.0
 11
576.566678426738
 21
1475.82683288461
 31
0.0
  0
LINE
  5
FF
330
1F
100
AcDbEntity
  8
1
  6
Continuous
 62
     4
100
AcDbLine
 10
575.816678426738
 20
1477.07683288461
 30
0.0
 11
576.066678426738
 21
1476.32683288461
 31
0.0
  0
LINE
  5
100
330
1F
100
AcDbEntity
  8
1
  6
Continuous
 62
     4
100
AcDbLine
 10
575.566678426738
 20
1478.07683288461
 30
0.0
 11
575.816678426738
 21
1477.07683288461
 31
0.0
  0
LINE
  5
101
330
1F
100
AcDbEntity
  8
1
  6
Continuous
 62
     4
100
AcDbLine
 10
575.566678426738
 20
1482.07683288461
 30
0.0
 11
575.566678426738
 21
1478.07683288461
 31
0.0
  0
LINE
  5
102
330
1F
100
AcDbEntity
  8
1
  6
Continuous
 62
     4
100
AcDbLine
 10
575.816678426738
 20
1483.07683288461
 30
0.0
 11
575.566678426738
 21
1482.07683288461
 31
0.0
  0
LINE
  5
103
330
1F
100
AcDbEntity
  8
1
  6
Continuous
 62
     4
100
AcDbLine
 10
576.066678426738
 20
1483.82683288461
 30
0.0
 11
575.816678426738
 21
1483.07683288461
 31
0.0
  0
LINE
  5
104
330
1F
100
AcDbEntity
  8
1
  6
Continuous
 62
     4
100
AcDbLine
 10
576.566678426738
 20
1484.32683288461
 30
0.0
 11
576.066678426738
 21
1483.82683288461
 31
0.0
  0
LINE
  5
105
330
1F
100
AcDbEntity
  8
1
  6
Continuous
 62
     4
100
AcDbLine
 10
577.316678426738
 20
1484.82683288461
 30
0.0
 11
576.566678426738
 21
1484.32683288461
 31
0.0
  0
LINE
  5
106
330
1F
100
AcDbEntity
  8
1
  6
Continuous
 62
     4
100
AcDbLine
 10
578.316678426738
 20
1485.07683288461
 30
0.0
 11
577.316678426738
 21
1484.82683288461
 31
0.0
  0
LINE
  5
107
330
1F
100
AcDbEntity
  8
1
  6
Continuous
 62
     4
100
AcDbLine
 10
582.566678426738
 20
1485.07683288461
 30
0.0
 11
578.316678426738
 21
1485.07683288461
 31
0.0
  0
LINE
  5
135
330
1F
100
AcDbEntity
  8
1
  6
Continuous
 62
     4
100
AcDbLine
 10
987.311522084251
 20
1499.94369820026
 30
0.0
 11
988.675682011706
 21
1497.15349415399
 31
0.0
  0
LINE
  5
136
330
1F
100
AcDbEntity
  8
1
  6
Continuous
 62
     4
100
AcDbLine
 10
987.311522084251
 20
1499.94369820026
 30
0.0
 11
989.888021259389
 21
1498.20939057817
 31
0.0
  0
LINE
  5
137
330
1F
100
AcDbEntity
  8
1
  6
Continuous
 62
     4
100
AcDbLine
 10
611.780234896031
 20
1499.94369820026
 30
0.0
 11
609.285839239551
 21
1498.0932492719
 31
0.0
  0
LINE
  5
138
330
1F
100
AcDbEntity
  8
1
  6
Continuous
 62
     4
100
AcDbLine
 10
611.780234896031
 20
1499.94369820026
 30
0.0
 11
610.545249354607
 21
1497.09396459166
 31
0.0
  0
LINE
  5
139
330
1F
100
AcDbEntity
  8
2
  6
DOT_CENTER
 62
     1
100
AcDbLine
 10
600.031495534075
 20
1516.3936948392
 30
0.0
 11
1000.03148801407
 21
1516.39368469504
 31
0.0
  0
LINE
  5
13A
330
1F
100
AcDbEntity
  8
1
  6
Continuous
 62
     3
100
AcDbLine
 10
623.628914397369
 20
1367.89370282297
 30
0.0
 11
660.198644922366
 21
1367.8937056012
 31
0.0
  0
LINE
  5
13B
330
1F
100
AcDbEntity
  8
0
  6
Continuous
 62
     3
100
AcDbLine
 10
660.5226915629
 20
1513.39369381531
 30
0.0
 11
660.5226915629
 21
1493.89369394526
 31
0.0
  0
LINE
  5
13C
330
1F
100
AcDbEntity
  8
1
  6
Continuous
 62
     3
100
AcDbLine
 10
660.5226915629
 20
1493.89369394526
 30
0.0
 11
617.628914510169
 21
1493.89369534082
 31
0.0
  0
LINE
  5
13D
330
1F
100
AcDbEntity
  8
0
  6
Continuous
 62
     3
100
AcDbLine
 10
660.5226915629
 20
1503.39369411017
 30
0.0
 11
680.628913325769
 21
1503.39369411017
 31
0.0
  0
LINE
  5
13E
330
1F
100
AcDbEntity
  8
0
  6
Continuous
 62
     3
100
AcDbLine
 10
632.628914040169
 20
1371.89370163451
 30
0.0
 11
632.628914040169
 21
1367.89370350671
 31
0.0
  0
LINE
  5
13F
330
1F
100
AcDbEntity
  8
0
  6
Continuous
 62
     3
100
AcDbLine
 10
652.628914611387
 20
1371.89370163451
 30
0.0
 11
652.628913361748
 21
1367.89370335341
 31
0.0
  0
LINE
  5
140
330
1F
100
AcDbEntity
  8
0
  6
Continuous
 62
     3
100
AcDbLine
 10
660.696518943357
 20
1358.39370335341
 30
0.0
 11
680.628909957369
 21
1358.39370335341
 31
0.0
  0
LINE
  5
141
330
1F
100
AcDbEntity
  8
0
  6
Continuous
 62
     3
100
AcDbLine
 10
665.128914040169
 20
1332.39370335314
 30
0.0
 11
680.628909957369
 21
1332.39370335345
 31
0.0
  0
LINE
  5
142
330
1F
100
AcDbEntity
  8
0
  6
Continuous
 62
     3
100
AcDbLine
 10
665.128914040169
 20
1332.39370335314
 30
0.0
 11
665.128914040169
 21
1322.64370335341
 31
0.0
  0
LINE
  5
143
330
1F
100
AcDbEntity
  8
0
  6
Continuous
 62
     3
100
AcDbLine
 10
669.491546665451
 20
1322.64370335341
 30
0.0
 11
665.128914040169
 21
1322.64370335341
 31
0.0
  0
LINE
  5
144
330
1F
100
AcDbEntity
  8
0
  6
Continuous
 62
     3
100
AcDbLine
 10
660.5226915629
 20
1529.39369411017
 30
0.0
 11
680.628913325769
 21
1529.39369411017
 31
0.0
  0
LINE
  5
145
330
1F
100
AcDbEntity
  8
0
  6
Continuous
 62
     3
100
AcDbLine
 10
660.5226915629
 20
1538.89369412027
 30
0.0
 11
660.5226915629
 21
1519.39369370251
 31
0.0
  0
LINE
  5
146
330
1F
100
AcDbEntity
  8
100
  6
Continuous
 62
     3
100
AcDbLine
 10
617.628914510169
 20
1343.39370339101
 30
0.0
 11
621.128914444369
 21
1343.39370339101
 31
0.0
  0
LINE
  5
147
330
1F
100
AcDbEntity
  8
100
  6
Continuous
 62
     3
100
AcDbLine
 10
617.628914510169
 20
1347.39370331581
 30
0.0
 11
621.128914444369
 21
1347.39370331581
 31
0.0
  0
LINE
  5
148
330
1F
100
AcDbEntity
  8
100
  6
Continuous
 62
     3
100
AcDbLine
 10
617.628914510169
 20
1513.39369381531
 30
0.0
 11
617.628914510169
 21
1493.89369534082
 31
0.0
  0
LINE
  5
149
330
1F
100
AcDbEntity
  8
100
  6
Continuous
 62
     3
100
AcDbLine
 10
621.128914444369
 20
1367.64370293511
 30
0.0
 11
621.128914444369
 21
1323.14370377171
 31
0.0
  0
LINE
  5
14A
330
1F
100
AcDbEntity
  8
100
  6
Continuous
 62
     3
100
AcDbLine
 10
617.628914510169
 20
1343.39370339101
 30
0.0
 11
617.628914510169
 21
1323.14370377171
 31
0.0
  0
LINE
  5
14B
330
1F
100
AcDbEntity
  8
100
  6
Continuous
 62
     3
100
AcDbLine
 10
617.628914510169
 20
1367.64370293511
 30
0.0
 11
617.628914510169
 21
1347.39370331581
 31
0.0
  0
LINE
  5
14C
330
1F
100
AcDbEntity
  8
100
  6
Continuous
 62
     3
100
AcDbLine
 10
617.628914510169
 20
1323.14370377171
 30
0.0
 11
621.128914444369
 21
1323.14370377171
 31
0.0
  0
LINE
  5
14D
330
1F
100
AcDbEntity
  8
100
  6
Continuous
 62
     3
100
AcDbLine
 10
617.628914510169
 20
1367.64370293511
 30
0.0
 11
623.628914397369
 21
1367.64370293511
 31
0.0
  0
LINE
  5
14E
330
1F
100
AcDbEntity
  8
2
  6
DOT_CENTER
 62
     1
100
AcDbLine
 10
606.03149516
 20
1345.39370335341
 30
0.0
 11
946.031488768
 21
1345.39370335341
 31
0.0
  0
LINE
  5
14F
330
1F
100
AcDbEntity
  8
100
  6
Continuous
 62
     3
100
AcDbLine
 10
636.128914162371
 20
1398.64370662471
 30
0.0
 11
636.12891416237
 21
1395.89371216961
 31
0.0
  0
LINE
  5
150
330
1F
100
AcDbEntity
  8
100
  6
Continuous
 62
     3
100
AcDbLine
 10
612.308540411586
 20
1415.64370630511
 30
0.0
 11
672.94928766875
 21
1415.64370630511
 31
0.0
  0
LINE
  5
151
330
1F
100
AcDbEntity
  8
100
  6
Continuous
 62
     3
100
AcDbLine
 10
672.94928766875
 20
1398.64370662471
 30
0.0
 11
612.308540411586
 21
1398.64370662471
 31
0.0
  0
LINE
  5
152
330
1F
100
AcDbEntity
  8
1
  6
Continuous
 62
     3
100
AcDbLine
 10
633.3134142153
 20
1386.89371233881
 30
0.0
 11
632.378914232869
 21
1385.27511088957
 31
0.0
  0
LINE
  5
153
330
1F
100
AcDbEntity
  8
100
  6
Continuous
 62
     3
100
AcDbLine
 10
632.378914232869
 20
1382.94611184143
 30
0.0
 11
632.378914232869
 21
1389.21531445447
 31
0.0
  0
LINE
  5
154
330
1F
100
AcDbEntity
  8
100
  6
Continuous
 62
     3
100
AcDbLine
 10
652.878913847469
 20
1386.89371233881
 30
0.0
 11
632.378914232869
 21
1386.89371233881
 31
0.0
  0
LINE
  5
155
330
1F
100
AcDbEntity
  8
100
  6
Continuous
 62
     3
100
AcDbLine
 10
632.378914232869
 20
1389.21531445447
 30
0.0
 11
632.676578270972
 21
1394.89508265359
 31
0.0
  0
LINE
  5
156
330
1F
100
AcDbEntity
  8
1
  6
Continuous
 62
     3
100
AcDbLine
 10
633.3134142153
 20
1386.89371233881
 30
0.0
 11
633.3134142153
 21
1395.49941739952
 31
0.0
  0
LINE
  5
157
330
1F
100
AcDbEntity
  8
100
  6
Continuous
 62
     3
100
AcDbLine
 10
632.676578270972
 20
1394.89508265359
 30
0.0
 11
633.728914207489
 21
1395.89371216961
 31
0.0
  0
LINE
  5
158
330
1F
100
AcDbEntity
  8
100
  6
Continuous
 62
     3
100
AcDbLine
 10
610.267672361499
 20
1519.39369370251
 30
0.0
 11
633.615036442418
 21
1519.39369370251
 31
0.0
  0
LINE
  5
159
330
1F
100
AcDbEntity
  8
100
  6
Continuous
 62
     3
100
AcDbLine
 10
633.615036442418
 20
1513.39369381531
 30
0.0
 11
610.267672426626
 21
1513.39369381531
 31
0.0
  0
LINE
  5
15A
330
1F
100
AcDbEntity
  8
100
  6
Continuous
 62
     3
100
AcDbLine
 10
674.990155741022
 20
1513.39369381531
 30
0.0
 11
651.642791637919
 21
1513.39369381531
 31
0.0
  0
LINE
  5
15B
330
1F
100
AcDbEntity
  8
100
  6
Continuous
 62
     3
100
AcDbLine
 10
651.642791637919
 20
1519.39369370251
 30
0.0
 11
674.990155665841
 21
1519.39369370251
 31
0.0
  0
LINE
  5
15C
330
1F
100
AcDbEntity
  8
100
  6
Continuous
 62
     3
100
AcDbLine
 10
623.628914397369
 20
1367.89370282297
 30
0.0
 11
623.628914397369
 21
1367.64370293511
 31
0.0
  0
LINE
  5
15D
330
1F
100
AcDbEntity
  8
100
  6
Continuous
 62
     3
100
AcDbLine
 10
629.128911078702
 20
1371.89370163451
 30
0.0
 11
656.128910571103
 21
1371.89370163451
 31
0.0
  0
LINE
  5
15E
330
1F
100
AcDbEntity
  8
100
  6
Continuous
 62
     3
100
AcDbLine
 10
629.128911078702
 20
1371.89370163451
 30
0.0
 11
629.128911078702
 21
1382.94611184143
 31
0.0
  0
LINE
  5
15F
330
1F
100
AcDbEntity
  8
100
  6
Continuous
 62
     3
100
AcDbLine
 10
656.128910571103
 20
1371.89370163451
 30
0.0
 11
656.128910571103
 21
1382.94611184143
 31
0.0
  0
LINE
  5
160
330
1F
100
AcDbEntity
  8
100
  6
Continuous
 62
     3
100
AcDbLine
 10
633.728914207489
 20
1395.89371216961
 30
0.0
 11
651.528913872849
 21
1395.89371216961
 31
0.0
  0
LINE
  5
161
330
1F
100
AcDbEntity
  8
2
  6
DOT_CENTER
 62
     1
100
AcDbLine
 10
642.628914040169
 20
1310.39368941384
 30
0.0
 11
642.628914040169
 21
1419.3936975088
 31
0.0
  0
LINE
  5
162
330
1F
100
AcDbEntity
  8
100
  6
Continuous
 62
     3
100
AcDbLine
 10
654.042842588458
 20
1484.84197320626
 30
0.0
 11
637.019032940532
 21
1493.89369446645
 31
0.0
  0
LINE
  5
163
330
1F
100
AcDbEntity
  8
100
  6
Continuous
 62
     3
100
AcDbLine
 10
640.330318040959
 20
1538.89369408006
 30
0.0
 11
634.870010058658
 21
1547.29860627004
 31
0.0
  0
LINE
  5
164
330
1F
100
AcDbEntity
  8
100
  6
Continuous
 62
     3
100
AcDbLine
 10
656.63744360215
 20
1551.15503628957
 30
0.0
 11
647.39785855608
 21
1538.89369409413
 31
0.0
  0
LINE
  5
165
330
1F
100
AcDbEntity
  8
100
  6
Continuous
 62
     3
100
AcDbLine
 10
667.870349746766
 20
1547.7207916162
 30
0.0
 11
668.830831295644
 21
1529.39369411017
 31
0.0
  0
LINE
  5
166
330
1F
100
AcDbEntity
  8
100
  6
Continuous
 62
     3
100
AcDbLine
 10
668.830830153018
 20
1503.39369411017
 30
0.0
 11
667.870346568894
 21
1485.0665933411
 31
0.0
  0
LINE
  5
167
330
1F
100
AcDbEntity
  8
100
  6
Continuous
 62
     3
100
AcDbLine
 10
622.719081340332
 20
1538.89369404499
 30
0.0
 11
623.425368971581
 21
1544.65429023003
 31
0.0
  0
LINE
  5
168
330
1F
100
AcDbEntity
  8
100
  6
Continuous
 62
     3
100
AcDbLine
 10
669.491546665451
 20
1322.64370335341
 30
0.0
 11
669.491546665451
 21
1312.3936921962
 31
0.0
  0
LINE
  5
169
330
1F
100
AcDbEntity
  8
100
  6
Continuous
 62
     3
100
AcDbLine
 10
620.17243459295
 20
1314.89370392681
 30
0.0
 11
669.448026537269
 21
1314.89370392681
 31
0.0
  0
LINE
  5
16A
330
1F
100
AcDbEntity
  8
2
  6
DOT_CENTER
 62
     1
100
AcDbLine
 10
600.031495534075
 20
1295.39369984
 30
0.0
 11
1000.03148801407
 21
1295.39368969584
 31
0.0
  0
LINE
  5
16B
330
1F
100
AcDbEntity
  8
100
  6
Continuous
 62
     3
100
AcDbLine
 10
928.154512086987
 20
1541.39365007098
 30
0.0
 11
928.102130525553
 21
1539.89364485703
 31
0.0
  0
LINE
  5
16C
330
1F
100
AcDbEntity
  8
100
  6
Continuous
 62
     3
100
AcDbLine
 10
929.86104941101
 20
1541.39364981531
 30
0.0
 11
928.154512086987
 21
1541.39365007098
 31
0.0
  0
LINE
  5
16D
330
1F
100
AcDbEntity
  8
100
  6
Continuous
 62
     3
100
AcDbLine
 10
978.0314957404
 20
1531.39367819704
 30
0.0
 11
981.031478295
 21
1531.39367819704
 31
0.0
  0
LINE
  5
16E
330
1F
100
AcDbEntity
  8
100
  6
Continuous
 62
     3
100
AcDbLine
 10
978.0314957404
 20
1501.39369707164
 30
0.0
 11
981.031478295
 21
1501.39369707164
 31
0.0
  0
LINE
  5
16F
330
1F
100
AcDbEntity
  8
100
  6
Continuous
 62
     3
100
AcDbLine
 10
978.0314881664
 20
1498.39388567763
 30
0.0
 11
978.0314881664
 21
1534.39341295624
 31
0.0
  0
LINE
  5
170
330
1F
100
AcDbEntity
  8
100
  6
Continuous
 62
     3
100
AcDbLine
 10
974.618406839946
 20
1487.9764198768
 30
0.0
 11
977.766837310176
 21
1513.65553893192
 31
0.0
  0
LINE
  5
171
330
1F
100
AcDbEntity
  8
100
  6
Continuous
 62
     3
100
AcDbLine
 10
971.320820070361
 20
1483.89368519364
 30
0.0
 11
974.20757136209
 21
1488.89368509964
 31
0.0
  0
LINE
  5
172
330
1F
100
AcDbEntity
  8
100
  6
Continuous
 62
     3
100
AcDbLine
 10
965.547317487102
 20
1493.89368500564
 30
0.0
 11
962.660566195373
 21
1488.89368509964
 31
0.0
  0
LINE
  5
173
330
1F
100
AcDbEntity
  8
100
  6
Continuous
 62
     3
100
AcDbLine
 10
950.832976964532
 20
1513.50693329091
 30
0.0
 11
950.832976964532
 21
1519.28043587437
 31
0.0
  0
LINE
  5
174
330
1F
100
AcDbEntity
  8
100
  6
Continuous
 62
     3
100
AcDbLine
 10
942.20757196369
 20
1547.39368399984
 30
0.0
 11
939.320820671961
 21
1552.39368390584
 31
0.0
  0
LINE
  5
175
330
1F
100
AcDbEntity
  8
100
  6
Continuous
 62
     3
100
AcDbLine
 10
974.20757136209
 20
1488.89368509964
 30
0.0
 11
971.320820070361
 21
1493.89368500564
 31
0.0
  0
LINE
  5
176
330
1F
100
AcDbEntity
  8
100
  6
Continuous
 62
     3
100
AcDbLine
 10
940.832977152532
 20
1519.28043587437
 30
0.0
 11
940.832977152532
 21
1513.50693329091
 31
0.0
  0
LINE
  5
177
330
1F
100
AcDbEntity
  8
100
  6
Continuous
 62
     3
100
AcDbLine
 10
930.660566796973
 20
1547.39368399984
 30
0.0
 11
933.547318088702
 21
1542.39368409384
 31
0.0
  0
LINE
  5
178
330
1F
100
AcDbEntity
  8
100
  6
Continuous
 62
     3
100
AcDbLine
 10
962.660566195373
 20
1488.89368509964
 30
0.0
 11
965.547317487102
 21
1483.89368519364
 31
0.0
  0
LINE
  5
179
330
1F
100
AcDbEntity
  8
100
  6
Continuous
 62
     3
100
AcDbLine
 10
948.584991241594
 20
1541.65411675254
 30
0.0
 11
941.42554122435
 21
1551.15502782384
 31
0.0
  0
LINE
  5
17A
330
1F
100
AcDbEntity
  8
100
  6
Continuous
 62
     3
100
AcDbLine
 10
954.284945363035
 20
1530.99074399921
 30
0.0
 11
954.286101608813
 21
1530.98941097004
 31
0.0
  0
LINE
  5
17B
330
1F
100
AcDbEntity
  8
100
  6
Continuous
 62
     3
100
AcDbLine
 10
954.286099272413
 20
1501.79795550124
 30
0.0
 11
954.284945363035
 21
1501.79662516606
 31
0.0
  0
LINE
  5
17C
330
1F
100
AcDbEntity
  8
100
  6
Continuous
 62
     3
100
AcDbLine
 10
941.379241559641
 20
1481.57089961147
 30
0.0
 11
948.744619215734
 21
1491.3450858892
 31
0.0
  0
LINE
  5
17D
330
1F
100
AcDbEntity
  8
100
  6
Continuous
 62
     3
100
AcDbLine
 10
939.320820671961
 20
1480.39368525944
 30
0.0
 11
942.20757196369
 21
1485.39368516544
 31
0.0
  0
LINE
  5
17E
330
1F
100
AcDbEntity
  8
100
  6
Continuous
 62
     3
100
AcDbLine
 10
933.547318088702
 20
1490.39368507144
 30
0.0
 11
930.660566796973
 21
1485.39368516544
 31
0.0
  0
LINE
  5
17F
330
1F
100
AcDbEntity
  8
100
  6
Continuous
 62
     3
100
AcDbLine
 10
930.19263490537
 20
1547.72078372029
 30
0.0
 11
929.78243399825
 21
1539.89368414084
 31
0.0
  0
LINE
  5
180
330
1F
100
AcDbEntity
  8
100
  6
Continuous
 62
     3
100
AcDbLine
 10
928.154508341582
 20
1491.39368505264
 30
0.0
 11
928.102127004872
 21
1492.89369027444
 31
0.0
  0
LINE
  5
181
330
1F
100
AcDbEntity
  8
100
  6
Continuous
 62
     3
100
AcDbLine
 10
929.782433998134
 20
1492.89368502444
 30
0.0
 11
930.192634905455
 21
1485.06658544497
 31
0.0
  0
LINE
  5
182
330
1F
100
AcDbEntity
  8
100
  6
Continuous
 62
     3
100
AcDbLine
 10
942.20757196369
 20
1485.39368516544
 30
0.0
 11
939.320820671961
 21
1490.39368507144
 31
0.0
  0
LINE
  5
183
330
1F
100
AcDbEntity
  8
100
  6
Continuous
 62
     3
100
AcDbLine
 10
959.634820491057
 20
1490.96574727808
 30
0.0
 11
963.192974572164
 21
1485.48877246505
 31
0.0
  0
LINE
  5
184
330
1F
100
AcDbEntity
  8
100
  6
Continuous
 62
     3
100
AcDbLine
 10
922.832977490932
 20
1491.39368505264
 30
0.0
 11
922.832977490932
 21
1541.39368411264
 31
0.0
  0
LINE
  5
185
330
1F
100
AcDbEntity
  8
100
  6
Continuous
 62
     3
100
AcDbLine
 10
921.332977519132
 20
1486.89368513724
 30
0.0
 11
921.332977519132
 21
1545.89368402804
 31
0.0
  0
LINE
  5
186
330
1F
100
AcDbEntity
  8
100
  6
Continuous
 62
     3
100
AcDbLine
 10
920.178277002441
 20
1525.68077221864
 30
0.0
 11
920.178277002441
 21
1535.99885161486
 31
0.0
  0
LINE
  5
187
330
1F
100
AcDbEntity
  8
100
  6
Continuous
 62
     3
100
AcDbLine
 10
920.178277002441
 20
1496.78851755062
 30
0.0
 11
920.178277002441
 21
1507.10659694683
 31
0.0
  0
LINE
  5
188
330
1F
100
AcDbEntity
  8
100
  6
Continuous
 62
     3
100
AcDbLine
 10
910.487678261424
 20
1525.68077221864
 30
0.0
 11
910.487678261424
 21
1535.99885161486
 31
0.0
  0
LINE
  5
189
330
1F
100
AcDbEntity
  8
100
  6
Continuous
 62
     3
100
AcDbLine
 10
910.487678261424
 20
1496.78851755062
 30
0.0
 11
910.487678261424
 21
1507.10659694683
 31
0.0
  0
LINE
  5
18A
330
1F
100
AcDbEntity
  8
100
  6
Continuous
 62
     3
100
AcDbLine
 10
930.660566796973
 20
1485.39368516544
 30
0.0
 11
933.547318088702
 21
1480.39368525944
 31
0.0
  0
LINE
  5
18B
330
1F
100
AcDbEntity
  8
100
  6
Continuous
 62
     3
100
AcDbLine
 10
922.832977490932
 20
1541.39368411264
 30
0.0
 11
924.332977462734
 21
1539.89368414084
 31
0.0
  0
LINE
  5
18C
330
1F
100
AcDbEntity
  8
100
  6
Continuous
 62
     3
100
AcDbLine
 10
948.530117235826
 20
1535.79599149447
 30
0.0
 11
948.530620355416
 21
1535.79568953168
 31
0.0
  0
LINE
  5
18D
330
1F
100
AcDbEntity
  8
100
  6
Continuous
 62
     3
100
AcDbLine
 10
965.997270796443
 20
1536.25993751495
 30
0.0
 11
943.726319689123
 21
1548.10179167638
 31
0.0
  0
LINE
  5
18E
330
1F
100
AcDbEntity
  8
100
  6
Continuous
 62
     3
100
AcDbLine
 10
922.832977490932
 20
1491.39368505264
 30
0.0
 11
924.332977462447
 21
1492.89368502444
 31
0.0
  0
LINE
  5
18F
330
1F
100
AcDbEntity
  8
100
  6
Continuous
 62
     3
100
AcDbLine
 10
939.320820671961
 20
1542.39368409384
 30
0.0
 11
942.20757196369
 21
1547.39368399984
 31
0.0
  0
LINE
  5
190
330
1F
100
AcDbEntity
  8
100
  6
Continuous
 62
     3
100
AcDbLine
 10
909.332977744732
 20
1486.89368513724
 30
0.0
 11
909.332977744732
 21
1545.89368402804
 31
0.0
  0
LINE
  5
191
330
1F
100
AcDbEntity
  8
100
  6
Continuous
 62
     3
100
AcDbLine
 10
904.332977838732
 20
1497.74368493326
 30
0.0
 11
904.332977838732
 21
1535.04368423202
 31
0.0
  0
LINE
  5
192
330
1F
100
AcDbEntity
  8
100
  6
Continuous
 62
     3
100
AcDbLine
 10
948.530620355216
 20
1496.9916796336
 30
0.0
 11
948.530117235826
 21
1496.9913776708
 31
0.0
  0
LINE
  5
193
330
1F
100
AcDbEntity
  8
100
  6
Continuous
 62
     3
100
AcDbLine
 10
933.547318088702
 20
1552.39368390584
 30
0.0
 11
930.660566796973
 21
1547.39368399984
 31
0.0
  0
LINE
  5
194
330
1F
100
AcDbEntity
  8
100
  6
Continuous
 62
     3
100
AcDbLine
 10
891.582978078432
 20
1503.39368482704
 30
0.0
 11
891.582978078432
 21
1529.39368433824
 31
0.0
  0
LINE
  5
195
330
1F
100
AcDbEntity
  8
100
  6
Continuous
 62
     3
100
AcDbLine
 10
891.582978078432
 20
1529.39368433824
 30
0.0
 11
890.332978101932
 21
1530.64368431474
 31
0.0
  0
LINE
  5
196
330
1F
100
AcDbEntity
  8
100
  6
Continuous
 62
     3
100
AcDbLine
 10
950.832976964532
 20
1519.28043587437
 30
0.0
 11
945.832977058532
 21
1522.1671871661
 31
0.0
  0
LINE
  5
197
330
1F
100
AcDbEntity
  8
100
  6
Continuous
 62
     3
100
AcDbLine
 10
940.832977152532
 20
1513.50693329091
 30
0.0
 11
945.832977058532
 21
1510.62018199938
 31
0.0
  0
LINE
  5
198
330
1F
100
AcDbEntity
  8
100
  6
Continuous
 62
     3
100
AcDbLine
 10
945.832977058532
 20
1510.62018199938
 30
0.0
 11
950.832976964532
 21
1513.50693329091
 31
0.0
  0
LINE
  5
199
330
1F
100
AcDbEntity
  8
100
  6
Continuous
 62
     3
100
AcDbLine
 10
891.582978078432
 20
1503.39368482704
 30
0.0
 11
890.332978101932
 21
1502.14368485054
 31
0.0
  0
LINE
  5
19A
330
1F
100
AcDbEntity
  8
100
  6
Continuous
 62
     3
100
AcDbLine
 10
945.832977058532
 20
1522.1671871661
 30
0.0
 11
940.832977152532
 21
1519.28043587437
 31
0.0
  0
LINE
  5
19B
330
1F
100
AcDbEntity
  8
100
  6
Continuous
 62
     3
100
AcDbLine
 10
868.332978515532
 20
1494.4543747659
 30
0.0
 11
868.332978515532
 21
1538.33299439938
 31
0.0
  0
LINE
  5
19C
330
1F
100
AcDbEntity
  8
100
  6
Continuous
 62
     3
100
AcDbLine
 10
868.332978515532
 20
1497.39368493984
 30
0.0
 11
868.332978515532
 21
1499.54368489942
 31
0.0
  0
LINE
  5
19D
330
1F
100
AcDbEntity
  8
4
  6
PHANTOM
 62
     6
100
AcDbLine
 10
865.128909857169
 20
1532.99368427056
 30
0.0
 11
865.128909857169
 21
1499.79368489472
 31
0.0
  0
LINE
  5
19E
330
1F
100
AcDbEntity
  8
4
  6
PHANTOM
 62
     6
100
AcDbLine
 10
818.652543984524
 20
1546.27387427609
 30
0.0
 11
865.128909857169
 21
1532.99368427056
 31
0.0
  0
LINE
  5
19F
330
1F
100
AcDbEntity
  8
100
  6
Continuous
 62
     3
100
AcDbLine
 10
938.778048180546
 20
1539.49802496735
 30
0.0
 11
933.790729804523
 21
1539.89368414084
 31
0.0
  0
LINE
  5
1A0
330
1F
100
AcDbEntity
  8
100
  6
Continuous
 62
     3
100
AcDbLine
 10
939.320820671961
 20
1552.39368390584
 30
0.0
 11
933.547318088702
 21
1552.39368390584
 31
0.0
  0
LINE
  5
1A1
330
1F
100
AcDbEntity
  8
100
  6
Continuous
 62
     3
100
AcDbLine
 10
921.332977519132
 20
1545.89368402804
 30
0.0
 11
909.332977744732
 21
1545.89368402804
 31
0.0
  0
LINE
  5
1A2
330
1F
100
AcDbEntity
  8
100
  6
Continuous
 62
     3
100
AcDbLine
 10
933.547318088702
 20
1542.39368409384
 30
0.0
 11
939.320820671961
 21
1542.39368409384
 31
0.0
  0
LINE
  5
1A3
330
1F
100
AcDbEntity
  8
100
  6
Continuous
 62
     3
100
AcDbLine
 10
668.201937397596
 20
1541.39368411264
 30
0.0
 11
669.908474676984
 21
1541.39368411264
 31
0.0
  0
LINE
  5
1A4
330
1F
100
AcDbEntity
  8
100
  6
Continuous
 62
     3
100
AcDbLine
 10
922.832977490932
 20
1541.39368411264
 30
0.0
 11
921.332977519132
 21
1541.39368411264
 31
0.0
  0
LINE
  5
1A5
330
1F
100
AcDbEntity
  8
4
  6
PHANTOM
 62
     6
100
AcDbLine
 10
818.652543984524
 20
1486.51349488919
 30
0.0
 11
865.128909857169
 21
1499.79368489472
 31
0.0
  0
LINE
  5
1A6
330
1F
100
AcDbEntity
  8
1
  6
Continuous
 62
     3
100
AcDbLine
 10
923.644977475667
 20
1540.5816841279
 30
0.0
 11
921.332977519132
 21
1540.5816841279
 31
0.0
  0
LINE
  5
1A7
330
1F
100
AcDbEntity
  8
100
  6
Continuous
 62
     3
100
AcDbLine
 10
924.332977462734
 20
1539.89368414084
 30
0.0
 11
933.790729804523
 21
1539.89368414084
 31
0.0
  0
LINE
  5
1A8
330
1F
100
AcDbEntity
  8
100
  6
Continuous
 62
     3
100
AcDbLine
 10
626.742164641466
 20
1548.8936939537
 30
0.0
 11
632.515667224724
 21
1548.89369366086
 31
0.0
  0
LINE
  5
1A9
330
1F
100
AcDbEntity
  8
100
  6
Continuous
 62
     3
100
AcDbLine
 10
920.178277002441
 20
1535.99885161486
 30
0.0
 11
910.487678261424
 21
1535.99885161486
 31
0.0
  0
LINE
  5
1AA
330
1F
100
AcDbEntity
  8
100
  6
Continuous
 62
     3
100
AcDbLine
 10
702.628912912169
 20
1535.39368422544
 30
0.0
 11
680.628913325769
 21
1535.39368422544
 31
0.0
  0
LINE
  5
1AB
330
1F
100
AcDbEntity
  8
100
  6
Continuous
 62
     3
100
AcDbLine
 10
909.332977744732
 20
1535.04368423202
 30
0.0
 11
904.332977838732
 21
1535.04368423202
 31
0.0
  0
LINE
  5
1AC
330
1F
100
AcDbEntity
  8
100
  6
Continuous
 62
     3
100
AcDbLine
 10
968.934068769385
 20
1534.39368424424
 30
0.0
 11
978.0314881664
 21
1534.39368424424
 31
0.0
  0
LINE
  5
1AD
330
1F
100
AcDbEntity
  8
100
  6
Continuous
 62
     3
100
AcDbLine
 10
674.0314938816
 20
1533.39368426304
 30
0.0
 11
670.1878411998
 21
1533.39368426304
 31
0.0
  0
LINE
  5
1AE
330
1F
100
AcDbEntity
  8
4
  6
PHANTOM
 62
     6
100
AcDbLine
 10
865.128909857169
 20
1532.99368427056
 30
0.0
 11
868.332978515532
 21
1532.99368427056
 31
0.0
  0
LINE
  5
1AF
330
1F
100
AcDbEntity
  8
4
  6
PHANTOM
 62
     6
100
AcDbLine
 10
702.628912912169
 20
1532.99368427056
 30
0.0
 11
705.128912865169
 21
1532.99368427056
 31
0.0
  0
LINE
  5
1B0
330
1F
100
AcDbEntity
  8
100
  6
Continuous
 62
     3
100
AcDbLine
 10
680.628913325769
 20
1529.99368432696
 30
0.0
 11
674.0314938816
 21
1529.99368432696
 31
0.0
  0
LINE
  5
1B1
330
1F
100
AcDbEntity
  8
100
  6
Continuous
 62
     3
100
AcDbLine
 10
868.332978515532
 20
1529.99368432696
 30
0.0
 11
702.628912912169
 21
1529.99368432696
 31
0.0
  0
LINE
  5
1B2
330
1F
100
AcDbEntity
  8
100
  6
Continuous
 62
     3
100
AcDbLine
 10
904.332977838732
 20
1529.99368432696
 30
0.0
 11
890.982978089712
 21
1529.99368432696
 31
0.0
  0
LINE
  5
1B3
330
1F
100
AcDbEntity
  8
100
  6
Continuous
 62
     3
100
AcDbLine
 10
904.332977838732
 20
1529.39368433824
 30
0.0
 11
891.582978078432
 21
1529.39368433824
 31
0.0
  0
LINE
  5
1B4
330
1F
100
AcDbEntity
  8
100
  6
Continuous
 62
     3
100
AcDbLine
 10
682.325927581065
 20
1356.36336364757
 30
0.0
 11
700.931904127072
 21
1356.36336364757
 31
0.0
  0
LINE
  5
1B5
330
1F
100
AcDbEntity
  8
100
  6
Continuous
 62
     3
100
AcDbLine
 10
920.178277002441
 20
1525.68077221864
 30
0.0
 11
910.487678261424
 21
1525.68077221864
 31
0.0
  0
LINE
  5
1B6
330
1F
100
AcDbEntity
  8
100
  6
Continuous
 62
     3
100
AcDbLine
 10
700.931901392072
 20
1516.39368458264
 30
0.0
 11
682.325924846065
 21
1516.39368458264
 31
0.0
  0
LINE
  5
1B7
330
1F
100
AcDbEntity
  8
100
  6
Continuous
 62
     3
100
AcDbLine
 10
920.178277002441
 20
1507.10659694683
 30
0.0
 11
910.487678261424
 21
1507.10659694683
 31
0.0
  0
LINE
  5
1B8
330
1F
100
AcDbEntity
  8
100
  6
Continuous
 62
     3
100
AcDbLine
 10
870.029990035628
 20
1505.42402967427
 30
0.0
 11
888.635966581636
 21
1505.42402967427
 31
0.0
  0
LINE
  5
1B9
330
1F
100
AcDbEntity
  8
100
  6
Continuous
 62
     3
100
AcDbLine
 10
904.332977838732
 20
1503.39368482704
 30
0.0
 11
891.582978078432
 21
1503.39368482704
 31
0.0
  0
LINE
  5
1BA
330
1F
100
AcDbEntity
  8
100
  6
Continuous
 62
     3
100
AcDbLine
 10
680.628913325769
 20
1502.79368483832
 30
0.0
 11
674.0314938816
 21
1502.79368483832
 31
0.0
  0
LINE
  5
1BB
330
1F
100
AcDbEntity
  8
100
  6
Continuous
 62
     3
100
AcDbLine
 10
868.332978515532
 20
1502.79368483832
 30
0.0
 11
702.628912912169
 21
1502.79368483832
 31
0.0
  0
LINE
  5
1BC
330
1F
100
AcDbEntity
  8
100
  6
Continuous
 62
     3
100
AcDbLine
 10
904.332977838732
 20
1502.79368483832
 30
0.0
 11
890.982978089712
 21
1502.79368483832
 31
0.0
  0
LINE
  5
1BD
330
1F
100
AcDbEntity
  8
4
  6
PHANTOM
 62
     6
100
AcDbLine
 10
865.128909857169
 20
1499.79368489472
 30
0.0
 11
868.332978515532
 21
1499.79368489472
 31
0.0
  0
LINE
  5
1BE
330
1F
100
AcDbEntity
  8
4
  6
PHANTOM
 62
     6
100
AcDbLine
 10
702.628912912169
 20
1499.79368489472
 30
0.0
 11
705.128912865169
 21
1499.79368489472
 31
0.0
  0
LINE
  5
1BF
330
1F
100
AcDbEntity
  8
100
  6
Continuous
 62
     3
100
AcDbLine
 10
674.0314938816
 20
1499.39368490224
 30
0.0
 11
670.187840872629
 21
1499.39368490224
 31
0.0
  0
LINE
  5
1C0
330
1F
100
AcDbEntity
  8
100
  6
Continuous
 62
     3
100
AcDbLine
 10
975.895632690754
 20
1498.39368492104
 30
0.0
 11
978.0314881664
 21
1498.39368492104
 31
0.0
  0
LINE
  5
1C1
330
1F
100
AcDbEntity
  8
100
  6
Continuous
 62
     3
100
AcDbLine
 10
909.332977744732
 20
1497.74368493326
 30
0.0
 11
904.332977838732
 21
1497.74368493326
 31
0.0
  0
LINE
  5
1C2
330
1F
100
AcDbEntity
  8
100
  6
Continuous
 62
     3
100
AcDbLine
 10
680.628913325769
 20
1497.39368493984
 30
0.0
 11
702.628912912169
 21
1497.39368493984
 31
0.0
  0
LINE
  5
1C3
330
1F
100
AcDbEntity
  8
100
  6
Continuous
 62
     3
100
AcDbLine
 10
920.178277002441
 20
1496.78851755062
 30
0.0
 11
910.487678261424
 21
1496.78851755062
 31
0.0
  0
LINE
  5
1C4
330
1F
100
AcDbEntity
  8
100
  6
Continuous
 62
     3
100
AcDbLine
 10
868.332978515532
 20
1494.4543747659
 30
0.0
 11
890.332978101932
 21
1494.4543747659
 31
0.0
  0
LINE
  5
1C5
330
1F
100
AcDbEntity
  8
100
  6
Continuous
 62
     3
100
AcDbLine
 10
971.320820070361
 20
1493.89368500564
 30
0.0
 11
965.547317487102
 21
1493.89368500564
 31
0.0
  0
LINE
  5
1C6
330
1F
100
AcDbEntity
  8
100
  6
Continuous
 62
     3
100
AcDbLine
 10
924.332977462447
 20
1492.89368502444
 30
0.0
 11
933.571924787806
 21
1492.89368502444
 31
0.0
  0
LINE
  5
1C7
330
1F
100
AcDbEntity
  8
1
  6
Continuous
 62
     3
100
AcDbLine
 10
923.644977475513
 20
1492.20568503737
 30
0.0
 11
921.332977519132
 21
1492.20568503737
 31
0.0
  0
LINE
  5
1C8
330
1F
100
AcDbEntity
  8
100
  6
Continuous
 62
     3
100
AcDbLine
 10
922.832977490932
 20
1491.39368505264
 30
0.0
 11
921.332977519132
 21
1491.39368505264
 31
0.0
  0
LINE
  5
1C9
330
1F
100
AcDbEntity
  8
100
  6
Continuous
 62
     3
100
AcDbLine
 10
929.861045665604
 20
1491.39368505264
 30
0.0
 11
928.154508341582
 21
1491.39368505264
 31
0.0
  0
LINE
  5
1CA
330
1F
100
AcDbEntity
  8
100
  6
Continuous
 62
     3
100
AcDbLine
 10
664.515666293439
 20
1542.39370133627
 30
0.0
 11
658.742163710181
 21
1542.39370162911
 31
0.0
  0
LINE
  5
1CB
330
1F
100
AcDbEntity
  8
100
  6
Continuous
 62
     3
100
AcDbLine
 10
939.320820671961
 20
1490.39368507144
 30
0.0
 11
933.547318088702
 21
1490.39368507144
 31
0.0
  0
LINE
  5
1CC
330
1F
100
AcDbEntity
  8
4
  6
PHANTOM
 62
     6
100
AcDbLine
 10
705.128912865169
 20
1499.79368489472
 30
0.0
 11
751.605278738013
 21
1486.51349488919
 31
0.0
  0
LINE
  5
1CD
330
1F
100
AcDbEntity
  8
100
  6
Continuous
 62
     3
100
AcDbLine
 10
921.332977519132
 20
1486.89368513724
 30
0.0
 11
909.332977744732
 21
1486.89368513724
 31
0.0
  0
LINE
  5
1CE
330
1F
100
AcDbEntity
  8
100
  6
Continuous
 62
     3
100
AcDbLine
 10
965.547317487102
 20
1483.89368519364
 30
0.0
 11
971.320820070361
 21
1483.89368519364
 31
0.0
  0
LINE
  5
1CF
330
1F
100
AcDbEntity
  8
100
  6
Continuous
 62
     3
100
AcDbLine
 10
933.547318088702
 20
1480.39368525944
 30
0.0
 11
939.320820671961
 21
1480.39368525944
 31
0.0
  0
LINE
  5
1D0
330
1F
100
AcDbEntity
  8
100
  6
Continuous
 62
     3
100
AcDbLine
 10
658.742164217389
 20
1552.39370144111
 30
0.0
 11
664.515666800648
 21
1552.39370114827
 31
0.0
  0
LINE
  5
1D1
330
1F
100
AcDbEntity
  8
100
  6
Continuous
 62
     3
100
AcDbLine
 10
933.571924787806
 20
1492.89368502444
 30
0.0
 11
938.558421951195
 21
1493.13444898014
 31
0.0
  0
LINE
  5
1D2
330
1F
100
AcDbEntity
  8
4
  6
PHANTOM
 62
     6
100
AcDbLine
 10
705.128912865169
 20
1532.99368427056
 30
0.0
 11
751.605278738013
 21
1546.27387427609
 31
0.0
  0
LINE
  5
1D3
330
1F
100
AcDbEntity
  8
100
  6
Continuous
 62
     3
100
AcDbLine
 10
664.515666800648
 20
1552.39370114827
 30
0.0
 11
667.402417838772
 21
1547.39370109586
 31
0.0
  0
LINE
  5
1D4
330
1F
100
AcDbEntity
  8
4
  6
PHANTOM
 62
     6
100
AcDbLine
 10
705.128912865169
 20
1532.99368427056
 30
0.0
 11
705.128912865169
 21
1499.79368489472
 31
0.0
  0
LINE
  5
1D5
330
1F
100
AcDbEntity
  8
100
  6
Continuous
 62
     3
100
AcDbLine
 10
702.628912912169
 20
1497.39368493984
 30
0.0
 11
702.628912912169
 21
1535.39368422544
 31
0.0
  0
LINE
  5
1D6
330
1F
100
AcDbEntity
  8
100
  6
Continuous
 62
     3
100
AcDbLine
 10
655.855412671925
 20
1547.39370168153
 30
0.0
 11
658.742163710181
 21
1542.39370162911
 31
0.0
  0
LINE
  5
1D7
330
1F
100
AcDbEntity
  8
100
  6
Continuous
 62
     3
100
AcDbLine
 10
680.628913325769
 20
1497.39368493984
 30
0.0
 11
680.628913325769
 21
1535.39368422544
 31
0.0
  0
LINE
  5
1D8
330
1F
100
AcDbEntity
  8
100
  6
Continuous
 62
     3
100
AcDbLine
 10
635.402418262849
 20
1543.89369360845
 30
0.0
 11
632.515666717516
 21
1538.89369384886
 31
0.0
  0
LINE
  5
1D9
330
1F
100
AcDbEntity
  8
100
  6
Continuous
 62
     3
100
AcDbLine
 10
667.402417838772
 20
1547.39370109586
 30
0.0
 11
664.515666293439
 21
1542.39370133627
 31
0.0
  0
LINE
  5
1DA
330
1F
100
AcDbEntity
  8
100
  6
Continuous
 62
     3
100
AcDbLine
 10
669.90847472186
 20
1491.39368505264
 30
0.0
 11
670.187840872629
 21
1499.39368490224
 31
0.0
  0
LINE
  5
1DB
330
1F
100
AcDbEntity
  8
100
  6
Continuous
 62
     3
100
AcDbLine
 10
674.0314938816
 20
1529.39369303266
 30
0.0
 11
674.0314938816
 21
1533.39368426304
 31
0.0
  0
LINE
  5
1DC
330
1F
100
AcDbEntity
  8
100
  6
Continuous
 62
     3
100
AcDbLine
 10
674.0314938816
 20
1499.39368490224
 30
0.0
 11
674.0314938816
 21
1503.39369352146
 31
0.0
  0
LINE
  5
1DD
330
1F
100
AcDbEntity
  8
100
  6
Continuous
 62
     3
100
AcDbLine
 10
669.908474676984
 20
1541.39368411264
 30
0.0
 11
670.1878411998
 21
1533.39368426304
 31
0.0
  0
LINE
  5
1DE
330
1F
100
AcDbEntity
  8
100
  6
Continuous
 62
     3
100
AcDbLine
 10
623.855413096133
 20
1543.89369419412
 30
0.0
 11
626.742164641466
 21
1548.8936939537
 31
0.0
  0
LINE
  5
1DF
330
1F
100
AcDbEntity
  8
100
  6
Continuous
 62
     3
100
AcDbLine
 10
658.742164217389
 20
1552.39370144111
 30
0.0
 11
655.855412671925
 21
1547.39370168153
 31
0.0
  0
LINE
  5
1E0
330
1F
100
AcDbEntity
  8
100
  6
Continuous
 62
     3
100
AcDbLine
 10
632.515667224724
 20
1548.89369366086
 30
0.0
 11
635.402418262849
 21
1543.89369360845
 31
0.0
  0
LINE
  5
1E1
330
1F
100
AcDbEntity
  8
100
  6
Continuous
 62
     3
100
AcDbLine
 10
626.742164134258
 20
1538.8936941417
 30
0.0
 11
623.855413096133
 21
1543.89369419412
 31
0.0
  0
LINE
  5
1E2
330
1F
100
AcDbEntity
  8
100
  6
Continuous
 62
     3
100
AcDbLine
 10
993.0314780694
 20
1278.94370320106
 30
0.0
 11
993.0314780694
 21
1311.84370029374
 31
0.0
  0
LINE
  5
1E3
330
1F
100
AcDbEntity
  8
4
  6
PHANTOM
 62
     6
100
AcDbLine
 10
830.128898423369
 20
1415.3936914804
 30
0.0
 11
740.128917383768
 21
1415.3936914804
 31
0.0
  0
LINE
  5
1E4
330
1F
100
AcDbEntity
  8
100
  6
Continuous
 62
     3
100
AcDbLine
 10
981.031478295
 20
1278.94370320106
 30
0.0
 11
981.031478295
 21
1311.84370029374
 31
0.0
  0
LINE
  5
1E5
330
1F
100
AcDbEntity
  8
100
  6
Continuous
 62
     3
100
AcDbLine
 10
978.0314957404
 20
1278.39367980956
 30
0.0
 11
978.0314957404
 21
1280.393712329
 31
0.0
  0
LINE
  5
1E6
330
1F
100
AcDbEntity
  8
100
  6
Continuous
 62
     3
100
AcDbLine
 10
977.934026333689
 20
1324.3937102812
 30
0.0
 11
977.934110774514
 21
1310.3936934544
 31
0.0
  0
LINE
  5
1E7
330
1F
100
AcDbEntity
  8
100
  6
Continuous
 62
     3
100
AcDbLine
 10
953.332963489932
 20
1373.8936983642
 30
0.0
 11
953.332963489932
 21
1359.75192128627
 31
0.0
  0
LINE
  5
1E8
330
1F
100
AcDbEntity
  8
4
  6
PHANTOM
 62
     6
100
AcDbLine
 10
830.128898423369
 20
1386.3936969084
 30
0.0
 11
740.128917383768
 21
1386.3936969084
 31
0.0
  0
LINE
  5
1E9
330
1F
100
AcDbEntity
  8
100
  6
Continuous
 62
     3
100
AcDbLine
 10
940.832966287381
 20
1379.29368727628
 30
0.0
 11
950.832967533093
 21
1379.29368727628
 31
0.0
  0
LINE
  5
1EA
330
1F
100
AcDbEntity
  8
100
  6
Continuous
 62
     3
100
AcDbLine
 10
950.832957970911
 20
1375.09368735524
 30
0.0
 11
950.832967533093
 21
1379.29368727628
 31
0.0
  0
LINE
  5
1EB
330
1F
100
AcDbEntity
  8
100
  6
Continuous
 62
     3
100
AcDbLine
 10
945.832948982333
 20
1375.09368735524
 30
0.0
 11
945.832948982333
 21
1378.3937019418
 31
0.0
  0
LINE
  5
1EC
330
1F
100
AcDbEntity
  8
100
  6
Continuous
 62
     3
100
AcDbLine
 10
952.232873178414
 20
1375.09368735524
 30
0.0
 11
939.433024786251
 21
1375.09368735524
 31
0.0
  0
LINE
  5
1ED
330
1F
100
AcDbEntity
  8
100
  6
Continuous
 62
     3
100
AcDbLine
 10
938.332985744532
 20
1373.8936983642
 30
0.0
 11
953.332963489932
 21
1373.8936983642
 31
0.0
  0
LINE
  5
1EE
330
1F
100
AcDbEntity
  8
100
  6
Continuous
 62
     3
100
AcDbLine
 10
921.332983622732
 20
1373.39369227
 30
0.0
 11
909.332965537732
 21
1373.39369227
 31
0.0
  0
LINE
  5
1EF
330
1F
100
AcDbEntity
  8
100
  6
Continuous
 62
     3
100
AcDbLine
 10
940.832992449045
 20
1375.09368735524
 30
0.0
 11
940.832966287381
 21
1379.29368727628
 31
0.0
  0
LINE
  5
1F0
330
1F
100
AcDbEntity
  8
100
  6
Continuous
 62
     3
100
AcDbLine
 10
938.332985744532
 20
1373.8936983642
 30
0.0
 11
938.332985744532
 21
1368.8936886926
 31
0.0
  0
LINE
  5
1F1
330
1F
100
AcDbEntity
  8
100
  6
Continuous
 62
     3
100
AcDbLine
 10
922.832967675732
 20
1370.39369843
 30
0.0
 11
921.332983622732
 21
1370.39369843
 31
0.0
  0
LINE
  5
1F2
330
1F
100
AcDbEntity
  8
1
  6
Continuous
 62
     3
100
AcDbLine
 10
922.832967675732
 20
1369.58169817067
 30
0.0
 11
921.332983622732
 21
1369.58169817067
 31
0.0
  0
LINE
  5
1F3
330
1F
100
AcDbEntity
  8
100
  6
Continuous
 62
     3
100
AcDbLine
 10
922.832967675732
 20
1368.8936886926
 30
0.0
 11
938.332985744532
 21
1368.8936886926
 31
0.0
  0
LINE
  5
1F4
330
1F
100
AcDbEntity
  8
100
  6
Continuous
 62
     3
100
AcDbLine
 10
909.332965537732
 20
1364.04369816798
 30
0.0
 11
904.332955866133
 21
1364.04369816798
 31
0.0
  0
LINE
  5
1F5
330
1F
100
AcDbEntity
  8
100
  6
Continuous
 62
     3
100
AcDbLine
 10
922.832976270332
 20
1320.393687163
 30
0.0
 11
924.332994552732
 21
1321.8937054454
 31
0.0
  0
LINE
  5
1F6
330
1F
100
AcDbEntity
  8
100
  6
Continuous
 62
     3
100
AcDbLine
 10
933.7814819239
 20
1260.3936992772
 30
0.0
 11
933.7814819239
 21
1278.39371788967
 31
0.0
  0
LINE
  5
1F7
330
1F
100
AcDbEntity
  8
100
  6
Continuous
 62
     3
100
AcDbLine
 10
904.332955866133
 20
1358.39368889
 30
0.0
 11
890.332964674332
 21
1358.39368889
 31
0.0
  0
LINE
  5
1F8
330
1F
100
AcDbEntity
  8
100
  6
Continuous
 62
     3
100
AcDbLine
 10
928.564550869578
 20
1312.3936921962
 30
0.0
 11
928.564550869578
 21
1321.8937054454
 31
0.0
  0
LINE
  5
1F9
330
1F
100
AcDbEntity
  8
100
  6
Continuous
 62
     3
100
AcDbLine
 10
927.2814796047
 20
1260.3936992772
 30
0.0
 11
927.2814796047
 21
1278.39372348336
 31
0.0
  0
LINE
  5
1FA
330
1F
100
AcDbEntity
  8
100
  6
Continuous
 62
     3
100
AcDbLine
 10
924.0315040798
 20
1278.39372628018
 30
0.0
 11
924.0315040798
 21
1312.3936921962
 31
0.0
  0
LINE
  5
1FB
330
1F
100
AcDbEntity
  8
100
  6
Continuous
 62
     3
100
AcDbLine
 10
921.332983622732
 20
1373.39369227
 30
0.0
 11
921.332983622732
 21
1317.3937018678
 31
0.0
  0
LINE
  5
1FC
330
1F
100
AcDbEntity
  8
4
  6
PHANTOM
 62
     6
100
AcDbLine
 10
825.128888751569
 20
1373.42333983324
 30
0.0
 11
865.128889220369
 21
1361.99370713292
 31
0.0
  0
LINE
  5
1FD
330
1F
100
AcDbEntity
  8
100
  6
Continuous
 62
     3
100
AcDbLine
 10
909.332965537732
 20
1373.39369227
 30
0.0
 11
909.332965537732
 21
1317.3937018678
 31
0.0
  0
LINE
  5
1FE
330
1F
100
AcDbEntity
  8
4
  6
PHANTOM
 62
     6
100
AcDbLine
 10
825.128888751569
 20
1317.36408141395
 30
0.0
 11
865.128889220369
 21
1328.79368700508
 31
0.0
  0
LINE
  5
1FF
330
1F
100
AcDbEntity
  8
4
  6
PHANTOM
 62
     6
100
AcDbLine
 10
865.128900042169
 20
1328.79369883068
 30
0.0
 11
868.332978515532
 21
1328.79369883068
 31
0.0
  0
LINE
  5
200
330
1F
100
AcDbEntity
  8
100
  6
Continuous
 62
     3
100
AcDbLine
 10
909.332965537732
 20
1326.74369963202
 30
0.0
 11
904.332955866133
 21
1326.74369963202
 31
0.0
  0
LINE
  5
201
330
1F
100
AcDbEntity
  8
100
  6
Continuous
 62
     3
100
AcDbLine
 10
868.332978515532
 20
1326.3937090228
 30
0.0
 11
890.332964674332
 21
1326.3937090228
 31
0.0
  0
LINE
  5
202
330
1F
100
AcDbEntity
  8
100
  6
Continuous
 62
     3
100
AcDbLine
 10
977.934026333689
 20
1324.3937102812
 30
0.0
 11
965.678279034359
 21
1324.3937102812
 31
0.0
  0
LINE
  5
203
330
1F
100
AcDbEntity
  8
100
  6
Continuous
 62
     3
100
AcDbLine
 10
890.332964674332
 20
1326.3937090228
 30
0.0
 11
890.332964674332
 21
1364.3937107498
 31
0.0
  0
LINE
  5
204
330
1F
100
AcDbEntity
  8
100
  6
Continuous
 62
     3
100
AcDbLine
 10
924.332994552732
 20
1321.8937054454
 30
0.0
 11
928.564550869578
 21
1321.8937054454
 31
0.0
  0
LINE
  5
205
330
1F
100
AcDbEntity
  8
1
  6
Continuous
 62
     3
100
AcDbLine
 10
923.644988736666
 20
1321.20569962933
 30
0.0
 11
921.332983622732
 21
1321.20569962933
 31
0.0
  0
LINE
  5
206
330
1F
100
AcDbEntity
  8
100
  6
Continuous
 62
     3
100
AcDbLine
 10
922.832967675732
 20
1320.39369937
 30
0.0
 11
921.332983622732
 21
1320.39369937
 31
0.0
  0
LINE
  5
207
330
1F
100
AcDbEntity
  8
100
  6
Continuous
 62
     3
100
AcDbLine
 10
921.332983622732
 20
1317.3937018678
 30
0.0
 11
909.332965537732
 21
1317.3937018678
 31
0.0
  0
LINE
  5
208
330
1F
100
AcDbEntity
  8
100
  6
Continuous
 62
     3
100
AcDbLine
 10
928.557703417707
 20
1314.8936994734
 30
0.0
 11
977.934083632816
 21
1314.8936994734
 31
0.0
  0
LINE
  5
209
330
1F
100
AcDbEntity
  8
100
  6
Continuous
 62
     3
100
AcDbLine
 10
924.0315040798
 20
1312.3936921962
 30
0.0
 11
928.564550869578
 21
1312.3936921962
 31
0.0
  0
LINE
  5
20A
330
1F
100
AcDbEntity
  8
4
  6
PHANTOM
 62
     6
100
AcDbLine
 10
745.128901420569
 20
1312.3936921962
 30
0.0
 11
825.128888751569
 21
1312.3936921962
 31
0.0
  0
LINE
  5
20B
330
1F
100
AcDbEntity
  8
100
  6
Continuous
 62
     3
100
AcDbLine
 10
981.031478295
 20
1311.84370029374
 30
0.0
 11
993.0314780694
 21
1311.84370029374
 31
0.0
  0
LINE
  5
20C
330
1F
100
AcDbEntity
  8
1
  6
Continuous
 62
     3
100
AcDbLine
 10
993.0314780694
 20
1310.53919973847
 30
0.0
 11
981.031478295
 21
1310.53919973847
 31
0.0
  0
LINE
  5
20D
330
1F
100
AcDbEntity
  8
100
  6
Continuous
 62
     3
100
AcDbLine
 10
977.934110774514
 20
1310.3936934544
 30
0.0
 11
981.0314810356
 21
1310.3936934544
 31
0.0
  0
LINE
  5
20E
330
1F
100
AcDbEntity
  8
100
  6
Continuous
 62
     3
100
AcDbLine
 10
924.0315040798
 20
1308.99369996572
 30
0.0
 11
674.0314955306
 21
1308.99369996572
 31
0.0
  0
LINE
  5
20F
330
1F
100
AcDbEntity
  8
4
  6
PHANTOM
 62
     6
100
AcDbLine
 10
822.628917180009
 20
1310.393699558
 30
0.0
 11
825.128888751569
 21
1312.3936921962
 31
0.0
  0
LINE
  5
210
330
1F
100
AcDbEntity
  8
100
  6
Continuous
 62
     3
100
AcDbLine
 10
868.332978515532
 20
1326.3937090228
 30
0.0
 11
868.332978515532
 21
1364.3937107498
 31
0.0
  0
LINE
  5
211
330
1F
100
AcDbEntity
  8
4
  6
PHANTOM
 62
     6
100
AcDbLine
 10
865.128889220369
 20
1328.79368700508
 30
0.0
 11
865.128889220369
 21
1361.99370713292
 31
0.0
  0
LINE
  5
212
330
1F
100
AcDbEntity
  8
100
  6
Continuous
 62
     3
100
AcDbLine
 10
924.0315040798
 20
1281.79369971428
 30
0.0
 11
674.0314955306
 21
1281.79369971428
 31
0.0
  0
LINE
  5
213
330
1F
100
AcDbEntity
  8
100
  6
Continuous
 62
     3
100
AcDbLine
 10
978.0314957404
 20
1280.393712329
 30
0.0
 11
981.0314810356
 21
1280.393712329
 31
0.0
  0
LINE
  5
214
330
1F
100
AcDbEntity
  8
1
  6
Continuous
 62
     3
100
AcDbLine
 10
993.0314780694
 20
1280.24819994153
 30
0.0
 11
981.031478295
 21
1280.24819994153
 31
0.0
  0
LINE
  5
215
330
1F
100
AcDbEntity
  8
100
  6
Continuous
 62
     3
100
AcDbLine
 10
981.031478295
 20
1278.94370320106
 30
0.0
 11
993.0314780694
 21
1278.94370320106
 31
0.0
  0
LINE
  5
216
330
1F
100
AcDbEntity
  8
100
  6
Continuous
 62
     3
100
AcDbLine
 10
924.0315040798
 20
1278.39372628018
 30
0.0
 11
927.2814796047
 21
1278.39372348336
 31
0.0
  0
LINE
  5
217
330
1F
100
AcDbEntity
  8
100
  6
Continuous
 62
     3
100
AcDbLine
 10
933.7814819239
 20
1260.3936992772
 30
0.0
 11
927.2814796047
 21
1260.3936992772
 31
0.0
  0
LINE
  5
218
330
1F
100
AcDbEntity
  8
4
  6
PHANTOM
 62
     6
100
AcDbLine
 10
830.128898423369
 20
1415.3936914804
 30
0.0
 11
830.128898423369
 21
1386.3936969084
 31
0.0
  0
LINE
  5
219
330
1F
100
AcDbEntity
  8
4
  6
PHANTOM
 62
     6
100
AcDbLine
 10
825.128888751569
 20
1317.36408141395
 30
0.0
 11
825.128888751569
 21
1312.3936921962
 31
0.0
  0
LINE
  5
21A
330
1F
100
AcDbEntity
  8
4
  6
PHANTOM
 62
     6
100
AcDbLine
 10
825.128888751569
 20
1386.3936969084
 30
0.0
 11
825.128888751569
 21
1373.42333983324
 31
0.0
  0
LINE
  5
21B
330
1F
100
AcDbEntity
  8
4
  6
PHANTOM
 62
     6
100
AcDbLine
 10
745.128901420569
 20
1317.36408916019
 30
0.0
 11
745.128901420569
 21
1312.3936921962
 31
0.0
  0
LINE
  5
21C
330
1F
100
AcDbEntity
  8
4
  6
PHANTOM
 62
     6
100
AcDbLine
 10
745.128901420569
 20
1386.3936969084
 30
0.0
 11
745.128901420569
 21
1373.42333208698
 31
0.0
  0
LINE
  5
21D
330
1F
100
AcDbEntity
  8
4
  6
PHANTOM
 62
     6
100
AcDbLine
 10
740.128917383768
 20
1415.3936914804
 30
0.0
 11
740.128917383768
 21
1386.3936969084
 31
0.0
  0
LINE
  5
21E
330
1F
100
AcDbEntity
  8
100
  6
Continuous
 62
     3
100
AcDbLine
 10
702.628921750768
 20
1367.33301855594
 30
0.0
 11
680.628909957369
 21
1367.33301855594
 31
0.0
  0
LINE
  5
21F
330
1F
100
AcDbEntity
  8
4
  6
PHANTOM
 62
     6
100
AcDbLine
 10
702.628921750768
 20
1361.99369706212
 30
0.0
 11
705.128912865169
 21
1361.99369706212
 31
0.0
  0
LINE
  5
220
330
1F
100
AcDbEntity
  8
4
  6
PHANTOM
 62
     6
100
AcDbLine
 10
705.128900951769
 20
1328.79368700508
 30
0.0
 11
705.128900951769
 21
1361.99370713292
 31
0.0
  0
LINE
  5
221
330
1F
100
AcDbEntity
  8
4
  6
PHANTOM
 62
     6
100
AcDbLine
 10
745.128901420569
 20
1312.3936921962
 30
0.0
 11
747.628898626849
 21
1310.393699558
 31
0.0
  0
LINE
  5
222
330
1F
100
AcDbEntity
  8
100
  6
Continuous
 62
     3
100
AcDbLine
 10
702.628921750768
 20
1323.45440121666
 30
0.0
 11
702.628921750768
 21
1367.33301855594
 31
0.0
  0
LINE
  5
223
330
1F
100
AcDbEntity
  8
4
  6
PHANTOM
 62
     6
100
AcDbLine
 10
705.128900951769
 20
1328.79368700508
 30
0.0
 11
745.128901420569
 21
1317.36408916019
 31
0.0
  0
LINE
  5
224
330
1F
100
AcDbEntity
  8
100
  6
Continuous
 62
     3
100
AcDbLine
 10
680.628909957369
 20
1323.45440121666
 30
0.0
 11
680.628909957369
 21
1367.33301855594
 31
0.0
  0
LINE
  5
225
330
1F
100
AcDbEntity
  8
100
  6
Continuous
 62
     3
100
AcDbLine
 10
674.0314955306
 20
1278.39372628001
 30
0.0
 11
674.0314955306
 21
1312.3936921962
 31
0.0
  0
LINE
  5
226
330
1F
100
AcDbEntity
  8
4
  6
PHANTOM
 62
     6
100
AcDbLine
 10
702.628921750768
 20
1328.79369883068
 30
0.0
 11
705.128912865169
 21
1328.79369883068
 31
0.0
  0
LINE
  5
227
330
1F
100
AcDbEntity
  8
100
  6
Continuous
 62
     3
100
AcDbLine
 10
670.7814943711
 20
1260.3936992772
 30
0.0
 11
670.7814943711
 21
1278.39372348318
 31
0.0
  0
LINE
  5
228
330
1F
100
AcDbEntity
  8
100
  6
Continuous
 62
     3
100
AcDbLine
 10
702.628921750768
 20
1323.45440121666
 30
0.0
 11
680.628909957369
 21
1323.45440121666
 31
0.0
  0
LINE
  5
229
330
1F
100
AcDbEntity
  8
4
  6
PHANTOM
 62
     6
100
AcDbLine
 10
705.128900951769
 20
1361.99370713292
 30
0.0
 11
745.128901420569
 21
1373.42333208698
 31
0.0
  0
LINE
  5
22A
330
1F
100
AcDbEntity
  8
100
  6
Continuous
 62
     3
100
AcDbLine
 10
664.2814920519
 20
1260.3936992772
 30
0.0
 11
664.2814920519
 21
1278.39371788952
 31
0.0
  0
LINE
  5
22B
330
1F
100
AcDbEntity
  8
100
  6
Continuous
 62
     3
100
AcDbLine
 10
669.505269830493
 20
1314.8936994734
 30
0.0
 11
620.0314910526
 21
1314.8936994734
 31
0.0
  0
LINE
  5
22C
330
1F
100
AcDbEntity
  8
100
  6
Continuous
 62
     3
100
AcDbLine
 10
674.0314955306
 20
1312.3936921962
 30
0.0
 11
669.491546665451
 21
1312.3936921962
 31
0.0
  0
LINE
  5
22D
330
1F
100
AcDbEntity
  8
100
  6
Continuous
 62
     3
100
AcDbLine
 10
617.0314949532
 20
1311.84370029374
 30
0.0
 11
605.0314951788
 21
1311.84370029374
 31
0.0
  0
LINE
  5
22E
330
1F
100
AcDbEntity
  8
1
  6
Continuous
 62
     3
100
AcDbLine
 10
605.0314951788
 20
1310.53919973847
 30
0.0
 11
617.0314949532
 21
1310.53919973847
 31
0.0
  0
LINE
  5
22F
330
1F
100
AcDbEntity
  8
4
  6
PHANTOM
 62
     6
100
AcDbLine
 10
747.628898626849
 20
1310.393699558
 30
0.0
 11
822.628917180009
 21
1310.393699558
 31
0.0
  0
LINE
  5
230
330
1F
100
AcDbEntity
  8
100
  6
Continuous
 62
     3
100
AcDbLine
 10
620.0314910526
 20
1310.3936934544
 30
0.0
 11
617.0314929402
 21
1310.3936934544
 31
0.0
  0
LINE
  5
231
330
1F
100
AcDbEntity
  8
100
  6
Continuous
 62
     3
100
AcDbLine
 10
620.0314910526
 20
1280.393712329
 30
0.0
 11
617.0314929402
 21
1280.393712329
 31
0.0
  0
LINE
  5
232
330
1F
100
AcDbEntity
  8
1
  6
Continuous
 62
     3
100
AcDbLine
 10
605.0314951788
 20
1280.24819994153
 30
0.0
 11
617.0314949532
 21
1280.24819994153
 31
0.0
  0
LINE
  5
233
330
1F
100
AcDbEntity
  8
100
  6
Continuous
 62
     3
100
AcDbLine
 10
617.0314949532
 20
1278.94370320106
 30
0.0
 11
605.0314951788
 21
1278.94370320106
 31
0.0
  0
LINE
  5
234
330
1F
100
AcDbEntity
  8
100
  6
Continuous
 62
     3
100
AcDbLine
 10
620.0314910526
 20
1278.3936798096
 30
0.0
 11
664.2814920519
 21
1278.39371788952
 31
0.0
  0
LINE
  5
235
330
1F
100
AcDbEntity
  8
100
  6
Continuous
 62
     3
100
AcDbLine
 10
620.0314910526
 20
1278.3936798096
 30
0.0
 11
620.0314910526
 21
1323.14370377171
 31
0.0
  0
LINE
  5
236
330
1F
100
AcDbEntity
  8
100
  6
Continuous
 62
     3
100
AcDbLine
 10
617.0314949532
 20
1278.94370320106
 30
0.0
 11
617.0314949532
 21
1311.84370029374
 31
0.0
  0
LINE
  5
237
330
1F
100
AcDbEntity
  8
100
  6
Continuous
 62
     3
100
AcDbLine
 10
664.2814920519
 20
1260.3936992772
 30
0.0
 11
670.7814943711
 21
1260.3936992772
 31
0.0
  0
LINE
  5
238
330
1F
100
AcDbEntity
  8
100
  6
Continuous
 62
     3
100
AcDbLine
 10
605.0314951788
 20
1311.84370029374
 30
0.0
 11
605.0314951788
 21
1278.94370320106
 31
0.0
  0
LINE
  5
239
330
1F
100
AcDbEntity
  8
100
  6
Continuous
 62
     3
100
AcDbLine
 10
904.332955866133
 20
1332.393705248
 30
0.0
 11
890.332964674332
 21
1332.393705248
 31
0.0
  0
LINE
  5
23A
330
1F
100
AcDbEntity
  8
100
  6
Continuous
 62
     3
100
AcDbLine
 10
868.332978515532
 20
1364.3937107498
 30
0.0
 11
890.332964674332
 21
1364.3937107498
 31
0.0
  0
LINE
  5
23B
330
1F
100
AcDbEntity
  8
100
  6
Continuous
 62
     3
100
AcDbLine
 10
904.332955866133
 20
1326.74369963202
 30
0.0
 11
904.332955866133
 21
1364.04369816798
 31
0.0
  0
LINE
  5
23C
330
1F
100
AcDbEntity
  8
4
  6
PHANTOM
 62
     6
100
AcDbLine
 10
868.332978515532
 20
1361.99370787614
 30
0.0
 11
865.128900042169
 21
1361.99370787614
 31
0.0
  0
LINE
  5
23D
330
1F
100
AcDbEntity
  8
1
  6
Continuous
 62
     3
100
AcDbLine
 10
952.232873178414
 20
1375.09368735524
 30
0.0
 11
952.232873178414
 21
1373.8936983642
 31
0.0
  0
LINE
  5
23E
330
1F
100
AcDbEntity
  8
1
  6
Continuous
 62
     3
100
AcDbLine
 10
939.433024786251
 20
1375.09368735524
 30
0.0
 11
939.433024786251
 21
1373.8936983642
 31
0.0
  0
LINE
  5
23F
330
1F
100
AcDbEntity
  8
1
  6
Continuous
 62
     3
100
AcDbLine
 10
922.832967675732
 20
1370.39369843
 30
0.0
 11
922.832967675732
 21
1320.39369937
 31
0.0
  0
LINE
  5
240
330
1F
100
AcDbEntity
  8
100
  6
Continuous
 62
     3
100
AcDbLine
 10
933.7814819239
 20
1278.39371788967
 30
0.0
 11
978.0314957404
 21
1278.39367980956
 31
0.0
  0
LINE
  5
241
330
1F
100
AcDbEntity
  8
1
  6
Continuous
 62
     3
100
AcDbLine
 10
953.332963489932
 20
1359.75192128627
 30
0.0
 11
959.946030082288
 21
1344.32143257077
 31
0.0
  0
LINE
  5
242
330
1F
100
AcDbEntity
  8
0
  6
Continuous
 62
     3
100
AcDbLine
 10
660.696518943357
 20
1358.39370335341
 30
0.0
 11
660.198644922366
 21
1367.8937056012
 31
0.0
  0
LINE
  5
243
330
1F
100
AcDbEntity
  8
100
  6
Continuous
 62
     3
100
AcDbLine
 10
670.7814943711
 20
1278.39372348318
 30
0.0
 11
674.0314955306
 21
1278.39372628001
 31
0.0
  0
LINE
  5
244
330
1F
100
AcDbEntity
  8
1
  6
Continuous
 62
     3
100
AcDbLine
 10
612.308540411586
 20
1398.64370662471
 30
0.0
 11
612.308540411586
 21
1415.64370630511
 31
0.0
  0
LINE
  5
245
330
1F
100
AcDbEntity
  8
1
  6
Continuous
 62
     3
100
AcDbLine
 10
656.128910571103
 20
1382.94611184143
 30
0.0
 11
629.128911078702
 21
1382.94611184143
 31
0.0
  0
LINE
  5
246
330
1F
100
AcDbEntity
  8
100
  6
Continuous
 62
     3
100
AcDbLine
 10
888.635966581636
 20
1527.36334581773
 30
0.0
 11
870.029990035628
 21
1527.36334581773
 31
0.0
  0
LINE
  5
247
330
1F
100
AcDbEntity
  8
100
  6
Continuous
 62
     3
100
AcDbLine
 10
700.931904127072
 20
1334.42404305925
 30
0.0
 11
682.325927581065
 21
1334.42404305925
 31
0.0
  0
LINE
  5
248
330
1F
100
AcDbEntity
  8
100
  6
Continuous
 62
     3
100
AcDbLine
 10
888.635966581836
 20
1345.393711107
 30
0.0
 11
870.029990035828
 21
1345.393711107
 31
0.0
  0
LINE
  5
249
330
1F
100
AcDbEntity
  8
100
  6
Continuous
 62
     3
100
AcDbLine
 10
920.178277002441
 20
1325.78853378204
 30
0.0
 11
910.487678261424
 21
1325.78853378204
 31
0.0
  0
LINE
  5
24A
330
1F
100
AcDbEntity
  8
100
  6
Continuous
 62
     3
100
AcDbLine
 10
920.178277002441
 20
1336.10661317825
 30
0.0
 11
910.487678261424
 21
1336.10661317825
 31
0.0
  0
LINE
  5
24B
330
1F
100
AcDbEntity
  8
100
  6
Continuous
 62
     3
100
AcDbLine
 10
920.178277002441
 20
1354.68078845006
 30
0.0
 11
910.487678261424
 21
1354.68078845006
 31
0.0
  0
LINE
  5
24C
330
1F
100
AcDbEntity
  8
100
  6
Continuous
 62
     3
100
AcDbLine
 10
920.178277002441
 20
1364.99886784628
 30
0.0
 11
910.487678261424
 21
1364.99886784628
 31
0.0
  0
LINE
  5
24D
330
1F
100
AcDbEntity
  8
100
  6
Continuous
 62
     3
100
AcDbLine
 10
910.487678261424
 20
1354.68078845006
 30
0.0
 11
910.487678261424
 21
1364.99886784628
 31
0.0
  0
LINE
  5
24E
330
1F
100
AcDbEntity
  8
100
  6
Continuous
 62
     3
100
AcDbLine
 10
920.178277002441
 20
1354.68078845006
 30
0.0
 11
920.178277002441
 21
1364.99886784628
 31
0.0
  0
LINE
  5
24F
330
1F
100
AcDbEntity
  8
100
  6
Continuous
 62
     3
100
AcDbLine
 10
920.178277002441
 20
1325.78853378204
 30
0.0
 11
920.178277002441
 21
1336.10661317825
 31
0.0
  0
LINE
  5
250
330
1F
100
AcDbEntity
  8
100
  6
Continuous
 62
     3
100
AcDbLine
 10
910.487678261424
 20
1325.78853378204
 30
0.0
 11
910.487678261424
 21
1336.10661317825
 31
0.0
  0
LINE
  5
251
330
1F
100
AcDbEntity
  8
100
  6
Continuous
 62
     3
100
AcDbLine
 10
981.031478295
 20
1499.94369820026
 30
0.0
 11
993.0314780694
 21
1499.94369820026
 31
0.0
  0
LINE
  5
252
330
1F
100
AcDbEntity
  8
1
  6
Continuous
 62
     3
100
AcDbLine
 10
993.0314780694
 20
1501.24819494073
 30
0.0
 11
981.031478295
 21
1501.24819494073
 31
0.0
  0
LINE
  5
253
330
1F
100
AcDbEntity
  8
1
  6
Continuous
 62
     3
100
AcDbLine
 10
993.0314780694
 20
1531.53919473767
 30
0.0
 11
981.031478295
 21
1531.53919473767
 31
0.0
  0
LINE
  5
254
330
1F
100
AcDbEntity
  8
100
  6
Continuous
 62
     3
100
AcDbLine
 10
981.031478295
 20
1532.84369529294
 30
0.0
 11
993.0314780694
 21
1532.84369529294
 31
0.0
  0
LINE
  5
255
330
1F
100
AcDbEntity
  8
100
  6
Continuous
 62
     3
100
AcDbLine
 10
981.031478295
 20
1499.94369820026
 30
0.0
 11
981.031478295
 21
1532.84369529294
 31
0.0
  0
LINE
  5
256
330
1F
100
AcDbEntity
  8
100
  6
Continuous
 62
     3
100
AcDbLine
 10
993.0314780694
 20
1499.94369820026
 30
0.0
 11
993.0314780694
 21
1532.84369529294
 31
0.0
  0
LINE
  5
257
330
1F
100
AcDbEntity
  8
100
  6
Continuous
 62
     3
100
AcDbLine
 10
605.0314951788
 20
1532.84369529294
 30
0.0
 11
605.0314951788
 21
1499.94369820026
 31
0.0
  0
LINE
  5
258
330
1F
100
AcDbEntity
  8
100
  6
Continuous
 62
     3
100
AcDbLine
 10
617.0314949532
 20
1499.94369820026
 30
0.0
 11
617.0314949532
 21
1513.39369381531
 31
0.0
  0
LINE
  5
259
330
1F
100
AcDbEntity
  8
100
  6
Continuous
 62
     3
100
AcDbLine
 10
617.0314949532
 20
1499.94369820026
 30
0.0
 11
605.0314951788
 21
1499.94369820026
 31
0.0
  0
LINE
  5
25A
330
1F
100
AcDbEntity
  8
1
  6
Continuous
 62
     3
100
AcDbLine
 10
605.0314951788
 20
1501.24819494073
 30
0.0
 11
617.0314949532
 21
1501.24819494073
 31
0.0
  0
LINE
  5
25B
330
1F
100
AcDbEntity
  8
1
  6
Continuous
 62
     3
100
AcDbLine
 10
605.0314951788
 20
1531.53919473767
 30
0.0
 11
617.0314949532
 21
1531.53919473767
 31
0.0
  0
LINE
  5
25C
330
1F
100
AcDbEntity
  8
100
  6
Continuous
 62
     3
100
AcDbLine
 10
617.0314949532
 20
1532.84369529294
 30
0.0
 11
605.0314951788
 21
1532.84369529294
 31
0.0
  0
LINE
  5
25D
330
1F
100
AcDbEntity
  8
1
  6
Continuous
 62
     3
100
AcDbLine
 10
968.451135167093
 20
1492.39368503384
 30
0.0
 11
968.451135167093
 21
1485.39368516544
 31
0.0
  0
LINE
  5
25E
330
1F
100
AcDbEntity
  8
1
  6
Continuous
 62
     3
100
AcDbLine
 10
964.934068844432
 20
1488.81433647842
 30
0.0
 11
971.934068712832
 21
1488.81433647842
 31
0.0
  0
LINE
  5
25F
330
1F
100
AcDbEntity
  8
1
  6
Continuous
 62
     3
100
AcDbLine
 10
932.934069446032
 20
1485.32318467252
 30
0.0
 11
939.934069314432
 21
1485.32318467252
 31
0.0
  0
LINE
  5
260
330
1F
100
AcDbEntity
  8
1
  6
Continuous
 62
     3
100
AcDbLine
 10
936.446166033004
 20
1488.89368509964
 30
0.0
 11
936.446166033004
 21
1481.89368523124
 31
0.0
  0
LINE
  5
261
330
1F
100
AcDbEntity
  8
1
  6
Continuous
 62
     3
100
AcDbLine
 10
945.813197675713
 20
1519.89368451684
 30
0.0
 11
945.813197675713
 21
1512.89368464844
 31
0.0
  0
LINE
  5
262
330
1F
100
AcDbEntity
  8
1
  6
Continuous
 62
     3
100
AcDbLine
 10
940.832977152532
 20
1516.39368619634
 30
0.0
 11
950.832976964532
 21
1516.39368594273
 31
0.0
  0
LINE
  5
263
330
1F
100
AcDbEntity
  8
1
  6
Continuous
 62
     3
100
AcDbLine
 10
936.446166033004
 20
1550.89368393404
 30
0.0
 11
936.446166033004
 21
1543.89368406564
 31
0.0
  0
LINE
  5
264
330
1F
100
AcDbEntity
  8
1
  6
Continuous
 62
     3
100
AcDbLine
 10
932.934069446032
 20
1547.45477696814
 30
0.0
 11
939.934069314432
 21
1547.45477696814
 31
0.0
  0
LINE
  5
265
330
1F
100
AcDbEntity
  8
100
  6
Continuous
 62
     3
100
AcDbLine
 10
868.332978515532
 20
1538.33299439938
 30
0.0
 11
890.332978101932
 21
1538.33299439938
 31
0.0
  0
LINE
  5
266
330
1F
100
AcDbEntity
  8
100
  6
Continuous
 62
     3
100
AcDbLine
 10
890.332978101932
 20
1538.33299439938
 30
0.0
 11
890.332978101932
 21
1494.4543747659
 31
0.0
  0
LINE
  5
267
330
1F
100
AcDbEntity
  8
1
  6
Continuous
 62
     3
100
AcDbLine
 10
674.990155665841
 20
1519.39369370251
 30
0.0
 11
674.990155741022
 21
1513.39369381531
 31
0.0
  0
LINE
  5
268
330
1F
100
AcDbEntity
  8
1
  6
Continuous
 62
     3
100
AcDbLine
 10
610.267672426626
 20
1513.39369381531
 30
0.0
 11
610.267672361499
 21
1519.39369370251
 31
0.0
  0
LINE
  5
269
330
1F
100
AcDbEntity
  8
1
  6
Continuous
 62
     3
100
AcDbLine
 10
640.128914087169
 20
1516.39369382231
 30
0.0
 11
645.128913993169
 21
1516.39369382231
 31
0.0
  0
LINE
  5
26A
330
1F
100
AcDbEntity
  8
1
  6
Continuous
 62
     3
100
AcDbLine
 10
642.628914040169
 20
1513.89369380591
 30
0.0
 11
642.628914040169
 21
1518.89369371191
 31
0.0
  0
LINE
  5
26B
330
1F
100
AcDbEntity
  8
1
  6
Continuous
 62
     3
100
AcDbLine
 10
629.641012509686
 20
1547.39369383487
 30
0.0
 11
629.641012154641
 21
1540.39369396647
 31
0.0
  0
LINE
  5
26C
330
1F
100
AcDbEntity
  8
1
  6
Continuous
 62
     3
100
AcDbLine
 10
626.128915741307
 20
1543.81711663944
 30
0.0
 11
633.128915609707
 21
1543.81711628439
 31
0.0
  0
LINE
  5
26D
330
1F
100
AcDbEntity
  8
1
  6
Continuous
 62
     3
100
AcDbLine
 10
658.128915321114
 20
1547.39370156621
 30
0.0
 11
665.128915189514
 21
1547.39370121117
 31
0.0
  0
LINE
  5
26E
330
1F
100
AcDbEntity
  8
1
  6
Continuous
 62
     3
100
AcDbLine
 10
661.690576262109
 20
1550.89370131976
 30
0.0
 11
661.690575907063
 21
1543.89370145136
 31
0.0
  0
LINE
  5
26F
330
1F
100
AcDbEntity
  8
1
  6
Continuous
 62
     3
100
AcDbLine
 10
655.330619723547
 20
1519.39369370251
 30
0.0
 11
649.84579226936
 21
1528.89369352391
 31
0.0
  0
LINE
  5
270
330
1F
100
AcDbEntity
  8
1
  6
Continuous
 62
     3
100
AcDbLine
 10
649.84579226936
 20
1528.89369352391
 30
0.0
 11
635.412035810976
 21
1528.89369352391
 31
0.0
  0
LINE
  5
271
330
1F
100
AcDbEntity
  8
1
  6
Continuous
 62
     3
100
AcDbLine
 10
635.412035810976
 20
1528.89369352391
 30
0.0
 11
629.927208356791
 21
1519.39369370251
 31
0.0
  0
LINE
  5
272
330
1F
100
AcDbEntity
  8
1
  6
Continuous
 62
     3
100
AcDbLine
 10
629.92720835679
 20
1513.39369381531
 30
0.0
 11
635.412035810977
 21
1503.89369399391
 31
0.0
  0
LINE
  5
273
330
1F
100
AcDbEntity
  8
1
  6
Continuous
 62
     3
100
AcDbLine
 10
635.412035810977
 20
1503.89369399391
 30
0.0
 11
649.845792269361
 21
1503.89369399391
 31
0.0
  0
LINE
  5
274
330
1F
100
AcDbEntity
  8
1
  6
Continuous
 62
     3
100
AcDbLine
 10
649.845792269361
 20
1503.89369399391
 30
0.0
 11
655.330619723547
 21
1513.39369381531
 31
0.0
  0
LINE
  5
275
330
1F
100
AcDbEntity
  8
100
  6
Continuous
 62
     3
100
AcDbLine
 10
617.628914510169
 20
1538.89369460393
 30
0.0
 11
617.628914510169
 21
1519.39369370251
 31
0.0
  0
LINE
  5
276
330
1F
100
AcDbEntity
  8
100
  6
Continuous
 62
     3
100
AcDbLine
 10
617.0314949532
 20
1519.39369370251
 30
0.0
 11
617.0314949532
 21
1532.84369529294
 31
0.0
  0
LINE
  5
277
330
1F
100
AcDbEntity
  8
0
  6
Continuous
 62
     3
100
AcDbLine
 10
617.628914510169
 20
1538.89369403485
 30
0.0
 11
660.5226915629
 21
1538.89369412027
 31
0.0
  0
LINE
  5
278
330
1F
100
AcDbEntity
  8
1
  6
Continuous
 62
     3
100
AcDbLine
 10
661.690575907063
 20
1488.893684574
 30
0.0
 11
661.690576262109
 21
1481.8936847056
 31
0.0
  0
LINE
  5
279
330
1F
100
AcDbEntity
  8
1
  6
Continuous
 62
     3
100
AcDbLine
 10
665.128915189514
 20
1485.39368481419
 30
0.0
 11
658.128915321114
 21
1485.39368445915
 31
0.0
  0
LINE
  5
27A
330
1F
100
AcDbEntity
  8
100
  6
Continuous
 62
     3
100
AcDbLine
 10
655.855412671925
 20
1485.39368434383
 30
0.0
 11
658.742164217389
 21
1480.39368458425
 31
0.0
  0
LINE
  5
27B
330
1F
100
AcDbEntity
  8
100
  6
Continuous
 62
     3
100
AcDbLine
 10
664.515666293439
 20
1490.39368468909
 30
0.0
 11
667.402417838772
 21
1485.39368492951
 31
0.0
  0
LINE
  5
27C
330
1F
100
AcDbEntity
  8
100
  6
Continuous
 62
     3
100
AcDbLine
 10
658.742163710181
 20
1490.39368439625
 30
0.0
 11
655.855412671925
 21
1485.39368434383
 31
0.0
  0
LINE
  5
27D
330
1F
100
AcDbEntity
  8
100
  6
Continuous
 62
     3
100
AcDbLine
 10
667.402417838772
 20
1485.39368492951
 30
0.0
 11
664.515666800648
 21
1480.39368487709
 31
0.0
  0
LINE
  5
27E
330
1F
100
AcDbEntity
  8
100
  6
Continuous
 62
     3
100
AcDbLine
 10
664.515666800648
 20
1480.39368487709
 30
0.0
 11
658.742164217389
 21
1480.39368458425
 31
0.0
  0
LINE
  5
27F
330
1F
100
AcDbEntity
  8
100
  6
Continuous
 62
     3
100
AcDbLine
 10
658.742163710181
 20
1490.39368439625
 30
0.0
 11
664.515666293439
 21
1490.39368468909
 31
0.0
  0
LINE
  5
280
330
1F
100
AcDbEntity
  8
100
  6
Continuous
 62
     3
100
AcDbLine
 10
669.908474676984
 20
1491.39370191273
 30
0.0
 11
668.201937397596
 21
1491.39370191273
 31
0.0
  0
LINE
  5
281
330
1F
100
AcDbEntity
  8
100
  6
Continuous
 62
     3
100
AcDbLine
 10
647.39785855608
 20
1493.89369193123
 30
0.0
 11
656.637443602136
 21
1481.63234973579
 31
0.0
  0
LINE
  5
282
330
1F
100
AcDbEntity
  8
100
  6
Continuous
 62
     3
100
AcDbLine
 10
668.830831295644
 20
1503.39369191519
 30
0.0
 11
667.870349746782
 21
1485.06659440916
 31
0.0
  0
LINE
  5
283
330
1F
100
AcDbEntity
  8
100
  6
Continuous
 62
     3
100
AcDbLine
 10
617.628914510169
 20
1501.3937073282
 30
0.0
 11
617.0314929402
 21
1501.3937073282
 31
0.0
  0
LINE
  5
284
330
1F
100
AcDbEntity
  8
100
  6
Continuous
 62
     3
100
AcDbLine
 10
617.628914510169
 20
1531.3936884536
 30
0.0
 11
617.0314929402
 21
1531.3936884536
 31
0.0
  0
LINE
  5
285
330
1F
100
AcDbEntity
  8
1
  6
Continuous
 62
     3
100
AcDbLine
 10
959.946030082288
 20
1344.32143257077
 30
0.0
 11
965.678279034359
 21
1324.3937102812
 31
0.0
  0
LINE
  5
286
330
1F
100
AcDbEntity
  8
1
  6
Continuous
 62
     3
100
AcDbLine
 10
672.94928766875
 20
1398.64370662471
 30
0.0
 11
672.94928766875
 21
1415.64370630511
 31
0.0
  0
LINE
  5
287
330
1F
100
AcDbEntity
  8
1
  6
Continuous
 62
     3
100
AcDbLine
 10
651.944413865037
 20
1386.89371233881
 30
0.0
 11
651.944413865037
 21
1395.49941739952
 31
0.0
  0
LINE
  5
288
330
1F
100
AcDbEntity
  8
100
  6
Continuous
 62
     3
100
AcDbLine
 10
652.878913847469
 20
1389.21531445447
 30
0.0
 11
652.581249809365
 21
1394.89508265359
 31
0.0
  0
LINE
  5
289
330
1F
100
AcDbEntity
  8
100
  6
Continuous
 62
     3
100
AcDbLine
 10
652.878913847469
 20
1382.94611184143
 30
0.0
 11
652.878913847469
 21
1389.21531445447
 31
0.0
  0
LINE
  5
28A
330
1F
100
AcDbEntity
  8
100
  6
Continuous
 62
     3
100
AcDbLine
 10
652.581249809365
 20
1394.89508265359
 30
0.0
 11
651.528913872849
 21
1395.89371216961
 31
0.0
  0
LINE
  5
28B
330
1F
100
AcDbEntity
  8
1
  6
Continuous
 62
     3
100
AcDbLine
 10
651.944413865037
 20
1386.89371233881
 30
0.0
 11
652.878913847469
 21
1385.27511088957
 31
0.0
  0
LINE
  5
28C
330
1F
100
AcDbEntity
  8
100
  6
Continuous
 62
     3
100
AcDbLine
 10
649.128913917971
 20
1398.64370662471
 30
0.0
 11
649.12891391797
 21
1395.89371216961
 31
0.0
  0
LINE
  5
28D
330
1F
100
AcDbEntity
  8
0
  6
Continuous
 62
     3
100
AcDbLine
 10
631.963034769605
 20
1371.89370140001
 30
0.0
 11
631.963034582
 21
1381.89370140001
 31
0.0
  0
LINE
  5
28E
330
1F
100
AcDbEntity
  8
0
  6
Continuous
 62
     3
100
AcDbLine
 10
630.128915202768
 20
1371.8937013656
 30
0.0
 11
631.963034769605
 21
1371.89370140001
 31
0.0
  0
LINE
  5
28F
330
1F
100
AcDbEntity
  8
0
  6
Continuous
 62
     3
100
AcDbLine
 10
629.128911078702
 20
1381.89370134684
 30
0.0
 11
631.963034582
 21
1381.89370140001
 31
0.0
  0
LINE
  5
290
330
1F
100
AcDbEntity
  8
0
  6
Continuous
 62
     3
100
AcDbLine
 10
653.294795635932
 20
1371.8937018002
 30
0.0
 11
655.128915202768
 21
1371.89370183461
 31
0.0
  0
LINE
  5
291
330
1F
100
AcDbEntity
  8
0
  6
Continuous
 62
     3
100
AcDbLine
 10
653.294795635932
 20
1371.8937018002
 30
0.0
 11
653.294795448328
 21
1381.8937018002
 31
0.0
  0
LINE
  5
292
330
1F
100
AcDbEntity
  8
0
  6
Continuous
 62
     3
100
AcDbLine
 10
653.294795448328
 20
1381.8937018002
 30
0.0
 11
656.128910571103
 21
1381.89370185337
 31
0.0
  0
LINE
  5
293
330
1F
100
AcDbEntity
  8
0
  6
Continuous
 62
     3
100
AcDbLine
 10
644.463034769605
 20
1371.89370163451
 30
0.0
 11
644.463034582
 21
1381.89370163451
 31
0.0
  0
LINE
  5
294
330
1F
100
AcDbEntity
  8
0
  6
Continuous
 62
     3
100
AcDbLine
 10
640.794795635932
 20
1371.8937015657
 30
0.0
 11
640.794795448328
 21
1381.89370156569
 31
0.0
  0
LINE
  5
295
330
1F
100
AcDbEntity
  8
0
  6
Continuous
 62
     3
100
AcDbLine
 10
640.794795448328
 20
1381.89370156569
 30
0.0
 11
644.463034582
 21
1381.89370163451
 31
0.0
  0
LINE
  5
296
330
1F
100
AcDbEntity
  8
0
  6
Continuous
 62
     3
100
AcDbLine
 10
640.794795635932
 20
1371.8937015657
 30
0.0
 11
644.463034769605
 21
1371.89370163451
 31
0.0
  0
ARC
  5
297
330
1F
100
AcDbEntity
  8
100
  6
Continuous
 62
     3
100
AcDbCircle
 10
629.628915679391
 20
1543.89369390128
 30
0.0
 40
7.249999863700557
100
AcDbArc
 50
203.4603541218526
 51
223.6028160665493
  0
ARC
  5
298
330
1F
100
AcDbEntity
  8
100
  6
Continuous
 62
     3
100
AcDbCircle
 10
629.628915679391
 20
1543.89369390128
 30
0.0
 40
7.249999863697104
100
AcDbArc
 50
316.3971781212337
 51
2.55972607894862
  0
ARC
  5
299
330
1F
100
AcDbEntity
  8
100
  6
Continuous
 62
     3
100
AcDbCircle
 10
661.628915255313
 20
1547.39369221242
 30
0.0
 40
7.249999863698628
100
AcDbArc
 50
174.7047680061358
 51
331.846412669239
  0
ARC
  5
29A
330
1F
100
AcDbEntity
  8
100
  6
Continuous
 62
     3
100
AcDbCircle
 10
629.628915679391
 20
1543.89369390128
 30
0.0
 40
6.249999882505542
100
AcDbArc
 50
33.01004009979825
 51
173.0100401002088
  0
ARC
  5
29B
330
1F
100
AcDbEntity
  8
100
  6
Continuous
 62
     3
100
AcDbCircle
 10
661.628915255313
 20
1547.39369221242
 30
0.0
 40
6.249999882484173
100
AcDbArc
 50
2.99999709374943
 51
142.9999970938945
  0
ARC
  5
29C
330
1F
100
AcDbEntity
  8
100
  6
Continuous
 62
     3
100
AcDbCircle
 10
936.434069380231
 20
1547.39368399984
 30
0.0
 40
6.249999882638098
100
AcDbArc
 50
36.9999999991954
 51
177.0003993129359
  0
ARC
  5
29D
330
1F
100
AcDbEntity
  8
100
  6
Continuous
 62
     3
100
AcDbCircle
 10
936.434069380231
 20
1485.39368516544
 30
0.0
 40
6.249999882404352
100
AcDbArc
 50
183.0000000009734
 51
322.7011088747507
  0
ARC
  5
29E
330
1F
100
AcDbEntity
  8
100
  6
Continuous
 62
     3
100
AcDbCircle
 10
968.434068778632
 20
1488.89368509964
 30
0.0
 40
6.249999882420989
100
AcDbArc
 50
213.0100430063605
 51
351.6281977870917
  0
ARC
  5
29F
330
1F
100
AcDbEntity
  8
100
  6
Continuous
 62
     3
100
AcDbCircle
 10
955.434069023032
 20
1516.39368458264
 30
0.0
 40
22.49999957715163
100
AcDbArc
 50
353.0100430064552
 51
92.44528968646328
  0
ARC
  5
2A0
330
1F
100
AcDbEntity
  8
100
  6
Continuous
 62
     3
100
AcDbCircle
 10
954.175439706894
 20
1545.86682183554
 30
0.0
 40
6.999999868536357
100
AcDbArc
 50
217.0000000005371
 51
272.4452896867061
  0
ARC
  5
2A1
330
1F
100
AcDbEntity
  8
100
  6
Continuous
 62
     3
100
AcDbCircle
 10
954.056887201323
 20
1487.34200483321
 30
0.0
 40
6.65168017056407
100
AcDbArc
 50
33.01004300694699
 51
142.9999999985007
  0
ARC
  5
2A2
330
1F
100
AcDbEntity
  8
100
  6
Continuous
 62
     3
100
AcDbCircle
 10
661.628915255313
 20
1485.39369381295
 30
0.0
 40
6.249999882500437
100
AcDbArc
 50
217.0000029061016
 51
357.0000029061646
  0
ARC
  5
2A3
330
1F
100
AcDbEntity
  8
100
  6
Continuous
 62
     3
100
AcDbCircle
 10
661.628915255313
 20
1485.39369381295
 30
0.0
 40
7.249999863698988
100
AcDbArc
 50
28.15358733066765
 51
185.2952319939453
  0
CIRCLE
  5
2A4
330
1F
100
AcDbEntity
  8
100
  6
Continuous
 62
     3
100
AcDbCircle
 10
642.628914047851
 20
1516.39369375891
 30
0.0
 40
8.06004039138395
  0
CIRCLE
  5
2A5
330
1F
100
AcDbEntity
  8
100
  6
Continuous
 62
     3
100
AcDbCircle
 10
642.628914040169
 20
1516.39369375891
 30
0.0
 40
4.249999920099981
  0
CIRCLE
  5
2A6
330
1F
100
AcDbEntity
  8
4
  6
PHANTOM
 62
     6
100
AcDbCircle
 10
785.128911361169
 20
1516.39368458264
 30
0.0
 40
44.99999915399997
  0
CIRCLE
  5
2A7
330
1F
100
AcDbEntity
  8
100
  6
Continuous
 62
     3
100
AcDbCircle
 10
945.832977058532
 20
1516.39368458264
 30
0.0
 40
6.999999872999979
  0
CIRCLE
  5
2A8
330
1F
100
AcDbEntity
  8
100
  6
Continuous
 62
     3
100
AcDbCircle
 10
936.434069380231
 20
1547.39368399984
 30
0.0
 40
6.09999988532104
  0
CIRCLE
  5
2A9
330
1F
100
AcDbEntity
  8
100
  6
Continuous
 62
     3
100
AcDbCircle
 10
936.434069380231
 20
1485.39368516544
 30
0.0
 40
6.09999988532104
  0
CIRCLE
  5
2AA
330
1F
100
AcDbEntity
  8
100
  6
Continuous
 62
     3
100
AcDbCircle
 10
968.434068778632
 20
1488.89368509964
 30
0.0
 40
6.099999885320017
  0
CIRCLE
  5
2AB
330
1F
100
AcDbEntity
  8
1
  6
Continuous
 62
     3
100
AcDbCircle
 10
642.628914040169
 20
1516.39369375891
 30
0.0
 40
9.499999421517032
  0
LWPOLYLINE
  5
2AC
330
1F
100
AcDbEntity
  8
100
  6
Continuous
 62
     3
100
AcDbPolyline
 90
       13
 70
     0
 43
0.0
 10
967.933261408447
 20
1516.39368458264
 10
967.792343501096
 20
1514.25465733905
 10
967.34795618365
 20
1512.13864942003
 10
966.602672428462
 20
1510.08622891122
 10
965.552893975998
 20
1508.11687815304
 10
964.191383819994
 20
1506.24709449059
 10
962.519638613623
 20
1504.51623003293
 10
960.567875211516
 20
1502.97707947947
 10
958.416842411755
 20
1501.68122128783
 10
956.239176696296
 20
1500.67943310567
 10
954.255554368388
 20
1499.97124671558
 10
952.457387062593
 20
1499.45882381661
 10
951.671564623767
 20
1499.27475599147
  0
LWPOLYLINE
  5
2AD
330
1F
100
AcDbEntity
  8
100
  6
Continuous
 62
     3
100
AcDbPolyline
 90
        4
 70
     0
 43
0.0
 10
954.284945363035
 20
1530.99074399921
 10
952.693759918549
 20
1532.65031768361
 10
950.679276240022
 20
1534.34968002666
 10
948.530620355416
 20
1535.79568953168
  0
LWPOLYLINE
  5
2AE
330
1F
100
AcDbEntity
  8
100
  6
Continuous
 62
     3
100
AcDbPolyline
 90
        5
 70
     0
 43
0.0
 10
954.286099272413
 20
1501.79795550124
 10
955.092998509044
 20
1502.69005648827
 10
955.799997751552
 20
1503.39088310409
 10
956.299483379362
 20
1503.82315076556
 10
956.447351825582
 20
1503.93449831827
  0
LWPOLYLINE
  5
2AF
330
1F
100
AcDbEntity
  8
100
  6
Continuous
 62
     3
100
AcDbPolyline
 90
        6
 70
     0
 43
0.0
 10
956.509532793413
 20
1528.80972313102
 10
956.516527500281
 20
1528.80584328809
 10
956.299242420366
 20
1528.96440839851
 10
955.799617695359
 20
1529.39683787338
 10
955.092696790449
 20
1530.0976298544
 10
954.286101608813
 20
1530.98941097004
  0
LWPOLYLINE
  5
2B0
330
1F
100
AcDbEntity
  8
100
  6
Continuous
 62
     3
100
AcDbPolyline
 90
        4
 70
     0
 43
0.0
 10
948.530117235826
 20
1535.79599149447
 10
946.125262579037
 20
1537.07317256486
 10
943.344732302311
 20
1538.19399960319
 10
938.778048180546
 20
1539.49802496735
  0
LWPOLYLINE
  5
2B1
330
1F
100
AcDbEntity
  8
100
  6
Continuous
 62
     3
100
AcDbPolyline
 90
        4
 70
     0
 43
0.0
 10
948.530620355216
 20
1496.9916796336
 10
950.679276240022
 20
1498.43768913881
 10
952.693759918549
 20
1500.13705148186
 10
954.284945363035
 20
1501.79662516606
  0
LWPOLYLINE
  5
2B2
330
1F
100
AcDbEntity
  8
100
  6
Continuous
 62
     3
100
AcDbPolyline
 90
        4
 70
     0
 43
0.0
 10
938.558421951195
 20
1493.13444898014
 10
943.344732302311
 20
1494.59336956208
 10
946.125262579037
 20
1495.71419660041
 10
948.530117235826
 20
1496.9913776708
  0
LWPOLYLINE
  5
2B3
330
1F
100
AcDbEntity
  8
100
  6
Continuous
 62
     3
100
AcDbPolyline
 90
       13
 70
     0
 43
0.0
 10
951.671651198565
 20
1533.5125401418
 10
952.471877704721
 20
1533.32483121253
 10
954.272918850461
 20
1532.8106262748
 10
956.259601379312
 20
1532.09972204976
 10
958.43841061695
 20
1531.09482411386
 10
960.588055987737
 20
1529.79636951807
 10
962.535874711918
 20
1528.25644539982
 10
964.202833431579
 20
1526.52663897454
 10
965.560146930861
 20
1524.65888869705
 10
966.606725070986
 20
1522.69203120303
 10
967.349703586018
 20
1520.64259726596
 10
967.792703609089
 20
1518.53005543647
 10
967.933261408447
 20
1516.39368458264
  0
LEADER
  5
2B4
330
1F
100
AcDbEntity
  8
1
  6
Continuous
 62
     4
100
AcDbLeader
  3
Standard
 71
     0
 76
     3
 10
987.311522084251
 20
1499.94369820026
 30
0.0
 10
1013.54188070736
 20
1469.82701960263
 30
0.0
 10
1030.81553150794
 20
1469.82701960263
 30
0.0
  0
LEADER
  5
2B5
330
1F
100
AcDbEntity
  8
1
  6
Continuous
 62
     4
100
AcDbLeader
  3
Standard
 71
     0
 76
     3
 10
611.780234896031
 20
1499.94369820026
 30
0.0
 10
590.147403185533
 20
1472.67958857055
 30
0.0
 10
572.24973666246
 20
1472.67958857055
 30
0.0
  0
ENDSEC
  0
SECTION
  2
OBJECTS
  0
DICTIONARY
  5
C
330
0
100
AcDbDictionary
281
     1
  3
ACAD_GROUP
350
D
  3
ACAD_LAYOUT
350
1A
  3
ACAD_MATERIAL
350
3B
  3
ACAD_MLEADERSTYLE
350
2B8
  3
ACAD_MLINESTYLE
350
17
  3
ACAD_PLOTSETTINGS
350
19
  3
ACAD_PLOTSTYLENAME
350
E
  3
ACAD_VISUALSTYLE
350
2A
  3
AcDbVariableDictionary
350
2B6
  0
DICTIONARY
  5
D
102
{ACAD_REACTORS
330
C
102
}
330
C
100
AcDbDictionary
281
     1
  0
DICTIONARY
  5
1A
102
{ACAD_REACTORS
330
C
102
}
330
C
100
AcDbDictionary
281
     1
  3
Layout1
350
1E
  3
Layout2
350
26
  3
Model
350
22
  0
DICTIONARY
  5
3B
102
{ACAD_REACTORS
330
C
102
}
330
C
100
AcDbDictionary
281
     1
  3
ByBlock
350
3D
  3
ByLayer
350
3C
  3
Global
350
3E
  0
DICTIONARY
  5
2B8
102
{ACAD_REACTORS
330
C
102
}
330
C
100
AcDbDictionary
281
     1
  0
DICTIONARY
  5
17
102
{ACAD_REACTORS
330
C
102
}
330
C
100
AcDbDictionary
281
     1
  3
Standard
350
18
  0
DICTIONARY
  5
19
102
{ACAD_REACTORS
330
C
102
}
330
C
100
AcDbDictionary
281
     1
  0
ACDBDICTIONARYWDFLT
  5
E
102
{ACAD_REACTORS
330
C
102
}
330
C
100
AcDbDictionary
281
     1
  3
Normal
350
F
100
AcDbDictionaryWithDefault
340
F
  0
DICTIONARY
  5
2A
102
{ACAD_REACTORS
330
C
102
}
330
C
100
AcDbDictionary
281
     1
  3
2dWireframe
350
2F
  3
3D Hidden
350
31
  3
3dWireframe
350
30
  3
Basic
350
32
  3
Brighten
350
36
  3
ColorChange
350
3A
  3
Conceptual
350
34
  3
Dim
350
35
  3
Facepattern
350
39
  3
Flat
350
2B
  3
FlatWithEdges
350
2C
  3
Gouraud
350
2D
  3
GouraudWithEdges
350
2E
  3
Linepattern
350
38
  3
Realistic
350
33
  3
Thicken
350
37
  0
DICTIONARY
  5
2B6
102
{ACAD_REACTORS
330
C
102
}
330
C
100
AcDbDictionary
281
     1
  3
DIMASSOC
350
2B9
  3
HIDETEXT
350
2BA
  0
LAYOUT
  5
1E
102
{ACAD_REACTORS
330
1A
102
}
330
1A
100
AcDbPlotSettings
  1

  2
none_device
  4

  6

 40
0.0
 41
0.0
 42
0.0
 43
0.0
 44
0.0
 45
0.0
 46
0.0
 47
0.0
 48
0.0
 49
0.0
140
0.0
141
0.0
142
1.0
143
1.0
 70
   688
 72
     0
 73
     0
 74
     5
  7

 75
    16
147
1.0
148
0.0
149
0.0
100
AcDbLayout
  1
Layout1
 70
     1
 71
     1
 10
0.0
 20
0.0
 11
12.0
 21
9.0
 12
0.0
 22
0.0
 32
0.0
 14
1.00000000000000E+20
 24
1.00000000000000E+20
 34
1.00000000000000E+20
 15
-1.00000000000000E+20
 25
-1.00000000000000E+20
 35
-1.00000000000000E+20
146
0.0
 13
0.0
 23
0.0
 33
0.0
 16
1.0
 26
0.0
 36
0.0
 17
0.0
 27
1.0
 37
0.0
 76
     0
330
1B
  0
LAYOUT
  5
26
102
{ACAD_REACTORS
330
1A
102
}
330
1A
100
AcDbPlotSettings
  1

  2
none_device
  4

  6

 40
0.0
 41
0.0
 42
0.0
 43
0.0
 44
0.0
 45
0.0
 46
0.0
 47
0.0
 48
0.0
 49
0.0
140
0.0
141
0.0
142
1.0
143
1.0
 70
   688
 72
     0
 73
     0
 74
     5
  7

 75
    16
147
1.0
148
0.0
149
0.0
100
AcDbLayout
  1
Layout2
 70
     1
 71
     2
 10
0.0
 20
0.0
 11
0.0
 21
0.0
 12
0.0
 22
0.0
 32
0.0
 14
0.0
 24
0.0
 34
0.0
 15
0.0
 25
0.0
 35
0.0
146
0.0
 13
0.0
 23
0.0
 33
0.0
 16
1.0
 26
0.0
 36
0.0
 17
0.0
 27
1.0
 37
0.0
 76
     0
330
23
  0
LAYOUT
  5
22
102
{ACAD_REACTORS
330
1A
102
}
330
1A
100
AcDbPlotSettings
  1

  2
none_device
  4

  6

 40
0.0
 41
0.0
 42
0.0
 43
0.0
 44
0.0
 45
0.0
 46
0.0
 47
0.0
 48
0.0
 49
0.0
140
0.0
141
0.0
142
1.0
143
1.0
 70
  1712
 72
     0
 73
     0
 74
     0
  7

 75
     0
147
1.0
148
0.0
149
0.0
100
AcDbLayout
  1
Model
 70
     1
 71
     0
 10
0.0
 20
0.0
 11
12.0
 21
9.0
 12
0.0
 22
0.0
 32
0.0
 14
572.24973666246
 24
1254.99344770823
 34
0.0
 15
1176.68430528762
 25
1561.39368373664
 35
0.0
146
0.0
 13
0.0
 23
0.0
 33
0.0
 16
1.0
 26
0.0
 36
0.0
 17
0.0
 27
1.0
 37
0.0
 76
     0
330
1F
331
29
  0
MATERIAL
  5
3D
102
{ACAD_REACTORS
330
3B
102
}
102
{ACAD_XDICTIONARY
360
2DD
102
}
330
3B
100
AcDbMaterial
  1
ByBlock
  0
MATERIAL
  5
3C
102
{ACAD_REACTORS
330
3B
102
}
102
{ACAD_XDICTIONARY
360
2DB
102
}
330
3B
100
AcDbMaterial
  1
ByLayer
  0
MATERIAL
  5
3E
102
{ACAD_REACTORS
330
3B
102
}
102
{ACAD_XDICTIONARY
360
2DF
102
}
330
3B
100
AcDbMaterial
  1
Global
  0
MLINESTYLE
  5
18
102
{ACAD_REACTORS
330
17
102
}
330
17
100
AcDbMlineStyle
  2
Standard
 70
     0
  3

 62
   256
 51
90.0
 52
90.0
 71
     2
 49
0.5
 62
   256
  6
BYLAYER
 49
-0.5
 62
   256
  6
BYLAYER
  0
ACDBPLACEHOLDER
  5
F
102
{ACAD_REACTORS
330
E
102
}
330
E
  0
VISUALSTYLE
  5
2F
102
{ACAD_REACTORS
330
2A
102
}
102
{ACAD_XDICTIONARY
360
2C3
102
}
330
2A
100
AcDbVisualStyle
  2
2dWireframe
 70
     4
 71
     0
 72
     2
 73
     0
 90
        0
 40
-0.6
 41
-30.0
 62
     5
 63
     7
 74
     1
 91
        4
 64
     7
 65
   257
 75
     1
175
     1
 42
1.0
 92
        0
 66
   257
 43
1.0
 76
     1
 77
     6
 78
     2
 67
     7
 79
     5
170
     0
171
     0
290
     0
174
     0
 93
        1
 44
0.0
173
     0
291
     0
 45
0.0
1001
ACAD
1000
AcDbSavedByObjectVersion
1070
     0
  0
VISUALSTYLE
  5
31
102
{ACAD_REACTORS
330
2A
102
}
102
{ACAD_XDICTIONARY
360
2C7
102
}
330
2A
100
AcDbVisualStyle
  2
3D Hidden
 70
     6
 71
     1
 72
     2
 73
     2
 90
        0
 40
-0.6
 41
-30.0
 62
     5
 63
     7
 74
     2
 91
        2
 64
     7
 65
   257
 75
     2
175
     1
 42
40.0
 92
        0
 66
   257
 43
1.0
 76
     1
 77
     6
 78
     2
 67
     7
 79
     3
170
     0
171
     0
290
     0
174
     0
 93
        1
 44
0.0
173
     0
291
     0
 45
0.0
1001
ACAD
1000
AcDbSavedByObjectVersion
1070
     0
  0
VISUALSTYLE
  5
30
102
{ACAD_REACTORS
330
2A
102
}
102
{ACAD_XDICTIONARY
360
2C5
102
}
330
2A
100
AcDbVisualStyle
  2
3dWireframe
 70
     5
 71
     0
 72
     2
 73
     0
 90
        0
 40
-0.6
 41
-30.0
 62
     5
 63
     7
 74
     1
 91
        4
 64
     7
 65
   257
 75
     1
175
     1
 42
1.0
 92
        0
 66
   257
 43
1.0
 76
     1
 77
     6
 78
     2
 67
     7
 79
     5
170
     0
171
     0
290
     0
174
     0
 93
        1
 44
0.0
173
     0
291
     0
 45
0.0
1001
ACAD
1000
AcDbSavedByObjectVersion
1070
     0
  0
VISUALSTYLE
  5
32
102
{ACAD_REACTORS
330
2A
102
}
102
{ACAD_XDICTIONARY
360
2C9
102
}
330
2A
100
AcDbVisualStyle
  2
Basic
 70
     7
 71
     1
 72
     0
 73
     1
 90
        0
 40
-0.6
 41
-30.0
 62
     5
 63
     7
 74
     0
 91
        4
 64
     7
 65
   257
 75
     1
175
     1
 42
1.0
 92
        8
 66
     7
 43
1.0
 76
     1
 77
     6
 78
     2
 67
     7
 79
     5
170
     0
171
     0
290
     0
174
     0
 93
        1
 44
0.0
173
     0
291
     1
 45
0.0
1001
ACAD
1000
AcDbSavedByObjectVersion
1070
     0
  0
VISUALSTYLE
  5
36
102
{ACAD_REACTORS
330
2A
102
}
102
{ACAD_XDICTIONARY
360
2D1
102
}
330
2A
100
AcDbVisualStyle
  2
Brighten
 70
    12
 71
     2
 72
     2
 73
     0
 90
        0
 40
-0.6
 41
-30.0
 62
     5
 63
     7
 74
     1
 91
        4
 64
     7
 65
   257
 75
     1
175
     1
 42
1.0
 92
        8
 66
     7
 43
1.0
 76
     1
 77
     6
 78
     2
 67
     7
 79
     5
170
     0
171
     0
290
     0
174
     0
 93
        1
 44
50.0
173
     0
291
     1
 45
0.0
1001
ACAD
1000
AcDbSavedByObjectVersion
1070
     0
  0
VISUALSTYLE
  5
3A
102
{ACAD_REACTORS
330
2A
102
}
102
{ACAD_XDICTIONARY
360
2D9
102
}
330
2A
100
AcDbVisualStyle
  2
ColorChange
 70
    16
 71
     2
 72
     2
 73
     3
 90
        0
 40
-0.6
 41
-30.0
 62
     5
 63
     8
 74
     1
 91
        4
 64
     7
 65
   257
 75
     1
175
     1
 42
1.0
 92
        8
 66
     8
 43
1.0
 76
     1
 77
     6
 78
     2
 67
     7
 79
     5
170
     0
171
     0
290
     0
174
     0
 93
        1
 44
0.0
173
     0
291
     1
 45
0.0
1001
ACAD
1000
AcDbSavedByObjectVersion
1070
     0
  0
VISUALSTYLE
  5
34
102
{ACAD_REACTORS
330
2A
102
}
102
{ACAD_XDICTIONARY
360
2CD
102
}
330
2A
100
AcDbVisualStyle
  2
Conceptual
 70
     9
 71
     3
 72
     2
 73
     0
 90
        0
 40
-0.6
 41
-30.0
 62
     5
 63
     7
 74
     2
 91
        2
 64
     7
 65
   257
 75
     1
175
     1
 42
40.0
 92
        8
 66
     7
 43
1.0
 76
     1
 77
     6
 78
     2
 67
     7
 79
     3
170
     0
171
     0
290
     0
174
     0
 93
        1
 44
0.0
173
     0
291
     0
 45
0.0
1001
ACAD
1000
AcDbSavedByObjectVersion
1070
     0
  0
VISUALSTYLE
  5
35
102
{ACAD_REACTORS
330
2A
102
}
102
{ACAD_XDICTIONARY
360
2CF
102
}
330
2A
100
AcDbVisualStyle
  2
Dim
 70
    11
 71
     2
 72
     2
 73
     0
 90
        0
 40
-0.6
 41
-30.0
 62
     5
 63
     7
 74
     1
 91
        4
 64
     7
 65
   257
 75
     1
175
     1
 42
1.0
 92
        8
 66
     7
 43
1.0
 76
     1
 77
     6
 78
     2
 67
     7
 79
     5
170
     0
171
     0
290
     0
174
     0
 93
        1
 44
-50.0
173
     0
291
     1
 45
0.0
1001
ACAD
1000
AcDbSavedByObjectVersion
1070
     0
  0
VISUALSTYLE
  5
39
102
{ACAD_REACTORS
330
2A
102
}
102
{ACAD_XDICTIONARY
360
2D7
102
}
330
2A
100
AcDbVisualStyle
  2
Facepattern
 70
    15
 71
     2
 72
     2
 73
     0
 90
        0
 40
-0.6
 41
-30.0
 62
     5
 63
     7
 74
     1
 91
        4
 64
     7
 65
   257
 75
     1
175
     1
 42
1.0
 92
        8
 66
     7
 43
1.0
 76
     1
 77
     6
 78
     2
 67
     7
 79
     5
170
     0
171
     0
290
     0
174
     0
 93
        1
 44
0.0
173
     0
291
     1
 45
0.0
1001
ACAD
1000
AcDbSavedByObjectVersion
1070
     0
  0
VISUALSTYLE
  5
2B
102
{ACAD_REACTORS
330
2A
102
}
102
{ACAD_XDICTIONARY
360
2BB
102
}
330
2A
100
AcDbVisualStyle
  2
Flat
 70
     0
 71
     2
 72
     1
 73
     1
 90
        2
 40
-0.6
 41
30.0
 62
     5
 63
     7
 74
     0
 91
        4
 64
     7
 65
   257
 75
     1
175
     1
 42
1.0
 92
        8
 66
     7
 43
1.0
 76
     1
 77
     6
 78
     2
 67
     7
 79
     5
170
     0
171
     0
290
     0
174
     0
 93
       13
 44
0.0
173
     0
291
     1
 45
0.0
1001
ACAD
1000
AcDbSavedByObjectVersion
1070
     0
  0
VISUALSTYLE
  5
2C
102
{ACAD_REACTORS
330
2A
102
}
102
{ACAD_XDICTIONARY
360
2BD
102
}
330
2A
100
AcDbVisualStyle
  2
FlatWithEdges
 70
     1
 71
     2
 72
     1
 73
     1
 90
        2
 40
-0.6
 41
30.0
 62
     5
 63
     7
 74
     1
 91
        4
 64
     7
 65
   257
 75
     1
175
     1
 42
1.0
 92
        0
 66
   257
 43
1.0
 76
     1
 77
     6
 78
     2
 67
     7
 79
     5
170
     0
171
     0
290
     0
174
     0
 93
       13
 44
0.0
173
     0
291
     1
 45
0.0
1001
ACAD
1000
AcDbSavedByObjectVersion
1070
     0
  0
VISUALSTYLE
  5
2D
102
{ACAD_REACTORS
330
2A
102
}
102
{ACAD_XDICTIONARY
360
2BF
102
}
330
2A
100
AcDbVisualStyle
  2
Gouraud
 70
     2
 71
     2
 72
     2
 73
     1
 90
        2
 40
-0.6
 41
30.0
 62
     5
 63
     7
 74
     0
 91
        4
 64
     7
 65
   257
 75
     1
175
     1
 42
1.0
 92
        0
 66
     7
 43
1.0
 76
     1
 77
     6
 78
     2
 67
     7
 79
     5
170
     0
171
     0
290
     0
174
     0
 93
       13
 44
0.0
173
     0
291
     1
 45
0.0
1001
ACAD
1000
AcDbSavedByObjectVersion
1070
     0
  0
VISUALSTYLE
  5
2E
102
{ACAD_REACTORS
330
2A
102
}
102
{ACAD_XDICTIONARY
360
2C1
102
}
330
2A
100
AcDbVisualStyle
  2
GouraudWithEdges
 70
     3
 71
     2
 72
     2
 73
     1
 90
        2
 40
-0.6
 41
30.0
 62
     5
 63
     7
 74
     1
 91
        4
 64
     7
 65
   257
 75
     1
175
     1
 42
1.0
 92
        0
 66
   257
 43
1.0
 76
     1
 77
     6
 78
     2
 67
     7
 79
     5
170
     0
171
     0
290
     0
174
     0
 93
       13
 44
0.0
173
     0
291
     1
 45
0.0
1001
ACAD
1000
AcDbSavedByObjectVersion
1070
     0
  0
VISUALSTYLE
  5
38
102
{ACAD_REACTORS
330
2A
102
}
102
{ACAD_XDICTIONARY
360
2D5
102
}
330
2A
100
AcDbVisualStyle
  2
Linepattern
 70
    14
 71
     2
 72
     2
 73
     0
 90
        0
 40
-0.6
 41
-30.0
 62
     5
 63
     7
 74
     1
 91
        4
 64
     7
 65
   257
 75
     7
175
     7
 42
1.0
 92
        8
 66
     7
 43
1.0
 76
     1
 77
     6
 78
     2
 67
     7
 79
     5
170
     0
171
     0
290
     0
174
     0
 93
        1
 44
0.0
173
     0
291
     1
 45
0.0
1001
ACAD
1000
AcDbSavedByObjectVersion
1070
     0
  0
VISUALSTYLE
  5
33
102
{ACAD_REACTORS
330
2A
102
}
102
{ACAD_XDICTIONARY
360
2CB
102
}
330
2A
100
AcDbVisualStyle
  2
Realistic
 70
     8
 71
     2
 72
     2
 73
     0
 90
        0
 40
-0.6
 41
-30.0
 62
     5
 63
     7
 74
     1
 91
        0
 64
     7
 65
   257
 75
     1
175
     1
 42
1.0
 92
        8
 66
     8
 43
1.0
 76
     1
 77
     6
 78
     2
 67
     7
 79
     5
170
     0
171
     0
290
     0
174
     0
 93
       13
 44
0.0
173
     0
291
     0
 45
0.0
1001
ACAD
1000
AcDbSavedByObjectVersion
1070
     0
  0
VISUALSTYLE
  5
37
102
{ACAD_REACTORS
330
2A
102
}
102
{ACAD_XDICTIONARY
360
2D3
102
}
330
2A
100
AcDbVisualStyle
  2
Thicken
 70
    13
 71
     2
 72
     2
 73
     0
 90
        0
 40
-0.6
 41
-30.0
 62
     5
 63
     7
 74
     1
 91
        4
 64
     7
 65
   257
 75
     1
175
     1
 42
1.0
 92
       12
 66
     7
 43
1.0
 76
     1
 77
     6
 78
     2
 67
     7
 79
     5
170
     0
171
     0
290
     0
174
     0
 93
        1
 44
0.0
173
     0
291
     1
 45
0.0
1001
ACAD
1000
AcDbSavedByObjectVersion
1070
     0
  0
DICTIONARYVAR
  5
2B9
102
{ACAD_REACTORS
330
2B6
102
}
330
2B6
100
DictionaryVariables
280
     0
  1
2
  0
DICTIONARYVAR
  5
2BA
102
{ACAD_REACTORS
330
2B6
102
}
330
2B6
100
DictionaryVariables
280
     0
  1
1
  0
DICTIONARY
  5
2DD
330
3D
100
AcDbDictionary
280
     1
281
     1
  3
ACAD_XREC_ROUNDTRIP
360
2DE
  0
DICTIONARY
  5
2DB
330
3C
100
AcDbDictionary
280
     1
281
     1
  3
ACAD_XREC_ROUNDTRIP
360
2DC
  0
DICTIONARY
  5
2DF
330
3E
100
AcDbDictionary
280
     1
281
     1
  3
ACAD_XREC_ROUNDTRIP
360
2E0
  0
DICTIONARY
  5
2C3
330
2F
100
AcDbDictionary
280
     1
281
     1
  3
ACAD_XREC_ROUNDTRIP
360
2C4
  0
DICTIONARY
  5
2C7
330
31
100
AcDbDictionary
280
     1
281
     1
  3
ACAD_XREC_ROUNDTRIP
360
2C8
  0
DICTIONARY
  5
2C5
330
30
100
AcDbDictionary
280
     1
281
     1
  3
ACAD_XREC_ROUNDTRIP
360
2C6
  0
DICTIONARY
  5
2C9
330
32
100
AcDbDictionary
280
     1
281
     1
  3
ACAD_XREC_ROUNDTRIP
360
2CA
  0
DICTIONARY
  5
2D1
330
36
100
AcDbDictionary
280
     1
281
     1
  3
ACAD_XREC_ROUNDTRIP
360
2D2
  0
DICTIONARY
  5
2D9
330
3A
100
AcDbDictionary
280
     1
281
     1
  3
ACAD_XREC_ROUNDTRIP
360
2DA
  0
DICTIONARY
  5
2CD
330
34
100
AcDbDictionary
280
     1
281
     1
  3
ACAD_XREC_ROUNDTRIP
360
2CE
  0
DICTIONARY
  5
2CF
330
35
100
AcDbDictionary
280
     1
281
     1
  3
ACAD_XREC_ROUNDTRIP
360
2D0
  0
DICTIONARY
  5
2D7
330
39
100
AcDbDictionary
280
     1
281
     1
  3
ACAD_XREC_ROUNDTRIP
360
2D8
  0
DICTIONARY
  5
2BB
330
2B
100
AcDbDictionary
280
     1
281
     1
  3
ACAD_XREC_ROUNDTRIP
360
2BC
  0
DICTIONARY
  5
2BD
330
2C
100
AcDbDictionary
280
     1
281
     1
  3
ACAD_XREC_ROUNDTRIP
360
2BE
  0
DICTIONARY
  5
2BF
330
2D
100
AcDbDictionary
280
     1
281
     1
  3
ACAD_XREC_ROUNDTRIP
360
2C0
  0
DICTIONARY
  5
2C1
330
2E
100
AcDbDictionary
280
     1
281
     1
  3
ACAD_XREC_ROUNDTRIP
360
2C2
  0
DICTIONARY
  5
2D5
330
38
100
AcDbDictionary
280
     1
281
     1
  3
ACAD_XREC_ROUNDTRIP
360
2D6
  0
DICTIONARY
  5
2CB
330
33
100
AcDbDictionary
280
     1
281
     1
  3
ACAD_XREC_ROUNDTRIP
360
2CC
  0
DICTIONARY
  5
2D3
330
37
100
AcDbDictionary
280
     1
281
     1
  3
ACAD_XREC_ROUNDTRIP
360
2D4
  0
XRECORD
  5
2DE
102
{ACAD_REACTORS
330
2DD
102
}
330
2DD
100
AcDbXrecord
280
     1
102
MATERIAL
148
0.0
149
0.0
149
0.0
 93
        0
 94
      127
282
     0
 72
     1
 77
     1
171
     1
175
     1
179
     1
273
     0
  0
XRECORD
  5
2DC
102
{ACAD_REACTORS
330
2DB
102
}
330
2DB
100
AcDbXrecord
280
     1
102
MATERIAL
148
0.0
149
0.0
149
0.0
 93
        0
 94
      127
282
     0
 72
     1
 77
     1
171
     1
175
     1
179
     1
273
     0
  0
XRECORD
  5
2E0
102
{ACAD_REACTORS
330
2DF
102
}
330
2DF
100
AcDbXrecord
280
     1
102
MATERIAL
148
0.0
149
0.0
149
0.0
 93
        0
 94
      127
282
     0
 72
     1
 77
     1
171
     1
175
     1
179
     1
273
     0
  0
XRECORD
  5
2C4
102
{ACAD_REACTORS
330
2C3
102
}
330
2C3
100
AcDbXrecord
280
     1
102
RTVSPropertyOp0
 70
     1
102
RTVSPropertyOp1
 70
     1
102
RTVSPropertyOp2
 70
     1
102
RTVSPropertyOp3
 70
     1
102
RTVSPropertyOp4
 70
     1
102
RTVSPropertyOp5
 70
     1
102
RTVSPropertyOp6
 70
     1
102
RTVSPropertyOp7
 70
     1
102
RTVSPropertyOp8
 70
     1
102
RTVSPropertyOp9
 70
     1
102
RTVSPropertyOp10
 70
     1
102
RTVSPropertyOp11
 70
     1
102
RTVSPropertyOp12
 70
     1
102
RTVSPropertyOp13
 70
     1
102
RTVSPropertyOp14
 70
     1
102
RTVSPropertyOp15
 70
     1
102
RTVSPropertyOp16
 70
     1
102
RTVSPropertyOp17
 70
     1
102
RTVSPropertyOp18
 70
     1
102
RTVSPropertyOp19
 70
     1
102
RTVSPropertyOp20
 70
     1
102
RTVSPropertyOp21
 70
     1
102
RTVSPropertyOp22
 70
     1
102
RTVSPropertyOp23
 70
     1
102
RTVSPropertyOp24
 70
     1
102
RTVSPropertyOp25
 70
     1
102
RTVSPropertyOp26
 70
     1
102
RTVSPropertyOp27
 70
     1
  0
XRECORD
  5
2C8
102
{ACAD_REACTORS
330
2C7
102
}
330
2C7
100
AcDbXrecord
280
     1
102
RTVSPropertyOp0
 70
     1
102
RTVSPropertyOp1
 70
     1
102
RTVSPropertyOp2
 70
     1
102
RTVSPropertyOp3
 70
     1
102
RTVSPropertyOp4
 70
     1
102
RTVSPropertyOp5
 70
     1
102
RTVSPropertyOp6
 70
     1
102
RTVSPropertyOp7
 70
     1
102
RTVSPropertyOp8
 70
     1
102
RTVSPropertyOp9
 70
     1
102
RTVSPropertyOp10
 70
     1
102
RTVSPropertyOp11
 70
     1
102
RTVSPropertyOp12
 70
     1
102
RTVSPropertyOp13
 70
     1
102
RTVSPropertyOp14
 70
     1
102
RTVSPropertyOp15
 70
     1
102
RTVSPropertyOp16
 70
     1
102
RTVSPropertyOp17
 70
     1
102
RTVSPropertyOp18
 70
     1
102
RTVSPropertyOp19
 70
     1
102
RTVSPropertyOp20
 70
     1
102
RTVSPropertyOp21
 70
     1
102
RTVSPropertyOp22
 70
     1
102
RTVSPropertyOp23
 70
     1
102
RTVSPropertyOp24
 70
     1
102
RTVSPropertyOp25
 70
     1
102
RTVSPropertyOp26
 70
     1
102
RTVSPropertyOp27
 70
     1
  0
XRECORD
  5
2C6
102
{ACAD_REACTORS
330
2C5
102
}
330
2C5
100
AcDbXrecord
280
     1
102
RTVSPropertyOp0
 70
     1
102
RTVSPropertyOp1
 70
     1
102
RTVSPropertyOp2
 70
     1
102
RTVSPropertyOp3
 70
     1
102
RTVSPropertyOp4
 70
     1
102
RTVSPropertyOp5
 70
     1
102
RTVSPropertyOp6
 70
     1
102
RTVSPropertyOp7
 70
     1
102
RTVSPropertyOp8
 70
     1
102
RTVSPropertyOp9
 70
     1
102
RTVSPropertyOp10
 70
     1
102
RTVSPropertyOp11
 70
     1
102
RTVSPropertyOp12
 70
     1
102
RTVSPropertyOp13
 70
     1
102
RTVSPropertyOp14
 70
     1
102
RTVSPropertyOp15
 70
     1
102
RTVSPropertyOp16
 70
     1
102
RTVSPropertyOp17
 70
     1
102
RTVSPropertyOp18
 70
     1
102
RTVSPropertyOp19
 70
     1
102
RTVSPropertyOp20
 70
     1
102
RTVSPropertyOp21
 70
     1
102
RTVSPropertyOp22
 70
     1
102
RTVSPropertyOp23
 70
     1
102
RTVSPropertyOp24
 70
     1
102
RTVSPropertyOp25
 70
     1
102
RTVSPropertyOp26
 70
     1
102
RTVSPropertyOp27
 70
     1
  0
XRECORD
  5
2CA
102
{ACAD_REACTORS
330
2C9
102
}
330
2C9
100
AcDbXrecord
280
     1
102
RTVSPropertyOp0
 70
     1
102
RTVSPropertyOp1
 70
     1
102
RTVSPropertyOp2
 70
     1
102
RTVSPropertyOp3
 70
     1
102
RTVSPropertyOp4
 70
     1
102
RTVSPropertyOp5
 70
     1
102
RTVSPropertyOp6
 70
     1
102
RTVSPropertyOp7
 70
     1
102
RTVSPropertyOp8
 70
     1
102
RTVSPropertyOp9
 70
     1
102
RTVSPropertyOp10
 70
     1
102
RTVSPropertyOp11
 70
     1
102
RTVSPropertyOp12
 70
     1
102
RTVSPropertyOp13
 70
     1
102
RTVSPropertyOp14
 70
     1
102
RTVSPropertyOp15
 70
     1
102
RTVSPropertyOp16
 70
     1
102
RTVSPropertyOp17
 70
     1
102
RTVSPropertyOp18
 70
     1
102
RTVSPropertyOp19
 70
     1
102
RTVSPropertyOp20
 70
     1
102
RTVSPropertyOp21
 70
     1
102
RTVSPropertyOp22
 70
     1
102
RTVSPropertyOp23
 70
     1
102
RTVSPropertyOp24
 70
     1
102
RTVSPropertyOp25
 70
     1
102
RTVSPropertyOp26
 70
     1
102
RTVSPropertyOp27
 70
     1
  0
XRECORD
  5
2D2
102
{ACAD_REACTORS
330
2D1
102
}
330
2D1
100
AcDbXrecord
280
     1
102
RTVSPropertyOp0
 70
     1
102
RTVSPropertyOp1
 70
     1
102
RTVSPropertyOp2
 70
     1
102
RTVSPropertyOp3
 70
     1
102
RTVSPropertyOp4
 70
     1
102
RTVSPropertyOp5
 70
     1
102
RTVSPropertyOp6
 70
     1
102
RTVSPropertyOp7
 70
     1
102
RTVSPropertyOp8
 70
     1
102
RTVSPropertyOp9
 70
     1
102
RTVSPropertyOp10
 70
     1
102
RTVSPropertyOp11
 70
     1
102
RTVSPropertyOp12
 70
     1
102
RTVSPropertyOp13
 70
     1
102
RTVSPropertyOp14
 70
     1
102
RTVSPropertyOp15
 70
     1
102
RTVSPropertyOp16
 70
     1
102
RTVSPropertyOp17
 70
     1
102
RTVSPropertyOp18
 70
     1
102
RTVSPropertyOp19
 70
     1
102
RTVSPropertyOp20
 70
     1
102
RTVSPropertyOp21
 70
     1
102
RTVSPropertyOp22
 70
     1
102
RTVSPropertyOp23
 70
     1
102
RTVSPropertyOp24
 70
     1
102
RTVSPropertyOp25
 70
     1
102
RTVSPropertyOp26
 70
     1
102
RTVSPropertyOp27
 70
     1
  0
XRECORD
  5
2DA
102
{ACAD_REACTORS
330
2D9
102
}
330
2D9
100
AcDbXrecord
280
     1
102
RTVSPropertyOp0
 70
     1
102
RTVSPropertyOp1
 70
     1
102
RTVSPropertyOp2
 70
     1
102
RTVSPropertyOp3
 70
     1
102
RTVSPropertyOp4
 70
     1
102
RTVSPropertyOp5
 70
     1
102
RTVSPropertyOp6
 70
     1
102
RTVSPropertyOp7
 70
     1
102
RTVSPropertyOp8
 70
     1
102
RTVSPropertyOp9
 70
     1
102
RTVSPropertyOp10
 70
     1
102
RTVSPropertyOp11
 70
     1
102
RTVSPropertyOp12
 70
     1
102
RTVSPropertyOp13
 70
     1
102
RTVSPropertyOp14
 70
     1
102
RTVSPropertyOp15
 70
     1
102
RTVSPropertyOp16
 70
     1
102
RTVSPropertyOp17
 70
     1
102
RTVSPropertyOp18
 70
     1
102
RTVSPropertyOp19
 70
     1
102
RTVSPropertyOp20
 70
     1
102
RTVSPropertyOp21
 70
     1
102
RTVSPropertyOp22
 70
     1
102
RTVSPropertyOp23
 70
     1
102
RTVSPropertyOp24
 70
     1
102
RTVSPropertyOp25
 70
     1
102
RTVSPropertyOp26
 70
     1
102
RTVSPropertyOp27
 70
     1
  0
XRECORD
  5
2CE
102
{ACAD_REACTORS
330
2CD
102
}
330
2CD
100
AcDbXrecord
280
     1
102
RTVSPropertyOp0
 70
     1
102
RTVSPropertyOp1
 70
     1
102
RTVSPropertyOp2
 70
     1
102
RTVSPropertyOp3
 70
     1
102
RTVSPropertyOp4
 70
     1
102
RTVSPropertyOp5
 70
     1
102
RTVSPropertyOp6
 70
     1
102
RTVSPropertyOp7
 70
     1
102
RTVSPropertyOp8
 70
     1
102
RTVSPropertyOp9
 70
     1
102
RTVSPropertyOp10
 70
     1
102
RTVSPropertyOp11
 70
     1
102
RTVSPropertyOp12
 70
     1
102
RTVSPropertyOp13
 70
     1
102
RTVSPropertyOp14
 70
     1
102
RTVSPropertyOp15
 70
     1
102
RTVSPropertyOp16
 70
     1
102
RTVSPropertyOp17
 70
     1
102
RTVSPropertyOp18
 70
     1
102
RTVSPropertyOp19
 70
     1
102
RTVSPropertyOp20
 70
     1
102
RTVSPropertyOp21
 70
     1
102
RTVSPropertyOp22
 70
     1
102
RTVSPropertyOp23
 70
     1
102
RTVSPropertyOp24
 70
     1
102
RTVSPropertyOp25
 70
     1
102
RTVSPropertyOp26
 70
     1
102
RTVSPropertyOp27
 70
     1
  0
XRECORD
  5
2D0
102
{ACAD_REACTORS
330
2CF
102
}
330
2CF
100
AcDbXrecord
280
     1
102
RTVSPropertyOp0
 70
     1
102
RTVSPropertyOp1
 70
     1
102
RTVSPropertyOp2
 70
     1
102
RTVSPropertyOp3
 70
     1
102
RTVSPropertyOp4
 70
     1
102
RTVSPropertyOp5
 70
     1
102
RTVSPropertyOp6
 70
     1
102
RTVSPropertyOp7
 70
     1
102
RTVSPropertyOp8
 70
     1
102
RTVSPropertyOp9
 70
     1
102
RTVSPropertyOp10
 70
     1
102
RTVSPropertyOp11
 70
     1
102
RTVSPropertyOp12
 70
     1
102
RTVSPropertyOp13
 70
     1
102
RTVSPropertyOp14
 70
     1
102
RTVSPropertyOp15
 70
     1
102
RTVSPropertyOp16
 70
     1
102
RTVSPropertyOp17
 70
     1
102
RTVSPropertyOp18
 70
     1
102
RTVSPropertyOp19
 70
     1
102
RTVSPropertyOp20
 70
     1
102
RTVSPropertyOp21
 70
     1
102
RTVSPropertyOp22
 70
     1
102
RTVSPropertyOp23
 70
     1
102
RTVSPropertyOp24
 70
     1
102
RTVSPropertyOp25
 70
     1
102
RTVSPropertyOp26
 70
     1
102
RTVSPropertyOp27
 70
     1
  0
XRECORD
  5
2D8
102
{ACAD_REACTORS
330
2D7
102
}
330
2D7
100
AcDbXrecord
280
     1
102
RTVSPropertyOp0
 70
     1
102
RTVSPropertyOp1
 70
     1
102
RTVSPropertyOp2
 70
     1
102
RTVSPropertyOp3
 70
     1
102
RTVSPropertyOp4
 70
     1
102
RTVSPropertyOp5
 70
     1
102
RTVSPropertyOp6
 70
     1
102
RTVSPropertyOp7
 70
     1
102
RTVSPropertyOp8
 70
     1
102
RTVSPropertyOp9
 70
     1
102
RTVSPropertyOp10
 70
     1
102
RTVSPropertyOp11
 70
     1
102
RTVSPropertyOp12
 70
     1
102
RTVSPropertyOp13
 70
     1
102
RTVSPropertyOp14
 70
     1
102
RTVSPropertyOp15
 70
     1
102
RTVSPropertyOp16
 70
     1
102
RTVSPropertyOp17
 70
     1
102
RTVSPropertyOp18
 70
     1
102
RTVSPropertyOp19
 70
     1
102
RTVSPropertyOp20
 70
     1
102
RTVSPropertyOp21
 70
     1
102
RTVSPropertyOp22
 70
     1
102
RTVSPropertyOp23
 70
     1
102
RTVSPropertyOp24
 70
     1
102
RTVSPropertyOp25
 70
     1
102
RTVSPropertyOp26
 70
     1
102
RTVSPropertyOp27
 70
     1
  0
XRECORD
  5
2BC
102
{ACAD_REACTORS
330
2BB
102
}
330
2BB
100
AcDbXrecord
280
     1
102
RTVSPropertyOp0
 70
     1
102
RTVSPropertyOp1
 70
     1
102
RTVSPropertyOp2
 70
     1
102
RTVSPropertyOp3
 70
     1
102
RTVSPropertyOp4
 70
     1
102
RTVSPropertyOp5
 70
     1
102
RTVSPropertyOp6
 70
     1
102
RTVSPropertyOp7
 70
     1
102
RTVSPropertyOp8
 70
     1
102
RTVSPropertyOp9
 70
     1
102
RTVSPropertyOp10
 70
     1
102
RTVSPropertyOp11
 70
     1
102
RTVSPropertyOp12
 70
     1
102
RTVSPropertyOp13
 70
     1
102
RTVSPropertyOp14
 70
     1
102
RTVSPropertyOp15
 70
     1
102
RTVSPropertyOp16
 70
     1
102
RTVSPropertyOp17
 70
     1
102
RTVSPropertyOp18
 70
     1
102
RTVSPropertyOp19
 70
     1
102
RTVSPropertyOp20
 70
     1
102
RTVSPropertyOp21
 70
     1
102
RTVSPropertyOp22
 70
     1
102
RTVSPropertyOp23
 70
     1
102
RTVSPropertyOp24
 70
     1
102
RTVSPropertyOp25
 70
     1
102
RTVSPropertyOp26
 70
     1
102
RTVSPropertyOp27
 70
     1
  0
XRECORD
  5
2BE
102
{ACAD_REACTORS
330
2BD
102
}
330
2BD
100
AcDbXrecord
280
     1
102
RTVSPropertyOp0
 70
     1
102
RTVSPropertyOp1
 70
     1
102
RTVSPropertyOp2
 70
     1
102
RTVSPropertyOp3
 70
     1
102
RTVSPropertyOp4
 70
     1
102
RTVSPropertyOp5
 70
     1
102
RTVSPropertyOp6
 70
     1
102
RTVSPropertyOp7
 70
     1
102
RTVSPropertyOp8
 70
     1
102
RTVSPropertyOp9
 70
     1
102
RTVSPropertyOp10
 70
     1
102
RTVSPropertyOp11
 70
     1
102
RTVSPropertyOp12
 70
     1
102
RTVSPropertyOp13
 70
     1
102
RTVSPropertyOp14
 70
     1
102
RTVSPropertyOp15
 70
     1
102
RTVSPropertyOp16
 70
     1
102
RTVSPropertyOp17
 70
     1
102
RTVSPropertyOp18
 70
     1
102
RTVSPropertyOp19
 70
     1
102
RTVSPropertyOp20
 70
     1
102
RTVSPropertyOp21
 70
     1
102
RTVSPropertyOp22
 70
     1
102
RTVSPropertyOp23
 70
     1
102
RTVSPropertyOp24
 70
     1
102
RTVSPropertyOp25
 70
     1
102
RTVSPropertyOp26
 70
     1
102
RTVSPropertyOp27
 70
     1
  0
XRECORD
  5
2C0
102
{ACAD_REACTORS
330
2BF
102
}
330
2BF
100
AcDbXrecord
280
     1
102
RTVSPropertyOp0
 70
     1
102
RTVSPropertyOp1
 70
     1
102
RTVSPropertyOp2
 70
     1
102
RTVSPropertyOp3
 70
     1
102
RTVSPropertyOp4
 70
     1
102
RTVSPropertyOp5
 70
     1
102
RTVSPropertyOp6
 70
     1
102
RTVSPropertyOp7
 70
     1
102
RTVSPropertyOp8
 70
     1
102
RTVSPropertyOp9
 70
     1
102
RTVSPropertyOp10
 70
     1
102
RTVSPropertyOp11
 70
     1
102
RTVSPropertyOp12
 70
     1
102
RTVSPropertyOp13
 70
     1
102
RTVSPropertyOp14
 70
     1
102
RTVSPropertyOp15
 70
     1
102
RTVSPropertyOp16
 70
     1
102
RTVSPropertyOp17
 70
     1
102
RTVSPropertyOp18
 70
     1
102
RTVSPropertyOp19
 70
     1
102
RTVSPropertyOp20
 70
     1
102
RTVSPropertyOp21
 70
     1
102
RTVSPropertyOp22
 70
     1
102
RTVSPropertyOp23
 70
     1
102
RTVSPropertyOp24
 70
     1
102
RTVSPropertyOp25
 70
     1
102
RTVSPropertyOp26
 70
     1
102
RTVSPropertyOp27
 70
     1
  0
XRECORD
  5
2C2
102
{ACAD_REACTORS
330
2C1
102
}
330
2C1
100
AcDbXrecord
280
     1
102
RTVSPropertyOp0
 70
     1
102
RTVSPropertyOp1
 70
     1
102
RTVSPropertyOp2
 70
     1
102
RTVSPropertyOp3
 70
     1
102
RTVSPropertyOp4
 70
     1
102
RTVSPropertyOp5
 70
     1
102
RTVSPropertyOp6
 70
     1
102
RTVSPropertyOp7
 70
     1
102
RTVSPropertyOp8
 70
     1
102
RTVSPropertyOp9
 70
     1
102
RTVSPropertyOp10
 70
     1
102
RTVSPropertyOp11
 70
     1
102
RTVSPropertyOp12
 70
     1
102
RTVSPropertyOp13
 70
     1
102
RTVSPropertyOp14
 70
     1
102
RTVSPropertyOp15
 70
     1
102
RTVSPropertyOp16
 70
     1
102
RTVSPropertyOp17
 70
     1
102
RTVSPropertyOp18
 70
     1
102
RTVSPropertyOp19
 70
     1
102
RTVSPropertyOp20
 70
     1
102
RTVSPropertyOp21
 70
     1
102
RTVSPropertyOp22
 70
     1
102
RTVSPropertyOp23
 70
     1
102
RTVSPropertyOp24
 70
     1
102
RTVSPropertyOp25
 70
     1
102
RTVSPropertyOp26
 70
     1
102
RTVSPropertyOp27
 70
     1
  0
XRECORD
  5
2D6
102
{ACAD_REACTORS
330
2D5
102
}
330
2D5
100
AcDbXrecord
280
     1
102
RTVSPropertyOp0
 70
     1
102
RTVSPropertyOp1
 70
     1
102
RTVSPropertyOp2
 70
     1
102
RTVSPropertyOp3
 70
     1
102
RTVSPropertyOp4
 70
     1
102
RTVSPropertyOp5
 70
     1
102
RTVSPropertyOp6
 70
     1
102
RTVSPropertyOp7
 70
     1
102
RTVSPropertyOp8
 70
     1
102
RTVSPropertyOp9
 70
     1
102
RTVSPropertyOp10
 70
     1
102
RTVSPropertyOp11
 70
     1
102
RTVSPropertyOp12
 70
     1
102
RTVSPropertyOp13
 70
     1
102
RTVSPropertyOp14
 70
     1
102
RTVSPropertyOp15
 70
     1
102
RTVSPropertyOp16
 70
     1
102
RTVSPropertyOp17
 70
     1
102
RTVSPropertyOp18
 70
     1
102
RTVSPropertyOp19
 70
     1
102
RTVSPropertyOp20
 70
     1
102
RTVSPropertyOp21
 70
     1
102
RTVSPropertyOp22
 70
     1
102
RTVSPropertyOp23
 70
     1
102
RTVSPropertyOp24
 70
     1
102
RTVSPropertyOp25
 70
     1
102
RTVSPropertyOp26
 70
     1
102
RTVSPropertyOp27
 70
     1
  0
XRECORD
  5
2CC
102
{ACAD_REACTORS
330
2CB
102
}
330
2CB
100
AcDbXrecord
280
     1
102
RTVSPropertyOp0
 70
     1
102
RTVSPropertyOp1
 70
     1
102
RTVSPropertyOp2
 70
     1
102
RTVSPropertyOp3
 70
     1
102
RTVSPropertyOp4
 70
     1
102
RTVSPropertyOp5
 70
     1
102
RTVSPropertyOp6
 70
     1
102
RTVSPropertyOp7
 70
     1
102
RTVSPropertyOp8
 70
     1
102
RTVSPropertyOp9
 70
     1
102
RTVSPropertyOp10
 70
     1
102
RTVSPropertyOp11
 70
     1
102
RTVSPropertyOp12
 70
     1
102
RTVSPropertyOp13
 70
     1
102
RTVSPropertyOp14
 70
     1
102
RTVSPropertyOp15
 70
     1
102
RTVSPropertyOp16
 70
     1
102
RTVSPropertyOp17
 70
     1
102
RTVSPropertyOp18
 70
     1
102
RTVSPropertyOp19
 70
     1
102
RTVSPropertyOp20
 70
     1
102
RTVSPropertyOp21
 70
     1
102
RTVSPropertyOp22
 70
     1
102
RTVSPropertyOp23
 70
     1
102
RTVSPropertyOp24
 70
     1
102
RTVSPropertyOp25
 70
     1
102
RTVSPropertyOp26
 70
     1
102
RTVSPropertyOp27
 70
     1
  0
XRECORD
  5
2D4
102
{ACAD_REACTORS
330
2D3
102
}
330
2D3
100
AcDbXrecord
280
     1
102
RTVSPropertyOp0
 70
     1
102
RTVSPropertyOp1
 70
     1
102
RTVSPropertyOp2
 70
     1
102
RTVSPropertyOp3
 70
     1
102
RTVSPropertyOp4
 70
     1
102
RTVSPropertyOp5
 70
     1
102
RTVSPropertyOp6
 70
     1
102
RTVSPropertyOp7
 70
     1
102
RTVSPropertyOp8
 70
     1
102
RTVSPropertyOp9
 70
     1
102
RTVSPropertyOp10
 70
     1
102
RTVSPropertyOp11
 70
     1
102
RTVSPropertyOp12
 70
     1
102
RTVSPropertyOp13
 70
     1
102
RTVSPropertyOp14
 70
     1
102
RTVSPropertyOp15
 70
     1
102
RTVSPropertyOp16
 70
     1
102
RTVSPropertyOp17
 70
     1
102
RTVSPropertyOp18
 70
     1
102
RTVSPropertyOp19
 70
     1
102
RTVSPropertyOp20
 70
     1
102
RTVSPropertyOp21
 70
     1
102
RTVSPropertyOp22
 70
     1
102
RTVSPropertyOp23
 70
     1
102
RTVSPropertyOp24
 70
     1
102
RTVSPropertyOp25
 70
     1
102
RTVSPropertyOp26
 70
     1
102
RTVSPropertyOp27
 70
     1
  0
ENDSEC
  0
EOF
