  0
SECTION
  2
HEADER
  9
$ACADVER
  1
AC1015
  9
$ACADMAINTVER
 70
     6
  9
$DWGCODEPAGE
  3
ANSI_932
  9
$INSBASE
 10
0.0
 20
0.0
 30
0.0
  9
$EXTMIN
 10
-278.984432384349
 20
427.27335274227
 30
0.0
  9
$EXTMAX
 10
249.256218121702
 20
704.556177153769
 30
0.0
  9
$LIMMIN
 10
0.0
 20
0.0
  9
$LIMMAX
 10
12.0
 20
9.0
  9
$ORTHOMODE
 70
     0
  9
$REGENMODE
 70
     1
  9
$FILLMODE
 70
     1
  9
$QTEXTMODE
 70
     0
  9
$MIRRTEXT
 70
     1
  9
$LTSCALE
 40
1.0
  9
$ATTMODE
 70
     1
  9
$TEXTSIZE
 40
0.2
  9
$TRACEWID
 40
0.05
  9
$TEXTSTYLE
  7
Standard
  9
$CLAYER
  8
0
  9
$CELTYPE
  6
ByLayer
  9
$CECOLOR
 62
   256
  9
$CELTSCALE
 40
1.0
  9
$DISPSILH
 70
     0
  9
$DIMSCALE
 40
1.0
  9
$DIMASZ
 40
0.18
  9
$DIMEXO
 40
0.0625
  9
$DIMDLI
 40
0.38
  9
$DIMRND
 40
0.0
  9
$DIMDLE
 40
0.0
  9
$DIMEXE
 40
0.18
  9
$DIMTP
 40
0.0
  9
$DIMTM
 40
0.0
  9
$DIMTXT
 40
0.18
  9
$DIMCEN
 40
0.09
  9
$DIMTSZ
 40
0.0
  9
$DIMTOL
 70
     0
  9
$DIMLIM
 70
     0
  9
$DIMTIH
 70
     1
  9
$DIMTOH
 70
     1
  9
$DIMSE1
 70
     0
  9
$DIMSE2
 70
     0
  9
$DIMTAD
 70
     0
  9
$DIMZIN
 70
     0
  9
$DIMBLK
  1

  9
$DIMASO
 70
     1
  9
$DIMSHO
 70
     1
  9
$DIMPOST
  1

  9
$DIMAPOST
  1

  9
$DIMALT
 70
     0
  9
$DIMALTD
 70
     2
  9
$DIMALTF
 40
25.4
  9
$DIMLFAC
 40
1.0
  9
$DIMTOFL
 70
     0
  9
$DIMTVP
 40
0.0
  9
$DIMTIX
 70
     0
  9
$DIMSOXD
 70
     0
  9
$DIMSAH
 70
     0
  9
$DIMBLK1
  1

  9
$DIMBLK2
  1

  9
$DIMSTYLE
  2
Standard
  9
$DIMCLRD
 70
     0
  9
$DIMCLRE
 70
     0
  9
$DIMCLRT
 70
     0
  9
$DIMTFAC
 40
1.0
  9
$DIMGAP
 40
0.09
  9
$DIMJUST
 70
     0
  9
$DIMSD1
 70
     0
  9
$DIMSD2
 70
     0
  9
$DIMTOLJ
 70
     1
  9
$DIMTZIN
 70
     0
  9
$DIMALTZ
 70
     0
  9
$DIMALTTZ
 70
     0
  9
$DIMUPT
 70
     0
  9
$DIMDEC
 70
     4
  9
$DIMTDEC
 70
     4
  9
$DIMALTU
 70
     2
  9
$DIMALTTD
 70
     2
  9
$DIMTXSTY
  7
Standard
  9
$DIMAUNIT
 70
     0
  9
$DIMADEC
 70
     0
  9
$DIMALTRND
 40
0.0
  9
$DIMAZIN
 70
     0
  9
$DIMDSEP
 70
    46
  9
$DIMATFIT
 70
     3
  9
$DIMFRAC
 70
     0
  9
$DIMLDRBLK
  1

  9
$DIMLUNIT
 70
     2
  9
$DIMLWD
 70
    -2
  9
$DIMLWE
 70
    -2
  9
$DIMTMOVE
 70
     0
  9
$LUNITS
 70
     2
  9
$LUPREC
 70
     4
  9
$SKETCHINC
 40
0.1
  9
$FILLETRAD
 40
0.5
  9
$AUNITS
 70
     0
  9
$AUPREC
 70
     0
  9
$MENU
  1
.
  9
$ELEVATION
 40
0.0
  9
$PELEVATION
 40
0.0
  9
$THICKNESS
 40
0.0
  9
$LIMCHECK
 70
     0
  9
$CHAMFERA
 40
0.5
  9
$CHAMFERB
 40
0.5
  9
$CHAMFERC
 40
1.0
  9
$CHAMFERD
 40
0.0
  9
$SKPOLY
 70
     0
  9
$TDCREATE
 40
2457624.568640475
  9
$TDUCREATE
 40
2457624.193640475
  9
$TDUPDATE
 40
2457624.568640486
  9
$TDUUPDATE
 40
2457624.193640486
  9
$TDINDWG
 40
0.0000000116
  9
$TDUSRTIMER
 40
0.0000000116
  9
$USRTIMER
 70
     1
  9
$ANGBASE
 50
0.0
  9
$ANGDIR
 70
     0
  9
$PDMODE
 70
     0
  9
$PDSIZE
 40
0.0
  9
$PLINEWID
 40
0.0
  9
$SPLFRAME
 70
     0
  9
$SPLINETYPE
 70
     6
  9
$SPLINESEGS
 70
     8
  9
$HANDSEED
  5
305
  9
$SURFTAB1
 70
     6
  9
$SURFTAB2
 70
     6
  9
$SURFTYPE
 70
     6
  9
$SURFU
 70
     6
  9
$SURFV
 70
     6
  9
$UCSBASE
  2

  9
$UCSNAME
  2

  9
$UCSORG
 10
0.0
 20
0.0
 30
0.0
  9
$UCSXDIR
 10
1.0
 20
0.0
 30
0.0
  9
$UCSYDIR
 10
0.0
 20
1.0
 30
0.0
  9
$UCSORTHOREF
  2

  9
$UCSORTHOVIEW
 70
     0
  9
$UCSORGTOP
 10
0.0
 20
0.0
 30
0.0
  9
$UCSORGBOTTOM
 10
0.0
 20
0.0
 30
0.0
  9
$UCSORGLEFT
 10
0.0
 20
0.0
 30
0.0
  9
$UCSORGRIGHT
 10
0.0
 20
0.0
 30
0.0
  9
$UCSORGFRONT
 10
0.0
 20
0.0
 30
0.0
  9
$UCSORGBACK
 10
0.0
 20
0.0
 30
0.0
  9
$PUCSBASE
  2

  9
$PUCSNAME
  2

  9
$PUCSORG
 10
0.0
 20
0.0
 30
0.0
  9
$PUCSXDIR
 10
1.0
 20
0.0
 30
0.0
  9
$PUCSYDIR
 10
0.0
 20
1.0
 30
0.0
  9
$PUCSORTHOREF
  2

  9
$PUCSORTHOVIEW
 70
     0
  9
$PUCSORGTOP
 10
0.0
 20
0.0
 30
0.0
  9
$PUCSORGBOTTOM
 10
0.0
 20
0.0
 30
0.0
  9
$PUCSORGLEFT
 10
0.0
 20
0.0
 30
0.0
  9
$PUCSORGRIGHT
 10
0.0
 20
0.0
 30
0.0
  9
$PUCSORGFRONT
 10
0.0
 20
0.0
 30
0.0
  9
$PUCSORGBACK
 10
0.0
 20
0.0
 30
0.0
  9
$USERI1
 70
     0
  9
$USERI2
 70
     0
  9
$USERI3
 70
     0
  9
$USERI4
 70
     0
  9
$USERI5
 70
     0
  9
$USERR1
 40
18.0
  9
$USERR2
 40
0.0
  9
$USERR3
 40
0.0
  9
$USERR4
 40
0.0
  9
$USERR5
 40
0.0
  9
$WORLDVIEW
 70
     1
  9
$SHADEDGE
 70
     3
  9
$SHADEDIF
 70
    70
  9
$TILEMODE
 70
     1
  9
$MAXACTVP
 70
    64
  9
$PINSBASE
 10
0.0
 20
0.0
 30
0.0
  9
$PLIMCHECK
 70
     0
  9
$PEXTMIN
 10
1.00000000000000E+20
 20
1.00000000000000E+20
 30
1.00000000000000E+20
  9
$PEXTMAX
 10
-1.00000000000000E+20
 20
-1.00000000000000E+20
 30
-1.00000000000000E+20
  9
$PLIMMIN
 10
0.0
 20
0.0
  9
$PLIMMAX
 10
12.0
 20
9.0
  9
$UNITMODE
 70
     0
  9
$VISRETAIN
 70
     1
  9
$PLINEGEN
 70
     0
  9
$PSLTSCALE
 70
     1
  9
$TREEDEPTH
 70
  3020
  9
$CMLSTYLE
  2
Standard
  9
$CMLJUST
 70
     0
  9
$CMLSCALE
 40
1.0
  9
$PROXYGRAPHICS
 70
     1
  9
$MEASUREMENT
 70
     1
  9
$CELWEIGHT
370
    -1
  9
$ENDCAPS
280
     0
  9
$JOINSTYLE
280
     0
  9
$LWDISPLAY
290
     0
  9
$INSUNITS
 70
     1
  9
$HYPERLINKBASE
  1

  9
$STYLESHEET
  1

  9
$XEDIT
290
     1
  9
$CEPSNTYPE
380
     0
  9
$PSTYLEMODE
290
     1
  9
$FINGERPRINTGUID
  2
{C50B4C7B-7A1F-44B3-AC01-E5C15E053903}
  9
$VERSIONGUID
  2
{FAEB1C32-E019-11D5-929B-00C0DF256EC4}
  9
$EXTNAMES
290
     1
  9
$PSVPSCALE
 40
0.0
  9
$OLESTARTUP
290
     0
  0
ENDSEC
  0
SECTION
  2
CLASSES
  0
CLASS
  1
ACDBDICTIONARYWDFLT
  2
AcDbDictionaryWithDefault
  3
ObjectDBX Classes
 90
        0
280
     0
281
     0
  0
CLASS
  1
VISUALSTYLE
  2
AcDbVisualStyle
  3
ObjectDBX Classes
 90
     4095
280
     0
281
     0
  0
CLASS
  1
MATERIAL
  2
AcDbMaterial
  3
ObjectDBX Classes
 90
     1153
280
     0
281
     0
  0
CLASS
  1

  2
exOdDbCircle
  3

 90
        0
280
     0
281
     1
  0
CLASS
  1

  2
exOdDbSpline
  3

 90
        0
280
     0
281
     1
  0
CLASS
  1

  2
exOdDbPolyline
  3

 90
        0
280
     0
281
     1
  0
CLASS
  1
DICTIONARYVAR
  2
AcDbDictionaryVar
  3
ObjectDBX Classes
 90
        0
280
     0
281
     0
  0
CLASS
  1
ACDBPLACEHOLDER
  2
AcDbPlaceHolder
  3
ObjectDBX Classes
 90
        0
280
     0
281
     0
  0
CLASS
  1
LAYOUT
  2
AcDbLayout
  3
ObjectDBX Classes
 90
        0
280
     0
281
     0
  0
ENDSEC
  0
SECTION
  2
TABLES
  0
TABLE
  2
VPORT
  5
8
330
0
100
AcDbSymbolTable
 70
     1
  0
VPORT
  5
29
330
8
100
AcDbSymbolTableRecord
100
AcDbViewportTableRecord
  2
*Active
 70
     0
 10
0.0
 20
0.0
 11
1.0
 21
1.0
 12
-14.86410713132351
 22
565.9147649480195
 13
0.0
 23
0.0
 14
0.5
 24
0.5
 15
0.5
 25
0.5
 16
0.0
 26
0.0
 36
1.0
 17
0.0
 27
0.0
 37
0.0
 40
362.5584854726769
 41
1.60267857142857
 42
50.0
 43
0.0
 44
0.0
 50
0.0
 51
0.0
 71
     0
 72
   100
 73
     1
 74
     3
 75
     0
 76
     0
 77
     0
 78
     0
281
     0
 65
     1
110
0.0
120
0.0
130
0.0
111
1.0
121
0.0
131
0.0
112
0.0
122
1.0
132
0.0
 79
     0
146
0.0
  0
ENDTAB
  0
TABLE
  2
LTYPE
  5
5
330
0
100
AcDbSymbolTable
 70
     8
  0
LTYPE
  5
14
330
5
100
AcDbSymbolTableRecord
100
AcDbLinetypeTableRecord
  2
ByBlock
 70
     0
  3

 72
    65
 73
     0
 40
0.0
  0
LTYPE
  5
15
330
5
100
AcDbSymbolTableRecord
100
AcDbLinetypeTableRecord
  2
ByLayer
 70
     0
  3

 72
    65
 73
     0
 40
0.0
  0
LTYPE
  5
16
330
5
100
AcDbSymbolTableRecord
100
AcDbLinetypeTableRecord
  2
Continuous
 70
     0
  3
Solid line
 72
    65
 73
     0
 40
0.0
  0
LTYPE
  5
3F
330
5
100
AcDbSymbolTableRecord
100
AcDbLinetypeTableRecord
  2
DASHED
 70
     0
  3
Dashed
 72
    65
 73
     2
 40
15.0
 49
7.0
 74
     0
 49
-8.0
 74
     0
  0
LTYPE
  5
40
330
5
100
AcDbSymbolTableRecord
100
AcDbLinetypeTableRecord
  2
DOTTED
 70
     0
  3
Dotted
 72
    65
 73
     2
 40
1.0
 49
0.0
 74
     0
 49
-1.0
 74
     0
  0
LTYPE
  5
41
330
5
100
AcDbSymbolTableRecord
100
AcDbLinetypeTableRecord
  2
DOT_CENTER
 70
     0
  3
Dot_Center
 72
    65
 73
     4
 40
14.0
 49
12.0
 74
     0
 49
-1.0
 74
     0
 49
0.0
 74
     0
 49
-1.0
 74
     0
  0
LTYPE
  5
42
330
5
100
AcDbSymbolTableRecord
100
AcDbLinetypeTableRecord
  2
LONG_DASHED
 70
     0
  3
Long_Dashed
 72
    65
 73
     2
 40
15.0
 49
10.0
 74
     0
 49
-5.0
 74
     0
  0
LTYPE
  5
43
330
5
100
AcDbSymbolTableRecord
100
AcDbLinetypeTableRecord
  2
DASH_CENTER
 70
     0
  3
Dash_Center
 72
    65
 73
     4
 40
14.0
 49
11.0
 74
     0
 49
-1.0
 74
     0
 49
1.0
 74
     0
 49
-1.0
 74
     0
  0
LTYPE
  5
44
330
5
100
AcDbSymbolTableRecord
100
AcDbLinetypeTableRecord
  2
PHANTOM
 70
     0
  3
Phantom
 72
    65
 73
     6
 40
13.0
 49
10.0
 74
     0
 49
-1.0
 74
     0
 49
0.0
 74
     0
 49
-1.0
 74
     0
 49
0.0
 74
     0
 49
-1.0
 74
     0
  0
LTYPE
  5
45
330
5
100
AcDbSymbolTableRecord
100
AcDbLinetypeTableRecord
  2
CENTER_DASH_DASH
 70
     0
  3
Center_Dash_Dash
 72
    65
 73
     6
 40
14.0
 49
9.0
 74
     0
 49
-1.0
 74
     0
 49
1.0
 74
     0
 49
-1.0
 74
     0
 49
1.0
 74
     0
 49
-1.0
 74
     0
  0
ENDTAB
  0
TABLE
  2
LAYER
  5
2
330
0
100
AcDbSymbolTable
 70
     5
  0
LAYER
  5
10
330
2
100
AcDbSymbolTableRecord
100
AcDbLayerTableRecord
  2
0
 70
     0
 62
     7
  6
Continuous
370
    -3
390
F
  0
LAYER
  5
46
330
2
100
AcDbSymbolTableRecord
100
AcDbLayerTableRecord
  2
1
 70
     0
 62
     7
  6
Continuous
370
    -3
390
F
  0
LAYER
  5
47
330
2
100
AcDbSymbolTableRecord
100
AcDbLayerTableRecord
  2
100
 70
     0
 62
     7
  6
Continuous
370
    -3
390
F
  0
LAYER
  5
48
330
2
100
AcDbSymbolTableRecord
100
AcDbLayerTableRecord
  2
4
 70
     0
 62
     7
  6
Continuous
370
    -3
390
F
  0
LAYER
  5
49
330
2
100
AcDbSymbolTableRecord
100
AcDbLayerTableRecord
  2
5
 70
     0
 62
     7
  6
Continuous
370
    -3
390
F
  0
ENDTAB
  0
TABLE
  2
STYLE
  5
3
330
0
100
AcDbSymbolTable
 70
     1
  0
STYLE
  5
11
330
3
100
AcDbSymbolTableRecord
100
AcDbTextStyleTableRecord
  2
Standard
 70
     0
 40
0.0
 41
1.0
 50
0.0
 71
     0
 42
0.2
  3
txt
  4

  0
ENDTAB
  0
TABLE
  2
VIEW
  5
6
330
0
100
AcDbSymbolTable
 70
     0
  0
ENDTAB
  0
TABLE
  2
UCS
  5
7
330
0
100
AcDbSymbolTable
 70
     0
  0
ENDTAB
  0
TABLE
  2
APPID
  5
9
330
0
100
AcDbSymbolTable
 70
     1
  0
APPID
  5
12
330
9
100
AcDbSymbolTableRecord
100
AcDbRegAppTableRecord
  2
ACAD
 70
     0
  0
ENDTAB
  0
TABLE
  2
DIMSTYLE
  5
A
330
0
100
AcDbSymbolTable
 70
     1
100
AcDbDimStyleTable
  0
DIMSTYLE
105
27
330
A
100
AcDbSymbolTableRecord
100
AcDbDimStyleTableRecord
  2
Standard
 70
     0
340
11
  0
ENDTAB
  0
TABLE
  2
BLOCK_RECORD
  5
1
330
0
100
AcDbSymbolTable
 70
     1
  0
BLOCK_RECORD
  5
1F
330
1
100
AcDbSymbolTableRecord
100
AcDbBlockTableRecord
  2
*Model_Space
340
22
  0
BLOCK_RECORD
  5
1B
330
1
100
AcDbSymbolTableRecord
100
AcDbBlockTableRecord
  2
*Paper_Space
340
1E
  0
BLOCK_RECORD
  5
23
330
1
100
AcDbSymbolTableRecord
100
AcDbBlockTableRecord
  2
*Paper_Space0
340
26
  0
ENDTAB
  0
ENDSEC
  0
SECTION
  2
BLOCKS
  0
BLOCK
  5
20
330
1F
100
AcDbEntity
  8
0
100
AcDbBlockBegin
  2
*Model_Space
 70
     0
 10
0.0
 20
0.0
 30
0.0
  3
*Model_Space
  1

  0
ENDBLK
  5
21
330
1F
100
AcDbEntity
  8
0
100
AcDbBlockEnd
  0
BLOCK
  5
1C
330
1B
100
AcDbEntity
 67
     1
  8
0
100
AcDbBlockBegin
  2
*Paper_Space
 70
     0
 10
0.0
 20
0.0
 30
0.0
  3
*Paper_Space
  1

  0
ENDBLK
  5
1D
330
1B
100
AcDbEntity
 67
     1
  8
0
100
AcDbBlockEnd
  0
BLOCK
  5
24
330
23
100
AcDbEntity
  8
0
100
AcDbBlockBegin
  2
*Paper_Space0
 70
     0
 10
0.0
 20
0.0
 30
0.0
  3
*Paper_Space0
  1

  0
ENDBLK
  5
25
330
23
100
AcDbEntity
  8
0
100
AcDbBlockEnd
  0
ENDSEC
  0
SECTION
  2
ENTITIES
  0
LINE
  5
4A
330
1F
100
AcDbEntity
  8
1
  6
Continuous
 62
     4
100
AcDbLine
 10
-56.48302698077929
 20
432.27335274227
 30
0.0
 11
-57.27512698077929
 21
431.02335274227
 31
0.0
  0
LINE
  5
4B
330
1F
100
AcDbEntity
  8
1
  6
Continuous
 62
     4
100
AcDbLine
 10
-57.27512698077929
 20
433.52335274227
 30
0.0
 11
-56.48302698077929
 21
432.27335274227
 31
0.0
  0
LINE
  5
4C
330
1F
100
AcDbEntity
  8
1
  6
Continuous
 62
     4
100
AcDbLine
 10
-62.42377698077929
 20
432.27335274227
 30
0.0
 11
-56.48302698077929
 21
432.27335274227
 31
0.0
  0
LINE
  5
4D
330
1F
100
AcDbEntity
  8
1
  6
Continuous
 62
     4
100
AcDbLine
 10
-68.95860198077929
 20
435.14835274227
 30
0.0
 11
-64.40402698077929
 21
435.14835274227
 31
0.0
  0
LINE
  5
4E
330
1F
100
AcDbEntity
  8
1
  6
Continuous
 62
     4
100
AcDbLine
 10
-68.95860198077929
 20
435.14835274227
 30
0.0
 11
-67.86946448077929
 21
437.02335274227
 31
0.0
  0
LINE
  5
4F
330
1F
100
AcDbEntity
  8
1
  6
Continuous
 62
     4
100
AcDbLine
 10
-66.38427698077929
 20
430.39835274227
 30
0.0
 11
-68.06748948077929
 21
430.39835274227
 31
0.0
  0
LINE
  5
50
330
1F
100
AcDbEntity
  8
1
  6
Continuous
 62
     4
100
AcDbLine
 10
-66.38427698077929
 20
432.89835274227
 30
0.0
 11
-66.38427698077929
 21
430.39835274227
 31
0.0
  0
LINE
  5
51
330
1F
100
AcDbEntity
  8
1
  6
Continuous
 62
     4
100
AcDbLine
 10
-68.06748948077929
 20
432.89835274227
 30
0.0
 11
-66.38427698077929
 21
432.89835274227
 31
0.0
  0
LINE
  5
52
330
1F
100
AcDbEntity
  8
1
  6
Continuous
 62
     4
100
AcDbLine
 10
-68.06748948077929
 20
430.39835274227
 30
0.0
 11
-68.06748948077929
 21
432.89835274227
 31
0.0
  0
LINE
  5
53
330
1F
100
AcDbEntity
  8
1
  6
Continuous
 62
     4
100
AcDbLine
 10
-64.40402698077929
 20
427.64835274227
 30
0.0
 11
-65.49316448077928
 21
427.64835274227
 31
0.0
  0
LINE
  5
54
330
1F
100
AcDbEntity
  8
1
  6
Continuous
 62
     4
100
AcDbLine
 10
-64.40402698077929
 20
435.14835274227
 30
0.0
 11
-64.40402698077929
 21
427.64835274227
 31
0.0
  0
LINE
  5
55
330
1F
100
AcDbEntity
  8
1
  6
Continuous
 62
     4
100
AcDbLine
 10
-70.04773948077928
 20
435.14835274227
 30
0.0
 11
-68.95860198077929
 21
435.14835274227
 31
0.0
  0
LINE
  5
56
330
1F
100
AcDbEntity
  8
1
  6
Continuous
 62
     4
100
AcDbLine
 10
-70.04773948077928
 20
427.64835274227
 30
0.0
 11
-70.04773948077928
 21
435.14835274227
 31
0.0
  0
LINE
  5
57
330
1F
100
AcDbEntity
  8
1
  6
Continuous
 62
     4
100
AcDbLine
 10
-74.3052769807793
 20
427.27335274227
 30
0.0
 11
-75.0973769807793
 21
427.89835274227
 31
0.0
  0
LINE
  5
58
330
1F
100
AcDbEntity
  8
1
  6
Continuous
 62
     4
100
AcDbLine
 10
-73.8102144807793
 20
428.27335274227
 30
0.0
 11
-74.3052769807793
 21
427.27335274227
 31
0.0
  0
LINE
  5
59
330
1F
100
AcDbEntity
  8
1
  6
Continuous
 62
     4
100
AcDbLine
 10
-73.41416448077929
 20
429.77335274227
 30
0.0
 11
-73.8102144807793
 21
428.27335274227
 31
0.0
  0
LINE
  5
5A
330
1F
100
AcDbEntity
  8
1
  6
Continuous
 62
     4
100
AcDbLine
 10
-72.91910198077929
 20
432.02335274227
 30
0.0
 11
-73.41416448077929
 21
429.77335274227
 31
0.0
  0
LINE
  5
5B
330
1F
100
AcDbEntity
  8
1
  6
Continuous
 62
     4
100
AcDbLine
 10
-72.91910198077929
 20
432.89835274227
 30
0.0
 11
-72.91910198077929
 21
432.02335274227
 31
0.0
  0
LINE
  5
5C
330
1F
100
AcDbEntity
  8
1
  6
Continuous
 62
     4
100
AcDbLine
 10
-75.79046448077929
 20
432.89835274227
 30
0.0
 11
-72.91910198077929
 21
432.89835274227
 31
0.0
  0
LINE
  5
5D
330
1F
100
AcDbEntity
  8
1
  6
Continuous
 62
     4
100
AcDbLine
 10
-78.4638019807793
 20
435.39835274227
 30
0.0
 11
-71.8299644807793
 21
435.39835274227
 31
0.0
  0
LINE
  5
5E
330
1F
100
AcDbEntity
  8
1
  6
Continuous
 62
     4
100
AcDbLine
 10
-75.59243948077929
 20
434.52335274227
 30
0.0
 11
-75.39441448077929
 21
437.02335274227
 31
0.0
  0
LINE
  5
5F
330
1F
100
AcDbEntity
  8
1
  6
Continuous
 62
     4
100
AcDbLine
 10
-75.9884894807793
 20
432.02335274227
 30
0.0
 11
-75.59243948077929
 21
434.52335274227
 31
0.0
  0
LINE
  5
60
330
1F
100
AcDbEntity
  8
1
  6
Continuous
 62
     4
100
AcDbLine
 10
-76.4835519807793
 20
430.39835274227
 30
0.0
 11
-75.9884894807793
 21
432.02335274227
 31
0.0
  0
LINE
  5
61
330
1F
100
AcDbEntity
  8
1
  6
Continuous
 62
     4
100
AcDbLine
 10
-77.0776269807793
 20
428.89835274227
 30
0.0
 11
-76.4835519807793
 21
430.39835274227
 31
0.0
  0
LINE
  5
62
330
1F
100
AcDbEntity
  8
1
  6
Continuous
 62
     4
100
AcDbLine
 10
-77.96873948077929
 20
427.64835274227
 30
0.0
 11
-77.0776269807793
 21
428.89835274227
 31
0.0
  0
LINE
  5
63
330
1F
100
AcDbEntity
  8
1
  6
Continuous
 62
     4
100
AcDbLine
 10
-80.6420769807793
 20
430.39835274227
 30
0.0
 11
-79.55293948077929
 21
428.89835274227
 31
0.0
  0
LINE
  5
64
330
1F
100
AcDbEntity
  8
1
  6
Continuous
 62
     4
100
AcDbLine
 10
-81.53318948077928
 20
432.27335274227
 30
0.0
 11
-80.6420769807793
 21
430.39835274227
 31
0.0
  0
LINE
  5
65
330
1F
100
AcDbEntity
  8
1
  6
Continuous
 62
     4
100
AcDbLine
 10
-82.22627698077929
 20
434.52335274227
 30
0.0
 11
-81.53318948077928
 21
432.27335274227
 31
0.0
  0
LINE
  5
66
330
1F
100
AcDbEntity
  8
1
  6
Continuous
 62
     4
100
AcDbLine
 10
-80.24602698077929
 20
434.77335274227
 30
0.0
 11
-81.73121448077929
 21
433.27335274227
 31
0.0
  0
LINE
  5
67
330
1F
100
AcDbEntity
  8
1
  6
Continuous
 62
     4
100
AcDbLine
 10
-82.8203519807793
 20
427.27335274227
 30
0.0
 11
-83.51343948077928
 21
427.64835274227
 31
0.0
  0
LINE
  5
68
330
1F
100
AcDbEntity
  8
1
  6
Continuous
 62
     4
100
AcDbLine
 10
-82.8203519807793
 20
437.02335274227
 30
0.0
 11
-82.8203519807793
 21
427.27335274227
 31
0.0
  0
LINE
  5
69
330
1F
100
AcDbEntity
  8
1
  6
Continuous
 62
     4
100
AcDbLine
 10
-83.90948948077929
 20
433.89835274227
 30
0.0
 11
-86.18677698077929
 21
433.89835274227
 31
0.0
  0
LINE
  5
6A
330
1F
100
AcDbEntity
  8
1
  6
Continuous
 62
     4
100
AcDbLine
 10
-84.40455198077929
 20
432.02335274227
 30
0.0
 11
-83.90948948077929
 21
433.89835274227
 31
0.0
  0
LINE
  5
6B
330
1F
100
AcDbEntity
  8
1
  6
Continuous
 62
     4
100
AcDbLine
 10
-85.2956644807793
 20
430.14835274227
 30
0.0
 11
-84.40455198077929
 21
432.02335274227
 31
0.0
  0
LINE
  5
6C
330
1F
100
AcDbEntity
  8
1
  6
Continuous
 62
     4
100
AcDbLine
 10
-86.18677698077929
 20
428.89835274227
 30
0.0
 11
-85.2956644807793
 21
430.14835274227
 31
0.0
  0
LINE
  5
6D
330
1F
100
AcDbEntity
  8
1
  6
Continuous
 62
     4
100
AcDbLine
 10
-90.5433269807793
 20
435.77335274227
 30
0.0
 11
-87.8699894807793
 21
435.77335274227
 31
0.0
  0
LINE
  5
6E
330
1F
100
AcDbEntity
  8
1
  6
Continuous
 62
     4
100
AcDbLine
 10
-87.4739394807793
 20
428.27335274227
 30
0.0
 11
-87.4739394807793
 21
428.89835274227
 31
0.0
  0
LINE
  5
6F
330
1F
100
AcDbEntity
  8
1
  6
Continuous
 62
     4
100
AcDbLine
 10
-87.8699894807793
 20
427.64835274227
 30
0.0
 11
-87.4739394807793
 21
428.27335274227
 31
0.0
  0
LINE
  5
70
330
1F
100
AcDbEntity
  8
1
  6
Continuous
 62
     4
100
AcDbLine
 10
-88.7611019807793
 20
427.64835274227
 30
0.0
 11
-87.8699894807793
 21
427.64835274227
 31
0.0
  0
LINE
  5
71
330
1F
100
AcDbEntity
  8
1
  6
Continuous
 62
     4
100
AcDbLine
 10
-89.25616448077929
 20
428.52335274227
 30
0.0
 11
-88.7611019807793
 21
427.64835274227
 31
0.0
  0
LINE
  5
72
330
1F
100
AcDbEntity
  8
1
  6
Continuous
 62
     4
100
AcDbLine
 10
-89.25616448077929
 20
431.64835274227
 30
0.0
 11
-89.25616448077929
 21
428.52335274227
 31
0.0
  0
LINE
  5
73
330
1F
100
AcDbEntity
  8
1
  6
Continuous
 62
     4
100
AcDbLine
 10
-90.5433269807793
 20
427.64835274227
 30
0.0
 11
-90.5433269807793
 21
431.64835274227
 31
0.0
  0
LINE
  5
74
330
1F
100
AcDbEntity
  8
1
  6
Continuous
 62
     4
100
AcDbLine
 10
-92.5235769807793
 20
427.89835274227
 30
0.0
 11
-93.2166644807793
 21
427.27335274227
 31
0.0
  0
LINE
  5
75
330
1F
100
AcDbEntity
  8
1
  6
Continuous
 62
     4
100
AcDbLine
 10
-92.1275269807793
 20
428.52335274227
 30
0.0
 11
-92.5235769807793
 21
427.89835274227
 31
0.0
  0
LINE
  5
76
330
1F
100
AcDbEntity
  8
1
  6
Continuous
 62
     4
100
AcDbLine
 10
-91.83048948077929
 20
429.52335274227
 30
0.0
 11
-92.1275269807793
 21
428.52335274227
 31
0.0
  0
LINE
  5
77
330
1F
100
AcDbEntity
  8
1
  6
Continuous
 62
     4
100
AcDbLine
 10
-91.63246448077929
 20
431.64835274227
 30
0.0
 11
-91.83048948077929
 21
429.52335274227
 31
0.0
  0
LINE
  5
78
330
1F
100
AcDbEntity
  8
1
  6
Continuous
 62
     4
100
AcDbLine
 10
-89.45418948077929
 20
434.77335274227
 30
0.0
 11
-88.5630769807793
 21
432.64835274227
 31
0.0
  0
LINE
  5
79
330
1F
100
AcDbEntity
  8
1
  6
Continuous
 62
     4
100
AcDbLine
 10
-92.3255519807793
 20
433.27335274227
 30
0.0
 11
-88.95912698077929
 21
433.52335274227
 31
0.0
  0
LINE
  5
7A
330
1F
100
AcDbEntity
  8
1
  6
Continuous
 62
     4
100
AcDbLine
 10
-90.5433269807793
 20
435.77335274227
 30
0.0
 11
-91.43443948077929
 21
433.27335274227
 31
0.0
  0
LINE
  5
7B
330
1F
100
AcDbEntity
  8
1
  6
Continuous
 62
     4
100
AcDbLine
 10
-90.3453019807793
 20
437.27335274227
 30
0.0
 11
-90.3453019807793
 21
435.77335274227
 31
0.0
  0
LINE
  5
7C
330
1F
100
AcDbEntity
  8
1
  6
Continuous
 62
     4
100
AcDbLine
 10
-92.7216019807793
 20
435.77335274227
 30
0.0
 11
-90.5433269807793
 21
435.77335274227
 31
0.0
  0
LINE
  5
7D
330
1F
100
AcDbEntity
  8
1
  6
Continuous
 62
     4
100
AcDbLine
 10
-94.3058019807793
 20
427.64835274227
 30
0.0
 11
-93.41468948077929
 21
431.64835274227
 31
0.0
  0
LINE
  5
7E
330
1F
100
AcDbEntity
  8
1
  6
Continuous
 62
     4
100
AcDbLine
 10
-94.5038269807793
 20
434.14835274227
 30
0.0
 11
-93.81073948077929
 21
433.27335274227
 31
0.0
  0
LINE
  5
7F
330
1F
100
AcDbEntity
  8
1
  6
Continuous
 62
     4
100
AcDbLine
 10
-93.81073948077929
 20
437.02335274227
 30
0.0
 11
-93.41468948077929
 21
436.02335274227
 31
0.0
  0
LINE
  5
80
330
1F
100
AcDbEntity
  8
1
  6
Continuous
 62
     4
100
AcDbLine
 10
243.256218121702
 20
671.910095399892
 30
0.0
 11
243.256218121702
 21
681.910095399892
 31
0.0
  0
LINE
  5
81
330
1F
100
AcDbEntity
  8
1
  6
Continuous
 62
     4
100
AcDbLine
 10
249.256218121702
 20
671.910095399892
 30
0.0
 11
243.256218121702
 21
671.910095399892
 31
0.0
  0
LINE
  5
82
330
1F
100
AcDbEntity
  8
1
  6
Continuous
 62
     4
100
AcDbLine
 10
238.006218121702
 20
671.910095399892
 30
0.0
 11
234.256218121702
 21
671.910095399892
 31
0.0
  0
LINE
  5
83
330
1F
100
AcDbEntity
  8
1
  6
Continuous
 62
     4
100
AcDbLine
 10
238.756218121702
 20
672.160095399892
 30
0.0
 11
238.006218121702
 21
671.910095399892
 31
0.0
  0
LINE
  5
84
330
1F
100
AcDbEntity
  8
1
  6
Continuous
 62
     4
100
AcDbLine
 10
239.506218121702
 20
672.660095399892
 30
0.0
 11
238.756218121702
 21
672.160095399892
 31
0.0
  0
LINE
  5
85
330
1F
100
AcDbEntity
  8
1
  6
Continuous
 62
     4
100
AcDbLine
 10
240.006218121702
 20
673.410095399892
 30
0.0
 11
239.506218121702
 21
672.660095399892
 31
0.0
  0
LINE
  5
86
330
1F
100
AcDbEntity
  8
1
  6
Continuous
 62
     4
100
AcDbLine
 10
240.256218121702
 20
674.410095399892
 30
0.0
 11
240.006218121702
 21
673.410095399892
 31
0.0
  0
LINE
  5
87
330
1F
100
AcDbEntity
  8
1
  6
Continuous
 62
     4
100
AcDbLine
 10
240.256218121702
 20
675.660095399892
 30
0.0
 11
240.256218121702
 21
674.410095399892
 31
0.0
  0
LINE
  5
88
330
1F
100
AcDbEntity
  8
1
  6
Continuous
 62
     4
100
AcDbLine
 10
240.006218121702
 20
676.660095399892
 30
0.0
 11
240.256218121702
 21
675.660095399892
 31
0.0
  0
LINE
  5
89
330
1F
100
AcDbEntity
  8
1
  6
Continuous
 62
     4
100
AcDbLine
 10
239.756218121702
 20
677.160095399892
 30
0.0
 11
240.006218121702
 21
676.660095399892
 31
0.0
  0
LINE
  5
8A
330
1F
100
AcDbEntity
  8
1
  6
Continuous
 62
     4
100
AcDbLine
 10
239.256218121702
 20
677.660095399892
 30
0.0
 11
239.756218121702
 21
677.160095399892
 31
0.0
  0
LINE
  5
8B
330
1F
100
AcDbEntity
  8
1
  6
Continuous
 62
     4
100
AcDbLine
 10
238.256218121702
 20
677.910095399892
 30
0.0
 11
239.256218121702
 21
677.660095399892
 31
0.0
  0
LINE
  5
8C
330
1F
100
AcDbEntity
  8
1
  6
Continuous
 62
     4
100
AcDbLine
 10
239.006218121702
 20
678.160095399892
 30
0.0
 11
238.256218121702
 21
677.910095399892
 31
0.0
  0
LINE
  5
8D
330
1F
100
AcDbEntity
  8
1
  6
Continuous
 62
     4
100
AcDbLine
 10
239.506218121702
 20
678.410095399892
 30
0.0
 11
239.006218121702
 21
678.160095399892
 31
0.0
  0
LINE
  5
8E
330
1F
100
AcDbEntity
  8
1
  6
Continuous
 62
     4
100
AcDbLine
 10
240.006218121702
 20
678.910095399892
 30
0.0
 11
239.506218121702
 21
678.410095399892
 31
0.0
  0
LINE
  5
8F
330
1F
100
AcDbEntity
  8
1
  6
Continuous
 62
     4
100
AcDbLine
 10
240.256218121702
 20
679.660095399892
 30
0.0
 11
240.006218121702
 21
678.910095399892
 31
0.0
  0
LINE
  5
90
330
1F
100
AcDbEntity
  8
1
  6
Continuous
 62
     4
100
AcDbLine
 10
240.256218121702
 20
680.410095399892
 30
0.0
 11
240.256218121702
 21
679.660095399892
 31
0.0
  0
LINE
  5
91
330
1F
100
AcDbEntity
  8
1
  6
Continuous
 62
     4
100
AcDbLine
 10
240.006218121702
 20
681.160095399892
 30
0.0
 11
240.256218121702
 21
680.410095399892
 31
0.0
  0
LINE
  5
92
330
1F
100
AcDbEntity
  8
1
  6
Continuous
 62
     4
100
AcDbLine
 10
239.256218121702
 20
681.660095399892
 30
0.0
 11
240.006218121702
 21
681.160095399892
 31
0.0
  0
LINE
  5
93
330
1F
100
AcDbEntity
  8
1
  6
Continuous
 62
     4
100
AcDbLine
 10
238.006218121702
 20
681.910095399892
 30
0.0
 11
239.256218121702
 21
681.660095399892
 31
0.0
  0
LINE
  5
94
330
1F
100
AcDbEntity
  8
1
  6
Continuous
 62
     4
100
AcDbLine
 10
234.256218121702
 20
681.910095399892
 30
0.0
 11
238.006218121702
 21
681.910095399892
 31
0.0
  0
LINE
  5
95
330
1F
100
AcDbEntity
  8
1
  6
Continuous
 62
     4
100
AcDbLine
 10
235.756218121702
 20
677.910095399892
 30
0.0
 11
238.256218121702
 21
677.910095399892
 31
0.0
  0
LINE
  5
96
330
1F
100
AcDbEntity
  8
1
  6
Continuous
 62
     4
100
AcDbLine
 10
231.256218121702
 20
681.910095399892
 30
0.0
 11
231.256218121702
 21
671.910095399892
 31
0.0
  0
LINE
  5
97
330
1F
100
AcDbEntity
  8
1
  6
Continuous
 62
     4
100
AcDbLine
 10
228.256218121702
 20
678.910095399892
 30
0.0
 11
231.256218121702
 21
681.910095399892
 31
0.0
  0
LINE
  5
98
330
1F
100
AcDbEntity
  8
1
  6
Continuous
 62
     4
100
AcDbLine
 10
220.256218121702
 20
675.410095399892
 30
0.0
 11
225.256218121702
 21
675.410095399892
 31
0.0
  0
LINE
  5
99
330
1F
100
AcDbEntity
  8
1
  6
Continuous
 62
     4
100
AcDbLine
 10
217.256218121702
 20
677.410095399892
 30
0.0
 11
214.756218121702
 21
677.410095399892
 31
0.0
  0
LINE
  5
9A
330
1F
100
AcDbEntity
  8
1
  6
Continuous
 62
     4
100
AcDbLine
 10
217.256218121702
 20
671.910095399892
 30
0.0
 11
217.256218121702
 21
677.410095399892
 31
0.0
  0
LINE
  5
9B
330
1F
100
AcDbEntity
  8
1
  6
Continuous
 62
     4
100
AcDbLine
 10
213.006218121702
 20
671.910095399892
 30
0.0
 11
217.256218121702
 21
671.910095399892
 31
0.0
  0
LINE
  5
9C
330
1F
100
AcDbEntity
  8
1
  6
Continuous
 62
     4
100
AcDbLine
 10
212.256218121702
 20
672.160095399892
 30
0.0
 11
213.006218121702
 21
671.910095399892
 31
0.0
  0
LINE
  5
9D
330
1F
100
AcDbEntity
  8
1
  6
Continuous
 62
     4
100
AcDbLine
 10
211.256218121702
 20
672.660095399892
 30
0.0
 11
212.256218121702
 21
672.160095399892
 31
0.0
  0
LINE
  5
9E
330
1F
100
AcDbEntity
  8
1
  6
Continuous
 62
     4
100
AcDbLine
 10
210.756218121702
 20
673.160095399892
 30
0.0
 11
211.256218121702
 21
672.660095399892
 31
0.0
  0
LINE
  5
9F
330
1F
100
AcDbEntity
  8
1
  6
Continuous
 62
     4
100
AcDbLine
 10
210.506218121702
 20
673.910095399892
 30
0.0
 11
210.756218121702
 21
673.160095399892
 31
0.0
  0
LINE
  5
A0
330
1F
100
AcDbEntity
  8
1
  6
Continuous
 62
     4
100
AcDbLine
 10
210.256218121702
 20
674.910095399892
 30
0.0
 11
210.506218121702
 21
673.910095399892
 31
0.0
  0
LINE
  5
A1
330
1F
100
AcDbEntity
  8
1
  6
Continuous
 62
     4
100
AcDbLine
 10
210.256218121702
 20
678.910095399892
 30
0.0
 11
210.256218121702
 21
674.910095399892
 31
0.0
  0
LINE
  5
A2
330
1F
100
AcDbEntity
  8
1
  6
Continuous
 62
     4
100
AcDbLine
 10
210.506218121702
 20
679.910095399892
 30
0.0
 11
210.256218121702
 21
678.910095399892
 31
0.0
  0
LINE
  5
A3
330
1F
100
AcDbEntity
  8
1
  6
Continuous
 62
     4
100
AcDbLine
 10
210.756218121702
 20
680.660095399892
 30
0.0
 11
210.506218121702
 21
679.910095399892
 31
0.0
  0
LINE
  5
A4
330
1F
100
AcDbEntity
  8
1
  6
Continuous
 62
     4
100
AcDbLine
 10
211.256218121702
 20
681.160095399892
 30
0.0
 11
210.756218121702
 21
680.660095399892
 31
0.0
  0
LINE
  5
A5
330
1F
100
AcDbEntity
  8
1
  6
Continuous
 62
     4
100
AcDbLine
 10
212.006218121702
 20
681.660095399892
 30
0.0
 11
211.256218121702
 21
681.160095399892
 31
0.0
  0
LINE
  5
A6
330
1F
100
AcDbEntity
  8
1
  6
Continuous
 62
     4
100
AcDbLine
 10
213.006218121702
 20
681.910095399892
 30
0.0
 11
212.006218121702
 21
681.660095399892
 31
0.0
  0
LINE
  5
A7
330
1F
100
AcDbEntity
  8
1
  6
Continuous
 62
     4
100
AcDbLine
 10
217.256218121702
 20
681.910095399892
 30
0.0
 11
213.006218121702
 21
681.910095399892
 31
0.0
  0
LINE
  5
A8
330
1F
100
AcDbEntity
  8
1
  6
Continuous
 62
     4
100
AcDbLine
 10
205.256218121702
 20
671.910095399892
 30
0.0
 11
207.256218121702
 21
681.910095399892
 31
0.0
  0
LINE
  5
A9
330
1F
100
AcDbEntity
  8
1
  6
Continuous
 62
     4
100
AcDbLine
 10
202.756218121702
 20
678.910095399892
 30
0.0
 11
205.256218121702
 21
671.910095399892
 31
0.0
  0
LINE
  5
AA
330
1F
100
AcDbEntity
  8
1
  6
Continuous
 62
     4
100
AcDbLine
 10
200.256218121702
 20
671.910095399892
 30
0.0
 11
202.756218121702
 21
678.910095399892
 31
0.0
  0
LINE
  5
AB
330
1F
100
AcDbEntity
  8
1
  6
Continuous
 62
     4
100
AcDbLine
 10
198.256218121702
 20
681.910095399892
 30
0.0
 11
200.256218121702
 21
671.910095399892
 31
0.0
  0
LINE
  5
AC
330
1F
100
AcDbEntity
  8
1
  6
Continuous
 62
     4
100
AcDbLine
 10
193.756218121702
 20
675.910095399892
 30
0.0
 11
193.756218121702
 21
671.910095399892
 31
0.0
  0
LINE
  5
AD
330
1F
100
AcDbEntity
  8
1
  6
Continuous
 62
     4
100
AcDbLine
 10
189.256218121702
 20
673.910095399892
 30
0.0
 11
195.256218121702
 21
673.910095399892
 31
0.0
  0
LINE
  5
AE
330
1F
100
AcDbEntity
  8
1
  6
Continuous
 62
     4
100
AcDbLine
 10
193.756218121702
 20
681.910095399892
 30
0.0
 11
189.256218121702
 21
673.910095399892
 31
0.0
  0
LINE
  5
AF
330
1F
100
AcDbEntity
  8
1
  6
Continuous
 62
     4
100
AcDbLine
 10
179.756218121702
 20
677.410095399892
 30
0.0
 11
179.756218121702
 21
681.910095399892
 31
0.0
  0
LINE
  5
B0
330
1F
100
AcDbEntity
  8
1
  6
Continuous
 62
     4
100
AcDbLine
 10
184.506218121702
 20
677.660095399892
 30
0.0
 11
183.756218121702
 21
677.410095399892
 31
0.0
  0
LINE
  5
B1
330
1F
100
AcDbEntity
  8
1
  6
Continuous
 62
     4
100
AcDbLine
 10
185.256218121702
 20
678.160095399892
 30
0.0
 11
184.506218121702
 21
677.660095399892
 31
0.0
  0
LINE
  5
B2
330
1F
100
AcDbEntity
  8
1
  6
Continuous
 62
     4
100
AcDbLine
 10
185.756218121702
 20
679.160095399892
 30
0.0
 11
185.256218121702
 21
678.160095399892
 31
0.0
  0
LINE
  5
B3
330
1F
100
AcDbEntity
  8
1
  6
Continuous
 62
     4
100
AcDbLine
 10
185.756218121702
 20
679.910095399892
 30
0.0
 11
185.756218121702
 21
679.160095399892
 31
0.0
  0
LINE
  5
B4
330
1F
100
AcDbEntity
  8
1
  6
Continuous
 62
     4
100
AcDbLine
 10
185.506218121702
 20
680.910095399892
 30
0.0
 11
185.756218121702
 21
679.910095399892
 31
0.0
  0
LINE
  5
B5
330
1F
100
AcDbEntity
  8
1
  6
Continuous
 62
     4
100
AcDbLine
 10
184.756218121702
 20
681.660095399892
 30
0.0
 11
185.506218121702
 21
680.910095399892
 31
0.0
  0
LINE
  5
B6
330
1F
100
AcDbEntity
  8
1
  6
Continuous
 62
     4
100
AcDbLine
 10
183.506218121702
 20
681.910095399892
 30
0.0
 11
184.756218121702
 21
681.660095399892
 31
0.0
  0
LINE
  5
B7
330
1F
100
AcDbEntity
  8
1
  6
Continuous
 62
     4
100
AcDbLine
 10
179.756218121702
 20
681.910095399892
 30
0.0
 11
183.506218121702
 21
681.910095399892
 31
0.0
  0
LINE
  5
B8
330
1F
100
AcDbEntity
  8
1
  6
Continuous
 62
     4
100
AcDbLine
 10
179.756218121702
 20
671.910095399892
 30
0.0
 11
179.756218121702
 21
677.410095399892
 31
0.0
  0
LINE
  5
B9
330
1F
100
AcDbEntity
  8
1
  6
Continuous
 62
     4
100
AcDbLine
 10
184.256218121702
 20
671.910095399892
 30
0.0
 11
179.756218121702
 21
671.910095399892
 31
0.0
  0
LINE
  5
BA
330
1F
100
AcDbEntity
  8
1
  6
Continuous
 62
     4
100
AcDbLine
 10
185.256218121702
 20
672.410095399892
 30
0.0
 11
184.256218121702
 21
671.910095399892
 31
0.0
  0
LINE
  5
BB
330
1F
100
AcDbEntity
  8
1
  6
Continuous
 62
     4
100
AcDbLine
 10
185.756218121702
 20
672.910095399892
 30
0.0
 11
185.256218121702
 21
672.410095399892
 31
0.0
  0
LINE
  5
BC
330
1F
100
AcDbEntity
  8
1
  6
Continuous
 62
     4
100
AcDbLine
 10
186.256218121702
 20
673.910095399892
 30
0.0
 11
185.756218121702
 21
672.910095399892
 31
0.0
  0
LINE
  5
BD
330
1F
100
AcDbEntity
  8
1
  6
Continuous
 62
     4
100
AcDbLine
 10
186.256218121702
 20
675.160095399892
 30
0.0
 11
186.256218121702
 21
673.910095399892
 31
0.0
  0
LINE
  5
BE
330
1F
100
AcDbEntity
  8
1
  6
Continuous
 62
     4
100
AcDbLine
 10
185.756218121702
 20
676.410095399892
 30
0.0
 11
186.256218121702
 21
675.160095399892
 31
0.0
  0
LINE
  5
BF
330
1F
100
AcDbEntity
  8
1
  6
Continuous
 62
     4
100
AcDbLine
 10
185.256218121702
 20
676.910095399892
 30
0.0
 11
185.756218121702
 21
676.410095399892
 31
0.0
  0
LINE
  5
C0
330
1F
100
AcDbEntity
  8
1
  6
Continuous
 62
     4
100
AcDbLine
 10
184.256218121702
 20
677.410095399892
 30
0.0
 11
185.256218121702
 21
676.910095399892
 31
0.0
  0
LINE
  5
C1
330
1F
100
AcDbEntity
  8
1
  6
Continuous
 62
     4
100
AcDbLine
 10
183.756218121702
 20
677.410095399892
 30
0.0
 11
184.256218121702
 21
677.410095399892
 31
0.0
  0
LINE
  5
C2
330
1F
100
AcDbEntity
  8
1
  6
Continuous
 62
     4
100
AcDbLine
 10
179.756218121702
 20
677.410095399892
 30
0.0
 11
183.756218121702
 21
677.410095399892
 31
0.0
  0
LINE
  5
C3
330
1F
100
AcDbEntity
  8
1
  6
Continuous
 62
     4
100
AcDbLine
 10
171.756218121702
 20
675.410095399892
 30
0.0
 11
176.756218121702
 21
675.410095399892
 31
0.0
  0
LINE
  5
C4
330
1F
100
AcDbEntity
  8
1
  6
Continuous
 62
     4
100
AcDbLine
 10
161.756218121702
 20
677.410095399892
 30
0.0
 11
161.756218121702
 21
676.910095399892
 31
0.0
  0
LINE
  5
C5
330
1F
100
AcDbEntity
  8
1
  6
Continuous
 62
     4
100
AcDbLine
 10
161.756218121702
 20
671.910095399892
 30
0.0
 11
168.756218121702
 21
671.910095399892
 31
0.0
  0
LINE
  5
C6
330
1F
100
AcDbEntity
  8
1
  6
Continuous
 62
     4
100
AcDbLine
 10
161.756218121702
 20
676.910095399892
 30
0.0
 11
161.756218121702
 21
671.910095399892
 31
0.0
  0
LINE
  5
C7
330
1F
100
AcDbEntity
  8
1
  6
Continuous
 62
     4
100
AcDbLine
 10
161.756218121702
 20
681.910095399892
 30
0.0
 11
161.756218121702
 21
677.410095399892
 31
0.0
  0
LINE
  5
C8
330
1F
100
AcDbEntity
  8
1
  6
Continuous
 62
     4
100
AcDbLine
 10
168.756218121702
 20
681.910095399892
 30
0.0
 11
161.756218121702
 21
681.910095399892
 31
0.0
  0
LINE
  5
C9
330
1F
100
AcDbEntity
  8
1
  6
Continuous
 62
     4
100
AcDbLine
 10
167.756218121702
 20
677.410095399892
 30
0.0
 11
161.756218121702
 21
677.410095399892
 31
0.0
  0
LINE
  5
CA
330
1F
100
AcDbEntity
  8
1
  6
Continuous
 62
     4
100
AcDbLine
 10
158.756218121702
 20
681.910095399892
 30
0.0
 11
158.756218121702
 21
671.910095399892
 31
0.0
  0
LINE
  5
CB
330
1F
100
AcDbEntity
  8
1
  6
Continuous
 62
     4
100
AcDbLine
 10
155.256218121702
 20
676.410095399892
 30
0.0
 11
158.756218121702
 21
681.910095399892
 31
0.0
  0
LINE
  5
CC
330
1F
100
AcDbEntity
  8
1
  6
Continuous
 62
     4
100
AcDbLine
 10
151.756218121702
 20
681.910095399892
 30
0.0
 11
155.256218121702
 21
676.410095399892
 31
0.0
  0
LINE
  5
CD
330
1F
100
AcDbEntity
  8
1
  6
Continuous
 62
     4
100
AcDbLine
 10
151.756218121702
 20
671.910095399892
 30
0.0
 11
151.756218121702
 21
681.910095399892
 31
0.0
  0
LINE
  5
CE
330
1F
100
AcDbEntity
  8
1
  6
Continuous
 62
     4
100
AcDbLine
 10
145.506218121702
 20
681.910095399892
 30
0.0
 11
148.756218121702
 21
681.910095399892
 31
0.0
  0
LINE
  5
CF
330
1F
100
AcDbEntity
  8
1
  6
Continuous
 62
     4
100
AcDbLine
 10
144.506218121702
 20
681.660095399892
 30
0.0
 11
145.506218121702
 21
681.910095399892
 31
0.0
  0
LINE
  5
D0
330
1F
100
AcDbEntity
  8
1
  6
Continuous
 62
     4
100
AcDbLine
 10
143.756218121702
 20
681.160095399892
 30
0.0
 11
144.506218121702
 21
681.660095399892
 31
0.0
  0
LINE
  5
D1
330
1F
100
AcDbEntity
  8
1
  6
Continuous
 62
     4
100
AcDbLine
 10
143.256218121702
 20
680.660095399892
 30
0.0
 11
143.756218121702
 21
681.160095399892
 31
0.0
  0
LINE
  5
D2
330
1F
100
AcDbEntity
  8
1
  6
Continuous
 62
     4
100
AcDbLine
 10
143.006218121702
 20
679.910095399892
 30
0.0
 11
143.256218121702
 21
680.660095399892
 31
0.0
  0
LINE
  5
D3
330
1F
100
AcDbEntity
  8
1
  6
Continuous
 62
     4
100
AcDbLine
 10
142.756218121702
 20
678.910095399892
 30
0.0
 11
143.006218121702
 21
679.910095399892
 31
0.0
  0
LINE
  5
D4
330
1F
100
AcDbEntity
  8
1
  6
Continuous
 62
     4
100
AcDbLine
 10
142.756218121702
 20
674.910095399892
 30
0.0
 11
142.756218121702
 21
678.910095399892
 31
0.0
  0
LINE
  5
D5
330
1F
100
AcDbEntity
  8
1
  6
Continuous
 62
     4
100
AcDbLine
 10
143.006218121702
 20
673.910095399892
 30
0.0
 11
142.756218121702
 21
674.910095399892
 31
0.0
  0
LINE
  5
D6
330
1F
100
AcDbEntity
  8
1
  6
Continuous
 62
     4
100
AcDbLine
 10
143.256218121702
 20
673.160095399892
 30
0.0
 11
143.006218121702
 21
673.910095399892
 31
0.0
  0
LINE
  5
D7
330
1F
100
AcDbEntity
  8
1
  6
Continuous
 62
     4
100
AcDbLine
 10
143.756218121702
 20
672.660095399892
 30
0.0
 11
143.256218121702
 21
673.160095399892
 31
0.0
  0
LINE
  5
D8
330
1F
100
AcDbEntity
  8
1
  6
Continuous
 62
     4
100
AcDbLine
 10
144.506218121702
 20
672.160095399892
 30
0.0
 11
143.756218121702
 21
672.660095399892
 31
0.0
  0
LINE
  5
D9
330
1F
100
AcDbEntity
  8
1
  6
Continuous
 62
     4
100
AcDbLine
 10
145.506218121702
 20
671.910095399892
 30
0.0
 11
144.506218121702
 21
672.160095399892
 31
0.0
  0
LINE
  5
DA
330
1F
100
AcDbEntity
  8
1
  6
Continuous
 62
     4
100
AcDbLine
 10
148.756218121702
 20
671.910095399892
 30
0.0
 11
145.506218121702
 21
671.910095399892
 31
0.0
  0
LINE
  5
DB
330
1F
100
AcDbEntity
  8
1
  6
Continuous
 62
     4
100
AcDbLine
 10
139.970418926676
 20
632.86719856806
 30
0.0
 11
139.970418926676
 21
628.86719856806
 31
0.0
  0
LINE
  5
DC
330
1F
100
AcDbEntity
  8
1
  6
Continuous
 62
     4
100
AcDbLine
 10
135.470418926676
 20
630.86719856806
 30
0.0
 11
141.470418926676
 21
630.86719856806
 31
0.0
  0
LINE
  5
DD
330
1F
100
AcDbEntity
  8
1
  6
Continuous
 62
     4
100
AcDbLine
 10
139.970418926676
 20
638.86719856806
 30
0.0
 11
135.470418926676
 21
630.86719856806
 31
0.0
  0
LINE
  5
DE
330
1F
100
AcDbEntity
  8
1
  6
Continuous
 62
     4
100
AcDbLine
 10
128.470418926676
 20
628.86719856806
 30
0.0
 11
132.470418926676
 21
638.86719856806
 31
0.0
  0
LINE
  5
DF
330
1F
100
AcDbEntity
  8
1
  6
Continuous
 62
     4
100
AcDbLine
 10
123.220418926676
 20
628.86719856806
 30
0.0
 11
119.470418926676
 21
628.86719856806
 31
0.0
  0
LINE
  5
E0
330
1F
100
AcDbEntity
  8
1
  6
Continuous
 62
     4
100
AcDbLine
 10
123.970418926676
 20
629.11719856806
 30
0.0
 11
123.220418926676
 21
628.86719856806
 31
0.0
  0
LINE
  5
E1
330
1F
100
AcDbEntity
  8
1
  6
Continuous
 62
     4
100
AcDbLine
 10
124.720418926676
 20
629.61719856806
 30
0.0
 11
123.970418926676
 21
629.11719856806
 31
0.0
  0
LINE
  5
E2
330
1F
100
AcDbEntity
  8
1
  6
Continuous
 62
     4
100
AcDbLine
 10
125.220418926676
 20
630.36719856806
 30
0.0
 11
124.720418926676
 21
629.61719856806
 31
0.0
  0
LINE
  5
E3
330
1F
100
AcDbEntity
  8
1
  6
Continuous
 62
     4
100
AcDbLine
 10
125.470418926676
 20
631.36719856806
 30
0.0
 11
125.220418926676
 21
630.36719856806
 31
0.0
  0
LINE
  5
E4
330
1F
100
AcDbEntity
  8
1
  6
Continuous
 62
     4
100
AcDbLine
 10
125.470418926676
 20
632.61719856806
 30
0.0
 11
125.470418926676
 21
631.36719856806
 31
0.0
  0
LINE
  5
E5
330
1F
100
AcDbEntity
  8
1
  6
Continuous
 62
     4
100
AcDbLine
 10
125.220418926676
 20
633.61719856806
 30
0.0
 11
125.470418926676
 21
632.61719856806
 31
0.0
  0
LINE
  5
E6
330
1F
100
AcDbEntity
  8
1
  6
Continuous
 62
     4
100
AcDbLine
 10
124.970418926676
 20
634.11719856806
 30
0.0
 11
125.220418926676
 21
633.61719856806
 31
0.0
  0
LINE
  5
E7
330
1F
100
AcDbEntity
  8
1
  6
Continuous
 62
     4
100
AcDbLine
 10
124.470418926676
 20
634.61719856806
 30
0.0
 11
124.970418926676
 21
634.11719856806
 31
0.0
  0
LINE
  5
E8
330
1F
100
AcDbEntity
  8
1
  6
Continuous
 62
     4
100
AcDbLine
 10
123.470418926676
 20
634.86719856806
 30
0.0
 11
124.470418926676
 21
634.61719856806
 31
0.0
  0
LINE
  5
E9
330
1F
100
AcDbEntity
  8
1
  6
Continuous
 62
     4
100
AcDbLine
 10
124.220418926676
 20
635.11719856806
 30
0.0
 11
123.470418926676
 21
634.86719856806
 31
0.0
  0
LINE
  5
EA
330
1F
100
AcDbEntity
  8
1
  6
Continuous
 62
     4
100
AcDbLine
 10
124.720418926676
 20
635.36719856806
 30
0.0
 11
124.220418926676
 21
635.11719856806
 31
0.0
  0
LINE
  5
EB
330
1F
100
AcDbEntity
  8
1
  6
Continuous
 62
     4
100
AcDbLine
 10
125.220418926676
 20
635.86719856806
 30
0.0
 11
124.720418926676
 21
635.36719856806
 31
0.0
  0
LINE
  5
EC
330
1F
100
AcDbEntity
  8
1
  6
Continuous
 62
     4
100
AcDbLine
 10
125.470418926676
 20
636.61719856806
 30
0.0
 11
125.220418926676
 21
635.86719856806
 31
0.0
  0
LINE
  5
ED
330
1F
100
AcDbEntity
  8
1
  6
Continuous
 62
     4
100
AcDbLine
 10
125.470418926676
 20
637.36719856806
 30
0.0
 11
125.470418926676
 21
636.61719856806
 31
0.0
  0
LINE
  5
EE
330
1F
100
AcDbEntity
  8
1
  6
Continuous
 62
     4
100
AcDbLine
 10
125.220418926676
 20
638.11719856806
 30
0.0
 11
125.470418926676
 21
637.36719856806
 31
0.0
  0
LINE
  5
EF
330
1F
100
AcDbEntity
  8
1
  6
Continuous
 62
     4
100
AcDbLine
 10
124.470418926676
 20
638.61719856806
 30
0.0
 11
125.220418926676
 21
638.11719856806
 31
0.0
  0
LINE
  5
F0
330
1F
100
AcDbEntity
  8
1
  6
Continuous
 62
     4
100
AcDbLine
 10
123.220418926676
 20
638.86719856806
 30
0.0
 11
124.470418926676
 21
638.61719856806
 31
0.0
  0
LINE
  5
F1
330
1F
100
AcDbEntity
  8
1
  6
Continuous
 62
     4
100
AcDbLine
 10
119.470418926676
 20
638.86719856806
 30
0.0
 11
123.220418926676
 21
638.86719856806
 31
0.0
  0
LINE
  5
F2
330
1F
100
AcDbEntity
  8
1
  6
Continuous
 62
     4
100
AcDbLine
 10
120.970418926676
 20
634.86719856806
 30
0.0
 11
123.470418926676
 21
634.86719856806
 31
0.0
  0
LINE
  5
F3
330
1F
100
AcDbEntity
  8
1
  6
Continuous
 62
     4
100
AcDbLine
 10
116.470418926676
 20
634.36719856806
 30
0.0
 11
113.970418926676
 21
634.36719856806
 31
0.0
  0
LINE
  5
F4
330
1F
100
AcDbEntity
  8
1
  6
Continuous
 62
     4
100
AcDbLine
 10
116.470418926676
 20
628.86719856806
 30
0.0
 11
116.470418926676
 21
634.36719856806
 31
0.0
  0
LINE
  5
F5
330
1F
100
AcDbEntity
  8
1
  6
Continuous
 62
     4
100
AcDbLine
 10
112.220418926676
 20
628.86719856806
 30
0.0
 11
116.470418926676
 21
628.86719856806
 31
0.0
  0
LINE
  5
F6
330
1F
100
AcDbEntity
  8
1
  6
Continuous
 62
     4
100
AcDbLine
 10
111.470418926676
 20
629.11719856806
 30
0.0
 11
112.220418926676
 21
628.86719856806
 31
0.0
  0
LINE
  5
F7
330
1F
100
AcDbEntity
  8
1
  6
Continuous
 62
     4
100
AcDbLine
 10
110.470418926676
 20
629.61719856806
 30
0.0
 11
111.470418926676
 21
629.11719856806
 31
0.0
  0
LINE
  5
F8
330
1F
100
AcDbEntity
  8
1
  6
Continuous
 62
     4
100
AcDbLine
 10
109.970418926676
 20
630.11719856806
 30
0.0
 11
110.470418926676
 21
629.61719856806
 31
0.0
  0
LINE
  5
F9
330
1F
100
AcDbEntity
  8
1
  6
Continuous
 62
     4
100
AcDbLine
 10
109.720418926676
 20
630.86719856806
 30
0.0
 11
109.970418926676
 21
630.11719856806
 31
0.0
  0
LINE
  5
FA
330
1F
100
AcDbEntity
  8
1
  6
Continuous
 62
     4
100
AcDbLine
 10
109.470418926676
 20
631.86719856806
 30
0.0
 11
109.720418926676
 21
630.86719856806
 31
0.0
  0
LINE
  5
FB
330
1F
100
AcDbEntity
  8
1
  6
Continuous
 62
     4
100
AcDbLine
 10
109.470418926676
 20
635.86719856806
 30
0.0
 11
109.470418926676
 21
631.86719856806
 31
0.0
  0
LINE
  5
FC
330
1F
100
AcDbEntity
  8
1
  6
Continuous
 62
     4
100
AcDbLine
 10
109.720418926676
 20
636.86719856806
 30
0.0
 11
109.470418926676
 21
635.86719856806
 31
0.0
  0
LINE
  5
FD
330
1F
100
AcDbEntity
  8
1
  6
Continuous
 62
     4
100
AcDbLine
 10
109.970418926676
 20
637.61719856806
 30
0.0
 11
109.720418926676
 21
636.86719856806
 31
0.0
  0
LINE
  5
FE
330
1F
100
AcDbEntity
  8
1
  6
Continuous
 62
     4
100
AcDbLine
 10
110.470418926676
 20
638.11719856806
 30
0.0
 11
109.970418926676
 21
637.61719856806
 31
0.0
  0
LINE
  5
FF
330
1F
100
AcDbEntity
  8
1
  6
Continuous
 62
     4
100
AcDbLine
 10
111.220418926676
 20
638.61719856806
 30
0.0
 11
110.470418926676
 21
638.11719856806
 31
0.0
  0
LINE
  5
100
330
1F
100
AcDbEntity
  8
1
  6
Continuous
 62
     4
100
AcDbLine
 10
112.220418926676
 20
638.86719856806
 30
0.0
 11
111.220418926676
 21
638.61719856806
 31
0.0
  0
LINE
  5
101
330
1F
100
AcDbEntity
  8
1
  6
Continuous
 62
     4
100
AcDbLine
 10
116.470418926676
 20
638.86719856806
 30
0.0
 11
112.220418926676
 21
638.86719856806
 31
0.0
  0
LINE
  5
102
330
1F
100
AcDbEntity
  8
1
  6
Continuous
 62
     4
100
AcDbLine
 10
-247.359847316953
 20
698.556177153769
 30
0.0
 11
-247.359847316953
 21
694.556177153769
 31
0.0
  0
LINE
  5
103
330
1F
100
AcDbEntity
  8
1
  6
Continuous
 62
     4
100
AcDbLine
 10
-251.859847316953
 20
696.556177153769
 30
0.0
 11
-245.859847316953
 21
696.556177153769
 31
0.0
  0
LINE
  5
104
330
1F
100
AcDbEntity
  8
1
  6
Continuous
 62
     4
100
AcDbLine
 10
-247.359847316953
 20
704.556177153769
 30
0.0
 11
-251.859847316953
 21
696.556177153769
 31
0.0
  0
LINE
  5
105
330
1F
100
AcDbEntity
  8
1
  6
Continuous
 62
     4
100
AcDbLine
 10
-258.859847316953
 20
694.556177153769
 30
0.0
 11
-254.859847316953
 21
704.556177153769
 31
0.0
  0
LINE
  5
106
330
1F
100
AcDbEntity
  8
1
  6
Continuous
 62
     4
100
AcDbLine
 10
-264.109847316953
 20
694.556177153769
 30
0.0
 11
-267.859847316953
 21
694.556177153769
 31
0.0
  0
LINE
  5
107
330
1F
100
AcDbEntity
  8
1
  6
Continuous
 62
     4
100
AcDbLine
 10
-263.359847316953
 20
694.806177153769
 30
0.0
 11
-264.109847316953
 21
694.556177153769
 31
0.0
  0
LINE
  5
108
330
1F
100
AcDbEntity
  8
1
  6
Continuous
 62
     4
100
AcDbLine
 10
-262.609847316953
 20
695.306177153769
 30
0.0
 11
-263.359847316953
 21
694.806177153769
 31
0.0
  0
LINE
  5
109
330
1F
100
AcDbEntity
  8
1
  6
Continuous
 62
     4
100
AcDbLine
 10
-262.109847316953
 20
696.056177153769
 30
0.0
 11
-262.609847316953
 21
695.306177153769
 31
0.0
  0
LINE
  5
10A
330
1F
100
AcDbEntity
  8
1
  6
Continuous
 62
     4
100
AcDbLine
 10
-261.859847316953
 20
697.056177153769
 30
0.0
 11
-262.109847316953
 21
696.056177153769
 31
0.0
  0
LINE
  5
10B
330
1F
100
AcDbEntity
  8
1
  6
Continuous
 62
     4
100
AcDbLine
 10
-261.859847316953
 20
698.306177153769
 30
0.0
 11
-261.859847316953
 21
697.056177153769
 31
0.0
  0
LINE
  5
10C
330
1F
100
AcDbEntity
  8
1
  6
Continuous
 62
     4
100
AcDbLine
 10
-262.109847316953
 20
699.306177153769
 30
0.0
 11
-261.859847316953
 21
698.306177153769
 31
0.0
  0
LINE
  5
10D
330
1F
100
AcDbEntity
  8
1
  6
Continuous
 62
     4
100
AcDbLine
 10
-262.359847316953
 20
699.806177153769
 30
0.0
 11
-262.109847316953
 21
699.306177153769
 31
0.0
  0
LINE
  5
10E
330
1F
100
AcDbEntity
  8
1
  6
Continuous
 62
     4
100
AcDbLine
 10
-262.859847316953
 20
700.306177153769
 30
0.0
 11
-262.359847316953
 21
699.806177153769
 31
0.0
  0
LINE
  5
10F
330
1F
100
AcDbEntity
  8
1
  6
Continuous
 62
     4
100
AcDbLine
 10
-263.859847316953
 20
700.556177153769
 30
0.0
 11
-262.859847316953
 21
700.306177153769
 31
0.0
  0
LINE
  5
110
330
1F
100
AcDbEntity
  8
1
  6
Continuous
 62
     4
100
AcDbLine
 10
-263.109847316953
 20
700.806177153769
 30
0.0
 11
-263.859847316953
 21
700.556177153769
 31
0.0
  0
LINE
  5
111
330
1F
100
AcDbEntity
  8
1
  6
Continuous
 62
     4
100
AcDbLine
 10
-262.609847316953
 20
701.056177153769
 30
0.0
 11
-263.109847316953
 21
700.806177153769
 31
0.0
  0
LINE
  5
112
330
1F
100
AcDbEntity
  8
1
  6
Continuous
 62
     4
100
AcDbLine
 10
-262.109847316953
 20
701.556177153769
 30
0.0
 11
-262.609847316953
 21
701.056177153769
 31
0.0
  0
LINE
  5
113
330
1F
100
AcDbEntity
  8
1
  6
Continuous
 62
     4
100
AcDbLine
 10
-261.859847316953
 20
702.306177153769
 30
0.0
 11
-262.109847316953
 21
701.556177153769
 31
0.0
  0
LINE
  5
114
330
1F
100
AcDbEntity
  8
1
  6
Continuous
 62
     4
100
AcDbLine
 10
-261.859847316953
 20
703.056177153769
 30
0.0
 11
-261.859847316953
 21
702.306177153769
 31
0.0
  0
LINE
  5
115
330
1F
100
AcDbEntity
  8
1
  6
Continuous
 62
     4
100
AcDbLine
 10
-262.109847316953
 20
703.806177153769
 30
0.0
 11
-261.859847316953
 21
703.056177153769
 31
0.0
  0
LINE
  5
116
330
1F
100
AcDbEntity
  8
1
  6
Continuous
 62
     4
100
AcDbLine
 10
-262.859847316953
 20
704.306177153769
 30
0.0
 11
-262.109847316953
 21
703.806177153769
 31
0.0
  0
LINE
  5
117
330
1F
100
AcDbEntity
  8
1
  6
Continuous
 62
     4
100
AcDbLine
 10
-264.109847316953
 20
704.556177153769
 30
0.0
 11
-262.859847316953
 21
704.306177153769
 31
0.0
  0
LINE
  5
118
330
1F
100
AcDbEntity
  8
1
  6
Continuous
 62
     4
100
AcDbLine
 10
-267.859847316953
 20
704.556177153769
 30
0.0
 11
-264.109847316953
 21
704.556177153769
 31
0.0
  0
LINE
  5
119
330
1F
100
AcDbEntity
  8
1
  6
Continuous
 62
     4
100
AcDbLine
 10
-266.359847316953
 20
700.556177153769
 30
0.0
 11
-263.859847316953
 21
700.556177153769
 31
0.0
  0
LINE
  5
11A
330
1F
100
AcDbEntity
  8
1
  6
Continuous
 62
     4
100
AcDbLine
 10
-270.859847316953
 20
700.056177153769
 30
0.0
 11
-273.359847316953
 21
700.056177153769
 31
0.0
  0
LINE
  5
11B
330
1F
100
AcDbEntity
  8
1
  6
Continuous
 62
     4
100
AcDbLine
 10
-270.859847316953
 20
694.556177153769
 30
0.0
 11
-270.859847316953
 21
700.056177153769
 31
0.0
  0
LINE
  5
11C
330
1F
100
AcDbEntity
  8
1
  6
Continuous
 62
     4
100
AcDbLine
 10
-275.109847316953
 20
694.556177153769
 30
0.0
 11
-270.859847316953
 21
694.556177153769
 31
0.0
  0
LINE
  5
11D
330
1F
100
AcDbEntity
  8
1
  6
Continuous
 62
     4
100
AcDbLine
 10
-275.859847316953
 20
694.806177153769
 30
0.0
 11
-275.109847316953
 21
694.556177153769
 31
0.0
  0
LINE
  5
11E
330
1F
100
AcDbEntity
  8
1
  6
Continuous
 62
     4
100
AcDbLine
 10
-276.859847316953
 20
695.306177153769
 30
0.0
 11
-275.859847316953
 21
694.806177153769
 31
0.0
  0
LINE
  5
11F
330
1F
100
AcDbEntity
  8
1
  6
Continuous
 62
     4
100
AcDbLine
 10
-277.359847316953
 20
695.806177153769
 30
0.0
 11
-276.859847316953
 21
695.306177153769
 31
0.0
  0
LINE
  5
120
330
1F
100
AcDbEntity
  8
1
  6
Continuous
 62
     4
100
AcDbLine
 10
-277.609847316953
 20
696.556177153769
 30
0.0
 11
-277.359847316953
 21
695.806177153769
 31
0.0
  0
LINE
  5
121
330
1F
100
AcDbEntity
  8
1
  6
Continuous
 62
     4
100
AcDbLine
 10
-277.859847316953
 20
697.556177153769
 30
0.0
 11
-277.609847316953
 21
696.556177153769
 31
0.0
  0
LINE
  5
122
330
1F
100
AcDbEntity
  8
1
  6
Continuous
 62
     4
100
AcDbLine
 10
-277.859847316953
 20
701.556177153769
 30
0.0
 11
-277.859847316953
 21
697.556177153769
 31
0.0
  0
LINE
  5
123
330
1F
100
AcDbEntity
  8
1
  6
Continuous
 62
     4
100
AcDbLine
 10
-277.609847316953
 20
702.556177153769
 30
0.0
 11
-277.859847316953
 21
701.556177153769
 31
0.0
  0
LINE
  5
124
330
1F
100
AcDbEntity
  8
1
  6
Continuous
 62
     4
100
AcDbLine
 10
-277.359847316953
 20
703.306177153769
 30
0.0
 11
-277.609847316953
 21
702.556177153769
 31
0.0
  0
LINE
  5
125
330
1F
100
AcDbEntity
  8
1
  6
Continuous
 62
     4
100
AcDbLine
 10
-276.859847316953
 20
703.806177153769
 30
0.0
 11
-277.359847316953
 21
703.306177153769
 31
0.0
  0
LINE
  5
126
330
1F
100
AcDbEntity
  8
1
  6
Continuous
 62
     4
100
AcDbLine
 10
-276.109847316953
 20
704.306177153769
 30
0.0
 11
-276.859847316953
 21
703.806177153769
 31
0.0
  0
LINE
  5
127
330
1F
100
AcDbEntity
  8
1
  6
Continuous
 62
     4
100
AcDbLine
 10
-275.109847316953
 20
704.556177153769
 30
0.0
 11
-276.109847316953
 21
704.306177153769
 31
0.0
  0
LINE
  5
128
330
1F
100
AcDbEntity
  8
1
  6
Continuous
 62
     4
100
AcDbLine
 10
-270.859847316953
 20
704.556177153769
 30
0.0
 11
-275.109847316953
 21
704.556177153769
 31
0.0
  0
LINE
  5
150
330
1F
100
AcDbEntity
  8
1
  6
Continuous
 62
     4
100
AcDbLine
 10
-229.310832626562
 20
676.69054534012
 30
0.0
 11
-230.578376911441
 21
679.525946971881
 31
0.0
  0
LINE
  5
151
330
1F
100
AcDbEntity
  8
1
  6
Continuous
 62
     4
100
AcDbLine
 10
-229.310832626562
 20
676.69054534012
 30
0.0
 11
-231.82625899357
 21
678.512303040717
 31
0.0
  0
LINE
  5
152
330
1F
100
AcDbEntity
  8
1
  6
Continuous
 62
     4
100
AcDbLine
 10
93.0749693484576
 20
650.49054583268
 30
0.0
 11
93.878816925751
 21
647.49054583268
 31
0.0
  0
LINE
  5
153
330
1F
100
AcDbEntity
  8
1
  6
Continuous
 62
     4
100
AcDbLine
 10
93.0749693484576
 20
650.49054583268
 30
0.0
 11
95.2711217711642
 21
648.294393409973
 31
0.0
  0
LINE
  5
154
330
1F
100
AcDbEntity
  8
1
  6
DOT_CENTER
 62
     1
100
AcDbLine
 10
-238.831058727861
 20
663.5905455864
 30
0.0
 11
103.168936064539
 21
663.5905455864
 31
0.0
  0
LINE
  5
155
330
1F
100
AcDbEntity
  8
100
  6
Continuous
 62
     3
100
AcDbLine
 10
66.8217249888955
 20
487.383525888662
 30
0.0
 11
72.5242182702595
 21
487.383525888662
 31
0.0
  0
LINE
  5
156
330
1F
100
AcDbEntity
  8
100
  6
Continuous
 62
     3
100
AcDbLine
 10
66.8217249888955
 20
484.141121222869
 30
0.0
 11
66.8217249888955
 21
487.383525888662
 31
0.0
  0
LINE
  5
157
330
1F
100
AcDbEntity
  8
100
  6
Continuous
 62
     3
100
AcDbLine
 10
98.1689361585389
 20
676.69054534012
 30
0.0
 11
98.1689361585389
 21
650.49054583268
 31
0.0
  0
LINE
  5
158
330
1F
100
AcDbEntity
  8
100
  6
Continuous
 62
     3
100
AcDbLine
 10
85.5737375749671
 20
662.674666369426
 30
0.0
 11
84.4278051579161
 21
640.808973283456
 31
0.0
  0
LINE
  5
159
330
1F
100
AcDbEntity
  8
100
  6
Continuous
 62
     3
100
AcDbLine
 10
88.1689363465389
 20
650.49054583268
 30
0.0
 11
88.1689363465389
 21
676.69054534012
 31
0.0
  0
LINE
  5
15A
330
1F
100
AcDbEntity
  8
100
  6
Continuous
 62
     3
100
AcDbLine
 10
85.1689364029388
 20
667.440687752381
 30
0.0
 11
85.1689364029388
 21
677.3405453279
 31
0.0
  0
LINE
  5
15B
330
1F
100
AcDbEntity
  8
100
  6
Continuous
 62
     3
100
AcDbLine
 10
81.1844721452468
 20
634.5905461316
 30
0.0
 11
84.0712234369759
 21
639.5905460376
 31
0.0
  0
LINE
  5
15C
330
1F
100
AcDbEntity
  8
100
  6
Continuous
 62
     3
100
AcDbLine
 10
80.1842084110885
 20
646.590807655509
 30
0.0
 11
81.1172885129098
 21
663.5905455864
 31
0.0
  0
LINE
  5
15D
330
1F
100
AcDbEntity
  8
100
  6
Continuous
 62
     3
100
AcDbLine
 10
80.9049145885025
 20
667.642881466416
 30
0.0
 11
81.1172885129098
 21
663.5905455864
 31
0.0
  0
LINE
  5
15E
330
1F
100
AcDbEntity
  8
100
  6
Continuous
 62
     3
100
AcDbLine
 10
75.4109695618886
 20
644.5905459436
 30
0.0
 11
72.5242182702595
 21
639.5905460376
 31
0.0
  0
LINE
  5
15F
330
1F
100
AcDbEntity
  8
100
  6
Continuous
 62
     3
100
AcDbLine
 10
66.1462568652653
 20
660.703794294671
 30
0.0
 11
66.1462568652653
 21
666.477296878029
 31
0.0
  0
LINE
  5
160
330
1F
100
AcDbEntity
  8
4
  6
PHANTOM
 62
     3
100
AcDbLine
 10
66.5455500280585
 20
681.021573453497
 30
0.0
 11
66.549357723487
 21
680.985353975678
 31
0.0
  0
LINE
  5
161
330
1F
100
AcDbEntity
  8
100
  6
Continuous
 62
     3
100
AcDbLine
 10
55.3712239765359
 20
689.5905450976
 30
0.0
 11
52.4844726848067
 21
694.5905450036
 31
0.0
  0
LINE
  5
162
330
1F
100
AcDbEntity
  8
100
  6
Continuous
 62
     3
100
AcDbLine
 10
84.0712234369759
 20
639.5905460376
 30
0.0
 11
81.1844721452468
 21
644.5905459436
 31
0.0
  0
LINE
  5
163
330
1F
100
AcDbEntity
  8
100
  6
Continuous
 62
     3
100
AcDbLine
 10
59.988344984734
 20
684.284550661653
 30
0.0
 11
55.6133685694265
 21
691.285976482865
 31
0.0
  0
LINE
  5
164
330
1F
100
AcDbEntity
  8
100
  6
Continuous
 62
     3
100
AcDbLine
 10
56.1462570532652
 20
666.477296878029
 30
0.0
 11
56.1462570532652
 21
660.703794294671
 31
0.0
  0
LINE
  5
165
330
1F
100
AcDbEntity
  8
100
  6
Continuous
 62
     3
100
AcDbLine
 10
43.8242188098196
 20
689.5905450976
 30
0.0
 11
46.7109701014487
 21
684.5905451916
 31
0.0
  0
LINE
  5
166
330
1F
100
AcDbEntity
  8
100
  6
Continuous
 62
     3
100
AcDbLine
 10
72.5242182702595
 20
639.5905460376
 30
0.0
 11
75.4109695618886
 21
634.5905461316
 31
0.0
  0
LINE
  5
167
330
1F
100
AcDbEntity
  8
100
  6
Continuous
 62
     3
100
AcDbLine
 10
68.9127703755936
 20
651.599891248628
 30
0.0
 11
73.1828053453284
 21
644.728652436529
 31
0.0
  0
LINE
  5
168
330
1F
100
AcDbEntity
  8
100
  6
Continuous
 62
     3
100
AcDbLine
 10
69.9824064225456
 20
674.496198184574
 30
0.0
 11
69.9825200171435
 21
674.496071894476
 31
0.0
  0
LINE
  5
169
330
1F
100
AcDbEntity
  8
100
  6
Continuous
 62
     3
100
AcDbLine
 10
47.9971262701629
 20
644.352400816167
 30
0.0
 11
47.8832197904233
 21
641.0905460094
 31
0.0
  0
LINE
  5
16A
330
1F
100
AcDbEntity
  8
100
  6
Continuous
 62
     3
100
AcDbLine
 10
72.3510424032153
 20
637.675449886204
 30
0.0
 11
68.7947209490741
 21
643.366753905607
 31
0.0
  0
LINE
  5
16B
330
1F
100
AcDbEntity
  8
100
  6
Continuous
 62
     3
100
AcDbLine
 10
43.235734926575
 20
682.8405452245
 30
0.0
 11
43.5143563755869
 21
688.15695917621
 31
0.0
  0
LINE
  5
16C
330
1F
100
AcDbEntity
  8
100
  6
Continuous
 62
     3
100
AcDbLine
 10
38.1462573916653
 20
638.8405460517
 30
0.0
 11
38.1462573916653
 21
688.3405451211
 31
0.0
  0
LINE
  5
16D
330
1F
100
AcDbEntity
  8
100
  6
Continuous
 62
     3
100
AcDbLine
 10
37.13589443956
 20
671.356657723897
 30
0.0
 11
37.13589443956
 21
680.059086123891
 31
0.0
  0
LINE
  5
16E
330
1F
100
AcDbEntity
  8
100
  6
Continuous
 62
     3
100
AcDbLine
 10
37.13589443956
 20
647.122005048809
 30
0.0
 11
37.13589443956
 21
655.824433448803
 31
0.0
  0
LINE
  5
16F
330
1F
100
AcDbEntity
  8
100
  6
Continuous
 62
     3
100
AcDbLine
 10
43.4546545007288
 20
641.0905460094
 30
0.0
 11
43.3411613221011
 21
644.3405654193
 31
0.0
  0
LINE
  5
170
330
1F
100
AcDbEntity
  8
100
  6
Continuous
 62
     3
100
AcDbLine
 10
71.3483148578665
 20
654.000480346593
 30
0.0
 11
71.3516074816046
 21
654.002873762848
 31
0.0
  0
LINE
  5
171
330
1F
100
AcDbEntity
  8
100
  6
Continuous
 62
     3
100
AcDbLine
 10
52.4844726848067
 20
684.5905451916
 30
0.0
 11
55.3712239765359
 21
689.5905450976
 31
0.0
  0
LINE
  5
172
330
1F
100
AcDbEntity
  8
100
  6
Continuous
 62
     3
100
AcDbLine
 10
27.1566205693704
 20
671.356657723897
 30
0.0
 11
27.1566205693704
 21
680.059086123891
 31
0.0
  0
LINE
  5
173
330
1F
100
AcDbEntity
  8
100
  6
Continuous
 62
     3
100
AcDbLine
 10
27.1566205693704
 20
647.122005048809
 30
0.0
 11
27.1566205693704
 21
655.824433448803
 31
0.0
  0
LINE
  5
174
330
1F
100
AcDbEntity
  8
100
  6
Continuous
 62
     3
100
AcDbLine
 10
26.1462576172652
 20
638.8405460517
 30
0.0
 11
26.1462576172652
 21
688.3405451211
 31
0.0
  0
LINE
  5
175
330
1F
100
AcDbEntity
  8
100
  6
Continuous
 62
     3
100
AcDbLine
 10
66.1462568652653
 20
666.477296878029
 30
0.0
 11
61.1462569592652
 21
669.364048169658
 31
0.0
  0
LINE
  5
176
330
1F
100
AcDbEntity
  8
100
  6
Continuous
 62
     3
100
AcDbLine
 10
61.1462569592652
 20
657.817043003042
 30
0.0
 11
66.1462568652653
 21
660.703794294671
 31
0.0
  0
LINE
  5
177
330
1F
100
AcDbEntity
  8
100
  6
Continuous
 62
     3
100
AcDbLine
 10
46.7109701014487
 20
694.5905450036
 30
0.0
 11
43.8242188098196
 21
689.5905450976
 31
0.0
  0
LINE
  5
178
330
1F
100
AcDbEntity
  8
100
  6
Continuous
 62
     3
100
AcDbLine
 10
21.7462576999852
 20
648.54054586934
 30
0.0
 11
21.7462576999852
 21
678.64054530346
 31
0.0
  0
LINE
  5
179
330
1F
100
AcDbEntity
  8
100
  6
Continuous
 62
     3
100
AcDbLine
 10
61.1462569592652
 20
669.364048169658
 30
0.0
 11
56.1462570532652
 21
666.477296878029
 31
0.0
  0
LINE
  5
17A
330
1F
100
AcDbEntity
  8
100
  6
Continuous
 62
     3
100
AcDbLine
 10
9.24625793498524
 20
681.48840359472
 30
0.0
 11
9.24625793498524
 21
645.69268757798
 31
0.0
  0
LINE
  5
17B
330
1F
100
AcDbEntity
  8
100
  6
Continuous
 62
     3
100
AcDbLine
 10
52.4844726848067
 20
694.5905450036
 30
0.0
 11
46.7109701014487
 21
694.5905450036
 31
0.0
  0
LINE
  5
17C
330
1F
100
AcDbEntity
  8
100
  6
Continuous
 62
     3
100
AcDbLine
 10
38.1462573916653
 20
688.3405451211
 30
0.0
 11
26.1462576172652
 21
688.3405451211
 31
0.0
  0
LINE
  5
17D
330
1F
100
AcDbEntity
  8
100
  6
Continuous
 62
     3
100
AcDbLine
 10
46.7109701014487
 20
684.5905451916
 30
0.0
 11
52.4844726848067
 21
684.5905451916
 31
0.0
  0
LINE
  5
17E
330
1F
100
AcDbEntity
  8
5
  6
PHANTOM
 62
     6
100
AcDbLine
 10
-11.2598461056
 20
676.79054533824
 30
0.0
 11
-11.2598461056
 21
650.39054583456
 31
0.0
  0
LINE
  5
17F
330
1F
100
AcDbEntity
  8
100
  6
Continuous
 62
     3
100
AcDbLine
 10
77.088927397943
 20
668.647672286226
 30
0.0
 11
77.5431205218042
 21
668.5905454924
 31
0.0
  0
LINE
  5
180
330
1F
100
AcDbEntity
  8
100
  6
Continuous
 62
     3
100
AcDbLine
 10
38.1462573916653
 20
682.8405452245
 30
0.0
 11
54.4060472613182
 21
682.8405452245
 31
0.0
  0
LINE
  5
181
330
1F
100
AcDbEntity
  8
100
  6
Continuous
 62
     3
100
AcDbLine
 10
-8.75374172661476
 20
681.48840359472
 30
0.0
 11
9.24625793498524
 21
681.48840359472
 31
0.0
  0
LINE
  5
182
330
1F
100
AcDbEntity
  8
100
  6
Continuous
 62
     3
100
AcDbLine
 10
37.13589443956
 20
680.059086123891
 30
0.0
 11
27.1566205693704
 21
680.059086123891
 31
0.0
  0
LINE
  5
183
330
1F
100
AcDbEntity
  8
100
  6
Continuous
 62
     3
100
AcDbLine
 10
85.1689364029388
 20
677.3405453279
 30
0.0
 11
78.9216261568883
 21
677.3405453279
 31
0.0
  0
LINE
  5
184
330
1F
100
AcDbEntity
  8
5
  6
PHANTOM
 62
     6
100
AcDbLine
 10
-11.2598461056
 20
676.79054533824
 30
0.0
 11
-8.75374172661475
 21
676.79054533824
 31
0.0
  0
LINE
  5
185
330
1F
100
AcDbEntity
  8
5
  6
PHANTOM
 62
     6
100
AcDbLine
 10
-154.2598446392
 20
676.79054533824
 30
0.0
 11
-152.2598446768
 21
676.79054533824
 31
0.0
  0
LINE
  5
186
330
1F
100
AcDbEntity
  8
100
  6
Continuous
 62
     3
100
AcDbLine
 10
88.1689363465389
 20
676.69054534012
 30
0.0
 11
98.1689361585389
 21
676.69054534012
 31
0.0
  0
LINE
  5
187
330
1F
100
AcDbEntity
  8
1
  6
Continuous
 62
     3
100
AcDbLine
 10
98.1689361585389
 20
675.6490453597
 30
0.0
 11
88.1689363465389
 21
675.6490453597
 31
0.0
  0
LINE
  5
188
330
1F
100
AcDbEntity
  8
100
  6
Continuous
 62
     3
100
AcDbLine
 10
85.1689364029388
 20
675.5905453608
 30
0.0
 11
88.1689363465389
 21
675.5905453608
 31
0.0
  0
LINE
  5
189
330
1F
100
AcDbEntity
  8
100
  6
Continuous
 62
     3
100
AcDbLine
 10
-8.75374172661475
 20
674.44054538242
 30
0.0
 11
-154.2598446392
 21
674.44054538242
 31
0.0
  0
LINE
  5
18A
330
1F
100
AcDbEntity
  8
100
  6
Continuous
 62
     3
100
AcDbLine
 10
21.7462576999852
 20
674.44054538242
 30
0.0
 11
9.24625793498524
 21
674.44054538242
 31
0.0
  0
LINE
  5
18B
330
1F
100
AcDbEntity
  8
100
  6
Continuous
 62
     3
100
AcDbLine
 10
77.3489480502546
 20
668.5905449471
 30
0.0
 11
77.3298257450141
 21
668.590608742199
 31
0.0
  0
LINE
  5
18C
330
1F
100
AcDbEntity
  8
100
  6
Continuous
 62
     3
100
AcDbLine
 10
79.9062850725767
 20
668.590545492343
 30
0.0
 11
77.5426807861164
 21
668.590600800789
 31
0.0
  0
LINE
  5
18D
330
1F
100
AcDbEntity
  8
100
  6
Continuous
 62
     3
100
AcDbLine
 10
21.7462576999852
 20
672.8405454125
 30
0.0
 11
9.24625793498524
 21
672.8405454125
 31
0.0
  0
LINE
  5
18E
330
1F
100
AcDbEntity
  8
5
  6
PHANTOM
 62
     6
100
AcDbLine
 10
-47.4857780586525
 20
672.5905454172
 30
0.0
 11
-11.2598461056
 21
672.5905454172
 31
0.0
  0
LINE
  5
18F
330
1F
100
AcDbEntity
  8
5
  6
PHANTOM
 62
     6
100
AcDbLine
 10
-152.2598446768
 20
672.5905454172
 30
0.0
 11
-116.033912723748
 21
672.5905454172
 31
0.0
  0
LINE
  5
190
330
1F
100
AcDbEntity
  8
100
  6
Continuous
 62
     3
100
AcDbLine
 10
-7.36933759174156
 20
672.53947459056
 30
0.0
 11
7.86185380011204
 21
672.53947459056
 31
0.0
  0
LINE
  5
191
330
1F
100
AcDbEntity
  8
100
  6
Continuous
 62
     3
100
AcDbLine
 10
37.13589443956
 20
671.356657723897
 30
0.0
 11
27.1566205693704
 21
671.356657723897
 31
0.0
  0
LINE
  5
192
330
1F
100
AcDbEntity
  8
100
  6
Continuous
 62
     3
100
AcDbLine
 10
37.13589443956
 20
655.824433448803
 30
0.0
 11
27.1566205693704
 21
655.824433448803
 31
0.0
  0
LINE
  5
193
330
1F
100
AcDbEntity
  8
100
  6
Continuous
 62
     3
100
AcDbLine
 10
-7.36933759174156
 20
654.64161658214
 30
0.0
 11
7.86185380011204
 21
654.64161658214
 31
0.0
  0
LINE
  5
194
330
1F
100
AcDbEntity
  8
5
  6
PHANTOM
 62
     6
100
AcDbLine
 10
-44.4078688645172
 20
654.5905457556
 30
0.0
 11
-11.2598461056
 21
654.5905457556
 31
0.0
  0
LINE
  5
195
330
1F
100
AcDbEntity
  8
5
  6
PHANTOM
 62
     6
100
AcDbLine
 10
-152.2598446768
 20
654.5905457556
 30
0.0
 11
-151.611821917883
 21
654.5905457556
 31
0.0
  0
LINE
  5
196
330
1F
100
AcDbEntity
  8
100
  6
Continuous
 62
     3
100
AcDbLine
 10
21.7462576999852
 20
654.3405457603
 30
0.0
 11
9.24625793498524
 21
654.3405457603
 31
0.0
  0
LINE
  5
197
330
1F
100
AcDbEntity
  8
100
  6
Continuous
 62
     3
100
AcDbLine
 10
-8.75374172661475
 20
652.74054579038
 30
0.0
 11
-154.2598446392
 21
652.74054579038
 31
0.0
  0
LINE
  5
198
330
1F
100
AcDbEntity
  8
100
  6
Continuous
 62
     3
100
AcDbLine
 10
21.7462576999852
 20
652.74054579038
 30
0.0
 11
9.24625793498524
 21
652.74054579038
 31
0.0
  0
LINE
  5
199
330
1F
100
AcDbEntity
  8
100
  6
Continuous
 62
     3
100
AcDbLine
 10
84.992843431282
 20
651.590545812
 30
0.0
 11
88.1689363465389
 21
651.590545812
 31
0.0
  0
LINE
  5
19A
330
1F
100
AcDbEntity
  8
1
  6
Continuous
 62
     3
100
AcDbLine
 10
98.1689361585389
 20
651.5320458131
 30
0.0
 11
88.1689363465389
 21
651.5320458131
 31
0.0
  0
LINE
  5
19B
330
1F
100
AcDbEntity
  8
100
  6
Continuous
 62
     3
100
AcDbLine
 10
88.1689363465389
 20
650.49054583268
 30
0.0
 11
98.1689361585389
 21
650.49054583268
 31
0.0
  0
LINE
  5
19C
330
1F
100
AcDbEntity
  8
5
  6
PHANTOM
 62
     6
100
AcDbLine
 10
-11.2598461056
 20
650.39054583456
 30
0.0
 11
-8.75374172661475
 21
650.39054583456
 31
0.0
  0
LINE
  5
19D
330
1F
100
AcDbEntity
  8
5
  6
PHANTOM
 62
     6
100
AcDbLine
 10
-154.2598446392
 20
650.39054583456
 30
0.0
 11
-152.2598446768
 21
650.39054583456
 31
0.0
  0
LINE
  5
19E
330
1F
100
AcDbEntity
  8
100
  6
Continuous
 62
     3
100
AcDbLine
 10
26.1462576172652
 20
648.54054586934
 30
0.0
 11
21.7462576999852
 21
648.54054586934
 31
0.0
  0
LINE
  5
19F
330
1F
100
AcDbEntity
  8
100
  6
Continuous
 62
     3
100
AcDbLine
 10
37.13589443956
 20
647.122005048809
 30
0.0
 11
27.1566205693704
 21
647.122005048809
 31
0.0
  0
LINE
  5
1A0
330
1F
100
AcDbEntity
  8
100
  6
Continuous
 62
     3
100
AcDbLine
 10
-8.75374172661476
 20
645.69268757798
 30
0.0
 11
9.24625793498524
 21
645.69268757798
 31
0.0
  0
LINE
  5
1A1
330
1F
100
AcDbEntity
  8
100
  6
Continuous
 62
     3
100
AcDbLine
 10
81.1844721452468
 20
644.5905459436
 30
0.0
 11
75.4109695618886
 21
644.5905459436
 31
0.0
  0
LINE
  5
1A2
330
1F
100
AcDbEntity
  8
100
  6
Continuous
 62
     3
100
AcDbLine
 10
38.1462573916653
 20
644.3405459483
 30
0.0
 11
53.1006294359923
 21
644.3405459483
 31
0.0
  0
LINE
  5
1A3
330
1F
100
AcDbEntity
  8
100
  6
Continuous
 62
     3
100
AcDbLine
 10
43.4546545007288
 20
641.0905460094
 30
0.0
 11
47.8832197904233
 21
641.0905460094
 31
0.0
  0
LINE
  5
1A4
330
1F
100
AcDbEntity
  8
100
  6
Continuous
 62
     3
100
AcDbLine
 10
38.1462573916653
 20
638.8405460517
 30
0.0
 11
26.1462576172652
 21
638.8405460517
 31
0.0
  0
LINE
  5
1A5
330
1F
100
AcDbEntity
  8
100
  6
Continuous
 62
     3
100
AcDbLine
 10
75.4109695618886
 20
634.5905461316
 30
0.0
 11
81.1844721452468
 21
634.5905461316
 31
0.0
  0
LINE
  5
1A6
330
1F
100
AcDbEntity
  8
5
  6
PHANTOM
 62
     6
100
AcDbLine
 10
-152.2598446768
 20
676.79054533824
 30
0.0
 11
-152.2598446768
 21
650.39054583456
 31
0.0
  0
LINE
  5
1A7
330
1F
100
AcDbEntity
  8
100
  6
Continuous
 62
     3
100
AcDbLine
 10
98.1689361585389
 20
451.045782861742
 30
0.0
 11
98.1689361585389
 21
477.245782369182
 31
0.0
  0
LINE
  5
1A8
330
1F
100
AcDbEntity
  8
100
  6
Continuous
 62
     3
100
AcDbLine
 10
88.1689363465389
 20
477.245782369182
 30
0.0
 11
88.1689363465389
 21
451.045782861742
 31
0.0
  0
LINE
  5
1A9
330
1F
100
AcDbEntity
  8
100
  6
Continuous
 62
     3
100
AcDbLine
 10
85.5977207163777
 20
484.645782230062
 30
0.0
 11
85.5977207163777
 21
478.745782340982
 31
0.0
  0
LINE
  5
1AA
330
1F
100
AcDbEntity
  8
100
  6
Continuous
 62
     3
100
AcDbLine
 10
84.3977207389377
 20
483.745782246982
 30
0.0
 11
84.3977207389377
 21
482.245782275182
 31
0.0
  0
LINE
  5
1AB
330
1F
100
AcDbEntity
  8
100
  6
Continuous
 62
     3
100
AcDbLine
 10
81.1844721452468
 20
483.745782246982
 30
0.0
 11
81.1844721452468
 21
486.445782196222
 31
0.0
  0
LINE
  5
1AC
330
1F
100
AcDbEntity
  8
100
  6
Continuous
 62
     3
100
AcDbLine
 10
75.4109695618886
 20
483.745782246982
 30
0.0
 11
75.4109695618886
 21
486.445782196222
 31
0.0
  0
LINE
  5
1AD
330
1F
100
AcDbEntity
  8
100
  6
Continuous
 62
     3
100
AcDbLine
 10
72.5242182702595
 20
483.745782246982
 30
0.0
 11
72.5242182702595
 21
487.745782171782
 31
0.0
  0
LINE
  5
1AE
330
1F
100
AcDbEntity
  8
100
  6
Continuous
 62
     3
100
AcDbLine
 10
72.1977209682977
 20
483.745782246982
 30
0.0
 11
72.1977209682977
 21
482.245782275182
 31
0.0
  0
LINE
  5
1AF
330
1F
100
AcDbEntity
  8
100
  6
Continuous
 62
     3
100
AcDbLine
 10
71.0535115490088
 20
482.245782275182
 30
0.0
 11
71.0535103097421
 21
484.141177737617
 31
0.0
  0
LINE
  5
1B0
330
1F
100
AcDbEntity
  8
100
  6
Continuous
 62
     3
100
AcDbLine
 10
66.1462568652653
 20
526.845781436702
 30
0.0
 11
66.1462568652653
 21
531.045781357742
 31
0.0
  0
LINE
  5
1B1
330
1F
100
AcDbEntity
  8
100
  6
Continuous
 62
     3
100
AcDbLine
 10
61.1462569592652
 20
526.845781436702
 30
0.0
 11
61.1462569592652
 21
530.145781374662
 31
0.0
  0
LINE
  5
1B2
330
1F
100
AcDbEntity
  8
100
  6
Continuous
 62
     3
100
AcDbLine
 10
56.1462570532652
 20
526.845781436702
 30
0.0
 11
56.1462570532652
 21
531.045781357742
 31
0.0
  0
LINE
  5
1B3
330
1F
100
AcDbEntity
  8
100
  6
Continuous
 62
     3
100
AcDbLine
 10
70.8009196618576
 20
508.155582496477
 30
0.0
 11
68.6462568182652
 21
511.357512261982
 31
0.0
  0
LINE
  5
1B4
330
1F
100
AcDbEntity
  8
100
  6
Continuous
 62
     3
100
AcDbLine
 10
53.6462571002653
 20
520.895781548562
 30
0.0
 11
53.6462571002653
 21
525.645781459262
 31
0.0
  0
LINE
  5
1B5
330
1F
100
AcDbEntity
  8
100
  6
Continuous
 62
     3
100
AcDbLine
 10
48.6689370891389
 20
450.395785865552
 30
0.0
 11
48.6689370891389
 21
429.145783273462
 31
0.0
  0
LINE
  5
1B6
330
1F
100
AcDbEntity
  8
100
  6
Continuous
 62
     3
100
AcDbLine
 10
42.6689372019388
 20
450.395786430356
 30
0.0
 11
42.6689372019388
 21
429.145783273462
 31
0.0
  0
LINE
  5
1B7
330
1F
100
AcDbEntity
  8
100
  6
Continuous
 62
     3
100
AcDbLine
 10
42.2726696199887
 20
471.164641421621
 30
0.0
 11
42.2726696199887
 21
484.14079337456
 31
0.0
  0
LINE
  5
1B8
330
1F
100
AcDbEntity
  8
100
  6
Continuous
 62
     3
100
AcDbLine
 10
39.1689372677389
 20
477.895769617073
 30
0.0
 11
39.1689372677389
 21
450.395786759826
 31
0.0
  0
LINE
  5
1B9
330
1F
100
AcDbEntity
  8
100
  6
Continuous
 62
     3
100
AcDbLine
 10
38.1462573916653
 20
478.145782352262
 30
0.0
 11
38.1462573916653
 21
525.145781468662
 31
0.0
  0
LINE
  5
1BA
330
1F
100
AcDbEntity
  8
100
  6
Continuous
 62
     3
100
AcDbLine
 10
37.13589443956
 20
520.121432089319
 30
0.0
 11
37.13589443956
 21
525.145781468662
 31
0.0
  0
LINE
  5
1BB
330
1F
100
AcDbEntity
  8
100
  6
Continuous
 62
     3
100
AcDbLine
 10
37.13589443956
 20
496.621432531119
 30
0.0
 11
37.13589443956
 21
506.670131289804
 31
0.0
  0
LINE
  5
1BC
330
1F
100
AcDbEntity
  8
100
  6
Continuous
 62
     3
100
AcDbLine
 10
37.13589443956
 20
478.145782352262
 30
0.0
 11
37.13589443956
 21
483.170131731604
 31
0.0
  0
LINE
  5
1BD
330
1F
100
AcDbEntity
  8
100
  6
Continuous
 62
     3
100
AcDbLine
 10
27.1566205693704
 20
520.121432089319
 30
0.0
 11
27.1566205693704
 21
525.145781468662
 31
0.0
  0
LINE
  5
1BE
330
1F
100
AcDbEntity
  8
100
  6
Continuous
 62
     3
100
AcDbLine
 10
27.1566205693704
 20
496.621432531119
 30
0.0
 11
27.1566205693704
 21
506.670131289804
 31
0.0
  0
LINE
  5
1BF
330
1F
100
AcDbEntity
  8
100
  6
Continuous
 62
     3
100
AcDbLine
 10
27.1566205693704
 20
478.145782352262
 30
0.0
 11
27.1566205693704
 21
483.170131731604
 31
0.0
  0
LINE
  5
1C0
330
1F
100
AcDbEntity
  8
100
  6
Continuous
 62
     3
100
AcDbLine
 10
26.1462576172652
 20
478.145782352262
 30
0.0
 11
26.1462576172652
 21
525.145781468662
 31
0.0
  0
LINE
  5
1C1
330
1F
100
AcDbEntity
  8
5
  6
PHANTOM
 62
     6
100
AcDbLine
 10
-119.259539225406
 20
566.645780688462
 30
0.0
 11
-44.2601515569943
 21
566.645780688462
 31
0.0
  0
LINE
  5
1C2
330
1F
100
AcDbEntity
  8
100
  6
Continuous
 62
     3
100
AcDbLine
 10
21.7462576999852
 20
486.595782193402
 30
0.0
 11
21.7462576999852
 21
516.695781627522
 31
0.0
  0
LINE
  5
1C3
330
1F
100
AcDbEntity
  8
100
  6
Continuous
 62
     3
100
AcDbLine
 10
9.24625793498524
 20
517.145781619062
 30
0.0
 11
9.24625793498524
 21
486.145782201862
 31
0.0
  0
LINE
  5
1C4
330
1F
100
AcDbEntity
  8
5
  6
PHANTOM
 62
     6
100
AcDbLine
 10
-50.2983075211385
 20
492.645782079662
 30
0.0
 11
-56.7598458612
 21
478.645782342862
 31
0.0
  0
LINE
  5
1C5
330
1F
100
AcDbEntity
  8
100
  6
Continuous
 62
     3
100
AcDbLine
 10
-8.75374172661475
 20
486.145782201862
 30
0.0
 11
-8.75374172661475
 21
517.145781619062
 31
0.0
  0
LINE
  5
1C6
330
1F
100
AcDbEntity
  8
5
  6
PHANTOM
 62
     6
100
AcDbLine
 10
-11.2598461056
 20
488.445782158622
 30
0.0
 11
-11.2598461056
 21
514.845781662301
 31
0.0
  0
LINE
  5
1C7
330
1F
100
AcDbEntity
  8
5
  6
PHANTOM
 62
     6
100
AcDbLine
 10
-119.259539225406
 20
537.645781233662
 30
0.0
 11
-44.2601515569943
 21
537.645781233662
 31
0.0
  0
LINE
  5
1C8
330
1F
100
AcDbEntity
  8
5
  6
PHANTOM
 62
     6
100
AcDbLine
 10
-44.2598460962
 20
566.645780688462
 30
0.0
 11
-44.2598460962
 21
537.645781233662
 31
0.0
  0
LINE
  5
1C9
330
1F
100
AcDbEntity
  8
5
  6
PHANTOM
 62
     6
100
AcDbLine
 10
-50.759845974
 20
537.645781233662
 30
0.0
 11
-50.759845974
 21
510.645770397793
 31
0.0
  0
LINE
  5
1CA
330
1F
100
AcDbEntity
  8
100
  6
Continuous
 62
     3
100
AcDbLine
 10
56.1462570532652
 20
531.045781357742
 30
0.0
 11
66.1462568652653
 21
531.045781357742
 31
0.0
  0
LINE
  5
1CB
330
1F
100
AcDbEntity
  8
100
  6
Continuous
 62
     3
100
AcDbLine
 10
67.5461799879467
 20
526.845781436702
 30
0.0
 11
54.7463340950838
 21
526.845781436702
 31
0.0
  0
LINE
  5
1CC
330
1F
100
AcDbEntity
  8
100
  6
Continuous
 62
     3
100
AcDbLine
 10
53.6462571002653
 20
525.645781459262
 30
0.0
 11
68.6462568182652
 21
525.645781459262
 31
0.0
  0
LINE
  5
1CD
330
1F
100
AcDbEntity
  8
100
  6
Continuous
 62
     3
100
AcDbLine
 10
38.1462573916653
 20
525.145781468662
 30
0.0
 11
26.1462576172652
 21
525.145781468662
 31
0.0
  0
LINE
  5
1CE
330
1F
100
AcDbEntity
  8
100
  6
Continuous
 62
     3
100
AcDbLine
 10
38.1462573916653
 20
520.895781548562
 30
0.0
 11
53.6462571002653
 21
520.895781548562
 31
0.0
  0
LINE
  5
1CF
330
1F
100
AcDbEntity
  8
100
  6
Continuous
 62
     3
100
AcDbLine
 10
37.13589443956
 20
520.121432089319
 30
0.0
 11
27.1566205693704
 21
520.121432089319
 31
0.0
  0
LINE
  5
1D0
330
1F
100
AcDbEntity
  8
100
  6
Continuous
 62
     3
100
AcDbLine
 10
-8.75374172661475
 20
517.145781619062
 30
0.0
 11
9.24625793498524
 21
517.145781619062
 31
0.0
  0
LINE
  5
1D1
330
1F
100
AcDbEntity
  8
100
  6
Continuous
 62
     3
100
AcDbLine
 10
26.1462576172652
 20
516.695781627522
 30
0.0
 11
21.7462576999852
 21
516.695781627522
 31
0.0
  0
LINE
  5
1D2
330
1F
100
AcDbEntity
  8
5
  6
PHANTOM
 62
     6
100
AcDbLine
 10
-11.2598461056
 20
514.845781662301
 30
0.0
 11
-8.75374172661475
 21
514.845781662302
 31
0.0
  0
LINE
  5
1D3
330
1F
100
AcDbEntity
  8
5
  6
PHANTOM
 62
     6
100
AcDbLine
 10
-154.2598446392
 20
514.845781662302
 30
0.0
 11
-152.2598446768
 21
514.845781662302
 31
0.0
  0
LINE
  5
1D4
330
1F
100
AcDbEntity
  8
100
  6
Continuous
 62
     3
100
AcDbLine
 10
21.7462576999852
 20
510.895781736562
 30
0.0
 11
9.24625793498524
 21
510.895781736562
 31
0.0
  0
LINE
  5
1D5
330
1F
100
AcDbEntity
  8
5
  6
PHANTOM
 62
     6
100
AcDbLine
 10
-50.759845974
 20
510.645770397793
 30
0.0
 11
-11.2598461056
 21
510.645781741261
 31
0.0
  0
LINE
  5
1D6
330
1F
100
AcDbEntity
  8
5
  6
PHANTOM
 62
     6
100
AcDbLine
 10
-152.2598446768
 20
510.645781741261
 30
0.0
 11
-112.7598448084
 21
510.645781741262
 31
0.0
  0
LINE
  5
1D7
330
1F
100
AcDbEntity
  8
100
  6
Continuous
 62
     3
100
AcDbLine
 10
37.13589443956
 20
506.670131289804
 30
0.0
 11
27.1566205693704
 21
506.670131289804
 31
0.0
  0
LINE
  5
1D8
330
1F
100
AcDbEntity
  8
100
  6
Continuous
 62
     3
100
AcDbLine
 10
-7.36933759174156
 20
501.645781910462
 30
0.0
 11
7.86185380011204
 21
501.645781910462
 31
0.0
  0
LINE
  5
1D9
330
1F
100
AcDbEntity
  8
1
  6
DOT_CENTER
 62
     1
100
AcDbLine
 10
78.4873441784488
 20
501.645781910462
 30
0.0
 11
-232.631058844421
 21
501.645781910462
 31
0.0
  0
LINE
  5
1DA
330
1F
100
AcDbEntity
  8
100
  6
Continuous
 62
     3
100
AcDbLine
 10
37.13589443956
 20
496.621432531119
 30
0.0
 11
27.1566205693704
 21
496.621432531119
 31
0.0
  0
LINE
  5
1DB
330
1F
100
AcDbEntity
  8
5
  6
PHANTOM
 62
     6
100
AcDbLine
 10
-50.2983075211385
 20
492.645782079662
 30
0.0
 11
-11.2598461056
 21
492.645782079662
 31
0.0
  0
LINE
  5
1DC
330
1F
100
AcDbEntity
  8
5
  6
PHANTOM
 62
     6
100
AcDbLine
 10
-152.2598446768
 20
492.645782079662
 30
0.0
 11
-113.221383261262
 21
492.645782079662
 31
0.0
  0
LINE
  5
1DD
330
1F
100
AcDbEntity
  8
100
  6
Continuous
 62
     3
100
AcDbLine
 10
21.7462576999852
 20
492.395782084362
 30
0.0
 11
9.24625793498524
 21
492.395782084362
 31
0.0
  0
LINE
  5
1DE
330
1F
100
AcDbEntity
  8
5
  6
PHANTOM
 62
     6
100
AcDbLine
 10
-11.2598461056
 20
488.445782158622
 30
0.0
 11
-8.75374172661475
 21
488.445782158622
 31
0.0
  0
LINE
  5
1DF
330
1F
100
AcDbEntity
  8
5
  6
PHANTOM
 62
     6
100
AcDbLine
 10
-154.2598446392
 20
488.445782158622
 30
0.0
 11
-152.2598446768
 21
488.445782158622
 31
0.0
  0
LINE
  5
1E0
330
1F
100
AcDbEntity
  8
100
  6
Continuous
 62
     3
100
AcDbLine
 10
84.0712234369759
 20
487.745782171782
 30
0.0
 11
72.5242182702595
 21
487.745782171782
 31
0.0
  0
LINE
  5
1E1
330
1F
100
AcDbEntity
  8
100
  6
Continuous
 62
     3
100
AcDbLine
 10
38.1462573916653
 20
482.395795743282
 30
0.0
 11
42.2726696199887
 21
482.395761458526
 31
0.0
  0
LINE
  5
1E2
330
1F
100
AcDbEntity
  8
100
  6
Continuous
 62
     3
100
AcDbLine
 10
26.1462576172652
 20
486.595782193402
 30
0.0
 11
21.7462576999852
 21
486.595782193402
 31
0.0
  0
LINE
  5
1E3
330
1F
100
AcDbEntity
  8
100
  6
Continuous
 62
     3
100
AcDbLine
 10
-8.75374172661475
 20
486.145782201862
 30
0.0
 11
9.24625793498524
 21
486.145782201862
 31
0.0
  0
LINE
  5
1E4
330
1F
100
AcDbEntity
  8
100
  6
Continuous
 62
     3
100
AcDbLine
 10
84.0712234369759
 20
484.645782230062
 30
0.0
 11
85.5977207163777
 21
484.645782230062
 31
0.0
  0
LINE
  5
1E5
330
1F
100
AcDbEntity
  8
100
  6
Continuous
 62
     3
100
AcDbLine
 10
84.3977207389377
 20
483.745782246982
 30
0.0
 11
72.1977209682977
 21
483.745782246982
 31
0.0
  0
LINE
  5
1E6
330
1F
100
AcDbEntity
  8
100
  6
Continuous
 62
     3
100
AcDbLine
 10
37.13589443956
 20
483.170131731604
 30
0.0
 11
27.1566205693704
 21
483.170131731604
 31
0.0
  0
LINE
  5
1E7
330
1F
100
AcDbEntity
  8
100
  6
Continuous
 62
     3
100
AcDbLine
 10
71.0535115490088
 20
482.245782275182
 30
0.0
 11
85.5977207163777
 21
482.245782275182
 31
0.0
  0
LINE
  5
1E8
330
1F
100
AcDbEntity
  8
100
  6
Continuous
 62
     3
100
AcDbLine
 10
41.9103098688011
 20
478.745782340982
 30
0.0
 11
85.5974070206836
 21
478.745782340982
 31
0.0
  0
LINE
  5
1E9
330
1F
100
AcDbEntity
  8
5
  6
PHANTOM
 62
     6
100
AcDbLine
 10
-56.7598458612
 20
478.645782342862
 30
0.0
 11
-106.7598449212
 21
478.645782342862
 31
0.0
  0
LINE
  5
1EA
330
1F
100
AcDbEntity
  8
100
  6
Continuous
 62
     3
100
AcDbLine
 10
26.1462576172652
 20
478.145782352262
 30
0.0
 11
38.1462573916653
 21
478.145782352262
 31
0.0
  0
LINE
  5
1EB
330
1F
100
AcDbEntity
  8
100
  6
Continuous
 62
     3
100
AcDbLine
 10
41.9103098688011
 20
477.895823347507
 30
0.0
 11
39.1689372677389
 21
477.895769617073
 31
0.0
  0
LINE
  5
1EC
330
1F
100
AcDbEntity
  8
100
  6
Continuous
 62
     3
100
AcDbLine
 10
88.1689363465389
 20
477.245782369182
 30
0.0
 11
98.1689361585389
 21
477.245782369182
 31
0.0
  0
LINE
  5
1ED
330
1F
100
AcDbEntity
  8
100
  6
Continuous
 62
     3
100
AcDbLine
 10
-223.831059009861
 20
477.245782369182
 30
0.0
 11
-233.831058821861
 21
477.245782369182
 31
0.0
  0
LINE
  5
1EE
330
1F
100
AcDbEntity
  8
1
  6
Continuous
 62
     3
100
AcDbLine
 10
-233.831058821861
 20
476.204282388762
 30
0.0
 11
-223.831059009861
 21
476.204282388762
 31
0.0
  0
LINE
  5
1EF
330
1F
100
AcDbEntity
  8
1
  6
Continuous
 62
     3
100
AcDbLine
 10
98.1689361585389
 20
476.204282388762
 30
0.0
 11
88.1689363465389
 21
476.204282388762
 31
0.0
  0
LINE
  5
1F0
330
1F
100
AcDbEntity
  8
5
  6
PHANTOM
 62
     6
100
AcDbLine
 10
-106.7598449212
 20
478.645782342862
 30
0.0
 11
-113.221383261262
 21
492.645782079662
 31
0.0
  0
LINE
  5
1F1
330
1F
100
AcDbEntity
  8
100
  6
Continuous
 62
     3
100
AcDbLine
 10
85.1689364029388
 20
476.145782389862
 30
0.0
 11
88.1689363465389
 21
476.145782389862
 31
0.0
  0
LINE
  5
1F2
330
1F
100
AcDbEntity
  8
100
  6
Continuous
 62
     3
100
AcDbLine
 10
-220.831059066261
 20
476.145782389862
 30
0.0
 11
-223.831059009861
 21
476.145782389862
 31
0.0
  0
LINE
  5
1F3
330
1F
100
AcDbEntity
  8
100
  6
Continuous
 62
     3
100
AcDbLine
 10
39.1689372677389
 20
474.995782411482
 30
0.0
 11
-174.831059931061
 21
474.995782411482
 31
0.0
  0
LINE
  5
1F4
330
1F
100
AcDbEntity
  8
100
  6
Continuous
 62
     3
100
AcDbLine
 10
85.1689364029388
 20
471.164931887331
 30
0.0
 11
42.2726696199887
 21
471.164641421621
 31
0.0
  0
LINE
  5
1F5
330
1F
100
AcDbEntity
  8
5
  6
PHANTOM
 62
     6
100
AcDbLine
 10
-112.7598448084
 20
537.645781233662
 30
0.0
 11
-112.7598448084
 21
510.645781741262
 31
0.0
  0
LINE
  5
1F6
330
1F
100
AcDbEntity
  8
5
  6
PHANTOM
 62
     6
100
AcDbLine
 10
-119.2598446862
 20
566.645780688462
 30
0.0
 11
-119.2598446862
 21
537.645781233662
 31
0.0
  0
LINE
  5
1F7
330
1F
100
AcDbEntity
  8
5
  6
PHANTOM
 62
     6
100
AcDbLine
 10
-152.2598446768
 20
488.445782158622
 30
0.0
 11
-152.2598446768
 21
514.845781662302
 31
0.0
  0
LINE
  5
1F8
330
1F
100
AcDbEntity
  8
1
  6
DOT_CENTER
 62
     1
100
AcDbLine
 10
-238.831058727861
 20
464.145782615462
 30
0.0
 11
103.168936064539
 21
464.145782615462
 31
0.0
  0
LINE
  5
1F9
330
1F
100
AcDbEntity
  8
100
  6
Continuous
 62
     3
100
AcDbLine
 10
-220.831059066261
 20
450.395782429624
 30
0.0
 11
-184.331059752461
 21
450.395785865789
 31
0.0
  0
LINE
  5
1FA
330
1F
100
AcDbEntity
  8
100
  6
Continuous
 62
     3
100
AcDbLine
 10
39.1689372677389
 20
453.295782819442
 30
0.0
 11
-174.831059931061
 21
453.295782819442
 31
0.0
  0
LINE
  5
1FB
330
1F
100
AcDbEntity
  8
100
  6
Continuous
 62
     3
100
AcDbLine
 10
85.1689364029388
 20
452.145782841062
 30
0.0
 11
88.1689363465389
 21
452.145782841062
 31
0.0
  0
LINE
  5
1FC
330
1F
100
AcDbEntity
  8
100
  6
Continuous
 62
     3
100
AcDbLine
 10
-220.831059066261
 20
452.145782841062
 30
0.0
 11
-223.831059009861
 21
452.145782841062
 31
0.0
  0
LINE
  5
1FD
330
1F
100
AcDbEntity
  8
1
  6
Continuous
 62
     3
100
AcDbLine
 10
-233.831058821861
 20
452.087282842161
 30
0.0
 11
-223.831059009861
 21
452.087282842161
 31
0.0
  0
LINE
  5
1FE
330
1F
100
AcDbEntity
  8
1
  6
Continuous
 62
     3
100
AcDbLine
 10
98.1689361585389
 20
452.087282842161
 30
0.0
 11
88.1689363465389
 21
452.087282842161
 31
0.0
  0
LINE
  5
1FF
330
1F
100
AcDbEntity
  8
100
  6
Continuous
 62
     3
100
AcDbLine
 10
88.1689363465389
 20
451.045782861742
 30
0.0
 11
98.1689361585389
 21
451.045782861742
 31
0.0
  0
LINE
  5
200
330
1F
100
AcDbEntity
  8
100
  6
Continuous
 62
     3
100
AcDbLine
 10
-223.831059009861
 20
451.045782861742
 30
0.0
 11
-233.831058821861
 21
451.045782861742
 31
0.0
  0
LINE
  5
201
330
1F
100
AcDbEntity
  8
100
  6
Continuous
 62
     3
100
AcDbLine
 10
85.1689364029388
 20
450.39578242966
 30
0.0
 11
48.6689370891389
 21
450.395785865552
 31
0.0
  0
LINE
  5
202
330
1F
100
AcDbEntity
  8
100
  6
Continuous
 62
     3
100
AcDbLine
 10
-178.331059865261
 20
450.391760252337
 30
0.0
 11
-178.331059865261
 21
429.145783273462
 31
0.0
  0
LINE
  5
203
330
1F
100
AcDbEntity
  8
100
  6
Continuous
 62
     3
100
AcDbLine
 10
-184.331059752461
 20
450.395785865789
 30
0.0
 11
-184.331059752461
 21
429.145783273462
 31
0.0
  0
LINE
  5
204
330
1F
100
AcDbEntity
  8
100
  6
Continuous
 62
     3
100
AcDbLine
 10
48.6689370891389
 20
429.145783273462
 30
0.0
 11
42.6689372019388
 21
429.145783273462
 31
0.0
  0
LINE
  5
205
330
1F
100
AcDbEntity
  8
100
  6
Continuous
 62
     3
100
AcDbLine
 10
-220.831059066261
 20
478.745782340982
 30
0.0
 11
-220.831059066261
 21
450.395782429624
 31
0.0
  0
LINE
  5
206
330
1F
100
AcDbEntity
  8
100
  6
Continuous
 62
     3
100
AcDbLine
 10
-223.831059009861
 20
477.245782369182
 30
0.0
 11
-223.831059009861
 21
451.045782861742
 31
0.0
  0
LINE
  5
207
330
1F
100
AcDbEntity
  8
100
  6
Continuous
 62
     3
100
AcDbLine
 10
-233.831058821861
 20
451.045782861742
 30
0.0
 11
-233.831058821861
 21
477.245782369182
 31
0.0
  0
LINE
  5
208
330
1F
100
AcDbEntity
  8
100
  6
Continuous
 62
     3
100
AcDbLine
 10
-211.073092225111
 20
692.5905450412
 30
0.0
 11
-216.846594808469
 21
692.5905450412
 31
0.0
  0
LINE
  5
209
330
1F
100
AcDbEntity
  8
100
  6
Continuous
 62
     3
100
AcDbLine
 10
-179.11677716396
 20
686.0905451634
 30
0.0
 11
-183.545342453552
 21
686.0905451634
 31
0.0
  0
LINE
  5
20A
330
1F
100
AcDbEntity
  8
100
  6
Continuous
 62
     3
100
AcDbLine
 10
-216.846594808469
 20
682.5905452292
 30
0.0
 11
-211.073092225111
 21
682.5905452292
 31
0.0
  0
LINE
  5
20B
330
1F
100
AcDbEntity
  8
100
  6
Continuous
 62
     3
100
AcDbLine
 10
-154.2598446392
 20
679.090545295
 30
0.0
 11
-172.2598443008
 21
679.090545295
 31
0.0
  0
LINE
  5
20C
330
1F
100
AcDbEntity
  8
100
  6
Continuous
 62
     3
100
AcDbLine
 10
-179.133082463028
 20
677.3405453279
 30
0.0
 11
-174.831059930961
 21
677.3405453279
 31
0.0
  0
LINE
  5
20D
330
1F
100
AcDbEntity
  8
100
  6
Continuous
 62
     3
100
AcDbLine
 10
-224.759834103866
 20
676.69054534012
 30
0.0
 11
-233.831058821761
 21
676.69054534012
 31
0.0
  0
LINE
  5
20E
330
1F
100
AcDbEntity
  8
1
  6
Continuous
 62
     3
100
AcDbLine
 10
-233.831058821761
 20
675.6490453597
 30
0.0
 11
-224.759834103866
 21
675.6490453597
 31
0.0
  0
LINE
  5
20F
330
1F
100
AcDbEntity
  8
100
  6
Continuous
 62
     3
100
AcDbLine
 10
-172.2598443008
 20
674.44054538242
 30
0.0
 11
-174.831059930961
 21
674.44054538242
 31
0.0
  0
LINE
  5
210
330
1F
100
AcDbEntity
  8
100
  6
Continuous
 62
     3
100
AcDbLine
 10
-155.644248774073
 20
663.5905455864
 30
0.0
 11
-170.875440165927
 21
663.5905455864
 31
0.0
  0
LINE
  5
211
330
1F
100
AcDbEntity
  8
100
  6
Continuous
 62
     3
100
AcDbLine
 10
-172.2598443008
 20
652.74054579038
 30
0.0
 11
-174.831059930961
 21
652.74054579038
 31
0.0
  0
LINE
  5
212
330
1F
100
AcDbEntity
  8
1
  6
Continuous
 62
     3
100
AcDbLine
 10
-233.831058821761
 20
651.5320458131
 30
0.0
 11
-224.759834103866
 21
651.5320458131
 31
0.0
  0
LINE
  5
213
330
1F
100
AcDbEntity
  8
100
  6
Continuous
 62
     3
100
AcDbLine
 10
-224.759834103866
 20
650.49054583268
 30
0.0
 11
-233.831058821761
 21
650.49054583268
 31
0.0
  0
LINE
  5
214
330
1F
100
AcDbEntity
  8
100
  6
Continuous
 62
     3
100
AcDbLine
 10
-172.2598443008
 20
648.0905458778
 30
0.0
 11
-154.2598446392
 21
648.0905458778
 31
0.0
  0
LINE
  5
215
330
1F
100
AcDbEntity
  8
100
  6
Continuous
 62
     3
100
AcDbLine
 10
-182.373092764671
 20
642.5905459812
 30
0.0
 11
-188.146595348029
 21
642.5905459812
 31
0.0
  0
LINE
  5
216
330
1F
100
AcDbEntity
  8
100
  6
Continuous
 62
     3
100
AcDbLine
 10
-188.146595348029
 20
632.5905461692
 30
0.0
 11
-182.373092764671
 21
632.5905461692
 31
0.0
  0
LINE
  5
217
330
1F
100
AcDbEntity
  8
100
  6
Continuous
 62
     3
100
AcDbLine
 10
-154.2598446392
 20
648.0905458778
 30
0.0
 11
-154.2598446392
 21
679.090545295
 31
0.0
  0
LINE
  5
218
330
1F
100
AcDbEntity
  8
100
  6
Continuous
 62
     3
100
AcDbLine
 10
-182.373092764671
 20
632.5905461692
 30
0.0
 11
-179.486341473042
 21
637.5905460752
 31
0.0
  0
LINE
  5
219
330
1F
100
AcDbEntity
  8
100
  6
Continuous
 62
     3
100
AcDbLine
 10
-208.186340933482
 20
687.5905451352
 30
0.0
 11
-211.073092225111
 21
692.5905450412
 31
0.0
  0
LINE
  5
21A
330
1F
100
AcDbEntity
  8
100
  6
Continuous
 62
     3
100
AcDbLine
 10
-179.486341473042
 20
637.5905460752
 30
0.0
 11
-182.373092764671
 21
642.5905459812
 31
0.0
  0
LINE
  5
21B
330
1F
100
AcDbEntity
  8
100
  6
Continuous
 62
     3
100
AcDbLine
 10
-191.033346639728
 20
637.5905460752
 30
0.0
 11
-188.146595348029
 21
642.5905459812
 31
0.0
  0
LINE
  5
21C
330
1F
100
AcDbEntity
  8
100
  6
Continuous
 62
     3
100
AcDbLine
 10
-172.2598443008
 20
648.0905458778
 30
0.0
 11
-172.2598443008
 21
663.5905455864
 31
0.0
  0
LINE
  5
21D
330
1F
100
AcDbEntity
  8
100
  6
Continuous
 62
     3
100
AcDbLine
 10
-174.831059930961
 20
673.090537674773
 30
0.0
 11
-174.831059930961
 21
677.3405453279
 31
0.0
  0
LINE
  5
21E
330
1F
100
AcDbEntity
  8
100
  6
Continuous
 62
     3
100
AcDbLine
 10
-174.831059930961
 20
654.090537674773
 30
0.0
 11
-174.831059930961
 21
649.8405458449
 31
0.0
  0
LINE
  5
21F
330
1F
100
AcDbEntity
  8
100
  6
Continuous
 62
     3
100
AcDbLine
 10
-178.811220436673
 20
677.3405453279
 30
0.0
 11
-179.11677716396
 21
686.0905451634
 31
0.0
  0
LINE
  5
220
330
1F
100
AcDbEntity
  8
100
  6
Continuous
 62
     3
100
AcDbLine
 10
-219.733346100198
 20
687.5905451352
 30
0.0
 11
-216.846594808469
 21
682.5905452292
 31
0.0
  0
LINE
  5
221
330
1F
100
AcDbEntity
  8
100
  6
Continuous
 62
     3
100
AcDbLine
 10
-188.146595348029
 20
632.5905461692
 30
0.0
 11
-191.033346639728
 21
637.5905460752
 31
0.0
  0
LINE
  5
222
330
1F
100
AcDbEntity
  8
100
  6
Continuous
 62
     3
100
AcDbLine
 10
-183.772238197467
 20
679.593101174052
 30
0.0
 11
-183.545342453552
 21
686.0905451634
 31
0.0
  0
LINE
  5
223
330
1F
100
AcDbEntity
  8
100
  6
Continuous
 62
     3
100
AcDbLine
 10
-211.073092225111
 20
682.5905452292
 30
0.0
 11
-208.186340933482
 21
687.5905451352
 31
0.0
  0
LINE
  5
224
330
1F
100
AcDbEntity
  8
100
  6
Continuous
 62
     3
100
AcDbLine
 10
-216.846594808469
 20
692.5905450412
 30
0.0
 11
-219.733346100198
 21
687.5905451352
 31
0.0
  0
LINE
  5
225
330
1F
100
AcDbEntity
  8
100
  6
Continuous
 62
     3
100
AcDbLine
 10
-233.831058821761
 20
650.49054583268
 30
0.0
 11
-233.831058821761
 21
676.69054534012
 31
0.0
  0
LINE
  5
226
330
1F
100
AcDbEntity
  8
100
  6
Continuous
 62
     3
100
AcDbLine
 10
-154.2598446392
 20
519.543639918882
 30
0.0
 11
-172.2598443008
 21
519.543639918882
 31
0.0
  0
LINE
  5
227
330
1F
100
AcDbEntity
  8
100
  6
Continuous
 62
     3
100
AcDbLine
 10
-155.644248774073
 20
510.594710914622
 30
0.0
 11
-170.875440165927
 21
510.594710914622
 31
0.0
  0
LINE
  5
228
330
1F
100
AcDbEntity
  8
100
  6
Continuous
 62
     3
100
AcDbLine
 10
-155.644248774073
 20
492.696852906302
 30
0.0
 11
-170.875440165927
 21
492.696852906302
 31
0.0
  0
LINE
  5
229
330
1F
100
AcDbEntity
  8
100
  6
Continuous
 62
     3
100
AcDbLine
 10
-179.486341239922
 20
487.745782776091
 30
0.0
 11
-191.033346406638
 21
487.745782776091
 31
0.0
  0
LINE
  5
22A
330
1F
100
AcDbEntity
  8
100
  6
Continuous
 62
     3
100
AcDbLine
 10
-154.2598446392
 20
483.747923902041
 30
0.0
 11
-172.2598443008
 21
483.747923902041
 31
0.0
  0
LINE
  5
22B
330
1F
100
AcDbEntity
  8
100
  6
Continuous
 62
     3
100
AcDbLine
 10
-179.15984393796
 20
483.745782851291
 30
0.0
 11
-191.3598437086
 21
483.745782851291
 31
0.0
  0
LINE
  5
22C
330
1F
100
AcDbEntity
  8
100
  6
Continuous
 62
     3
100
AcDbLine
 10
-172.2598443008
 20
483.747923902041
 30
0.0
 11
-172.2598443008
 21
519.543639918882
 31
0.0
  0
LINE
  5
22D
330
1F
100
AcDbEntity
  8
100
  6
Continuous
 62
     3
100
AcDbLine
 10
-179.15984393796
 20
483.745782851291
 30
0.0
 11
-179.15984393796
 21
482.245782879491
 31
0.0
  0
LINE
  5
22E
330
1F
100
AcDbEntity
  8
100
  6
Continuous
 62
     3
100
AcDbLine
 10
-179.486341239922
 20
483.745782851291
 30
0.0
 11
-179.486341239922
 21
487.745782776091
 31
0.0
  0
LINE
  5
22F
330
1F
100
AcDbEntity
  8
100
  6
Continuous
 62
     3
100
AcDbLine
 10
-188.146595114909
 20
483.745782851291
 30
0.0
 11
-188.146595114909
 21
486.445782800531
 31
0.0
  0
LINE
  5
230
330
1F
100
AcDbEntity
  8
100
  6
Continuous
 62
     3
100
AcDbLine
 10
-191.033346406638
 20
483.745782851291
 30
0.0
 11
-191.033346406638
 21
487.745782776091
 31
0.0
  0
LINE
  5
231
330
1F
100
AcDbEntity
  8
100
  6
Continuous
 62
     3
100
AcDbLine
 10
-191.3598437086
 20
483.745782851291
 30
0.0
 11
-191.3598437086
 21
482.245782879491
 31
0.0
  0
LINE
  5
232
330
1F
100
AcDbEntity
  8
0
  6
Continuous
 62
     3
100
AcDbLine
 10
-220.089919072213
 20
686.372104454998
 30
0.0
 11
-220.3143064787
 21
682.090537680846
 31
0.0
  0
LINE
  5
233
330
1F
100
AcDbEntity
  8
0
  6
Continuous
 62
     3
100
AcDbLine
 10
-187.729378250457
 20
645.090537819069
 30
0.0
 11
-224.759834103866
 21
645.090537646872
 31
0.0
  0
LINE
  5
234
330
1F
100
AcDbEntity
  8
0
  6
Continuous
 62
     3
100
AcDbLine
 10
-191.309520077156
 20
635.895107243338
 30
0.0
 11
-197.055462794535
 21
645.090537775702
 31
0.0
  0
LINE
  5
235
330
1F
100
AcDbEntity
  8
0
  6
Continuous
 62
     3
100
AcDbLine
 10
-178.420910314736
 20
654.090537674773
 30
0.0
 11
-179.086410754281
 21
641.392031346242
 31
0.0
  0
LINE
  5
236
330
1F
100
AcDbEntity
  8
0
  6
Continuous
 62
     3
100
AcDbLine
 10
-179.21050755496
 20
639.024124279816
 30
0.0
 11
-179.086410754281
 21
641.392031346242
 31
0.0
  0
LINE
  5
237
330
1F
100
AcDbEntity
  8
0
  6
Continuous
 62
     3
100
AcDbLine
 10
-187.357038180551
 20
652.195209587258
 30
0.0
 11
-187.729378250457
 21
645.090537819069
 31
0.0
  0
LINE
  5
238
330
1F
100
AcDbEntity
  8
0
  6
Continuous
 62
     3
100
AcDbLine
 10
-186.914699336587
 20
660.635537531229
 30
0.0
 11
-187.357038180551
 21
652.195209587258
 31
0.0
  0
LINE
  5
239
330
1F
100
AcDbEntity
  8
0
  6
Continuous
 62
     3
100
AcDbLine
 10
-187.598358794047
 20
679.590537373973
 30
0.0
 11
-182.037810879729
 21
679.590537373973
 31
0.0
  0
LINE
  5
23A
330
1F
100
AcDbEntity
  8
0
  6
Continuous
 62
     3
100
AcDbLine
 10
-187.729378251665
 20
682.090537553538
 30
0.0
 11
-186.917057679131
 21
666.590537674767
 31
0.0
  0
LINE
  5
23B
330
1F
100
AcDbEntity
  8
0
  6
Continuous
 62
     3
100
AcDbLine
 10
-179.04922668499
 20
676.85200466736
 30
0.0
 11
-178.720141014939
 21
673.090537674773
 31
0.0
  0
LINE
  5
23C
330
1F
100
AcDbEntity
  8
0
  6
Continuous
 62
     3
100
AcDbLine
 10
-187.257708244472
 20
673.090537674773
 30
0.0
 11
-172.881154684842
 21
673.090537674773
 31
0.0
  0
LINE
  5
23D
330
1F
100
AcDbEntity
  8
0
  6
Continuous
 62
     3
100
AcDbLine
 10
-187.729378251665
 20
682.090537553538
 30
0.0
 11
-224.759834103866
 21
682.090537698214
 31
0.0
  0
LINE
  5
23E
330
1F
100
AcDbEntity
  8
0
  6
Continuous
 62
     3
100
AcDbLine
 10
-187.257708244472
 20
654.090537674773
 30
0.0
 11
-172.2598443008
 21
654.090537674773
 31
0.0
  0
LINE
  5
23F
330
1F
100
AcDbEntity
  8
0
  6
Continuous
 62
     3
100
AcDbLine
 10
-203.37968976484
 20
682.090537614683
 30
0.0
 11
-208.007640016455
 21
689.496805935662
 31
0.0
  0
LINE
  5
240
330
1F
100
AcDbEntity
  8
0
  6
Continuous
 62
     3
100
AcDbLine
 10
-184.75983349329
 20
651.978605752838
 30
0.0
 11
-181.532045993496
 21
651.978605752838
 31
0.0
  0
LINE
  5
241
330
1F
100
AcDbEntity
  8
0
  6
Continuous
 62
     3
100
AcDbLine
 10
-184.75983349329
 20
654.090537674773
 30
0.0
 11
-184.75983349329
 21
651.978605752838
 31
0.0
  0
LINE
  5
242
330
1F
100
AcDbEntity
  8
0
  6
Continuous
 62
     3
100
AcDbLine
 10
-224.759834103866
 20
682.090537698214
 30
0.0
 11
-224.759834103866
 21
666.590537674767
 31
0.0
  0
LINE
  5
243
330
1F
100
AcDbEntity
  8
0
  6
Continuous
 62
     3
100
AcDbLine
 10
-224.759834103866
 20
660.635553296672
 30
0.0
 11
-224.759834103866
 21
645.090537646872
 31
0.0
  0
LINE
  5
244
330
1F
100
AcDbEntity
  8
0
  6
Continuous
 62
     3
100
AcDbLine
 10
-176.259843371457
 20
551.895781962053
 30
0.0
 11
-231.259844045743
 21
551.895781962053
 31
0.0
  0
LINE
  5
245
330
1F
100
AcDbEntity
  8
0
  6
Continuous
 62
     3
100
AcDbLine
 10
-196.959843371457
 20
548.645781961486
 30
0.0
 11
-196.959843371457
 21
551.895781962053
 31
0.0
  0
LINE
  5
246
330
1F
100
AcDbEntity
  8
0
  6
Continuous
 62
     3
100
AcDbLine
 10
-210.559843371457
 20
548.645781706345
 30
0.0
 11
-210.559843371457
 21
551.895781962053
 31
0.0
  0
LINE
  5
247
330
1F
100
AcDbEntity
  8
0
  6
Continuous
 62
     3
100
AcDbLine
 10
-191.259842546
 20
525.64578206842
 30
0.0
 11
-191.25984252724
 21
524.64578206842
 31
0.0
  0
LINE
  5
248
330
1F
100
AcDbEntity
  8
0
  6
Continuous
 62
     3
100
AcDbLine
 10
-205.593962112836
 20
525.645781799507
 30
0.0
 11
-201.925722979164
 21
525.645781868323
 31
0.0
  0
LINE
  5
249
330
1F
100
AcDbEntity
  8
0
  6
Continuous
 62
     3
100
AcDbLine
 10
-216.25984252724
 20
524.645781599411
 30
0.0
 11
-191.25984252724
 21
524.64578206842
 31
0.0
  0
LINE
  5
24A
330
1F
100
AcDbEntity
  8
0
  6
Continuous
 62
     3
100
AcDbLine
 10
-214.009842794575
 20
538.895781641621
 30
0.0
 11
-214.009842977488
 21
548.645781641622
 31
0.0
  0
LINE
  5
24B
330
1F
100
AcDbEntity
  8
0
  6
Continuous
 62
     3
100
AcDbLine
 10
-193.509842977488
 20
548.64578202621
 30
0.0
 11
-214.009842977488
 21
548.645781641622
 31
0.0
  0
LINE
  5
24C
330
1F
100
AcDbEntity
  8
0
  6
Continuous
 62
     3
100
AcDbLine
 10
-205.59396230044
 20
535.645781799506
 30
0.0
 11
-201.925723166768
 21
535.645781868324
 31
0.0
  0
LINE
  5
24D
330
1F
100
AcDbEntity
  8
0
  6
Continuous
 62
     3
100
AcDbLine
 10
-193.509842794575
 20
538.895782026209
 30
0.0
 11
-193.509842977488
 21
548.64578202621
 31
0.0
  0
LINE
  5
24E
330
1F
100
AcDbEntity
  8
0
  6
Continuous
 62
     3
100
AcDbLine
 10
-205.593962112836
 20
525.645781799507
 30
0.0
 11
-205.59396230044
 21
535.645781799506
 31
0.0
  0
LINE
  5
24F
330
1F
100
AcDbEntity
  8
0
  6
Continuous
 62
     3
100
AcDbLine
 10
-201.925722979164
 20
525.645781868323
 30
0.0
 11
-201.925723166768
 21
535.645781868324
 31
0.0
  0
LINE
  5
250
330
1F
100
AcDbEntity
  8
0
  6
Continuous
 62
     3
100
AcDbLine
 10
-191.259842752364
 20
536.64578206842
 30
0.0
 11
-191.259842733604
 21
535.64578206842
 31
0.0
  0
LINE
  5
251
330
1F
100
AcDbEntity
  8
0
  6
Continuous
 62
     3
100
AcDbLine
 10
-193.09396230044
 20
535.645782034011
 30
0.0
 11
-191.259842733604
 21
535.64578206842
 31
0.0
  0
LINE
  5
252
330
1F
100
AcDbEntity
  8
0
  6
Continuous
 62
     3
100
AcDbLine
 10
-193.093962112836
 20
525.645782034011
 30
0.0
 11
-193.09396230044
 21
535.645782034011
 31
0.0
  0
LINE
  5
253
330
1F
100
AcDbEntity
  8
0
  6
Continuous
 62
     3
100
AcDbLine
 10
-193.093962112836
 20
525.645782034011
 30
0.0
 11
-191.259842546
 21
525.64578206842
 31
0.0
  0
LINE
  5
254
330
1F
100
AcDbEntity
  8
0
  6
Continuous
 62
     3
100
AcDbLine
 10
-191.259842546
 20
525.64578206842
 30
0.0
 11
-191.259842733604
 21
535.64578206842
 31
0.0
  0
LINE
  5
255
330
1F
100
AcDbEntity
  8
0
  6
Continuous
 62
     3
100
AcDbLine
 10
-193.509842794575
 20
538.895782026209
 30
0.0
 11
-191.259842752364
 21
536.64578206842
 31
0.0
  0
LINE
  5
256
330
1F
100
AcDbEntity
  8
0
  6
Continuous
 62
     3
100
AcDbLine
 10
-216.259842733604
 20
535.645781599411
 30
0.0
 11
-214.425723166768
 21
535.645781633819
 31
0.0
  0
LINE
  5
257
330
1F
100
AcDbEntity
  8
0
  6
Continuous
 62
     3
100
AcDbLine
 10
-216.259842546
 20
525.645781599411
 30
0.0
 11
-216.259842733604
 21
535.645781599411
 31
0.0
  0
LINE
  5
258
330
1F
100
AcDbEntity
  8
0
  6
Continuous
 62
     3
100
AcDbLine
 10
-216.259842546
 20
525.645781599411
 30
0.0
 11
-214.425722979164
 21
525.645781633819
 31
0.0
  0
LINE
  5
259
330
1F
100
AcDbEntity
  8
0
  6
Continuous
 62
     3
100
AcDbLine
 10
-214.425722979164
 20
525.645781633819
 30
0.0
 11
-214.425723166768
 21
535.645781633819
 31
0.0
  0
LINE
  5
25A
330
1F
100
AcDbEntity
  8
0
  6
Continuous
 62
     3
100
AcDbLine
 10
-216.25984252724
 20
524.645781599411
 30
0.0
 11
-216.259842546
 21
525.645781599411
 31
0.0
  0
LINE
  5
25B
330
1F
100
AcDbEntity
  8
0
  6
Continuous
 62
     3
100
AcDbLine
 10
-214.009842794575
 20
538.895781641621
 30
0.0
 11
-216.259842752364
 21
536.645781599411
 31
0.0
  0
LINE
  5
25C
330
1F
100
AcDbEntity
  8
0
  6
Continuous
 62
     3
100
AcDbLine
 10
-216.259842733604
 20
535.645781599411
 30
0.0
 11
-216.259842752364
 21
536.645781599411
 31
0.0
  0
LINE
  5
25D
330
1F
100
AcDbEntity
  8
0
  6
Continuous
 62
     3
100
AcDbLine
 10
-193.759843930327
 20
524.645782021519
 30
0.0
 11
-193.759843973801
 21
520.145781924252
 31
0.0
  0
LINE
  5
25E
330
1F
100
AcDbEntity
  8
0
  6
Continuous
 62
     3
100
AcDbLine
 10
-213.759843961733
 20
524.645781646312
 30
0.0
 11
-213.759843917918
 21
520.145781940108
 31
0.0
  0
LINE
  5
25F
330
1F
100
AcDbEntity
  8
0
  6
Continuous
 62
     3
100
AcDbLine
 10
-221.293881538344
 20
489.64812282332
 30
0.0
 11
-221.293881538344
 21
478.745782203479
 31
0.0
  0
LINE
  5
260
330
1F
100
AcDbEntity
  8
0
  6
Continuous
 62
     3
100
AcDbLine
 10
-213.759843917918
 20
520.145781940108
 30
0.0
 11
-224.7598437086
 21
520.145781988369
 31
0.0
  0
LINE
  5
261
330
1F
100
AcDbEntity
  8
0
  6
Continuous
 62
     3
100
AcDbLine
 10
-186.759843946016
 20
489.64812282332
 30
0.0
 11
-221.293881538344
 21
489.64812282332
 31
0.0
  0
LINE
  5
262
330
1F
100
AcDbEntity
  8
0
  6
Continuous
 62
     3
100
AcDbLine
 10
-191.998007943694
 20
482.245782753081
 30
0.0
 11
-177.572477826423
 21
482.245783023709
 31
0.0
  0
LINE
  5
263
330
1F
100
AcDbEntity
  8
0
  6
Continuous
 62
     3
100
AcDbLine
 10
-186.759843946016
 20
492.145781941229
 30
0.0
 11
-186.759843946016
 21
489.64812282332
 31
0.0
  0
LINE
  5
264
330
1F
100
AcDbEntity
  8
0
  6
Continuous
 62
     3
100
AcDbLine
 10
-186.759843946016
 20
520.14578210062
 30
0.0
 11
-186.759843946016
 21
511.14578198286
 31
0.0
  0
LINE
  5
265
330
1F
100
AcDbEntity
  8
0
  6
Continuous
 62
     3
100
AcDbLine
 10
-186.759843946016
 20
520.14578210062
 30
0.0
 11
-193.759843973801
 21
520.145781924252
 31
0.0
  0
LINE
  5
266
330
1F
100
AcDbEntity
  8
0
  6
Continuous
 62
     3
100
AcDbLine
 10
-186.759843946016
 20
511.14578198286
 30
0.0
 11
-172.2598443008
 21
511.145781961113
 31
0.0
  0
LINE
  5
267
330
1F
100
AcDbEntity
  8
0
  6
Continuous
 62
     3
100
AcDbLine
 10
-186.759843946016
 20
492.145781941229
 30
0.0
 11
-172.2598443008
 21
492.145781962977
 31
0.0
  0
LINE
  5
268
330
1F
100
AcDbEntity
  8
0
  6
Continuous
 62
     3
100
AcDbLine
 10
-221.2598437086
 20
503.645781962045
 30
0.0
 11
-221.2598437086
 21
499.645781962045
 31
0.0
  0
LINE
  5
269
330
1F
100
AcDbEntity
  8
0
  6
Continuous
 62
     3
100
AcDbLine
 10
-224.7598437086
 20
520.145781988369
 30
0.0
 11
-224.7598437086
 21
503.645781962045
 31
0.0
  0
LINE
  5
26A
330
1F
100
AcDbEntity
  8
100
  6
Continuous
 62
     3
100
AcDbLine
 10
-172.2598443008
 20
663.5905455864
 30
0.0
 11
-172.2598443008
 21
679.090545295
 31
0.0
  0
LINE
  5
26B
330
1F
100
AcDbEntity
  8
1
  6
Continuous
 62
     3
100
AcDbLine
 10
-194.259842818946
 20
540.194820174097
 30
0.0
 11
-194.259842977489
 21
548.645782012139
 31
0.0
  0
LINE
  5
26C
330
1F
100
AcDbEntity
  8
1
  6
Continuous
 62
     3
100
AcDbLine
 10
-213.259842818945
 20
540.194820174097
 30
0.0
 11
-213.259842977489
 21
548.645781655692
 31
0.0
  0
LINE
  5
26D
330
1F
100
AcDbEntity
  8
1
  6
Continuous
 62
     3
100
AcDbLine
 10
-193.509842794575
 20
538.895782026209
 30
0.0
 11
-194.259842818946
 21
540.194820174097
 31
0.0
  0
LINE
  5
26E
330
1F
100
AcDbEntity
  8
1
  6
Continuous
 62
     3
100
AcDbLine
 10
-214.009842794575
 20
538.895781641621
 30
0.0
 11
-213.259842548163
 21
540.194820174097
 31
0.0
  0
LINE
  5
26F
330
1F
100
AcDbEntity
  8
1
  6
Continuous
 62
     3
100
AcDbLine
 10
-193.509842818946
 20
540.194820174097
 30
0.0
 11
-214.009842818945
 21
540.194820174097
 31
0.0
  0
LINE
  5
270
330
1F
100
AcDbEntity
  8
100
  6
Continuous
 62
     3
100
AcDbLine
 10
-184.331059752461
 20
429.145783273462
 30
0.0
 11
-178.331059865261
 21
429.145783273462
 31
0.0
  0
LINE
  5
271
330
1F
100
AcDbEntity
  8
100
  6
Continuous
 62
     3
100
AcDbLine
 10
-174.831059931061
 20
478.745783075139
 30
0.0
 11
-174.831059931061
 21
450.391760252337
 31
0.0
  0
LINE
  5
272
330
1F
100
AcDbEntity
  8
1
  6
Continuous
 62
     3
100
AcDbLine
 10
-178.331059865261
 20
450.391760252337
 30
0.0
 11
-174.831059931061
 21
450.391760252337
 31
0.0
  0
LINE
  5
273
330
1F
100
AcDbEntity
  8
1
  6
Continuous
 62
     3
100
AcDbLine
 10
-221.2598437086
 20
503.645781962045
 30
0.0
 11
-224.7598437086
 21
503.645781962045
 31
0.0
  0
LINE
  5
274
330
1F
100
AcDbEntity
  8
1
  6
Continuous
 62
     3
100
AcDbLine
 10
-221.2598437086
 20
499.645781962045
 30
0.0
 11
-224.7598437086
 21
499.645781962045
 31
0.0
  0
LINE
  5
275
330
1F
100
AcDbEntity
  8
0
  6
Continuous
 62
     3
100
AcDbLine
 10
-224.7598437086
 20
483.145781832554
 30
0.0
 11
-221.293881538344
 21
483.145781847761
 31
0.0
  0
LINE
  5
276
330
1F
100
AcDbEntity
  8
100
  6
Continuous
 62
     3
100
AcDbLine
 10
-154.2598446392
 20
483.747923902041
 30
0.0
 11
-154.2598446392
 21
519.543639918882
 31
0.0
  0
LINE
  5
277
330
1F
100
AcDbEntity
  8
0
  6
Continuous
 62
     3
100
AcDbLine
 10
-214.009842794575
 20
538.895781641621
 30
0.0
 11
-193.509842794575
 21
538.895782026209
 31
0.0
  0
LINE
  5
278
330
1F
100
AcDbEntity
  8
1
  6
Continuous
 62
     3
100
AcDbLine
 10
-176.259843371457
 20
568.895781962053
 30
0.0
 11
-231.259844045743
 21
568.895781962053
 31
0.0
  0
LINE
  5
279
330
1F
100
AcDbEntity
  8
100
  6
Continuous
 62
     3
100
AcDbLine
 10
42.6689372019388
 20
450.395786430356
 30
0.0
 11
39.1689372677389
 21
450.395786759826
 31
0.0
  0
LINE
  5
27A
330
1F
100
AcDbEntity
  8
1
  6
Continuous
 62
     3
100
AcDbLine
 10
41.9103098688011
 20
478.745782340982
 30
0.0
 11
41.9103098688011
 21
477.895791427661
 31
0.0
  0
LINE
  5
27B
330
1F
100
AcDbEntity
  8
100
  6
Continuous
 62
     3
100
AcDbLine
 10
84.0712234369759
 20
487.745782171782
 30
0.0
 11
84.0712234369759
 21
483.745782246982
 31
0.0
  0
LINE
  5
27C
330
1F
100
AcDbEntity
  8
1
  6
Continuous
 62
     3
100
AcDbLine
 10
67.5461799879467
 20
526.845781436702
 30
0.0
 11
67.5461799879467
 21
525.645781459262
 31
0.0
  0
LINE
  5
27D
330
1F
100
AcDbEntity
  8
1
  6
Continuous
 62
     3
100
AcDbLine
 10
54.7463340950838
 20
526.845781436702
 30
0.0
 11
54.7463340950838
 21
525.645781459262
 31
0.0
  0
LINE
  5
27E
330
1F
100
AcDbEntity
  8
100
  6
Continuous
 62
     3
100
AcDbLine
 10
-182.373092531551
 20
483.745782851291
 30
0.0
 11
-182.373092531551
 21
486.445782800531
 31
0.0
  0
LINE
  5
27F
330
1F
100
AcDbEntity
  8
1
  6
Continuous
 62
     3
100
AcDbLine
 10
-177.572477826423
 20
478.745782340982
 30
0.0
 11
-177.572477826423
 21
482.245783023709
 31
0.0
  0
LINE
  5
280
330
1F
100
AcDbEntity
  8
1
  6
Continuous
 62
     3
100
AcDbLine
 10
-191.998007943694
 20
482.245782753081
 30
0.0
 11
-191.998007943694
 21
489.64812282332
 31
0.0
  0
LINE
  5
281
330
1F
100
AcDbEntity
  8
1
  6
Continuous
 62
     3
100
AcDbLine
 10
-176.259843371457
 20
551.895781962053
 30
0.0
 11
-176.259843371457
 21
568.895781962053
 31
0.0
  0
LINE
  5
282
330
1F
100
AcDbEntity
  8
1
  6
Continuous
 62
     3
100
AcDbLine
 10
-231.259844045743
 20
551.895781962053
 30
0.0
 11
-231.259844045743
 21
568.895781962053
 31
0.0
  0
LINE
  5
283
330
1F
100
AcDbEntity
  8
100
  6
Continuous
 62
     3
100
AcDbLine
 10
56.1462570532652
 20
660.703794294671
 30
0.0
 11
61.1462569592652
 21
657.817043003042
 31
0.0
  0
LINE
  5
284
330
1F
100
AcDbEntity
  8
1
  6
Continuous
 62
     3
100
AcDbLine
 10
61.1462569592652
 20
667.0905455206
 30
0.0
 11
61.1462569592652
 21
660.0905456522
 31
0.0
  0
LINE
  5
285
330
1F
100
AcDbEntity
  8
1
  6
Continuous
 62
     3
100
AcDbLine
 10
56.1462570532652
 20
663.5905455864
 30
0.0
 11
66.1462568652653
 21
663.5905455864
 31
0.0
  0
LINE
  5
286
330
1F
100
AcDbEntity
  8
1
  6
Continuous
 62
     3
100
AcDbLine
 10
49.5977213931777
 20
693.0905450318
 30
0.0
 11
49.5977213931777
 21
686.0905451634
 31
0.0
  0
LINE
  5
287
330
1F
100
AcDbEntity
  8
1
  6
Continuous
 62
     3
100
AcDbLine
 10
46.0977214589777
 20
689.5905450976
 30
0.0
 11
53.0977213273777
 21
689.5905450976
 31
0.0
  0
LINE
  5
288
330
1F
100
AcDbEntity
  8
1
  6
Continuous
 62
     3
100
AcDbLine
 10
78.2977208536177
 20
643.0905459718
 30
0.0
 11
78.2977208536177
 21
636.0905461034
 31
0.0
  0
LINE
  5
289
330
1F
100
AcDbEntity
  8
1
  6
Continuous
 62
     3
100
AcDbLine
 10
81.7977207878177
 20
639.5905460376
 30
0.0
 11
74.7977209194177
 21
639.5905460376
 31
0.0
  0
LINE
  5
28A
330
1F
100
AcDbEntity
  8
100
  6
Continuous
 62
     3
100
AcDbLine
 10
26.1462576172652
 20
678.64054530346
 30
0.0
 11
21.7462576999852
 21
678.64054530346
 31
0.0
  0
LINE
  5
28B
330
1F
100
AcDbEntity
  8
1
  6
Continuous
 62
     3
100
AcDbLine
 10
-203.7598437086
 20
667.090537608973
 30
0.0
 11
-203.7598437086
 21
660.090537740573
 31
0.0
  0
LINE
  5
28C
330
1F
100
AcDbEntity
  8
1
  6
Continuous
 62
     3
100
AcDbLine
 10
-207.259833288195
 20
663.5905455864
 30
0.0
 11
-200.259833419795
 21
663.5905455864
 31
0.0
  0
LINE
  5
28D
330
1F
100
AcDbEntity
  8
1
  6
Continuous
 62
     3
100
AcDbLine
 10
-185.2598440564
 20
641.0905460094
 30
0.0
 11
-185.2598440564
 21
634.090546141
 31
0.0
  0
LINE
  5
28E
330
1F
100
AcDbEntity
  8
1
  6
Continuous
 62
     3
100
AcDbLine
 10
-188.7598439906
 20
637.5905460752
 30
0.0
 11
-181.7598441222
 21
637.5905460752
 31
0.0
  0
LINE
  5
28F
330
1F
100
AcDbEntity
  8
1
  6
Continuous
 62
     3
100
AcDbLine
 10
-176.442197583349
 20
660.635553296672
 30
0.0
 11
-176.442197583349
 21
666.590537674767
 31
0.0
  0
LINE
  5
290
330
1F
100
AcDbEntity
  8
1
  6
Continuous
 62
     3
100
AcDbLine
 10
-176.442197583349
 20
666.590537674767
 30
0.0
 11
-194.345661958619
 21
666.590537674767
 31
0.0
  0
LINE
  5
291
330
1F
100
AcDbEntity
  8
1
  6
Continuous
 62
     3
100
AcDbLine
 10
-176.442197583349
 20
660.635553296672
 30
0.0
 11
-194.331435271974
 21
660.635553296672
 31
0.0
  0
LINE
  5
292
330
1F
100
AcDbEntity
  8
1
  6
Continuous
 62
     3
100
AcDbLine
 10
-213.174004299121
 20
666.590537674767
 30
0.0
 11
-231.077489833851
 21
666.590537674767
 31
0.0
  0
LINE
  5
293
330
1F
100
AcDbEntity
  8
1
  6
Continuous
 62
     3
100
AcDbLine
 10
-231.077489833851
 20
666.590537674767
 30
0.0
 11
-231.077489833851
 21
660.635553296672
 31
0.0
  0
LINE
  5
294
330
1F
100
AcDbEntity
  8
1
  6
Continuous
 62
     3
100
AcDbLine
 10
-213.188230985767
 20
660.635553296672
 30
0.0
 11
-231.077489833851
 21
660.635553296672
 31
0.0
  0
LINE
  5
295
330
1F
100
AcDbEntity
  8
1
  6
Continuous
 62
     3
100
AcDbLine
 10
-191.259833128871
 20
670.807416039644
 30
0.0
 11
-203.75983312887
 21
678.024294404514
 31
0.0
  0
LINE
  5
296
330
1F
100
AcDbEntity
  8
1
  6
Continuous
 62
     3
100
AcDbLine
 10
-216.25983312887
 20
656.373659309903
 30
0.0
 11
-203.75983312887
 21
649.156780945033
 31
0.0
  0
LINE
  5
297
330
1F
100
AcDbEntity
  8
1
  6
Continuous
 62
     3
100
AcDbLine
 10
-191.259833128871
 20
656.373659309903
 30
0.0
 11
-191.259833128871
 21
660.635553296672
 31
0.0
  0
LINE
  5
298
330
1F
100
AcDbEntity
  8
1
  6
Continuous
 62
     3
100
AcDbLine
 10
-203.75983312887
 20
678.024294404514
 30
0.0
 11
-216.25983312887
 21
670.807416039644
 31
0.0
  0
LINE
  5
299
330
1F
100
AcDbEntity
  8
1
  6
Continuous
 62
     3
100
AcDbLine
 10
-216.25983312887
 20
670.807416039644
 30
0.0
 11
-216.25983312887
 21
666.590537674767
 31
0.0
  0
LINE
  5
29A
330
1F
100
AcDbEntity
  8
1
  6
Continuous
 62
     3
100
AcDbLine
 10
-203.75983312887
 20
649.156780945033
 30
0.0
 11
-191.259833128871
 21
656.373659309903
 31
0.0
  0
LINE
  5
29B
330
1F
100
AcDbEntity
  8
1
  6
Continuous
 62
     3
100
AcDbLine
 10
-216.25983312887
 20
660.635553296672
 30
0.0
 11
-216.25983312887
 21
656.373659309903
 31
0.0
  0
LINE
  5
29C
330
1F
100
AcDbEntity
  8
1
  6
Continuous
 62
     3
100
AcDbLine
 10
-191.259833128871
 20
666.590537674767
 30
0.0
 11
-191.259833128871
 21
670.807416039644
 31
0.0
  0
LINE
  5
29D
330
1F
100
AcDbEntity
  8
100
  6
Continuous
 62
     3
100
AcDbLine
 10
85.1689364029388
 20
478.745782340982
 30
0.0
 11
85.1689364029388
 21
450.39578242966
 31
0.0
  0
LINE
  5
29E
330
1F
100
AcDbEntity
  8
100
  6
Continuous
 62
     3
100
AcDbLine
 10
68.6462568182652
 20
511.357512261982
 30
0.0
 11
68.6462568182652
 21
525.645781459262
 31
0.0
  0
LINE
  5
29F
330
1F
100
AcDbEntity
  8
1
  6
Continuous
 62
     3
100
AcDbLine
 10
73.5205946006277
 20
501.537046846206
 30
0.0
 11
77.2636426158886
 21
487.745782171782
 31
0.0
  0
LINE
  5
2A0
330
1F
100
AcDbEntity
  8
0
  6
Continuous
 62
     3
100
AcDbLine
 10
-174.831059931061
 20
478.745783075139
 30
0.0
 11
-221.293881538344
 21
478.745782203479
 31
0.0
  0
LINE
  5
2A1
330
1F
100
AcDbEntity
  8
1
  6
Continuous
 62
     3
100
AcDbLine
 10
-224.7598437086
 20
499.645781962045
 30
0.0
 11
-224.7598437086
 21
483.145781832554
 31
0.0
  0
LINE
  5
2A2
330
1F
100
AcDbEntity
  8
0
  6
Continuous
 62
     3
100
AcDbLine
 10
-218.759843651541
 20
520.145781962045
 30
0.0
 11
-218.759843745604
 21
489.64812282332
 31
0.0
  0
LINE
  5
2A3
330
1F
100
AcDbEntity
  8
100
  6
Continuous
 62
     3
100
AcDbLine
 10
42.2726696199887
 20
484.14079337456
 30
0.0
 11
72.5242182702595
 21
484.141197378663
 31
0.0
  0
LINE
  5
2A4
330
1F
100
AcDbEntity
  8
1
  6
Continuous
 62
     3
100
AcDbLine
 10
-213.95984351684
 20
691.0905450694
 30
0.0
 11
-213.95984351684
 21
684.090545201
 31
0.0
  0
LINE
  5
2A5
330
1F
100
AcDbEntity
  8
1
  6
Continuous
 62
     3
100
AcDbLine
 10
-217.45984345104
 20
687.5905451352
 30
0.0
 11
-210.45984358264
 21
687.5905451352
 31
0.0
  0
LINE
  5
2A6
330
1F
100
AcDbEntity
  8
100
  6
Continuous
 62
     3
100
AcDbLine
 10
-178.643642922624
 20
649.8405458449
 30
0.0
 11
-174.831059930961
 21
649.8405458449
 31
0.0
  0
LINE
  5
2A7
330
1F
100
AcDbEntity
  8
1
  6
Continuous
 62
     3
100
AcDbLine
 10
-181.421364428791
 20
654.090537674773
 30
0.0
 11
-181.948093013921
 21
644.039946577684
 31
0.0
  0
LINE
  5
2A8
330
1F
100
AcDbEntity
  8
1
  6
Continuous
 62
     3
100
AcDbLine
 10
-193.562147787452
 20
645.090537674773
 30
0.0
 11
-191.341628034181
 21
641.53696324115
 31
0.0
  0
LINE
  5
2A9
330
1F
100
AcDbEntity
  8
100
  6
Continuous
 62
     3
100
AcDbLine
 10
-8.75374172661476
 20
645.69268757798
 30
0.0
 11
-8.75374172661476
 21
681.48840359472
 31
0.0
  0
LINE
  5
2AA
330
1F
100
AcDbEntity
  8
5
  6
PHANTOM
 62
     6
100
AcDbLine
 10
-152.2598446768
 20
654.5905457556
 30
0.0
 11
-119.111821917883
 21
654.5905457556
 31
0.0
  0
ARC
  5
2AB
330
1F
100
AcDbEntity
  8
100
  6
Continuous
 62
     3
100
AcDbCircle
 10
79.9062850725767
 20
667.5905455112
 30
0.0
 40
0.9999999811432972
100
AcDbArc
 50
2.99999999770125
 51
90.0
  0
ARC
  5
2AC
330
1F
100
AcDbEntity
  8
100
  6
Continuous
 62
     3
100
AcDbCircle
 10
78.2977208536177
 20
639.5905460376
 30
0.0
 40
7.249999863699983
100
AcDbArc
 50
31.00673105850549
 51
178.6757161779516
  0
ARC
  5
2AD
330
1F
100
AcDbEntity
  8
100
  6
Continuous
 62
     3
100
AcDbCircle
 10
68.0977210453777
 20
663.5905455864
 30
0.0
 40
17.49999967093048
100
AcDbArc
 50
357.0000000001812
 51
95.08856411495113
  0
ARC
  5
2AE
330
1F
100
AcDbEntity
  8
100
  6
Continuous
 62
     3
100
AcDbCircle
 10
65.9246815462309
 20
687.993985441515
 30
0.0
 40
6.999999868386714
100
AcDbArc
 50
211.999999999748
 51
275.0885641148986
  0
ARC
  5
2AF
330
1F
100
AcDbEntity
  8
100
  6
Continuous
 62
     3
100
AcDbCircle
 10
49.5977213931777
 20
689.5905450976
 30
0.0
 40
7.249999863700179
100
AcDbArc
 50
291.4033496394097
 51
357.8515739948027
  0
ARC
  5
2B0
330
1F
100
AcDbEntity
  8
100
  6
Continuous
 62
     3
100
AcDbCircle
 10
62.8583843875772
 20
639.657319125745
 30
0.0
 40
6.999999868386774
100
AcDbArc
 50
31.99999999974878
 51
77.65190377218194
  0
ARC
  5
2B1
330
1F
100
AcDbEntity
  8
0
  6
Continuous
 62
     3
100
AcDbCircle
 10
-185.259835287303
 20
637.590539238513
 30
0.0
 40
7.249997615487511
100
AcDbArc
 50
136.7767885441227
 51
145.7644143147262
  0
ARC
  5
2B2
330
1F
100
AcDbEntity
  8
0
  6
Continuous
 62
     3
100
AcDbCircle
 10
-185.259833486921
 20
637.59053767317
 30
0.0
 40
7.250000001204532
100
AcDbArc
 50
76.59991647662473
 51
133.1928375769864
  0
ARC
  5
2B3
330
1F
100
AcDbEntity
  8
0
  6
Continuous
 62
     3
100
AcDbCircle
 10
-185.259833467389
 20
637.590537693961
 30
0.0
 40
7.249999999416998
100
AcDbArc
 50
133.1928378019838
 51
136.7767894992053
  0
ARC
  5
2B4
330
1F
100
AcDbEntity
  8
0
  6
Continuous
 62
     3
100
AcDbCircle
 10
-185.259838146079
 20
637.590538637933
 30
0.0
 40
7.249995230169479
100
AcDbArc
 50
160.9393575735737
 51
178.2601333476235
  0
ARC
  5
2B5
330
1F
100
AcDbEntity
  8
0
  6
Continuous
 62
     3
100
AcDbCircle
 10
-185.259834651594
 20
637.590538624986
 30
0.0
 40
7.249999988980016
100
AcDbArc
 50
48.94780515076035
 51
52.42750670455651
  0
ARC
  5
2B6
330
1F
100
AcDbEntity
  8
0
  6
Continuous
 62
     3
100
AcDbCircle
 10
-185.259836501525
 20
637.590534149789
 30
0.0
 40
7.250004578714061
100
AcDbArc
 50
31.62409953221417
 51
48.9478173528925
  0
ARC
  5
2B7
330
1F
100
AcDbEntity
  8
0
  6
Continuous
 62
     3
100
AcDbCircle
 10
-172.881154684842
 20
674.590537674773
 30
0.0
 40
1.5
100
AcDbArc
 50
270.0
 51
294.46938255389
  0
ARC
  5
2B8
330
1F
100
AcDbEntity
  8
0
  6
Continuous
 62
     3
100
AcDbCircle
 10
-182.037810793928
 20
676.590537351751
 30
0.0
 40
3.000000022221421
100
AcDbArc
 50
5.0000016378123
 51
90.00000163867821
  0
ARC
  5
2B9
330
1F
100
AcDbEntity
  8
0
  6
Continuous
 62
     3
100
AcDbCircle
 10
-185.259831609217
 20
637.5905368464
 30
0.0
 40
7.250002002071767
100
AcDbArc
 50
145.7644150389866
 51
157.0842966081649
  0
ARC
  5
2BA
330
1F
100
AcDbEntity
  8
0
  6
Continuous
 62
     3
100
AcDbCircle
 10
-185.259833479275
 20
637.59053769715
 30
0.0
 40
7.249999948338698
100
AcDbArc
 50
157.0842970463887
 51
160.9393625905429
  0
ARC
  5
2BB
330
1F
100
AcDbEntity
  8
0
  6
Continuous
 62
     3
100
AcDbCircle
 10
-185.259833478637
 20
637.590537669943
 30
0.0
 40
7.25000000242427
100
AcDbArc
 50
72.51260529941439
 51
76.59991654621987
  0
ARC
  5
2BC
330
1F
100
AcDbEntity
  8
0
  6
Continuous
 62
     3
100
AcDbCircle
 10
-185.259833965585
 20
637.590536327682
 30
0.0
 40
7.250001428976065
100
AcDbArc
 50
63.88641249361273
 51
72.51260481655953
  0
ARC
  5
2BD
330
1F
100
AcDbEntity
  8
0
  6
Continuous
 62
     3
100
AcDbCircle
 10
-185.259833389539
 20
637.590537611155
 30
0.0
 40
7.250000022968035
100
AcDbArc
 50
52.4275194951956
 51
63.88641211681743
  0
ARC
  5
2BE
330
1F
100
AcDbEntity
  8
1
  6
Continuous
 62
     3
100
AcDbCircle
 10
-213.959834976745
 20
687.590533354235
 30
0.0
 40
6.249999999999445
100
AcDbArc
 50
298.3577193798017
 51
180.0
  0
ARC
  5
2BF
330
1F
100
AcDbEntity
  8
1
  6
Continuous
 62
     3
100
AcDbCircle
 10
-213.959834976745
 20
687.590533354235
 30
0.0
 40
6.249999999999005
100
AcDbArc
 50
180.0
 51
241.6422801724867
  0
ARC
  5
2C0
330
1F
100
AcDbEntity
  8
1
  6
Continuous
 62
     3
100
AcDbCircle
 10
-203.75983312887
 20
663.590537674773
 30
0.0
 40
9.880618342126208
100
AcDbArc
 50
197.4016799073713
 51
342.598320092627
  0
ARC
  5
2C1
330
1F
100
AcDbEntity
  8
1
  6
Continuous
 62
     3
100
AcDbCircle
 10
-203.75983312887
 20
663.590537674773
 30
0.0
 40
9.880618342125628
100
AcDbArc
 50
17.67544302703855
 51
162.3245569729614
  0
ARC
  5
2C2
330
1F
100
AcDbEntity
  8
100
  6
Continuous
 62
     3
100
AcDbCircle
 10
68.0977210453777
 20
663.5905455864
 30
0.0
 40
17.49999967099953
100
AcDbArc
 50
249.9572487687992
 51
257.6519037721858
  0
CIRCLE
  5
2C3
330
1F
100
AcDbEntity
  8
5
  6
PHANTOM
 62
     6
100
AcDbCircle
 10
-81.7598453912
 20
657.5905456992
 30
0.0
 40
37.499999295
  0
CIRCLE
  5
2C4
330
1F
100
AcDbEntity
  8
100
  6
Continuous
 62
     3
100
AcDbCircle
 10
61.1462569592652
 20
663.5905455864
 30
0.0
 40
6.999999872899991
  0
CIRCLE
  5
2C5
330
1F
100
AcDbEntity
  8
100
  6
Continuous
 62
     3
100
AcDbCircle
 10
78.2977208536177
 20
639.5905460376
 30
0.0
 40
6.249999882499992
  0
CIRCLE
  5
2C6
330
1F
100
AcDbEntity
  8
100
  6
Continuous
 62
     3
100
AcDbCircle
 10
-185.2598440564
 20
637.5905460752
 30
0.0
 40
4.473502607797997
  0
CIRCLE
  5
2C7
330
1F
100
AcDbEntity
  8
100
  6
Continuous
 62
     3
100
AcDbCircle
 10
-213.95984351684
 20
687.5905451352
 30
0.0
 40
4.473502607797997
  0
CIRCLE
  5
2C8
330
1F
100
AcDbEntity
  8
1
  6
Continuous
 62
     3
100
AcDbCircle
 10
-203.75983312887
 20
663.590537674773
 30
0.0
 40
5.900000000000006
  0
CIRCLE
  5
2C9
330
1F
100
AcDbEntity
  8
1
  6
Continuous
 62
     3
100
AcDbCircle
 10
-185.293872645227
 20
637.590538154561
 30
0.0
 40
6.25
  0
CIRCLE
  5
2CA
330
1F
100
AcDbEntity
  8
1
  6
Continuous
 62
     3
100
AcDbCircle
 10
-203.75983312887
 20
663.590537674773
 30
0.0
 40
9.044229901763003
  0
CIRCLE
  5
2CB
330
1F
100
AcDbEntity
  8
100
  6
Continuous
 62
     3
100
AcDbCircle
 10
49.5977213931777
 20
689.5905450976
 30
0.0
 40
6.249999882499999
  0
SPLINE
  5
2CC
330
1F
100
AcDbEntity
  8
0
  6
Continuous
 62
     3
100
AcDbSpline
210
0.0
220
0.0
230
1.0
 70
     8
 71
     3
 72
    43
 73
    39
 74
    37
 42
0.0000000001
 43
0.0000000001
 44
0.00000001
 40
0.0
 40
0.0
 40
0.0
 40
0.0
 40
0.0002452462450988
 40
0.0004903415471155
 40
0.0005419776519532
 40
0.0005936214202018
 40
0.0006459845683864
 40
0.000698345178175
 40
0.0007548830696712
 40
0.0008114231638999
 40
0.0008709249768939
 40
0.0009304193147346
 40
0.0009986798910024
 40
0.0010669529621227
 40
0.0011366794656271
 40
0.0012064011536342
 40
0.0012873032258344
 40
0.0013682129801997
 40
0.0014486390123308
 40
0.0015290621508508
 40
0.0016069729418134
 40
0.0016848851249378
 40
0.0017617633744296
 40
0.0018386374183876
 40
0.0019273488297884
 40
0.0020160670391766
 40
0.0021067097053855
 40
0.0021973499039106
 40
0.0023005747423566
 40
0.0024038025934029
 40
0.0024992429901478
 40
0.0025946822815102
 40
0.0026760285650417
 40
0.0027573753499451
 40
0.0028343671183814
 40
0.0029113566523954
 40
0.0034537695807603
 40
0.0039961549981701
 40
0.0039961549981701
 40
0.0039961549981701
 40
0.0039961549981701
 10
-190.382161149927
 20
634.411022601514
 30
0.0
 10
-190.382115634881
 20
634.4109544300306
 30
0.0
 10
-190.3820246328024
 20
634.410818129022
 30
0.0
 10
-190.3818891756438
 20
634.4106953715108
 30
0.0
 10
-190.3817943675598
 20
634.4106283681202
 30
0.0
 10
-190.3817509437933
 20
634.4105999508249
 30
0.0
 10
-190.3817066909893
 20
634.4105724103954
 30
0.0
 10
-190.3816607197414
 20
634.4105445499748
 30
0.0
 10
-190.3816135508988
 20
634.4105159808782
 30
0.0
 10
-190.3815640231717
 20
634.4104867132696
 30
0.0
 10
-190.3815130019221
 20
634.4104580547009
 30
0.0
 10
-190.3814576097905
 20
634.4104292499716
 30
0.0
 10
-190.3813983127409
 20
634.410401739518
 30
0.0
 10
-190.3813347068148
 20
634.4103755850779
 30
0.0
 10
-190.3812696293882
 20
634.4103518858839
 30
0.0
 10
-190.3811997131534
 20
634.4103293281568
 30
0.0
 10
-190.3811254506189
 20
634.4103082608027
 30
0.0
 10
-190.3810471721608
 20
634.4102884247148
 30
0.0
 10
-190.3809687064768
 20
634.4102700491627
 30
0.0
 10
-190.3808910550928
 20
634.4102526045382
 30
0.0
 10
-190.38081422114
 20
634.4102353445951
 30
0.0
 10
-190.3807384250699
 20
634.4102188579653
 30
0.0
 10
-190.3806627503032
 20
634.4102034630863
 30
0.0
 10
-190.3805832417399
 20
634.4101889144588
 30
0.0
 10
-190.3804994505091
 20
634.4101760003514
 30
0.0
 10
-190.3804107872716
 20
634.4101648060549
 30
0.0
 10
-190.3803212342685
 20
634.4101557574672
 30
0.0
 10
-190.3802266804812
 20
634.410148355613
 30
0.0
 10
-190.3801278019074
 20
634.4101427400794
 30
0.0
 10
-190.3800272461785
 20
634.4101387633849
 30
0.0
 10
-190.3799292486875
 20
634.4101359862942
 30
0.0
 10
-190.37983853039
 20
634.4101339104806
 30
0.0
 10
-190.3797525085121
 20
634.4101319535911
 30
0.0
 10
-190.3796726275183
 20
634.4101304396918
 30
0.0
 10
-190.3795941891827
 20
634.410129521096
 30
0.0
 10
-190.3793620554962
 20
634.4101289918715
 30
0.0
 10
-190.3789747965577
 20
634.4101459227292
 30
0.0
 10
-190.378614835615
 20
634.4101804421095
 30
0.0
 10
-190.378434859708
 20
634.410197701362
 30
0.0
 11
-190.382161149927
 21
634.411022601514
 31
0.0
 11
-190.3820167125315
 21
634.410824400708
 31
0.0
 11
-190.3818363273663
 21
634.4106584703031
 31
0.0
 11
-190.3817941927459
 21
634.4106286213319
 31
0.0
 11
-190.3817510416891
 21
634.4106002476627
 31
0.0
 11
-190.3817066361435
 21
634.4105724979455
 31
0.0
 11
-190.3816619095248
 21
634.4105452736358
 31
0.0
 11
-190.3816134986479
 21
634.4105160688388
 31
0.0
 11
-190.3815647719026
 21
634.4104873898125
 31
0.0
 11
-190.3815128465477
 21
634.4104583342921
 31
0.0
 11
-190.3814600177239
 21
634.4104309720624
 31
0.0
 11
-190.3813981157021
 21
634.4104022032255
 31
0.0
 11
-190.38133498901
 21
634.4103761987456
 31
0.0
 11
-190.3812694882887
 21
634.4103522939176
 31
0.0
 11
-190.381203149425
 21
634.4103308400381
 31
0.0
 11
-190.3811253558015
 21
634.4103086297382
 31
0.0
 11
-190.3810469584484
 21
634.4102886236545
 31
0.0
 11
-190.3809686787495
 21
634.4102701673445
 31
0.0
 11
-190.3808902379828
 21
634.4102524211522
 31
0.0
 11
-190.3808142023387
 21
634.410235430797
 31
0.0
 11
-190.3807380516639
 21
634.4102189570905
 31
0.0
 11
-190.3806627003915
 21
634.4102037107468
 31
0.0
 11
-190.3805870672904
 21
634.4101899538339
 31
0.0
 11
-190.3804993972645
 21
634.4101764009354
 31
0.0
 11
-190.3804113828437
 21
634.4101652482491
 31
0.0
 11
-190.3803212032983
 21
634.4101560971541
 31
0.0
 11
-190.380230842598
 21
634.4101489845295
 31
0.0
 11
-190.38012778931
 21
634.4101430358239
 31
0.0
 11
-190.3800246459193
 21
634.4101388608758
 31
0.0
 11
-190.3799292462492
 21
634.4101360729967
 31
0.0
 11
-190.3798338339025
 21
634.4101338053032
 31
0.0
 11
-190.3797525075422
 21
634.410132005036
 31
0.0
 11
-190.3796711744413
 21
634.410130513018
 31
0.0
 11
-190.3795941875989
 21
634.4101296421017
 31
0.0
 11
-190.3795171982106
 21
634.4101294922999
 31
0.0
 11
-190.3789751961737
 21
634.4101506009922
 31
0.0
 11
-190.378434859708
 21
634.410197701362
 31
0.0
  0
LWPOLYLINE
  5
2CD
330
1F
100
AcDbEntity
  8
100
  6
Continuous
 62
     3
100
AcDbPolyline
 90
        5
 70
     0
 43
0.0
 10
76.809459894697
 20
663.5905455864
 10
76.7135259739006
 20
665.094465210626
 10
76.3831028944125
 20
666.595470279907
 10
75.8155656410822
 20
668.065174491577
 10
75.1186428481143
 20
669.284996291221
  0
LWPOLYLINE
  5
2CE
330
1F
100
AcDbEntity
  8
100
  6
Continuous
 62
     3
100
AcDbPolyline
 90
        4
 70
     0
 43
0.0
 10
75.9770054423471
 20
669.440786633116
 10
76.2828452310974
 20
669.085292696499
 10
76.6606808008941
 20
668.815789294966
 10
77.088927397943
 20
668.647672286226
  0
LWPOLYLINE
  5
2CF
330
1F
100
AcDbEntity
  8
100
  6
Continuous
 62
     3
100
AcDbPolyline
 90
        4
 70
     0
 43
0.0
 10
75.1186428481143
 20
669.284996291221
 10
68.7300282653904
 20
675.766855312285
 10
67.2165831222431
 20
677.045137075154
 10
65.6392984798961
 20
678.156438031061
  0
LWPOLYLINE
  5
2D0
330
1F
100
AcDbEntity
  8
100
  6
Continuous
 62
     3
100
AcDbPolyline
 90
        4
 70
     0
 43
0.0
 10
69.9825179028435
 20
652.685016927624
 10
70.5664361743659
 20
653.305535866358
 10
71.0373466222127
 20
653.749273931716
 10
71.3515605503055
 20
654.002948113547
  0
LWPOLYLINE
  5
2D1
330
1F
100
AcDbEntity
  8
100
  6
Continuous
 62
     3
100
AcDbPolyline
 90
        8
 70
     0
 43
0.0
 10
71.3516074816046
 20
654.002873762848
 10
71.6713604919933
 20
654.240309596484
 10
73.389194690198
 20
655.732632275029
 10
74.7075578468128
 20
657.268341408057
 10
75.6670750643738
 20
658.815640424268
 10
76.3193517761111
 20
660.381576129829
 10
76.6983486300859
 20
661.982965216622
 10
76.809459894697
 20
663.5905455864
  0
LWPOLYLINE
  5
2D2
330
1F
100
AcDbEntity
  8
100
  6
Continuous
 62
     3
100
AcDbPolyline
 90
        4
 70
     0
 43
0.0
 10
65.6392320478973
 20
678.15648087996
 10
63.5885913892493
 20
679.345432298808
 10
61.1223189285153
 20
680.479845579781
 10
54.4060472613182
 20
682.8405452245
  0
LWPOLYLINE
  5
2D3
330
1F
100
AcDbEntity
  8
4
  6
PHANTOM
 62
     3
100
AcDbPolyline
 90
        3
 70
     0
 43
0.0
 10
80.9059514559829
 20
667.644003941695
 10
80.9051587416979
 20
667.643449947905
 10
80.9049145885025
 20
667.642881466416
  0
LWPOLYLINE
  5
2D4
330
1F
100
AcDbEntity
  8
100
  6
Continuous
 62
     3
100
AcDbPolyline
 90
        4
 70
     0
 43
0.0
 10
65.6393158530957
 20
649.024664347639
 10
67.2165791217432
 20
650.135951019446
 10
68.7267039123528
 20
651.411150892373
 10
69.9824644971445
 20
652.684957552725
  0
LWPOLYLINE
  5
2D5
330
1F
100
AcDbEntity
  8
100
  6
Continuous
 62
     3
100
AcDbPolyline
 90
        5
 70
     0
 43
0.0
 10
71.2255542261334
 20
673.234906131209
 10
72.028292287983
 20
672.814773539385
 10
73.6247321850699
 20
671.784339859057
 10
74.925468550516
 20
670.658473864323
 10
75.977012758947
 20
669.440791821515
  0
LWPOLYLINE
  5
2D6
330
1F
100
AcDbEntity
  8
100
  6
Continuous
 62
     3
100
AcDbPolyline
 90
        5
 70
     0
 43
0.0
 10
53.153344701041
 20
644.354478848286
 10
58.3634852002813
 20
645.731544228149
 10
61.1223189285153
 20
646.701245592919
 10
63.5885913892493
 20
647.835658873892
 10
65.6392320478973
 20
649.02461029284
  0
LWPOLYLINE
  5
2D7
330
1F
100
AcDbEntity
  8
100
  6
Continuous
 62
     3
100
AcDbPolyline
 90
        4
 70
     0
 43
0.0
 10
73.5205946006277
 20
501.537046846206
 10
72.8331666583513
 20
503.785070416743
 10
71.8840197776953
 20
506.092396152365
 10
70.8009196618576
 20
508.155582496477
  0
LEADER
  5
2D8
330
1F
100
AcDbEntity
  8
1
  6
Continuous
 62
     4
100
AcDbLeader
  3
Standard
 71
     0
 76
     3
 10
-229.310832626562
 20
676.69054534012
 30
0.0
 10
-241.310832626562
 20
691.463568218428
 30
0.0
 10
-278.984432384349
 20
691.463568218428
 30
0.0
  0
LEADER
  5
2D9
330
1F
100
AcDbEntity
  8
1
  6
Continuous
 62
     4
100
AcDbLeader
  3
Standard
 71
     0
 76
     3
 10
93.0749693484576
 20
650.49054583268
 30
0.0
 10
107.822708133801
 20
624.946712959712
 30
0.0
 10
146.958929031066
 20
624.946712959712
 30
0.0
  0
ENDSEC
  0
SECTION
  2
OBJECTS
  0
DICTIONARY
  5
C
330
0
100
AcDbDictionary
281
     1
  3
ACAD_GROUP
350
D
  3
ACAD_LAYOUT
350
1A
  3
ACAD_MATERIAL
350
3B
  3
ACAD_MLEADERSTYLE
350
2DC
  3
ACAD_MLINESTYLE
350
17
  3
ACAD_PLOTSETTINGS
350
19
  3
ACAD_PLOTSTYLENAME
350
E
  3
ACAD_VISUALSTYLE
350
2A
  3
AcDbVariableDictionary
350
2DA
  0
DICTIONARY
  5
D
102
{ACAD_REACTORS
330
C
102
}
330
C
100
AcDbDictionary
281
     1
  0
DICTIONARY
  5
1A
102
{ACAD_REACTORS
330
C
102
}
330
C
100
AcDbDictionary
281
     1
  3
Layout1
350
1E
  3
Layout2
350
26
  3
Model
350
22
  0
DICTIONARY
  5
3B
102
{ACAD_REACTORS
330
C
102
}
330
C
100
AcDbDictionary
281
     1
  3
ByBlock
350
3D
  3
ByLayer
350
3C
  3
Global
350
3E
  0
DICTIONARY
  5
2DC
102
{ACAD_REACTORS
330
C
102
}
330
C
100
AcDbDictionary
281
     1
  0
DICTIONARY
  5
17
102
{ACAD_REACTORS
330
C
102
}
330
C
100
AcDbDictionary
281
     1
  3
Standard
350
18
  0
DICTIONARY
  5
19
102
{ACAD_REACTORS
330
C
102
}
330
C
100
AcDbDictionary
281
     1
  0
ACDBDICTIONARYWDFLT
  5
E
102
{ACAD_REACTORS
330
C
102
}
330
C
100
AcDbDictionary
281
     1
  3
Normal
350
F
100
AcDbDictionaryWithDefault
340
F
  0
DICTIONARY
  5
2A
102
{ACAD_REACTORS
330
C
102
}
330
C
100
AcDbDictionary
281
     1
  3
2dWireframe
350
2F
  3
3D Hidden
350
31
  3
3dWireframe
350
30
  3
Basic
350
32
  3
Brighten
350
36
  3
ColorChange
350
3A
  3
Conceptual
350
34
  3
Dim
350
35
  3
Facepattern
350
39
  3
Flat
350
2B
  3
FlatWithEdges
350
2C
  3
Gouraud
350
2D
  3
GouraudWithEdges
350
2E
  3
Linepattern
350
38
  3
Realistic
350
33
  3
Thicken
350
37
  0
DICTIONARY
  5
2DA
102
{ACAD_REACTORS
330
C
102
}
330
C
100
AcDbDictionary
281
     1
  3
DIMASSOC
350
2DD
  3
HIDETEXT
350
2DE
  0
LAYOUT
  5
1E
102
{ACAD_REACTORS
330
1A
102
}
330
1A
100
AcDbPlotSettings
  1

  2
none_device
  4

  6

 40
0.0
 41
0.0
 42
0.0
 43
0.0
 44
0.0
 45
0.0
 46
0.0
 47
0.0
 48
0.0
 49
0.0
140
0.0
141
0.0
142
1.0
143
1.0
 70
   688
 72
     0
 73
     0
 74
     5
  7

 75
    16
147
1.0
148
0.0
149
0.0
100
AcDbLayout
  1
Layout1
 70
     1
 71
     1
 10
0.0
 20
0.0
 11
12.0
 21
9.0
 12
0.0
 22
0.0
 32
0.0
 14
1.00000000000000E+20
 24
1.00000000000000E+20
 34
1.00000000000000E+20
 15
-1.00000000000000E+20
 25
-1.00000000000000E+20
 35
-1.00000000000000E+20
146
0.0
 13
0.0
 23
0.0
 33
0.0
 16
1.0
 26
0.0
 36
0.0
 17
0.0
 27
1.0
 37
0.0
 76
     0
330
1B
  0
LAYOUT
  5
26
102
{ACAD_REACTORS
330
1A
102
}
330
1A
100
AcDbPlotSettings
  1

  2
none_device
  4

  6

 40
0.0
 41
0.0
 42
0.0
 43
0.0
 44
0.0
 45
0.0
 46
0.0
 47
0.0
 48
0.0
 49
0.0
140
0.0
141
0.0
142
1.0
143
1.0
 70
   688
 72
     0
 73
     0
 74
     5
  7

 75
    16
147
1.0
148
0.0
149
0.0
100
AcDbLayout
  1
Layout2
 70
     1
 71
     2
 10
0.0
 20
0.0
 11
0.0
 21
0.0
 12
0.0
 22
0.0
 32
0.0
 14
0.0
 24
0.0
 34
0.0
 15
0.0
 25
0.0
 35
0.0
146
0.0
 13
0.0
 23
0.0
 33
0.0
 16
1.0
 26
0.0
 36
0.0
 17
0.0
 27
1.0
 37
0.0
 76
     0
330
23
  0
LAYOUT
  5
22
102
{ACAD_REACTORS
330
1A
102
}
330
1A
100
AcDbPlotSettings
  1

  2
none_device
  4

  6

 40
0.0
 41
0.0
 42
0.0
 43
0.0
 44
0.0
 45
0.0
 46
0.0
 47
0.0
 48
0.0
 49
0.0
140
0.0
141
0.0
142
1.0
143
1.0
 70
  1712
 72
     0
 73
     0
 74
     0
  7

 75
     0
147
1.0
148
0.0
149
0.0
100
AcDbLayout
  1
Model
 70
     1
 71
     0
 10
0.0
 20
0.0
 11
12.0
 21
9.0
 12
0.0
 22
0.0
 32
0.0
 14
-278.984432384349
 24
427.27335274227
 34
0.0
 15
249.256218121702
 25
704.556177153769
 35
0.0
146
0.0
 13
0.0
 23
0.0
 33
0.0
 16
1.0
 26
0.0
 36
0.0
 17
0.0
 27
1.0
 37
0.0
 76
     0
330
1F
331
29
  0
MATERIAL
  5
3D
102
{ACAD_REACTORS
330
3B
102
}
102
{ACAD_XDICTIONARY
360
301
102
}
330
3B
100
AcDbMaterial
  1
ByBlock
  0
MATERIAL
  5
3C
102
{ACAD_REACTORS
330
3B
102
}
102
{ACAD_XDICTIONARY
360
2FF
102
}
330
3B
100
AcDbMaterial
  1
ByLayer
  0
MATERIAL
  5
3E
102
{ACAD_REACTORS
330
3B
102
}
102
{ACAD_XDICTIONARY
360
303
102
}
330
3B
100
AcDbMaterial
  1
Global
  0
MLINESTYLE
  5
18
102
{ACAD_REACTORS
330
17
102
}
330
17
100
AcDbMlineStyle
  2
Standard
 70
     0
  3

 62
   256
 51
90.0
 52
90.0
 71
     2
 49
0.5
 62
   256
  6
BYLAYER
 49
-0.5
 62
   256
  6
BYLAYER
  0
ACDBPLACEHOLDER
  5
F
102
{ACAD_REACTORS
330
E
102
}
330
E
  0
VISUALSTYLE
  5
2F
102
{ACAD_REACTORS
330
2A
102
}
102
{ACAD_XDICTIONARY
360
2E7
102
}
330
2A
100
AcDbVisualStyle
  2
2dWireframe
 70
     4
 71
     0
 72
     2
 73
     0
 90
        0
 40
-0.6
 41
-30.0
 62
     5
 63
     7
 74
     1
 91
        4
 64
     7
 65
   257
 75
     1
175
     1
 42
1.0
 92
        0
 66
   257
 43
1.0
 76
     1
 77
     6
 78
     2
 67
     7
 79
     5
170
     0
171
     0
290
     0
174
     0
 93
        1
 44
0.0
173
     0
291
     0
 45
0.0
1001
ACAD
1000
AcDbSavedByObjectVersion
1070
     0
  0
VISUALSTYLE
  5
31
102
{ACAD_REACTORS
330
2A
102
}
102
{ACAD_XDICTIONARY
360
2EB
102
}
330
2A
100
AcDbVisualStyle
  2
3D Hidden
 70
     6
 71
     1
 72
     2
 73
     2
 90
        0
 40
-0.6
 41
-30.0
 62
     5
 63
     7
 74
     2
 91
        2
 64
     7
 65
   257
 75
     2
175
     1
 42
40.0
 92
        0
 66
   257
 43
1.0
 76
     1
 77
     6
 78
     2
 67
     7
 79
     3
170
     0
171
     0
290
     0
174
     0
 93
        1
 44
0.0
173
     0
291
     0
 45
0.0
1001
ACAD
1000
AcDbSavedByObjectVersion
1070
     0
  0
VISUALSTYLE
  5
30
102
{ACAD_REACTORS
330
2A
102
}
102
{ACAD_XDICTIONARY
360
2E9
102
}
330
2A
100
AcDbVisualStyle
  2
3dWireframe
 70
     5
 71
     0
 72
     2
 73
     0
 90
        0
 40
-0.6
 41
-30.0
 62
     5
 63
     7
 74
     1
 91
        4
 64
     7
 65
   257
 75
     1
175
     1
 42
1.0
 92
        0
 66
   257
 43
1.0
 76
     1
 77
     6
 78
     2
 67
     7
 79
     5
170
     0
171
     0
290
     0
174
     0
 93
        1
 44
0.0
173
     0
291
     0
 45
0.0
1001
ACAD
1000
AcDbSavedByObjectVersion
1070
     0
  0
VISUALSTYLE
  5
32
102
{ACAD_REACTORS
330
2A
102
}
102
{ACAD_XDICTIONARY
360
2ED
102
}
330
2A
100
AcDbVisualStyle
  2
Basic
 70
     7
 71
     1
 72
     0
 73
     1
 90
        0
 40
-0.6
 41
-30.0
 62
     5
 63
     7
 74
     0
 91
        4
 64
     7
 65
   257
 75
     1
175
     1
 42
1.0
 92
        8
 66
     7
 43
1.0
 76
     1
 77
     6
 78
     2
 67
     7
 79
     5
170
     0
171
     0
290
     0
174
     0
 93
        1
 44
0.0
173
     0
291
     1
 45
0.0
1001
ACAD
1000
AcDbSavedByObjectVersion
1070
     0
  0
VISUALSTYLE
  5
36
102
{ACAD_REACTORS
330
2A
102
}
102
{ACAD_XDICTIONARY
360
2F5
102
}
330
2A
100
AcDbVisualStyle
  2
Brighten
 70
    12
 71
     2
 72
     2
 73
     0
 90
        0
 40
-0.6
 41
-30.0
 62
     5
 63
     7
 74
     1
 91
        4
 64
     7
 65
   257
 75
     1
175
     1
 42
1.0
 92
        8
 66
     7
 43
1.0
 76
     1
 77
     6
 78
     2
 67
     7
 79
     5
170
     0
171
     0
290
     0
174
     0
 93
        1
 44
50.0
173
     0
291
     1
 45
0.0
1001
ACAD
1000
AcDbSavedByObjectVersion
1070
     0
  0
VISUALSTYLE
  5
3A
102
{ACAD_REACTORS
330
2A
102
}
102
{ACAD_XDICTIONARY
360
2FD
102
}
330
2A
100
AcDbVisualStyle
  2
ColorChange
 70
    16
 71
     2
 72
     2
 73
     3
 90
        0
 40
-0.6
 41
-30.0
 62
     5
 63
     8
 74
     1
 91
        4
 64
     7
 65
   257
 75
     1
175
     1
 42
1.0
 92
        8
 66
     8
 43
1.0
 76
     1
 77
     6
 78
     2
 67
     7
 79
     5
170
     0
171
     0
290
     0
174
     0
 93
        1
 44
0.0
173
     0
291
     1
 45
0.0
1001
ACAD
1000
AcDbSavedByObjectVersion
1070
     0
  0
VISUALSTYLE
  5
34
102
{ACAD_REACTORS
330
2A
102
}
102
{ACAD_XDICTIONARY
360
2F1
102
}
330
2A
100
AcDbVisualStyle
  2
Conceptual
 70
     9
 71
     3
 72
     2
 73
     0
 90
        0
 40
-0.6
 41
-30.0
 62
     5
 63
     7
 74
     2
 91
        2
 64
     7
 65
   257
 75
     1
175
     1
 42
40.0
 92
        8
 66
     7
 43
1.0
 76
     1
 77
     6
 78
     2
 67
     7
 79
     3
170
     0
171
     0
290
     0
174
     0
 93
        1
 44
0.0
173
     0
291
     0
 45
0.0
1001
ACAD
1000
AcDbSavedByObjectVersion
1070
     0
  0
VISUALSTYLE
  5
35
102
{ACAD_REACTORS
330
2A
102
}
102
{ACAD_XDICTIONARY
360
2F3
102
}
330
2A
100
AcDbVisualStyle
  2
Dim
 70
    11
 71
     2
 72
     2
 73
     0
 90
        0
 40
-0.6
 41
-30.0
 62
     5
 63
     7
 74
     1
 91
        4
 64
     7
 65
   257
 75
     1
175
     1
 42
1.0
 92
        8
 66
     7
 43
1.0
 76
     1
 77
     6
 78
     2
 67
     7
 79
     5
170
     0
171
     0
290
     0
174
     0
 93
        1
 44
-50.0
173
     0
291
     1
 45
0.0
1001
ACAD
1000
AcDbSavedByObjectVersion
1070
     0
  0
VISUALSTYLE
  5
39
102
{ACAD_REACTORS
330
2A
102
}
102
{ACAD_XDICTIONARY
360
2FB
102
}
330
2A
100
AcDbVisualStyle
  2
Facepattern
 70
    15
 71
     2
 72
     2
 73
     0
 90
        0
 40
-0.6
 41
-30.0
 62
     5
 63
     7
 74
     1
 91
        4
 64
     7
 65
   257
 75
     1
175
     1
 42
1.0
 92
        8
 66
     7
 43
1.0
 76
     1
 77
     6
 78
     2
 67
     7
 79
     5
170
     0
171
     0
290
     0
174
     0
 93
        1
 44
0.0
173
     0
291
     1
 45
0.0
1001
ACAD
1000
AcDbSavedByObjectVersion
1070
     0
  0
VISUALSTYLE
  5
2B
102
{ACAD_REACTORS
330
2A
102
}
102
{ACAD_XDICTIONARY
360
2DF
102
}
330
2A
100
AcDbVisualStyle
  2
Flat
 70
     0
 71
     2
 72
     1
 73
     1
 90
        2
 40
-0.6
 41
30.0
 62
     5
 63
     7
 74
     0
 91
        4
 64
     7
 65
   257
 75
     1
175
     1
 42
1.0
 92
        8
 66
     7
 43
1.0
 76
     1
 77
     6
 78
     2
 67
     7
 79
     5
170
     0
171
     0
290
     0
174
     0
 93
       13
 44
0.0
173
     0
291
     1
 45
0.0
1001
ACAD
1000
AcDbSavedByObjectVersion
1070
     0
  0
VISUALSTYLE
  5
2C
102
{ACAD_REACTORS
330
2A
102
}
102
{ACAD_XDICTIONARY
360
2E1
102
}
330
2A
100
AcDbVisualStyle
  2
FlatWithEdges
 70
     1
 71
     2
 72
     1
 73
     1
 90
        2
 40
-0.6
 41
30.0
 62
     5
 63
     7
 74
     1
 91
        4
 64
     7
 65
   257
 75
     1
175
     1
 42
1.0
 92
        0
 66
   257
 43
1.0
 76
     1
 77
     6
 78
     2
 67
     7
 79
     5
170
     0
171
     0
290
     0
174
     0
 93
       13
 44
0.0
173
     0
291
     1
 45
0.0
1001
ACAD
1000
AcDbSavedByObjectVersion
1070
     0
  0
VISUALSTYLE
  5
2D
102
{ACAD_REACTORS
330
2A
102
}
102
{ACAD_XDICTIONARY
360
2E3
102
}
330
2A
100
AcDbVisualStyle
  2
Gouraud
 70
     2
 71
     2
 72
     2
 73
     1
 90
        2
 40
-0.6
 41
30.0
 62
     5
 63
     7
 74
     0
 91
        4
 64
     7
 65
   257
 75
     1
175
     1
 42
1.0
 92
        0
 66
     7
 43
1.0
 76
     1
 77
     6
 78
     2
 67
     7
 79
     5
170
     0
171
     0
290
     0
174
     0
 93
       13
 44
0.0
173
     0
291
     1
 45
0.0
1001
ACAD
1000
AcDbSavedByObjectVersion
1070
     0
  0
VISUALSTYLE
  5
2E
102
{ACAD_REACTORS
330
2A
102
}
102
{ACAD_XDICTIONARY
360
2E5
102
}
330
2A
100
AcDbVisualStyle
  2
GouraudWithEdges
 70
     3
 71
     2
 72
     2
 73
     1
 90
        2
 40
-0.6
 41
30.0
 62
     5
 63
     7
 74
     1
 91
        4
 64
     7
 65
   257
 75
     1
175
     1
 42
1.0
 92
        0
 66
   257
 43
1.0
 76
     1
 77
     6
 78
     2
 67
     7
 79
     5
170
     0
171
     0
290
     0
174
     0
 93
       13
 44
0.0
173
     0
291
     1
 45
0.0
1001
ACAD
1000
AcDbSavedByObjectVersion
1070
     0
  0
VISUALSTYLE
  5
38
102
{ACAD_REACTORS
330
2A
102
}
102
{ACAD_XDICTIONARY
360
2F9
102
}
330
2A
100
AcDbVisualStyle
  2
Linepattern
 70
    14
 71
     2
 72
     2
 73
     0
 90
        0
 40
-0.6
 41
-30.0
 62
     5
 63
     7
 74
     1
 91
        4
 64
     7
 65
   257
 75
     7
175
     7
 42
1.0
 92
        8
 66
     7
 43
1.0
 76
     1
 77
     6
 78
     2
 67
     7
 79
     5
170
     0
171
     0
290
     0
174
     0
 93
        1
 44
0.0
173
     0
291
     1
 45
0.0
1001
ACAD
1000
AcDbSavedByObjectVersion
1070
     0
  0
VISUALSTYLE
  5
33
102
{ACAD_REACTORS
330
2A
102
}
102
{ACAD_XDICTIONARY
360
2EF
102
}
330
2A
100
AcDbVisualStyle
  2
Realistic
 70
     8
 71
     2
 72
     2
 73
     0
 90
        0
 40
-0.6
 41
-30.0
 62
     5
 63
     7
 74
     1
 91
        0
 64
     7
 65
   257
 75
     1
175
     1
 42
1.0
 92
        8
 66
     8
 43
1.0
 76
     1
 77
     6
 78
     2
 67
     7
 79
     5
170
     0
171
     0
290
     0
174
     0
 93
       13
 44
0.0
173
     0
291
     0
 45
0.0
1001
ACAD
1000
AcDbSavedByObjectVersion
1070
     0
  0
VISUALSTYLE
  5
37
102
{ACAD_REACTORS
330
2A
102
}
102
{ACAD_XDICTIONARY
360
2F7
102
}
330
2A
100
AcDbVisualStyle
  2
Thicken
 70
    13
 71
     2
 72
     2
 73
     0
 90
        0
 40
-0.6
 41
-30.0
 62
     5
 63
     7
 74
     1
 91
        4
 64
     7
 65
   257
 75
     1
175
     1
 42
1.0
 92
       12
 66
     7
 43
1.0
 76
     1
 77
     6
 78
     2
 67
     7
 79
     5
170
     0
171
     0
290
     0
174
     0
 93
        1
 44
0.0
173
     0
291
     1
 45
0.0
1001
ACAD
1000
AcDbSavedByObjectVersion
1070
     0
  0
DICTIONARYVAR
  5
2DD
102
{ACAD_REACTORS
330
2DA
102
}
330
2DA
100
DictionaryVariables
280
     0
  1
2
  0
DICTIONARYVAR
  5
2DE
102
{ACAD_REACTORS
330
2DA
102
}
330
2DA
100
DictionaryVariables
280
     0
  1
1
  0
DICTIONARY
  5
301
330
3D
100
AcDbDictionary
280
     1
281
     1
  3
ACAD_XREC_ROUNDTRIP
360
302
  0
DICTIONARY
  5
2FF
330
3C
100
AcDbDictionary
280
     1
281
     1
  3
ACAD_XREC_ROUNDTRIP
360
300
  0
DICTIONARY
  5
303
330
3E
100
AcDbDictionary
280
     1
281
     1
  3
ACAD_XREC_ROUNDTRIP
360
304
  0
DICTIONARY
  5
2E7
330
2F
100
AcDbDictionary
280
     1
281
     1
  3
ACAD_XREC_ROUNDTRIP
360
2E8
  0
DICTIONARY
  5
2EB
330
31
100
AcDbDictionary
280
     1
281
     1
  3
ACAD_XREC_ROUNDTRIP
360
2EC
  0
DICTIONARY
  5
2E9
330
30
100
AcDbDictionary
280
     1
281
     1
  3
ACAD_XREC_ROUNDTRIP
360
2EA
  0
DICTIONARY
  5
2ED
330
32
100
AcDbDictionary
280
     1
281
     1
  3
ACAD_XREC_ROUNDTRIP
360
2EE
  0
DICTIONARY
  5
2F5
330
36
100
AcDbDictionary
280
     1
281
     1
  3
ACAD_XREC_ROUNDTRIP
360
2F6
  0
DICTIONARY
  5
2FD
330
3A
100
AcDbDictionary
280
     1
281
     1
  3
ACAD_XREC_ROUNDTRIP
360
2FE
  0
DICTIONARY
  5
2F1
330
34
100
AcDbDictionary
280
     1
281
     1
  3
ACAD_XREC_ROUNDTRIP
360
2F2
  0
DICTIONARY
  5
2F3
330
35
100
AcDbDictionary
280
     1
281
     1
  3
ACAD_XREC_ROUNDTRIP
360
2F4
  0
DICTIONARY
  5
2FB
330
39
100
AcDbDictionary
280
     1
281
     1
  3
ACAD_XREC_ROUNDTRIP
360
2FC
  0
DICTIONARY
  5
2DF
330
2B
100
AcDbDictionary
280
     1
281
     1
  3
ACAD_XREC_ROUNDTRIP
360
2E0
  0
DICTIONARY
  5
2E1
330
2C
100
AcDbDictionary
280
     1
281
     1
  3
ACAD_XREC_ROUNDTRIP
360
2E2
  0
DICTIONARY
  5
2E3
330
2D
100
AcDbDictionary
280
     1
281
     1
  3
ACAD_XREC_ROUNDTRIP
360
2E4
  0
DICTIONARY
  5
2E5
330
2E
100
AcDbDictionary
280
     1
281
     1
  3
ACAD_XREC_ROUNDTRIP
360
2E6
  0
DICTIONARY
  5
2F9
330
38
100
AcDbDictionary
280
     1
281
     1
  3
ACAD_XREC_ROUNDTRIP
360
2FA
  0
DICTIONARY
  5
2EF
330
33
100
AcDbDictionary
280
     1
281
     1
  3
ACAD_XREC_ROUNDTRIP
360
2F0
  0
DICTIONARY
  5
2F7
330
37
100
AcDbDictionary
280
     1
281
     1
  3
ACAD_XREC_ROUNDTRIP
360
2F8
  0
XRECORD
  5
302
102
{ACAD_REACTORS
330
301
102
}
330
301
100
AcDbXrecord
280
     1
102
MATERIAL
148
0.0
149
0.0
149
0.0
 93
        0
 94
      127
282
     0
 72
     1
 77
     1
171
     1
175
     1
179
     1
273
     0
  0
XRECORD
  5
300
102
{ACAD_REACTORS
330
2FF
102
}
330
2FF
100
AcDbXrecord
280
     1
102
MATERIAL
148
0.0
149
0.0
149
0.0
 93
        0
 94
      127
282
     0
 72
     1
 77
     1
171
     1
175
     1
179
     1
273
     0
  0
XRECORD
  5
304
102
{ACAD_REACTORS
330
303
102
}
330
303
100
AcDbXrecord
280
     1
102
MATERIAL
148
0.0
149
0.0
149
0.0
 93
        0
 94
      127
282
     0
 72
     1
 77
     1
171
     1
175
     1
179
     1
273
     0
  0
XRECORD
  5
2E8
102
{ACAD_REACTORS
330
2E7
102
}
330
2E7
100
AcDbXrecord
280
     1
102
RTVSPropertyOp0
 70
     1
102
RTVSPropertyOp1
 70
     1
102
RTVSPropertyOp2
 70
     1
102
RTVSPropertyOp3
 70
     1
102
RTVSPropertyOp4
 70
     1
102
RTVSPropertyOp5
 70
     1
102
RTVSPropertyOp6
 70
     1
102
RTVSPropertyOp7
 70
     1
102
RTVSPropertyOp8
 70
     1
102
RTVSPropertyOp9
 70
     1
102
RTVSPropertyOp10
 70
     1
102
RTVSPropertyOp11
 70
     1
102
RTVSPropertyOp12
 70
     1
102
RTVSPropertyOp13
 70
     1
102
RTVSPropertyOp14
 70
     1
102
RTVSPropertyOp15
 70
     1
102
RTVSPropertyOp16
 70
     1
102
RTVSPropertyOp17
 70
     1
102
RTVSPropertyOp18
 70
     1
102
RTVSPropertyOp19
 70
     1
102
RTVSPropertyOp20
 70
     1
102
RTVSPropertyOp21
 70
     1
102
RTVSPropertyOp22
 70
     1
102
RTVSPropertyOp23
 70
     1
102
RTVSPropertyOp24
 70
     1
102
RTVSPropertyOp25
 70
     1
102
RTVSPropertyOp26
 70
     1
102
RTVSPropertyOp27
 70
     1
  0
XRECORD
  5
2EC
102
{ACAD_REACTORS
330
2EB
102
}
330
2EB
100
AcDbXrecord
280
     1
102
RTVSPropertyOp0
 70
     1
102
RTVSPropertyOp1
 70
     1
102
RTVSPropertyOp2
 70
     1
102
RTVSPropertyOp3
 70
     1
102
RTVSPropertyOp4
 70
     1
102
RTVSPropertyOp5
 70
     1
102
RTVSPropertyOp6
 70
     1
102
RTVSPropertyOp7
 70
     1
102
RTVSPropertyOp8
 70
     1
102
RTVSPropertyOp9
 70
     1
102
RTVSPropertyOp10
 70
     1
102
RTVSPropertyOp11
 70
     1
102
RTVSPropertyOp12
 70
     1
102
RTVSPropertyOp13
 70
     1
102
RTVSPropertyOp14
 70
     1
102
RTVSPropertyOp15
 70
     1
102
RTVSPropertyOp16
 70
     1
102
RTVSPropertyOp17
 70
     1
102
RTVSPropertyOp18
 70
     1
102
RTVSPropertyOp19
 70
     1
102
RTVSPropertyOp20
 70
     1
102
RTVSPropertyOp21
 70
     1
102
RTVSPropertyOp22
 70
     1
102
RTVSPropertyOp23
 70
     1
102
RTVSPropertyOp24
 70
     1
102
RTVSPropertyOp25
 70
     1
102
RTVSPropertyOp26
 70
     1
102
RTVSPropertyOp27
 70
     1
  0
XRECORD
  5
2EA
102
{ACAD_REACTORS
330
2E9
102
}
330
2E9
100
AcDbXrecord
280
     1
102
RTVSPropertyOp0
 70
     1
102
RTVSPropertyOp1
 70
     1
102
RTVSPropertyOp2
 70
     1
102
RTVSPropertyOp3
 70
     1
102
RTVSPropertyOp4
 70
     1
102
RTVSPropertyOp5
 70
     1
102
RTVSPropertyOp6
 70
     1
102
RTVSPropertyOp7
 70
     1
102
RTVSPropertyOp8
 70
     1
102
RTVSPropertyOp9
 70
     1
102
RTVSPropertyOp10
 70
     1
102
RTVSPropertyOp11
 70
     1
102
RTVSPropertyOp12
 70
     1
102
RTVSPropertyOp13
 70
     1
102
RTVSPropertyOp14
 70
     1
102
RTVSPropertyOp15
 70
     1
102
RTVSPropertyOp16
 70
     1
102
RTVSPropertyOp17
 70
     1
102
RTVSPropertyOp18
 70
     1
102
RTVSPropertyOp19
 70
     1
102
RTVSPropertyOp20
 70
     1
102
RTVSPropertyOp21
 70
     1
102
RTVSPropertyOp22
 70
     1
102
RTVSPropertyOp23
 70
     1
102
RTVSPropertyOp24
 70
     1
102
RTVSPropertyOp25
 70
     1
102
RTVSPropertyOp26
 70
     1
102
RTVSPropertyOp27
 70
     1
  0
XRECORD
  5
2EE
102
{ACAD_REACTORS
330
2ED
102
}
330
2ED
100
AcDbXrecord
280
     1
102
RTVSPropertyOp0
 70
     1
102
RTVSPropertyOp1
 70
     1
102
RTVSPropertyOp2
 70
     1
102
RTVSPropertyOp3
 70
     1
102
RTVSPropertyOp4
 70
     1
102
RTVSPropertyOp5
 70
     1
102
RTVSPropertyOp6
 70
     1
102
RTVSPropertyOp7
 70
     1
102
RTVSPropertyOp8
 70
     1
102
RTVSPropertyOp9
 70
     1
102
RTVSPropertyOp10
 70
     1
102
RTVSPropertyOp11
 70
     1
102
RTVSPropertyOp12
 70
     1
102
RTVSPropertyOp13
 70
     1
102
RTVSPropertyOp14
 70
     1
102
RTVSPropertyOp15
 70
     1
102
RTVSPropertyOp16
 70
     1
102
RTVSPropertyOp17
 70
     1
102
RTVSPropertyOp18
 70
     1
102
RTVSPropertyOp19
 70
     1
102
RTVSPropertyOp20
 70
     1
102
RTVSPropertyOp21
 70
     1
102
RTVSPropertyOp22
 70
     1
102
RTVSPropertyOp23
 70
     1
102
RTVSPropertyOp24
 70
     1
102
RTVSPropertyOp25
 70
     1
102
RTVSPropertyOp26
 70
     1
102
RTVSPropertyOp27
 70
     1
  0
XRECORD
  5
2F6
102
{ACAD_REACTORS
330
2F5
102
}
330
2F5
100
AcDbXrecord
280
     1
102
RTVSPropertyOp0
 70
     1
102
RTVSPropertyOp1
 70
     1
102
RTVSPropertyOp2
 70
     1
102
RTVSPropertyOp3
 70
     1
102
RTVSPropertyOp4
 70
     1
102
RTVSPropertyOp5
 70
     1
102
RTVSPropertyOp6
 70
     1
102
RTVSPropertyOp7
 70
     1
102
RTVSPropertyOp8
 70
     1
102
RTVSPropertyOp9
 70
     1
102
RTVSPropertyOp10
 70
     1
102
RTVSPropertyOp11
 70
     1
102
RTVSPropertyOp12
 70
     1
102
RTVSPropertyOp13
 70
     1
102
RTVSPropertyOp14
 70
     1
102
RTVSPropertyOp15
 70
     1
102
RTVSPropertyOp16
 70
     1
102
RTVSPropertyOp17
 70
     1
102
RTVSPropertyOp18
 70
     1
102
RTVSPropertyOp19
 70
     1
102
RTVSPropertyOp20
 70
     1
102
RTVSPropertyOp21
 70
     1
102
RTVSPropertyOp22
 70
     1
102
RTVSPropertyOp23
 70
     1
102
RTVSPropertyOp24
 70
     1
102
RTVSPropertyOp25
 70
     1
102
RTVSPropertyOp26
 70
     1
102
RTVSPropertyOp27
 70
     1
  0
XRECORD
  5
2FE
102
{ACAD_REACTORS
330
2FD
102
}
330
2FD
100
AcDbXrecord
280
     1
102
RTVSPropertyOp0
 70
     1
102
RTVSPropertyOp1
 70
     1
102
RTVSPropertyOp2
 70
     1
102
RTVSPropertyOp3
 70
     1
102
RTVSPropertyOp4
 70
     1
102
RTVSPropertyOp5
 70
     1
102
RTVSPropertyOp6
 70
     1
102
RTVSPropertyOp7
 70
     1
102
RTVSPropertyOp8
 70
     1
102
RTVSPropertyOp9
 70
     1
102
RTVSPropertyOp10
 70
     1
102
RTVSPropertyOp11
 70
     1
102
RTVSPropertyOp12
 70
     1
102
RTVSPropertyOp13
 70
     1
102
RTVSPropertyOp14
 70
     1
102
RTVSPropertyOp15
 70
     1
102
RTVSPropertyOp16
 70
     1
102
RTVSPropertyOp17
 70
     1
102
RTVSPropertyOp18
 70
     1
102
RTVSPropertyOp19
 70
     1
102
RTVSPropertyOp20
 70
     1
102
RTVSPropertyOp21
 70
     1
102
RTVSPropertyOp22
 70
     1
102
RTVSPropertyOp23
 70
     1
102
RTVSPropertyOp24
 70
     1
102
RTVSPropertyOp25
 70
     1
102
RTVSPropertyOp26
 70
     1
102
RTVSPropertyOp27
 70
     1
  0
XRECORD
  5
2F2
102
{ACAD_REACTORS
330
2F1
102
}
330
2F1
100
AcDbXrecord
280
     1
102
RTVSPropertyOp0
 70
     1
102
RTVSPropertyOp1
 70
     1
102
RTVSPropertyOp2
 70
     1
102
RTVSPropertyOp3
 70
     1
102
RTVSPropertyOp4
 70
     1
102
RTVSPropertyOp5
 70
     1
102
RTVSPropertyOp6
 70
     1
102
RTVSPropertyOp7
 70
     1
102
RTVSPropertyOp8
 70
     1
102
RTVSPropertyOp9
 70
     1
102
RTVSPropertyOp10
 70
     1
102
RTVSPropertyOp11
 70
     1
102
RTVSPropertyOp12
 70
     1
102
RTVSPropertyOp13
 70
     1
102
RTVSPropertyOp14
 70
     1
102
RTVSPropertyOp15
 70
     1
102
RTVSPropertyOp16
 70
     1
102
RTVSPropertyOp17
 70
     1
102
RTVSPropertyOp18
 70
     1
102
RTVSPropertyOp19
 70
     1
102
RTVSPropertyOp20
 70
     1
102
RTVSPropertyOp21
 70
     1
102
RTVSPropertyOp22
 70
     1
102
RTVSPropertyOp23
 70
     1
102
RTVSPropertyOp24
 70
     1
102
RTVSPropertyOp25
 70
     1
102
RTVSPropertyOp26
 70
     1
102
RTVSPropertyOp27
 70
     1
  0
XRECORD
  5
2F4
102
{ACAD_REACTORS
330
2F3
102
}
330
2F3
100
AcDbXrecord
280
     1
102
RTVSPropertyOp0
 70
     1
102
RTVSPropertyOp1
 70
     1
102
RTVSPropertyOp2
 70
     1
102
RTVSPropertyOp3
 70
     1
102
RTVSPropertyOp4
 70
     1
102
RTVSPropertyOp5
 70
     1
102
RTVSPropertyOp6
 70
     1
102
RTVSPropertyOp7
 70
     1
102
RTVSPropertyOp8
 70
     1
102
RTVSPropertyOp9
 70
     1
102
RTVSPropertyOp10
 70
     1
102
RTVSPropertyOp11
 70
     1
102
RTVSPropertyOp12
 70
     1
102
RTVSPropertyOp13
 70
     1
102
RTVSPropertyOp14
 70
     1
102
RTVSPropertyOp15
 70
     1
102
RTVSPropertyOp16
 70
     1
102
RTVSPropertyOp17
 70
     1
102
RTVSPropertyOp18
 70
     1
102
RTVSPropertyOp19
 70
     1
102
RTVSPropertyOp20
 70
     1
102
RTVSPropertyOp21
 70
     1
102
RTVSPropertyOp22
 70
     1
102
RTVSPropertyOp23
 70
     1
102
RTVSPropertyOp24
 70
     1
102
RTVSPropertyOp25
 70
     1
102
RTVSPropertyOp26
 70
     1
102
RTVSPropertyOp27
 70
     1
  0
XRECORD
  5
2FC
102
{ACAD_REACTORS
330
2FB
102
}
330
2FB
100
AcDbXrecord
280
     1
102
RTVSPropertyOp0
 70
     1
102
RTVSPropertyOp1
 70
     1
102
RTVSPropertyOp2
 70
     1
102
RTVSPropertyOp3
 70
     1
102
RTVSPropertyOp4
 70
     1
102
RTVSPropertyOp5
 70
     1
102
RTVSPropertyOp6
 70
     1
102
RTVSPropertyOp7
 70
     1
102
RTVSPropertyOp8
 70
     1
102
RTVSPropertyOp9
 70
     1
102
RTVSPropertyOp10
 70
     1
102
RTVSPropertyOp11
 70
     1
102
RTVSPropertyOp12
 70
     1
102
RTVSPropertyOp13
 70
     1
102
RTVSPropertyOp14
 70
     1
102
RTVSPropertyOp15
 70
     1
102
RTVSPropertyOp16
 70
     1
102
RTVSPropertyOp17
 70
     1
102
RTVSPropertyOp18
 70
     1
102
RTVSPropertyOp19
 70
     1
102
RTVSPropertyOp20
 70
     1
102
RTVSPropertyOp21
 70
     1
102
RTVSPropertyOp22
 70
     1
102
RTVSPropertyOp23
 70
     1
102
RTVSPropertyOp24
 70
     1
102
RTVSPropertyOp25
 70
     1
102
RTVSPropertyOp26
 70
     1
102
RTVSPropertyOp27
 70
     1
  0
XRECORD
  5
2E0
102
{ACAD_REACTORS
330
2DF
102
}
330
2DF
100
AcDbXrecord
280
     1
102
RTVSPropertyOp0
 70
     1
102
RTVSPropertyOp1
 70
     1
102
RTVSPropertyOp2
 70
     1
102
RTVSPropertyOp3
 70
     1
102
RTVSPropertyOp4
 70
     1
102
RTVSPropertyOp5
 70
     1
102
RTVSPropertyOp6
 70
     1
102
RTVSPropertyOp7
 70
     1
102
RTVSPropertyOp8
 70
     1
102
RTVSPropertyOp9
 70
     1
102
RTVSPropertyOp10
 70
     1
102
RTVSPropertyOp11
 70
     1
102
RTVSPropertyOp12
 70
     1
102
RTVSPropertyOp13
 70
     1
102
RTVSPropertyOp14
 70
     1
102
RTVSPropertyOp15
 70
     1
102
RTVSPropertyOp16
 70
     1
102
RTVSPropertyOp17
 70
     1
102
RTVSPropertyOp18
 70
     1
102
RTVSPropertyOp19
 70
     1
102
RTVSPropertyOp20
 70
     1
102
RTVSPropertyOp21
 70
     1
102
RTVSPropertyOp22
 70
     1
102
RTVSPropertyOp23
 70
     1
102
RTVSPropertyOp24
 70
     1
102
RTVSPropertyOp25
 70
     1
102
RTVSPropertyOp26
 70
     1
102
RTVSPropertyOp27
 70
     1
  0
XRECORD
  5
2E2
102
{ACAD_REACTORS
330
2E1
102
}
330
2E1
100
AcDbXrecord
280
     1
102
RTVSPropertyOp0
 70
     1
102
RTVSPropertyOp1
 70
     1
102
RTVSPropertyOp2
 70
     1
102
RTVSPropertyOp3
 70
     1
102
RTVSPropertyOp4
 70
     1
102
RTVSPropertyOp5
 70
     1
102
RTVSPropertyOp6
 70
     1
102
RTVSPropertyOp7
 70
     1
102
RTVSPropertyOp8
 70
     1
102
RTVSPropertyOp9
 70
     1
102
RTVSPropertyOp10
 70
     1
102
RTVSPropertyOp11
 70
     1
102
RTVSPropertyOp12
 70
     1
102
RTVSPropertyOp13
 70
     1
102
RTVSPropertyOp14
 70
     1
102
RTVSPropertyOp15
 70
     1
102
RTVSPropertyOp16
 70
     1
102
RTVSPropertyOp17
 70
     1
102
RTVSPropertyOp18
 70
     1
102
RTVSPropertyOp19
 70
     1
102
RTVSPropertyOp20
 70
     1
102
RTVSPropertyOp21
 70
     1
102
RTVSPropertyOp22
 70
     1
102
RTVSPropertyOp23
 70
     1
102
RTVSPropertyOp24
 70
     1
102
RTVSPropertyOp25
 70
     1
102
RTVSPropertyOp26
 70
     1
102
RTVSPropertyOp27
 70
     1
  0
XRECORD
  5
2E4
102
{ACAD_REACTORS
330
2E3
102
}
330
2E3
100
AcDbXrecord
280
     1
102
RTVSPropertyOp0
 70
     1
102
RTVSPropertyOp1
 70
     1
102
RTVSPropertyOp2
 70
     1
102
RTVSPropertyOp3
 70
     1
102
RTVSPropertyOp4
 70
     1
102
RTVSPropertyOp5
 70
     1
102
RTVSPropertyOp6
 70
     1
102
RTVSPropertyOp7
 70
     1
102
RTVSPropertyOp8
 70
     1
102
RTVSPropertyOp9
 70
     1
102
RTVSPropertyOp10
 70
     1
102
RTVSPropertyOp11
 70
     1
102
RTVSPropertyOp12
 70
     1
102
RTVSPropertyOp13
 70
     1
102
RTVSPropertyOp14
 70
     1
102
RTVSPropertyOp15
 70
     1
102
RTVSPropertyOp16
 70
     1
102
RTVSPropertyOp17
 70
     1
102
RTVSPropertyOp18
 70
     1
102
RTVSPropertyOp19
 70
     1
102
RTVSPropertyOp20
 70
     1
102
RTVSPropertyOp21
 70
     1
102
RTVSPropertyOp22
 70
     1
102
RTVSPropertyOp23
 70
     1
102
RTVSPropertyOp24
 70
     1
102
RTVSPropertyOp25
 70
     1
102
RTVSPropertyOp26
 70
     1
102
RTVSPropertyOp27
 70
     1
  0
XRECORD
  5
2E6
102
{ACAD_REACTORS
330
2E5
102
}
330
2E5
100
AcDbXrecord
280
     1
102
RTVSPropertyOp0
 70
     1
102
RTVSPropertyOp1
 70
     1
102
RTVSPropertyOp2
 70
     1
102
RTVSPropertyOp3
 70
     1
102
RTVSPropertyOp4
 70
     1
102
RTVSPropertyOp5
 70
     1
102
RTVSPropertyOp6
 70
     1
102
RTVSPropertyOp7
 70
     1
102
RTVSPropertyOp8
 70
     1
102
RTVSPropertyOp9
 70
     1
102
RTVSPropertyOp10
 70
     1
102
RTVSPropertyOp11
 70
     1
102
RTVSPropertyOp12
 70
     1
102
RTVSPropertyOp13
 70
     1
102
RTVSPropertyOp14
 70
     1
102
RTVSPropertyOp15
 70
     1
102
RTVSPropertyOp16
 70
     1
102
RTVSPropertyOp17
 70
     1
102
RTVSPropertyOp18
 70
     1
102
RTVSPropertyOp19
 70
     1
102
RTVSPropertyOp20
 70
     1
102
RTVSPropertyOp21
 70
     1
102
RTVSPropertyOp22
 70
     1
102
RTVSPropertyOp23
 70
     1
102
RTVSPropertyOp24
 70
     1
102
RTVSPropertyOp25
 70
     1
102
RTVSPropertyOp26
 70
     1
102
RTVSPropertyOp27
 70
     1
  0
XRECORD
  5
2FA
102
{ACAD_REACTORS
330
2F9
102
}
330
2F9
100
AcDbXrecord
280
     1
102
RTVSPropertyOp0
 70
     1
102
RTVSPropertyOp1
 70
     1
102
RTVSPropertyOp2
 70
     1
102
RTVSPropertyOp3
 70
     1
102
RTVSPropertyOp4
 70
     1
102
RTVSPropertyOp5
 70
     1
102
RTVSPropertyOp6
 70
     1
102
RTVSPropertyOp7
 70
     1
102
RTVSPropertyOp8
 70
     1
102
RTVSPropertyOp9
 70
     1
102
RTVSPropertyOp10
 70
     1
102
RTVSPropertyOp11
 70
     1
102
RTVSPropertyOp12
 70
     1
102
RTVSPropertyOp13
 70
     1
102
RTVSPropertyOp14
 70
     1
102
RTVSPropertyOp15
 70
     1
102
RTVSPropertyOp16
 70
     1
102
RTVSPropertyOp17
 70
     1
102
RTVSPropertyOp18
 70
     1
102
RTVSPropertyOp19
 70
     1
102
RTVSPropertyOp20
 70
     1
102
RTVSPropertyOp21
 70
     1
102
RTVSPropertyOp22
 70
     1
102
RTVSPropertyOp23
 70
     1
102
RTVSPropertyOp24
 70
     1
102
RTVSPropertyOp25
 70
     1
102
RTVSPropertyOp26
 70
     1
102
RTVSPropertyOp27
 70
     1
  0
XRECORD
  5
2F0
102
{ACAD_REACTORS
330
2EF
102
}
330
2EF
100
AcDbXrecord
280
     1
102
RTVSPropertyOp0
 70
     1
102
RTVSPropertyOp1
 70
     1
102
RTVSPropertyOp2
 70
     1
102
RTVSPropertyOp3
 70
     1
102
RTVSPropertyOp4
 70
     1
102
RTVSPropertyOp5
 70
     1
102
RTVSPropertyOp6
 70
     1
102
RTVSPropertyOp7
 70
     1
102
RTVSPropertyOp8
 70
     1
102
RTVSPropertyOp9
 70
     1
102
RTVSPropertyOp10
 70
     1
102
RTVSPropertyOp11
 70
     1
102
RTVSPropertyOp12
 70
     1
102
RTVSPropertyOp13
 70
     1
102
RTVSPropertyOp14
 70
     1
102
RTVSPropertyOp15
 70
     1
102
RTVSPropertyOp16
 70
     1
102
RTVSPropertyOp17
 70
     1
102
RTVSPropertyOp18
 70
     1
102
RTVSPropertyOp19
 70
     1
102
RTVSPropertyOp20
 70
     1
102
RTVSPropertyOp21
 70
     1
102
RTVSPropertyOp22
 70
     1
102
RTVSPropertyOp23
 70
     1
102
RTVSPropertyOp24
 70
     1
102
RTVSPropertyOp25
 70
     1
102
RTVSPropertyOp26
 70
     1
102
RTVSPropertyOp27
 70
     1
  0
XRECORD
  5
2F8
102
{ACAD_REACTORS
330
2F7
102
}
330
2F7
100
AcDbXrecord
280
     1
102
RTVSPropertyOp0
 70
     1
102
RTVSPropertyOp1
 70
     1
102
RTVSPropertyOp2
 70
     1
102
RTVSPropertyOp3
 70
     1
102
RTVSPropertyOp4
 70
     1
102
RTVSPropertyOp5
 70
     1
102
RTVSPropertyOp6
 70
     1
102
RTVSPropertyOp7
 70
     1
102
RTVSPropertyOp8
 70
     1
102
RTVSPropertyOp9
 70
     1
102
RTVSPropertyOp10
 70
     1
102
RTVSPropertyOp11
 70
     1
102
RTVSPropertyOp12
 70
     1
102
RTVSPropertyOp13
 70
     1
102
RTVSPropertyOp14
 70
     1
102
RTVSPropertyOp15
 70
     1
102
RTVSPropertyOp16
 70
     1
102
RTVSPropertyOp17
 70
     1
102
RTVSPropertyOp18
 70
     1
102
RTVSPropertyOp19
 70
     1
102
RTVSPropertyOp20
 70
     1
102
RTVSPropertyOp21
 70
     1
102
RTVSPropertyOp22
 70
     1
102
RTVSPropertyOp23
 70
     1
102
RTVSPropertyOp24
 70
     1
102
RTVSPropertyOp25
 70
     1
102
RTVSPropertyOp26
 70
     1
102
RTVSPropertyOp27
 70
     1
  0
ENDSEC
  0
EOF
