  0
SECTION
  2
HEADER
  9
$ACADVER
  1
AC1015
  9
$ACADMAINTVER
 70
     6
  9
$DWGCODEPAGE
  3
ANSI_932
  9
$INSBASE
 10
0.0
 20
0.0
 30
0.0
  9
$EXTMIN
 10
10.86909053088186
 20
2.52256890013743
 30
0.0
  9
$EXTMAX
 10
230.0818388450359
 20
259.764422971544
 30
0.0
  9
$LIMMIN
 10
0.0
 20
0.0
  9
$LIMMAX
 10
12.0
 20
9.0
  9
$ORTHOMODE
 70
     0
  9
$REGENMODE
 70
     1
  9
$FILLMODE
 70
     1
  9
$QTEXTMODE
 70
     0
  9
$MIRRTEXT
 70
     1
  9
$LTSCALE
 40
1.0
  9
$ATTMODE
 70
     1
  9
$TEXTSIZE
 40
0.2
  9
$TRACEWID
 40
0.05
  9
$TEXTSTYLE
  7
Standard
  9
$CLAYER
  8
0
  9
$CELTYPE
  6
ByLayer
  9
$CECOLOR
 62
   256
  9
$CELTSCALE
 40
1.0
  9
$DISPSILH
 70
     0
  9
$DIMSCALE
 40
1.0
  9
$DIMASZ
 40
0.18
  9
$DIMEXO
 40
0.0625
  9
$DIMDLI
 40
0.38
  9
$DIMRND
 40
0.0
  9
$DIMDLE
 40
0.0
  9
$DIMEXE
 40
0.18
  9
$DIMTP
 40
0.0
  9
$DIMTM
 40
0.0
  9
$DIMTXT
 40
0.18
  9
$DIMCEN
 40
0.09
  9
$DIMTSZ
 40
0.0
  9
$DIMTOL
 70
     0
  9
$DIMLIM
 70
     0
  9
$DIMTIH
 70
     1
  9
$DIMTOH
 70
     1
  9
$DIMSE1
 70
     0
  9
$DIMSE2
 70
     0
  9
$DIMTAD
 70
     0
  9
$DIMZIN
 70
     0
  9
$DIMBLK
  1

  9
$DIMASO
 70
     1
  9
$DIMSHO
 70
     1
  9
$DIMPOST
  1

  9
$DIMAPOST
  1

  9
$DIMALT
 70
     0
  9
$DIMALTD
 70
     2
  9
$DIMALTF
 40
25.4
  9
$DIMLFAC
 40
1.0
  9
$DIMTOFL
 70
     0
  9
$DIMTVP
 40
0.0
  9
$DIMTIX
 70
     0
  9
$DIMSOXD
 70
     0
  9
$DIMSAH
 70
     0
  9
$DIMBLK1
  1

  9
$DIMBLK2
  1

  9
$DIMSTYLE
  2
Standard
  9
$DIMCLRD
 70
     0
  9
$DIMCLRE
 70
     0
  9
$DIMCLRT
 70
     0
  9
$DIMTFAC
 40
1.0
  9
$DIMGAP
 40
0.09
  9
$DIMJUST
 70
     0
  9
$DIMSD1
 70
     0
  9
$DIMSD2
 70
     0
  9
$DIMTOLJ
 70
     1
  9
$DIMTZIN
 70
     0
  9
$DIMALTZ
 70
     0
  9
$DIMALTTZ
 70
     0
  9
$DIMUPT
 70
     0
  9
$DIMDEC
 70
     4
  9
$DIMTDEC
 70
     4
  9
$DIMALTU
 70
     2
  9
$DIMALTTD
 70
     2
  9
$DIMTXSTY
  7
Standard
  9
$DIMAUNIT
 70
     0
  9
$DIMADEC
 70
     0
  9
$DIMALTRND
 40
0.0
  9
$DIMAZIN
 70
     0
  9
$DIMDSEP
 70
    46
  9
$DIMATFIT
 70
     3
  9
$DIMFRAC
 70
     0
  9
$DIMLDRBLK
  1

  9
$DIMLUNIT
 70
     2
  9
$DIMLWD
 70
    -2
  9
$DIMLWE
 70
    -2
  9
$DIMTMOVE
 70
     0
  9
$LUNITS
 70
     2
  9
$LUPREC
 70
     4
  9
$SKETCHINC
 40
0.1
  9
$FILLETRAD
 40
0.5
  9
$AUNITS
 70
     0
  9
$AUPREC
 70
     0
  9
$MENU
  1
.
  9
$ELEVATION
 40
0.0
  9
$PELEVATION
 40
0.0
  9
$THICKNESS
 40
0.0
  9
$LIMCHECK
 70
     0
  9
$CHAMFERA
 40
0.5
  9
$CHAMFERB
 40
0.5
  9
$CHAMFERC
 40
1.0
  9
$CHAMFERD
 40
0.0
  9
$SKPOLY
 70
     0
  9
$TDCREATE
 40
2458179.450510764
  9
$TDUCREATE
 40
2458179.075510764
  9
$TDUPDATE
 40
2458179.450510776
  9
$TDUUPDATE
 40
2458179.075510776
  9
$TDINDWG
 40
0.0000000116
  9
$TDUSRTIMER
 40
0.0000000116
  9
$USRTIMER
 70
     1
  9
$ANGBASE
 50
0.0
  9
$ANGDIR
 70
     0
  9
$PDMODE
 70
     0
  9
$PDSIZE
 40
0.0
  9
$PLINEWID
 40
0.0
  9
$SPLFRAME
 70
     0
  9
$SPLINETYPE
 70
     6
  9
$SPLINESEGS
 70
     8
  9
$HANDSEED
  5
3FD
  9
$SURFTAB1
 70
     6
  9
$SURFTAB2
 70
     6
  9
$SURFTYPE
 70
     6
  9
$SURFU
 70
     6
  9
$SURFV
 70
     6
  9
$UCSBASE
  2

  9
$UCSNAME
  2

  9
$UCSORG
 10
0.0
 20
0.0
 30
0.0
  9
$UCSXDIR
 10
1.0
 20
0.0
 30
0.0
  9
$UCSYDIR
 10
0.0
 20
1.0
 30
0.0
  9
$UCSORTHOREF
  2

  9
$UCSORTHOVIEW
 70
     0
  9
$UCSORGTOP
 10
0.0
 20
0.0
 30
0.0
  9
$UCSORGBOTTOM
 10
0.0
 20
0.0
 30
0.0
  9
$UCSORGLEFT
 10
0.0
 20
0.0
 30
0.0
  9
$UCSORGRIGHT
 10
0.0
 20
0.0
 30
0.0
  9
$UCSORGFRONT
 10
0.0
 20
0.0
 30
0.0
  9
$UCSORGBACK
 10
0.0
 20
0.0
 30
0.0
  9
$PUCSBASE
  2

  9
$PUCSNAME
  2

  9
$PUCSORG
 10
0.0
 20
0.0
 30
0.0
  9
$PUCSXDIR
 10
1.0
 20
0.0
 30
0.0
  9
$PUCSYDIR
 10
0.0
 20
1.0
 30
0.0
  9
$PUCSORTHOREF
  2

  9
$PUCSORTHOVIEW
 70
     0
  9
$PUCSORGTOP
 10
0.0
 20
0.0
 30
0.0
  9
$PUCSORGBOTTOM
 10
0.0
 20
0.0
 30
0.0
  9
$PUCSORGLEFT
 10
0.0
 20
0.0
 30
0.0
  9
$PUCSORGRIGHT
 10
0.0
 20
0.0
 30
0.0
  9
$PUCSORGFRONT
 10
0.0
 20
0.0
 30
0.0
  9
$PUCSORGBACK
 10
0.0
 20
0.0
 30
0.0
  9
$USERI1
 70
     0
  9
$USERI2
 70
     0
  9
$USERI3
 70
     0
  9
$USERI4
 70
     0
  9
$USERI5
 70
     0
  9
$USERR1
 40
18.0
  9
$USERR2
 40
0.0
  9
$USERR3
 40
0.0
  9
$USERR4
 40
0.0
  9
$USERR5
 40
0.0
  9
$WORLDVIEW
 70
     1
  9
$SHADEDGE
 70
     3
  9
$SHADEDIF
 70
    70
  9
$TILEMODE
 70
     1
  9
$MAXACTVP
 70
    64
  9
$PINSBASE
 10
0.0
 20
0.0
 30
0.0
  9
$PLIMCHECK
 70
     0
  9
$PEXTMIN
 10
1.00000000000000E+20
 20
1.00000000000000E+20
 30
1.00000000000000E+20
  9
$PEXTMAX
 10
-1.00000000000000E+20
 20
-1.00000000000000E+20
 30
-1.00000000000000E+20
  9
$PLIMMIN
 10
0.0
 20
0.0
  9
$PLIMMAX
 10
12.0
 20
9.0
  9
$UNITMODE
 70
     0
  9
$VISRETAIN
 70
     1
  9
$PLINEGEN
 70
     0
  9
$PSLTSCALE
 70
     1
  9
$TREEDEPTH
 70
  3020
  9
$CMLSTYLE
  2
Standard
  9
$CMLJUST
 70
     0
  9
$CMLSCALE
 40
1.0
  9
$PROXYGRAPHICS
 70
     1
  9
$MEASUREMENT
 70
     1
  9
$CELWEIGHT
370
    -1
  9
$ENDCAPS
280
     0
  9
$JOINSTYLE
280
     0
  9
$LWDISPLAY
290
     0
  9
$INSUNITS
 70
     1
  9
$HYPERLINKBASE
  1

  9
$STYLESHEET
  1

  9
$XEDIT
290
     1
  9
$CEPSNTYPE
380
     0
  9
$PSTYLEMODE
290
     1
  9
$FINGERPRINTGUID
  2
{32C56F88-07B2-476C-A925-B49F934369ED}
  9
$VERSIONGUID
  2
{FAEB1C32-E019-11D5-929B-00C0DF256EC4}
  9
$EXTNAMES
290
     1
  9
$PSVPSCALE
 40
0.0
  9
$OLESTARTUP
290
     0
  0
ENDSEC
  0
SECTION
  2
CLASSES
  0
CLASS
  1
ACDBDICTIONARYWDFLT
  2
AcDbDictionaryWithDefault
  3
ObjectDBX Classes
 90
        0
280
     0
281
     0
  0
CLASS
  1
VISUALSTYLE
  2
AcDbVisualStyle
  3
ObjectDBX Classes
 90
     4095
280
     0
281
     0
  0
CLASS
  1
MATERIAL
  2
AcDbMaterial
  3
ObjectDBX Classes
 90
     1153
280
     0
281
     0
  0
CLASS
  1

  2
exOdDbCircle
  3

 90
        0
280
     0
281
     1
  0
CLASS
  1
DICTIONARYVAR
  2
AcDbDictionaryVar
  3
ObjectDBX Classes
 90
        0
280
     0
281
     0
  0
CLASS
  1
ACDBPLACEHOLDER
  2
AcDbPlaceHolder
  3
ObjectDBX Classes
 90
        0
280
     0
281
     0
  0
CLASS
  1
LAYOUT
  2
AcDbLayout
  3
ObjectDBX Classes
 90
        0
280
     0
281
     0
  0
ENDSEC
  0
SECTION
  2
TABLES
  0
TABLE
  2
VPORT
  5
8
330
0
100
AcDbSymbolTable
 70
     1
  0
VPORT
  5
29
330
8
100
AcDbSymbolTableRecord
100
AcDbViewportTableRecord
  2
*Active
 70
     0
 10
0.0
 20
0.0
 11
1.0
 21
1.0
 12
120.4754646879589
 22
131.1434959358407
 13
0.0
 23
0.0
 14
0.5
 24
0.5
 15
0.5
 25
0.5
 16
0.0
 26
0.0
 36
1.0
 17
0.0
 27
0.0
 37
0.0
 40
282.9660394785473
 41
1.60267857142857
 42
50.0
 43
0.0
 44
0.0
 50
0.0
 51
0.0
 71
     0
 72
   100
 73
     1
 74
     3
 75
     0
 76
     0
 77
     0
 78
     0
281
     0
 65
     1
110
0.0
120
0.0
130
0.0
111
1.0
121
0.0
131
0.0
112
0.0
122
1.0
132
0.0
 79
     0
146
0.0
  0
ENDTAB
  0
TABLE
  2
LTYPE
  5
5
330
0
100
AcDbSymbolTable
 70
     8
  0
LTYPE
  5
14
330
5
100
AcDbSymbolTableRecord
100
AcDbLinetypeTableRecord
  2
ByBlock
 70
     0
  3

 72
    65
 73
     0
 40
0.0
  0
LTYPE
  5
15
330
5
100
AcDbSymbolTableRecord
100
AcDbLinetypeTableRecord
  2
ByLayer
 70
     0
  3

 72
    65
 73
     0
 40
0.0
  0
LTYPE
  5
16
330
5
100
AcDbSymbolTableRecord
100
AcDbLinetypeTableRecord
  2
Continuous
 70
     0
  3
Solid line
 72
    65
 73
     0
 40
0.0
  0
LTYPE
  5
3F
330
5
100
AcDbSymbolTableRecord
100
AcDbLinetypeTableRecord
  2
DASHED
 70
     0
  3
Dashed
 72
    65
 73
     2
 40
15.0
 49
7.0
 74
     0
 49
-8.0
 74
     0
  0
LTYPE
  5
40
330
5
100
AcDbSymbolTableRecord
100
AcDbLinetypeTableRecord
  2
DOTTED
 70
     0
  3
Dotted
 72
    65
 73
     2
 40
1.0
 49
0.0
 74
     0
 49
-1.0
 74
     0
  0
LTYPE
  5
41
330
5
100
AcDbSymbolTableRecord
100
AcDbLinetypeTableRecord
  2
DOT_CENTER
 70
     0
  3
Dot_Center
 72
    65
 73
     4
 40
14.0
 49
12.0
 74
     0
 49
-1.0
 74
     0
 49
0.0
 74
     0
 49
-1.0
 74
     0
  0
LTYPE
  5
42
330
5
100
AcDbSymbolTableRecord
100
AcDbLinetypeTableRecord
  2
LONG_DASHED
 70
     0
  3
Long_Dashed
 72
    65
 73
     2
 40
15.0
 49
10.0
 74
     0
 49
-5.0
 74
     0
  0
LTYPE
  5
43
330
5
100
AcDbSymbolTableRecord
100
AcDbLinetypeTableRecord
  2
DASH_CENTER
 70
     0
  3
Dash_Center
 72
    65
 73
     4
 40
14.0
 49
11.0
 74
     0
 49
-1.0
 74
     0
 49
1.0
 74
     0
 49
-1.0
 74
     0
  0
LTYPE
  5
44
330
5
100
AcDbSymbolTableRecord
100
AcDbLinetypeTableRecord
  2
PHANTOM
 70
     0
  3
Phantom
 72
    65
 73
     6
 40
13.0
 49
10.0
 74
     0
 49
-1.0
 74
     0
 49
0.0
 74
     0
 49
-1.0
 74
     0
 49
0.0
 74
     0
 49
-1.0
 74
     0
  0
LTYPE
  5
45
330
5
100
AcDbSymbolTableRecord
100
AcDbLinetypeTableRecord
  2
CENTER_DASH_DASH
 70
     0
  3
Center_Dash_Dash
 72
    65
 73
     6
 40
14.0
 49
9.0
 74
     0
 49
-1.0
 74
     0
 49
1.0
 74
     0
 49
-1.0
 74
     0
 49
1.0
 74
     0
 49
-1.0
 74
     0
  0
ENDTAB
  0
TABLE
  2
LAYER
  5
2
330
0
100
AcDbSymbolTable
 70
     6
  0
LAYER
  5
10
330
2
100
AcDbSymbolTableRecord
100
AcDbLayerTableRecord
  2
0
 70
     0
 62
     7
  6
Continuous
370
    -3
390
F
  0
LAYER
  5
46
330
2
100
AcDbSymbolTableRecord
100
AcDbLayerTableRecord
  2
1
 70
     0
 62
     7
  6
Continuous
370
    -3
390
F
  0
LAYER
  5
47
330
2
100
AcDbSymbolTableRecord
100
AcDbLayerTableRecord
  2
100
 70
     0
 62
     7
  6
Continuous
370
    -3
390
F
  0
LAYER
  5
48
330
2
100
AcDbSymbolTableRecord
100
AcDbLayerTableRecord
  2
2
 70
     0
 62
     7
  6
Continuous
370
    -3
390
F
  0
LAYER
  5
49
330
2
100
AcDbSymbolTableRecord
100
AcDbLayerTableRecord
  2
3
 70
     0
 62
     7
  6
Continuous
370
    -3
390
F
  0
LAYER
  5
4A
330
2
100
AcDbSymbolTableRecord
100
AcDbLayerTableRecord
  2
LEVEL001
 70
     0
 62
     7
  6
Continuous
370
    -3
390
F
  0
ENDTAB
  0
TABLE
  2
STYLE
  5
3
330
0
100
AcDbSymbolTable
 70
     1
  0
STYLE
  5
11
330
3
100
AcDbSymbolTableRecord
100
AcDbTextStyleTableRecord
  2
Standard
 70
     0
 40
0.0
 41
1.0
 50
0.0
 71
     0
 42
0.2
  3
txt
  4

  0
ENDTAB
  0
TABLE
  2
VIEW
  5
6
330
0
100
AcDbSymbolTable
 70
     0
  0
ENDTAB
  0
TABLE
  2
UCS
  5
7
330
0
100
AcDbSymbolTable
 70
     0
  0
ENDTAB
  0
TABLE
  2
APPID
  5
9
330
0
100
AcDbSymbolTable
 70
     1
  0
APPID
  5
12
330
9
100
AcDbSymbolTableRecord
100
AcDbRegAppTableRecord
  2
ACAD
 70
     0
  0
ENDTAB
  0
TABLE
  2
DIMSTYLE
  5
A
330
0
100
AcDbSymbolTable
 70
     1
100
AcDbDimStyleTable
  0
DIMSTYLE
105
27
330
A
100
AcDbSymbolTableRecord
100
AcDbDimStyleTableRecord
  2
Standard
 70
     0
340
11
  0
ENDTAB
  0
TABLE
  2
BLOCK_RECORD
  5
1
330
0
100
AcDbSymbolTable
 70
     1
  0
BLOCK_RECORD
  5
1F
330
1
100
AcDbSymbolTableRecord
100
AcDbBlockTableRecord
  2
*Model_Space
340
22
  0
BLOCK_RECORD
  5
1B
330
1
100
AcDbSymbolTableRecord
100
AcDbBlockTableRecord
  2
*Paper_Space
340
1E
  0
BLOCK_RECORD
  5
23
330
1
100
AcDbSymbolTableRecord
100
AcDbBlockTableRecord
  2
*Paper_Space0
340
26
  0
ENDTAB
  0
ENDSEC
  0
SECTION
  2
BLOCKS
  0
BLOCK
  5
20
330
1F
100
AcDbEntity
  8
0
100
AcDbBlockBegin
  2
*Model_Space
 70
     0
 10
0.0
 20
0.0
 30
0.0
  3
*Model_Space
  1

  0
ENDBLK
  5
21
330
1F
100
AcDbEntity
  8
0
100
AcDbBlockEnd
  0
BLOCK
  5
1C
330
1B
100
AcDbEntity
 67
     1
  8
0
100
AcDbBlockBegin
  2
*Paper_Space
 70
     0
 10
0.0
 20
0.0
 30
0.0
  3
*Paper_Space
  1

  0
ENDBLK
  5
1D
330
1B
100
AcDbEntity
 67
     1
  8
0
100
AcDbBlockEnd
  0
BLOCK
  5
24
330
23
100
AcDbEntity
  8
0
100
AcDbBlockBegin
  2
*Paper_Space0
 70
     0
 10
0.0
 20
0.0
 30
0.0
  3
*Paper_Space0
  1

  0
ENDBLK
  5
25
330
23
100
AcDbEntity
  8
0
100
AcDbBlockEnd
  0
ENDSEC
  0
SECTION
  2
ENTITIES
  0
POINT
  5
4B
330
1F
100
AcDbEntity
  8
LEVEL001
 62
     3
100
AcDbPoint
 10
75.08183884503603
 20
164.690690426503
 30
0.0
  0
POINT
  5
4C
330
1F
100
AcDbEntity
  8
LEVEL001
 62
     3
100
AcDbPoint
 10
194.5818388450359
 20
164.690690426503
 30
0.0
  0
POINT
  5
4D
330
1F
100
AcDbEntity
  8
LEVEL001
 62
     3
100
AcDbPoint
 10
227.581838845011
 20
153.190690426503
 30
0.0
  0
POINT
  5
4E
330
1F
100
AcDbEntity
  8
LEVEL001
 62
     3
100
AcDbPoint
 10
226.581838845011
 20
153.190690426503
 30
0.0
  0
POINT
  5
4F
330
1F
100
AcDbEntity
  8
LEVEL001
 62
     3
100
AcDbPoint
 10
180.0818388450161
 20
153.190690426503
 30
0.0
  0
POINT
  5
50
330
1F
100
AcDbEntity
  8
LEVEL001
 62
     3
100
AcDbPoint
 10
191.081838845036
 20
164.690690426503
 30
0.0
  0
POINT
  5
51
330
1F
100
AcDbEntity
  8
1
 62
     3
100
AcDbPoint
 10
225.5818388450359
 20
88.5
 30
0.0
  0
POINT
  5
52
330
1F
100
AcDbEntity
  8
1
 62
     3
100
AcDbPoint
 10
214.5818388450359
 20
71.0
 30
0.0
  0
POINT
  5
53
330
1F
100
AcDbEntity
  8
1
 62
     3
100
AcDbPoint
 10
214.5818388450359
 20
69.5
 30
0.0
  0
LINE
  5
54
330
1F
100
AcDbEntity
  8
1
  6
Continuous
 62
     4
100
AcDbLine
 10
92.46419178621238
 20
14.84488025417883
 30
0.0
 11
90.87595649209474
 21
13.64488025417883
 31
0.0
  0
LINE
  5
55
330
1F
100
AcDbEntity
  8
1
  6
Continuous
 62
     4
100
AcDbLine
 10
90.87595649209474
 20
16.04488025417883
 30
0.0
 11
92.46419178621238
 21
14.84488025417883
 31
0.0
  0
LINE
  5
56
330
1F
100
AcDbEntity
  8
1
  6
Continuous
 62
     4
100
AcDbLine
 10
86.64066237444769
 20
14.84488025417883
 30
0.0
 11
92.46419178621238
 21
14.84488025417883
 31
0.0
  0
LINE
  5
57
330
1F
100
AcDbEntity
  8
1
  6
Continuous
 62
     4
100
AcDbLine
 10
163.6553682568006
 20
6.72256890013743
 30
0.0
 11
162.8612506097418
 21
7.02256890013743
 31
0.0
  0
LINE
  5
58
330
1F
100
AcDbEntity
  8
1
  6
Continuous
 62
     4
100
AcDbLine
 10
164.1847800215065
 20
5.97256890013743
 30
0.0
 11
163.6553682568006
 21
6.72256890013743
 31
0.0
  0
LINE
  5
59
330
1F
100
AcDbEntity
  8
1
  6
Continuous
 62
     4
100
AcDbLine
 10
164.317132962683
 20
4.77256890013743
 30
0.0
 11
164.1847800215065
 21
5.97256890013743
 31
0.0
  0
LINE
  5
5A
330
1F
100
AcDbEntity
  8
1
  6
Continuous
 62
     4
100
AcDbLine
 10
164.1847800215065
 20
3.57256890013743
 30
0.0
 11
164.317132962683
 21
4.77256890013743
 31
0.0
  0
LINE
  5
5B
330
1F
100
AcDbEntity
  8
1
  6
Continuous
 62
     4
100
AcDbLine
 10
163.6553682568006
 20
2.82256890013743
 30
0.0
 11
164.1847800215065
 21
3.57256890013743
 31
0.0
  0
LINE
  5
5C
330
1F
100
AcDbEntity
  8
1
  6
Continuous
 62
     4
100
AcDbLine
 10
162.8612506097418
 20
2.52256890013743
 30
0.0
 11
163.6553682568006
 21
2.82256890013743
 31
0.0
  0
LINE
  5
5D
330
1F
100
AcDbEntity
  8
1
  6
Continuous
 62
     4
100
AcDbLine
 10
162.067132962683
 20
2.82256890013743
 30
0.0
 11
162.8612506097418
 21
2.52256890013743
 31
0.0
  0
LINE
  5
5E
330
1F
100
AcDbEntity
  8
1
  6
Continuous
 62
     4
100
AcDbLine
 10
161.6700741391535
 20
3.57256890013743
 30
0.0
 11
162.067132962683
 21
2.82256890013743
 31
0.0
  0
LINE
  5
5F
330
1F
100
AcDbEntity
  8
1
  6
Continuous
 62
     4
100
AcDbLine
 10
161.4053682568006
 20
4.77256890013743
 30
0.0
 11
161.6700741391535
 21
3.57256890013743
 31
0.0
  0
LINE
  5
60
330
1F
100
AcDbEntity
  8
1
  6
Continuous
 62
     4
100
AcDbLine
 10
161.6700741391535
 20
5.97256890013743
 30
0.0
 11
161.4053682568006
 21
4.77256890013743
 31
0.0
  0
LINE
  5
61
330
1F
100
AcDbEntity
  8
1
  6
Continuous
 62
     4
100
AcDbLine
 10
162.067132962683
 20
6.72256890013743
 30
0.0
 11
161.6700741391535
 21
5.97256890013743
 31
0.0
  0
LINE
  5
62
330
1F
100
AcDbEntity
  8
1
  6
Continuous
 62
     4
100
AcDbLine
 10
162.8612506097418
 20
7.02256890013743
 30
0.0
 11
162.067132962683
 21
6.72256890013743
 31
0.0
  0
LINE
  5
63
330
1F
100
AcDbEntity
  8
1
  6
Continuous
 62
     4
100
AcDbLine
 10
157.6994859038594
 20
4.77256890013743
 30
0.0
 11
160.0818388450359
 21
4.77256890013743
 31
0.0
  0
LINE
  5
64
330
1F
100
AcDbEntity
  8
1
  6
Continuous
 62
     4
100
AcDbLine
 10
156.3759564920947
 20
7.02256890013743
 30
0.0
 11
156.3759564920947
 21
2.52256890013743
 31
0.0
  0
LINE
  5
65
330
1F
100
AcDbEntity
  8
1
  6
Continuous
 62
     4
100
AcDbLine
 10
155.7141917862124
 20
6.57256890013743
 30
0.0
 11
156.3759564920947
 21
7.02256890013743
 31
0.0
  0
LINE
  5
66
330
1F
100
AcDbEntity
  8
1
  6
Continuous
 62
     4
100
AcDbLine
 10
153.7288976685653
 20
6.72256890013743
 30
0.0
 11
152.9347800215065
 21
7.02256890013743
 31
0.0
  0
LINE
  5
67
330
1F
100
AcDbEntity
  8
1
  6
Continuous
 62
     4
100
AcDbLine
 10
154.2583094332712
 20
5.97256890013743
 30
0.0
 11
153.7288976685653
 21
6.72256890013743
 31
0.0
  0
LINE
  5
68
330
1F
100
AcDbEntity
  8
1
  6
Continuous
 62
     4
100
AcDbLine
 10
154.3906623744477
 20
4.77256890013743
 30
0.0
 11
154.2583094332712
 21
5.97256890013743
 31
0.0
  0
LINE
  5
69
330
1F
100
AcDbEntity
  8
1
  6
Continuous
 62
     4
100
AcDbLine
 10
154.2583094332712
 20
3.57256890013743
 30
0.0
 11
154.3906623744477
 21
4.77256890013743
 31
0.0
  0
LINE
  5
6A
330
1F
100
AcDbEntity
  8
1
  6
Continuous
 62
     4
100
AcDbLine
 10
153.7288976685653
 20
2.82256890013743
 30
0.0
 11
154.2583094332712
 21
3.57256890013743
 31
0.0
  0
LINE
  5
6B
330
1F
100
AcDbEntity
  8
1
  6
Continuous
 62
     4
100
AcDbLine
 10
152.9347800215065
 20
2.52256890013743
 30
0.0
 11
153.7288976685653
 21
2.82256890013743
 31
0.0
  0
LINE
  5
6C
330
1F
100
AcDbEntity
  8
1
  6
Continuous
 62
     4
100
AcDbLine
 10
152.1406623744477
 20
2.82256890013743
 30
0.0
 11
152.9347800215065
 21
2.52256890013743
 31
0.0
  0
LINE
  5
6D
330
1F
100
AcDbEntity
  8
1
  6
Continuous
 62
     4
100
AcDbLine
 10
151.7436035509182
 20
3.57256890013743
 30
0.0
 11
152.1406623744477
 21
2.82256890013743
 31
0.0
  0
LINE
  5
6E
330
1F
100
AcDbEntity
  8
1
  6
Continuous
 62
     4
100
AcDbLine
 10
151.4788976685653
 20
4.77256890013743
 30
0.0
 11
151.7436035509182
 21
3.57256890013743
 31
0.0
  0
LINE
  5
6F
330
1F
100
AcDbEntity
  8
1
  6
Continuous
 62
     4
100
AcDbLine
 10
151.7436035509182
 20
5.97256890013743
 30
0.0
 11
151.4788976685653
 21
4.77256890013743
 31
0.0
  0
LINE
  5
70
330
1F
100
AcDbEntity
  8
1
  6
Continuous
 62
     4
100
AcDbLine
 10
152.1406623744477
 20
6.72256890013743
 30
0.0
 11
151.7436035509182
 21
5.97256890013743
 31
0.0
  0
LINE
  5
71
330
1F
100
AcDbEntity
  8
1
  6
Continuous
 62
     4
100
AcDbLine
 10
152.9347800215065
 20
7.02256890013743
 30
0.0
 11
152.1406623744477
 21
6.72256890013743
 31
0.0
  0
LINE
  5
72
330
1F
100
AcDbEntity
  8
1
  6
Continuous
 62
     4
100
AcDbLine
 10
147.6406623744477
 20
4.77256890013743
 30
0.0
 11
147.6406623744477
 21
2.52256890013743
 31
0.0
  0
LINE
  5
73
330
1F
100
AcDbEntity
  8
1
  6
Continuous
 62
     4
100
AcDbLine
 10
147.6406623744477
 20
4.77256890013743
 30
0.0
 11
149.8906623744477
 21
4.77256890013743
 31
0.0
  0
LINE
  5
74
330
1F
100
AcDbEntity
  8
1
  6
Continuous
 62
     4
100
AcDbLine
 10
147.6406623744477
 20
7.02256890013743
 30
0.0
 11
147.6406623744477
 21
4.77256890013743
 31
0.0
  0
LINE
  5
75
330
1F
100
AcDbEntity
  8
1
  6
Continuous
 62
     4
100
AcDbLine
 10
150.1553682568006
 20
7.02256890013743
 30
0.0
 11
147.6406623744477
 21
7.02256890013743
 31
0.0
  0
LINE
  5
76
330
1F
100
AcDbEntity
  8
1
  6
Continuous
 62
     4
100
AcDbLine
 10
143.80242708033
 20
3.72256890013743
 30
0.0
 11
145.9200741391535
 21
3.72256890013743
 31
0.0
  0
LINE
  5
77
330
1F
100
AcDbEntity
  8
1
  6
Continuous
 62
     4
100
AcDbLine
 10
144.8612506097418
 20
7.02256890013743
 30
0.0
 11
146.317132962683
 21
2.52256890013743
 31
0.0
  0
LINE
  5
78
330
1F
100
AcDbEntity
  8
1
  6
Continuous
 62
     4
100
AcDbLine
 10
143.4053682568006
 20
2.52256890013743
 30
0.0
 11
144.8612506097418
 21
7.02256890013743
 31
0.0
  0
LINE
  5
79
330
1F
100
AcDbEntity
  8
1
  6
Continuous
 62
     4
100
AcDbLine
 10
141.4200741391535
 20
6.72256890013743
 30
0.0
 11
140.6259564920947
 21
7.02256890013743
 31
0.0
  0
LINE
  5
7A
330
1F
100
AcDbEntity
  8
1
  6
Continuous
 62
     4
100
AcDbLine
 10
141.9494859038594
 20
5.97256890013743
 30
0.0
 11
141.4200741391535
 21
6.72256890013743
 31
0.0
  0
LINE
  5
7B
330
1F
100
AcDbEntity
  8
1
  6
Continuous
 62
     4
100
AcDbLine
 10
142.0818388450359
 20
4.77256890013743
 30
0.0
 11
141.9494859038594
 21
5.97256890013743
 31
0.0
  0
LINE
  5
7C
330
1F
100
AcDbEntity
  8
1
  6
Continuous
 62
     4
100
AcDbLine
 10
141.9494859038594
 20
3.57256890013743
 30
0.0
 11
142.0818388450359
 21
4.77256890013743
 31
0.0
  0
LINE
  5
7D
330
1F
100
AcDbEntity
  8
1
  6
Continuous
 62
     4
100
AcDbLine
 10
141.4200741391535
 20
2.82256890013743
 30
0.0
 11
141.9494859038594
 21
3.57256890013743
 31
0.0
  0
LINE
  5
7E
330
1F
100
AcDbEntity
  8
1
  6
Continuous
 62
     4
100
AcDbLine
 10
140.6259564920947
 20
2.52256890013743
 30
0.0
 11
141.4200741391535
 21
2.82256890013743
 31
0.0
  0
LINE
  5
7F
330
1F
100
AcDbEntity
  8
1
  6
Continuous
 62
     4
100
AcDbLine
 10
139.8318388450359
 20
2.82256890013743
 30
0.0
 11
140.6259564920947
 21
2.52256890013743
 31
0.0
  0
LINE
  5
80
330
1F
100
AcDbEntity
  8
1
  6
Continuous
 62
     4
100
AcDbLine
 10
139.4347800215065
 20
3.57256890013743
 30
0.0
 11
139.8318388450359
 21
2.82256890013743
 31
0.0
  0
LINE
  5
81
330
1F
100
AcDbEntity
  8
1
  6
Continuous
 62
     4
100
AcDbLine
 10
139.1700741391535
 20
4.77256890013743
 30
0.0
 11
139.4347800215065
 21
3.57256890013743
 31
0.0
  0
LINE
  5
82
330
1F
100
AcDbEntity
  8
1
  6
Continuous
 62
     4
100
AcDbLine
 10
139.4347800215065
 20
5.97256890013743
 30
0.0
 11
139.1700741391535
 21
4.77256890013743
 31
0.0
  0
LINE
  5
83
330
1F
100
AcDbEntity
  8
1
  6
Continuous
 62
     4
100
AcDbLine
 10
139.8318388450359
 20
6.72256890013743
 30
0.0
 11
139.4347800215065
 21
5.97256890013743
 31
0.0
  0
LINE
  5
84
330
1F
100
AcDbEntity
  8
1
  6
Continuous
 62
     4
100
AcDbLine
 10
140.6259564920947
 20
7.02256890013743
 30
0.0
 11
139.8318388450359
 21
6.72256890013743
 31
0.0
  0
LINE
  5
85
330
1F
100
AcDbEntity
  8
1
  6
Continuous
 62
     4
100
AcDbLine
 10
137.1847800215065
 20
6.72256890013743
 30
0.0
 11
136.3906623744477
 21
7.02256890013743
 31
0.0
  0
LINE
  5
86
330
1F
100
AcDbEntity
  8
1
  6
Continuous
 62
     4
100
AcDbLine
 10
137.7141917862124
 20
5.97256890013743
 30
0.0
 11
137.1847800215065
 21
6.72256890013743
 31
0.0
  0
LINE
  5
87
330
1F
100
AcDbEntity
  8
1
  6
Continuous
 62
     4
100
AcDbLine
 10
137.8465447273889
 20
4.77256890013743
 30
0.0
 11
137.7141917862124
 21
5.97256890013743
 31
0.0
  0
LINE
  5
88
330
1F
100
AcDbEntity
  8
1
  6
Continuous
 62
     4
100
AcDbLine
 10
137.7141917862124
 20
3.57256890013743
 30
0.0
 11
137.8465447273889
 21
4.77256890013743
 31
0.0
  0
LINE
  5
89
330
1F
100
AcDbEntity
  8
1
  6
Continuous
 62
     4
100
AcDbLine
 10
137.1847800215065
 20
2.82256890013743
 30
0.0
 11
137.7141917862124
 21
3.57256890013743
 31
0.0
  0
LINE
  5
8A
330
1F
100
AcDbEntity
  8
1
  6
Continuous
 62
     4
100
AcDbLine
 10
136.3906623744477
 20
2.52256890013743
 30
0.0
 11
137.1847800215065
 21
2.82256890013743
 31
0.0
  0
LINE
  5
8B
330
1F
100
AcDbEntity
  8
1
  6
Continuous
 62
     4
100
AcDbLine
 10
135.5965447273889
 20
2.82256890013743
 30
0.0
 11
136.3906623744477
 21
2.52256890013743
 31
0.0
  0
LINE
  5
8C
330
1F
100
AcDbEntity
  8
1
  6
Continuous
 62
     4
100
AcDbLine
 10
135.1994859038594
 20
3.57256890013743
 30
0.0
 11
135.5965447273889
 21
2.82256890013743
 31
0.0
  0
LINE
  5
8D
330
1F
100
AcDbEntity
  8
1
  6
Continuous
 62
     4
100
AcDbLine
 10
134.9347800215065
 20
4.77256890013743
 30
0.0
 11
135.1994859038594
 21
3.57256890013743
 31
0.0
  0
LINE
  5
8E
330
1F
100
AcDbEntity
  8
1
  6
Continuous
 62
     4
100
AcDbLine
 10
135.1994859038594
 20
5.97256890013743
 30
0.0
 11
134.9347800215065
 21
4.77256890013743
 31
0.0
  0
LINE
  5
8F
330
1F
100
AcDbEntity
  8
1
  6
Continuous
 62
     4
100
AcDbLine
 10
135.5965447273889
 20
6.72256890013743
 30
0.0
 11
135.1994859038594
 21
5.97256890013743
 31
0.0
  0
LINE
  5
90
330
1F
100
AcDbEntity
  8
1
  6
Continuous
 62
     4
100
AcDbLine
 10
136.3906623744477
 20
7.02256890013743
 30
0.0
 11
135.5965447273889
 21
6.72256890013743
 31
0.0
  0
LINE
  5
91
330
1F
100
AcDbEntity
  8
1
  6
Continuous
 62
     4
100
AcDbLine
 10
131.3612506097418
 20
4.77256890013743
 30
0.0
 11
131.0965447273889
 21
3.87256890013743
 31
0.0
  0
LINE
  5
92
330
1F
100
AcDbEntity
  8
1
  6
Continuous
 62
     4
100
AcDbLine
 10
131.7583094332712
 20
5.22256890013743
 30
0.0
 11
131.3612506097418
 21
4.77256890013743
 31
0.0
  0
LINE
  5
93
330
1F
100
AcDbEntity
  8
1
  6
Continuous
 62
     4
100
AcDbLine
 10
132.2877211979771
 20
5.37256890013743
 30
0.0
 11
131.7583094332712
 21
5.22256890013743
 31
0.0
  0
LINE
  5
94
330
1F
100
AcDbEntity
  8
1
  6
Continuous
 62
     4
100
AcDbLine
 10
132.817132962683
 20
5.22256890013743
 30
0.0
 11
132.2877211979771
 21
5.37256890013743
 31
0.0
  0
LINE
  5
95
330
1F
100
AcDbEntity
  8
1
  6
Continuous
 62
     4
100
AcDbLine
 10
133.3465447273889
 20
4.77256890013743
 30
0.0
 11
132.817132962683
 21
5.22256890013743
 31
0.0
  0
LINE
  5
96
330
1F
100
AcDbEntity
  8
1
  6
Continuous
 62
     4
100
AcDbLine
 10
133.4788976685653
 20
4.47256890013743
 30
0.0
 11
133.3465447273889
 21
4.77256890013743
 31
0.0
  0
LINE
  5
97
330
1F
100
AcDbEntity
  8
1
  6
Continuous
 62
     4
100
AcDbLine
 10
133.6112506097418
 20
3.87256890013743
 30
0.0
 11
133.4788976685653
 21
4.47256890013743
 31
0.0
  0
LINE
  5
98
330
1F
100
AcDbEntity
  8
1
  6
Continuous
 62
     4
100
AcDbLine
 10
133.3465447273889
 20
3.12256890013743
 30
0.0
 11
133.6112506097418
 21
3.87256890013743
 31
0.0
  0
LINE
  5
99
330
1F
100
AcDbEntity
  8
1
  6
Continuous
 62
     4
100
AcDbLine
 10
132.9494859038594
 20
2.67256890013743
 30
0.0
 11
133.3465447273889
 21
3.12256890013743
 31
0.0
  0
LINE
  5
9A
330
1F
100
AcDbEntity
  8
1
  6
Continuous
 62
     4
100
AcDbLine
 10
132.2877211979771
 20
2.52256890013743
 30
0.0
 11
132.9494859038594
 21
2.67256890013743
 31
0.0
  0
LINE
  5
9B
330
1F
100
AcDbEntity
  8
1
  6
Continuous
 62
     4
100
AcDbLine
 10
131.4936035509183
 20
2.82256890013743
 30
0.0
 11
132.2877211979771
 21
2.52256890013743
 31
0.0
  0
LINE
  5
9C
330
1F
100
AcDbEntity
  8
1
  6
Continuous
 62
     4
100
AcDbLine
 10
131.2288976685653
 20
3.27256890013743
 30
0.0
 11
131.4936035509183
 21
2.82256890013743
 31
0.0
  0
LINE
  5
9D
330
1F
100
AcDbEntity
  8
1
  6
Continuous
 62
     4
100
AcDbLine
 10
131.0965447273889
 20
3.87256890013743
 30
0.0
 11
131.2288976685653
 21
3.27256890013743
 31
0.0
  0
LINE
  5
9E
330
1F
100
AcDbEntity
  8
1
  6
Continuous
 62
     4
100
AcDbLine
 10
131.0965447273889
 20
5.67256890013743
 30
0.0
 11
131.0965447273889
 21
3.87256890013743
 31
0.0
  0
LINE
  5
9F
330
1F
100
AcDbEntity
  8
1
  6
Continuous
 62
     4
100
AcDbLine
 10
131.2288976685653
 20
6.27256890013743
 30
0.0
 11
131.0965447273889
 21
5.67256890013743
 31
0.0
  0
LINE
  5
A0
330
1F
100
AcDbEntity
  8
1
  6
Continuous
 62
     4
100
AcDbLine
 10
131.6259564920947
 20
6.72256890013743
 30
0.0
 11
131.2288976685653
 21
6.27256890013743
 31
0.0
  0
LINE
  5
A1
330
1F
100
AcDbEntity
  8
1
  6
Continuous
 62
     4
100
AcDbLine
 10
131.8906623744477
 20
6.87256890013743
 30
0.0
 11
131.6259564920947
 21
6.72256890013743
 31
0.0
  0
LINE
  5
A2
330
1F
100
AcDbEntity
  8
1
  6
Continuous
 62
     4
100
AcDbLine
 10
132.2877211979771
 20
7.02256890013743
 30
0.0
 11
131.8906623744477
 21
6.87256890013743
 31
0.0
  0
LINE
  5
A3
330
1F
100
AcDbEntity
  8
1
  6
Continuous
 62
     4
100
AcDbLine
 10
132.817132962683
 20
6.87256890013743
 30
0.0
 11
132.2877211979771
 21
7.02256890013743
 31
0.0
  0
LINE
  5
A4
330
1F
100
AcDbEntity
  8
1
  6
Continuous
 62
     4
100
AcDbLine
 10
133.2141917862124
 20
6.72256890013743
 30
0.0
 11
132.817132962683
 21
6.87256890013743
 31
0.0
  0
LINE
  5
A5
330
1F
100
AcDbEntity
  8
1
  6
Continuous
 62
     4
100
AcDbLine
 10
133.6112506097418
 20
6.27256890013743
 30
0.0
 11
133.2141917862124
 21
6.72256890013743
 31
0.0
  0
LINE
  5
A6
330
1F
100
AcDbEntity
  8
1
  6
Continuous
 62
     4
100
AcDbLine
 10
129.1112506097418
 20
6.72256890013743
 30
0.0
 11
128.317132962683
 21
7.02256890013743
 31
0.0
  0
LINE
  5
A7
330
1F
100
AcDbEntity
  8
1
  6
Continuous
 62
     4
100
AcDbLine
 10
129.6406623744477
 20
5.97256890013743
 30
0.0
 11
129.1112506097418
 21
6.72256890013743
 31
0.0
  0
LINE
  5
A8
330
1F
100
AcDbEntity
  8
1
  6
Continuous
 62
     4
100
AcDbLine
 10
129.7730153156242
 20
4.77256890013743
 30
0.0
 11
129.6406623744477
 21
5.97256890013743
 31
0.0
  0
LINE
  5
A9
330
1F
100
AcDbEntity
  8
1
  6
Continuous
 62
     4
100
AcDbLine
 10
129.6406623744477
 20
3.57256890013743
 30
0.0
 11
129.7730153156242
 21
4.77256890013743
 31
0.0
  0
LINE
  5
AA
330
1F
100
AcDbEntity
  8
1
  6
Continuous
 62
     4
100
AcDbLine
 10
129.1112506097418
 20
2.82256890013743
 30
0.0
 11
129.6406623744477
 21
3.57256890013743
 31
0.0
  0
LINE
  5
AB
330
1F
100
AcDbEntity
  8
1
  6
Continuous
 62
     4
100
AcDbLine
 10
128.317132962683
 20
2.52256890013743
 30
0.0
 11
129.1112506097418
 21
2.82256890013743
 31
0.0
  0
LINE
  5
AC
330
1F
100
AcDbEntity
  8
1
  6
Continuous
 62
     4
100
AcDbLine
 10
127.5230153156241
 20
2.82256890013743
 30
0.0
 11
128.317132962683
 21
2.52256890013743
 31
0.0
  0
LINE
  5
AD
330
1F
100
AcDbEntity
  8
1
  6
Continuous
 62
     4
100
AcDbLine
 10
127.1259564920947
 20
3.57256890013743
 30
0.0
 11
127.5230153156241
 21
2.82256890013743
 31
0.0
  0
LINE
  5
AE
330
1F
100
AcDbEntity
  8
1
  6
Continuous
 62
     4
100
AcDbLine
 10
126.8612506097418
 20
4.77256890013743
 30
0.0
 11
127.1259564920947
 21
3.57256890013743
 31
0.0
  0
LINE
  5
AF
330
1F
100
AcDbEntity
  8
1
  6
Continuous
 62
     4
100
AcDbLine
 10
127.1259564920947
 20
5.97256890013743
 30
0.0
 11
126.8612506097418
 21
4.77256890013743
 31
0.0
  0
LINE
  5
B0
330
1F
100
AcDbEntity
  8
1
  6
Continuous
 62
     4
100
AcDbLine
 10
127.5230153156241
 20
6.72256890013743
 30
0.0
 11
127.1259564920947
 21
5.97256890013743
 31
0.0
  0
LINE
  5
B1
330
1F
100
AcDbEntity
  8
1
  6
Continuous
 62
     4
100
AcDbLine
 10
128.317132962683
 20
7.02256890013743
 30
0.0
 11
127.5230153156241
 21
6.72256890013743
 31
0.0
  0
LINE
  5
B2
330
1F
100
AcDbEntity
  8
1
  6
Continuous
 62
     4
100
AcDbLine
 10
121.30242708033
 20
2.52256890013743
 30
0.0
 11
125.5377211979771
 21
2.52256890013743
 31
0.0
  0
LINE
  5
B3
330
1F
100
AcDbEntity
  8
1
  6
Continuous
 62
     4
100
AcDbLine
 10
117.3318388450359
 20
2.97256890013743
 30
0.0
 11
117.067132962683
 21
3.27256890013743
 31
0.0
  0
LINE
  5
B4
330
1F
100
AcDbEntity
  8
1
  6
Continuous
 62
     4
100
AcDbLine
 10
117.8612506097418
 20
2.67256890013743
 30
0.0
 11
117.3318388450359
 21
2.97256890013743
 31
0.0
  0
LINE
  5
B5
330
1F
100
AcDbEntity
  8
1
  6
Continuous
 62
     4
100
AcDbLine
 10
118.5230153156241
 20
2.52256890013743
 30
0.0
 11
117.8612506097418
 21
2.67256890013743
 31
0.0
  0
LINE
  5
B6
330
1F
100
AcDbEntity
  8
1
  6
Continuous
 62
     4
100
AcDbLine
 10
119.317132962683
 20
2.67256890013743
 30
0.0
 11
118.5230153156241
 21
2.52256890013743
 31
0.0
  0
LINE
  5
B7
330
1F
100
AcDbEntity
  8
1
  6
Continuous
 62
     4
100
AcDbLine
 10
119.7141917862124
 20
2.97256890013743
 30
0.0
 11
119.317132962683
 21
2.67256890013743
 31
0.0
  0
LINE
  5
B8
330
1F
100
AcDbEntity
  8
1
  6
Continuous
 62
     4
100
AcDbLine
 10
119.9788976685653
 20
3.72256890013743
 30
0.0
 11
119.7141917862124
 21
2.97256890013743
 31
0.0
  0
LINE
  5
B9
330
1F
100
AcDbEntity
  8
1
  6
Continuous
 62
     4
100
AcDbLine
 10
119.7141917862124
 20
4.47256890013743
 30
0.0
 11
119.9788976685653
 21
3.72256890013743
 31
0.0
  0
LINE
  5
BA
330
1F
100
AcDbEntity
  8
1
  6
Continuous
 62
     4
100
AcDbLine
 10
119.05242708033
 20
4.92256890013743
 30
0.0
 11
119.7141917862124
 21
4.47256890013743
 31
0.0
  0
LINE
  5
BB
330
1F
100
AcDbEntity
  8
1
  6
Continuous
 62
     4
100
AcDbLine
 10
118.3906623744477
 20
4.92256890013743
 30
0.0
 11
119.05242708033
 21
4.92256890013743
 31
0.0
  0
LINE
  5
BC
330
1F
100
AcDbEntity
  8
1
  6
Continuous
 62
     4
100
AcDbLine
 10
119.05242708033
 20
4.92256890013743
 30
0.0
 11
118.3906623744477
 21
4.92256890013743
 31
0.0
  0
LINE
  5
BD
330
1F
100
AcDbEntity
  8
1
  6
Continuous
 62
     4
100
AcDbLine
 10
119.5818388450359
 20
5.22256890013743
 30
0.0
 11
119.05242708033
 21
4.92256890013743
 31
0.0
  0
LINE
  5
BE
330
1F
100
AcDbEntity
  8
1
  6
Continuous
 62
     4
100
AcDbLine
 10
119.8465447273889
 20
5.82256890013743
 30
0.0
 11
119.5818388450359
 21
5.22256890013743
 31
0.0
  0
LINE
  5
BF
330
1F
100
AcDbEntity
  8
1
  6
Continuous
 62
     4
100
AcDbLine
 10
119.7141917862124
 20
6.27256890013743
 30
0.0
 11
119.8465447273889
 21
5.82256890013743
 31
0.0
  0
LINE
  5
C0
330
1F
100
AcDbEntity
  8
1
  6
Continuous
 62
     4
100
AcDbLine
 10
119.317132962683
 20
6.87256890013743
 30
0.0
 11
119.7141917862124
 21
6.27256890013743
 31
0.0
  0
LINE
  5
C1
330
1F
100
AcDbEntity
  8
1
  6
Continuous
 62
     4
100
AcDbLine
 10
118.5230153156241
 20
7.02256890013743
 30
0.0
 11
119.317132962683
 21
6.87256890013743
 31
0.0
  0
LINE
  5
C2
330
1F
100
AcDbEntity
  8
1
  6
Continuous
 62
     4
100
AcDbLine
 10
117.7288976685653
 20
6.87256890013743
 30
0.0
 11
118.5230153156241
 21
7.02256890013743
 31
0.0
  0
LINE
  5
C3
330
1F
100
AcDbEntity
  8
1
  6
Continuous
 62
     4
100
AcDbLine
 10
117.1994859038594
 20
6.27256890013743
 30
0.0
 11
117.7288976685653
 21
6.87256890013743
 31
0.0
  0
LINE
  5
C4
330
1F
100
AcDbEntity
  8
1
  6
Continuous
 62
     4
100
AcDbLine
 10
115.7436035509183
 20
7.02256890013743
 30
0.0
 11
115.7436035509183
 21
2.52256890013743
 31
0.0
  0
LINE
  5
C5
330
1F
100
AcDbEntity
  8
1
  6
Continuous
 62
     4
100
AcDbLine
 10
115.0818388450359
 20
6.57256890013743
 30
0.0
 11
115.7436035509183
 21
7.02256890013743
 31
0.0
  0
LINE
  5
C6
330
1F
100
AcDbEntity
  8
1
  6
Continuous
 62
     4
100
AcDbLine
 10
109.5230153156241
 20
2.52256890013743
 30
0.0
 11
113.7583094332712
 21
2.52256890013743
 31
0.0
  0
LINE
  5
C7
330
1F
100
AcDbEntity
  8
1
  6
Continuous
 62
     4
100
AcDbLine
 10
105.817132962683
 20
2.97256890013743
 30
0.0
 11
105.55242708033
 21
3.57256890013743
 31
0.0
  0
LINE
  5
C8
330
1F
100
AcDbEntity
  8
1
  6
Continuous
 62
     4
100
AcDbLine
 10
106.2141917862124
 20
2.67256890013743
 30
0.0
 11
105.817132962683
 21
2.97256890013743
 31
0.0
  0
LINE
  5
C9
330
1F
100
AcDbEntity
  8
1
  6
Continuous
 62
     4
100
AcDbLine
 10
106.7436035509183
 20
2.52256890013743
 30
0.0
 11
106.2141917862124
 21
2.67256890013743
 31
0.0
  0
LINE
  5
CA
330
1F
100
AcDbEntity
  8
1
  6
Continuous
 62
     4
100
AcDbLine
 10
107.2730153156241
 20
2.52256890013743
 30
0.0
 11
106.7436035509183
 21
2.52256890013743
 31
0.0
  0
LINE
  5
CB
330
1F
100
AcDbEntity
  8
1
  6
Continuous
 62
     4
100
AcDbLine
 10
107.6700741391536
 20
2.67256890013743
 30
0.0
 11
107.2730153156241
 21
2.52256890013743
 31
0.0
  0
LINE
  5
CC
330
1F
100
AcDbEntity
  8
1
  6
Continuous
 62
     4
100
AcDbLine
 10
108.067132962683
 20
2.97256890013743
 30
0.0
 11
107.6700741391536
 21
2.67256890013743
 31
0.0
  0
LINE
  5
CD
330
1F
100
AcDbEntity
  8
1
  6
Continuous
 62
     4
100
AcDbLine
 10
108.1994859038594
 20
3.57256890013743
 30
0.0
 11
108.067132962683
 21
2.97256890013743
 31
0.0
  0
LINE
  5
CE
330
1F
100
AcDbEntity
  8
1
  6
Continuous
 62
     4
100
AcDbLine
 10
108.067132962683
 20
4.17256890013743
 30
0.0
 11
108.1994859038594
 21
3.57256890013743
 31
0.0
  0
LINE
  5
CF
330
1F
100
AcDbEntity
  8
1
  6
Continuous
 62
     4
100
AcDbLine
 10
107.6700741391536
 20
4.62256890013743
 30
0.0
 11
108.067132962683
 21
4.17256890013743
 31
0.0
  0
LINE
  5
D0
330
1F
100
AcDbEntity
  8
1
  6
Continuous
 62
     4
100
AcDbLine
 10
107.2730153156241
 20
4.77256890013743
 30
0.0
 11
107.6700741391536
 21
4.62256890013743
 31
0.0
  0
LINE
  5
D1
330
1F
100
AcDbEntity
  8
1
  6
Continuous
 62
     4
100
AcDbLine
 10
106.7436035509183
 20
4.77256890013743
 30
0.0
 11
107.2730153156241
 21
4.77256890013743
 31
0.0
  0
LINE
  5
D2
330
1F
100
AcDbEntity
  8
1
  6
Continuous
 62
     4
100
AcDbLine
 10
106.2141917862124
 20
4.92256890013743
 30
0.0
 11
106.7436035509183
 21
4.77256890013743
 31
0.0
  0
LINE
  5
D3
330
1F
100
AcDbEntity
  8
1
  6
Continuous
 62
     4
100
AcDbLine
 10
105.9494859038594
 20
5.07256890013743
 30
0.0
 11
106.2141917862124
 21
4.92256890013743
 31
0.0
  0
LINE
  5
D4
330
1F
100
AcDbEntity
  8
1
  6
Continuous
 62
     4
100
AcDbLine
 10
105.6847800215065
 20
5.37256890013743
 30
0.0
 11
105.9494859038594
 21
5.07256890013743
 31
0.0
  0
LINE
  5
D5
330
1F
100
AcDbEntity
  8
1
  6
Continuous
 62
     4
100
AcDbLine
 10
105.55242708033
 20
5.97256890013743
 30
0.0
 11
105.6847800215065
 21
5.37256890013743
 31
0.0
  0
LINE
  5
D6
330
1F
100
AcDbEntity
  8
1
  6
Continuous
 62
     4
100
AcDbLine
 10
105.6847800215065
 20
6.42256890013743
 30
0.0
 11
105.55242708033
 21
5.97256890013743
 31
0.0
  0
LINE
  5
D7
330
1F
100
AcDbEntity
  8
1
  6
Continuous
 62
     4
100
AcDbLine
 10
106.0818388450359
 20
6.72256890013743
 30
0.0
 11
105.6847800215065
 21
6.42256890013743
 31
0.0
  0
LINE
  5
D8
330
1F
100
AcDbEntity
  8
1
  6
Continuous
 62
     4
100
AcDbLine
 10
106.3465447273889
 20
6.87256890013743
 30
0.0
 11
106.0818388450359
 21
6.72256890013743
 31
0.0
  0
LINE
  5
D9
330
1F
100
AcDbEntity
  8
1
  6
Continuous
 62
     4
100
AcDbLine
 10
106.7436035509183
 20
6.87256890013743
 30
0.0
 11
106.3465447273889
 21
6.87256890013743
 31
0.0
  0
LINE
  5
DA
330
1F
100
AcDbEntity
  8
1
  6
Continuous
 62
     4
100
AcDbLine
 10
107.2730153156241
 20
6.87256890013743
 30
0.0
 11
106.7436035509183
 21
6.87256890013743
 31
0.0
  0
LINE
  5
DB
330
1F
100
AcDbEntity
  8
1
  6
Continuous
 62
     4
100
AcDbLine
 10
107.80242708033
 20
6.57256890013743
 30
0.0
 11
107.2730153156241
 21
6.87256890013743
 31
0.0
  0
LINE
  5
DC
330
1F
100
AcDbEntity
  8
1
  6
Continuous
 62
     4
100
AcDbLine
 10
108.067132962683
 20
6.12256890013743
 30
0.0
 11
107.80242708033
 21
6.57256890013743
 31
0.0
  0
LINE
  5
DD
330
1F
100
AcDbEntity
  8
1
  6
Continuous
 62
     4
100
AcDbLine
 10
103.1700741391536
 20
2.52256890013743
 30
0.0
 11
101.5818388450359
 21
2.52256890013743
 31
0.0
  0
LINE
  5
DE
330
1F
100
AcDbEntity
  8
1
  6
Continuous
 62
     4
100
AcDbLine
 10
103.9641917862124
 20
2.82256890013743
 30
0.0
 11
103.1700741391536
 21
2.52256890013743
 31
0.0
  0
LINE
  5
DF
330
1F
100
AcDbEntity
  8
1
  6
Continuous
 62
     4
100
AcDbLine
 10
104.2288976685653
 20
3.57256890013743
 30
0.0
 11
103.9641917862124
 21
2.82256890013743
 31
0.0
  0
LINE
  5
E0
330
1F
100
AcDbEntity
  8
1
  6
Continuous
 62
     4
100
AcDbLine
 10
103.9641917862124
 20
4.32256890013743
 30
0.0
 11
104.2288976685653
 21
3.57256890013743
 31
0.0
  0
LINE
  5
E1
330
1F
100
AcDbEntity
  8
1
  6
Continuous
 62
     4
100
AcDbLine
 10
103.1700741391536
 20
4.62256890013743
 30
0.0
 11
103.9641917862124
 21
4.32256890013743
 31
0.0
  0
LINE
  5
E2
330
1F
100
AcDbEntity
  8
1
  6
Continuous
 62
     4
100
AcDbLine
 10
101.5818388450359
 20
4.62256890013743
 30
0.0
 11
103.1700741391536
 21
4.62256890013743
 31
0.0
  0
LINE
  5
E3
330
1F
100
AcDbEntity
  8
1
  6
Continuous
 62
     4
100
AcDbLine
 10
103.1700741391536
 20
4.62256890013743
 30
0.0
 11
101.5818388450359
 21
4.62256890013743
 31
0.0
  0
LINE
  5
E4
330
1F
100
AcDbEntity
  8
1
  6
Continuous
 62
     4
100
AcDbLine
 10
103.8318388450359
 20
5.07256890013743
 30
0.0
 11
103.1700741391536
 21
4.62256890013743
 31
0.0
  0
LINE
  5
E5
330
1F
100
AcDbEntity
  8
1
  6
Continuous
 62
     4
100
AcDbLine
 10
103.9641917862124
 20
5.67256890013743
 30
0.0
 11
103.8318388450359
 21
5.07256890013743
 31
0.0
  0
LINE
  5
E6
330
1F
100
AcDbEntity
  8
1
  6
Continuous
 62
     4
100
AcDbLine
 10
103.8318388450359
 20
6.42256890013743
 30
0.0
 11
103.9641917862124
 21
5.67256890013743
 31
0.0
  0
LINE
  5
E7
330
1F
100
AcDbEntity
  8
1
  6
Continuous
 62
     4
100
AcDbLine
 10
103.1700741391536
 20
6.72256890013743
 30
0.0
 11
103.8318388450359
 21
6.42256890013743
 31
0.0
  0
LINE
  5
E8
330
1F
100
AcDbEntity
  8
1
  6
Continuous
 62
     4
100
AcDbLine
 10
101.5818388450359
 20
6.72256890013743
 30
0.0
 11
103.1700741391536
 21
6.72256890013743
 31
0.0
  0
LINE
  5
E9
330
1F
100
AcDbEntity
  8
1
  6
Continuous
 62
     4
100
AcDbLine
 10
101.5818388450359
 20
2.52256890013743
 30
0.0
 11
101.5818388450359
 21
6.72256890013743
 31
0.0
  0
LINE
  5
EA
330
1F
100
AcDbEntity
  8
1
  6
Continuous
 62
     4
100
AcDbLine
 10
83.44948590385944
 20
16.51227983641996
 30
0.0
 11
85.4347800215065
 21
16.51227983641996
 31
0.0
  0
LINE
  5
EB
330
1F
100
AcDbEntity
  8
1
  6
Continuous
 62
     4
100
AcDbLine
 10
82.52301531562415
 20
13.66227983641996
 30
0.0
 11
82.52301531562415
 21
15.76227983641996
 31
0.0
  0
LINE
  5
EC
330
1F
100
AcDbEntity
  8
1
  6
Continuous
 62
     4
100
AcDbLine
 10
84.77301531562415
 20
13.66227983641996
 30
0.0
 11
82.52301531562415
 21
13.66227983641996
 31
0.0
  0
LINE
  5
ED
330
1F
100
AcDbEntity
  8
1
  6
Continuous
 62
     4
100
AcDbLine
 10
84.77301531562415
 20
15.76227983641996
 30
0.0
 11
84.77301531562415
 21
13.66227983641996
 31
0.0
  0
LINE
  5
EE
330
1F
100
AcDbEntity
  8
1
  6
Continuous
 62
     4
100
AcDbLine
 10
82.52301531562415
 20
15.76227983641996
 30
0.0
 11
84.77301531562415
 21
15.76227983641996
 31
0.0
  0
LINE
  5
EF
330
1F
100
AcDbEntity
  8
1
  6
Continuous
 62
     4
100
AcDbLine
 10
85.03772119797709
 20
12.61227983641996
 30
0.0
 11
84.37595649209473
 21
12.76227983641996
 31
0.0
  0
LINE
  5
F0
330
1F
100
AcDbEntity
  8
1
  6
Continuous
 62
     4
100
AcDbLine
 10
85.4347800215065
 20
13.06227983641996
 30
0.0
 11
85.03772119797709
 21
12.61227983641996
 31
0.0
  0
LINE
  5
F1
330
1F
100
AcDbEntity
  8
1
  6
Continuous
 62
     4
100
AcDbLine
 10
85.4347800215065
 20
16.51227983641996
 30
0.0
 11
85.4347800215065
 21
13.06227983641996
 31
0.0
  0
LINE
  5
F2
330
1F
100
AcDbEntity
  8
1
  6
Continuous
 62
     4
100
AcDbLine
 10
81.86125060974179
 20
16.51227983641996
 30
0.0
 11
83.44948590385944
 21
16.51227983641996
 31
0.0
  0
LINE
  5
F3
330
1F
100
AcDbEntity
  8
1
  6
Continuous
 62
     4
100
AcDbLine
 10
81.86125060974179
 20
12.61227983641996
 30
0.0
 11
81.86125060974179
 21
16.51227983641996
 31
0.0
  0
LINE
  5
F4
330
1F
100
AcDbEntity
  8
1
  6
Continuous
 62
     4
100
AcDbLine
 10
83.71419178621238
 20
17.11227983641996
 30
0.0
 11
83.44948590385944
 21
16.51227983641996
 31
0.0
  0
LINE
  5
F5
330
1F
100
AcDbEntity
  8
1
  6
Continuous
 62
     4
100
AcDbLine
 10
77.49360355091828
 20
16.51227983641996
 30
0.0
 11
80.27301531562416
 21
16.51227983641996
 31
0.0
  0
LINE
  5
F6
330
1F
100
AcDbEntity
  8
1
  6
Continuous
 62
     4
100
AcDbLine
 10
77.49360355091828
 20
15.46227983641996
 30
0.0
 11
77.49360355091828
 21
15.01227983641996
 31
0.0
  0
LINE
  5
F7
330
1F
100
AcDbEntity
  8
1
  6
Continuous
 62
     4
100
AcDbLine
 10
79.2141917862124
 20
12.61227983641996
 30
0.0
 11
78.02301531562416
 21
12.76227983641996
 31
0.0
  0
LINE
  5
F8
330
1F
100
AcDbEntity
  8
1
  6
Continuous
 62
     4
100
AcDbLine
 10
80.00830943327122
 20
13.66227983641996
 30
0.0
 11
79.2141917862124
 21
12.61227983641996
 31
0.0
  0
LINE
  5
F9
330
1F
100
AcDbEntity
  8
1
  6
Continuous
 62
     4
100
AcDbLine
 10
80.00830943327122
 20
15.46227983641996
 30
0.0
 11
80.00830943327122
 21
13.66227983641996
 31
0.0
  0
LINE
  5
FA
330
1F
100
AcDbEntity
  8
1
  6
Continuous
 62
     4
100
AcDbLine
 10
77.49360355091828
 20
15.46227983641996
 30
0.0
 11
80.00830943327122
 21
15.46227983641996
 31
0.0
  0
LINE
  5
FB
330
1F
100
AcDbEntity
  8
1
  6
Continuous
 62
     4
100
AcDbLine
 10
77.09654472738886
 20
13.66227983641996
 30
0.0
 11
76.30242708033003
 21
12.61227983641996
 31
0.0
  0
LINE
  5
FC
330
1F
100
AcDbEntity
  8
1
  6
Continuous
 62
     4
100
AcDbLine
 10
77.49360355091828
 20
15.01227983641996
 30
0.0
 11
77.09654472738886
 21
13.66227983641996
 31
0.0
  0
LINE
  5
FD
330
1F
100
AcDbEntity
  8
1
  6
Continuous
 62
     4
100
AcDbLine
 10
77.49360355091828
 20
16.51227983641996
 30
0.0
 11
77.49360355091828
 21
15.46227983641996
 31
0.0
  0
LINE
  5
FE
330
1F
100
AcDbEntity
  8
1
  6
Continuous
 62
     4
100
AcDbLine
 10
76.30242708033003
 20
16.51227983641996
 30
0.0
 11
77.49360355091828
 21
16.51227983641996
 31
0.0
  0
LINE
  5
FF
330
1F
100
AcDbEntity
  8
1
  6
Continuous
 62
     4
100
AcDbLine
 10
78.42007413915357
 20
17.11227983641996
 30
0.0
 11
78.42007413915357
 21
16.51227983641996
 31
0.0
  0
LINE
  5
100
330
1F
100
AcDbEntity
  8
1
  6
Continuous
 62
     4
100
AcDbLine
 10
72.99360355091828
 20
16.66227983641996
 30
0.0
 11
72.99360355091828
 21
12.46227983641996
 31
0.0
  0
LINE
  5
101
330
1F
100
AcDbEntity
  8
1
  6
Continuous
 62
     4
100
AcDbLine
 10
74.18478002150651
 20
13.81227983641996
 30
0.0
 11
75.1112506097418
 21
12.76227983641996
 31
0.0
  0
LINE
  5
102
330
1F
100
AcDbEntity
  8
1
  6
Continuous
 62
     4
100
AcDbLine
 10
73.52301531562415
 20
15.01227983641996
 30
0.0
 11
74.18478002150651
 21
13.81227983641996
 31
0.0
  0
LINE
  5
103
330
1F
100
AcDbEntity
  8
1
  6
Continuous
 62
     4
100
AcDbLine
 10
72.99360355091828
 20
16.66227983641996
 30
0.0
 11
73.52301531562415
 21
15.01227983641996
 31
0.0
  0
LINE
  5
104
330
1F
100
AcDbEntity
  8
1
  6
Continuous
 62
     4
100
AcDbLine
 10
74.84654472738886
 20
16.66227983641996
 30
0.0
 11
73.78772119797709
 21
15.16227983641996
 31
0.0
  0
LINE
  5
105
330
1F
100
AcDbEntity
  8
1
  6
Continuous
 62
     4
100
AcDbLine
 10
71.80242708033003
 20
13.96227983641996
 30
0.0
 11
71.00830943327121
 21
12.91227983641996
 31
0.0
  0
LINE
  5
106
330
1F
100
AcDbEntity
  8
1
  6
Continuous
 62
     4
100
AcDbLine
 10
72.19948590385945
 20
15.01227983641996
 30
0.0
 11
71.80242708033003
 21
13.96227983641996
 31
0.0
  0
LINE
  5
107
330
1F
100
AcDbEntity
  8
1
  6
Continuous
 62
     4
100
AcDbLine
 10
72.33183884503592
 20
16.21227983641996
 30
0.0
 11
72.19948590385945
 21
15.01227983641996
 31
0.0
  0
LINE
  5
108
330
1F
100
AcDbEntity
  8
1
  6
Continuous
 62
     4
100
AcDbLine
 10
71.00830943327121
 20
16.21227983641996
 30
0.0
 11
72.33183884503592
 21
16.21227983641996
 31
0.0
  0
LINE
  5
109
330
1F
100
AcDbEntity
  8
1
  6
Continuous
 62
     4
100
AcDbLine
 10
72.99360355091828
 20
12.46227983641996
 30
0.0
 11
72.06713296268298
 21
13.06227983641996
 31
0.0
  0
LINE
  5
10A
330
1F
100
AcDbEntity
  8
1
  6
Continuous
 62
     4
100
AcDbLine
 10
72.99360355091828
 20
17.11227983641996
 30
0.0
 11
72.99360355091828
 21
16.66227983641996
 31
0.0
  0
LINE
  5
10B
330
1F
100
AcDbEntity
  8
1
  6
Continuous
 62
     4
100
AcDbLine
 10
68.09654472738886
 20
16.66227983641996
 30
0.0
 11
69.55242708033003
 21
16.66227983641996
 31
0.0
  0
LINE
  5
10C
330
1F
100
AcDbEntity
  8
1
  6
Continuous
 62
     4
100
AcDbLine
 10
69.68478002150651
 20
12.61227983641996
 30
0.0
 11
69.68478002150651
 21
13.66227983641996
 31
0.0
  0
LINE
  5
10D
330
1F
100
AcDbEntity
  8
1
  6
Continuous
 62
     4
100
AcDbLine
 10
69.02301531562415
 20
12.61227983641996
 30
0.0
 11
69.68478002150651
 21
12.61227983641996
 31
0.0
  0
LINE
  5
10E
330
1F
100
AcDbEntity
  8
1
  6
Continuous
 62
     4
100
AcDbLine
 10
69.02301531562415
 20
15.01227983641996
 30
0.0
 11
69.02301531562415
 21
12.61227983641996
 31
0.0
  0
LINE
  5
10F
330
1F
100
AcDbEntity
  8
1
  6
Continuous
 62
     4
100
AcDbLine
 10
68.09654472738886
 20
15.01227983641996
 30
0.0
 11
68.09654472738886
 21
12.61227983641996
 31
0.0
  0
LINE
  5
110
330
1F
100
AcDbEntity
  8
1
  6
Continuous
 62
     4
100
AcDbLine
 10
66.90536825680063
 20
13.36227983641996
 30
0.0
 11
66.37595649209474
 21
12.61227983641996
 31
0.0
  0
LINE
  5
111
330
1F
100
AcDbEntity
  8
1
  6
Continuous
 62
     4
100
AcDbLine
 10
67.17007413915357
 20
14.11227983641996
 30
0.0
 11
66.90536825680063
 21
13.36227983641996
 31
0.0
  0
LINE
  5
112
330
1F
100
AcDbEntity
  8
1
  6
Continuous
 62
     4
100
AcDbLine
 10
67.30242708033003
 20
15.01227983641996
 30
0.0
 11
67.17007413915357
 21
14.11227983641996
 31
0.0
  0
LINE
  5
113
330
1F
100
AcDbEntity
  8
1
  6
Continuous
 62
     4
100
AcDbLine
 10
69.42007413915357
 20
15.16227983641996
 30
0.0
 11
69.68478002150651
 21
14.56227983641996
 31
0.0
  0
LINE
  5
114
330
1F
100
AcDbEntity
  8
1
  6
Continuous
 62
     4
100
AcDbLine
 10
68.89066237444769
 20
16.06227983641996
 30
0.0
 11
69.42007413915357
 21
15.16227983641996
 31
0.0
  0
LINE
  5
115
330
1F
100
AcDbEntity
  8
1
  6
Continuous
 62
     4
100
AcDbLine
 10
67.03772119797709
 20
15.01227983641996
 30
0.0
 11
69.42007413915357
 21
15.16227983641996
 31
0.0
  0
LINE
  5
116
330
1F
100
AcDbEntity
  8
1
  6
Continuous
 62
     4
100
AcDbLine
 10
66.64066237444769
 20
15.01227983641996
 30
0.0
 11
67.03772119797709
 21
15.01227983641996
 31
0.0
  0
LINE
  5
117
330
1F
100
AcDbEntity
  8
1
  6
Continuous
 62
     4
100
AcDbLine
 10
68.09654472738886
 20
16.66227983641996
 30
0.0
 11
67.03772119797709
 21
15.01227983641996
 31
0.0
  0
LINE
  5
118
330
1F
100
AcDbEntity
  8
1
  6
Continuous
 62
     4
100
AcDbLine
 10
68.09654472738886
 20
17.26227983641996
 30
0.0
 11
68.09654472738886
 21
16.66227983641996
 31
0.0
  0
LINE
  5
119
330
1F
100
AcDbEntity
  8
1
  6
Continuous
 62
     4
100
AcDbLine
 10
66.64066237444769
 20
16.66227983641996
 30
0.0
 11
68.09654472738886
 21
16.66227983641996
 31
0.0
  0
LINE
  5
11A
330
1F
100
AcDbEntity
  8
1
  6
Continuous
 62
     4
100
AcDbLine
 10
65.84654472738886
 20
12.61227983641996
 30
0.0
 11
66.50830943327121
 21
14.41227983641996
 31
0.0
  0
LINE
  5
11B
330
1F
100
AcDbEntity
  8
1
  6
Continuous
 62
     4
100
AcDbLine
 10
65.84654472738886
 20
15.46227983641996
 30
0.0
 11
66.50830943327121
 21
14.86227983641996
 31
0.0
  0
LINE
  5
11C
330
1F
100
AcDbEntity
  8
1
  6
Continuous
 62
     4
100
AcDbLine
 10
65.97889766856532
 20
16.81227983641996
 30
0.0
 11
66.64066237444769
 21
16.21227983641996
 31
0.0
  0
LINE
  5
11D
330
1F
100
AcDbEntity
  8
1
  6
Continuous
 62
     4
100
AcDbLine
 10
26.19627496730197
 20
118.6440406455354
 30
0.0
 11
29.10803967318432
 21
118.6440406455354
 31
0.0
  0
LINE
  5
11E
330
1F
100
AcDbEntity
  8
1
  6
Continuous
 62
     4
100
AcDbLine
 10
26.46098084965491
 20
119.3940406455354
 30
0.0
 11
26.19627496730197
 21
118.6440406455354
 31
0.0
  0
LINE
  5
11F
330
1F
100
AcDbEntity
  8
1
  6
Continuous
 62
     4
100
AcDbLine
 10
26.72568673200786
 20
119.8440406455354
 30
0.0
 11
26.46098084965491
 21
119.3940406455354
 31
0.0
  0
LINE
  5
120
330
1F
100
AcDbEntity
  8
1
  6
Continuous
 62
     4
100
AcDbLine
 10
27.25509849671374
 20
120.2940406455354
 30
0.0
 11
26.72568673200786
 21
119.8440406455354
 31
0.0
  0
LINE
  5
121
330
1F
100
AcDbEntity
  8
1
  6
Continuous
 62
     4
100
AcDbLine
 10
27.78451026141962
 20
120.5940406455354
 30
0.0
 11
27.25509849671374
 21
120.2940406455354
 31
0.0
  0
LINE
  5
122
330
1F
100
AcDbEntity
  8
1
  6
Continuous
 62
     4
100
AcDbLine
 10
28.44627496730197
 20
121.0440406455354
 30
0.0
 11
27.78451026141962
 21
120.5940406455354
 31
0.0
  0
LINE
  5
123
330
1F
100
AcDbEntity
  8
1
  6
Continuous
 62
     4
100
AcDbLine
 10
28.84333379083138
 20
121.6440406455354
 30
0.0
 11
28.44627496730197
 21
121.0440406455354
 31
0.0
  0
LINE
  5
124
330
1F
100
AcDbEntity
  8
1
  6
Continuous
 62
     4
100
AcDbLine
 10
28.97568673200785
 20
122.2440406455354
 30
0.0
 11
28.84333379083138
 21
121.6440406455354
 31
0.0
  0
LINE
  5
125
330
1F
100
AcDbEntity
  8
1
  6
Continuous
 62
     4
100
AcDbLine
 10
28.44627496730197
 20
122.8440406455354
 30
0.0
 11
28.97568673200785
 21
122.2440406455354
 31
0.0
  0
LINE
  5
126
330
1F
100
AcDbEntity
  8
1
  6
Continuous
 62
     4
100
AcDbLine
 10
27.65215732024315
 20
123.1440406455354
 30
0.0
 11
28.44627496730197
 21
122.8440406455354
 31
0.0
  0
LINE
  5
127
330
1F
100
AcDbEntity
  8
1
  6
Continuous
 62
     4
100
AcDbLine
 10
26.85803967318432
 20
122.8440406455354
 30
0.0
 11
27.65215732024315
 21
123.1440406455354
 31
0.0
  0
LINE
  5
128
330
1F
100
AcDbEntity
  8
1
  6
Continuous
 62
     4
100
AcDbLine
 10
26.32862790847844
 20
122.2440406455354
 30
0.0
 11
26.85803967318432
 21
122.8440406455354
 31
0.0
  0
LINE
  5
129
330
1F
100
AcDbEntity
  8
1
  6
Continuous
 62
     4
100
AcDbLine
 10
24.87274555553726
 20
122.6940406455354
 30
0.0
 11
22.09333379083138
 21
119.3940406455354
 31
0.0
  0
LINE
  5
12A
330
1F
100
AcDbEntity
  8
1
  6
Continuous
 62
     4
100
AcDbLine
 10
20.76980437906667
 20
123.1440406455354
 30
0.0
 11
20.76980437906667
 21
118.6440406455354
 31
0.0
  0
LINE
  5
12B
330
1F
100
AcDbEntity
  8
1
  6
Continuous
 62
     4
100
AcDbLine
 10
20.10803967318432
 20
122.6940406455354
 30
0.0
 11
20.76980437906667
 21
123.1440406455354
 31
0.0
  0
LINE
  5
12C
330
1F
100
AcDbEntity
  8
1
  6
Continuous
 62
     4
100
AcDbLine
 10
16.79921614377256
 20
119.2440406455354
 30
0.0
 11
16.66686320259609
 21
119.8440406455354
 31
0.0
  0
LINE
  5
12D
330
1F
100
AcDbEntity
  8
1
  6
Continuous
 62
     4
100
AcDbLine
 10
17.19627496730197
 20
118.7940406455354
 30
0.0
 11
16.79921614377256
 21
119.2440406455354
 31
0.0
  0
LINE
  5
12E
330
1F
100
AcDbEntity
  8
1
  6
Continuous
 62
     4
100
AcDbLine
 10
17.72568673200786
 20
118.6440406455354
 30
0.0
 11
17.19627496730197
 21
118.7940406455354
 31
0.0
  0
LINE
  5
12F
330
1F
100
AcDbEntity
  8
1
  6
Continuous
 62
     4
100
AcDbLine
 10
18.25509849671374
 20
118.7940406455354
 30
0.0
 11
17.72568673200786
 21
118.6440406455354
 31
0.0
  0
LINE
  5
130
330
1F
100
AcDbEntity
  8
1
  6
Continuous
 62
     4
100
AcDbLine
 10
18.65215732024315
 20
119.2440406455354
 30
0.0
 11
18.25509849671374
 21
118.7940406455354
 31
0.0
  0
LINE
  5
131
330
1F
100
AcDbEntity
  8
1
  6
Continuous
 62
     4
100
AcDbLine
 10
18.78451026141962
 20
119.8440406455354
 30
0.0
 11
18.65215732024315
 21
119.2440406455354
 31
0.0
  0
LINE
  5
132
330
1F
100
AcDbEntity
  8
1
  6
Continuous
 62
     4
100
AcDbLine
 10
18.78451026141962
 20
123.1440406455354
 30
0.0
 11
18.78451026141962
 21
119.8440406455354
 31
0.0
  0
LINE
  5
133
330
1F
100
AcDbEntity
  8
1
  6
Continuous
 62
     4
100
AcDbLine
 10
12.69627496730197
 20
120.7440406455354
 30
0.0
 11
12.69627496730197
 21
122.9940406455354
 31
0.0
  0
LINE
  5
134
330
1F
100
AcDbEntity
  8
1
  6
Continuous
 62
     4
100
AcDbLine
 10
14.41686320259609
 20
120.7440406455354
 30
0.0
 11
12.69627496730197
 21
120.7440406455354
 31
0.0
  0
LINE
  5
135
330
1F
100
AcDbEntity
  8
1
  6
Continuous
 62
     4
100
AcDbLine
 10
14.94627496730197
 20
121.0440406455354
 30
0.0
 11
14.41686320259609
 21
120.7440406455354
 31
0.0
  0
LINE
  5
136
330
1F
100
AcDbEntity
  8
1
  6
Continuous
 62
     4
100
AcDbLine
 10
15.21098084965491
 20
121.3440406455354
 30
0.0
 11
14.94627496730197
 21
121.0440406455354
 31
0.0
  0
LINE
  5
137
330
1F
100
AcDbEntity
  8
1
  6
Continuous
 62
     4
100
AcDbLine
 10
15.34333379083138
 20
121.9440406455354
 30
0.0
 11
15.21098084965491
 21
121.3440406455354
 31
0.0
  0
LINE
  5
138
330
1F
100
AcDbEntity
  8
1
  6
Continuous
 62
     4
100
AcDbLine
 10
15.21098084965491
 20
122.2440406455354
 30
0.0
 11
15.34333379083138
 21
121.9440406455354
 31
0.0
  0
LINE
  5
139
330
1F
100
AcDbEntity
  8
1
  6
Continuous
 62
     4
100
AcDbLine
 10
14.94627496730197
 20
122.6940406455354
 30
0.0
 11
15.21098084965491
 21
122.2440406455354
 31
0.0
  0
LINE
  5
13A
330
1F
100
AcDbEntity
  8
1
  6
Continuous
 62
     4
100
AcDbLine
 10
14.41686320259609
 20
122.9940406455354
 30
0.0
 11
14.94627496730197
 21
122.6940406455354
 31
0.0
  0
LINE
  5
13B
330
1F
100
AcDbEntity
  8
1
  6
Continuous
 62
     4
100
AcDbLine
 10
12.69627496730197
 20
122.9940406455354
 30
0.0
 11
14.41686320259609
 21
122.9940406455354
 31
0.0
  0
LINE
  5
13C
330
1F
100
AcDbEntity
  8
1
  6
Continuous
 62
     4
100
AcDbLine
 10
12.69627496730197
 20
118.6440406455354
 30
0.0
 11
12.69627496730197
 21
120.7440406455354
 31
0.0
  0
LINE
  5
13D
330
1F
100
AcDbEntity
  8
1
  6
Continuous
 62
     4
100
AcDbLine
 10
132.6162926161719
 20
108.75
 30
0.0
 11
135.5280573220543
 21
108.75
 31
0.0
  0
LINE
  5
13E
330
1F
100
AcDbEntity
  8
1
  6
Continuous
 62
     4
100
AcDbLine
 10
132.8809984985249
 20
109.5
 30
0.0
 11
132.6162926161719
 21
108.75
 31
0.0
  0
LINE
  5
13F
330
1F
100
AcDbEntity
  8
1
  6
Continuous
 62
     4
100
AcDbLine
 10
133.1457043808778
 20
109.95
 30
0.0
 11
132.8809984985249
 21
109.5
 31
0.0
  0
LINE
  5
140
330
1F
100
AcDbEntity
  8
1
  6
Continuous
 62
     4
100
AcDbLine
 10
133.6751161455837
 20
110.4
 30
0.0
 11
133.1457043808778
 21
109.95
 31
0.0
  0
LINE
  5
141
330
1F
100
AcDbEntity
  8
1
  6
Continuous
 62
     4
100
AcDbLine
 10
134.2045279102896
 20
110.7
 30
0.0
 11
133.6751161455837
 21
110.4
 31
0.0
  0
LINE
  5
142
330
1F
100
AcDbEntity
  8
1
  6
Continuous
 62
     4
100
AcDbLine
 10
134.8662926161719
 20
111.15
 30
0.0
 11
134.2045279102896
 21
110.7
 31
0.0
  0
LINE
  5
143
330
1F
100
AcDbEntity
  8
1
  6
Continuous
 62
     4
100
AcDbLine
 10
135.2633514397014
 20
111.75
 30
0.0
 11
134.8662926161719
 21
111.15
 31
0.0
  0
LINE
  5
144
330
1F
100
AcDbEntity
  8
1
  6
Continuous
 62
     4
100
AcDbLine
 10
135.3957043808778
 20
112.35
 30
0.0
 11
135.2633514397014
 21
111.75
 31
0.0
  0
LINE
  5
145
330
1F
100
AcDbEntity
  8
1
  6
Continuous
 62
     4
100
AcDbLine
 10
134.8662926161719
 20
112.95
 30
0.0
 11
135.3957043808778
 21
112.35
 31
0.0
  0
LINE
  5
146
330
1F
100
AcDbEntity
  8
1
  6
Continuous
 62
     4
100
AcDbLine
 10
134.0721749691131
 20
113.25
 30
0.0
 11
134.8662926161719
 21
112.95
 31
0.0
  0
LINE
  5
147
330
1F
100
AcDbEntity
  8
1
  6
Continuous
 62
     4
100
AcDbLine
 10
133.2780573220543
 20
112.95
 30
0.0
 11
134.0721749691131
 21
113.25
 31
0.0
  0
LINE
  5
148
330
1F
100
AcDbEntity
  8
1
  6
Continuous
 62
     4
100
AcDbLine
 10
132.7486455573484
 20
112.35
 30
0.0
 11
133.2780573220543
 21
112.95
 31
0.0
  0
LINE
  5
149
330
1F
100
AcDbEntity
  8
1
  6
Continuous
 62
     4
100
AcDbLine
 10
131.2927632044072
 20
112.8
 30
0.0
 11
128.5133514397014
 21
109.5
 31
0.0
  0
LINE
  5
14A
330
1F
100
AcDbEntity
  8
1
  6
Continuous
 62
     4
100
AcDbLine
 10
127.1898220279366
 20
113.25
 30
0.0
 11
127.1898220279366
 21
108.75
 31
0.0
  0
LINE
  5
14B
330
1F
100
AcDbEntity
  8
1
  6
Continuous
 62
     4
100
AcDbLine
 10
126.5280573220543
 20
112.8
 30
0.0
 11
127.1898220279366
 21
113.25
 31
0.0
  0
LINE
  5
14C
330
1F
100
AcDbEntity
  8
1
  6
Continuous
 62
     4
100
AcDbLine
 10
124.9398220279367
 20
109.2
 30
0.0
 11
125.2045279102896
 21
109.65
 31
0.0
  0
LINE
  5
14D
330
1F
100
AcDbEntity
  8
1
  6
Continuous
 62
     4
100
AcDbLine
 10
124.5427632044073
 20
108.9
 30
0.0
 11
124.9398220279367
 21
109.2
 31
0.0
  0
LINE
  5
14E
330
1F
100
AcDbEntity
  8
1
  6
Continuous
 62
     4
100
AcDbLine
 10
124.0133514397014
 20
108.75
 30
0.0
 11
124.5427632044073
 21
108.9
 31
0.0
  0
LINE
  5
14F
330
1F
100
AcDbEntity
  8
1
  6
Continuous
 62
     4
100
AcDbLine
 10
123.616292616172
 20
108.75
 30
0.0
 11
124.0133514397014
 21
108.75
 31
0.0
  0
LINE
  5
150
330
1F
100
AcDbEntity
  8
1
  6
Continuous
 62
     4
100
AcDbLine
 10
123.351586733819
 20
108.9
 30
0.0
 11
123.616292616172
 21
108.75
 31
0.0
  0
LINE
  5
151
330
1F
100
AcDbEntity
  8
1
  6
Continuous
 62
     4
100
AcDbLine
 10
123.2192337926425
 20
109.2
 30
0.0
 11
123.351586733819
 21
108.9
 31
0.0
  0
LINE
  5
152
330
1F
100
AcDbEntity
  8
1
  6
Continuous
 62
     4
100
AcDbLine
 10
123.0868808514661
 20
109.65
 30
0.0
 11
123.2192337926425
 21
109.2
 31
0.0
  0
LINE
  5
153
330
1F
100
AcDbEntity
  8
1
  6
Continuous
 62
     4
100
AcDbLine
 10
122.9545279102896
 20
110.25
 30
0.0
 11
123.0868808514661
 21
109.65
 31
0.0
  0
LINE
  5
154
330
1F
100
AcDbEntity
  8
1
  6
Continuous
 62
     4
100
AcDbLine
 10
123.0868808514661
 20
111.0
 30
0.0
 11
122.9545279102896
 21
110.25
 31
0.0
  0
LINE
  5
155
330
1F
100
AcDbEntity
  8
1
  6
Continuous
 62
     4
100
AcDbLine
 10
123.2192337926425
 20
111.45
 30
0.0
 11
123.0868808514661
 21
111.0
 31
0.0
  0
LINE
  5
156
330
1F
100
AcDbEntity
  8
1
  6
Continuous
 62
     4
100
AcDbLine
 10
123.4839396749955
 20
111.9
 30
0.0
 11
123.2192337926425
 21
111.45
 31
0.0
  0
LINE
  5
157
330
1F
100
AcDbEntity
  8
1
  6
Continuous
 62
     4
100
AcDbLine
 10
124.0133514397014
 20
112.05
 30
0.0
 11
123.4839396749955
 21
111.9
 31
0.0
  0
LINE
  5
158
330
1F
100
AcDbEntity
  8
1
  6
Continuous
 62
     4
100
AcDbLine
 10
124.5427632044073
 20
111.9
 30
0.0
 11
124.0133514397014
 21
112.05
 31
0.0
  0
LINE
  5
159
330
1F
100
AcDbEntity
  8
1
  6
Continuous
 62
     4
100
AcDbLine
 10
124.9398220279367
 20
111.6
 30
0.0
 11
124.5427632044073
 21
111.9
 31
0.0
  0
LINE
  5
15A
330
1F
100
AcDbEntity
  8
1
  6
Continuous
 62
     4
100
AcDbLine
 10
125.2045279102896
 20
111.3
 30
0.0
 11
124.9398220279367
 21
111.6
 31
0.0
  0
LINE
  5
15B
330
1F
100
AcDbEntity
  8
1
  6
Continuous
 62
     4
100
AcDbLine
 10
118.851586733819
 20
110.85
 30
0.0
 11
118.851586733819
 21
113.25
 31
0.0
  0
LINE
  5
15C
330
1F
100
AcDbEntity
  8
1
  6
Continuous
 62
     4
100
AcDbLine
 10
120.5721749691131
 20
110.85
 30
0.0
 11
121.6309984985249
 21
108.75
 31
0.0
  0
LINE
  5
15D
330
1F
100
AcDbEntity
  8
1
  6
Continuous
 62
     4
100
AcDbLine
 10
120.5721749691131
 20
110.85
 30
0.0
 11
118.851586733819
 21
110.85
 31
0.0
  0
LINE
  5
15E
330
1F
100
AcDbEntity
  8
1
  6
Continuous
 62
     4
100
AcDbLine
 10
121.101586733819
 20
111.15
 30
0.0
 11
120.5721749691131
 21
110.85
 31
0.0
  0
LINE
  5
15F
330
1F
100
AcDbEntity
  8
1
  6
Continuous
 62
     4
100
AcDbLine
 10
121.366292616172
 20
111.45
 30
0.0
 11
121.101586733819
 21
111.15
 31
0.0
  0
LINE
  5
160
330
1F
100
AcDbEntity
  8
1
  6
Continuous
 62
     4
100
AcDbLine
 10
121.4986455573484
 20
112.05
 30
0.0
 11
121.366292616172
 21
111.45
 31
0.0
  0
LINE
  5
161
330
1F
100
AcDbEntity
  8
1
  6
Continuous
 62
     4
100
AcDbLine
 10
121.366292616172
 20
112.5
 30
0.0
 11
121.4986455573484
 21
112.05
 31
0.0
  0
LINE
  5
162
330
1F
100
AcDbEntity
  8
1
  6
Continuous
 62
     4
100
AcDbLine
 10
121.101586733819
 20
112.95
 30
0.0
 11
121.366292616172
 21
112.5
 31
0.0
  0
LINE
  5
163
330
1F
100
AcDbEntity
  8
1
  6
Continuous
 62
     4
100
AcDbLine
 10
120.5721749691131
 20
113.25
 30
0.0
 11
121.101586733819
 21
112.95
 31
0.0
  0
LINE
  5
164
330
1F
100
AcDbEntity
  8
1
  6
Continuous
 62
     4
100
AcDbLine
 10
118.851586733819
 20
113.25
 30
0.0
 11
120.5721749691131
 21
113.25
 31
0.0
  0
LINE
  5
165
330
1F
100
AcDbEntity
  8
1
  6
Continuous
 62
     4
100
AcDbLine
 10
118.851586733819
 20
108.75
 30
0.0
 11
118.851586733819
 21
110.85
 31
0.0
  0
LINE
  5
166
330
1F
100
AcDbEntity
  8
1
  6
Continuous
 62
     4
100
AcDbLine
 10
164.6379091022141
 20
58.1440406455354
 30
0.0
 11
167.5496738080965
 21
58.1440406455354
 31
0.0
  0
LINE
  5
167
330
1F
100
AcDbEntity
  8
1
  6
Continuous
 62
     4
100
AcDbLine
 10
164.902614984567
 20
58.8940406455354
 30
0.0
 11
164.6379091022141
 21
58.1440406455354
 31
0.0
  0
LINE
  5
168
330
1F
100
AcDbEntity
  8
1
  6
Continuous
 62
     4
100
AcDbLine
 10
165.16732086692
 20
59.3440406455354
 30
0.0
 11
164.902614984567
 21
58.8940406455354
 31
0.0
  0
LINE
  5
169
330
1F
100
AcDbEntity
  8
1
  6
Continuous
 62
     4
100
AcDbLine
 10
165.6967326316259
 20
59.7940406455354
 30
0.0
 11
165.16732086692
 21
59.3440406455354
 31
0.0
  0
LINE
  5
16A
330
1F
100
AcDbEntity
  8
1
  6
Continuous
 62
     4
100
AcDbLine
 10
166.2261443963318
 20
60.0940406455354
 30
0.0
 11
165.6967326316259
 21
59.7940406455354
 31
0.0
  0
LINE
  5
16B
330
1F
100
AcDbEntity
  8
1
  6
Continuous
 62
     4
100
AcDbLine
 10
166.8879091022141
 20
60.5440406455354
 30
0.0
 11
166.2261443963318
 21
60.0940406455354
 31
0.0
  0
LINE
  5
16C
330
1F
100
AcDbEntity
  8
1
  6
Continuous
 62
     4
100
AcDbLine
 10
167.2849679257435
 20
61.1440406455354
 30
0.0
 11
166.8879091022141
 21
60.5440406455354
 31
0.0
  0
LINE
  5
16D
330
1F
100
AcDbEntity
  8
1
  6
Continuous
 62
     4
100
AcDbLine
 10
167.41732086692
 20
61.7440406455354
 30
0.0
 11
167.2849679257435
 21
61.1440406455354
 31
0.0
  0
LINE
  5
16E
330
1F
100
AcDbEntity
  8
1
  6
Continuous
 62
     4
100
AcDbLine
 10
166.8879091022141
 20
62.3440406455354
 30
0.0
 11
167.41732086692
 21
61.7440406455354
 31
0.0
  0
LINE
  5
16F
330
1F
100
AcDbEntity
  8
1
  6
Continuous
 62
     4
100
AcDbLine
 10
166.0937914551553
 20
62.6440406455354
 30
0.0
 11
166.8879091022141
 21
62.3440406455354
 31
0.0
  0
LINE
  5
170
330
1F
100
AcDbEntity
  8
1
  6
Continuous
 62
     4
100
AcDbLine
 10
165.2996738080965
 20
62.3440406455354
 30
0.0
 11
166.0937914551553
 21
62.6440406455354
 31
0.0
  0
LINE
  5
171
330
1F
100
AcDbEntity
  8
1
  6
Continuous
 62
     4
100
AcDbLine
 10
164.7702620433906
 20
61.7440406455354
 30
0.0
 11
165.2996738080965
 21
62.3440406455354
 31
0.0
  0
LINE
  5
172
330
1F
100
AcDbEntity
  8
1
  6
Continuous
 62
     4
100
AcDbLine
 10
163.3143796904494
 20
62.1940406455354
 30
0.0
 11
160.5349679257435
 21
58.8940406455354
 31
0.0
  0
LINE
  5
173
330
1F
100
AcDbEntity
  8
1
  6
Continuous
 62
     4
100
AcDbLine
 10
159.2114385139788
 20
62.6440406455354
 30
0.0
 11
159.2114385139788
 21
58.1440406455354
 31
0.0
  0
LINE
  5
174
330
1F
100
AcDbEntity
  8
1
  6
Continuous
 62
     4
100
AcDbLine
 10
158.5496738080965
 20
62.1940406455354
 30
0.0
 11
159.2114385139788
 21
62.6440406455354
 31
0.0
  0
LINE
  5
175
330
1F
100
AcDbEntity
  8
1
  6
Continuous
 62
     4
100
AcDbLine
 10
155.2408502786847
 20
58.7440406455354
 30
0.0
 11
155.1084973375082
 21
59.3440406455354
 31
0.0
  0
LINE
  5
176
330
1F
100
AcDbEntity
  8
1
  6
Continuous
 62
     4
100
AcDbLine
 10
155.6379091022141
 20
58.2940406455354
 30
0.0
 11
155.2408502786847
 21
58.7440406455354
 31
0.0
  0
LINE
  5
177
330
1F
100
AcDbEntity
  8
1
  6
Continuous
 62
     4
100
AcDbLine
 10
156.16732086692
 20
58.1440406455354
 30
0.0
 11
155.6379091022141
 21
58.2940406455354
 31
0.0
  0
LINE
  5
178
330
1F
100
AcDbEntity
  8
1
  6
Continuous
 62
     4
100
AcDbLine
 10
156.6967326316259
 20
58.2940406455354
 30
0.0
 11
156.16732086692
 21
58.1440406455354
 31
0.0
  0
LINE
  5
179
330
1F
100
AcDbEntity
  8
1
  6
Continuous
 62
     4
100
AcDbLine
 10
157.0937914551553
 20
58.7440406455354
 30
0.0
 11
156.6967326316259
 21
58.2940406455354
 31
0.0
  0
LINE
  5
17A
330
1F
100
AcDbEntity
  8
1
  6
Continuous
 62
     4
100
AcDbLine
 10
157.2261443963318
 20
59.3440406455354
 30
0.0
 11
157.0937914551553
 21
58.7440406455354
 31
0.0
  0
LINE
  5
17B
330
1F
100
AcDbEntity
  8
1
  6
Continuous
 62
     4
100
AcDbLine
 10
157.2261443963318
 20
62.6440406455354
 30
0.0
 11
157.2261443963318
 21
59.3440406455354
 31
0.0
  0
LINE
  5
17C
330
1F
100
AcDbEntity
  8
1
  6
Continuous
 62
     4
100
AcDbLine
 10
151.1379091022141
 20
60.2440406455354
 30
0.0
 11
151.1379091022141
 21
62.4940406455354
 31
0.0
  0
LINE
  5
17D
330
1F
100
AcDbEntity
  8
1
  6
Continuous
 62
     4
100
AcDbLine
 10
152.8584973375082
 20
60.2440406455354
 30
0.0
 11
151.1379091022141
 21
60.2440406455354
 31
0.0
  0
LINE
  5
17E
330
1F
100
AcDbEntity
  8
1
  6
Continuous
 62
     4
100
AcDbLine
 10
153.3879091022141
 20
60.5440406455354
 30
0.0
 11
152.8584973375082
 21
60.2440406455354
 31
0.0
  0
LINE
  5
17F
330
1F
100
AcDbEntity
  8
1
  6
Continuous
 62
     4
100
AcDbLine
 10
153.652614984567
 20
60.8440406455354
 30
0.0
 11
153.3879091022141
 21
60.5440406455354
 31
0.0
  0
LINE
  5
180
330
1F
100
AcDbEntity
  8
1
  6
Continuous
 62
     4
100
AcDbLine
 10
153.7849679257435
 20
61.4440406455354
 30
0.0
 11
153.652614984567
 21
60.8440406455354
 31
0.0
  0
LINE
  5
181
330
1F
100
AcDbEntity
  8
1
  6
Continuous
 62
     4
100
AcDbLine
 10
153.652614984567
 20
61.7440406455354
 30
0.0
 11
153.7849679257435
 21
61.4440406455354
 31
0.0
  0
LINE
  5
182
330
1F
100
AcDbEntity
  8
1
  6
Continuous
 62
     4
100
AcDbLine
 10
153.3879091022141
 20
62.1940406455354
 30
0.0
 11
153.652614984567
 21
61.7440406455354
 31
0.0
  0
LINE
  5
183
330
1F
100
AcDbEntity
  8
1
  6
Continuous
 62
     4
100
AcDbLine
 10
152.8584973375082
 20
62.4940406455354
 30
0.0
 11
153.3879091022141
 21
62.1940406455354
 31
0.0
  0
LINE
  5
184
330
1F
100
AcDbEntity
  8
1
  6
Continuous
 62
     4
100
AcDbLine
 10
151.1379091022141
 20
62.4940406455354
 30
0.0
 11
152.8584973375082
 21
62.4940406455354
 31
0.0
  0
LINE
  5
185
330
1F
100
AcDbEntity
  8
1
  6
Continuous
 62
     4
100
AcDbLine
 10
151.1379091022141
 20
58.1440406455354
 30
0.0
 11
151.1379091022141
 21
60.2440406455354
 31
0.0
  0
LINE
  5
186
330
1F
100
AcDbEntity
  8
2
  6
DOT_CENTER
 62
     1
100
AcDbLine
 10
197.5818388450359
 20
172.990690426503
 30
0.0
 11
197.5818388450359
 21
22.68807983398438
 31
0.0
  0
LINE
  5
187
330
1F
100
AcDbEntity
  8
2
  6
Continuous
 62
     3
100
AcDbLine
 10
72.71256866657026
 20
239.264422971548
 30
0.0
 11
71.33183884503592
 21
239.264422971548
 31
0.0
  0
LINE
  5
188
330
1F
100
AcDbEntity
  8
2
  6
Continuous
 62
     3
100
AcDbLine
 10
91.83183884503589
 20
239.264422971548
 30
0.0
 11
90.45110902354287
 21
239.264422971548
 31
0.0
  0
LINE
  5
189
330
1F
100
AcDbEntity
  8
2
  6
Continuous
 62
     3
100
AcDbLine
 10
91.83183884503592
 20
242.264422971548
 30
0.0
 11
91.83183884503592
 21
239.764422971548
 31
0.0
  0
LINE
  5
18A
330
1F
100
AcDbEntity
  8
2
  6
Continuous
 62
     3
100
AcDbLine
 10
90.8973388450359
 20
242.264422971548
 30
0.0
 11
90.8973388450359
 21
239.264422971548
 31
0.0
  0
LINE
  5
18B
330
1F
100
AcDbEntity
  8
2
  6
Continuous
 62
     3
100
AcDbLine
 10
72.26633884503593
 20
242.264422971548
 30
0.0
 11
72.26633884503593
 21
239.264422971548
 31
0.0
  0
LINE
  5
18C
330
1F
100
AcDbEntity
  8
2
  6
Continuous
 62
     3
100
AcDbLine
 10
71.33183884503592
 20
242.264422971548
 30
0.0
 11
71.33183884503592
 21
236.764422971548
 31
0.0
  0
LINE
  5
18D
330
1F
100
AcDbEntity
  8
1
  6
DOT_CENTER
 62
     1
100
AcDbLine
 10
81.58183884503592
 20
196.764422971548
 30
0.0
 11
81.58183884503592
 21
259.764422971544
 31
0.0
  0
LINE
  5
18E
330
1F
100
AcDbEntity
  8
1
  6
Continuous
 62
     3
100
AcDbLine
 10
89.22473190306751
 20
242.264422971548
 30
0.0
 11
92.58183884503595
 21
242.264422971548
 31
0.0
  0
LINE
  5
18F
330
1F
100
AcDbEntity
  8
1
  6
Continuous
 62
     3
100
AcDbLine
 10
85.58183884505283
 20
253.264422971548
 30
0.0
 11
89.58183884503592
 21
253.264422971548
 31
0.0
  0
LINE
  5
190
330
1F
100
AcDbEntity
  8
100
  6
Continuous
 62
     3
100
AcDbLine
 10
66.35033054369988
 20
227.8090006512846
 30
0.0
 11
63.2006409985529
 21
233.264422971548
 31
0.0
  0
LINE
  5
191
330
1F
100
AcDbEntity
  8
100
  6
Continuous
 62
     3
100
AcDbLine
 10
47.58183884503592
 20
234.764422971548
 30
0.0
 11
69.33183884503592
 21
234.764422971548
 31
0.0
  0
LINE
  5
192
330
1F
100
AcDbEntity
  8
100
  6
Continuous
 62
     3
100
AcDbLine
 10
93.83183884503592
 20
237.764422971548
 30
0.0
 11
106.5818388450359
 21
237.764422971548
 31
0.0
  0
LINE
  5
193
330
1F
100
AcDbEntity
  8
1
  6
DOTTED
 62
     6
100
AcDbLine
 10
74.58183884503592
 20
157.490690426503
 30
0.0
 11
74.58183884503592
 21
154.690690426503
 31
0.0
  0
LINE
  5
194
330
1F
100
AcDbEntity
  8
1
  6
DOTTED
 62
     6
100
AcDbLine
 10
88.58183884503592
 20
157.490690426503
 30
0.0
 11
88.58183884503592
 21
154.690690426503
 31
0.0
  0
LINE
  5
195
330
1F
100
AcDbEntity
  8
LEVEL001
  6
Continuous
 62
     3
100
AcDbLine
 10
74.63857616095606
 20
164.690690426503
 30
0.0
 11
88.25090292258903
 21
164.6906904265029
 31
0.0
  0
LINE
  5
196
330
1F
100
AcDbEntity
  8
1
  6
Continuous
 62
     3
100
AcDbLine
 10
88.58183884503592
 20
167.490690426503
 30
0.0
 11
88.58183884503592
 21
164.690690426503
 31
0.0
  0
LINE
  5
197
330
1F
100
AcDbEntity
  8
1
  6
Continuous
 62
     3
100
AcDbLine
 10
74.58183884503592
 20
164.690690426503
 30
0.0
 11
88.58183884503592
 21
164.690690426503
 31
0.0
  0
LINE
  5
198
330
1F
100
AcDbEntity
  8
1
  6
Continuous
 62
     3
100
AcDbLine
 10
74.58183884503592
 20
167.490690426503
 30
0.0
 11
88.58183884503592
 21
167.490690426503
 31
0.0
  0
LINE
  5
199
330
1F
100
AcDbEntity
  8
1
  6
Continuous
 62
     3
100
AcDbLine
 10
74.58183884503592
 20
167.490690426503
 30
0.0
 11
74.58183884503592
 21
164.690690426503
 31
0.0
  0
LINE
  5
19A
330
1F
100
AcDbEntity
  8
3
  6
Continuous
 62
     3
100
AcDbLine
 10
85.95192441462672
 20
153.190690426503
 30
0.0
 11
86.4818388450359
 21
152.1727342768631
 31
0.0
  0
LINE
  5
19B
330
1F
100
AcDbEntity
  8
3
  6
Continuous
 62
     3
100
AcDbLine
 10
77.21175327544495
 20
153.190690426503
 30
0.0
 11
76.68183884503571
 21
152.1727342768631
 31
0.0
  0
LINE
  5
19C
330
1F
100
AcDbEntity
  8
3
  6
Continuous
 62
     3
100
AcDbLine
 10
86.4818388450359
 20
152.1727342768631
 30
0.0
 11
86.48183884503595
 21
139.5
 31
0.0
  0
LINE
  5
19D
330
1F
100
AcDbEntity
  8
3
  6
Continuous
 62
     3
100
AcDbLine
 10
76.68183884503571
 20
152.1727342768631
 30
0.0
 11
76.68183884503588
 21
139.5
 31
0.0
  0
LINE
  5
19E
330
1F
100
AcDbEntity
  8
3
  6
Continuous
 62
     3
100
AcDbLine
 10
78.08183884503592
 20
86.56217782649108
 30
0.0
 11
78.08183884503592
 21
75.49233113485724
 31
0.0
  0
LINE
  5
19F
330
1F
100
AcDbEntity
  8
3
  6
Continuous
 62
     3
100
AcDbLine
 10
85.08183884503592
 20
86.56217782649108
 30
0.0
 11
85.08183884503592
 21
75.49233113485724
 31
0.0
  0
LINE
  5
1A0
330
1F
100
AcDbEntity
  8
3
  6
Continuous
 62
     3
100
AcDbLine
 10
192.4555628402659
 20
100.0
 30
0.0
 11
190.431838845036
 21
99.2634247033663
 31
0.0
  0
LINE
  5
1A1
330
1F
100
AcDbEntity
  8
3
  6
Continuous
 62
     3
100
AcDbLine
 10
202.708114849806
 20
100.0
 30
0.0
 11
204.731838845036
 21
99.2634247033663
 31
0.0
  0
LINE
  5
1A2
330
1F
100
AcDbEntity
  8
1
  6
DOTTED
 62
     6
100
AcDbLine
 10
204.5818388450359
 20
157.490690426503
 30
0.0
 11
204.5818388450359
 21
154.690690426503
 31
0.0
  0
LINE
  5
1A3
330
1F
100
AcDbEntity
  8
1
  6
DOTTED
 62
     6
100
AcDbLine
 10
190.5818388450359
 20
157.490690426503
 30
0.0
 11
190.5818388450359
 21
154.690690426503
 31
0.0
  0
LINE
  5
1A4
330
1F
100
AcDbEntity
  8
1
  6
Continuous
 62
     3
100
AcDbLine
 10
190.5818388450359
 20
167.490690426503
 30
0.0
 11
190.5818388450359
 21
164.690690426503
 31
0.0
  0
LINE
  5
1A5
330
1F
100
AcDbEntity
  8
1
  6
Continuous
 62
     3
100
AcDbLine
 10
190.5818388450359
 20
167.490690426503
 30
0.0
 11
204.5818388450359
 21
167.490690426503
 31
0.0
  0
LINE
  5
1A6
330
1F
100
AcDbEntity
  8
1
  6
Continuous
 62
     3
100
AcDbLine
 10
190.5818388450359
 20
164.690690426503
 30
0.0
 11
204.5818388450359
 21
164.690690426503
 31
0.0
  0
LINE
  5
1A7
330
1F
100
AcDbEntity
  8
1
  6
Continuous
 62
     3
100
AcDbLine
 10
204.5818388450359
 20
167.490690426503
 30
0.0
 11
204.5818388450359
 21
164.690690426503
 31
0.0
  0
LINE
  5
1A8
330
1F
100
AcDbEntity
  8
LEVEL001
  6
Continuous
 62
     3
100
AcDbLine
 10
205.901378981196
 20
164.553546441875
 30
0.0
 11
223.4070768743144
 21
161.624097282649
 31
0.0
  0
LINE
  5
1A9
330
1F
100
AcDbEntity
  8
LEVEL001
  6
Continuous
 62
     3
100
AcDbLine
 10
190.638576160956
 20
164.690690426503
 30
0.0
 11
204.250902922589
 21
164.690690426503
 31
0.0
  0
LINE
  5
1AA
330
1F
100
AcDbEntity
  8
LEVEL001
  6
Continuous
 62
     3
100
AcDbLine
 10
227.581838845011
 20
156.640043436963
 30
0.0
 11
227.581838845011
 21
153.190690426503
 31
0.0
  0
LINE
  5
1AB
330
1F
100
AcDbEntity
  8
LEVEL001
  6
Continuous
 62
     3
100
AcDbLine
 10
180.0818388450161
 20
153.190690426503
 30
0.0
 11
180.0818388450161
 21
158.167008470473
 31
0.0
  0
LINE
  5
1AC
330
1F
100
AcDbEntity
  8
LEVEL001
  6
Continuous
 62
     3
100
AcDbLine
 10
185.420539703802
 20
163.522982670162
 30
0.0
 11
187.600912357009
 21
164.218155913934
 31
0.0
  0
LINE
  5
1AD
330
1F
100
AcDbEntity
  8
LEVEL001
  6
Continuous
 62
     3
100
AcDbLine
 10
183.563006943032
 20
162.9307412141889
 30
0.0
 11
185.420539703802
 21
163.522982670162
 31
0.0
  0
LINE
  5
1AE
330
1F
100
AcDbEntity
  8
LEVEL001
  6
Continuous
 62
     3
100
AcDbLine
 10
180.0818388450161
 20
153.190690426503
 30
0.0
 11
227.581838845011
 21
153.190690426503
 31
0.0
  0
LINE
  5
1AF
330
1F
100
AcDbEntity
  8
3
  6
Continuous
 62
     3
100
AcDbLine
 10
192.6818388450357
 20
152.1727342768631
 30
0.0
 11
192.6818388450358
 21
139.5
 31
0.0
  0
LINE
  5
1B0
330
1F
100
AcDbEntity
  8
3
  6
Continuous
 62
     3
100
AcDbLine
 10
193.2117532754449
 20
153.190690426503
 30
0.0
 11
192.6818388450357
 21
152.1727342768631
 31
0.0
  0
LINE
  5
1B1
330
1F
100
AcDbEntity
  8
3
  6
Continuous
 62
     3
100
AcDbLine
 10
202.4818388450359
 20
152.1727342768631
 30
0.0
 11
202.481838845036
 21
139.5
 31
0.0
  0
LINE
  5
1B2
330
1F
100
AcDbEntity
  8
3
  6
Continuous
 62
     3
100
AcDbLine
 10
201.9519244146267
 20
153.190690426503
 30
0.0
 11
202.4818388450359
 21
152.1727342768631
 31
0.0
  0
LINE
  5
1B3
330
1F
100
AcDbEntity
  8
LEVEL001
  6
DOTTED
 62
     6
100
AcDbLine
 10
183.5630069430319
 20
152.9307412141889
 30
0.0
 11
185.4205397038019
 21
153.522982670162
 31
0.0
  0
LINE
  5
1B4
330
1F
100
AcDbEntity
  8
LEVEL001
  6
DOTTED
 62
     6
100
AcDbLine
 10
185.4205397038019
 20
153.522982670162
 30
0.0
 11
187.600912357009
 21
154.2181559139338
 31
0.0
  0
LINE
  5
1B5
330
1F
100
AcDbEntity
  8
LEVEL001
  6
DOTTED
 62
     6
100
AcDbLine
 10
205.9013789811961
 20
154.553546441875
 30
0.0
 11
223.4070768743145
 21
151.624097282649
 31
0.0
  0
LINE
  5
1B6
330
1F
100
AcDbEntity
  8
LEVEL001
  6
DOTTED
 62
     6
100
AcDbLine
 10
180.0818388450161
 20
143.190690426503
 30
0.0
 11
180.0818388450161
 21
148.1670084704729
 31
0.0
  0
LINE
  5
1B7
330
1F
100
AcDbEntity
  8
LEVEL001
  6
DOTTED
 62
     6
100
AcDbLine
 10
180.0818388450161
 20
143.190690426503
 30
0.0
 11
227.5818388450111
 21
143.190690426503
 31
0.0
  0
LINE
  5
1B8
330
1F
100
AcDbEntity
  8
LEVEL001
  6
DOTTED
 62
     6
100
AcDbLine
 10
227.5818388450111
 20
146.6400434369629
 30
0.0
 11
227.5818388450111
 21
143.190690426503
 31
0.0
  0
LINE
  5
1B9
330
1F
100
AcDbEntity
  8
1
  6
DOT_CENTER
 62
     1
100
AcDbLine
 10
225.0772930147708
 20
99.0
 30
0.0
 11
170.086384675301
 21
99.0
 31
0.0
  0
LINE
  5
1BA
330
1F
100
AcDbEntity
  8
1
  6
DOT_CENTER
 62
     1
100
AcDbLine
 10
230.0818388450359
 20
80.5
 30
0.0
 11
169.0818388450359
 21
80.5
 31
0.0
  0
LINE
  5
1BB
330
1F
100
AcDbEntity
  8
1
  6
Continuous
 62
     3
100
AcDbLine
 10
72.86325332327647
 20
244.9101742826125
 30
0.0
 11
72.86325332327647
 21
249.264422971548
 31
0.0
  0
LINE
  5
1BC
330
1F
100
AcDbEntity
  8
1
  6
Continuous
 62
     3
100
AcDbLine
 10
74.36325332327647
 20
250.764422971548
 30
0.0
 11
76.56662219805708
 21
250.764422971548
 31
0.0
  0
LINE
  5
1BD
330
1F
100
AcDbEntity
  8
1
  6
Continuous
 62
     3
100
AcDbLine
 10
90.30042436679543
 20
249.264422971548
 30
0.0
 11
90.30042436679543
 21
244.9101742826125
 31
0.0
  0
LINE
  5
1BE
330
1F
100
AcDbEntity
  8
1
  6
Continuous
 62
     3
100
AcDbLine
 10
86.59705549205529
 20
250.764422971548
 30
0.0
 11
88.80042436679543
 21
250.764422971548
 31
0.0
  0
LINE
  5
1BF
330
1F
100
AcDbEntity
  8
1
  6
Continuous
 62
     3
100
AcDbLine
 10
70.08183884503592
 20
242.973682609509
 30
0.0
 11
70.08183884503592
 21
251.2009146446517
 31
0.0
  0
LINE
  5
1C0
330
1F
100
AcDbEntity
  8
1
  6
Continuous
 62
     3
100
AcDbLine
 10
93.08183884503592
 20
251.2009146446517
 30
0.0
 11
93.08183884503592
 21
242.9736826095089
 31
0.0
  0
LINE
  5
1C1
330
1F
100
AcDbEntity
  8
1
  6
Continuous
 62
     3
100
AcDbLine
 10
70.5818388450359
 20
242.264422971548
 30
0.0
 11
73.93894578704541
 21
242.264422971548
 31
0.0
  0
LINE
  5
1C2
330
1F
100
AcDbEntity
  8
1
  6
Continuous
 62
     3
100
AcDbLine
 10
73.58183884503592
 20
253.264422971548
 30
0.0
 11
77.58183884505942
 21
253.264422971548
 31
0.0
  0
LINE
  5
1C3
330
1F
100
AcDbEntity
  8
1
  6
Continuous
 62
     3
100
AcDbLine
 10
221.5818388450359
 20
83.9278273002005
 30
0.0
 11
217.2275901561004
 21
83.9278273002005
 31
0.0
  0
LINE
  5
1C4
330
1F
100
AcDbEntity
  8
1
  6
Continuous
 62
     3
100
AcDbLine
 10
215.7275901561004
 20
90.67320579362132
 30
0.0
 11
215.7275901561004
 21
90.24537849342101
 31
0.0
  0
LINE
  5
1C5
330
1F
100
AcDbEntity
  8
1
  6
Continuous
 62
     3
100
AcDbLine
 10
223.0818388450359
 20
90.67320579362132
 30
0.0
 11
223.0818388450359
 21
90.24537849342101
 31
0.0
  0
LINE
  5
1C6
330
1F
100
AcDbEntity
  8
1
  6
Continuous
 62
     3
100
AcDbLine
 10
221.5818388450359
 20
88.74537849342101
 30
0.0
 11
217.2275901561004
 21
88.74537849342101
 31
0.0
  0
LINE
  5
1C7
330
1F
100
AcDbEntity
  8
1
  6
Continuous
 62
     3
100
AcDbLine
 10
221.5818388450359
 20
92.17320579362132
 30
0.0
 11
217.2275901561004
 21
92.17320579362132
 31
0.0
  0
LINE
  5
1C8
330
1F
100
AcDbEntity
  8
1
  6
Continuous
 62
     3
100
AcDbLine
 10
214.5818388450359
 20
91.5
 30
0.0
 11
214.5818388450359
 21
69.5
 31
0.0
  0
LINE
  5
1C9
330
1F
100
AcDbEntity
  8
1
  6
Continuous
 62
     3
100
AcDbLine
 10
225.5818388450359
 20
88.5
 30
0.0
 11
225.5818388450359
 21
72.5
 31
0.0
  0
LINE
  5
1CA
330
1F
100
AcDbEntity
  8
1
  6
Continuous
 62
     3
100
AcDbLine
 10
217.2275901561004
 20
92.5
 30
0.0
 11
221.5818388450359
 21
92.5
 31
0.0
  0
LINE
  5
1CB
330
1F
100
AcDbEntity
  8
1
  6
Continuous
 62
     3
100
AcDbLine
 10
217.2275901561004
 20
68.5
 30
0.0
 11
221.5818388450359
 21
68.5
 31
0.0
  0
LINE
  5
1CC
330
1F
100
AcDbEntity
  8
1
  6
Continuous
 62
     3
100
AcDbLine
 10
217.2275901561004
 20
68.82679420637871
 30
0.0
 11
221.5818388450359
 21
68.82679420637871
 31
0.0
  0
LINE
  5
1CD
330
1F
100
AcDbEntity
  8
1
  6
Continuous
 62
     3
100
AcDbLine
 10
217.2275901561004
 20
72.25462150657901
 30
0.0
 11
221.5818388450359
 21
72.25462150657901
 31
0.0
  0
LINE
  5
1CE
330
1F
100
AcDbEntity
  8
1
  6
Continuous
 62
     3
100
AcDbLine
 10
223.0818388450359
 20
70.75462150657901
 30
0.0
 11
223.0818388450359
 21
70.32679420637871
 31
0.0
  0
LINE
  5
1CF
330
1F
100
AcDbEntity
  8
1
  6
Continuous
 62
     3
100
AcDbLine
 10
215.7275901561004
 20
70.75462150657901
 30
0.0
 11
215.7275901561004
 21
70.32679420637871
 31
0.0
  0
LINE
  5
1D0
330
1F
100
AcDbEntity
  8
1
  6
Continuous
 62
     3
100
AcDbLine
 10
215.7275901561004
 20
82.4278273002005
 30
0.0
 11
215.7275901561004
 21
78.5721726997995
 31
0.0
  0
LINE
  5
1D1
330
1F
100
AcDbEntity
  8
1
  6
Continuous
 62
     3
100
AcDbLine
 10
223.0818388450359
 20
82.4278273002005
 30
0.0
 11
223.0818388450359
 21
78.5721726997995
 31
0.0
  0
LINE
  5
1D2
330
1F
100
AcDbEntity
  8
1
  6
Continuous
 62
     3
100
AcDbLine
 10
217.2275901561004
 20
77.0721726997995
 30
0.0
 11
221.5818388450359
 21
77.0721726997995
 31
0.0
  0
LINE
  5
1D3
330
1F
100
AcDbEntity
  8
LEVEL001
  6
Continuous
 62
     3
100
AcDbLine
 10
59.10610081573242
 20
162.1846113517631
 30
0.0
 11
73.26229870887585
 21
164.5535464418749
 31
0.0
  0
LINE
  5
1D4
330
1F
100
AcDbEntity
  8
LEVEL001
  6
Continuous
 62
     3
100
AcDbLine
 10
81.58183884503592
 20
153.190690426503
 30
0.0
 11
54.93133884503595
 21
153.190690426503
 31
0.0
  0
LINE
  5
1D5
330
1F
100
AcDbEntity
  8
LEVEL001
  6
DOTTED
 62
     6
100
AcDbLine
 10
59.10610081573242
 20
152.1846113517631
 30
0.0
 11
73.26229870887585
 21
154.553546441875
 31
0.0
  0
LINE
  5
1D6
330
1F
100
AcDbEntity
  8
1
  6
Continuous
 62
     3
100
AcDbLine
 10
54.93133884503595
 20
153.190690426503
 30
0.0
 11
54.93133884503595
 21
157.253183344077
 31
0.0
  0
LINE
  5
1D7
330
1F
100
AcDbEntity
  8
1
  6
DOTTED
 62
     6
100
AcDbLine
 10
54.93133884503595
 20
143.190690426503
 30
0.0
 11
54.93133884503595
 21
147.253183344077
 31
0.0
  0
LINE
  5
1D8
330
1F
100
AcDbEntity
  8
1
  6
DOTTED
 62
     6
100
AcDbLine
 10
108.2323388450359
 20
147.253183344077
 30
0.0
 11
108.2323388450359
 21
143.190690426503
 31
0.0
  0
LINE
  5
1D9
330
1F
100
AcDbEntity
  8
1
  6
Continuous
 62
     3
100
AcDbLine
 10
108.2323388450359
 20
157.253183344077
 30
0.0
 11
108.2323388450359
 21
153.190690426503
 31
0.0
  0
LINE
  5
1DA
330
1F
100
AcDbEntity
  8
LEVEL001
  6
DOTTED
 62
     6
100
AcDbLine
 10
89.90137898119599
 20
154.553546441875
 30
0.0
 11
104.0575768743394
 21
152.1846113517631
 31
0.0
  0
LINE
  5
1DB
330
1F
100
AcDbEntity
  8
LEVEL001
  6
DOTTED
 62
     6
100
AcDbLine
 10
108.2323388450359
 20
143.190690426503
 30
0.0
 11
54.93133884503595
 21
143.190690426503
 31
0.0
  0
LINE
  5
1DC
330
1F
100
AcDbEntity
  8
LEVEL001
  6
Continuous
 62
     3
100
AcDbLine
 10
108.2323388450359
 20
153.190690426503
 30
0.0
 11
81.58183884503592
 21
153.190690426503
 31
0.0
  0
LINE
  5
1DD
330
1F
100
AcDbEntity
  8
LEVEL001
  6
Continuous
 62
     3
100
AcDbLine
 10
89.90137898119599
 20
164.5535464418749
 30
0.0
 11
104.0575768743394
 21
162.1846113517631
 31
0.0
  0
LINE
  5
1DE
330
1F
100
AcDbEntity
  8
1
  6
Continuous
 62
     3
100
AcDbLine
 10
72.26633884503593
 20
201.329922971548
 30
0.0
 11
72.26633884503593
 21
210.3809570780356
 31
0.0
  0
LINE
  5
1DF
330
1F
100
AcDbEntity
  8
1
  6
Continuous
 62
     3
100
AcDbLine
 10
90.8973388450359
 20
201.329922971548
 30
0.0
 11
90.8973388450359
 21
210.380957078041
 31
0.0
  0
LINE
  5
1E0
330
1F
100
AcDbEntity
  8
100
  6
Continuous
 62
     3
100
AcDbLine
 10
71.33183884503592
 20
202.264422971548
 30
0.0
 11
71.33183884503592
 21
210.2467356768407
 31
0.0
  0
LINE
  5
1E1
330
1F
100
AcDbEntity
  8
100
  6
Continuous
 62
     3
100
AcDbLine
 10
91.83183884503592
 20
202.264422971548
 30
0.0
 11
91.83183884503592
 21
210.2467356768467
 31
0.0
  0
LINE
  5
1E2
330
1F
100
AcDbEntity
  8
100
  6
Continuous
 62
     3
100
AcDbLine
 10
81.58183884503592
 20
201.264422971548
 30
0.0
 11
72.33183884503592
 21
201.264422971548
 31
0.0
  0
LINE
  5
1E3
330
1F
100
AcDbEntity
  8
100
  6
Continuous
 62
     3
100
AcDbLine
 10
74.5864796821271
 20
201.264422971548
 30
0.0
 11
74.58183884503592
 21
201.264422971548
 31
0.0
  0
LINE
  5
1E4
330
1F
100
AcDbEntity
  8
100
  6
Continuous
 62
     3
100
AcDbLine
 10
88.58183884503592
 20
201.264422971548
 30
0.0
 11
88.5771980079449
 21
201.264422971548
 31
0.0
  0
LINE
  5
1E5
330
1F
100
AcDbEntity
  8
100
  6
Continuous
 62
     3
100
AcDbLine
 10
90.83183884503592
 20
201.264422971548
 30
0.0
 11
81.58183884503592
 21
201.264422971548
 31
0.0
  0
LINE
  5
1E6
330
1F
100
AcDbEntity
  8
100
  6
Continuous
 62
     3
100
AcDbLine
 10
111.5818388450359
 20
210.264422971548
 30
0.0
 11
108.5818388450359
 21
210.264422971548
 31
0.0
  0
LINE
  5
1E7
330
1F
100
AcDbEntity
  8
100
  6
Continuous
 62
     3
100
AcDbLine
 10
108.5818388450359
 20
240.264422971548
 30
0.0
 11
108.5818388450359
 21
210.264422971548
 31
0.0
  0
LINE
  5
1E8
330
1F
100
AcDbEntity
  8
100
  6
Continuous
 62
     3
100
AcDbLine
 10
111.5818388450359
 20
240.264422971548
 30
0.0
 11
111.5818388450359
 21
210.264422971548
 31
0.0
  0
LINE
  5
1E9
330
1F
100
AcDbEntity
  8
100
  6
Continuous
 62
     3
100
AcDbLine
 10
111.5818388450359
 20
240.264422971548
 30
0.0
 11
108.5818388450359
 21
240.264422971548
 31
0.0
  0
LINE
  5
1EA
330
1F
100
AcDbEntity
  8
100
  6
Continuous
 62
     3
100
AcDbLine
 10
47.58183884503592
 20
234.764422971548
 30
0.0
 11
54.73505246993062
 21
234.764422971548
 31
0.0
  0
LINE
  5
1EB
330
1F
100
AcDbEntity
  8
100
  6
Continuous
 62
     3
100
AcDbLine
 10
42.58183884503592
 20
248.264422971548
 30
0.0
 11
43.58183884503592
 21
248.264422971548
 31
0.0
  0
LINE
  5
1EC
330
1F
100
AcDbEntity
  8
1
  6
Continuous
 62
     3
100
AcDbLine
 10
42.58183884503592
 20
234.579922971548
 30
0.0
 11
27.64733884503591
 21
234.579922971548
 31
0.0
  0
LINE
  5
1ED
330
1F
100
AcDbEntity
  8
100
  6
Continuous
 62
     3
100
AcDbLine
 10
42.58183884503592
 20
235.514422971548
 30
0.0
 11
28.58183884503592
 21
235.514422971548
 31
0.0
  0
LINE
  5
1EE
330
1F
100
AcDbEntity
  8
100
  6
Continuous
 62
     3
100
AcDbLine
 10
43.58183884503592
 20
202.264422971548
 30
0.0
 11
42.58183884503592
 21
202.264422971548
 31
0.0
  0
LINE
  5
1EF
330
1F
100
AcDbEntity
  8
100
  6
Continuous
 62
     3
100
AcDbLine
 10
42.58183884503592
 20
215.014422971548
 30
0.0
 11
28.58183884503592
 21
215.014422971548
 31
0.0
  0
LINE
  5
1F0
330
1F
100
AcDbEntity
  8
100
  6
Continuous
 62
     3
100
AcDbLine
 10
47.58183884503592
 20
236.435995846802
 30
0.0
 11
47.58183884503592
 21
214.092850096295
 31
0.0
  0
LINE
  5
1F1
330
1F
100
AcDbEntity
  8
100
  6
Continuous
 62
     3
100
AcDbLine
 10
42.58183884503592
 20
202.264422971548
 30
0.0
 11
42.58183884503592
 21
248.264422971548
 31
0.0
  0
LINE
  5
1F2
330
1F
100
AcDbEntity
  8
100
  6
Continuous
 62
     3
100
AcDbLine
 10
45.58183884503592
 20
204.264422971548
 30
0.0
 11
45.58183884503592
 21
246.264422971548
 31
0.0
  0
LINE
  5
1F3
330
1F
100
AcDbEntity
  8
1
  6
Continuous
 62
     3
100
AcDbLine
 10
42.58183884503592
 20
215.948922971548
 30
0.0
 11
27.64733884503591
 21
215.948922971548
 31
0.0
  0
LINE
  5
1F4
330
1F
100
AcDbEntity
  8
100
  6
Continuous
 62
     3
100
AcDbLine
 10
55.81000009312089
 20
215.764422971548
 30
0.0
 11
47.58183884503592
 21
215.764422971548
 31
0.0
  0
LINE
  5
1F5
330
1F
100
AcDbEntity
  8
100
  6
Continuous
 62
     3
100
AcDbLine
 10
27.58183884503592
 20
218.264422971548
 30
0.0
 11
27.58183884503592
 21
216.014422971548
 31
0.0
  0
LINE
  5
1F6
330
1F
100
AcDbEntity
  8
100
  6
Continuous
 62
     3
100
AcDbLine
 10
27.58183884503592
 20
232.264422971548
 30
0.0
 11
27.58183884503592
 21
218.264422971548
 31
0.0
  0
LINE
  5
1F7
330
1F
100
AcDbEntity
  8
100
  6
Continuous
 62
     3
100
AcDbLine
 10
27.58183884503592
 20
234.514422971548
 30
0.0
 11
27.58183884503592
 21
232.264422971548
 31
0.0
  0
LINE
  5
1F8
330
1F
100
AcDbEntity
  8
1
  6
DOT_CENTER
 62
     1
100
AcDbLine
 10
116.0818388450359
 20
225.264422971548
 30
0.0
 11
23.08183884503592
 21
225.264422971548
 31
0.0
  0
LINE
  5
1F9
330
1F
100
AcDbEntity
  8
100
  6
Continuous
 62
     3
100
AcDbLine
 10
63.2006409985529
 20
233.264422971548
 30
0.0
 11
53.96303669151894
 21
233.264422971548
 31
0.0
  0
LINE
  5
1FA
330
1F
100
AcDbEntity
  8
100
  6
Continuous
 62
     3
100
AcDbLine
 10
53.96303669151894
 20
233.264422971548
 30
0.0
 11
49.3442345380019
 21
225.264422971548
 31
0.0
  0
LINE
  5
1FB
330
1F
100
AcDbEntity
  8
100
  6
Continuous
 62
     3
100
AcDbLine
 10
49.3442345380019
 20
225.264422971548
 30
0.0
 11
53.96303669151894
 21
217.264422971548
 31
0.0
  0
LINE
  5
1FC
330
1F
100
AcDbEntity
  8
100
  6
Continuous
 62
     3
100
AcDbLine
 10
53.96303669151894
 20
217.264422971548
 30
0.0
 11
57.41591459586995
 21
217.264422971548
 31
0.0
  0
LINE
  5
1FD
330
1F
100
AcDbEntity
  8
2
  6
Continuous
 62
     3
100
AcDbLine
 10
61.62839929453912
 20
120.0
 30
0.0
 11
61.62839929453912
 21
127.0
 31
0.0
  0
LINE
  5
1FE
330
1F
100
AcDbEntity
  8
2
  6
Continuous
 62
     3
100
AcDbLine
 10
63.62329072936331
 20
120.0
 30
0.0
 11
63.62329072936331
 21
127.0
 31
0.0
  0
LINE
  5
1FF
330
1F
100
AcDbEntity
  8
2
  6
Continuous
 62
     3
100
AcDbLine
 10
50.08183884503592
 20
114.0
 30
0.0
 11
68.08183884503592
 21
114.0
 31
0.0
  0
LINE
  5
200
330
1F
100
AcDbEntity
  8
2
  6
Continuous
 62
     3
100
AcDbLine
 10
76.58183884503592
 20
139.5
 30
0.0
 11
70.58674481895838
 21
136.593287744932
 31
0.0
  0
LINE
  5
201
330
1F
100
AcDbEntity
  8
2
  6
Continuous
 62
     3
100
AcDbLine
 10
76.58183884503592
 20
139.5
 30
0.0
 11
76.68183884503588
 21
139.5
 31
0.0
  0
LINE
  5
202
330
1F
100
AcDbEntity
  8
2
  6
Continuous
 62
     3
100
AcDbLine
 10
50.08183884503592
 20
114.0
 30
0.0
 11
50.08183884503592
 21
110.5
 31
0.0
  0
LINE
  5
203
330
1F
100
AcDbEntity
  8
2
  6
Continuous
 62
     3
100
AcDbLine
 10
69.08183884503592
 20
114.5
 30
0.0
 11
68.08183884503592
 21
114.5
 31
0.0
  0
LINE
  5
204
330
1F
100
AcDbEntity
  8
2
  6
Continuous
 62
     3
100
AcDbLine
 10
68.08183884503592
 20
114.5
 30
0.0
 11
68.08183884503592
 21
114.0
 31
0.0
  0
LINE
  5
205
330
1F
100
AcDbEntity
  8
2
  6
Continuous
 62
     3
100
AcDbLine
 10
27.58183884503592
 20
108.25
 30
0.0
 11
27.58183884503592
 21
89.75
 31
0.0
  0
LINE
  5
206
330
1F
100
AcDbEntity
  8
2
  6
Continuous
 62
     3
100
AcDbLine
 10
106.5818388450359
 20
111.5
 30
0.0
 11
94.58183884503592
 21
111.5
 31
0.0
  0
LINE
  5
207
330
1F
100
AcDbEntity
  8
2
  6
Continuous
 62
     3
100
AcDbLine
 10
106.5818388450359
 20
86.5
 30
0.0
 11
94.58183884503592
 21
86.5
 31
0.0
  0
LINE
  5
208
330
1F
100
AcDbEntity
  8
2
  6
Continuous
 62
     3
100
AcDbLine
 10
109.5818388450359
 20
114.0
 30
0.0
 11
111.5818388450359
 21
114.0
 31
0.0
  0
LINE
  5
209
330
1F
100
AcDbEntity
  8
2
  6
Continuous
 62
     3
100
AcDbLine
 10
111.5818388450359
 20
84.0
 30
0.0
 11
108.5818388450359
 21
84.0
 31
0.0
  0
LINE
  5
20A
330
1F
100
AcDbEntity
  8
2
  6
Continuous
 62
     3
100
AcDbLine
 10
68.58183884503592
 20
86.5
 30
0.0
 11
66.08183884503592
 21
86.5
 31
0.0
  0
LINE
  5
20B
330
1F
100
AcDbEntity
  8
2
  6
Continuous
 62
     3
100
AcDbLine
 10
111.5818388450359
 20
114.0
 30
0.0
 11
108.5818388450359
 21
114.0
 31
0.0
  0
LINE
  5
20C
330
1F
100
AcDbEntity
  8
2
  6
Continuous
 62
     3
100
AcDbLine
 10
61.18285935946955
 20
89.5
 30
0.0
 11
48.33183884503592
 21
89.5
 31
0.0
  0
LINE
  5
20D
330
1F
100
AcDbEntity
  8
2
  6
Continuous
 62
     3
100
AcDbLine
 10
42.58183884503592
 20
89.68450000000001
 30
0.0
 11
27.64733884503591
 21
89.68450000000001
 31
0.0
  0
LINE
  5
20E
330
1F
100
AcDbEntity
  8
2
  6
Continuous
 62
     3
100
AcDbLine
 10
108.5818388450359
 20
114.0
 30
0.0
 11
108.5818388450359
 21
113.5
 31
0.0
  0
LINE
  5
20F
330
1F
100
AcDbEntity
  8
2
  6
Continuous
 62
     3
100
AcDbLine
 10
108.5818388450359
 20
84.5
 30
0.0
 11
108.5818388450359
 21
84.0
 31
0.0
  0
LINE
  5
210
330
1F
100
AcDbEntity
  8
2
  6
Continuous
 62
     3
100
AcDbLine
 10
92.58183884503592
 20
126.0
 30
0.0
 11
70.58183884503592
 21
126.0
 31
0.0
  0
LINE
  5
211
330
1F
100
AcDbEntity
  8
2
  6
DOT_CENTER
 62
     1
100
AcDbLine
 10
23.08183884503592
 20
99.0
 30
0.0
 11
116.0818388450359
 21
99.0
 31
0.0
  0
LINE
  5
212
330
1F
100
AcDbEntity
  8
2
  6
Continuous
 62
     3
100
AcDbLine
 10
93.58183884503592
 20
126.5
 30
0.0
 11
69.58183884503592
 21
126.5
 31
0.0
  0
LINE
  5
213
330
1F
100
AcDbEntity
  8
2
  6
Continuous
 62
     3
100
AcDbLine
 10
94.83183884503592
 20
132.994031316147
 30
0.0
 11
94.83183884503592
 21
129.404737509656
 31
0.0
  0
LINE
  5
214
330
1F
100
AcDbEntity
  8
2
  6
Continuous
 62
     3
100
AcDbLine
 10
68.33183884503592
 20
132.994031316147
 30
0.0
 11
68.33183884503592
 21
129.404737509656
 31
0.0
  0
LINE
  5
215
330
1F
100
AcDbEntity
  8
2
  6
Continuous
 62
     3
100
AcDbLine
 10
86.58183884503592
 20
139.5
 30
0.0
 11
92.5769328711134
 21
136.593287744932
 31
0.0
  0
LINE
  5
216
330
1F
100
AcDbEntity
  8
2
  6
Continuous
 62
     3
100
AcDbLine
 10
70.58183884503592
 20
126.5
 30
0.0
 11
70.58183884503592
 21
116.0
 31
0.0
  0
LINE
  5
217
330
1F
100
AcDbEntity
  8
2
  6
Continuous
 62
     3
100
AcDbLine
 10
92.58183884503592
 20
113.5
 30
0.0
 11
92.58183884503592
 21
126.5
 31
0.0
  0
LINE
  5
218
330
1F
100
AcDbEntity
  8
2
  6
Continuous
 62
     3
100
AcDbLine
 10
86.58183884503592
 20
139.5
 30
0.0
 11
86.48183884503595
 21
139.5
 31
0.0
  0
LINE
  5
219
330
1F
100
AcDbEntity
  8
2
  6
Continuous
 62
     3
100
AcDbLine
 10
85.09663887916054
 20
27.18807983398438
 30
0.0
 11
78.0670388109113
 21
27.18807983398438
 31
0.0
  0
LINE
  5
21A
330
1F
100
AcDbEntity
  8
2
  6
Continuous
 62
     3
100
AcDbLine
 10
85.35207674022894
 20
36.18807983398438
 30
0.0
 11
85.86052232968194
 21
36.46160573019739
 31
0.0
  0
LINE
  5
21B
330
1F
100
AcDbEntity
  8
2
  6
Continuous
 62
     3
100
AcDbLine
 10
85.35207674022894
 20
36.18807983398438
 30
0.0
 11
85.84317990966883
 21
35.88451598518248
 31
0.0
  0
LINE
  5
21C
330
1F
100
AcDbEntity
  8
2
  6
Continuous
 62
     3
100
AcDbLine
 10
85.23187068796142
 20
32.18807983398438
 30
0.0
 11
85.72297385740143
 21
31.88451598518248
 31
0.0
  0
LINE
  5
21D
330
1F
100
AcDbEntity
  8
2
  6
Continuous
 62
     3
100
AcDbLine
 10
85.23187068796142
 20
32.18807983398438
 30
0.0
 11
85.74031627741442
 21
32.46160573019739
 31
0.0
  0
LINE
  5
21E
330
1F
100
AcDbEntity
  8
2
  6
Continuous
 62
     3
100
AcDbLine
 10
77.8116009498429
 20
36.18807983398438
 30
0.0
 11
77.3031553603899
 21
36.46160573019739
 31
0.0
  0
LINE
  5
21F
330
1F
100
AcDbEntity
  8
2
  6
Continuous
 62
     3
100
AcDbLine
 10
77.8116009498429
 20
36.18807983398438
 30
0.0
 11
77.320497780403
 21
35.88451598518248
 31
0.0
  0
LINE
  5
220
330
1F
100
AcDbEntity
  8
2
  6
Continuous
 62
     3
100
AcDbLine
 10
77.93180700211042
 20
32.18807983398438
 30
0.0
 11
77.42336141265741
 21
32.46160573019739
 31
0.0
  0
LINE
  5
221
330
1F
100
AcDbEntity
  8
2
  6
Continuous
 62
     3
100
AcDbLine
 10
77.93180700211042
 20
32.18807983398438
 30
0.0
 11
77.44070383267041
 21
31.88451598518248
 31
0.0
  0
LINE
  5
222
330
1F
100
AcDbEntity
  8
2
  6
Continuous
 62
     3
100
AcDbLine
 10
86.06891155197422
 20
43.39600606566978
 30
0.0
 11
85.86052232968194
 21
36.46160573019739
 31
0.0
  0
LINE
  5
223
330
1F
100
AcDbEntity
  8
2
  6
Continuous
 62
     3
100
AcDbLine
 10
85.84317990966883
 20
35.88451598518248
 30
0.0
 11
85.74031627741442
 21
32.46160573019739
 31
0.0
  0
LINE
  5
224
330
1F
100
AcDbEntity
  8
2
  6
Continuous
 62
     3
100
AcDbLine
 10
85.72297385740143
 20
31.88451598518248
 30
0.0
 11
85.5964132586069
 21
27.67306085768996
 31
0.0
  0
LINE
  5
225
330
1F
100
AcDbEntity
  8
2
  6
Continuous
 62
     3
100
AcDbLine
 10
77.09476613809761
 20
43.39600606566978
 30
0.0
 11
77.3031553603899
 21
36.46160573019739
 31
0.0
  0
LINE
  5
226
330
1F
100
AcDbEntity
  8
2
  6
Continuous
 62
     3
100
AcDbLine
 10
77.320497780403
 20
35.88451598518248
 30
0.0
 11
77.42336141265741
 21
32.46160573019739
 31
0.0
  0
LINE
  5
227
330
1F
100
AcDbEntity
  8
2
  6
Continuous
 62
     3
100
AcDbLine
 10
77.44070383267041
 20
31.88451598518248
 30
0.0
 11
77.56726443146493
 21
27.67306085768996
 31
0.0
  0
LINE
  5
228
330
1F
100
AcDbEntity
  8
2
  6
DOT_CENTER
 62
     1
100
AcDbLine
 10
81.58183884503592
 20
172.990690426503
 30
0.0
 11
81.58183884503592
 21
22.68807983398438
 31
0.0
  0
LINE
  5
229
330
1F
100
AcDbEntity
  8
2
  6
Continuous
 62
     3
100
AcDbLine
 10
68.33183884503592
 20
49.0
 30
0.0
 11
68.33183884503592
 21
55.6459503782261
 31
0.0
  0
LINE
  5
22A
330
1F
100
AcDbEntity
  8
2
  6
Continuous
 62
     3
100
AcDbLine
 10
94.83183884503592
 20
49.0
 30
0.0
 11
94.83183884503592
 21
55.6459503782261
 31
0.0
  0
LINE
  5
22B
330
1F
100
AcDbEntity
  8
2
  6
Continuous
 62
     3
100
AcDbLine
 10
90.83183884503592
 20
45.0
 30
0.0
 11
72.33183884503592
 21
45.0
 31
0.0
  0
LINE
  5
22C
330
1F
100
AcDbEntity
  8
2
  6
Continuous
 62
     3
100
AcDbLine
 10
70.58183884503592
 20
58.5
 30
0.0
 11
92.58183884503592
 21
58.5
 31
0.0
  0
LINE
  5
22D
330
1F
100
AcDbEntity
  8
2
  6
Continuous
 62
     3
100
AcDbLine
 10
69.58183884503592
 20
57.5
 30
0.0
 11
93.58183884503592
 21
57.5
 31
0.0
  0
LINE
  5
22E
330
1F
100
AcDbEntity
  8
2
  6
Continuous
 62
     3
100
AcDbLine
 10
91.83183884503592
 20
57.5
 30
0.0
 11
91.83183884503592
 21
58.5
 31
0.0
  0
LINE
  5
22F
330
1F
100
AcDbEntity
  8
2
  6
Continuous
 62
     3
100
AcDbLine
 10
92.58183884503592
 20
57.5
 30
0.0
 11
92.58183884503592
 21
84.5
 31
0.0
  0
LINE
  5
230
330
1F
100
AcDbEntity
  8
2
  6
Continuous
 62
     3
100
AcDbLine
 10
70.58183884503592
 20
84.5
 30
0.0
 11
70.58183884503592
 21
57.5
 31
0.0
  0
LINE
  5
231
330
1F
100
AcDbEntity
  8
2
  6
Continuous
 62
     3
100
AcDbLine
 10
71.33183884503592
 20
57.5
 30
0.0
 11
71.33183884503592
 21
58.5
 31
0.0
  0
LINE
  5
232
330
1F
100
AcDbEntity
  8
2
  6
Continuous
 62
     3
100
AcDbLine
 10
42.58183884503592
 20
122.0
 30
0.0
 11
43.58183884503592
 21
122.0
 31
0.0
  0
LINE
  5
233
330
1F
100
AcDbEntity
  8
2
  6
Continuous
 62
     3
100
AcDbLine
 10
43.58183884503592
 20
76.0
 30
0.0
 11
42.58183884503592
 21
76.0
 31
0.0
  0
LINE
  5
234
330
1F
100
AcDbEntity
  8
2
  6
Continuous
 62
     3
100
AcDbLine
 10
45.58183884503592
 20
78.0
 30
0.0
 11
45.58183884503592
 21
120.0
 31
0.0
  0
LINE
  5
235
330
1F
100
AcDbEntity
  8
2
  6
Continuous
 62
     3
100
AcDbLine
 10
42.58183884503592
 20
76.0
 30
0.0
 11
42.58183884503592
 21
122.0
 31
0.0
  0
LINE
  5
236
330
1F
100
AcDbEntity
  8
2
  6
Continuous
 62
     3
100
AcDbLine
 10
47.58183884503592
 20
110.171572875254
 30
0.0
 11
47.58183884503592
 21
87.82842712474599
 31
0.0
  0
LINE
  5
237
330
1F
100
AcDbEntity
  8
2
  6
Continuous
 62
     3
100
AcDbLine
 10
42.58183884503592
 20
88.75
 30
0.0
 11
28.58183884503592
 21
88.75
 31
0.0
  0
LINE
  5
238
330
1F
100
AcDbEntity
  8
2
  6
Continuous
 62
     3
100
AcDbLine
 10
42.58183884503592
 20
109.25
 30
0.0
 11
28.58183884503592
 21
109.25
 31
0.0
  0
LINE
  5
239
330
1F
100
AcDbEntity
  8
2
  6
Continuous
 62
     3
100
AcDbLine
 10
42.58183884503592
 20
108.3155
 30
0.0
 11
27.64733884503592
 21
108.3155
 31
0.0
  0
LINE
  5
23A
330
1F
100
AcDbEntity
  8
2
  6
Continuous
 62
     3
100
AcDbLine
 10
91.83183884503592
 20
126.0
 30
0.0
 11
91.83183884503592
 21
126.5
 31
0.0
  0
LINE
  5
23B
330
1F
100
AcDbEntity
  8
2
  6
Continuous
 62
     3
100
AcDbLine
 10
71.33183884503592
 20
126.0
 30
0.0
 11
71.33183884503592
 21
126.5
 31
0.0
  0
LINE
  5
23C
330
1F
100
AcDbEntity
  8
2
  6
Continuous
 62
     3
100
AcDbLine
 10
111.5818388450359
 20
114.0
 30
0.0
 11
111.5818388450359
 21
84.0
 31
0.0
  0
LINE
  5
23D
330
1F
100
AcDbEntity
  8
2
  6
Continuous
 62
     3
100
AcDbLine
 10
108.5818388450359
 20
114.0
 30
0.0
 11
108.5818388450359
 21
84.0
 31
0.0
  0
LINE
  5
23E
330
1F
100
AcDbEntity
  8
2
  6
Continuous
 62
     3
100
AcDbLine
 10
85.86052232968194
 20
36.46160573019739
 30
0.0
 11
77.3031553603899
 21
36.46160573019739
 31
0.0
  0
LINE
  5
23F
330
1F
100
AcDbEntity
  8
2
  6
Continuous
 62
     3
100
AcDbLine
 10
77.8116009498429
 20
36.18807983398438
 30
0.0
 11
85.35207674022894
 21
36.18807983398438
 31
0.0
  0
LINE
  5
240
330
1F
100
AcDbEntity
  8
2
  6
Continuous
 62
     3
100
AcDbLine
 10
85.84317990966883
 20
35.88451598518248
 30
0.0
 11
77.320497780403
 21
35.88451598518248
 31
0.0
  0
LINE
  5
241
330
1F
100
AcDbEntity
  8
2
  6
Continuous
 62
     3
100
AcDbLine
 10
77.42336141265741
 20
32.46160573019739
 30
0.0
 11
85.74031627741442
 21
32.46160573019739
 31
0.0
  0
LINE
  5
242
330
1F
100
AcDbEntity
  8
2
  6
Continuous
 62
     3
100
AcDbLine
 10
85.23187068796142
 20
32.18807983398438
 30
0.0
 11
77.93180700211042
 21
32.18807983398438
 31
0.0
  0
LINE
  5
243
330
1F
100
AcDbEntity
  8
2
  6
Continuous
 62
     3
100
AcDbLine
 10
77.44070383267041
 20
31.88451598518248
 30
0.0
 11
85.72297385740143
 21
31.88451598518248
 31
0.0
  0
LINE
  5
244
330
1F
100
AcDbEntity
  8
2
  6
Continuous
 62
     3
100
AcDbLine
 10
76.58183884503592
 20
139.5
 30
0.0
 11
86.58183884503592
 21
139.5
 31
0.0
  0
LINE
  5
245
330
1F
100
AcDbEntity
  8
2
  6
Continuous
 62
     3
100
AcDbLine
 10
77.18723988722411
 20
133.325876079419
 30
0.0
 11
77.18723988722411
 21
129.072892746383
 31
0.0
  0
LINE
  5
246
330
1F
100
AcDbEntity
  8
2
  6
Continuous
 62
     3
100
AcDbLine
 10
72.95382077663629
 20
133.325876079419
 30
0.0
 11
72.95382077663629
 21
129.072892746383
 31
0.0
  0
LINE
  5
247
330
1F
100
AcDbEntity
  8
2
  6
Continuous
 62
     3
100
AcDbLine
 10
68.5592218188246
 20
133.325876079419
 30
0.0
 11
68.5592218188246
 21
129.072892746383
 31
0.0
  0
LINE
  5
248
330
1F
100
AcDbEntity
  8
2
  6
Continuous
 62
     3
100
AcDbLine
 10
70.5592218188246
 20
135.325876079419
 30
0.0
 11
70.95382077663629
 21
135.325876079419
 31
0.0
  0
LINE
  5
249
330
1F
100
AcDbEntity
  8
2
  6
Continuous
 62
     3
100
AcDbLine
 10
70.5592218188246
 20
127.072892746383
 30
0.0
 11
70.95382077663629
 21
127.072892746383
 31
0.0
  0
LINE
  5
24A
330
1F
100
AcDbEntity
  8
2
  6
Continuous
 62
     3
100
AcDbLine
 10
79.18723988722411
 20
135.325876079419
 30
0.0
 11
83.97643780284773
 21
135.325876079419
 31
0.0
  0
LINE
  5
24B
330
1F
100
AcDbEntity
  8
2
  6
Continuous
 62
     3
100
AcDbLine
 10
79.18723988722411
 20
127.072892746383
 30
0.0
 11
83.97643780284773
 21
127.072892746383
 31
0.0
  0
LINE
  5
24C
330
1F
100
AcDbEntity
  8
2
  6
Continuous
 62
     3
100
AcDbLine
 10
94.60445587124735
 20
49.0
 30
0.0
 11
94.60445587124735
 21
54.5952624903444
 31
0.0
  0
LINE
  5
24D
330
1F
100
AcDbEntity
  8
2
  6
Continuous
 62
     3
100
AcDbLine
 10
90.20985691343554
 20
49.0
 30
0.0
 11
90.20985691343554
 21
54.5952624903444
 31
0.0
  0
LINE
  5
24E
330
1F
100
AcDbEntity
  8
2
  6
Continuous
 62
     3
100
AcDbLine
 10
92.60445587124735
 20
47.0
 30
0.0
 11
92.20985691343554
 21
47.0
 31
0.0
  0
LINE
  5
24F
330
1F
100
AcDbEntity
  8
2
  6
Continuous
 62
     3
100
AcDbLine
 10
92.60445587124735
 20
56.5952624903444
 30
0.0
 11
92.20985691343554
 21
56.5952624903444
 31
0.0
  0
LINE
  5
250
330
1F
100
AcDbEntity
  8
2
  6
Continuous
 62
     3
100
AcDbLine
 10
83.97643780284773
 20
47.0
 30
0.0
 11
79.18723988722411
 21
47.0
 31
0.0
  0
LINE
  5
251
330
1F
100
AcDbEntity
  8
2
  6
Continuous
 62
     3
100
AcDbLine
 10
83.97643780284773
 20
56.5952624903444
 30
0.0
 11
79.18723988722411
 21
56.5952624903444
 31
0.0
  0
LINE
  5
252
330
1F
100
AcDbEntity
  8
2
  6
Continuous
 62
     3
100
AcDbLine
 10
85.97643780284773
 20
49.0
 30
0.0
 11
85.97643780284773
 21
54.5952624903444
 31
0.0
  0
LINE
  5
253
330
1F
100
AcDbEntity
  8
2
  6
Continuous
 62
     3
100
AcDbLine
 10
90.20985691343554
 20
133.325876079419
 30
0.0
 11
90.20985691343554
 21
129.072892746383
 31
0.0
  0
LINE
  5
254
330
1F
100
AcDbEntity
  8
2
  6
Continuous
 62
     3
100
AcDbLine
 10
92.60445587124735
 20
135.325876079419
 30
0.0
 11
92.20985691343554
 21
135.325876079419
 31
0.0
  0
LINE
  5
255
330
1F
100
AcDbEntity
  8
2
  6
Continuous
 62
     3
100
AcDbLine
 10
92.60445587124735
 20
127.072892746383
 30
0.0
 11
92.20985691343554
 21
127.072892746383
 31
0.0
  0
LINE
  5
256
330
1F
100
AcDbEntity
  8
2
  6
Continuous
 62
     3
100
AcDbLine
 10
94.60445587124735
 20
133.325876079419
 30
0.0
 11
94.60445587124735
 21
129.072892746383
 31
0.0
  0
LINE
  5
257
330
1F
100
AcDbEntity
  8
2
  6
Continuous
 62
     3
100
AcDbLine
 10
85.97643780284773
 20
133.325876079419
 30
0.0
 11
85.97643780284773
 21
129.072892746383
 31
0.0
  0
LINE
  5
258
330
1F
100
AcDbEntity
  8
2
  6
Continuous
 62
     3
100
AcDbLine
 10
72.95382077663629
 20
49.0
 30
0.0
 11
72.95382077663629
 21
54.5952624903444
 31
0.0
  0
LINE
  5
259
330
1F
100
AcDbEntity
  8
2
  6
Continuous
 62
     3
100
AcDbLine
 10
70.5592218188246
 20
47.0
 30
0.0
 11
70.95382077663629
 21
47.0
 31
0.0
  0
LINE
  5
25A
330
1F
100
AcDbEntity
  8
2
  6
Continuous
 62
     3
100
AcDbLine
 10
68.5592218188246
 20
49.0
 30
0.0
 11
68.5592218188246
 21
54.5952624903444
 31
0.0
  0
LINE
  5
25B
330
1F
100
AcDbEntity
  8
2
  6
Continuous
 62
     3
100
AcDbLine
 10
70.5592218188246
 20
56.5952624903444
 30
0.0
 11
70.95382077663629
 21
56.5952624903444
 31
0.0
  0
LINE
  5
25C
330
1F
100
AcDbEntity
  8
2
  6
Continuous
 62
     3
100
AcDbLine
 10
77.18723988722411
 20
49.0
 30
0.0
 11
77.18723988722411
 21
54.5952624903444
 31
0.0
  0
LINE
  5
25D
330
1F
100
AcDbEntity
  8
2
  6
Continuous
 62
     3
100
AcDbLine
 10
214.5818388450359
 20
90.75
 30
0.0
 11
210.1093086614035
 21
90.75
 31
0.0
  0
LINE
  5
25E
330
1F
100
AcDbEntity
  8
2
  6
Continuous
 62
     3
100
AcDbLine
 10
214.5818388450359
 20
70.25
 30
0.0
 11
209.9632373653628
 21
70.25
 31
0.0
  0
LINE
  5
25F
330
1F
100
AcDbEntity
  8
2
  6
Continuous
 62
     3
100
AcDbLine
 10
214.5818388450359
 20
89.81549999999999
 30
0.0
 11
211.5818388450359
 21
89.81549999999999
 31
0.0
  0
LINE
  5
260
330
1F
100
AcDbEntity
  8
2
  6
Continuous
 62
     3
100
AcDbLine
 10
214.5818388450359
 20
71.18450000000001
 30
0.0
 11
211.5818388450359
 21
71.18450000000001
 31
0.0
  0
LINE
  5
261
330
1F
100
AcDbEntity
  8
2
  6
Continuous
 62
     3
100
AcDbLine
 10
209.9632373653628
 20
70.25
 30
0.0
 11
209.5818388450359
 21
70.02979946162071
 31
0.0
  0
LINE
  5
262
330
1F
100
AcDbEntity
  8
2
  6
Continuous
 62
     3
100
AcDbLine
 10
185.200440324709
 20
70.25
 30
0.0
 11
185.5818388450359
 21
70.02979946162071
 31
0.0
  0
LINE
  5
263
330
1F
100
AcDbEntity
  8
2
  6
Continuous
 62
     3
100
AcDbLine
 10
173.5818388450359
 20
89.75
 30
0.0
 11
173.5818388450359
 21
71.25
 31
0.0
  0
LINE
  5
264
330
1F
100
AcDbEntity
  8
2
  6
Continuous
 62
     3
100
AcDbLine
 10
174.5818388450359
 20
90.75
 30
0.0
 11
185.0543690286683
 21
90.75
 31
0.0
  0
LINE
  5
265
330
1F
100
AcDbEntity
  8
2
  6
Continuous
 62
     3
100
AcDbLine
 10
174.5818388450359
 20
70.25
 30
0.0
 11
185.200440324709
 21
70.25
 31
0.0
  0
LINE
  5
266
330
1F
100
AcDbEntity
  8
2
  6
Continuous
 62
     3
100
AcDbLine
 10
173.6473388450359
 20
89.81549999999999
 30
0.0
 11
183.5818388450359
 21
89.81549999999999
 31
0.0
  0
LINE
  5
267
330
1F
100
AcDbEntity
  8
2
  6
Continuous
 62
     3
100
AcDbLine
 10
173.6473388450359
 20
71.18450000000001
 30
0.0
 11
183.5818388450359
 21
71.18450000000001
 31
0.0
  0
LINE
  5
268
330
1F
100
AcDbEntity
  8
2
  6
Continuous
 62
     3
100
AcDbLine
 10
183.5818388450359
 20
70.25
 30
0.0
 11
183.5818388450359
 21
90.75
 31
0.0
  0
LINE
  5
269
330
1F
100
AcDbEntity
  8
2
  6
Continuous
 62
     3
100
AcDbLine
 10
211.5818388450359
 20
70.25
 30
0.0
 11
211.5818388450359
 21
90.75
 31
0.0
  0
LINE
  5
26A
330
1F
100
AcDbEntity
  8
2
  6
Continuous
 62
     3
100
AcDbLine
 10
208.5818388450359
 20
126.0
 30
0.0
 11
186.5818388450359
 21
126.0
 31
0.0
  0
LINE
  5
26B
330
1F
100
AcDbEntity
  8
2
  6
Continuous
 62
     3
100
AcDbLine
 10
208.8318388450359
 20
126.5
 30
0.0
 11
186.3318388450359
 21
126.5
 31
0.0
  0
LINE
  5
26C
330
1F
100
AcDbEntity
  8
2
  6
Continuous
 62
     3
100
AcDbLine
 10
208.5818388450359
 20
109.1980390271856
 30
0.0
 11
208.5818388450359
 21
126.5
 31
0.0
  0
LINE
  5
26D
330
1F
100
AcDbEntity
  8
2
  6
Continuous
 62
     3
100
AcDbLine
 10
207.8318388450359
 20
126.0
 30
0.0
 11
207.8318388450359
 21
126.5
 31
0.0
  0
LINE
  5
26E
330
1F
100
AcDbEntity
  8
2
  6
Continuous
 62
     3
100
AcDbLine
 10
192.5818388450359
 20
139.5
 30
0.0
 11
202.5818388450359
 21
139.5
 31
0.0
  0
LINE
  5
26F
330
1F
100
AcDbEntity
  8
2
  6
Continuous
 62
     3
100
AcDbLine
 10
186.5818388450359
 20
126.5
 30
0.0
 11
186.5818388450359
 21
109.1980390271856
 31
0.0
  0
LINE
  5
270
330
1F
100
AcDbEntity
  8
2
  6
Continuous
 62
     3
100
AcDbLine
 10
187.3318388450359
 20
126.0
 30
0.0
 11
187.3318388450359
 21
126.5
 31
0.0
  0
LINE
  5
271
330
1F
100
AcDbEntity
  8
2
  6
Continuous
 62
     3
100
AcDbLine
 10
201.352076740229
 20
36.18807983398438
 30
0.0
 11
201.860522329682
 21
36.46160573019739
 31
0.0
  0
LINE
  5
272
330
1F
100
AcDbEntity
  8
2
  6
Continuous
 62
     3
100
AcDbLine
 10
201.352076740229
 20
36.18807983398438
 30
0.0
 11
201.8431799096688
 21
35.88451598518248
 31
0.0
  0
LINE
  5
273
330
1F
100
AcDbEntity
  8
2
  6
Continuous
 62
     3
100
AcDbLine
 10
201.2318706879619
 20
32.18807983398438
 30
0.0
 11
201.7229738574019
 21
31.88451598518248
 31
0.0
  0
LINE
  5
274
330
1F
100
AcDbEntity
  8
2
  6
Continuous
 62
     3
100
AcDbLine
 10
201.2318706879619
 20
32.18807983398438
 30
0.0
 11
201.7403162774149
 21
32.46160573019739
 31
0.0
  0
LINE
  5
275
330
1F
100
AcDbEntity
  8
2
  6
Continuous
 62
     3
100
AcDbLine
 10
202.068911551974
 20
43.39600606566978
 30
0.0
 11
201.860522329682
 21
36.46160573019739
 31
0.0
  0
LINE
  5
276
330
1F
100
AcDbEntity
  8
2
  6
Continuous
 62
     3
100
AcDbLine
 10
201.8431799096688
 20
35.88451598518248
 30
0.0
 11
201.7403162774149
 21
32.46160573019739
 31
0.0
  0
LINE
  5
277
330
1F
100
AcDbEntity
  8
2
  6
Continuous
 62
     3
100
AcDbLine
 10
201.7229738574019
 20
31.88451598518248
 30
0.0
 11
201.5964132586068
 21
27.67306085768996
 31
0.0
  0
LINE
  5
278
330
1F
100
AcDbEntity
  8
2
  6
Continuous
 62
     3
100
AcDbLine
 10
210.0818388450359
 20
49.0
 30
0.0
 11
210.0818388450359
 21
55.6459503782261
 31
0.0
  0
LINE
  5
279
330
1F
100
AcDbEntity
  8
2
  6
Continuous
 62
     3
100
AcDbLine
 10
206.0818388450359
 20
45.0
 30
0.0
 11
189.0818388450359
 21
45.0
 31
0.0
  0
LINE
  5
27A
330
1F
100
AcDbEntity
  8
2
  6
Continuous
 62
     3
100
AcDbLine
 10
186.5818388450359
 20
58.5
 30
0.0
 11
208.5818388450359
 21
58.5
 31
0.0
  0
LINE
  5
27B
330
1F
100
AcDbEntity
  8
2
  6
Continuous
 62
     3
100
AcDbLine
 10
186.3318388450359
 20
57.5
 30
0.0
 11
208.8318388450359
 21
57.5
 31
0.0
  0
LINE
  5
27C
330
1F
100
AcDbEntity
  8
2
  6
Continuous
 62
     3
100
AcDbLine
 10
207.8318388450359
 20
57.5
 30
0.0
 11
207.8318388450359
 21
58.5
 31
0.0
  0
LINE
  5
27D
330
1F
100
AcDbEntity
  8
2
  6
Continuous
 62
     3
100
AcDbLine
 10
208.5818388450359
 20
57.5
 30
0.0
 11
208.5818388450359
 21
68.2977486540519
 31
0.0
  0
LINE
  5
27E
330
1F
100
AcDbEntity
  8
2
  6
Continuous
 62
     3
100
AcDbLine
 10
201.860522329682
 20
36.46160573019739
 30
0.0
 11
193.3031553603898
 21
36.46160573019739
 31
0.0
  0
LINE
  5
27F
330
1F
100
AcDbEntity
  8
2
  6
Continuous
 62
     3
100
AcDbLine
 10
193.8116009498428
 20
36.18807983398438
 30
0.0
 11
201.352076740229
 21
36.18807983398438
 31
0.0
  0
LINE
  5
280
330
1F
100
AcDbEntity
  8
2
  6
Continuous
 62
     3
100
AcDbLine
 10
201.8431799096688
 20
35.88451598518248
 30
0.0
 11
193.320497780403
 21
35.88451598518248
 31
0.0
  0
LINE
  5
281
330
1F
100
AcDbEntity
  8
2
  6
Continuous
 62
     3
100
AcDbLine
 10
193.4233614126579
 20
32.46160573019739
 30
0.0
 11
201.7403162774149
 21
32.46160573019739
 31
0.0
  0
LINE
  5
282
330
1F
100
AcDbEntity
  8
2
  6
Continuous
 62
     3
100
AcDbLine
 10
201.2318706879619
 20
32.18807983398438
 30
0.0
 11
193.9318070021109
 21
32.18807983398438
 31
0.0
  0
LINE
  5
283
330
1F
100
AcDbEntity
  8
2
  6
Continuous
 62
     3
100
AcDbLine
 10
193.4407038326709
 20
31.88451598518248
 30
0.0
 11
201.7229738574019
 21
31.88451598518248
 31
0.0
  0
LINE
  5
284
330
1F
100
AcDbEntity
  8
2
  6
Continuous
 62
     3
100
AcDbLine
 10
201.096638879161
 20
27.18807983398438
 30
0.0
 11
194.0670388109108
 21
27.18807983398438
 31
0.0
  0
LINE
  5
285
330
1F
100
AcDbEntity
  8
2
  6
Continuous
 62
     3
100
AcDbLine
 10
193.8116009498428
 20
36.18807983398438
 30
0.0
 11
193.3031553603898
 21
36.46160573019739
 31
0.0
  0
LINE
  5
286
330
1F
100
AcDbEntity
  8
2
  6
Continuous
 62
     3
100
AcDbLine
 10
193.8116009498428
 20
36.18807983398438
 30
0.0
 11
193.320497780403
 21
35.88451598518248
 31
0.0
  0
LINE
  5
287
330
1F
100
AcDbEntity
  8
2
  6
Continuous
 62
     3
100
AcDbLine
 10
193.9318070021109
 20
32.18807983398438
 30
0.0
 11
193.4233614126579
 21
32.46160573019739
 31
0.0
  0
LINE
  5
288
330
1F
100
AcDbEntity
  8
2
  6
Continuous
 62
     3
100
AcDbLine
 10
193.9318070021109
 20
32.18807983398438
 30
0.0
 11
193.4407038326709
 21
31.88451598518248
 31
0.0
  0
LINE
  5
289
330
1F
100
AcDbEntity
  8
2
  6
Continuous
 62
     3
100
AcDbLine
 10
193.0947661380978
 20
43.39600606566978
 30
0.0
 11
193.3031553603898
 21
36.46160573019739
 31
0.0
  0
LINE
  5
28A
330
1F
100
AcDbEntity
  8
2
  6
Continuous
 62
     3
100
AcDbLine
 10
193.320497780403
 20
35.88451598518248
 30
0.0
 11
193.4233614126579
 21
32.46160573019739
 31
0.0
  0
LINE
  5
28B
330
1F
100
AcDbEntity
  8
2
  6
Continuous
 62
     3
100
AcDbLine
 10
193.4407038326709
 20
31.88451598518248
 30
0.0
 11
193.567264431465
 21
27.67306085768996
 31
0.0
  0
LINE
  5
28C
330
1F
100
AcDbEntity
  8
2
  6
Continuous
 62
     3
100
AcDbLine
 10
185.0818388450359
 20
49.0
 30
0.0
 11
185.0818388450359
 21
55.6459503782261
 31
0.0
  0
LINE
  5
28D
330
1F
100
AcDbEntity
  8
2
  6
Continuous
 62
     3
100
AcDbLine
 10
186.5818388450359
 20
68.2977486540519
 30
0.0
 11
186.5818388450359
 21
57.5
 31
0.0
  0
LINE
  5
28E
330
1F
100
AcDbEntity
  8
2
  6
Continuous
 62
     3
100
AcDbLine
 10
187.3318388450359
 20
57.5
 30
0.0
 11
187.3318388450359
 21
58.5
 31
0.0
  0
LINE
  5
28F
330
1F
100
AcDbEntity
  8
2
  6
Continuous
 62
     3
100
AcDbLine
 10
195.137673181946
 20
49.0
 30
0.0
 11
195.137673181946
 21
54.5952624903444
 31
0.0
  0
LINE
  5
290
330
1F
100
AcDbEntity
  8
2
  6
Continuous
 62
     3
100
AcDbLine
 10
187.5260045081259
 20
49.0
 30
0.0
 11
187.5260045081259
 21
54.5952624903444
 31
0.0
  0
LINE
  5
291
330
1F
100
AcDbEntity
  8
2
  6
Continuous
 62
     3
100
AcDbLine
 10
193.137673181946
 20
56.5952624903444
 30
0.0
 11
189.5260045081259
 21
56.5952624903444
 31
0.0
  0
LINE
  5
292
330
1F
100
AcDbEntity
  8
2
  6
Continuous
 62
     3
100
AcDbLine
 10
189.5260045081259
 20
47.0
 30
0.0
 11
193.137673181946
 21
47.0
 31
0.0
  0
LINE
  5
293
330
1F
100
AcDbEntity
  8
2
  6
Continuous
 62
     3
100
AcDbLine
 10
202.0260045081259
 20
56.5952624903444
 30
0.0
 11
205.637673181946
 21
56.5952624903444
 31
0.0
  0
LINE
  5
294
330
1F
100
AcDbEntity
  8
2
  6
Continuous
 62
     3
100
AcDbLine
 10
205.637673181946
 20
47.0
 30
0.0
 11
202.0260045081259
 21
47.0
 31
0.0
  0
LINE
  5
295
330
1F
100
AcDbEntity
  8
2
  6
Continuous
 62
     3
100
AcDbLine
 10
200.0260045081259
 20
49.0
 30
0.0
 11
200.0260045081259
 21
54.5952624903444
 31
0.0
  0
LINE
  5
296
330
1F
100
AcDbEntity
  8
2
  6
Continuous
 62
     3
100
AcDbLine
 10
207.637673181946
 20
49.0
 30
0.0
 11
207.637673181946
 21
54.5952624903444
 31
0.0
  0
LINE
  5
297
330
1F
100
AcDbEntity
  8
2
  6
Continuous
 62
     3
100
AcDbLine
 10
192.5818388450359
 20
139.5
 30
0.0
 11
187.3367448189579
 21
136.956924108569
 31
0.0
  0
LINE
  5
298
330
1F
100
AcDbEntity
  8
2
  6
Continuous
 62
     3
100
AcDbLine
 10
202.5818388450359
 20
139.5
 30
0.0
 11
207.826932871114
 21
136.956924108569
 31
0.0
  0
LINE
  5
299
330
1F
100
AcDbEntity
  8
2
  6
Continuous
 62
     3
100
AcDbLine
 10
210.0818388450359
 20
133.357667679784
 30
0.0
 11
210.0818388450359
 21
129.404737509656
 31
0.0
  0
LINE
  5
29A
330
1F
100
AcDbEntity
  8
2
  6
Continuous
 62
     3
100
AcDbLine
 10
185.0818388450359
 20
133.357667679784
 30
0.0
 11
185.0818388450359
 21
129.404737509655
 31
0.0
  0
LINE
  5
29B
330
1F
100
AcDbEntity
  8
2
  6
Continuous
 62
     3
100
AcDbLine
 10
187.5260045081259
 20
133.325876079419
 30
0.0
 11
187.5260045081259
 21
129.072892746383
 31
0.0
  0
LINE
  5
29C
330
1F
100
AcDbEntity
  8
2
  6
Continuous
 62
     3
100
AcDbLine
 10
189.5260045081259
 20
127.072892746383
 30
0.0
 11
193.137673181946
 21
127.072892746383
 31
0.0
  0
LINE
  5
29D
330
1F
100
AcDbEntity
  8
2
  6
Continuous
 62
     3
100
AcDbLine
 10
195.137673181946
 20
129.072892746383
 30
0.0
 11
195.137673181946
 21
133.325876079419
 31
0.0
  0
LINE
  5
29E
330
1F
100
AcDbEntity
  8
2
  6
Continuous
 62
     3
100
AcDbLine
 10
193.137673181946
 20
135.325876079419
 30
0.0
 11
189.5260045081259
 21
135.325876079419
 31
0.0
  0
LINE
  5
29F
330
1F
100
AcDbEntity
  8
2
  6
Continuous
 62
     3
100
AcDbLine
 10
202.0260045081259
 20
135.325876079419
 30
0.0
 11
205.637673181946
 21
135.325876079419
 31
0.0
  0
LINE
  5
2A0
330
1F
100
AcDbEntity
  8
2
  6
Continuous
 62
     3
100
AcDbLine
 10
207.637673181946
 20
133.325876079419
 30
0.0
 11
207.637673181946
 21
129.072892746383
 31
0.0
  0
LINE
  5
2A1
330
1F
100
AcDbEntity
  8
2
  6
Continuous
 62
     3
100
AcDbLine
 10
205.637673181946
 20
127.072892746383
 30
0.0
 11
202.0260045081259
 21
127.072892746383
 31
0.0
  0
LINE
  5
2A2
330
1F
100
AcDbEntity
  8
2
  6
Continuous
 62
     3
100
AcDbLine
 10
200.0260045081259
 20
129.072892746383
 30
0.0
 11
200.0260045081259
 21
133.325876079419
 31
0.0
  0
LINE
  5
2A3
330
1F
100
AcDbEntity
  8
2
  6
Continuous
 62
     3
100
AcDbLine
 10
202.6818388450358
 20
98.26342470336633
 30
0.0
 11
202.6818388450358
 21
97.93842470336634
 31
0.0
  0
LINE
  5
2A4
330
1F
100
AcDbEntity
  8
2
  6
Continuous
 62
     3
100
AcDbLine
 10
202.6818388450358
 20
95.78842470336633
 30
0.0
 11
202.6818388450358
 21
95.46342470336634
 31
0.0
  0
LINE
  5
2A5
330
1F
100
AcDbEntity
  8
2
  6
Continuous
 62
     3
100
AcDbLine
 10
192.481838845036
 20
98.26342470336633
 30
0.0
 11
192.481838845036
 21
97.93842470336634
 31
0.0
  0
LINE
  5
2A6
330
1F
100
AcDbEntity
  8
2
  6
Continuous
 62
     3
100
AcDbLine
 10
192.481838845036
 20
95.78842470336633
 30
0.0
 11
192.481838845036
 21
95.46342470336634
 31
0.0
  0
LINE
  5
2A7
330
1F
100
AcDbEntity
  8
2
  6
Continuous
 62
     3
100
AcDbLine
 10
194.0818388450359
 20
91.73451827187532
 30
0.0
 11
194.0818388450359
 21
89.04036190763136
 31
0.0
  0
LINE
  5
2A8
330
1F
100
AcDbEntity
  8
2
  6
Continuous
 62
     3
100
AcDbLine
 10
201.0818388450359
 20
91.73451827187532
 30
0.0
 11
201.0818388450359
 21
89.04036190763136
 31
0.0
  0
LINE
  5
2A9
330
1F
100
AcDbEntity
  8
2
  6
Continuous
 62
     3
100
AcDbLine
 10
190.4318388450358
 20
94.46342470336634
 30
0.0
 11
192.7658791316869
 21
93.61390351344735
 31
0.0
  0
LINE
  5
2AA
330
1F
100
AcDbEntity
  8
2
  6
Continuous
 62
     3
100
AcDbLine
 10
204.731838845036
 20
94.46342470336634
 30
0.0
 11
202.3977985583849
 21
93.61390351344735
 31
0.0
  0
LINE
  5
2AB
330
1F
100
AcDbEntity
  8
2
  6
Continuous
 62
     3
100
AcDbLine
 10
190.4318388450358
 20
95.46342470336634
 30
0.0
 11
204.731838845036
 21
95.46342470336634
 31
0.0
  0
LINE
  5
2AC
330
1F
100
AcDbEntity
  8
2
  6
Continuous
 62
     3
100
AcDbLine
 10
190.4318388450358
 20
98.26342470336633
 30
0.0
 11
204.731838845036
 21
98.26342470336633
 31
0.0
  0
LINE
  5
2AD
330
1F
100
AcDbEntity
  8
2
  6
Continuous
 62
     3
100
AcDbLine
 10
204.731838845036
 20
99.2634247033663
 30
0.0
 11
204.731838845036
 21
98.26342470336633
 31
0.0
  0
LINE
  5
2AE
330
1F
100
AcDbEntity
  8
2
  6
Continuous
 62
     3
100
AcDbLine
 10
204.731838845036
 20
95.46342470336634
 30
0.0
 11
204.731838845036
 21
94.46342470336634
 31
0.0
  0
LINE
  5
2AF
330
1F
100
AcDbEntity
  8
2
  6
Continuous
 62
     3
100
AcDbLine
 10
190.431838845036
 20
99.2634247033663
 30
0.0
 11
190.4318388450358
 21
98.26342470336633
 31
0.0
  0
LINE
  5
2B0
330
1F
100
AcDbEntity
  8
2
  6
Continuous
 62
     3
100
AcDbLine
 10
190.4318388450358
 20
95.46342470336634
 30
0.0
 11
190.4318388450358
 21
94.46342470336634
 31
0.0
  0
LINE
  5
2B1
330
1F
100
AcDbEntity
  8
2
  6
Continuous
 62
     3
100
AcDbLine
 10
204.731838845036
 20
94.46342470336634
 30
0.0
 11
190.4318388450358
 21
94.46342470336634
 31
0.0
  0
LINE
  5
2B2
102
{ACAD_REACTORS
330
3D1
102
}
330
1F
100
AcDbEntity
  8
2
  6
Continuous
 62
     3
100
AcDbLine
 10
203.7568388450359
 20
97.93842470336634
 30
0.0
 11
191.406838845036
 21
97.93842470336634
 31
0.0
  0
LINE
  5
2B3
102
{ACAD_REACTORS
330
3D1
102
}
330
1F
100
AcDbEntity
  8
2
  6
Continuous
 62
     3
100
AcDbLine
 10
191.406838845036
 20
95.78842470336633
 30
0.0
 11
203.7568388450359
 21
95.78842470336633
 31
0.0
  0
LINE
  5
2B4
330
1F
100
AcDbEntity
  8
2
  6
Continuous
 62
     3
100
AcDbLine
 10
188.5818388450359
 20
100.0
 30
0.0
 11
197.5818388450359
 21
100.0
 31
0.0
  0
LINE
  5
2B5
330
1F
100
AcDbEntity
  8
2
  6
Continuous
 62
     3
100
AcDbLine
 10
197.5818388450359
 20
100.0
 30
0.0
 11
206.5818388450359
 21
100.0
 31
0.0
  0
LINE
  5
2B6
330
1F
100
AcDbEntity
  8
2
  6
Continuous
 62
     3
100
AcDbLine
 10
50.00911036865671
 20
114.394579945153
 30
0.0
 11
49.3442345380019
 21
114.714531179816
 31
0.0
  0
LINE
  5
2B7
330
1F
100
AcDbEntity
  8
2
  6
Continuous
 62
     3
100
AcDbLine
 10
50.59415654894633
 20
114.17685126422
 30
0.0
 11
50.00911036865671
 21
114.394579945153
 31
0.0
  0
LINE
  5
2B8
330
1F
100
AcDbEntity
  8
2
  6
Continuous
 62
     3
100
AcDbLine
 10
51.14477774172821
 20
114.044234379726
 30
0.0
 11
50.59415654894633
 21
114.17685126422
 31
0.0
  0
LINE
  5
2B9
330
1F
100
AcDbEntity
  8
2
  6
Continuous
 62
     3
100
AcDbLine
 10
51.6536356147605
 20
114.0
 30
0.0
 11
51.14477774172821
 21
114.044234379726
 31
0.0
  0
LINE
  5
2BA
330
1F
100
AcDbEntity
  8
2
  6
Continuous
 62
     3
100
AcDbLine
 10
52.1624934877928
 20
114.044234379726
 30
0.0
 11
51.6536356147605
 21
114.0
 31
0.0
  0
LINE
  5
2BB
330
1F
100
AcDbEntity
  8
2
  6
Continuous
 62
     3
100
AcDbLine
 10
52.7131146805749
 20
114.17685126422
 30
0.0
 11
52.1624934877928
 21
114.044234379726
 31
0.0
  0
LINE
  5
2BC
330
1F
100
AcDbEntity
  8
2
  6
Continuous
 62
     3
100
AcDbLine
 10
53.29816086086464
 20
114.394579945153
 30
0.0
 11
52.7131146805749
 21
114.17685126422
 31
0.0
  0
LINE
  5
2BD
330
1F
100
AcDbEntity
  8
2
  6
Continuous
 62
     3
100
AcDbLine
 10
53.96303669151899
 20
114.714531179816
 30
0.0
 11
53.29816086086464
 21
114.394579945153
 31
0.0
  0
LINE
  5
2BE
330
1F
100
AcDbEntity
  8
2
  6
Continuous
 62
     3
100
AcDbLine
 10
55.29278835282872
 20
114.394579945153
 30
0.0
 11
53.96303669151899
 21
114.714531179816
 31
0.0
  0
LINE
  5
2BF
330
1F
100
AcDbEntity
  8
2
  6
Continuous
 62
     3
100
AcDbLine
 10
56.46288071340774
 20
114.17685126422
 30
0.0
 11
55.29278835282872
 21
114.394579945153
 31
0.0
  0
LINE
  5
2C0
330
1F
100
AcDbEntity
  8
2
  6
Continuous
 62
     3
100
AcDbLine
 10
57.56412309897144
 20
114.044234379726
 30
0.0
 11
56.46288071340774
 21
114.17685126422
 31
0.0
  0
LINE
  5
2C1
330
1F
100
AcDbEntity
  8
2
  6
Continuous
 62
     3
100
AcDbLine
 10
58.58183884503609
 20
114.0
 30
0.0
 11
57.56412309897144
 21
114.044234379726
 31
0.0
  0
LINE
  5
2C2
330
1F
100
AcDbEntity
  8
2
  6
Continuous
 62
     3
100
AcDbLine
 10
59.5995545911008
 20
114.044234379726
 30
0.0
 11
58.58183884503609
 21
114.0
 31
0.0
  0
LINE
  5
2C3
330
1F
100
AcDbEntity
  8
2
  6
Continuous
 62
     3
100
AcDbLine
 10
60.70079697666489
 20
114.17685126422
 30
0.0
 11
59.5995545911008
 21
114.044234379726
 31
0.0
  0
LINE
  5
2C4
330
1F
100
AcDbEntity
  8
2
  6
Continuous
 62
     3
100
AcDbLine
 10
61.87088933724419
 20
114.394579945153
 30
0.0
 11
60.70079697666489
 21
114.17685126422
 31
0.0
  0
LINE
  5
2C5
330
1F
100
AcDbEntity
  8
2
  6
Continuous
 62
     3
100
AcDbLine
 10
63.2006409985529
 20
114.714531179816
 30
0.0
 11
61.87088933724419
 21
114.394579945153
 31
0.0
  0
LINE
  5
2C6
330
1F
100
AcDbEntity
  8
2
  6
Continuous
 62
     3
100
AcDbLine
 10
63.86551682920782
 20
114.394579945153
 30
0.0
 11
63.2006409985529
 21
114.714531179816
 31
0.0
  0
LINE
  5
2C7
330
1F
100
AcDbEntity
  8
2
  6
Continuous
 62
     3
100
AcDbLine
 10
64.45056300949733
 20
114.17685126422
 30
0.0
 11
63.86551682920782
 21
114.394579945153
 31
0.0
  0
LINE
  5
2C8
330
1F
100
AcDbEntity
  8
2
  6
Continuous
 62
     3
100
AcDbLine
 10
65.00118420227932
 20
114.044234379726
 30
0.0
 11
64.45056300949733
 21
114.17685126422
 31
0.0
  0
LINE
  5
2C9
330
1F
100
AcDbEntity
  8
2
  6
Continuous
 62
     3
100
AcDbLine
 10
65.5100420753115
 20
114.0
 30
0.0
 11
65.00118420227932
 21
114.044234379726
 31
0.0
  0
LINE
  5
2CA
330
1F
100
AcDbEntity
  8
2
  6
Continuous
 62
     3
100
AcDbLine
 10
66.0188999483438
 20
114.044234379726
 30
0.0
 11
65.5100420753115
 21
114.0
 31
0.0
  0
LINE
  5
2CB
330
1F
100
AcDbEntity
  8
2
  6
Continuous
 62
     3
100
AcDbLine
 10
66.5695211411259
 20
114.17685126422
 30
0.0
 11
66.0188999483438
 21
114.044234379726
 31
0.0
  0
LINE
  5
2CC
330
1F
100
AcDbEntity
  8
2
  6
Continuous
 62
     3
100
AcDbLine
 10
67.15456732141553
 20
114.394579945153
 30
0.0
 11
66.5695211411259
 21
114.17685126422
 31
0.0
  0
LINE
  5
2CD
330
1F
100
AcDbEntity
  8
2
  6
Continuous
 62
     3
100
AcDbLine
 10
67.81944315206994
 20
114.714531179816
 30
0.0
 11
67.15456732141553
 21
114.394579945153
 31
0.0
  0
LINE
  5
2CE
330
1F
100
AcDbEntity
  8
2
  6
Continuous
 62
     3
100
AcDbLine
 10
67.15456732141502
 20
116.605420054847
 30
0.0
 11
67.81944315206994
 21
116.285468820184
 31
0.0
  0
LINE
  5
2CF
330
1F
100
AcDbEntity
  8
2
  6
Continuous
 62
     3
100
AcDbLine
 10
66.5695211411255
 20
116.82314873578
 30
0.0
 11
67.15456732141502
 21
116.605420054847
 31
0.0
  0
LINE
  5
2D0
330
1F
100
AcDbEntity
  8
2
  6
Continuous
 62
     3
100
AcDbLine
 10
66.01889994834352
 20
116.955765620274
 30
0.0
 11
66.5695211411255
 21
116.82314873578
 31
0.0
  0
LINE
  5
2D1
330
1F
100
AcDbEntity
  8
2
  6
Continuous
 62
     3
100
AcDbLine
 10
65.51004207531133
 20
117.0
 30
0.0
 11
66.01889994834352
 21
116.955765620274
 31
0.0
  0
LINE
  5
2D2
330
1F
100
AcDbEntity
  8
2
  6
Continuous
 62
     3
100
AcDbLine
 10
65.00118420227903
 20
116.955765620274
 30
0.0
 11
65.51004207531133
 21
117.0
 31
0.0
  0
LINE
  5
2D3
330
1F
100
AcDbEntity
  8
2
  6
Continuous
 62
     3
100
AcDbLine
 10
64.45056300949699
 20
116.82314873578
 30
0.0
 11
65.00118420227903
 21
116.955765620274
 31
0.0
  0
LINE
  5
2D4
330
1F
100
AcDbEntity
  8
2
  6
Continuous
 62
     3
100
AcDbLine
 10
63.86551682920742
 20
116.605420054847
 30
0.0
 11
64.45056300949699
 21
116.82314873578
 31
0.0
  0
LINE
  5
2D5
330
1F
100
AcDbEntity
  8
2
  6
Continuous
 62
     3
100
AcDbLine
 10
63.2006409985529
 20
116.285468820184
 30
0.0
 11
63.86551682920742
 21
116.605420054847
 31
0.0
  0
LINE
  5
2D6
330
1F
100
AcDbEntity
  8
2
  6
Continuous
 62
     3
100
AcDbLine
 10
61.87088933724311
 20
116.605420054847
 30
0.0
 11
63.2006409985529
 21
116.285468820184
 31
0.0
  0
LINE
  5
2D7
330
1F
100
AcDbEntity
  8
2
  6
Continuous
 62
     3
100
AcDbLine
 10
60.70079697666398
 20
116.82314873578
 30
0.0
 11
61.87088933724311
 21
116.605420054847
 31
0.0
  0
LINE
  5
2D8
330
1F
100
AcDbEntity
  8
2
  6
Continuous
 62
     3
100
AcDbLine
 10
59.59955459110023
 20
116.955765620274
 30
0.0
 11
60.70079697666398
 21
116.82314873578
 31
0.0
  0
LINE
  5
2D9
330
1F
100
AcDbEntity
  8
2
  6
Continuous
 62
     3
100
AcDbLine
 10
58.58183884503575
 20
117.0
 30
0.0
 11
59.59955459110023
 21
116.955765620274
 31
0.0
  0
LINE
  5
2DA
330
1F
100
AcDbEntity
  8
2
  6
Continuous
 62
     3
100
AcDbLine
 10
57.56412309897104
 20
116.955765620274
 30
0.0
 11
58.58183884503575
 21
117.0
 31
0.0
  0
LINE
  5
2DB
330
1F
100
AcDbEntity
  8
2
  6
Continuous
 62
     3
100
AcDbLine
 10
56.462880713407
 20
116.82314873578
 30
0.0
 11
57.56412309897104
 21
116.955765620274
 31
0.0
  0
LINE
  5
2DC
330
1F
100
AcDbEntity
  8
2
  6
Continuous
 62
     3
100
AcDbLine
 10
55.29278835282781
 20
116.605420054847
 30
0.0
 11
56.462880713407
 21
116.82314873578
 31
0.0
  0
LINE
  5
2DD
330
1F
100
AcDbEntity
  8
2
  6
Continuous
 62
     3
100
AcDbLine
 10
53.96303669151894
 20
116.285468820184
 30
0.0
 11
55.29278835282781
 21
116.605420054847
 31
0.0
  0
LINE
  5
2DE
330
1F
100
AcDbEntity
  8
2
  6
Continuous
 62
     3
100
AcDbLine
 10
53.29816086086402
 20
116.605420054847
 30
0.0
 11
53.96303669151894
 21
116.285468820184
 31
0.0
  0
LINE
  5
2DF
330
1F
100
AcDbEntity
  8
2
  6
Continuous
 62
     3
100
AcDbLine
 10
52.71311468057451
 20
116.82314873578
 30
0.0
 11
53.29816086086402
 21
116.605420054847
 31
0.0
  0
LINE
  5
2E0
330
1F
100
AcDbEntity
  8
2
  6
Continuous
 62
     3
100
AcDbLine
 10
52.16249348779252
 20
116.955765620274
 30
0.0
 11
52.71311468057451
 21
116.82314873578
 31
0.0
  0
LINE
  5
2E1
330
1F
100
AcDbEntity
  8
2
  6
Continuous
 62
     3
100
AcDbLine
 10
51.65363561476033
 20
117.0
 30
0.0
 11
52.16249348779252
 21
116.955765620274
 31
0.0
  0
LINE
  5
2E2
330
1F
100
AcDbEntity
  8
2
  6
Continuous
 62
     3
100
AcDbLine
 10
51.14477774172792
 20
116.955765620274
 30
0.0
 11
51.65363561476033
 21
117.0
 31
0.0
  0
LINE
  5
2E3
330
1F
100
AcDbEntity
  8
2
  6
Continuous
 62
     3
100
AcDbLine
 10
50.59415654894605
 20
116.82314873578
 30
0.0
 11
51.14477774172792
 21
116.955765620274
 31
0.0
  0
LINE
  5
2E4
330
1F
100
AcDbEntity
  8
2
  6
Continuous
 62
     3
100
AcDbLine
 10
50.00911036865631
 20
116.605420054847
 30
0.0
 11
50.59415654894605
 21
116.82314873578
 31
0.0
  0
LINE
  5
2E5
330
1F
100
AcDbEntity
  8
2
  6
Continuous
 62
     3
100
AcDbLine
 10
49.3442345380019
 20
116.285468820184
 30
0.0
 11
50.00911036865631
 21
116.605420054847
 31
0.0
  0
LINE
  5
2E6
330
1F
100
AcDbEntity
  8
2
  6
Continuous
 62
     3
100
AcDbLine
 10
53.96303669151894
 20
116.285468820184
 30
0.0
 11
53.96303669151899
 21
114.714531179816
 31
0.0
  0
LINE
  5
2E7
330
1F
100
AcDbEntity
  8
2
  6
Continuous
 62
     3
100
AcDbLine
 10
63.2006409985529
 20
116.285468820184
 30
0.0
 11
63.2006409985529
 21
114.714531179816
 31
0.0
  0
LINE
  5
2E8
330
1F
100
AcDbEntity
  8
2
  6
Continuous
 62
     3
100
AcDbLine
 10
53.54549552588435
 20
127.0
 30
0.0
 11
53.54549552588435
 21
120.0
 31
0.0
  0
LINE
  5
2E9
330
1F
100
AcDbEntity
  8
2
  6
Continuous
 62
     3
100
AcDbLine
 10
55.54038696070853
 20
127.0
 30
0.0
 11
55.54038696070853
 21
120.0
 31
0.0
  0
LINE
  5
2EA
330
1F
100
AcDbEntity
  8
2
  6
Continuous
 62
     3
100
AcDbLine
 10
52.8132583310088
 20
117.5
 30
0.0
 11
52.8132583310088
 21
119.5
 31
0.0
  0
LINE
  5
2EB
330
1F
100
AcDbEntity
  8
2
  6
Continuous
 62
     3
100
AcDbLine
 10
60.81265952650011
 20
117.5
 30
0.0
 11
60.81265952650011
 21
119.5
 31
0.0
  0
LINE
  5
2EC
330
1F
100
AcDbEntity
  8
2
  6
Continuous
 62
     3
100
AcDbLine
 10
51.58183884503592
 20
132.0
 30
0.0
 11
51.58183884503592
 21
120.0
 31
0.0
  0
LINE
  5
2ED
330
1F
100
AcDbEntity
  8
2
  6
Continuous
 62
     3
100
AcDbLine
 10
65.58183884503592
 20
132.0
 30
0.0
 11
65.58183884503592
 21
120.0
 31
0.0
  0
LINE
  5
2EE
330
1F
100
AcDbEntity
  8
2
  6
Continuous
 62
     3
100
AcDbLine
 10
50.58183884503592
 20
127.0
 30
0.0
 11
50.58183884503592
 21
120.0
 31
0.0
  0
LINE
  5
2EF
330
1F
100
AcDbEntity
  8
2
  6
Continuous
 62
     3
100
AcDbLine
 10
66.58183884503592
 20
127.0
 30
0.0
 11
66.58183884503592
 21
120.0
 31
0.0
  0
LINE
  5
2F0
330
1F
100
AcDbEntity
  8
2
  6
Continuous
 62
     3
100
AcDbLine
 10
52.58183884503592
 20
133.0
 30
0.0
 11
64.58183884503592
 21
133.0
 31
0.0
  0
LINE
  5
2F1
330
1F
100
AcDbEntity
  8
2
  6
Continuous
 62
     3
100
AcDbLine
 10
65.27239888689525
 20
120.0
 30
0.0
 11
65.27239888689525
 21
117.0
 31
0.0
  0
LINE
  5
2F2
330
1F
100
AcDbEntity
  8
2
  6
Continuous
 62
     3
100
AcDbLine
 10
50.12239888689521
 20
120.0
 30
0.0
 11
50.12239888689521
 21
117.0
 31
0.0
  0
LINE
  5
2F3
330
1F
100
AcDbEntity
  8
2
  6
Continuous
 62
     3
100
AcDbLine
 10
50.12239888689521
 20
120.0
 30
0.0
 11
66.58183884503592
 21
120.0
 31
0.0
  0
LINE
  5
2F4
330
1F
100
AcDbEntity
  8
2
  6
Continuous
 62
     3
100
AcDbLine
 10
66.58183884503592
 20
117.0
 30
0.0
 11
67.81944315206994
 21
116.285468820184
 31
0.0
  0
LINE
  5
2F5
330
1F
100
AcDbEntity
  8
2
  6
Continuous
 62
     3
100
AcDbLine
 10
67.81944315206994
 20
114.714531179816
 30
0.0
 11
66.58183884503592
 21
114.0
 31
0.0
  0
LINE
  5
2F6
330
1F
100
AcDbEntity
  8
2
  6
Continuous
 62
     3
100
AcDbLine
 10
49.3442345380019
 20
114.714531179816
 30
0.0
 11
50.58183884503592
 21
114.0
 31
0.0
  0
LINE
  5
2F7
330
1F
100
AcDbEntity
  8
2
  6
Continuous
 62
     3
100
AcDbLine
 10
50.58183884503592
 20
117.0
 30
0.0
 11
49.3442345380019
 21
116.285468820184
 31
0.0
  0
LINE
  5
2F8
330
1F
100
AcDbEntity
  8
2
  6
Continuous
 62
     3
100
AcDbLine
 10
49.3442345380019
 20
116.285468820184
 30
0.0
 11
49.3442345380019
 21
114.714531179816
 31
0.0
  0
LINE
  5
2F9
330
1F
100
AcDbEntity
  8
2
  6
Continuous
 62
     3
100
AcDbLine
 10
67.81944315206994
 20
116.285468820184
 30
0.0
 11
67.81944315206994
 21
114.714531179816
 31
0.0
  0
LINE
  5
2FA
330
1F
100
AcDbEntity
  8
2
  6
Continuous
 62
     3
100
AcDbLine
 10
50.12239888689521
 20
117.0
 30
0.0
 11
66.58183884503592
 21
117.0
 31
0.0
  0
LINE
  5
2FB
330
1F
100
AcDbEntity
  8
1
  6
Continuous
 62
     3
100
AcDbLine
 10
28.58183884503592
 20
235.514422971548
 30
0.0
 11
27.58183884503592
 21
234.514422971548
 31
0.0
  0
LINE
  5
2FC
330
1F
100
AcDbEntity
  8
1
  6
Continuous
 62
     3
100
AcDbLine
 10
28.58183884503592
 20
215.014422971548
 30
0.0
 11
27.58183884503592
 21
216.014422971548
 31
0.0
  0
LINE
  5
2FD
330
1F
100
AcDbEntity
  8
1
  6
Continuous
 62
     3
100
AcDbLine
 10
71.33183884503592
 20
202.264422971548
 30
0.0
 11
72.33183884503592
 21
201.264422971548
 31
0.0
  0
LINE
  5
2FE
330
1F
100
AcDbEntity
  8
1
  6
Continuous
 62
     3
100
AcDbLine
 10
90.83183884503592
 20
201.264422971548
 30
0.0
 11
91.83183884503592
 21
202.264422971548
 31
0.0
  0
LINE
  5
2FF
330
1F
100
AcDbEntity
  8
1
  6
Continuous
 62
     3
100
AcDbLine
 10
28.58183884503592
 20
109.25
 30
0.0
 11
27.58183884503592
 21
108.25
 31
0.0
  0
LINE
  5
300
330
1F
100
AcDbEntity
  8
1
  6
Continuous
 62
     3
100
AcDbLine
 10
27.58183884503592
 20
89.75
 30
0.0
 11
28.58183884503592
 21
88.75
 31
0.0
  0
LINE
  5
301
330
1F
100
AcDbEntity
  8
1
  6
Continuous
 62
     3
100
AcDbLine
 10
174.5818388450359
 20
90.75
 30
0.0
 11
173.5818388450359
 21
89.75
 31
0.0
  0
LINE
  5
302
330
1F
100
AcDbEntity
  8
1
  6
Continuous
 62
     3
100
AcDbLine
 10
174.5818388450359
 20
70.25
 30
0.0
 11
173.5818388450359
 21
71.25
 31
0.0
  0
LINE
  5
303
330
1F
100
AcDbEntity
  8
1
  6
Continuous
 62
     3
100
AcDbLine
 10
28.58183884503592
 20
235.514422971548
 30
0.0
 11
28.58183884503592
 21
215.014422971548
 31
0.0
  0
LINE
  5
304
330
1F
100
AcDbEntity
  8
1
  6
Continuous
 62
     3
100
AcDbLine
 10
71.33183884503592
 20
202.264422971548
 30
0.0
 11
91.83183884503592
 21
202.264422971548
 31
0.0
  0
LINE
  5
305
330
1F
100
AcDbEntity
  8
1
  6
Continuous
 62
     3
100
AcDbLine
 10
28.58183884503592
 20
88.75
 30
0.0
 11
28.58183884503592
 21
109.25
 31
0.0
  0
LINE
  5
306
330
1F
100
AcDbEntity
  8
1
  6
Continuous
 62
     3
100
AcDbLine
 10
174.5818388450359
 20
70.25
 30
0.0
 11
174.5818388450359
 21
90.75
 31
0.0
  0
ARC
  5
307
330
1F
100
AcDbEntity
  8
1
  6
Continuous
 62
     3
100
AcDbCircle
 10
58.58183884503592
 20
225.264422971548
 30
0.0
 40
7.000000000000044
100
AcDbArc
 50
68.19208751630353
 51
268.7827377773282
  0
ARC
  5
308
330
1F
100
AcDbEntity
  8
1
  6
Continuous
 62
     3
100
AcDbCircle
 10
58.58183884503592
 20
225.264422971548
 30
0.0
 40
7.999999999999893
100
AcDbArc
 50
29.9999999999988
 51
262.1774033479022
  0
ARC
  5
309
330
1F
100
AcDbEntity
  8
1
  6
Continuous
 62
     3
100
AcDbCircle
 10
58.58183884503592
 20
225.264422971548
 30
0.0
 40
7.000000000000511
100
AcDbArc
 50
10.5734544842616
 51
68.19208751630353
  0
ARC
  5
30A
330
1F
100
AcDbEntity
  8
1
  6
Continuous
 62
     3
100
AcDbCircle
 10
58.58183884503592
 20
225.264422971548
 30
0.0
 40
7.999999999999893
100
AcDbArc
 50
17.1787889136877
 51
29.9999999999988
  0
ARC
  5
30B
330
1F
100
AcDbEntity
  8
100
  6
Continuous
 62
     3
100
AcDbCircle
 10
62.08183884503592
 20
231.3266007980391
 30
0.0
 40
0.999999999999844
100
AcDbArc
 50
325.903956241807
 51
154.0960437581512
  0
ARC
  5
30C
330
1F
100
AcDbEntity
  8
LEVEL001
  6
Continuous
 62
     3
100
AcDbCircle
 10
81.58183884505581
 20
142.2026525318081
 30
0.0
 40
68.81177043971941
100
AcDbArc
 50
73.08480605734515
 51
106.9151939426811
  0
ARC
  5
30D
330
1F
100
AcDbEntity
  8
LEVEL001
  6
Continuous
 62
     3
100
AcDbCircle
 10
153.5154421291759
 20
266.7953081914141
 30
0.0
 40
68.81177043971414
100
AcDbArc
 50
193.0848060573452
 51
226.9151939426826
  0
ARC
  5
30E
330
1F
100
AcDbEntity
  8
LEVEL001
  6
Continuous
 62
     3
100
AcDbCircle
 10
9.64823556093586
 20
266.7953081914101
 30
0.0
 40
68.8117704397098
100
AcDbArc
 50
313.0848060573456
 51
346.915193942684
  0
ARC
  5
30F
330
1F
100
AcDbEntity
  8
LEVEL001
  6
Continuous
 62
     3
100
AcDbCircle
 10
103.2324739396659
 20
212.764422971548
 30
0.0
 40
4.999999999999746
100
AcDbArc
 50
329.9999999999983
 51
49.01942457222498
  0
ARC
  5
310
330
1F
100
AcDbEntity
  8
LEVEL001
  6
Continuous
 62
     3
100
AcDbCircle
 10
103.2324739396659
 20
212.764422971548
 30
0.0
 40
4.999999999999956
100
AcDbArc
 50
250.9805754274158
 51
329.9999999999983
  0
ARC
  5
311
330
1F
100
AcDbEntity
  8
LEVEL001
  6
Continuous
 62
     3
100
AcDbCircle
 10
59.93120375044578
 20
212.764422971548
 30
0.0
 40
5.000000000000523
100
AcDbArc
 50
130.9805754274171
 51
210.0000000000011
  0
ARC
  5
312
330
1F
100
AcDbEntity
  8
LEVEL001
  6
Continuous
 62
     3
100
AcDbCircle
 10
59.93120375044578
 20
212.764422971548
 30
0.0
 40
4.999999999999826
100
AcDbArc
 50
210.0000000000011
 51
289.0194245722221
  0
ARC
  5
313
330
1F
100
AcDbEntity
  8
LEVEL001
  6
Continuous
 62
     3
100
AcDbCircle
 10
81.58183884505581
 20
250.264422971544
 30
0.0
 40
4.999999999999678
100
AcDbArc
 50
10.98057542742191
 51
90.0
  0
ARC
  5
314
330
1F
100
AcDbEntity
  8
LEVEL001
  6
Continuous
 62
     3
100
AcDbCircle
 10
81.58183884505581
 20
250.264422971544
 30
0.0
 40
5.0
100
AcDbArc
 50
90.0
 51
169.0194245722194
  0
ARC
  5
315
330
1F
100
AcDbEntity
  8
100
  6
Continuous
 62
     3
100
AcDbCircle
 10
106.5818388450359
 20
239.764422971548
 30
0.0
 40
2.0
100
AcDbArc
 50
270.0
 51
0.0
  0
ARC
  5
316
330
1F
100
AcDbEntity
  8
1
  6
DOTTED
 62
     6
100
AcDbCircle
 10
81.58183884503592
 20
133.490690426503
 30
0.0
 40
25.0
100
AcDbArc
 50
73.73979529168804
 51
106.2602047083119
  0
ARC
  5
317
330
1F
100
AcDbEntity
  8
1
  6
Continuous
 62
     3
100
AcDbCircle
 10
81.58183884503592
 20
143.490690426503
 30
0.0
 40
25.0
100
AcDbArc
 50
73.73979529168804
 51
106.2602047083119
  0
ARC
  5
318
330
1F
100
AcDbEntity
  8
1
  6
Continuous
 62
     3
100
AcDbCircle
 10
81.58183884503569
 20
155.3397789112146
 30
0.0
 40
3.167044090646225
100
AcDbArc
 50
222.7326728739058
 51
317.2673271260942
  0
ARC
  5
319
330
1F
100
AcDbEntity
  8
3
  6
Continuous
 62
     3
100
AcDbCircle
 10
76.08183884503592
 20
75.49233113485724
 30
0.0
 40
2.000000000000008
100
AcDbArc
 50
332.6265305270327
 51
0.0
  0
ARC
  5
31A
330
1F
100
AcDbEntity
  8
3
  6
Continuous
 62
     3
100
AcDbCircle
 10
87.08183884503592
 20
75.49233113485724
 30
0.0
 40
2.0
100
AcDbArc
 50
180.0
 51
207.3734694729681
  0
ARC
  5
31B
330
1F
100
AcDbEntity
  8
1
  6
DOTTED
 62
     6
100
AcDbCircle
 10
197.5818388450359
 20
133.490690426503
 30
0.0
 40
25.0
100
AcDbArc
 50
73.73979529168804
 51
106.2602047083119
  0
ARC
  5
31C
330
1F
100
AcDbEntity
  8
1
  6
Continuous
 62
     3
100
AcDbCircle
 10
197.5818388450359
 20
143.490690426503
 30
0.0
 40
25.0
100
AcDbArc
 50
73.73979529168804
 51
106.2602047083119
  0
ARC
  5
31D
330
1F
100
AcDbEntity
  8
LEVEL001
  6
Continuous
 62
     3
100
AcDbCircle
 10
222.581838845011
 20
156.692669274963
 30
0.0
 40
5.0
100
AcDbArc
 50
0.0
 51
80.4999999999993
  0
ARC
  5
31E
330
1F
100
AcDbEntity
  8
LEVEL001
  6
Continuous
 62
     3
100
AcDbCircle
 10
204.2509029225859
 20
154.690690426503
 30
0.0
 40
10.00000000000023
100
AcDbArc
 50
80.49999999998103
 51
89.99999999998225
  0
ARC
  5
31F
330
1F
100
AcDbEntity
  8
LEVEL001
  6
Continuous
 62
     3
100
AcDbCircle
 10
185.0818388450061
 20
158.167008470473
 30
0.0
 40
4.999999999999754
100
AcDbArc
 50
130.0302592717984
 51
180.0
  0
ARC
  5
320
330
1F
100
AcDbEntity
  8
LEVEL001
  6
Continuous
 62
     3
100
AcDbCircle
 10
190.638576160956
 20
154.690690426503
 30
0.0
 40
10.0
100
AcDbArc
 50
90.0
 51
107.6839617881817
  0
ARC
  5
321
330
1F
100
AcDbEntity
  8
LEVEL001
  6
Continuous
 62
     3
100
AcDbCircle
 10
185.0818388450061
 20
158.167008470473
 30
0.0
 40
5.000000000000532
100
AcDbArc
 50
107.6839617881868
 51
130.0302592717984
  0
ARC
  5
322
330
1F
100
AcDbEntity
  8
1
  6
Continuous
 62
     3
100
AcDbCircle
 10
197.5818388450357
 20
155.3397789112146
 30
0.0
 40
3.167044090646225
100
AcDbArc
 50
222.7326728739058
 51
317.2673271260942
  0
ARC
  5
323
330
1F
100
AcDbEntity
  8
LEVEL001
  6
DOTTED
 62
     6
100
AcDbCircle
 10
185.0818388450061
 20
148.1670084704729
 30
0.0
 40
5.000000000000675
100
AcDbArc
 50
107.6839617881876
 51
130.0302592717966
  0
ARC
  5
324
330
1F
100
AcDbEntity
  8
LEVEL001
  6
DOTTED
 62
     6
100
AcDbCircle
 10
190.638576160956
 20
144.690690426503
 30
0.0
 40
9.99999999999973
100
AcDbArc
 50
90.32508261846313
 51
107.6839617881821
  0
ARC
  5
325
330
1F
100
AcDbEntity
  8
LEVEL001
  6
DOTTED
 62
     6
100
AcDbCircle
 10
204.2509029225859
 20
144.690690426503
 30
0.0
 40
10.00000000000024
100
AcDbArc
 50
80.49999999998037
 51
88.10353056354396
  0
ARC
  5
326
330
1F
100
AcDbEntity
  8
LEVEL001
  6
DOTTED
 62
     6
100
AcDbCircle
 10
185.0818388450061
 20
148.1670084704729
 30
0.0
 40
4.999999999999767
100
AcDbArc
 50
130.0302592717966
 51
180.0
  0
ARC
  5
327
330
1F
100
AcDbEntity
  8
LEVEL001
  6
DOTTED
 62
     6
100
AcDbCircle
 10
222.5818388450111
 20
146.6926692749631
 30
0.0
 40
5.0
100
AcDbArc
 50
0.0
 51
80.49999999999946
  0
ARC
  5
328
330
1F
100
AcDbEntity
  8
1
  6
Continuous
 62
     3
100
AcDbCircle
 10
73.58183884503592
 20
249.264422971548
 30
0.0
 40
4.0
100
AcDbArc
 50
90.0
 51
151.04497562814
  0
ARC
  5
329
330
1F
100
AcDbEntity
  8
1
  6
Continuous
 62
     3
100
AcDbCircle
 10
73.58183884503592
 20
244.9101742826125
 30
0.0
 40
3.999999999999894
100
AcDbArc
 50
208.9550243718571
 51
221.4096221092699
  0
ARC
  5
32A
330
1F
100
AcDbEntity
  8
1
  6
Continuous
 62
     3
100
AcDbCircle
 10
89.58183884503586
 20
244.9101742826125
 30
0.0
 40
4.000000000000014
100
AcDbArc
 50
318.5903778907308
 51
331.0449756281419
  0
ARC
  5
32B
330
1F
100
AcDbEntity
  8
1
  6
Continuous
 62
     3
100
AcDbCircle
 10
89.58183884503592
 20
249.264422971548
 30
0.0
 40
4.000000000000004
100
AcDbArc
 50
28.95502437185996
 51
90.0
  0
ARC
  5
32C
330
1F
100
AcDbEntity
  8
100
  6
Continuous
 62
     3
100
AcDbCircle
 10
55.08183884503592
 20
231.3266007980391
 30
0.0
 40
1.000000000000197
100
AcDbArc
 50
25.90395624188248
 51
214.0960437581377
  0
ARC
  5
32D
330
1F
100
AcDbEntity
  8
100
  6
Continuous
 62
     3
100
AcDbCircle
 10
51.58183884503592
 20
225.264422971548
 30
0.0
 40
1.000000000000084
100
AcDbArc
 50
85.90395624182283
 51
274.0960437581772
  0
ARC
  5
32E
330
1F
100
AcDbEntity
  8
1
  6
Continuous
 62
     3
100
AcDbCircle
 10
217.2275901561004
 20
82.4278273002005
 30
0.0
 40
1.5
100
AcDbArc
 50
90.0
 51
180.0
  0
ARC
  5
32F
330
1F
100
AcDbEntity
  8
1
  6
Continuous
 62
     3
100
AcDbCircle
 10
221.5818388450359
 20
82.4278273002005
 30
0.0
 40
1.5
100
AcDbArc
 50
0.0
 51
90.0
  0
ARC
  5
330
330
1F
100
AcDbEntity
  8
1
  6
Continuous
 62
     3
100
AcDbCircle
 10
217.2275901561004
 20
90.67320579362132
 30
0.0
 40
1.5
100
AcDbArc
 50
90.0
 51
180.0
  0
ARC
  5
331
330
1F
100
AcDbEntity
  8
1
  6
Continuous
 62
     3
100
AcDbCircle
 10
217.2275901561004
 20
90.24537849342101
 30
0.0
 40
1.5
100
AcDbArc
 50
180.0
 51
270.0
  0
ARC
  5
332
330
1F
100
AcDbEntity
  8
1
  6
Continuous
 62
     3
100
AcDbCircle
 10
221.5818388450359
 20
90.24537849342101
 30
0.0
 40
1.5
100
AcDbArc
 50
270.0
 51
0.0
  0
ARC
  5
333
330
1F
100
AcDbEntity
  8
1
  6
Continuous
 62
     3
100
AcDbCircle
 10
221.5818388450359
 20
90.67320579362132
 30
0.0
 40
1.5
100
AcDbArc
 50
0.0
 51
90.0
  0
ARC
  5
334
330
1F
100
AcDbEntity
  8
1
  6
Continuous
 62
     3
100
AcDbCircle
 10
221.5818388450359
 20
88.5
 30
0.0
 40
4.0
100
AcDbArc
 50
0.0
 51
90.0
  0
ARC
  5
335
330
1F
100
AcDbEntity
  8
1
  6
Continuous
 62
     3
100
AcDbCircle
 10
221.5818388450359
 20
72.5
 30
0.0
 40
4.0
100
AcDbArc
 50
270.0
 51
0.0
  0
ARC
  5
336
330
1F
100
AcDbEntity
  8
1
  6
Continuous
 62
     3
100
AcDbCircle
 10
217.2275901561004
 20
72.5
 30
0.0
 40
3.99999999999995
100
AcDbArc
 50
228.59037789073
 51
270.0
  0
ARC
  5
337
330
1F
100
AcDbEntity
  8
1
  6
Continuous
 62
     3
100
AcDbCircle
 10
217.2275901561004
 20
88.5
 30
0.0
 40
4.0
100
AcDbArc
 50
90.0
 51
131.40962210927
  0
ARC
  5
338
330
1F
100
AcDbEntity
  8
1
  6
Continuous
 62
     3
100
AcDbCircle
 10
221.5818388450359
 20
70.32679420637871
 30
0.0
 40
1.5
100
AcDbArc
 50
270.0
 51
0.0
  0
ARC
  5
339
330
1F
100
AcDbEntity
  8
1
  6
Continuous
 62
     3
100
AcDbCircle
 10
221.5818388450359
 20
70.75462150657901
 30
0.0
 40
1.5
100
AcDbArc
 50
0.0
 51
90.0
  0
ARC
  5
33A
330
1F
100
AcDbEntity
  8
1
  6
Continuous
 62
     3
100
AcDbCircle
 10
217.2275901561004
 20
70.75462150657901
 30
0.0
 40
1.5
100
AcDbArc
 50
90.0
 51
180.0
  0
ARC
  5
33B
330
1F
100
AcDbEntity
  8
1
  6
Continuous
 62
     3
100
AcDbCircle
 10
217.2275901561004
 20
70.32679420637871
 30
0.0
 40
1.5
100
AcDbArc
 50
180.0
 51
270.0
  0
ARC
  5
33C
330
1F
100
AcDbEntity
  8
1
  6
Continuous
 62
     3
100
AcDbCircle
 10
221.5818388450359
 20
78.5721726997995
 30
0.0
 40
1.5
100
AcDbArc
 50
270.0
 51
0.0
  0
ARC
  5
33D
330
1F
100
AcDbEntity
  8
1
  6
Continuous
 62
     3
100
AcDbCircle
 10
217.2275901561004
 20
78.5721726997995
 30
0.0
 40
1.5
100
AcDbArc
 50
180.0
 51
270.0
  0
ARC
  5
33E
330
1F
100
AcDbEntity
  8
LEVEL001
  6
Continuous
 62
     3
100
AcDbCircle
 10
74.91277476748587
 20
154.690690426503
 30
0.0
 40
9.999999999999886
100
AcDbArc
 50
90.0000000000176
 51
99.50000000001877
  0
ARC
  5
33F
330
1F
100
AcDbEntity
  8
LEVEL001
  6
DOTTED
 62
     6
100
AcDbCircle
 10
74.91277476748587
 20
144.690690426503
 30
0.0
 40
10.00000000000019
100
AcDbArc
 50
91.89646943645587
 51
99.50000000001867
  0
ARC
  5
340
330
1F
100
AcDbEntity
  8
LEVEL001
  6
DOTTED
 62
     6
100
AcDbCircle
 10
88.25090292258596
 20
144.690690426503
 30
0.0
 40
10.00000000000021
100
AcDbArc
 50
80.49999999998134
 51
88.1035305635441
  0
ARC
  5
341
330
1F
100
AcDbEntity
  8
LEVEL001
  6
Continuous
 62
     3
100
AcDbCircle
 10
88.25090292258596
 20
154.690690426503
 30
0.0
 40
10.0000000000001
100
AcDbArc
 50
80.49999999998123
 51
89.9999999999824
  0
ARC
  5
342
330
1F
100
AcDbEntity
  8
100
  6
Continuous
 62
     3
100
AcDbCircle
 10
55.08183884503592
 20
219.2022451450569
 30
0.0
 40
1.000000000000357
100
AcDbArc
 50
145.9039562418623
 51
334.096043758116
  0
ARC
  5
343
330
1F
100
AcDbEntity
  8
100
  6
Continuous
 62
     3
100
AcDbCircle
 10
106.5818388450359
 20
210.764422971548
 30
0.0
 40
2.0
100
AcDbArc
 50
0.0
 51
37.40939447994369
  0
ARC
  5
344
330
1F
100
AcDbEntity
  8
100
  6
Continuous
 62
     3
100
AcDbCircle
 10
46.08183884503592
 20
236.435995846802
 30
0.0
 40
1.5
100
AcDbArc
 50
0.0
 51
70.528779365508
  0
ARC
  5
345
330
1F
100
AcDbEntity
  8
100
  6
Continuous
 62
     3
100
AcDbCircle
 10
47.08183884503592
 20
239.264422971548
 30
0.0
 40
1.5
100
AcDbArc
 50
180.0
 51
250.528779365508
  0
ARC
  5
346
330
1F
100
AcDbEntity
  8
100
  6
Continuous
 62
     3
100
AcDbCircle
 10
43.58183884503592
 20
246.264422971548
 30
0.0
 40
2.0
100
AcDbArc
 50
0.0
 51
90.0
  0
ARC
  5
347
330
1F
100
AcDbEntity
  8
100
  6
Continuous
 62
     3
100
AcDbCircle
 10
43.58183884503592
 20
204.264422971548
 30
0.0
 40
2.0
100
AcDbArc
 50
270.0
 51
0.0
  0
ARC
  5
348
330
1F
100
AcDbEntity
  8
100
  6
Continuous
 62
     3
100
AcDbCircle
 10
46.08183884503592
 20
214.092850096295
 30
0.0
 40
1.500000000000841
100
AcDbArc
 50
289.4712206344793
 51
0.0
  0
ARC
  5
349
330
1F
100
AcDbEntity
  8
100
  6
Continuous
 62
     3
100
AcDbCircle
 10
47.08183884503592
 20
211.264422971548
 30
0.0
 40
1.499999999999931
100
AcDbArc
 50
109.4712206344916
 51
180.0
  0
ARC
  5
34A
330
1F
100
AcDbEntity
  8
2
  6
Continuous
 62
     3
100
AcDbCircle
 10
48.08183884503592
 20
110.5
 30
0.0
 40
2.00000000000002
100
AcDbArc
 50
274.4484757219103
 51
0.0
  0
ARC
  5
34B
330
1F
100
AcDbEntity
  8
2
  6
Continuous
 62
     3
100
AcDbCircle
 10
62.62584501195119
 20
127.071428571429
 30
0.0
 40
1.000000000000083
100
AcDbArc
 50
355.9039562418237
 51
184.0960437581765
  0
ARC
  5
34C
330
1F
100
AcDbEntity
  8
2
  6
Continuous
 62
     3
100
AcDbCircle
 10
81.58183884503592
 20
49.1880798339844
 30
0.0
 40
6.999999999999949
100
AcDbArc
 50
313.300734556387
 51
323.2519651073956
  0
ARC
  5
34D
330
1F
100
AcDbEntity
  8
2
  6
Continuous
 62
     3
100
AcDbCircle
 10
81.58183884503592
 20
49.1880798339844
 30
0.0
 40
7.00000000000002
100
AcDbArc
 50
216.7480348926045
 51
226.699265443613
  0
ARC
  5
34E
330
1F
100
AcDbEntity
  8
2
  6
Continuous
 62
     3
100
AcDbCircle
 10
72.33183884503592
 20
132.994031316147
 30
0.0
 40
4.000000000000231
100
AcDbArc
 50
115.8663567940939
 51
180.0
  0
ARC
  5
34F
330
1F
100
AcDbEntity
  8
2
  6
Continuous
 62
     3
100
AcDbCircle
 10
69.08183884503592
 20
116.0
 30
0.0
 40
1.5
100
AcDbArc
 50
270.0
 51
0.0
  0
ARC
  5
350
330
1F
100
AcDbEntity
  8
2
  6
Continuous
 62
     3
100
AcDbCircle
 10
94.58183884503592
 20
113.5
 30
0.0
 40
2.0
100
AcDbArc
 50
180.0
 51
270.0
  0
ARC
  5
351
330
1F
100
AcDbEntity
  8
2
  6
Continuous
 62
     3
100
AcDbCircle
 10
94.58183884503592
 20
84.5
 30
0.0
 40
2.0
100
AcDbArc
 50
90.0
 51
180.0
  0
ARC
  5
352
330
1F
100
AcDbEntity
  8
2
  6
Continuous
 62
     3
100
AcDbCircle
 10
66.08183884503592
 20
88.0
 30
0.0
 40
1.499999999999947
100
AcDbArc
 50
207.0356917894062
 51
270.0
  0
ARC
  5
353
330
1F
100
AcDbEntity
  8
2
  6
Continuous
 62
     3
100
AcDbCircle
 10
48.33183884503592
 20
109.25
 30
0.0
 40
0.75
100
AcDbArc
 50
180.0
 51
262.7326233270192
  0
ARC
  5
354
330
1F
100
AcDbEntity
  8
2
  6
Continuous
 62
     3
100
AcDbCircle
 10
48.33183884503592
 20
88.75
 30
0.0
 40
0.75
100
AcDbArc
 50
90.0
 51
180.0
  0
ARC
  5
355
330
1F
100
AcDbEntity
  8
2
  6
Continuous
 62
     3
100
AcDbCircle
 10
68.58183884503592
 20
84.5
 30
0.0
 40
2.0
100
AcDbArc
 50
0.0
 51
90.0
  0
ARC
  5
356
330
1F
100
AcDbEntity
  8
2
  6
Continuous
 62
     3
100
AcDbCircle
 10
106.5818388450359
 20
113.5
 30
0.0
 40
2.0
100
AcDbArc
 50
270.0
 51
0.0
  0
ARC
  5
357
330
1F
100
AcDbEntity
  8
2
  6
Continuous
 62
     3
100
AcDbCircle
 10
106.5818388450359
 20
84.5
 30
0.0
 40
2.0
100
AcDbArc
 50
0.0
 51
90.0
  0
ARC
  5
358
330
1F
100
AcDbEntity
  8
2
  6
Continuous
 62
     3
100
AcDbCircle
 10
61.18285935946955
 20
85.5
 30
0.0
 40
4.00000000000006
100
AcDbArc
 50
27.03569178941451
 51
90.0
  0
ARC
  5
359
330
1F
100
AcDbEntity
  8
2
  6
Continuous
 62
     3
100
AcDbCircle
 10
90.83183884503592
 20
129.404737509656
 30
0.0
 40
4.000000000000319
100
AcDbArc
 50
313.4325365577855
 51
0.0
  0
ARC
  5
35A
330
1F
100
AcDbEntity
  8
2
  6
Continuous
 62
     3
100
AcDbCircle
 10
72.33183884503592
 20
129.404737509656
 30
0.0
 40
4.0
100
AcDbArc
 50
180.0
 51
226.5674634422145
  0
ARC
  5
35B
330
1F
100
AcDbEntity
  8
2
  6
Continuous
 62
     3
100
AcDbCircle
 10
87.06846031086701
 20
43.36596811308101
 30
0.0
 40
1.0
100
AcDbArc
 50
133.3007345563898
 51
178.2786931755273
  0
ARC
  5
35C
330
1F
100
AcDbEntity
  8
2
  6
Continuous
 62
     3
100
AcDbCircle
 10
76.09521737920483
 20
43.36596811308101
 30
0.0
 40
0.9999999999999168
100
AcDbArc
 50
1.72130682447266
 51
46.69926544361019
  0
ARC
  5
35D
330
1F
100
AcDbEntity
  8
2
  6
Continuous
 62
     3
100
AcDbCircle
 10
85.09663887916054
 20
27.68807983398438
 30
0.0
 40
0.5
100
AcDbArc
 50
270.0
 51
358.2786931755236
  0
ARC
  5
35E
330
1F
100
AcDbEntity
  8
2
  6
Continuous
 62
     3
100
AcDbCircle
 10
78.0670388109113
 20
27.68807983398438
 30
0.0
 40
0.499999999999931
100
AcDbArc
 50
181.7213068244764
 51
270.0
  0
ARC
  5
35F
330
1F
100
AcDbEntity
  8
2
  6
Continuous
 62
     3
100
AcDbCircle
 10
72.33183884503592
 20
49.0
 30
0.0
 40
4.0
100
AcDbArc
 50
180.0
 51
270.0
  0
ARC
  5
360
330
1F
100
AcDbEntity
  8
2
  6
Continuous
 62
     3
100
AcDbCircle
 10
90.83183884503592
 20
49.0
 30
0.0
 40
4.0
100
AcDbArc
 50
270.0
 51
0.0
  0
ARC
  5
361
330
1F
100
AcDbEntity
  8
2
  6
Continuous
 62
     3
100
AcDbCircle
 10
70.33183884503592
 20
55.6459503782261
 30
0.0
 40
1.999999999999988
100
AcDbArc
 50
112.0243128370423
 51
180.0
  0
ARC
  5
362
330
1F
100
AcDbEntity
  8
2
  6
Continuous
 62
     3
100
AcDbCircle
 10
92.83183884503592
 20
55.6459503782261
 30
0.0
 40
2.0
100
AcDbArc
 50
0.0
 51
67.97568716295771
  0
ARC
  5
363
330
1F
100
AcDbEntity
  8
2
  6
Continuous
 62
     3
100
AcDbCircle
 10
43.58183884503592
 20
120.0
 30
0.0
 40
2.0
100
AcDbArc
 50
0.0
 51
90.0
  0
ARC
  5
364
330
1F
100
AcDbEntity
  8
2
  6
Continuous
 62
     3
100
AcDbCircle
 10
43.58183884503592
 20
78.0
 30
0.0
 40
2.0
100
AcDbArc
 50
270.0
 51
0.0
  0
ARC
  5
365
330
1F
100
AcDbEntity
  8
2
  6
Continuous
 62
     3
100
AcDbCircle
 10
47.08183884503592
 20
85.0
 30
0.0
 40
1.499999999999903
100
AcDbArc
 50
109.471220634492
 51
180.0
  0
ARC
  5
366
330
1F
100
AcDbEntity
  8
2
  6
Continuous
 62
     3
100
AcDbCircle
 10
47.08183884503592
 20
113.0
 30
0.0
 40
1.5
100
AcDbArc
 50
180.0
 51
250.5287793655082
  0
ARC
  5
367
330
1F
100
AcDbEntity
  8
2
  6
Continuous
 62
     3
100
AcDbCircle
 10
46.08183884503592
 20
110.171572875254
 30
0.0
 40
1.5
100
AcDbArc
 50
0.0
 51
70.528779365508
  0
ARC
  5
368
330
1F
100
AcDbEntity
  8
2
  6
Continuous
 62
     3
100
AcDbCircle
 10
46.08183884503592
 20
87.82842712474599
 30
0.0
 40
1.499999999999903
100
AcDbArc
 50
289.471220634492
 51
0.0
  0
ARC
  5
369
330
1F
100
AcDbEntity
  8
2
  6
Continuous
 62
     3
100
AcDbCircle
 10
70.5592218188246
 20
133.325876079419
 30
0.0
 40
2.0
100
AcDbArc
 50
90.0
 51
180.0
  0
ARC
  5
36A
330
1F
100
AcDbEntity
  8
2
  6
Continuous
 62
     3
100
AcDbCircle
 10
70.5592218188246
 20
129.072892746383
 30
0.0
 40
2.0
100
AcDbArc
 50
180.0
 51
270.0
  0
ARC
  5
36B
330
1F
100
AcDbEntity
  8
2
  6
Continuous
 62
     3
100
AcDbCircle
 10
70.95382077663629
 20
129.072892746383
 30
0.0
 40
1.999999999999986
100
AcDbArc
 50
270.0
 51
0.0
  0
ARC
  5
36C
330
1F
100
AcDbEntity
  8
2
  6
Continuous
 62
     3
100
AcDbCircle
 10
70.95382077663629
 20
133.325876079419
 30
0.0
 40
2.0
100
AcDbArc
 50
0.0
 51
90.0
  0
ARC
  5
36D
330
1F
100
AcDbEntity
  8
2
  6
Continuous
 62
     3
100
AcDbCircle
 10
79.18723988722411
 20
133.325876079419
 30
0.0
 40
2.0
100
AcDbArc
 50
90.0
 51
180.0
  0
ARC
  5
36E
330
1F
100
AcDbEntity
  8
2
  6
Continuous
 62
     3
100
AcDbCircle
 10
79.18723988722411
 20
129.072892746383
 30
0.0
 40
2.0
100
AcDbArc
 50
180.0
 51
270.0
  0
ARC
  5
36F
330
1F
100
AcDbEntity
  8
2
  6
Continuous
 62
     3
100
AcDbCircle
 10
92.60445587124735
 20
49.0
 30
0.0
 40
2.0
100
AcDbArc
 50
270.0
 51
0.0
  0
ARC
  5
370
330
1F
100
AcDbEntity
  8
2
  6
Continuous
 62
     3
100
AcDbCircle
 10
92.20985691343554
 20
49.0
 30
0.0
 40
2.0
100
AcDbArc
 50
180.0
 51
270.0
  0
ARC
  5
371
330
1F
100
AcDbEntity
  8
2
  6
Continuous
 62
     3
100
AcDbCircle
 10
92.20985691343554
 20
54.5952624903444
 30
0.0
 40
2.0
100
AcDbArc
 50
90.0
 51
180.0
  0
ARC
  5
372
330
1F
100
AcDbEntity
  8
2
  6
Continuous
 62
     3
100
AcDbCircle
 10
92.60445587124735
 20
54.5952624903444
 30
0.0
 40
2.0
100
AcDbArc
 50
0.0
 51
90.0
  0
ARC
  5
373
330
1F
100
AcDbEntity
  8
2
  6
Continuous
 62
     3
100
AcDbCircle
 10
83.97643780284773
 20
49.0
 30
0.0
 40
2.0
100
AcDbArc
 50
270.0
 51
0.0
  0
ARC
  5
374
330
1F
100
AcDbEntity
  8
2
  6
Continuous
 62
     3
100
AcDbCircle
 10
83.97643780284773
 20
54.5952624903444
 30
0.0
 40
2.0
100
AcDbArc
 50
0.0
 51
90.0
  0
ARC
  5
375
330
1F
100
AcDbEntity
  8
2
  6
Continuous
 62
     3
100
AcDbCircle
 10
92.20985691343554
 20
133.325876079419
 30
0.0
 40
2.0
100
AcDbArc
 50
90.0
 51
180.0
  0
ARC
  5
376
330
1F
100
AcDbEntity
  8
2
  6
Continuous
 62
     3
100
AcDbCircle
 10
92.60445587124735
 20
133.325876079419
 30
0.0
 40
2.0
100
AcDbArc
 50
0.0
 51
90.0
  0
ARC
  5
377
330
1F
100
AcDbEntity
  8
2
  6
Continuous
 62
     3
100
AcDbCircle
 10
92.20985691343554
 20
129.072892746383
 30
0.0
 40
2.0
100
AcDbArc
 50
180.0
 51
270.0
  0
ARC
  5
378
330
1F
100
AcDbEntity
  8
2
  6
Continuous
 62
     3
100
AcDbCircle
 10
92.60445587124735
 20
129.072892746383
 30
0.0
 40
1.999999999999986
100
AcDbArc
 50
270.0
 51
0.0
  0
ARC
  5
379
330
1F
100
AcDbEntity
  8
2
  6
Continuous
 62
     3
100
AcDbCircle
 10
83.97643780284773
 20
133.325876079419
 30
0.0
 40
2.0
100
AcDbArc
 50
0.0
 51
90.0
  0
ARC
  5
37A
330
1F
100
AcDbEntity
  8
2
  6
Continuous
 62
     3
100
AcDbCircle
 10
83.97643780284773
 20
129.072892746383
 30
0.0
 40
1.999999999999986
100
AcDbArc
 50
270.0
 51
0.0
  0
ARC
  5
37B
330
1F
100
AcDbEntity
  8
2
  6
Continuous
 62
     3
100
AcDbCircle
 10
70.95382077663629
 20
49.0
 30
0.0
 40
2.0
100
AcDbArc
 50
270.0
 51
0.0
  0
ARC
  5
37C
330
1F
100
AcDbEntity
  8
2
  6
Continuous
 62
     3
100
AcDbCircle
 10
70.5592218188246
 20
54.5952624903444
 30
0.0
 40
2.0
100
AcDbArc
 50
90.0
 51
180.0
  0
ARC
  5
37D
330
1F
100
AcDbEntity
  8
2
  6
Continuous
 62
     3
100
AcDbCircle
 10
70.95382077663629
 20
54.5952624903444
 30
0.0
 40
2.0
100
AcDbArc
 50
0.0
 51
90.0
  0
ARC
  5
37E
330
1F
100
AcDbEntity
  8
2
  6
Continuous
 62
     3
100
AcDbCircle
 10
70.5592218188246
 20
49.0
 30
0.0
 40
2.0
100
AcDbArc
 50
180.0
 51
270.0
  0
ARC
  5
37F
330
1F
100
AcDbEntity
  8
2
  6
Continuous
 62
     3
100
AcDbCircle
 10
79.18723988722411
 20
54.5952624903444
 30
0.0
 40
2.0
100
AcDbArc
 50
90.0
 51
180.0
  0
ARC
  5
380
330
1F
100
AcDbEntity
  8
2
  6
Continuous
 62
     3
100
AcDbCircle
 10
79.18723988722411
 20
49.0
 30
0.0
 40
2.0
100
AcDbArc
 50
180.0
 51
270.0
  0
ARC
  5
381
330
1F
100
AcDbEntity
  8
2
  6
Continuous
 62
     3
100
AcDbCircle
 10
197.5818388450359
 20
99.5
 30
0.0
 40
23.0
100
AcDbArc
 50
0.0
 51
61.42812185769097
  0
ARC
  5
382
330
1F
100
AcDbEntity
  8
2
  6
Continuous
 62
     3
100
AcDbCircle
 10
197.5818388450359
 20
99.5
 30
0.0
 40
22.99999999999986
100
AcDbArc
 50
118.571878142309
 51
202.360616689194
  0
ARC
  5
383
330
1F
100
AcDbEntity
  8
2
  6
Continuous
 62
     3
100
AcDbCircle
 10
197.5818388450359
 20
99.5
 30
0.0
 40
22.99999999999998
100
AcDbArc
 50
342.2810681265929
 51
0.0
  0
ARC
  5
384
330
1F
100
AcDbEntity
  8
2
  6
Continuous
 62
     3
100
AcDbCircle
 10
184.5818388450359
 20
68.2977486540519
 30
0.0
 40
2.0
100
AcDbArc
 50
0.0
 51
59.99999999999905
  0
ARC
  5
385
330
1F
100
AcDbEntity
  8
2
  6
Continuous
 62
     3
100
AcDbCircle
 10
210.5818388450359
 20
68.2977486540519
 30
0.0
 40
1.999999999999942
100
AcDbArc
 50
120.000000000001
 51
180.0
  0
ARC
  5
386
330
1F
100
AcDbEntity
  8
2
  6
Continuous
 62
     3
100
AcDbCircle
 10
197.5818388450359
 20
49.1880798339844
 30
0.0
 40
6.99999999999991
100
AcDbArc
 50
313.3007345563867
 51
323.2519651073956
  0
ARC
  5
387
330
1F
100
AcDbEntity
  8
2
  6
Continuous
 62
     3
100
AcDbCircle
 10
203.0684603108668
 20
43.36596811308101
 30
0.0
 40
0.999999999999922
100
AcDbArc
 50
133.3007345563851
 51
178.2786931755274
  0
ARC
  5
388
330
1F
100
AcDbEntity
  8
2
  6
Continuous
 62
     3
100
AcDbCircle
 10
206.0818388450359
 20
49.0
 30
0.0
 40
4.0
100
AcDbArc
 50
270.0
 51
0.0
  0
ARC
  5
389
330
1F
100
AcDbEntity
  8
2
  6
Continuous
 62
     3
100
AcDbCircle
 10
208.0818388450359
 20
55.6459503782261
 30
0.0
 40
2.0
100
AcDbArc
 50
0.0
 51
67.97568716295771
  0
ARC
  5
38A
330
1F
100
AcDbEntity
  8
2
  6
Continuous
 62
     3
100
AcDbCircle
 10
197.5818388450359
 20
49.1880798339844
 30
0.0
 40
6.999999999999906
100
AcDbArc
 50
216.7480348926051
 51
226.699265443614
  0
ARC
  5
38B
330
1F
100
AcDbEntity
  8
2
  6
Continuous
 62
     3
100
AcDbCircle
 10
192.095217379205
 20
43.36596811308101
 30
0.0
 40
0.9999999999999453
100
AcDbArc
 50
1.72130682447261
 51
46.69926544361138
  0
ARC
  5
38C
330
1F
100
AcDbEntity
  8
2
  6
Continuous
 62
     3
100
AcDbCircle
 10
194.0670388109108
 20
27.68807983398438
 30
0.0
 40
0.4999999999993628
100
AcDbArc
 50
181.7213068244783
 51
270.0
  0
ARC
  5
38D
330
1F
100
AcDbEntity
  8
2
  6
Continuous
 62
     3
100
AcDbCircle
 10
189.0818388450359
 20
49.0
 30
0.0
 40
4.0
100
AcDbArc
 50
180.0
 51
270.0
  0
ARC
  5
38E
330
1F
100
AcDbEntity
  8
2
  6
Continuous
 62
     3
100
AcDbCircle
 10
201.096638879161
 20
27.68807983398438
 30
0.0
 40
0.5
100
AcDbArc
 50
270.0
 51
358.2786931755217
  0
ARC
  5
38F
330
1F
100
AcDbEntity
  8
2
  6
Continuous
 62
     3
100
AcDbCircle
 10
187.0818388450359
 20
55.6459503782261
 30
0.0
 40
1.999999999999988
100
AcDbArc
 50
112.0243128370423
 51
180.0
  0
ARC
  5
390
330
1F
100
AcDbEntity
  8
2
  6
Continuous
 62
     3
100
AcDbCircle
 10
189.5260045081259
 20
54.5952624903444
 30
0.0
 40
2.0
100
AcDbArc
 50
90.0
 51
180.0
  0
ARC
  5
391
330
1F
100
AcDbEntity
  8
2
  6
Continuous
 62
     3
100
AcDbCircle
 10
193.137673181946
 20
54.5952624903444
 30
0.0
 40
2.0
100
AcDbArc
 50
0.0
 51
90.0
  0
ARC
  5
392
330
1F
100
AcDbEntity
  8
2
  6
Continuous
 62
     3
100
AcDbCircle
 10
193.137673181946
 20
49.0
 30
0.0
 40
2.0
100
AcDbArc
 50
270.0
 51
0.0
  0
ARC
  5
393
330
1F
100
AcDbEntity
  8
2
  6
Continuous
 62
     3
100
AcDbCircle
 10
189.5260045081259
 20
49.0
 30
0.0
 40
2.0
100
AcDbArc
 50
180.0
 51
270.0
  0
ARC
  5
394
330
1F
100
AcDbEntity
  8
2
  6
Continuous
 62
     3
100
AcDbCircle
 10
202.0260045081259
 20
54.5952624903444
 30
0.0
 40
2.0
100
AcDbArc
 50
90.0
 51
180.0
  0
ARC
  5
395
330
1F
100
AcDbEntity
  8
2
  6
Continuous
 62
     3
100
AcDbCircle
 10
202.0260045081259
 20
49.0
 30
0.0
 40
2.0
100
AcDbArc
 50
180.0
 51
270.0
  0
ARC
  5
396
330
1F
100
AcDbEntity
  8
2
  6
Continuous
 62
     3
100
AcDbCircle
 10
205.637673181946
 20
49.0
 30
0.0
 40
2.0
100
AcDbArc
 50
270.0
 51
0.0
  0
ARC
  5
397
330
1F
100
AcDbEntity
  8
2
  6
Continuous
 62
     3
100
AcDbCircle
 10
205.637673181946
 20
54.5952624903444
 30
0.0
 40
2.0
100
AcDbArc
 50
0.0
 51
90.0
  0
ARC
  5
398
330
1F
100
AcDbEntity
  8
2
  6
Continuous
 62
     3
100
AcDbCircle
 10
90.83183884503592
 20
132.994031316147
 30
0.0
 40
4.0
100
AcDbArc
 50
0.0
 51
64.13364320590686
  0
ARC
  5
399
330
1F
100
AcDbEntity
  8
2
  6
Continuous
 62
     3
100
AcDbCircle
 10
206.0818388450359
 20
129.404737509655
 30
0.0
 40
3.999999999999596
100
AcDbArc
 50
313.4325365577952
 51
0.00000000001425
  0
ARC
  5
39A
330
1F
100
AcDbEntity
  8
2
  6
Continuous
 62
     3
100
AcDbCircle
 10
189.0818388450359
 20
129.404737509655
 30
0.0
 40
4.0
100
AcDbArc
 50
180.0
 51
226.5674634422048
  0
ARC
  5
39B
330
1F
100
AcDbEntity
  8
2
  6
Continuous
 62
     3
100
AcDbCircle
 10
189.5260045081259
 20
133.325876079419
 30
0.0
 40
2.0
100
AcDbArc
 50
90.0
 51
180.0
  0
ARC
  5
39C
330
1F
100
AcDbEntity
  8
2
  6
Continuous
 62
     3
100
AcDbCircle
 10
189.5260045081259
 20
129.072892746383
 30
0.0
 40
2.0
100
AcDbArc
 50
180.0
 51
270.0
  0
ARC
  5
39D
330
1F
100
AcDbEntity
  8
2
  6
Continuous
 62
     3
100
AcDbCircle
 10
206.0818388450359
 20
133.357667679784
 30
0.0
 40
4.0
100
AcDbArc
 50
0.0
 51
64.13364320589879
  0
ARC
  5
39E
330
1F
100
AcDbEntity
  8
2
  6
Continuous
 62
     3
100
AcDbCircle
 10
189.0818388450359
 20
133.357667679784
 30
0.0
 40
4.000000000000429
100
AcDbArc
 50
115.8663567940997
 51
180.0
  0
ARC
  5
39F
330
1F
100
AcDbEntity
  8
2
  6
Continuous
 62
     3
100
AcDbCircle
 10
193.137673181946
 20
133.325876079419
 30
0.0
 40
2.0
100
AcDbArc
 50
0.0
 51
90.0
  0
ARC
  5
3A0
330
1F
100
AcDbEntity
  8
2
  6
Continuous
 62
     3
100
AcDbCircle
 10
193.137673181946
 20
129.072892746383
 30
0.0
 40
1.999999999999986
100
AcDbArc
 50
270.0
 51
0.0
  0
ARC
  5
3A1
330
1F
100
AcDbEntity
  8
2
  6
Continuous
 62
     3
100
AcDbCircle
 10
202.0260045081259
 20
133.325876079419
 30
0.0
 40
2.0
100
AcDbArc
 50
90.0
 51
180.0
  0
ARC
  5
3A2
330
1F
100
AcDbEntity
  8
2
  6
Continuous
 62
     3
100
AcDbCircle
 10
202.0260045081259
 20
129.072892746383
 30
0.0
 40
2.0
100
AcDbArc
 50
180.0
 51
270.0
  0
ARC
  5
3A3
330
1F
100
AcDbEntity
  8
2
  6
Continuous
 62
     3
100
AcDbCircle
 10
205.637673181946
 20
129.072892746383
 30
0.0
 40
1.999999999999986
100
AcDbArc
 50
270.0
 51
0.0
  0
ARC
  5
3A4
330
1F
100
AcDbEntity
  8
2
  6
Continuous
 62
     3
100
AcDbCircle
 10
205.637673181946
 20
133.325876079419
 30
0.0
 40
2.0
100
AcDbArc
 50
0.0
 51
90.0
  0
ARC
  5
3A5
330
1F
100
AcDbEntity
  8
2
  6
Continuous
 62
     3
100
AcDbCircle
 10
188.5818388450359
 20
101.0
 30
0.0
 40
1.000000000000023
100
AcDbArc
 50
255.084553469845
 51
270.0
  0
ARC
  5
3A6
330
1F
100
AcDbEntity
  8
2
  6
Continuous
 62
     3
100
AcDbCircle
 10
206.5818388450359
 20
101.0
 30
0.0
 40
1.0
100
AcDbArc
 50
270.0
 51
284.9154465301625
  0
ARC
  5
3A7
330
1F
100
AcDbEntity
  8
2
  6
Continuous
 62
     3
100
AcDbCircle
 10
192.0818388450359
 20
91.73451827187532
 30
0.0
 40
2.0
100
AcDbArc
 50
0.0
 51
70.00000000001133
  0
ARC
  5
3A8
330
1F
100
AcDbEntity
  8
2
  6
Continuous
 62
     3
100
AcDbCircle
 10
203.0818388450359
 20
91.73451827187532
 30
0.0
 40
2.000000000000091
100
AcDbArc
 50
109.9999999999887
 51
180.0
  0
ARC
  5
3A9
102
{ACAD_REACTORS
330
3D1
102
}
330
1F
100
AcDbEntity
  8
2
  6
Continuous
 62
     3
100
AcDbCircle
 10
203.7568388450359
 20
96.86342470336635
 30
0.0
 40
1.074999999999989
100
AcDbArc
 50
0.0
 51
90.0
  0
ARC
  5
3AA
102
{ACAD_REACTORS
330
3D1
102
}
330
1F
100
AcDbEntity
  8
2
  6
Continuous
 62
     3
100
AcDbCircle
 10
203.7568388450359
 20
96.86342470336635
 30
0.0
 40
1.075000000000017
100
AcDbArc
 50
270.0
 51
0.0
  0
ARC
  5
3AB
102
{ACAD_REACTORS
330
3D1
102
}
330
1F
100
AcDbEntity
  8
2
  6
Continuous
 62
     3
100
AcDbCircle
 10
191.406838845036
 20
96.86342470336635
 30
0.0
 40
1.074999999999989
100
AcDbArc
 50
90.0
 51
180.0
  0
ARC
  5
3AC
102
{ACAD_REACTORS
330
3D1
102
}
330
1F
100
AcDbEntity
  8
2
  6
Continuous
 62
     3
100
AcDbCircle
 10
191.406838845036
 20
96.86342470336635
 30
0.0
 40
1.075000000000102
100
AcDbArc
 50
180.0
 51
270.0
  0
ARC
  5
3AD
330
1F
100
AcDbEntity
  8
2
  6
Continuous
 62
     3
100
AcDbCircle
 10
54.54294124329641
 20
127.071428571429
 30
0.0
 40
1.000000000000083
100
AcDbArc
 50
355.9039562418237
 51
184.0960437581766
  0
ARC
  5
3AE
330
1F
100
AcDbEntity
  8
2
  6
Continuous
 62
     3
100
AcDbCircle
 10
51.58183884503592
 20
127.0
 30
0.0
 40
1.0
100
AcDbArc
 50
90.0
 51
180.0
  0
ARC
  5
3AF
330
1F
100
AcDbEntity
  8
2
  6
Continuous
 62
     3
100
AcDbCircle
 10
65.58183884503592
 20
127.0
 30
0.0
 40
1.0
100
AcDbArc
 50
0.0
 51
90.0
  0
ARC
  5
3B0
330
1F
100
AcDbEntity
  8
2
  6
Continuous
 62
     3
100
AcDbCircle
 10
52.58183884503592
 20
132.0
 30
0.0
 40
1.0
100
AcDbArc
 50
90.0
 51
180.0
  0
ARC
  5
3B1
330
1F
100
AcDbEntity
  8
2
  6
Continuous
 62
     3
100
AcDbCircle
 10
64.58183884503592
 20
132.0
 30
0.0
 40
1.0
100
AcDbArc
 50
0.0
 51
90.0
  0
ARC
  5
3B2
330
1F
100
AcDbEntity
  8
2
  6
Continuous
 62
     3
100
AcDbCircle
 10
81.58183884503592
 20
80.5
 30
0.0
 40
7.000000000000004
100
AcDbArc
 50
17.87923384230183
 51
162.1207661576974
  0
ARC
  5
3B3
330
1F
100
AcDbEntity
  8
2
  6
Continuous
 62
     3
100
AcDbCircle
 10
81.58183884503592
 20
80.5
 30
0.0
 40
7.000000000000001
100
AcDbArc
 50
176.051090863581
 51
0.0
  0
ARC
  5
3B4
330
1F
100
AcDbEntity
  8
2
  6
Continuous
 62
     3
100
AcDbCircle
 10
81.58183884503592
 20
80.5
 30
0.0
 40
7.000000000000003
100
AcDbArc
 50
162.1207661576974
 51
176.051090863581
  0
ARC
  5
3B5
330
1F
100
AcDbEntity
  8
2
  6
Continuous
 62
     3
100
AcDbCircle
 10
81.58183884503592
 20
80.5
 30
0.0
 40
6.999999999999996
100
AcDbArc
 50
3.94890913641837
 51
17.87923384230183
  0
ARC
  5
3B6
330
1F
100
AcDbEntity
  8
2
  6
Continuous
 62
     3
100
AcDbCircle
 10
81.58183884503592
 20
80.5
 30
0.0
 40
7.0
100
AcDbArc
 50
0.0
 51
3.94890913641837
  0
CIRCLE
  5
3B7
330
1F
100
AcDbEntity
  8
1
  6
Continuous
 62
     3
100
AcDbCircle
 10
81.58183884503592
 20
225.264422971548
 30
0.0
 40
7.0
  0
CIRCLE
  5
3B8
330
1F
100
AcDbEntity
  8
2
  6
Continuous
 62
     3
100
AcDbCircle
 10
81.58183884503592
 20
80.5
 30
0.0
 40
10.25
  0
CIRCLE
  5
3B9
330
1F
100
AcDbEntity
  8
2
  6
Continuous
 62
     3
100
AcDbCircle
 10
197.5818388450359
 20
99.0
 30
0.0
 40
15.0
  0
CIRCLE
  5
3BA
330
1F
100
AcDbEntity
  8
2
  6
Continuous
 62
     3
100
AcDbCircle
 10
197.5818388450359
 20
99.0
 30
0.0
 40
11.0
  0
CIRCLE
  5
3BB
330
1F
100
AcDbEntity
  8
2
  6
Continuous
 62
     3
100
AcDbCircle
 10
197.5818388450359
 20
99.0
 30
0.0
 40
10.47750000000002
  0
CIRCLE
  5
3BC
330
1F
100
AcDbEntity
  8
2
  6
Continuous
 62
     3
100
AcDbCircle
 10
197.5818388450359
 20
99.0
 30
0.0
 40
9.314926340078102
  0
CIRCLE
  5
3BD
330
1F
100
AcDbEntity
  8
1
  6
Continuous
 62
     3
100
AcDbCircle
 10
81.58183884503592
 20
80.5
 30
0.0
 40
9.315499999999986
  0
ARC
  5
3BE
330
1F
100
AcDbEntity
  8
1
  6
Continuous
 62
     3
100
AcDbCircle
 10
69.33183884503592
 20
236.764422971548
 30
0.0
 40
2.0
100
AcDbArc
 50
270.0
 51
0.0
  0
ARC
  5
3BF
330
1F
100
AcDbEntity
  8
1
  6
Continuous
 62
     3
100
AcDbCircle
 10
93.83183884503592
 20
239.764422971548
 30
0.0
 40
2.0
100
AcDbArc
 50
180.0
 51
270.0
  0
ARC
  5
3C0
330
1F
100
AcDbEntity
  8
1
  6
Continuous
 62
     3
100
AcDbCircle
 10
74.36325332327647
 20
244.9101742826125
 30
0.0
 40
1.5
100
AcDbArc
 50
180.0
 51
270.0
  0
ARC
  5
3C1
330
1F
100
AcDbEntity
  8
1
  6
Continuous
 62
     3
100
AcDbCircle
 10
74.36325332327647
 20
249.264422971548
 30
0.0
 40
1.5
100
AcDbArc
 50
90.0
 51
180.0
  0
ARC
  5
3C2
330
1F
100
AcDbEntity
  8
1
  6
Continuous
 62
     3
100
AcDbCircle
 10
88.80042436679543
 20
244.9101742826125
 30
0.0
 40
1.500000000000044
100
AcDbArc
 50
269.9522610738773
 51
0.0
  0
ARC
  5
3C3
330
1F
100
AcDbEntity
  8
1
  6
Continuous
 62
     3
100
AcDbCircle
 10
88.80042436679543
 20
249.264422971548
 30
0.0
 40
1.5
100
AcDbArc
 50
0.0
 51
90.0
  0
ARC
  5
3C4
330
1F
100
AcDbEntity
  8
1
  6
Continuous
 62
     3
100
AcDbCircle
 10
59.93133884503595
 20
157.253183344077
 30
0.0
 40
4.999999999999962
100
AcDbArc
 50
99.50000000000179
 51
180.0
  0
ARC
  5
3C5
330
1F
100
AcDbEntity
  8
1
  6
DOTTED
 62
     6
100
AcDbCircle
 10
59.93133884503595
 20
147.253183344077
 30
0.0
 40
4.999999999999962
100
AcDbArc
 50
99.50000000000179
 51
180.0
  0
ARC
  5
3C6
330
1F
100
AcDbEntity
  8
1
  6
DOTTED
 62
     6
100
AcDbCircle
 10
103.2323388450359
 20
147.253183344077
 30
0.0
 40
5.0
100
AcDbArc
 50
0.0
 51
80.49999999999855
  0
ARC
  5
3C7
330
1F
100
AcDbEntity
  8
1
  6
Continuous
 62
     3
100
AcDbCircle
 10
103.2323388450359
 20
157.253183344077
 30
0.0
 40
5.0
100
AcDbArc
 50
0.0
 51
80.49999999999855
  0
LINE
  5
3C8
330
1F
100
AcDbEntity
  8
1
 62
     4
100
AcDbLine
 10
111.5818388450359
 20
99.0
 30
0.0
 11
112.7726934067962
 21
102.531621659856
 31
0.0
  0
LINE
  5
3C9
330
1F
100
AcDbEntity
  8
1
 62
     4
100
AcDbLine
 10
111.5818388450359
 20
99.0
 30
0.0
 11
114.3789599776609
 21
101.4630467931105
 31
0.0
  0
LEADER
  5
3CA
330
1F
100
AcDbEntity
  8
1
  6
Continuous
 62
     4
100
AcDbLeader
  3
Standard
 71
     0
 76
     3
 10
111.5818388450359
 20
99.0
 30
0.0
 10
117.5996574734269
 20
108.0458995369708
 30
0.0
 10
136.7292590380779
 20
108.0458995369708
 30
0.0
  0
LINE
  5
3CB
330
1F
100
AcDbEntity
  8
1
 62
     4
100
AcDbLine
 10
36.68247089133899
 20
109.25
 30
0.0
 11
33.70454861831582
 21
111.4910856903434
 31
0.0
  0
LINE
  5
3CC
330
1F
100
AcDbEntity
  8
1
 62
     4
100
AcDbLine
 10
36.68247089133899
 20
109.25
 30
0.0
 11
35.22405739757713
 21
112.6797982764068
 31
0.0
  0
LEADER
  5
3CD
330
1F
100
AcDbEntity
  8
1
  6
Continuous
 62
     4
100
AcDbLeader
  3
Standard
 71
     0
 76
     3
 10
36.68247089133899
 20
109.25
 30
0.0
 10
29.60585851593089
 20
118.2958995369708
 30
0.0
 10
10.86909053088186
 20
118.2958995369708
 30
0.0
  0
LINE
  5
3CE
330
1F
100
AcDbEntity
  8
1
 62
     4
100
AcDbLine
 10
179.289789542603
 20
70.25
 30
0.0
 11
177.8875400495045
 21
66.79685903926087
 31
0.0
  0
LINE
  5
3CF
330
1F
100
AcDbEntity
  8
1
 62
     4
100
AcDbLine
 10
179.289789542603
 20
70.25
 30
0.0
 11
176.3488353787663
 21
67.96061695170054
 31
0.0
  0
LEADER
  5
3D0
330
1F
100
AcDbEntity
  8
1
  6
Continuous
 62
     4
100
AcDbLeader
  3
Standard
 71
     0
 76
     3
 10
179.289789542603
 20
70.25
 30
0.0
 10
169.2738063802428
 20
57.00700512175251
 30
0.0
 10
149.618892919616
 20
57.00700512175251
 30
0.0
  0
HATCH
  5
3D1
330
1F
100
AcDbEntity
  8
1
  6
Continuous
 62
     4
100
AcDbHatch
 10
0.0
 20
0.0
 30
0.0
210
0.0
220
0.0
230
1.0
  2
_USER
 70
     0
 71
     1
 91
        1
 92
        1
 93
        6
 72
     2
 10
191.406838845036
 20
96.86342470336635
 40
1.074999999999989
 50
90.0
 51
180.0
 73
     1
 72
     2
 10
191.406838845036
 20
96.86342470336635
 40
1.075000000000102
 50
180.0
 51
270.0
 73
     1
 72
     1
 10
191.406838845036
 20
95.78842470336633
 11
203.7568388450359
 21
95.78842470336633
 72
     2
 10
203.7568388450359
 20
96.86342470336635
 40
1.075000000000017
 50
270.0
 51
360.0
 73
     1
 72
     2
 10
203.7568388450359
 20
96.86342470336635
 40
1.074999999999989
 50
0.0
 51
90.0
 73
     1
 72
     1
 10
203.7568388450359
 20
97.93842470336634
 11
191.406838845036
 21
97.93842470336634
 97
        6
330
3A9
330
3AA
330
2B3
330
3AC
330
3AB
330
2B2
 75
     1
 76
     0
 52
45.0
 41
1.0
 77
     0
 78
     1
 53
45.0
 43
0.0
 44
0.0
 45
-0.7071067811865475
 46
0.7071067811865476
 79
     0
 98
        1
 10
0.0
 20
0.0
  0
ENDSEC
  0
SECTION
  2
OBJECTS
  0
DICTIONARY
  5
C
330
0
100
AcDbDictionary
281
     1
  3
ACAD_GROUP
350
D
  3
ACAD_LAYOUT
350
1A
  3
ACAD_MATERIAL
350
3B
  3
ACAD_MLEADERSTYLE
350
3D4
  3
ACAD_MLINESTYLE
350
17
  3
ACAD_PLOTSETTINGS
350
19
  3
ACAD_PLOTSTYLENAME
350
E
  3
ACAD_VISUALSTYLE
350
2A
  3
AcDbVariableDictionary
350
3D2
  0
DICTIONARY
  5
D
102
{ACAD_REACTORS
330
C
102
}
330
C
100
AcDbDictionary
281
     1
  0
DICTIONARY
  5
1A
102
{ACAD_REACTORS
330
C
102
}
330
C
100
AcDbDictionary
281
     1
  3
Layout1
350
1E
  3
Layout2
350
26
  3
Model
350
22
  0
DICTIONARY
  5
3B
102
{ACAD_REACTORS
330
C
102
}
330
C
100
AcDbDictionary
281
     1
  3
ByBlock
350
3D
  3
ByLayer
350
3C
  3
Global
350
3E
  0
DICTIONARY
  5
3D4
102
{ACAD_REACTORS
330
C
102
}
330
C
100
AcDbDictionary
281
     1
  0
DICTIONARY
  5
17
102
{ACAD_REACTORS
330
C
102
}
330
C
100
AcDbDictionary
281
     1
  3
Standard
350
18
  0
DICTIONARY
  5
19
102
{ACAD_REACTORS
330
C
102
}
330
C
100
AcDbDictionary
281
     1
  0
ACDBDICTIONARYWDFLT
  5
E
102
{ACAD_REACTORS
330
C
102
}
330
C
100
AcDbDictionary
281
     1
  3
Normal
350
F
100
AcDbDictionaryWithDefault
340
F
  0
DICTIONARY
  5
2A
102
{ACAD_REACTORS
330
C
102
}
330
C
100
AcDbDictionary
281
     1
  3
2dWireframe
350
2F
  3
3D Hidden
350
31
  3
3dWireframe
350
30
  3
Basic
350
32
  3
Brighten
350
36
  3
ColorChange
350
3A
  3
Conceptual
350
34
  3
Dim
350
35
  3
Facepattern
350
39
  3
Flat
350
2B
  3
FlatWithEdges
350
2C
  3
Gouraud
350
2D
  3
GouraudWithEdges
350
2E
  3
Linepattern
350
38
  3
Realistic
350
33
  3
Thicken
350
37
  0
DICTIONARY
  5
3D2
102
{ACAD_REACTORS
330
C
102
}
330
C
100
AcDbDictionary
281
     1
  3
DIMASSOC
350
3D5
  3
HIDETEXT
350
3D6
  0
LAYOUT
  5
1E
102
{ACAD_REACTORS
330
1A
102
}
330
1A
100
AcDbPlotSettings
  1

  2
none_device
  4

  6

 40
0.0
 41
0.0
 42
0.0
 43
0.0
 44
0.0
 45
0.0
 46
0.0
 47
0.0
 48
0.0
 49
0.0
140
0.0
141
0.0
142
1.0
143
1.0
 70
   688
 72
     0
 73
     0
 74
     5
  7

 75
    16
147
1.0
148
0.0
149
0.0
100
AcDbLayout
  1
Layout1
 70
     1
 71
     1
 10
0.0
 20
0.0
 11
12.0
 21
9.0
 12
0.0
 22
0.0
 32
0.0
 14
1.00000000000000E+20
 24
1.00000000000000E+20
 34
1.00000000000000E+20
 15
-1.00000000000000E+20
 25
-1.00000000000000E+20
 35
-1.00000000000000E+20
146
0.0
 13
0.0
 23
0.0
 33
0.0
 16
1.0
 26
0.0
 36
0.0
 17
0.0
 27
1.0
 37
0.0
 76
     0
330
1B
  0
LAYOUT
  5
26
102
{ACAD_REACTORS
330
1A
102
}
330
1A
100
AcDbPlotSettings
  1

  2
none_device
  4

  6

 40
0.0
 41
0.0
 42
0.0
 43
0.0
 44
0.0
 45
0.0
 46
0.0
 47
0.0
 48
0.0
 49
0.0
140
0.0
141
0.0
142
1.0
143
1.0
 70
   688
 72
     0
 73
     0
 74
     5
  7

 75
    16
147
1.0
148
0.0
149
0.0
100
AcDbLayout
  1
Layout2
 70
     1
 71
     2
 10
0.0
 20
0.0
 11
0.0
 21
0.0
 12
0.0
 22
0.0
 32
0.0
 14
0.0
 24
0.0
 34
0.0
 15
0.0
 25
0.0
 35
0.0
146
0.0
 13
0.0
 23
0.0
 33
0.0
 16
1.0
 26
0.0
 36
0.0
 17
0.0
 27
1.0
 37
0.0
 76
     0
330
23
  0
LAYOUT
  5
22
102
{ACAD_REACTORS
330
1A
102
}
330
1A
100
AcDbPlotSettings
  1

  2
none_device
  4

  6

 40
0.0
 41
0.0
 42
0.0
 43
0.0
 44
0.0
 45
0.0
 46
0.0
 47
0.0
 48
0.0
 49
0.0
140
0.0
141
0.0
142
1.0
143
1.0
 70
  1712
 72
     0
 73
     0
 74
     0
  7

 75
     0
147
1.0
148
0.0
149
0.0
100
AcDbLayout
  1
Model
 70
     1
 71
     0
 10
0.0
 20
0.0
 11
12.0
 21
9.0
 12
0.0
 22
0.0
 32
0.0
 14
10.86909053088186
 24
2.52256890013743
 34
0.0
 15
230.0818388450359
 25
259.764422971544
 35
0.0
146
0.0
 13
0.0
 23
0.0
 33
0.0
 16
1.0
 26
0.0
 36
0.0
 17
0.0
 27
1.0
 37
0.0
 76
     0
330
1F
331
29
  0
MATERIAL
  5
3D
102
{ACAD_REACTORS
330
3B
102
}
102
{ACAD_XDICTIONARY
360
3F9
102
}
330
3B
100
AcDbMaterial
  1
ByBlock
  0
MATERIAL
  5
3C
102
{ACAD_REACTORS
330
3B
102
}
102
{ACAD_XDICTIONARY
360
3F7
102
}
330
3B
100
AcDbMaterial
  1
ByLayer
  0
MATERIAL
  5
3E
102
{ACAD_REACTORS
330
3B
102
}
102
{ACAD_XDICTIONARY
360
3FB
102
}
330
3B
100
AcDbMaterial
  1
Global
  0
MLINESTYLE
  5
18
102
{ACAD_REACTORS
330
17
102
}
330
17
100
AcDbMlineStyle
  2
Standard
 70
     0
  3

 62
   256
 51
90.0
 52
90.0
 71
     2
 49
0.5
 62
   256
  6
BYLAYER
 49
-0.5
 62
   256
  6
BYLAYER
  0
ACDBPLACEHOLDER
  5
F
102
{ACAD_REACTORS
330
E
102
}
330
E
  0
VISUALSTYLE
  5
2F
102
{ACAD_REACTORS
330
2A
102
}
102
{ACAD_XDICTIONARY
360
3DF
102
}
330
2A
100
AcDbVisualStyle
  2
2dWireframe
 70
     4
 71
     0
 72
     2
 73
     0
 90
        0
 40
-0.6
 41
-30.0
 62
     5
 63
     7
 74
     1
 91
        4
 64
     7
 65
   257
 75
     1
175
     1
 42
1.0
 92
        0
 66
   257
 43
1.0
 76
     1
 77
     6
 78
     2
 67
     7
 79
     5
170
     0
171
     0
290
     0
174
     0
 93
        1
 44
0.0
173
     0
291
     0
 45
0.0
1001
ACAD
1000
AcDbSavedByObjectVersion
1070
     0
  0
VISUALSTYLE
  5
31
102
{ACAD_REACTORS
330
2A
102
}
102
{ACAD_XDICTIONARY
360
3E3
102
}
330
2A
100
AcDbVisualStyle
  2
3D Hidden
 70
     6
 71
     1
 72
     2
 73
     2
 90
        0
 40
-0.6
 41
-30.0
 62
     5
 63
     7
 74
     2
 91
        2
 64
     7
 65
   257
 75
     2
175
     1
 42
40.0
 92
        0
 66
   257
 43
1.0
 76
     1
 77
     6
 78
     2
 67
     7
 79
     3
170
     0
171
     0
290
     0
174
     0
 93
        1
 44
0.0
173
     0
291
     0
 45
0.0
1001
ACAD
1000
AcDbSavedByObjectVersion
1070
     0
  0
VISUALSTYLE
  5
30
102
{ACAD_REACTORS
330
2A
102
}
102
{ACAD_XDICTIONARY
360
3E1
102
}
330
2A
100
AcDbVisualStyle
  2
3dWireframe
 70
     5
 71
     0
 72
     2
 73
     0
 90
        0
 40
-0.6
 41
-30.0
 62
     5
 63
     7
 74
     1
 91
        4
 64
     7
 65
   257
 75
     1
175
     1
 42
1.0
 92
        0
 66
   257
 43
1.0
 76
     1
 77
     6
 78
     2
 67
     7
 79
     5
170
     0
171
     0
290
     0
174
     0
 93
        1
 44
0.0
173
     0
291
     0
 45
0.0
1001
ACAD
1000
AcDbSavedByObjectVersion
1070
     0
  0
VISUALSTYLE
  5
32
102
{ACAD_REACTORS
330
2A
102
}
102
{ACAD_XDICTIONARY
360
3E5
102
}
330
2A
100
AcDbVisualStyle
  2
Basic
 70
     7
 71
     1
 72
     0
 73
     1
 90
        0
 40
-0.6
 41
-30.0
 62
     5
 63
     7
 74
     0
 91
        4
 64
     7
 65
   257
 75
     1
175
     1
 42
1.0
 92
        8
 66
     7
 43
1.0
 76
     1
 77
     6
 78
     2
 67
     7
 79
     5
170
     0
171
     0
290
     0
174
     0
 93
        1
 44
0.0
173
     0
291
     1
 45
0.0
1001
ACAD
1000
AcDbSavedByObjectVersion
1070
     0
  0
VISUALSTYLE
  5
36
102
{ACAD_REACTORS
330
2A
102
}
102
{ACAD_XDICTIONARY
360
3ED
102
}
330
2A
100
AcDbVisualStyle
  2
Brighten
 70
    12
 71
     2
 72
     2
 73
     0
 90
        0
 40
-0.6
 41
-30.0
 62
     5
 63
     7
 74
     1
 91
        4
 64
     7
 65
   257
 75
     1
175
     1
 42
1.0
 92
        8
 66
     7
 43
1.0
 76
     1
 77
     6
 78
     2
 67
     7
 79
     5
170
     0
171
     0
290
     0
174
     0
 93
        1
 44
50.0
173
     0
291
     1
 45
0.0
1001
ACAD
1000
AcDbSavedByObjectVersion
1070
     0
  0
VISUALSTYLE
  5
3A
102
{ACAD_REACTORS
330
2A
102
}
102
{ACAD_XDICTIONARY
360
3F5
102
}
330
2A
100
AcDbVisualStyle
  2
ColorChange
 70
    16
 71
     2
 72
     2
 73
     3
 90
        0
 40
-0.6
 41
-30.0
 62
     5
 63
     8
 74
     1
 91
        4
 64
     7
 65
   257
 75
     1
175
     1
 42
1.0
 92
        8
 66
     8
 43
1.0
 76
     1
 77
     6
 78
     2
 67
     7
 79
     5
170
     0
171
     0
290
     0
174
     0
 93
        1
 44
0.0
173
     0
291
     1
 45
0.0
1001
ACAD
1000
AcDbSavedByObjectVersion
1070
     0
  0
VISUALSTYLE
  5
34
102
{ACAD_REACTORS
330
2A
102
}
102
{ACAD_XDICTIONARY
360
3E9
102
}
330
2A
100
AcDbVisualStyle
  2
Conceptual
 70
     9
 71
     3
 72
     2
 73
     0
 90
        0
 40
-0.6
 41
-30.0
 62
     5
 63
     7
 74
     2
 91
        2
 64
     7
 65
   257
 75
     1
175
     1
 42
40.0
 92
        8
 66
     7
 43
1.0
 76
     1
 77
     6
 78
     2
 67
     7
 79
     3
170
     0
171
     0
290
     0
174
     0
 93
        1
 44
0.0
173
     0
291
     0
 45
0.0
1001
ACAD
1000
AcDbSavedByObjectVersion
1070
     0
  0
VISUALSTYLE
  5
35
102
{ACAD_REACTORS
330
2A
102
}
102
{ACAD_XDICTIONARY
360
3EB
102
}
330
2A
100
AcDbVisualStyle
  2
Dim
 70
    11
 71
     2
 72
     2
 73
     0
 90
        0
 40
-0.6
 41
-30.0
 62
     5
 63
     7
 74
     1
 91
        4
 64
     7
 65
   257
 75
     1
175
     1
 42
1.0
 92
        8
 66
     7
 43
1.0
 76
     1
 77
     6
 78
     2
 67
     7
 79
     5
170
     0
171
     0
290
     0
174
     0
 93
        1
 44
-50.0
173
     0
291
     1
 45
0.0
1001
ACAD
1000
AcDbSavedByObjectVersion
1070
     0
  0
VISUALSTYLE
  5
39
102
{ACAD_REACTORS
330
2A
102
}
102
{ACAD_XDICTIONARY
360
3F3
102
}
330
2A
100
AcDbVisualStyle
  2
Facepattern
 70
    15
 71
     2
 72
     2
 73
     0
 90
        0
 40
-0.6
 41
-30.0
 62
     5
 63
     7
 74
     1
 91
        4
 64
     7
 65
   257
 75
     1
175
     1
 42
1.0
 92
        8
 66
     7
 43
1.0
 76
     1
 77
     6
 78
     2
 67
     7
 79
     5
170
     0
171
     0
290
     0
174
     0
 93
        1
 44
0.0
173
     0
291
     1
 45
0.0
1001
ACAD
1000
AcDbSavedByObjectVersion
1070
     0
  0
VISUALSTYLE
  5
2B
102
{ACAD_REACTORS
330
2A
102
}
102
{ACAD_XDICTIONARY
360
3D7
102
}
330
2A
100
AcDbVisualStyle
  2
Flat
 70
     0
 71
     2
 72
     1
 73
     1
 90
        2
 40
-0.6
 41
30.0
 62
     5
 63
     7
 74
     0
 91
        4
 64
     7
 65
   257
 75
     1
175
     1
 42
1.0
 92
        8
 66
     7
 43
1.0
 76
     1
 77
     6
 78
     2
 67
     7
 79
     5
170
     0
171
     0
290
     0
174
     0
 93
       13
 44
0.0
173
     0
291
     1
 45
0.0
1001
ACAD
1000
AcDbSavedByObjectVersion
1070
     0
  0
VISUALSTYLE
  5
2C
102
{ACAD_REACTORS
330
2A
102
}
102
{ACAD_XDICTIONARY
360
3D9
102
}
330
2A
100
AcDbVisualStyle
  2
FlatWithEdges
 70
     1
 71
     2
 72
     1
 73
     1
 90
        2
 40
-0.6
 41
30.0
 62
     5
 63
     7
 74
     1
 91
        4
 64
     7
 65
   257
 75
     1
175
     1
 42
1.0
 92
        0
 66
   257
 43
1.0
 76
     1
 77
     6
 78
     2
 67
     7
 79
     5
170
     0
171
     0
290
     0
174
     0
 93
       13
 44
0.0
173
     0
291
     1
 45
0.0
1001
ACAD
1000
AcDbSavedByObjectVersion
1070
     0
  0
VISUALSTYLE
  5
2D
102
{ACAD_REACTORS
330
2A
102
}
102
{ACAD_XDICTIONARY
360
3DB
102
}
330
2A
100
AcDbVisualStyle
  2
Gouraud
 70
     2
 71
     2
 72
     2
 73
     1
 90
        2
 40
-0.6
 41
30.0
 62
     5
 63
     7
 74
     0
 91
        4
 64
     7
 65
   257
 75
     1
175
     1
 42
1.0
 92
        0
 66
     7
 43
1.0
 76
     1
 77
     6
 78
     2
 67
     7
 79
     5
170
     0
171
     0
290
     0
174
     0
 93
       13
 44
0.0
173
     0
291
     1
 45
0.0
1001
ACAD
1000
AcDbSavedByObjectVersion
1070
     0
  0
VISUALSTYLE
  5
2E
102
{ACAD_REACTORS
330
2A
102
}
102
{ACAD_XDICTIONARY
360
3DD
102
}
330
2A
100
AcDbVisualStyle
  2
GouraudWithEdges
 70
     3
 71
     2
 72
     2
 73
     1
 90
        2
 40
-0.6
 41
30.0
 62
     5
 63
     7
 74
     1
 91
        4
 64
     7
 65
   257
 75
     1
175
     1
 42
1.0
 92
        0
 66
   257
 43
1.0
 76
     1
 77
     6
 78
     2
 67
     7
 79
     5
170
     0
171
     0
290
     0
174
     0
 93
       13
 44
0.0
173
     0
291
     1
 45
0.0
1001
ACAD
1000
AcDbSavedByObjectVersion
1070
     0
  0
VISUALSTYLE
  5
38
102
{ACAD_REACTORS
330
2A
102
}
102
{ACAD_XDICTIONARY
360
3F1
102
}
330
2A
100
AcDbVisualStyle
  2
Linepattern
 70
    14
 71
     2
 72
     2
 73
     0
 90
        0
 40
-0.6
 41
-30.0
 62
     5
 63
     7
 74
     1
 91
        4
 64
     7
 65
   257
 75
     7
175
     7
 42
1.0
 92
        8
 66
     7
 43
1.0
 76
     1
 77
     6
 78
     2
 67
     7
 79
     5
170
     0
171
     0
290
     0
174
     0
 93
        1
 44
0.0
173
     0
291
     1
 45
0.0
1001
ACAD
1000
AcDbSavedByObjectVersion
1070
     0
  0
VISUALSTYLE
  5
33
102
{ACAD_REACTORS
330
2A
102
}
102
{ACAD_XDICTIONARY
360
3E7
102
}
330
2A
100
AcDbVisualStyle
  2
Realistic
 70
     8
 71
     2
 72
     2
 73
     0
 90
        0
 40
-0.6
 41
-30.0
 62
     5
 63
     7
 74
     1
 91
        0
 64
     7
 65
   257
 75
     1
175
     1
 42
1.0
 92
        8
 66
     8
 43
1.0
 76
     1
 77
     6
 78
     2
 67
     7
 79
     5
170
     0
171
     0
290
     0
174
     0
 93
       13
 44
0.0
173
     0
291
     0
 45
0.0
1001
ACAD
1000
AcDbSavedByObjectVersion
1070
     0
  0
VISUALSTYLE
  5
37
102
{ACAD_REACTORS
330
2A
102
}
102
{ACAD_XDICTIONARY
360
3EF
102
}
330
2A
100
AcDbVisualStyle
  2
Thicken
 70
    13
 71
     2
 72
     2
 73
     0
 90
        0
 40
-0.6
 41
-30.0
 62
     5
 63
     7
 74
     1
 91
        4
 64
     7
 65
   257
 75
     1
175
     1
 42
1.0
 92
       12
 66
     7
 43
1.0
 76
     1
 77
     6
 78
     2
 67
     7
 79
     5
170
     0
171
     0
290
     0
174
     0
 93
        1
 44
0.0
173
     0
291
     1
 45
0.0
1001
ACAD
1000
AcDbSavedByObjectVersion
1070
     0
  0
DICTIONARYVAR
  5
3D5
102
{ACAD_REACTORS
330
3D2
102
}
330
3D2
100
DictionaryVariables
280
     0
  1
2
  0
DICTIONARYVAR
  5
3D6
102
{ACAD_REACTORS
330
3D2
102
}
330
3D2
100
DictionaryVariables
280
     0
  1
1
  0
DICTIONARY
  5
3F9
330
3D
100
AcDbDictionary
280
     1
281
     1
  3
ACAD_XREC_ROUNDTRIP
360
3FA
  0
DICTIONARY
  5
3F7
330
3C
100
AcDbDictionary
280
     1
281
     1
  3
ACAD_XREC_ROUNDTRIP
360
3F8
  0
DICTIONARY
  5
3FB
330
3E
100
AcDbDictionary
280
     1
281
     1
  3
ACAD_XREC_ROUNDTRIP
360
3FC
  0
DICTIONARY
  5
3DF
330
2F
100
AcDbDictionary
280
     1
281
     1
  3
ACAD_XREC_ROUNDTRIP
360
3E0
  0
DICTIONARY
  5
3E3
330
31
100
AcDbDictionary
280
     1
281
     1
  3
ACAD_XREC_ROUNDTRIP
360
3E4
  0
DICTIONARY
  5
3E1
330
30
100
AcDbDictionary
280
     1
281
     1
  3
ACAD_XREC_ROUNDTRIP
360
3E2
  0
DICTIONARY
  5
3E5
330
32
100
AcDbDictionary
280
     1
281
     1
  3
ACAD_XREC_ROUNDTRIP
360
3E6
  0
DICTIONARY
  5
3ED
330
36
100
AcDbDictionary
280
     1
281
     1
  3
ACAD_XREC_ROUNDTRIP
360
3EE
  0
DICTIONARY
  5
3F5
330
3A
100
AcDbDictionary
280
     1
281
     1
  3
ACAD_XREC_ROUNDTRIP
360
3F6
  0
DICTIONARY
  5
3E9
330
34
100
AcDbDictionary
280
     1
281
     1
  3
ACAD_XREC_ROUNDTRIP
360
3EA
  0
DICTIONARY
  5
3EB
330
35
100
AcDbDictionary
280
     1
281
     1
  3
ACAD_XREC_ROUNDTRIP
360
3EC
  0
DICTIONARY
  5
3F3
330
39
100
AcDbDictionary
280
     1
281
     1
  3
ACAD_XREC_ROUNDTRIP
360
3F4
  0
DICTIONARY
  5
3D7
330
2B
100
AcDbDictionary
280
     1
281
     1
  3
ACAD_XREC_ROUNDTRIP
360
3D8
  0
DICTIONARY
  5
3D9
330
2C
100
AcDbDictionary
280
     1
281
     1
  3
ACAD_XREC_ROUNDTRIP
360
3DA
  0
DICTIONARY
  5
3DB
330
2D
100
AcDbDictionary
280
     1
281
     1
  3
ACAD_XREC_ROUNDTRIP
360
3DC
  0
DICTIONARY
  5
3DD
330
2E
100
AcDbDictionary
280
     1
281
     1
  3
ACAD_XREC_ROUNDTRIP
360
3DE
  0
DICTIONARY
  5
3F1
330
38
100
AcDbDictionary
280
     1
281
     1
  3
ACAD_XREC_ROUNDTRIP
360
3F2
  0
DICTIONARY
  5
3E7
330
33
100
AcDbDictionary
280
     1
281
     1
  3
ACAD_XREC_ROUNDTRIP
360
3E8
  0
DICTIONARY
  5
3EF
330
37
100
AcDbDictionary
280
     1
281
     1
  3
ACAD_XREC_ROUNDTRIP
360
3F0
  0
XRECORD
  5
3FA
102
{ACAD_REACTORS
330
3F9
102
}
330
3F9
100
AcDbXrecord
280
     1
102
MATERIAL
148
0.0
149
0.0
149
0.0
 93
        0
 94
      127
282
     0
 72
     1
 77
     1
171
     1
175
     1
179
     1
273
     0
  0
XRECORD
  5
3F8
102
{ACAD_REACTORS
330
3F7
102
}
330
3F7
100
AcDbXrecord
280
     1
102
MATERIAL
148
0.0
149
0.0
149
0.0
 93
        0
 94
      127
282
     0
 72
     1
 77
     1
171
     1
175
     1
179
     1
273
     0
  0
XRECORD
  5
3FC
102
{ACAD_REACTORS
330
3FB
102
}
330
3FB
100
AcDbXrecord
280
     1
102
MATERIAL
148
0.0
149
0.0
149
0.0
 93
        0
 94
      127
282
     0
 72
     1
 77
     1
171
     1
175
     1
179
     1
273
     0
  0
XRECORD
  5
3E0
102
{ACAD_REACTORS
330
3DF
102
}
330
3DF
100
AcDbXrecord
280
     1
102
RTVSPropertyOp0
 70
     1
102
RTVSPropertyOp1
 70
     1
102
RTVSPropertyOp2
 70
     1
102
RTVSPropertyOp3
 70
     1
102
RTVSPropertyOp4
 70
     1
102
RTVSPropertyOp5
 70
     1
102
RTVSPropertyOp6
 70
     1
102
RTVSPropertyOp7
 70
     1
102
RTVSPropertyOp8
 70
     1
102
RTVSPropertyOp9
 70
     1
102
RTVSPropertyOp10
 70
     1
102
RTVSPropertyOp11
 70
     1
102
RTVSPropertyOp12
 70
     1
102
RTVSPropertyOp13
 70
     1
102
RTVSPropertyOp14
 70
     1
102
RTVSPropertyOp15
 70
     1
102
RTVSPropertyOp16
 70
     1
102
RTVSPropertyOp17
 70
     1
102
RTVSPropertyOp18
 70
     1
102
RTVSPropertyOp19
 70
     1
102
RTVSPropertyOp20
 70
     1
102
RTVSPropertyOp21
 70
     1
102
RTVSPropertyOp22
 70
     1
102
RTVSPropertyOp23
 70
     1
102
RTVSPropertyOp24
 70
     1
102
RTVSPropertyOp25
 70
     1
102
RTVSPropertyOp26
 70
     1
102
RTVSPropertyOp27
 70
     1
  0
XRECORD
  5
3E4
102
{ACAD_REACTORS
330
3E3
102
}
330
3E3
100
AcDbXrecord
280
     1
102
RTVSPropertyOp0
 70
     1
102
RTVSPropertyOp1
 70
     1
102
RTVSPropertyOp2
 70
     1
102
RTVSPropertyOp3
 70
     1
102
RTVSPropertyOp4
 70
     1
102
RTVSPropertyOp5
 70
     1
102
RTVSPropertyOp6
 70
     1
102
RTVSPropertyOp7
 70
     1
102
RTVSPropertyOp8
 70
     1
102
RTVSPropertyOp9
 70
     1
102
RTVSPropertyOp10
 70
     1
102
RTVSPropertyOp11
 70
     1
102
RTVSPropertyOp12
 70
     1
102
RTVSPropertyOp13
 70
     1
102
RTVSPropertyOp14
 70
     1
102
RTVSPropertyOp15
 70
     1
102
RTVSPropertyOp16
 70
     1
102
RTVSPropertyOp17
 70
     1
102
RTVSPropertyOp18
 70
     1
102
RTVSPropertyOp19
 70
     1
102
RTVSPropertyOp20
 70
     1
102
RTVSPropertyOp21
 70
     1
102
RTVSPropertyOp22
 70
     1
102
RTVSPropertyOp23
 70
     1
102
RTVSPropertyOp24
 70
     1
102
RTVSPropertyOp25
 70
     1
102
RTVSPropertyOp26
 70
     1
102
RTVSPropertyOp27
 70
     1
  0
XRECORD
  5
3E2
102
{ACAD_REACTORS
330
3E1
102
}
330
3E1
100
AcDbXrecord
280
     1
102
RTVSPropertyOp0
 70
     1
102
RTVSPropertyOp1
 70
     1
102
RTVSPropertyOp2
 70
     1
102
RTVSPropertyOp3
 70
     1
102
RTVSPropertyOp4
 70
     1
102
RTVSPropertyOp5
 70
     1
102
RTVSPropertyOp6
 70
     1
102
RTVSPropertyOp7
 70
     1
102
RTVSPropertyOp8
 70
     1
102
RTVSPropertyOp9
 70
     1
102
RTVSPropertyOp10
 70
     1
102
RTVSPropertyOp11
 70
     1
102
RTVSPropertyOp12
 70
     1
102
RTVSPropertyOp13
 70
     1
102
RTVSPropertyOp14
 70
     1
102
RTVSPropertyOp15
 70
     1
102
RTVSPropertyOp16
 70
     1
102
RTVSPropertyOp17
 70
     1
102
RTVSPropertyOp18
 70
     1
102
RTVSPropertyOp19
 70
     1
102
RTVSPropertyOp20
 70
     1
102
RTVSPropertyOp21
 70
     1
102
RTVSPropertyOp22
 70
     1
102
RTVSPropertyOp23
 70
     1
102
RTVSPropertyOp24
 70
     1
102
RTVSPropertyOp25
 70
     1
102
RTVSPropertyOp26
 70
     1
102
RTVSPropertyOp27
 70
     1
  0
XRECORD
  5
3E6
102
{ACAD_REACTORS
330
3E5
102
}
330
3E5
100
AcDbXrecord
280
     1
102
RTVSPropertyOp0
 70
     1
102
RTVSPropertyOp1
 70
     1
102
RTVSPropertyOp2
 70
     1
102
RTVSPropertyOp3
 70
     1
102
RTVSPropertyOp4
 70
     1
102
RTVSPropertyOp5
 70
     1
102
RTVSPropertyOp6
 70
     1
102
RTVSPropertyOp7
 70
     1
102
RTVSPropertyOp8
 70
     1
102
RTVSPropertyOp9
 70
     1
102
RTVSPropertyOp10
 70
     1
102
RTVSPropertyOp11
 70
     1
102
RTVSPropertyOp12
 70
     1
102
RTVSPropertyOp13
 70
     1
102
RTVSPropertyOp14
 70
     1
102
RTVSPropertyOp15
 70
     1
102
RTVSPropertyOp16
 70
     1
102
RTVSPropertyOp17
 70
     1
102
RTVSPropertyOp18
 70
     1
102
RTVSPropertyOp19
 70
     1
102
RTVSPropertyOp20
 70
     1
102
RTVSPropertyOp21
 70
     1
102
RTVSPropertyOp22
 70
     1
102
RTVSPropertyOp23
 70
     1
102
RTVSPropertyOp24
 70
     1
102
RTVSPropertyOp25
 70
     1
102
RTVSPropertyOp26
 70
     1
102
RTVSPropertyOp27
 70
     1
  0
XRECORD
  5
3EE
102
{ACAD_REACTORS
330
3ED
102
}
330
3ED
100
AcDbXrecord
280
     1
102
RTVSPropertyOp0
 70
     1
102
RTVSPropertyOp1
 70
     1
102
RTVSPropertyOp2
 70
     1
102
RTVSPropertyOp3
 70
     1
102
RTVSPropertyOp4
 70
     1
102
RTVSPropertyOp5
 70
     1
102
RTVSPropertyOp6
 70
     1
102
RTVSPropertyOp7
 70
     1
102
RTVSPropertyOp8
 70
     1
102
RTVSPropertyOp9
 70
     1
102
RTVSPropertyOp10
 70
     1
102
RTVSPropertyOp11
 70
     1
102
RTVSPropertyOp12
 70
     1
102
RTVSPropertyOp13
 70
     1
102
RTVSPropertyOp14
 70
     1
102
RTVSPropertyOp15
 70
     1
102
RTVSPropertyOp16
 70
     1
102
RTVSPropertyOp17
 70
     1
102
RTVSPropertyOp18
 70
     1
102
RTVSPropertyOp19
 70
     1
102
RTVSPropertyOp20
 70
     1
102
RTVSPropertyOp21
 70
     1
102
RTVSPropertyOp22
 70
     1
102
RTVSPropertyOp23
 70
     1
102
RTVSPropertyOp24
 70
     1
102
RTVSPropertyOp25
 70
     1
102
RTVSPropertyOp26
 70
     1
102
RTVSPropertyOp27
 70
     1
  0
XRECORD
  5
3F6
102
{ACAD_REACTORS
330
3F5
102
}
330
3F5
100
AcDbXrecord
280
     1
102
RTVSPropertyOp0
 70
     1
102
RTVSPropertyOp1
 70
     1
102
RTVSPropertyOp2
 70
     1
102
RTVSPropertyOp3
 70
     1
102
RTVSPropertyOp4
 70
     1
102
RTVSPropertyOp5
 70
     1
102
RTVSPropertyOp6
 70
     1
102
RTVSPropertyOp7
 70
     1
102
RTVSPropertyOp8
 70
     1
102
RTVSPropertyOp9
 70
     1
102
RTVSPropertyOp10
 70
     1
102
RTVSPropertyOp11
 70
     1
102
RTVSPropertyOp12
 70
     1
102
RTVSPropertyOp13
 70
     1
102
RTVSPropertyOp14
 70
     1
102
RTVSPropertyOp15
 70
     1
102
RTVSPropertyOp16
 70
     1
102
RTVSPropertyOp17
 70
     1
102
RTVSPropertyOp18
 70
     1
102
RTVSPropertyOp19
 70
     1
102
RTVSPropertyOp20
 70
     1
102
RTVSPropertyOp21
 70
     1
102
RTVSPropertyOp22
 70
     1
102
RTVSPropertyOp23
 70
     1
102
RTVSPropertyOp24
 70
     1
102
RTVSPropertyOp25
 70
     1
102
RTVSPropertyOp26
 70
     1
102
RTVSPropertyOp27
 70
     1
  0
XRECORD
  5
3EA
102
{ACAD_REACTORS
330
3E9
102
}
330
3E9
100
AcDbXrecord
280
     1
102
RTVSPropertyOp0
 70
     1
102
RTVSPropertyOp1
 70
     1
102
RTVSPropertyOp2
 70
     1
102
RTVSPropertyOp3
 70
     1
102
RTVSPropertyOp4
 70
     1
102
RTVSPropertyOp5
 70
     1
102
RTVSPropertyOp6
 70
     1
102
RTVSPropertyOp7
 70
     1
102
RTVSPropertyOp8
 70
     1
102
RTVSPropertyOp9
 70
     1
102
RTVSPropertyOp10
 70
     1
102
RTVSPropertyOp11
 70
     1
102
RTVSPropertyOp12
 70
     1
102
RTVSPropertyOp13
 70
     1
102
RTVSPropertyOp14
 70
     1
102
RTVSPropertyOp15
 70
     1
102
RTVSPropertyOp16
 70
     1
102
RTVSPropertyOp17
 70
     1
102
RTVSPropertyOp18
 70
     1
102
RTVSPropertyOp19
 70
     1
102
RTVSPropertyOp20
 70
     1
102
RTVSPropertyOp21
 70
     1
102
RTVSPropertyOp22
 70
     1
102
RTVSPropertyOp23
 70
     1
102
RTVSPropertyOp24
 70
     1
102
RTVSPropertyOp25
 70
     1
102
RTVSPropertyOp26
 70
     1
102
RTVSPropertyOp27
 70
     1
  0
XRECORD
  5
3EC
102
{ACAD_REACTORS
330
3EB
102
}
330
3EB
100
AcDbXrecord
280
     1
102
RTVSPropertyOp0
 70
     1
102
RTVSPropertyOp1
 70
     1
102
RTVSPropertyOp2
 70
     1
102
RTVSPropertyOp3
 70
     1
102
RTVSPropertyOp4
 70
     1
102
RTVSPropertyOp5
 70
     1
102
RTVSPropertyOp6
 70
     1
102
RTVSPropertyOp7
 70
     1
102
RTVSPropertyOp8
 70
     1
102
RTVSPropertyOp9
 70
     1
102
RTVSPropertyOp10
 70
     1
102
RTVSPropertyOp11
 70
     1
102
RTVSPropertyOp12
 70
     1
102
RTVSPropertyOp13
 70
     1
102
RTVSPropertyOp14
 70
     1
102
RTVSPropertyOp15
 70
     1
102
RTVSPropertyOp16
 70
     1
102
RTVSPropertyOp17
 70
     1
102
RTVSPropertyOp18
 70
     1
102
RTVSPropertyOp19
 70
     1
102
RTVSPropertyOp20
 70
     1
102
RTVSPropertyOp21
 70
     1
102
RTVSPropertyOp22
 70
     1
102
RTVSPropertyOp23
 70
     1
102
RTVSPropertyOp24
 70
     1
102
RTVSPropertyOp25
 70
     1
102
RTVSPropertyOp26
 70
     1
102
RTVSPropertyOp27
 70
     1
  0
XRECORD
  5
3F4
102
{ACAD_REACTORS
330
3F3
102
}
330
3F3
100
AcDbXrecord
280
     1
102
RTVSPropertyOp0
 70
     1
102
RTVSPropertyOp1
 70
     1
102
RTVSPropertyOp2
 70
     1
102
RTVSPropertyOp3
 70
     1
102
RTVSPropertyOp4
 70
     1
102
RTVSPropertyOp5
 70
     1
102
RTVSPropertyOp6
 70
     1
102
RTVSPropertyOp7
 70
     1
102
RTVSPropertyOp8
 70
     1
102
RTVSPropertyOp9
 70
     1
102
RTVSPropertyOp10
 70
     1
102
RTVSPropertyOp11
 70
     1
102
RTVSPropertyOp12
 70
     1
102
RTVSPropertyOp13
 70
     1
102
RTVSPropertyOp14
 70
     1
102
RTVSPropertyOp15
 70
     1
102
RTVSPropertyOp16
 70
     1
102
RTVSPropertyOp17
 70
     1
102
RTVSPropertyOp18
 70
     1
102
RTVSPropertyOp19
 70
     1
102
RTVSPropertyOp20
 70
     1
102
RTVSPropertyOp21
 70
     1
102
RTVSPropertyOp22
 70
     1
102
RTVSPropertyOp23
 70
     1
102
RTVSPropertyOp24
 70
     1
102
RTVSPropertyOp25
 70
     1
102
RTVSPropertyOp26
 70
     1
102
RTVSPropertyOp27
 70
     1
  0
XRECORD
  5
3D8
102
{ACAD_REACTORS
330
3D7
102
}
330
3D7
100
AcDbXrecord
280
     1
102
RTVSPropertyOp0
 70
     1
102
RTVSPropertyOp1
 70
     1
102
RTVSPropertyOp2
 70
     1
102
RTVSPropertyOp3
 70
     1
102
RTVSPropertyOp4
 70
     1
102
RTVSPropertyOp5
 70
     1
102
RTVSPropertyOp6
 70
     1
102
RTVSPropertyOp7
 70
     1
102
RTVSPropertyOp8
 70
     1
102
RTVSPropertyOp9
 70
     1
102
RTVSPropertyOp10
 70
     1
102
RTVSPropertyOp11
 70
     1
102
RTVSPropertyOp12
 70
     1
102
RTVSPropertyOp13
 70
     1
102
RTVSPropertyOp14
 70
     1
102
RTVSPropertyOp15
 70
     1
102
RTVSPropertyOp16
 70
     1
102
RTVSPropertyOp17
 70
     1
102
RTVSPropertyOp18
 70
     1
102
RTVSPropertyOp19
 70
     1
102
RTVSPropertyOp20
 70
     1
102
RTVSPropertyOp21
 70
     1
102
RTVSPropertyOp22
 70
     1
102
RTVSPropertyOp23
 70
     1
102
RTVSPropertyOp24
 70
     1
102
RTVSPropertyOp25
 70
     1
102
RTVSPropertyOp26
 70
     1
102
RTVSPropertyOp27
 70
     1
  0
XRECORD
  5
3DA
102
{ACAD_REACTORS
330
3D9
102
}
330
3D9
100
AcDbXrecord
280
     1
102
RTVSPropertyOp0
 70
     1
102
RTVSPropertyOp1
 70
     1
102
RTVSPropertyOp2
 70
     1
102
RTVSPropertyOp3
 70
     1
102
RTVSPropertyOp4
 70
     1
102
RTVSPropertyOp5
 70
     1
102
RTVSPropertyOp6
 70
     1
102
RTVSPropertyOp7
 70
     1
102
RTVSPropertyOp8
 70
     1
102
RTVSPropertyOp9
 70
     1
102
RTVSPropertyOp10
 70
     1
102
RTVSPropertyOp11
 70
     1
102
RTVSPropertyOp12
 70
     1
102
RTVSPropertyOp13
 70
     1
102
RTVSPropertyOp14
 70
     1
102
RTVSPropertyOp15
 70
     1
102
RTVSPropertyOp16
 70
     1
102
RTVSPropertyOp17
 70
     1
102
RTVSPropertyOp18
 70
     1
102
RTVSPropertyOp19
 70
     1
102
RTVSPropertyOp20
 70
     1
102
RTVSPropertyOp21
 70
     1
102
RTVSPropertyOp22
 70
     1
102
RTVSPropertyOp23
 70
     1
102
RTVSPropertyOp24
 70
     1
102
RTVSPropertyOp25
 70
     1
102
RTVSPropertyOp26
 70
     1
102
RTVSPropertyOp27
 70
     1
  0
XRECORD
  5
3DC
102
{ACAD_REACTORS
330
3DB
102
}
330
3DB
100
AcDbXrecord
280
     1
102
RTVSPropertyOp0
 70
     1
102
RTVSPropertyOp1
 70
     1
102
RTVSPropertyOp2
 70
     1
102
RTVSPropertyOp3
 70
     1
102
RTVSPropertyOp4
 70
     1
102
RTVSPropertyOp5
 70
     1
102
RTVSPropertyOp6
 70
     1
102
RTVSPropertyOp7
 70
     1
102
RTVSPropertyOp8
 70
     1
102
RTVSPropertyOp9
 70
     1
102
RTVSPropertyOp10
 70
     1
102
RTVSPropertyOp11
 70
     1
102
RTVSPropertyOp12
 70
     1
102
RTVSPropertyOp13
 70
     1
102
RTVSPropertyOp14
 70
     1
102
RTVSPropertyOp15
 70
     1
102
RTVSPropertyOp16
 70
     1
102
RTVSPropertyOp17
 70
     1
102
RTVSPropertyOp18
 70
     1
102
RTVSPropertyOp19
 70
     1
102
RTVSPropertyOp20
 70
     1
102
RTVSPropertyOp21
 70
     1
102
RTVSPropertyOp22
 70
     1
102
RTVSPropertyOp23
 70
     1
102
RTVSPropertyOp24
 70
     1
102
RTVSPropertyOp25
 70
     1
102
RTVSPropertyOp26
 70
     1
102
RTVSPropertyOp27
 70
     1
  0
XRECORD
  5
3DE
102
{ACAD_REACTORS
330
3DD
102
}
330
3DD
100
AcDbXrecord
280
     1
102
RTVSPropertyOp0
 70
     1
102
RTVSPropertyOp1
 70
     1
102
RTVSPropertyOp2
 70
     1
102
RTVSPropertyOp3
 70
     1
102
RTVSPropertyOp4
 70
     1
102
RTVSPropertyOp5
 70
     1
102
RTVSPropertyOp6
 70
     1
102
RTVSPropertyOp7
 70
     1
102
RTVSPropertyOp8
 70
     1
102
RTVSPropertyOp9
 70
     1
102
RTVSPropertyOp10
 70
     1
102
RTVSPropertyOp11
 70
     1
102
RTVSPropertyOp12
 70
     1
102
RTVSPropertyOp13
 70
     1
102
RTVSPropertyOp14
 70
     1
102
RTVSPropertyOp15
 70
     1
102
RTVSPropertyOp16
 70
     1
102
RTVSPropertyOp17
 70
     1
102
RTVSPropertyOp18
 70
     1
102
RTVSPropertyOp19
 70
     1
102
RTVSPropertyOp20
 70
     1
102
RTVSPropertyOp21
 70
     1
102
RTVSPropertyOp22
 70
     1
102
RTVSPropertyOp23
 70
     1
102
RTVSPropertyOp24
 70
     1
102
RTVSPropertyOp25
 70
     1
102
RTVSPropertyOp26
 70
     1
102
RTVSPropertyOp27
 70
     1
  0
XRECORD
  5
3F2
102
{ACAD_REACTORS
330
3F1
102
}
330
3F1
100
AcDbXrecord
280
     1
102
RTVSPropertyOp0
 70
     1
102
RTVSPropertyOp1
 70
     1
102
RTVSPropertyOp2
 70
     1
102
RTVSPropertyOp3
 70
     1
102
RTVSPropertyOp4
 70
     1
102
RTVSPropertyOp5
 70
     1
102
RTVSPropertyOp6
 70
     1
102
RTVSPropertyOp7
 70
     1
102
RTVSPropertyOp8
 70
     1
102
RTVSPropertyOp9
 70
     1
102
RTVSPropertyOp10
 70
     1
102
RTVSPropertyOp11
 70
     1
102
RTVSPropertyOp12
 70
     1
102
RTVSPropertyOp13
 70
     1
102
RTVSPropertyOp14
 70
     1
102
RTVSPropertyOp15
 70
     1
102
RTVSPropertyOp16
 70
     1
102
RTVSPropertyOp17
 70
     1
102
RTVSPropertyOp18
 70
     1
102
RTVSPropertyOp19
 70
     1
102
RTVSPropertyOp20
 70
     1
102
RTVSPropertyOp21
 70
     1
102
RTVSPropertyOp22
 70
     1
102
RTVSPropertyOp23
 70
     1
102
RTVSPropertyOp24
 70
     1
102
RTVSPropertyOp25
 70
     1
102
RTVSPropertyOp26
 70
     1
102
RTVSPropertyOp27
 70
     1
  0
XRECORD
  5
3E8
102
{ACAD_REACTORS
330
3E7
102
}
330
3E7
100
AcDbXrecord
280
     1
102
RTVSPropertyOp0
 70
     1
102
RTVSPropertyOp1
 70
     1
102
RTVSPropertyOp2
 70
     1
102
RTVSPropertyOp3
 70
     1
102
RTVSPropertyOp4
 70
     1
102
RTVSPropertyOp5
 70
     1
102
RTVSPropertyOp6
 70
     1
102
RTVSPropertyOp7
 70
     1
102
RTVSPropertyOp8
 70
     1
102
RTVSPropertyOp9
 70
     1
102
RTVSPropertyOp10
 70
     1
102
RTVSPropertyOp11
 70
     1
102
RTVSPropertyOp12
 70
     1
102
RTVSPropertyOp13
 70
     1
102
RTVSPropertyOp14
 70
     1
102
RTVSPropertyOp15
 70
     1
102
RTVSPropertyOp16
 70
     1
102
RTVSPropertyOp17
 70
     1
102
RTVSPropertyOp18
 70
     1
102
RTVSPropertyOp19
 70
     1
102
RTVSPropertyOp20
 70
     1
102
RTVSPropertyOp21
 70
     1
102
RTVSPropertyOp22
 70
     1
102
RTVSPropertyOp23
 70
     1
102
RTVSPropertyOp24
 70
     1
102
RTVSPropertyOp25
 70
     1
102
RTVSPropertyOp26
 70
     1
102
RTVSPropertyOp27
 70
     1
  0
XRECORD
  5
3F0
102
{ACAD_REACTORS
330
3EF
102
}
330
3EF
100
AcDbXrecord
280
     1
102
RTVSPropertyOp0
 70
     1
102
RTVSPropertyOp1
 70
     1
102
RTVSPropertyOp2
 70
     1
102
RTVSPropertyOp3
 70
     1
102
RTVSPropertyOp4
 70
     1
102
RTVSPropertyOp5
 70
     1
102
RTVSPropertyOp6
 70
     1
102
RTVSPropertyOp7
 70
     1
102
RTVSPropertyOp8
 70
     1
102
RTVSPropertyOp9
 70
     1
102
RTVSPropertyOp10
 70
     1
102
RTVSPropertyOp11
 70
     1
102
RTVSPropertyOp12
 70
     1
102
RTVSPropertyOp13
 70
     1
102
RTVSPropertyOp14
 70
     1
102
RTVSPropertyOp15
 70
     1
102
RTVSPropertyOp16
 70
     1
102
RTVSPropertyOp17
 70
     1
102
RTVSPropertyOp18
 70
     1
102
RTVSPropertyOp19
 70
     1
102
RTVSPropertyOp20
 70
     1
102
RTVSPropertyOp21
 70
     1
102
RTVSPropertyOp22
 70
     1
102
RTVSPropertyOp23
 70
     1
102
RTVSPropertyOp24
 70
     1
102
RTVSPropertyOp25
 70
     1
102
RTVSPropertyOp26
 70
     1
102
RTVSPropertyOp27
 70
     1
  0
ENDSEC
  0
EOF
