  0
SECTION
  2
HEADER
  9
$ACADVER
  1
AC1015
  9
$ACADMAINTVER
 70
     6
  9
$DWGCODEPAGE
  3
ANSI_932
  9
$INSBASE
 10
0.0
 20
0.0
 30
0.0
  9
$EXTMIN
 10
-78.2751432759279
 20
-98.0
 30
0.0
  9
$EXTMAX
 10
170.9999873064533
 20
244.0
 30
0.0
  9
$LIMMIN
 10
0.0
 20
0.0
  9
$LIMMAX
 10
12.0
 20
9.0
  9
$ORTHOMODE
 70
     0
  9
$REGENMODE
 70
     1
  9
$FILLMODE
 70
     1
  9
$QTEXTMODE
 70
     0
  9
$MIRRTEXT
 70
     1
  9
$LTSCALE
 40
1.0
  9
$ATTMODE
 70
     1
  9
$TEXTSIZE
 40
0.2
  9
$TRACEWID
 40
0.05
  9
$TEXTSTYLE
  7
Standard
  9
$CLAYER
  8
0
  9
$CELTYPE
  6
ByLayer
  9
$CECOLOR
 62
   256
  9
$CELTSCALE
 40
1.0
  9
$DISPSILH
 70
     0
  9
$DIMSCALE
 40
1.0
  9
$DIMASZ
 40
0.18
  9
$DIMEXO
 40
0.0625
  9
$DIMDLI
 40
0.38
  9
$DIMRND
 40
0.0
  9
$DIMDLE
 40
0.0
  9
$DIMEXE
 40
0.18
  9
$DIMTP
 40
0.0
  9
$DIMTM
 40
0.0
  9
$DIMTXT
 40
0.18
  9
$DIMCEN
 40
0.09
  9
$DIMTSZ
 40
0.0
  9
$DIMTOL
 70
     0
  9
$DIMLIM
 70
     0
  9
$DIMTIH
 70
     1
  9
$DIMTOH
 70
     1
  9
$DIMSE1
 70
     0
  9
$DIMSE2
 70
     0
  9
$DIMTAD
 70
     0
  9
$DIMZIN
 70
     0
  9
$DIMBLK
  1

  9
$DIMASO
 70
     1
  9
$DIMSHO
 70
     1
  9
$DIMPOST
  1

  9
$DIMAPOST
  1

  9
$DIMALT
 70
     0
  9
$DIMALTD
 70
     2
  9
$DIMALTF
 40
25.4
  9
$DIMLFAC
 40
1.0
  9
$DIMTOFL
 70
     0
  9
$DIMTVP
 40
0.0
  9
$DIMTIX
 70
     0
  9
$DIMSOXD
 70
     0
  9
$DIMSAH
 70
     0
  9
$DIMBLK1
  1

  9
$DIMBLK2
  1

  9
$DIMSTYLE
  2
Standard
  9
$DIMCLRD
 70
     0
  9
$DIMCLRE
 70
     0
  9
$DIMCLRT
 70
     0
  9
$DIMTFAC
 40
1.0
  9
$DIMGAP
 40
0.09
  9
$DIMJUST
 70
     0
  9
$DIMSD1
 70
     0
  9
$DIMSD2
 70
     0
  9
$DIMTOLJ
 70
     1
  9
$DIMTZIN
 70
     0
  9
$DIMALTZ
 70
     0
  9
$DIMALTTZ
 70
     0
  9
$DIMUPT
 70
     0
  9
$DIMDEC
 70
     4
  9
$DIMTDEC
 70
     4
  9
$DIMALTU
 70
     2
  9
$DIMALTTD
 70
     2
  9
$DIMTXSTY
  7
Standard
  9
$DIMAUNIT
 70
     0
  9
$DIMADEC
 70
     0
  9
$DIMALTRND
 40
0.0
  9
$DIMAZIN
 70
     0
  9
$DIMDSEP
 70
    46
  9
$DIMATFIT
 70
     3
  9
$DIMFRAC
 70
     0
  9
$DIMLDRBLK
  1

  9
$DIMLUNIT
 70
     2
  9
$DIMLWD
 70
    -2
  9
$DIMLWE
 70
    -2
  9
$DIMTMOVE
 70
     0
  9
$LUNITS
 70
     2
  9
$LUPREC
 70
     4
  9
$SKETCHINC
 40
0.1
  9
$FILLETRAD
 40
0.5
  9
$AUNITS
 70
     0
  9
$AUPREC
 70
     0
  9
$MENU
  1
.
  9
$ELEVATION
 40
0.0
  9
$PELEVATION
 40
0.0
  9
$THICKNESS
 40
0.0
  9
$LIMCHECK
 70
     0
  9
$CHAMFERA
 40
0.5
  9
$CHAMFERB
 40
0.5
  9
$CHAMFERC
 40
1.0
  9
$CHAMFERD
 40
0.0
  9
$SKPOLY
 70
     0
  9
$TDCREATE
 40
2458519.671869641
  9
$TDUCREATE
 40
2458519.296869641
  9
$TDUPDATE
 40
2458519.671869653
  9
$TDUUPDATE
 40
2458519.296869653
  9
$TDINDWG
 40
0.0000000116
  9
$TDUSRTIMER
 40
0.0000000116
  9
$USRTIMER
 70
     1
  9
$ANGBASE
 50
0.0
  9
$ANGDIR
 70
     0
  9
$PDMODE
 70
     0
  9
$PDSIZE
 40
0.0
  9
$PLINEWID
 40
0.0
  9
$SPLFRAME
 70
     0
  9
$SPLINETYPE
 70
     6
  9
$SPLINESEGS
 70
     8
  9
$HANDSEED
  5
3CA
  9
$SURFTAB1
 70
     6
  9
$SURFTAB2
 70
     6
  9
$SURFTYPE
 70
     6
  9
$SURFU
 70
     6
  9
$SURFV
 70
     6
  9
$UCSBASE
  2

  9
$UCSNAME
  2

  9
$UCSORG
 10
0.0
 20
0.0
 30
0.0
  9
$UCSXDIR
 10
1.0
 20
0.0
 30
0.0
  9
$UCSYDIR
 10
0.0
 20
1.0
 30
0.0
  9
$UCSORTHOREF
  2

  9
$UCSORTHOVIEW
 70
     0
  9
$UCSORGTOP
 10
0.0
 20
0.0
 30
0.0
  9
$UCSORGBOTTOM
 10
0.0
 20
0.0
 30
0.0
  9
$UCSORGLEFT
 10
0.0
 20
0.0
 30
0.0
  9
$UCSORGRIGHT
 10
0.0
 20
0.0
 30
0.0
  9
$UCSORGFRONT
 10
0.0
 20
0.0
 30
0.0
  9
$UCSORGBACK
 10
0.0
 20
0.0
 30
0.0
  9
$PUCSBASE
  2

  9
$PUCSNAME
  2

  9
$PUCSORG
 10
0.0
 20
0.0
 30
0.0
  9
$PUCSXDIR
 10
1.0
 20
0.0
 30
0.0
  9
$PUCSYDIR
 10
0.0
 20
1.0
 30
0.0
  9
$PUCSORTHOREF
  2

  9
$PUCSORTHOVIEW
 70
     0
  9
$PUCSORGTOP
 10
0.0
 20
0.0
 30
0.0
  9
$PUCSORGBOTTOM
 10
0.0
 20
0.0
 30
0.0
  9
$PUCSORGLEFT
 10
0.0
 20
0.0
 30
0.0
  9
$PUCSORGRIGHT
 10
0.0
 20
0.0
 30
0.0
  9
$PUCSORGFRONT
 10
0.0
 20
0.0
 30
0.0
  9
$PUCSORGBACK
 10
0.0
 20
0.0
 30
0.0
  9
$USERI1
 70
     0
  9
$USERI2
 70
     0
  9
$USERI3
 70
     0
  9
$USERI4
 70
     0
  9
$USERI5
 70
     0
  9
$USERR1
 40
18.0
  9
$USERR2
 40
0.0
  9
$USERR3
 40
0.0
  9
$USERR4
 40
0.0
  9
$USERR5
 40
0.0
  9
$WORLDVIEW
 70
     1
  9
$SHADEDGE
 70
     3
  9
$SHADEDIF
 70
    70
  9
$TILEMODE
 70
     1
  9
$MAXACTVP
 70
    64
  9
$PINSBASE
 10
0.0
 20
0.0
 30
0.0
  9
$PLIMCHECK
 70
     0
  9
$PEXTMIN
 10
1.00000000000000E+20
 20
1.00000000000000E+20
 30
1.00000000000000E+20
  9
$PEXTMAX
 10
-1.00000000000000E+20
 20
-1.00000000000000E+20
 30
-1.00000000000000E+20
  9
$PLIMMIN
 10
0.0
 20
0.0
  9
$PLIMMAX
 10
12.0
 20
9.0
  9
$UNITMODE
 70
     0
  9
$VISRETAIN
 70
     1
  9
$PLINEGEN
 70
     0
  9
$PSLTSCALE
 70
     1
  9
$TREEDEPTH
 70
  3020
  9
$CMLSTYLE
  2
Standard
  9
$CMLJUST
 70
     0
  9
$CMLSCALE
 40
1.0
  9
$PROXYGRAPHICS
 70
     1
  9
$MEASUREMENT
 70
     1
  9
$CELWEIGHT
370
    -1
  9
$ENDCAPS
280
     0
  9
$JOINSTYLE
280
     0
  9
$LWDISPLAY
290
     0
  9
$INSUNITS
 70
     1
  9
$HYPERLINKBASE
  1

  9
$STYLESHEET
  1

  9
$XEDIT
290
     1
  9
$CEPSNTYPE
380
     0
  9
$PSTYLEMODE
290
     1
  9
$FINGERPRINTGUID
  2
{B6115AB1-4466-494C-9BEE-2FF479ABCB73}
  9
$VERSIONGUID
  2
{FAEB1C32-E019-11D5-929B-00C0DF256EC4}
  9
$EXTNAMES
290
     1
  9
$PSVPSCALE
 40
0.0
  9
$OLESTARTUP
290
     0
  0
ENDSEC
  0
SECTION
  2
CLASSES
  0
CLASS
  1
ACDBDICTIONARYWDFLT
  2
AcDbDictionaryWithDefault
  3
ObjectDBX Classes
 90
        0
280
     0
281
     0
  0
CLASS
  1
VISUALSTYLE
  2
AcDbVisualStyle
  3
ObjectDBX Classes
 90
     4095
280
     0
281
     0
  0
CLASS
  1
MATERIAL
  2
AcDbMaterial
  3
ObjectDBX Classes
 90
     1153
280
     0
281
     0
  0
CLASS
  1

  2
exOdDbCircle
  3

 90
        0
280
     0
281
     1
  0
CLASS
  1

  2
exOdDbSpline
  3

 90
        0
280
     0
281
     1
  0
CLASS
  1

  2
exOdDbPolyline
  3

 90
        0
280
     0
281
     1
  0
CLASS
  1
DICTIONARYVAR
  2
AcDbDictionaryVar
  3
ObjectDBX Classes
 90
        0
280
     0
281
     0
  0
CLASS
  1
ACDBPLACEHOLDER
  2
AcDbPlaceHolder
  3
ObjectDBX Classes
 90
        0
280
     0
281
     0
  0
CLASS
  1
LAYOUT
  2
AcDbLayout
  3
ObjectDBX Classes
 90
        0
280
     0
281
     0
  0
ENDSEC
  0
SECTION
  2
TABLES
  0
TABLE
  2
VPORT
  5
8
330
0
100
AcDbSymbolTable
 70
     1
  0
VPORT
  5
29
330
8
100
AcDbSymbolTableRecord
100
AcDbViewportTableRecord
  2
*Active
 70
     0
 10
0.0
 20
0.0
 11
1.0
 21
1.0
 12
46.3624220152627
 22
73.0
 13
0.0
 23
0.0
 14
0.5
 24
0.5
 15
0.5
 25
0.5
 16
0.0
 26
0.0
 36
1.0
 17
0.0
 27
0.0
 37
0.0
 40
376.2
 41
1.60267857142857
 42
50.0
 43
0.0
 44
0.0
 50
0.0
 51
0.0
 71
     0
 72
   100
 73
     1
 74
     3
 75
     0
 76
     0
 77
     0
 78
     0
281
     0
 65
     1
110
0.0
120
0.0
130
0.0
111
1.0
121
0.0
131
0.0
112
0.0
122
1.0
132
0.0
 79
     0
146
0.0
  0
ENDTAB
  0
TABLE
  2
LTYPE
  5
5
330
0
100
AcDbSymbolTable
 70
     9
  0
LTYPE
  5
14
330
5
100
AcDbSymbolTableRecord
100
AcDbLinetypeTableRecord
  2
ByBlock
 70
     0
  3

 72
    65
 73
     0
 40
0.0
  0
LTYPE
  5
15
330
5
100
AcDbSymbolTableRecord
100
AcDbLinetypeTableRecord
  2
ByLayer
 70
     0
  3

 72
    65
 73
     0
 40
0.0
  0
LTYPE
  5
16
330
5
100
AcDbSymbolTableRecord
100
AcDbLinetypeTableRecord
  2
Continuous
 70
     0
  3
Solid line
 72
    65
 73
     0
 40
0.0
  0
LTYPE
  5
3F
330
5
100
AcDbSymbolTableRecord
100
AcDbLinetypeTableRecord
  2
DASHED
 70
     0
  3
Dashed
 72
    65
 73
     2
 40
15.0
 49
7.0
 74
     0
 49
-8.0
 74
     0
  0
LTYPE
  5
40
330
5
100
AcDbSymbolTableRecord
100
AcDbLinetypeTableRecord
  2
DOTTED
 70
     0
  3
Dotted
 72
    65
 73
     2
 40
1.0
 49
0.0
 74
     0
 49
-1.0
 74
     0
  0
LTYPE
  5
41
330
5
100
AcDbSymbolTableRecord
100
AcDbLinetypeTableRecord
  2
DOT_CENTER
 70
     0
  3
Dot_Center
 72
    65
 73
     4
 40
14.0
 49
12.0
 74
     0
 49
-1.0
 74
     0
 49
0.0
 74
     0
 49
-1.0
 74
     0
  0
LTYPE
  5
42
330
5
100
AcDbSymbolTableRecord
100
AcDbLinetypeTableRecord
  2
LONG_DASHED
 70
     0
  3
Long_Dashed
 72
    65
 73
     2
 40
15.0
 49
10.0
 74
     0
 49
-5.0
 74
     0
  0
LTYPE
  5
43
330
5
100
AcDbSymbolTableRecord
100
AcDbLinetypeTableRecord
  2
DASH_CENTER
 70
     0
  3
Dash_Center
 72
    65
 73
     4
 40
14.0
 49
11.0
 74
     0
 49
-1.0
 74
     0
 49
1.0
 74
     0
 49
-1.0
 74
     0
  0
LTYPE
  5
44
330
5
100
AcDbSymbolTableRecord
100
AcDbLinetypeTableRecord
  2
PHANTOM
 70
     0
  3
Phantom
 72
    65
 73
     6
 40
13.0
 49
10.0
 74
     0
 49
-1.0
 74
     0
 49
0.0
 74
     0
 49
-1.0
 74
     0
 49
0.0
 74
     0
 49
-1.0
 74
     0
  0
LTYPE
  5
45
330
5
100
AcDbSymbolTableRecord
100
AcDbLinetypeTableRecord
  2
CENTER_DASH_DASH
 70
     0
  3
Center_Dash_Dash
 72
    65
 73
     6
 40
14.0
 49
9.0
 74
     0
 49
-1.0
 74
     0
 49
1.0
 74
     0
 49
-1.0
 74
     0
 49
1.0
 74
     0
 49
-1.0
 74
     0
  0
LTYPE
  5
46
330
5
100
AcDbSymbolTableRecord
100
AcDbLinetypeTableRecord
  2
CENTER
 70
     0
  3
CENTER
 72
    65
 73
     4
 40
6.0
 49
3.0
 74
     0
 49
-1.0
 74
     0
 49
1.0
 74
     0
 49
-1.0
 74
     0
  0
ENDTAB
  0
TABLE
  2
LAYER
  5
2
330
0
100
AcDbSymbolTable
 70
     5
  0
LAYER
  5
10
330
2
100
AcDbSymbolTableRecord
100
AcDbLayerTableRecord
  2
0
 70
     0
 62
     7
  6
Continuous
370
    -3
390
F
  0
LAYER
  5
47
330
2
100
AcDbSymbolTableRecord
100
AcDbLayerTableRecord
  2
1
 70
     0
 62
     7
  6
Continuous
370
    -3
390
F
  0
LAYER
  5
48
330
2
100
AcDbSymbolTableRecord
100
AcDbLayerTableRecord
  2
2
 70
     0
 62
     7
  6
Continuous
370
    -3
390
F
  0
LAYER
  5
49
330
2
100
AcDbSymbolTableRecord
100
AcDbLayerTableRecord
  2
3
 70
     0
 62
     7
  6
Continuous
370
    -3
390
F
  0
LAYER
  5
4A
330
2
100
AcDbSymbolTableRecord
100
AcDbLayerTableRecord
  2
5
 70
     0
 62
     7
  6
Continuous
370
    -3
390
F
  0
ENDTAB
  0
TABLE
  2
STYLE
  5
3
330
0
100
AcDbSymbolTable
 70
     1
  0
STYLE
  5
11
330
3
100
AcDbSymbolTableRecord
100
AcDbTextStyleTableRecord
  2
Standard
 70
     0
 40
0.0
 41
1.0
 50
0.0
 71
     0
 42
0.2
  3
txt
  4

  0
ENDTAB
  0
TABLE
  2
VIEW
  5
6
330
0
100
AcDbSymbolTable
 70
     0
  0
ENDTAB
  0
TABLE
  2
UCS
  5
7
330
0
100
AcDbSymbolTable
 70
     0
  0
ENDTAB
  0
TABLE
  2
APPID
  5
9
330
0
100
AcDbSymbolTable
 70
     1
  0
APPID
  5
12
330
9
100
AcDbSymbolTableRecord
100
AcDbRegAppTableRecord
  2
ACAD
 70
     0
  0
ENDTAB
  0
TABLE
  2
DIMSTYLE
  5
A
330
0
100
AcDbSymbolTable
 70
     1
100
AcDbDimStyleTable
  0
DIMSTYLE
105
27
330
A
100
AcDbSymbolTableRecord
100
AcDbDimStyleTableRecord
  2
Standard
 70
     0
340
11
  0
ENDTAB
  0
TABLE
  2
BLOCK_RECORD
  5
1
330
0
100
AcDbSymbolTable
 70
     1
  0
BLOCK_RECORD
  5
1F
330
1
100
AcDbSymbolTableRecord
100
AcDbBlockTableRecord
  2
*Model_Space
340
22
  0
BLOCK_RECORD
  5
1B
330
1
100
AcDbSymbolTableRecord
100
AcDbBlockTableRecord
  2
*Paper_Space
340
1E
  0
BLOCK_RECORD
  5
23
330
1
100
AcDbSymbolTableRecord
100
AcDbBlockTableRecord
  2
*Paper_Space0
340
26
  0
ENDTAB
  0
ENDSEC
  0
SECTION
  2
BLOCKS
  0
BLOCK
  5
20
330
1F
100
AcDbEntity
  8
0
100
AcDbBlockBegin
  2
*Model_Space
 70
     0
 10
0.0
 20
0.0
 30
0.0
  3
*Model_Space
  1

  0
ENDBLK
  5
21
330
1F
100
AcDbEntity
  8
0
100
AcDbBlockEnd
  0
BLOCK
  5
1C
330
1B
100
AcDbEntity
 67
     1
  8
0
100
AcDbBlockBegin
  2
*Paper_Space
 70
     0
 10
0.0
 20
0.0
 30
0.0
  3
*Paper_Space
  1

  0
ENDBLK
  5
1D
330
1B
100
AcDbEntity
 67
     1
  8
0
100
AcDbBlockEnd
  0
BLOCK
  5
24
330
23
100
AcDbEntity
  8
0
100
AcDbBlockBegin
  2
*Paper_Space0
 70
     0
 10
0.0
 20
0.0
 30
0.0
  3
*Paper_Space0
  1

  0
ENDBLK
  5
25
330
23
100
AcDbEntity
  8
0
100
AcDbBlockEnd
  0
ENDSEC
  0
SECTION
  2
ENTITIES
  0
POINT
  5
4B
330
1F
100
AcDbEntity
  8
1
 62
     7
100
AcDbPoint
 10
9.99999230351412
 20
210.0
 30
0.0
  0
LINE
  5
4C
330
1F
100
AcDbEntity
  8
1
  6
Continuous
 62
     4
100
AcDbLine
 10
-39.08823529411765
 20
-31.4
 30
0.0
 11
-37.76470588235294
 21
-31.4
 31
0.0
  0
LINE
  5
4D
330
1F
100
AcDbEntity
  8
1
  6
Continuous
 62
     4
100
AcDbLine
 10
-39.70588235294118
 20
-33.3
 30
0.0
 11
-39.70588235294118
 21
-31.9
 31
0.0
  0
LINE
  5
4E
330
1F
100
AcDbEntity
  8
1
  6
Continuous
 62
     4
100
AcDbLine
 10
-38.20588235294118
 20
-33.3
 30
0.0
 11
-39.70588235294118
 21
-33.3
 31
0.0
  0
LINE
  5
4F
330
1F
100
AcDbEntity
  8
1
  6
Continuous
 62
     4
100
AcDbLine
 10
-38.20588235294118
 20
-31.9
 30
0.0
 11
-38.20588235294118
 21
-33.3
 31
0.0
  0
LINE
  5
50
330
1F
100
AcDbEntity
  8
1
  6
Continuous
 62
     4
100
AcDbLine
 10
-39.70588235294118
 20
-31.9
 30
0.0
 11
-38.20588235294118
 21
-31.9
 31
0.0
  0
LINE
  5
51
330
1F
100
AcDbEntity
  8
1
  6
Continuous
 62
     4
100
AcDbLine
 10
-38.02941176470588
 20
-34.0
 30
0.0
 11
-38.47058823529412
 21
-33.9
 31
0.0
  0
LINE
  5
52
330
1F
100
AcDbEntity
  8
1
  6
Continuous
 62
     4
100
AcDbLine
 10
-37.76470588235294
 20
-33.7
 30
0.0
 11
-38.02941176470588
 21
-34.0
 31
0.0
  0
LINE
  5
53
330
1F
100
AcDbEntity
  8
1
  6
Continuous
 62
     4
100
AcDbLine
 10
-37.76470588235294
 20
-31.4
 30
0.0
 11
-37.76470588235294
 21
-33.7
 31
0.0
  0
LINE
  5
54
330
1F
100
AcDbEntity
  8
1
  6
Continuous
 62
     4
100
AcDbLine
 10
-40.14705882352941
 20
-31.4
 30
0.0
 11
-39.08823529411765
 21
-31.4
 31
0.0
  0
LINE
  5
55
330
1F
100
AcDbEntity
  8
1
  6
Continuous
 62
     4
100
AcDbLine
 10
-40.14705882352941
 20
-34.0
 30
0.0
 11
-40.14705882352941
 21
-31.4
 31
0.0
  0
LINE
  5
56
330
1F
100
AcDbEntity
  8
1
  6
Continuous
 62
     4
100
AcDbLine
 10
-38.91176470588236
 20
-31.0
 30
0.0
 11
-39.08823529411765
 21
-31.4
 31
0.0
  0
LINE
  5
57
330
1F
100
AcDbEntity
  8
1
  6
Continuous
 62
     4
100
AcDbLine
 10
-43.05882352941176
 20
-31.4
 30
0.0
 11
-41.20588235294117
 21
-31.4
 31
0.0
  0
LINE
  5
58
330
1F
100
AcDbEntity
  8
1
  6
Continuous
 62
     4
100
AcDbLine
 10
-43.05882352941176
 20
-32.1
 30
0.0
 11
-43.05882352941176
 21
-32.4
 31
0.0
  0
LINE
  5
59
330
1F
100
AcDbEntity
  8
1
  6
Continuous
 62
     4
100
AcDbLine
 10
-41.91176470588235
 20
-34.0
 30
0.0
 11
-42.70588235294117
 21
-33.9
 31
0.0
  0
LINE
  5
5A
330
1F
100
AcDbEntity
  8
1
  6
Continuous
 62
     4
100
AcDbLine
 10
-41.38235294117646
 20
-33.3
 30
0.0
 11
-41.91176470588235
 21
-34.0
 31
0.0
  0
LINE
  5
5B
330
1F
100
AcDbEntity
  8
1
  6
Continuous
 62
     4
100
AcDbLine
 10
-41.38235294117646
 20
-32.1
 30
0.0
 11
-41.38235294117646
 21
-33.3
 31
0.0
  0
LINE
  5
5C
330
1F
100
AcDbEntity
  8
1
  6
Continuous
 62
     4
100
AcDbLine
 10
-43.05882352941176
 20
-32.1
 30
0.0
 11
-41.38235294117646
 21
-32.1
 31
0.0
  0
LINE
  5
5D
330
1F
100
AcDbEntity
  8
1
  6
Continuous
 62
     4
100
AcDbLine
 10
-43.3235294117647
 20
-33.3
 30
0.0
 11
-43.85294117647059
 21
-34.0
 31
0.0
  0
LINE
  5
5E
330
1F
100
AcDbEntity
  8
1
  6
Continuous
 62
     4
100
AcDbLine
 10
-43.05882352941176
 20
-32.4
 30
0.0
 11
-43.3235294117647
 21
-33.3
 31
0.0
  0
LINE
  5
5F
330
1F
100
AcDbEntity
  8
1
  6
Continuous
 62
     4
100
AcDbLine
 10
-43.05882352941176
 20
-31.4
 30
0.0
 11
-43.05882352941176
 21
-32.1
 31
0.0
  0
LINE
  5
60
330
1F
100
AcDbEntity
  8
1
  6
Continuous
 62
     4
100
AcDbLine
 10
-43.85294117647059
 20
-31.4
 30
0.0
 11
-43.05882352941176
 21
-31.4
 31
0.0
  0
LINE
  5
61
330
1F
100
AcDbEntity
  8
1
  6
Continuous
 62
     4
100
AcDbLine
 10
-42.44117647058823
 20
-31.0
 30
0.0
 11
-42.44117647058823
 21
-31.4
 31
0.0
  0
LINE
  5
62
330
1F
100
AcDbEntity
  8
1
  6
Continuous
 62
     4
100
AcDbLine
 10
-46.05882352941176
 20
-31.3
 30
0.0
 11
-46.05882352941176
 21
-34.1
 31
0.0
  0
LINE
  5
63
330
1F
100
AcDbEntity
  8
1
  6
Continuous
 62
     4
100
AcDbLine
 10
-45.26470588235294
 20
-33.2
 30
0.0
 11
-44.64705882352941
 21
-33.9
 31
0.0
  0
LINE
  5
64
330
1F
100
AcDbEntity
  8
1
  6
Continuous
 62
     4
100
AcDbLine
 10
-45.70588235294117
 20
-32.4
 30
0.0
 11
-45.26470588235294
 21
-33.2
 31
0.0
  0
LINE
  5
65
330
1F
100
AcDbEntity
  8
1
  6
Continuous
 62
     4
100
AcDbLine
 10
-46.05882352941176
 20
-31.3
 30
0.0
 11
-45.70588235294117
 21
-32.4
 31
0.0
  0
LINE
  5
66
330
1F
100
AcDbEntity
  8
1
  6
Continuous
 62
     4
100
AcDbLine
 10
-44.8235294117647
 20
-31.3
 30
0.0
 11
-45.52941176470588
 21
-32.3
 31
0.0
  0
LINE
  5
67
330
1F
100
AcDbEntity
  8
1
  6
Continuous
 62
     4
100
AcDbLine
 10
-46.85294117647059
 20
-33.1
 30
0.0
 11
-47.38235294117647
 21
-33.8
 31
0.0
  0
LINE
  5
68
330
1F
100
AcDbEntity
  8
1
  6
Continuous
 62
     4
100
AcDbLine
 10
-46.58823529411765
 20
-32.4
 30
0.0
 11
-46.85294117647059
 21
-33.1
 31
0.0
  0
LINE
  5
69
330
1F
100
AcDbEntity
  8
1
  6
Continuous
 62
     4
100
AcDbLine
 10
-46.5
 20
-31.6
 30
0.0
 11
-46.58823529411765
 21
-32.4
 31
0.0
  0
LINE
  5
6A
330
1F
100
AcDbEntity
  8
1
  6
Continuous
 62
     4
100
AcDbLine
 10
-47.38235294117647
 20
-31.6
 30
0.0
 11
-46.5
 21
-31.6
 31
0.0
  0
LINE
  5
6B
330
1F
100
AcDbEntity
  8
1
  6
Continuous
 62
     4
100
AcDbLine
 10
-46.05882352941176
 20
-34.1
 30
0.0
 11
-46.67647058823529
 21
-33.7
 31
0.0
  0
LINE
  5
6C
330
1F
100
AcDbEntity
  8
1
  6
Continuous
 62
     4
100
AcDbLine
 10
-46.05882352941176
 20
-31.0
 30
0.0
 11
-46.05882352941176
 21
-31.3
 31
0.0
  0
LINE
  5
6D
330
1F
100
AcDbEntity
  8
1
  6
Continuous
 62
     4
100
AcDbLine
 10
-49.3235294117647
 20
-31.3
 30
0.0
 11
-48.35294117647059
 21
-31.3
 31
0.0
  0
LINE
  5
6E
330
1F
100
AcDbEntity
  8
1
  6
Continuous
 62
     4
100
AcDbLine
 10
-48.26470588235294
 20
-34.0
 30
0.0
 11
-48.26470588235294
 21
-33.3
 31
0.0
  0
LINE
  5
6F
330
1F
100
AcDbEntity
  8
1
  6
Continuous
 62
     4
100
AcDbLine
 10
-48.70588235294117
 20
-34.0
 30
0.0
 11
-48.26470588235294
 21
-34.0
 31
0.0
  0
LINE
  5
70
330
1F
100
AcDbEntity
  8
1
  6
Continuous
 62
     4
100
AcDbLine
 10
-48.70588235294117
 20
-32.4
 30
0.0
 11
-48.70588235294117
 21
-34.0
 31
0.0
  0
LINE
  5
71
330
1F
100
AcDbEntity
  8
1
  6
Continuous
 62
     4
100
AcDbLine
 10
-49.3235294117647
 20
-32.4
 30
0.0
 11
-49.3235294117647
 21
-34.0
 31
0.0
  0
LINE
  5
72
330
1F
100
AcDbEntity
  8
1
  6
Continuous
 62
     4
100
AcDbLine
 10
-50.11764705882353
 20
-33.5
 30
0.0
 11
-50.47058823529412
 21
-34.0
 31
0.0
  0
LINE
  5
73
330
1F
100
AcDbEntity
  8
1
  6
Continuous
 62
     4
100
AcDbLine
 10
-49.94117647058823
 20
-33.0
 30
0.0
 11
-50.11764705882353
 21
-33.5
 31
0.0
  0
LINE
  5
74
330
1F
100
AcDbEntity
  8
1
  6
Continuous
 62
     4
100
AcDbLine
 10
-49.85294117647059
 20
-32.4
 30
0.0
 11
-49.94117647058823
 21
-33.0
 31
0.0
  0
LINE
  5
75
330
1F
100
AcDbEntity
  8
1
  6
Continuous
 62
     4
100
AcDbLine
 10
-48.44117647058823
 20
-32.3
 30
0.0
 11
-48.26470588235294
 21
-32.7
 31
0.0
  0
LINE
  5
76
330
1F
100
AcDbEntity
  8
1
  6
Continuous
 62
     4
100
AcDbLine
 10
-48.79411764705883
 20
-31.7
 30
0.0
 11
-48.44117647058823
 21
-32.3
 31
0.0
  0
LINE
  5
77
330
1F
100
AcDbEntity
  8
1
  6
Continuous
 62
     4
100
AcDbLine
 10
-50.02941176470588
 20
-32.4
 30
0.0
 11
-48.44117647058823
 21
-32.3
 31
0.0
  0
LINE
  5
78
330
1F
100
AcDbEntity
  8
1
  6
Continuous
 62
     4
100
AcDbLine
 10
-50.29411764705883
 20
-32.4
 30
0.0
 11
-50.02941176470588
 21
-32.4
 31
0.0
  0
LINE
  5
79
330
1F
100
AcDbEntity
  8
1
  6
Continuous
 62
     4
100
AcDbLine
 10
-49.3235294117647
 20
-31.3
 30
0.0
 11
-50.02941176470588
 21
-32.4
 31
0.0
  0
LINE
  5
7A
330
1F
100
AcDbEntity
  8
1
  6
Continuous
 62
     4
100
AcDbLine
 10
-49.3235294117647
 20
-30.9
 30
0.0
 11
-49.3235294117647
 21
-31.3
 31
0.0
  0
LINE
  5
7B
330
1F
100
AcDbEntity
  8
1
  6
Continuous
 62
     4
100
AcDbLine
 10
-50.29411764705883
 20
-31.3
 30
0.0
 11
-49.3235294117647
 21
-31.3
 31
0.0
  0
LINE
  5
7C
330
1F
100
AcDbEntity
  8
1
  6
Continuous
 62
     4
100
AcDbLine
 10
-50.8235294117647
 20
-34.0
 30
0.0
 11
-50.38235294117647
 21
-32.8
 31
0.0
  0
LINE
  5
7D
330
1F
100
AcDbEntity
  8
1
  6
Continuous
 62
     4
100
AcDbLine
 10
-50.8235294117647
 20
-32.1
 30
0.0
 11
-50.38235294117647
 21
-32.5
 31
0.0
  0
LINE
  5
7E
330
1F
100
AcDbEntity
  8
1
  6
Continuous
 62
     4
100
AcDbLine
 10
-50.73529411764706
 20
-31.2
 30
0.0
 11
-50.29411764705883
 21
-31.6
 31
0.0
  0
LINE
  5
7F
330
1F
100
AcDbEntity
  8
1
  6
Continuous
 62
     4
100
AcDbLine
 10
99.02941176470588
 20
-95.2
 30
0.0
 11
98.5
 21
-95.0
 31
0.0
  0
LINE
  5
80
330
1F
100
AcDbEntity
  8
1
  6
Continuous
 62
     4
100
AcDbLine
 10
99.38235294117648
 20
-95.7
 30
0.0
 11
99.02941176470588
 21
-95.2
 31
0.0
  0
LINE
  5
81
330
1F
100
AcDbEntity
  8
1
  6
Continuous
 62
     4
100
AcDbLine
 10
99.47058823529412
 20
-96.5
 30
0.0
 11
99.38235294117648
 21
-95.7
 31
0.0
  0
LINE
  5
82
330
1F
100
AcDbEntity
  8
1
  6
Continuous
 62
     4
100
AcDbLine
 10
99.38235294117648
 20
-97.3
 30
0.0
 11
99.47058823529412
 21
-96.5
 31
0.0
  0
LINE
  5
83
330
1F
100
AcDbEntity
  8
1
  6
Continuous
 62
     4
100
AcDbLine
 10
99.02941176470588
 20
-97.8
 30
0.0
 11
99.38235294117648
 21
-97.3
 31
0.0
  0
LINE
  5
84
330
1F
100
AcDbEntity
  8
1
  6
Continuous
 62
     4
100
AcDbLine
 10
98.5
 20
-98.0
 30
0.0
 11
99.02941176470588
 21
-97.8
 31
0.0
  0
LINE
  5
85
330
1F
100
AcDbEntity
  8
1
  6
Continuous
 62
     4
100
AcDbLine
 10
97.97058823529412
 20
-97.8
 30
0.0
 11
98.5
 21
-98.0
 31
0.0
  0
LINE
  5
86
330
1F
100
AcDbEntity
  8
1
  6
Continuous
 62
     4
100
AcDbLine
 10
97.70588235294117
 20
-97.3
 30
0.0
 11
97.97058823529412
 21
-97.8
 31
0.0
  0
LINE
  5
87
330
1F
100
AcDbEntity
  8
1
  6
Continuous
 62
     4
100
AcDbLine
 10
97.52941176470588
 20
-96.5
 30
0.0
 11
97.70588235294117
 21
-97.3
 31
0.0
  0
LINE
  5
88
330
1F
100
AcDbEntity
  8
1
  6
Continuous
 62
     4
100
AcDbLine
 10
97.70588235294117
 20
-95.7
 30
0.0
 11
97.52941176470588
 21
-96.5
 31
0.0
  0
LINE
  5
89
330
1F
100
AcDbEntity
  8
1
  6
Continuous
 62
     4
100
AcDbLine
 10
97.97058823529412
 20
-95.2
 30
0.0
 11
97.70588235294117
 21
-95.7
 31
0.0
  0
LINE
  5
8A
330
1F
100
AcDbEntity
  8
1
  6
Continuous
 62
     4
100
AcDbLine
 10
98.5
 20
-95.0
 30
0.0
 11
97.97058823529412
 21
-95.2
 31
0.0
  0
LINE
  5
8B
330
1F
100
AcDbEntity
  8
1
  6
Continuous
 62
     4
100
AcDbLine
 10
95.05882352941177
 20
-96.5
 30
0.0
 11
96.64705882352942
 21
-96.5
 31
0.0
  0
LINE
  5
8C
330
1F
100
AcDbEntity
  8
1
  6
Continuous
 62
     4
100
AcDbLine
 10
94.1764705882353
 20
-95.0
 30
0.0
 11
94.1764705882353
 21
-98.0
 31
0.0
  0
LINE
  5
8D
330
1F
100
AcDbEntity
  8
1
  6
Continuous
 62
     4
100
AcDbLine
 10
93.73529411764707
 20
-95.3
 30
0.0
 11
94.1764705882353
 21
-95.0
 31
0.0
  0
LINE
  5
8E
330
1F
100
AcDbEntity
  8
1
  6
Continuous
 62
     4
100
AcDbLine
 10
92.41176470588236
 20
-95.2
 30
0.0
 11
91.88235294117648
 21
-95.0
 31
0.0
  0
LINE
  5
8F
330
1F
100
AcDbEntity
  8
1
  6
Continuous
 62
     4
100
AcDbLine
 10
92.76470588235296
 20
-95.7
 30
0.0
 11
92.41176470588236
 21
-95.2
 31
0.0
  0
LINE
  5
90
330
1F
100
AcDbEntity
  8
1
  6
Continuous
 62
     4
100
AcDbLine
 10
92.8529411764706
 20
-96.5
 30
0.0
 11
92.76470588235296
 21
-95.7
 31
0.0
  0
LINE
  5
91
330
1F
100
AcDbEntity
  8
1
  6
Continuous
 62
     4
100
AcDbLine
 10
92.76470588235296
 20
-97.3
 30
0.0
 11
92.8529411764706
 21
-96.5
 31
0.0
  0
LINE
  5
92
330
1F
100
AcDbEntity
  8
1
  6
Continuous
 62
     4
100
AcDbLine
 10
92.41176470588236
 20
-97.8
 30
0.0
 11
92.76470588235296
 21
-97.3
 31
0.0
  0
LINE
  5
93
330
1F
100
AcDbEntity
  8
1
  6
Continuous
 62
     4
100
AcDbLine
 10
91.88235294117648
 20
-98.0
 30
0.0
 11
92.41176470588236
 21
-97.8
 31
0.0
  0
LINE
  5
94
330
1F
100
AcDbEntity
  8
1
  6
Continuous
 62
     4
100
AcDbLine
 10
91.3529411764706
 20
-97.8
 30
0.0
 11
91.88235294117648
 21
-98.0
 31
0.0
  0
LINE
  5
95
330
1F
100
AcDbEntity
  8
1
  6
Continuous
 62
     4
100
AcDbLine
 10
91.08823529411765
 20
-97.3
 30
0.0
 11
91.3529411764706
 21
-97.8
 31
0.0
  0
LINE
  5
96
330
1F
100
AcDbEntity
  8
1
  6
Continuous
 62
     4
100
AcDbLine
 10
90.91176470588236
 20
-96.5
 30
0.0
 11
91.08823529411765
 21
-97.3
 31
0.0
  0
LINE
  5
97
330
1F
100
AcDbEntity
  8
1
  6
Continuous
 62
     4
100
AcDbLine
 10
91.08823529411765
 20
-95.7
 30
0.0
 11
90.91176470588236
 21
-96.5
 31
0.0
  0
LINE
  5
98
330
1F
100
AcDbEntity
  8
1
  6
Continuous
 62
     4
100
AcDbLine
 10
91.3529411764706
 20
-95.2
 30
0.0
 11
91.08823529411765
 21
-95.7
 31
0.0
  0
LINE
  5
99
330
1F
100
AcDbEntity
  8
1
  6
Continuous
 62
     4
100
AcDbLine
 10
91.88235294117648
 20
-95.0
 30
0.0
 11
91.3529411764706
 21
-95.2
 31
0.0
  0
LINE
  5
9A
330
1F
100
AcDbEntity
  8
1
  6
Continuous
 62
     4
100
AcDbLine
 10
88.3529411764706
 20
-96.5
 30
0.0
 11
88.3529411764706
 21
-98.0
 31
0.0
  0
LINE
  5
9B
330
1F
100
AcDbEntity
  8
1
  6
Continuous
 62
     4
100
AcDbLine
 10
88.3529411764706
 20
-96.5
 30
0.0
 11
89.8529411764706
 21
-96.5
 31
0.0
  0
LINE
  5
9C
330
1F
100
AcDbEntity
  8
1
  6
Continuous
 62
     4
100
AcDbLine
 10
88.3529411764706
 20
-95.0
 30
0.0
 11
88.3529411764706
 21
-96.5
 31
0.0
  0
LINE
  5
9D
330
1F
100
AcDbEntity
  8
1
  6
Continuous
 62
     4
100
AcDbLine
 10
90.02941176470588
 20
-95.0
 30
0.0
 11
88.3529411764706
 21
-95.0
 31
0.0
  0
LINE
  5
9E
330
1F
100
AcDbEntity
  8
1
  6
Continuous
 62
     4
100
AcDbLine
 10
86.14705882352942
 20
-97.6
 30
0.0
 11
86.05882352941177
 21
-97.2
 31
0.0
  0
LINE
  5
9F
330
1F
100
AcDbEntity
  8
1
  6
Continuous
 62
     4
100
AcDbLine
 10
86.41176470588236
 20
-97.9
 30
0.0
 11
86.14705882352942
 21
-97.6
 31
0.0
  0
LINE
  5
A0
330
1F
100
AcDbEntity
  8
1
  6
Continuous
 62
     4
100
AcDbLine
 10
86.76470588235294
 20
-98.0
 30
0.0
 11
86.41176470588236
 21
-97.9
 31
0.0
  0
LINE
  5
A1
330
1F
100
AcDbEntity
  8
1
  6
Continuous
 62
     4
100
AcDbLine
 10
87.11764705882354
 20
-97.9
 30
0.0
 11
86.76470588235294
 21
-98.0
 31
0.0
  0
LINE
  5
A2
330
1F
100
AcDbEntity
  8
1
  6
Continuous
 62
     4
100
AcDbLine
 10
87.38235294117648
 20
-97.6
 30
0.0
 11
87.11764705882354
 21
-97.9
 31
0.0
  0
LINE
  5
A3
330
1F
100
AcDbEntity
  8
1
  6
Continuous
 62
     4
100
AcDbLine
 10
87.47058823529412
 20
-97.2
 30
0.0
 11
87.38235294117648
 21
-97.6
 31
0.0
  0
LINE
  5
A4
330
1F
100
AcDbEntity
  8
1
  6
Continuous
 62
     4
100
AcDbLine
 10
87.47058823529412
 20
-95.0
 30
0.0
 11
87.47058823529412
 21
-97.2
 31
0.0
  0
LINE
  5
A5
330
1F
100
AcDbEntity
  8
1
  6
Continuous
 62
     4
100
AcDbLine
 10
84.73529411764707
 20
-95.2
 30
0.0
 11
84.20588235294119
 21
-95.0
 31
0.0
  0
LINE
  5
A6
330
1F
100
AcDbEntity
  8
1
  6
Continuous
 62
     4
100
AcDbLine
 10
85.08823529411767
 20
-95.7
 30
0.0
 11
84.73529411764707
 21
-95.2
 31
0.0
  0
LINE
  5
A7
330
1F
100
AcDbEntity
  8
1
  6
Continuous
 62
     4
100
AcDbLine
 10
85.1764705882353
 20
-96.5
 30
0.0
 11
85.08823529411767
 21
-95.7
 31
0.0
  0
LINE
  5
A8
330
1F
100
AcDbEntity
  8
1
  6
Continuous
 62
     4
100
AcDbLine
 10
85.08823529411767
 20
-97.3
 30
0.0
 11
85.1764705882353
 21
-96.5
 31
0.0
  0
LINE
  5
A9
330
1F
100
AcDbEntity
  8
1
  6
Continuous
 62
     4
100
AcDbLine
 10
84.73529411764707
 20
-97.8
 30
0.0
 11
85.08823529411767
 21
-97.3
 31
0.0
  0
LINE
  5
AA
330
1F
100
AcDbEntity
  8
1
  6
Continuous
 62
     4
100
AcDbLine
 10
84.20588235294119
 20
-98.0
 30
0.0
 11
84.73529411764707
 21
-97.8
 31
0.0
  0
LINE
  5
AB
330
1F
100
AcDbEntity
  8
1
  6
Continuous
 62
     4
100
AcDbLine
 10
83.6764705882353
 20
-97.8
 30
0.0
 11
84.20588235294119
 21
-98.0
 31
0.0
  0
LINE
  5
AC
330
1F
100
AcDbEntity
  8
1
  6
Continuous
 62
     4
100
AcDbLine
 10
83.41176470588236
 20
-97.3
 30
0.0
 11
83.6764705882353
 21
-97.8
 31
0.0
  0
LINE
  5
AD
330
1F
100
AcDbEntity
  8
1
  6
Continuous
 62
     4
100
AcDbLine
 10
83.23529411764707
 20
-96.5
 30
0.0
 11
83.41176470588236
 21
-97.3
 31
0.0
  0
LINE
  5
AE
330
1F
100
AcDbEntity
  8
1
  6
Continuous
 62
     4
100
AcDbLine
 10
83.41176470588236
 20
-95.7
 30
0.0
 11
83.23529411764707
 21
-96.5
 31
0.0
  0
LINE
  5
AF
330
1F
100
AcDbEntity
  8
1
  6
Continuous
 62
     4
100
AcDbLine
 10
83.6764705882353
 20
-95.2
 30
0.0
 11
83.41176470588236
 21
-95.7
 31
0.0
  0
LINE
  5
B0
330
1F
100
AcDbEntity
  8
1
  6
Continuous
 62
     4
100
AcDbLine
 10
84.20588235294119
 20
-95.0
 30
0.0
 11
83.6764705882353
 21
-95.2
 31
0.0
  0
LINE
  5
B1
330
1F
100
AcDbEntity
  8
1
  6
Continuous
 62
     4
100
AcDbLine
 10
80.8529411764706
 20
-97.8
 30
0.0
 11
80.58823529411765
 21
-97.6
 31
0.0
  0
LINE
  5
B2
330
1F
100
AcDbEntity
  8
1
  6
Continuous
 62
     4
100
AcDbLine
 10
81.20588235294119
 20
-98.0
 30
0.0
 11
80.8529411764706
 21
-97.8
 31
0.0
  0
LINE
  5
B3
330
1F
100
AcDbEntity
  8
1
  6
Continuous
 62
     4
100
AcDbLine
 10
81.55882352941177
 20
-98.0
 30
0.0
 11
81.20588235294119
 21
-98.0
 31
0.0
  0
LINE
  5
B4
330
1F
100
AcDbEntity
  8
1
  6
Continuous
 62
     4
100
AcDbLine
 10
81.82352941176471
 20
-98.0
 30
0.0
 11
81.55882352941177
 21
-98.0
 31
0.0
  0
LINE
  5
B5
330
1F
100
AcDbEntity
  8
1
  6
Continuous
 62
     4
100
AcDbLine
 10
82.08823529411765
 20
-97.8
 30
0.0
 11
81.82352941176471
 21
-98.0
 31
0.0
  0
LINE
  5
B6
330
1F
100
AcDbEntity
  8
1
  6
Continuous
 62
     4
100
AcDbLine
 10
82.26470588235294
 20
-97.6
 30
0.0
 11
82.08823529411765
 21
-97.8
 31
0.0
  0
LINE
  5
B7
330
1F
100
AcDbEntity
  8
1
  6
Continuous
 62
     4
100
AcDbLine
 10
82.3529411764706
 20
-97.1
 30
0.0
 11
82.26470588235294
 21
-97.6
 31
0.0
  0
LINE
  5
B8
330
1F
100
AcDbEntity
  8
1
  6
Continuous
 62
     4
100
AcDbLine
 10
82.26470588235294
 20
-96.6
 30
0.0
 11
82.3529411764706
 21
-97.1
 31
0.0
  0
LINE
  5
B9
330
1F
100
AcDbEntity
  8
1
  6
Continuous
 62
     4
100
AcDbLine
 10
82.08823529411765
 20
-96.4
 30
0.0
 11
82.26470588235294
 21
-96.6
 31
0.0
  0
LINE
  5
BA
330
1F
100
AcDbEntity
  8
1
  6
Continuous
 62
     4
100
AcDbLine
 10
81.82352941176471
 20
-96.2
 30
0.0
 11
82.08823529411765
 21
-96.4
 31
0.0
  0
LINE
  5
BB
330
1F
100
AcDbEntity
  8
1
  6
Continuous
 62
     4
100
AcDbLine
 10
81.47058823529412
 20
-96.1
 30
0.0
 11
81.82352941176471
 21
-96.2
 31
0.0
  0
LINE
  5
BC
330
1F
100
AcDbEntity
  8
1
  6
Continuous
 62
     4
100
AcDbLine
 10
81.11764705882354
 20
-96.2
 30
0.0
 11
81.47058823529412
 21
-96.1
 31
0.0
  0
LINE
  5
BD
330
1F
100
AcDbEntity
  8
1
  6
Continuous
 62
     4
100
AcDbLine
 10
80.6764705882353
 20
-96.5
 30
0.0
 11
81.11764705882354
 21
-96.2
 31
0.0
  0
LINE
  5
BE
330
1F
100
AcDbEntity
  8
1
  6
Continuous
 62
     4
100
AcDbLine
 10
80.76470588235294
 20
-95.0
 30
0.0
 11
80.6764705882353
 21
-96.5
 31
0.0
  0
LINE
  5
BF
330
1F
100
AcDbEntity
  8
1
  6
Continuous
 62
     4
100
AcDbLine
 10
82.26470588235294
 20
-95.0
 30
0.0
 11
80.76470588235294
 21
-95.0
 31
0.0
  0
LINE
  5
C0
330
1F
100
AcDbEntity
  8
1
  6
Continuous
 62
     4
100
AcDbLine
 10
79.26470588235294
 20
-95.2
 30
0.0
 11
78.73529411764706
 21
-95.0
 31
0.0
  0
LINE
  5
C1
330
1F
100
AcDbEntity
  8
1
  6
Continuous
 62
     4
100
AcDbLine
 10
79.61764705882354
 20
-95.7
 30
0.0
 11
79.26470588235294
 21
-95.2
 31
0.0
  0
LINE
  5
C2
330
1F
100
AcDbEntity
  8
1
  6
Continuous
 62
     4
100
AcDbLine
 10
79.70588235294117
 20
-96.5
 30
0.0
 11
79.61764705882354
 21
-95.7
 31
0.0
  0
LINE
  5
C3
330
1F
100
AcDbEntity
  8
1
  6
Continuous
 62
     4
100
AcDbLine
 10
79.61764705882354
 20
-97.3
 30
0.0
 11
79.70588235294117
 21
-96.5
 31
0.0
  0
LINE
  5
C4
330
1F
100
AcDbEntity
  8
1
  6
Continuous
 62
     4
100
AcDbLine
 10
79.26470588235294
 20
-97.8
 30
0.0
 11
79.61764705882354
 21
-97.3
 31
0.0
  0
LINE
  5
C5
330
1F
100
AcDbEntity
  8
1
  6
Continuous
 62
     4
100
AcDbLine
 10
78.73529411764706
 20
-98.0
 30
0.0
 11
79.26470588235294
 21
-97.8
 31
0.0
  0
LINE
  5
C6
330
1F
100
AcDbEntity
  8
1
  6
Continuous
 62
     4
100
AcDbLine
 10
78.20588235294117
 20
-97.8
 30
0.0
 11
78.73529411764706
 21
-98.0
 31
0.0
  0
LINE
  5
C7
330
1F
100
AcDbEntity
  8
1
  6
Continuous
 62
     4
100
AcDbLine
 10
77.94117647058823
 20
-97.3
 30
0.0
 11
78.20588235294117
 21
-97.8
 31
0.0
  0
LINE
  5
C8
330
1F
100
AcDbEntity
  8
1
  6
Continuous
 62
     4
100
AcDbLine
 10
77.76470588235294
 20
-96.5
 30
0.0
 11
77.94117647058823
 21
-97.3
 31
0.0
  0
LINE
  5
C9
330
1F
100
AcDbEntity
  8
1
  6
Continuous
 62
     4
100
AcDbLine
 10
77.94117647058823
 20
-95.7
 30
0.0
 11
77.76470588235294
 21
-96.5
 31
0.0
  0
LINE
  5
CA
330
1F
100
AcDbEntity
  8
1
  6
Continuous
 62
     4
100
AcDbLine
 10
78.20588235294117
 20
-95.2
 30
0.0
 11
77.94117647058823
 21
-95.7
 31
0.0
  0
LINE
  5
CB
330
1F
100
AcDbEntity
  8
1
  6
Continuous
 62
     4
100
AcDbLine
 10
78.73529411764706
 20
-95.0
 30
0.0
 11
78.20588235294117
 21
-95.2
 31
0.0
  0
LINE
  5
CC
330
1F
100
AcDbEntity
  8
1
  6
Continuous
 62
     4
100
AcDbLine
 10
76.44117647058823
 20
-95.2
 30
0.0
 11
75.91176470588235
 21
-95.0
 31
0.0
  0
LINE
  5
CD
330
1F
100
AcDbEntity
  8
1
  6
Continuous
 62
     4
100
AcDbLine
 10
76.79411764705883
 20
-95.7
 30
0.0
 11
76.44117647058823
 21
-95.2
 31
0.0
  0
LINE
  5
CE
330
1F
100
AcDbEntity
  8
1
  6
Continuous
 62
     4
100
AcDbLine
 10
76.88235294117646
 20
-96.5
 30
0.0
 11
76.79411764705883
 21
-95.7
 31
0.0
  0
LINE
  5
CF
330
1F
100
AcDbEntity
  8
1
  6
Continuous
 62
     4
100
AcDbLine
 10
76.79411764705883
 20
-97.3
 30
0.0
 11
76.88235294117646
 21
-96.5
 31
0.0
  0
LINE
  5
D0
330
1F
100
AcDbEntity
  8
1
  6
Continuous
 62
     4
100
AcDbLine
 10
76.44117647058823
 20
-97.8
 30
0.0
 11
76.79411764705883
 21
-97.3
 31
0.0
  0
LINE
  5
D1
330
1F
100
AcDbEntity
  8
1
  6
Continuous
 62
     4
100
AcDbLine
 10
75.91176470588235
 20
-98.0
 30
0.0
 11
76.44117647058823
 21
-97.8
 31
0.0
  0
LINE
  5
D2
330
1F
100
AcDbEntity
  8
1
  6
Continuous
 62
     4
100
AcDbLine
 10
75.38235294117646
 20
-97.8
 30
0.0
 11
75.91176470588235
 21
-98.0
 31
0.0
  0
LINE
  5
D3
330
1F
100
AcDbEntity
  8
1
  6
Continuous
 62
     4
100
AcDbLine
 10
75.11764705882352
 20
-97.3
 30
0.0
 11
75.38235294117646
 21
-97.8
 31
0.0
  0
LINE
  5
D4
330
1F
100
AcDbEntity
  8
1
  6
Continuous
 62
     4
100
AcDbLine
 10
74.94117647058823
 20
-96.5
 30
0.0
 11
75.11764705882352
 21
-97.3
 31
0.0
  0
LINE
  5
D5
330
1F
100
AcDbEntity
  8
1
  6
Continuous
 62
     4
100
AcDbLine
 10
75.11764705882352
 20
-95.7
 30
0.0
 11
74.94117647058823
 21
-96.5
 31
0.0
  0
LINE
  5
D6
330
1F
100
AcDbEntity
  8
1
  6
Continuous
 62
     4
100
AcDbLine
 10
75.38235294117646
 20
-95.2
 30
0.0
 11
75.11764705882352
 21
-95.7
 31
0.0
  0
LINE
  5
D7
330
1F
100
AcDbEntity
  8
1
  6
Continuous
 62
     4
100
AcDbLine
 10
75.91176470588235
 20
-95.0
 30
0.0
 11
75.38235294117646
 21
-95.2
 31
0.0
  0
LINE
  5
D8
330
1F
100
AcDbEntity
  8
1
  6
Continuous
 62
     4
100
AcDbLine
 10
71.23529411764706
 20
-98.0
 30
0.0
 11
74.05882352941177
 21
-98.0
 31
0.0
  0
LINE
  5
D9
330
1F
100
AcDbEntity
  8
1
  6
Continuous
 62
     4
100
AcDbLine
 10
68.8529411764706
 20
-97.8
 30
0.0
 11
68.58823529411765
 21
-97.6
 31
0.0
  0
LINE
  5
DA
330
1F
100
AcDbEntity
  8
1
  6
Continuous
 62
     4
100
AcDbLine
 10
69.20588235294119
 20
-98.0
 30
0.0
 11
68.8529411764706
 21
-97.8
 31
0.0
  0
LINE
  5
DB
330
1F
100
AcDbEntity
  8
1
  6
Continuous
 62
     4
100
AcDbLine
 10
69.55882352941177
 20
-98.0
 30
0.0
 11
69.20588235294119
 21
-98.0
 31
0.0
  0
LINE
  5
DC
330
1F
100
AcDbEntity
  8
1
  6
Continuous
 62
     4
100
AcDbLine
 10
69.82352941176471
 20
-98.0
 30
0.0
 11
69.55882352941177
 21
-98.0
 31
0.0
  0
LINE
  5
DD
330
1F
100
AcDbEntity
  8
1
  6
Continuous
 62
     4
100
AcDbLine
 10
70.08823529411765
 20
-97.8
 30
0.0
 11
69.82352941176471
 21
-98.0
 31
0.0
  0
LINE
  5
DE
330
1F
100
AcDbEntity
  8
1
  6
Continuous
 62
     4
100
AcDbLine
 10
70.26470588235294
 20
-97.6
 30
0.0
 11
70.08823529411765
 21
-97.8
 31
0.0
  0
LINE
  5
DF
330
1F
100
AcDbEntity
  8
1
  6
Continuous
 62
     4
100
AcDbLine
 10
70.3529411764706
 20
-97.1
 30
0.0
 11
70.26470588235294
 21
-97.6
 31
0.0
  0
LINE
  5
E0
330
1F
100
AcDbEntity
  8
1
  6
Continuous
 62
     4
100
AcDbLine
 10
70.26470588235294
 20
-96.6
 30
0.0
 11
70.3529411764706
 21
-97.1
 31
0.0
  0
LINE
  5
E1
330
1F
100
AcDbEntity
  8
1
  6
Continuous
 62
     4
100
AcDbLine
 10
70.08823529411765
 20
-96.4
 30
0.0
 11
70.26470588235294
 21
-96.6
 31
0.0
  0
LINE
  5
E2
330
1F
100
AcDbEntity
  8
1
  6
Continuous
 62
     4
100
AcDbLine
 10
69.82352941176471
 20
-96.2
 30
0.0
 11
70.08823529411765
 21
-96.4
 31
0.0
  0
LINE
  5
E3
330
1F
100
AcDbEntity
  8
1
  6
Continuous
 62
     4
100
AcDbLine
 10
69.47058823529412
 20
-96.1
 30
0.0
 11
69.82352941176471
 21
-96.2
 31
0.0
  0
LINE
  5
E4
330
1F
100
AcDbEntity
  8
1
  6
Continuous
 62
     4
100
AcDbLine
 10
69.11764705882354
 20
-96.2
 30
0.0
 11
69.47058823529412
 21
-96.1
 31
0.0
  0
LINE
  5
E5
330
1F
100
AcDbEntity
  8
1
  6
Continuous
 62
     4
100
AcDbLine
 10
68.6764705882353
 20
-96.5
 30
0.0
 11
69.11764705882354
 21
-96.2
 31
0.0
  0
LINE
  5
E6
330
1F
100
AcDbEntity
  8
1
  6
Continuous
 62
     4
100
AcDbLine
 10
68.76470588235294
 20
-95.0
 30
0.0
 11
68.6764705882353
 21
-96.5
 31
0.0
  0
LINE
  5
E7
330
1F
100
AcDbEntity
  8
1
  6
Continuous
 62
     4
100
AcDbLine
 10
70.26470588235294
 20
-95.0
 30
0.0
 11
68.76470588235294
 21
-95.0
 31
0.0
  0
LINE
  5
E8
330
1F
100
AcDbEntity
  8
1
  6
Continuous
 62
     4
100
AcDbLine
 10
65.76470588235294
 20
-98.0
 30
0.0
 11
67.70588235294117
 21
-98.0
 31
0.0
  0
LINE
  5
E9
330
1F
100
AcDbEntity
  8
1
  6
Continuous
 62
     4
100
AcDbLine
 10
65.94117647058823
 20
-97.5
 30
0.0
 11
65.76470588235294
 21
-98.0
 31
0.0
  0
LINE
  5
EA
330
1F
100
AcDbEntity
  8
1
  6
Continuous
 62
     4
100
AcDbLine
 10
66.11764705882354
 20
-97.2
 30
0.0
 11
65.94117647058823
 21
-97.5
 31
0.0
  0
LINE
  5
EB
330
1F
100
AcDbEntity
  8
1
  6
Continuous
 62
     4
100
AcDbLine
 10
66.47058823529412
 20
-96.9
 30
0.0
 11
66.11764705882354
 21
-97.2
 31
0.0
  0
LINE
  5
EC
330
1F
100
AcDbEntity
  8
1
  6
Continuous
 62
     4
100
AcDbLine
 10
66.82352941176471
 20
-96.7
 30
0.0
 11
66.47058823529412
 21
-96.9
 31
0.0
  0
LINE
  5
ED
330
1F
100
AcDbEntity
  8
1
  6
Continuous
 62
     4
100
AcDbLine
 10
67.26470588235294
 20
-96.4
 30
0.0
 11
66.82352941176471
 21
-96.7
 31
0.0
  0
LINE
  5
EE
330
1F
100
AcDbEntity
  8
1
  6
Continuous
 62
     4
100
AcDbLine
 10
67.52941176470588
 20
-96.0
 30
0.0
 11
67.26470588235294
 21
-96.4
 31
0.0
  0
LINE
  5
EF
330
1F
100
AcDbEntity
  8
1
  6
Continuous
 62
     4
100
AcDbLine
 10
67.61764705882354
 20
-95.6
 30
0.0
 11
67.52941176470588
 21
-96.0
 31
0.0
  0
LINE
  5
F0
330
1F
100
AcDbEntity
  8
1
  6
Continuous
 62
     4
100
AcDbLine
 10
67.26470588235294
 20
-95.2
 30
0.0
 11
67.61764705882354
 21
-95.6
 31
0.0
  0
LINE
  5
F1
330
1F
100
AcDbEntity
  8
1
  6
Continuous
 62
     4
100
AcDbLine
 10
66.73529411764706
 20
-95.0
 30
0.0
 11
67.26470588235294
 21
-95.2
 31
0.0
  0
LINE
  5
F2
330
1F
100
AcDbEntity
  8
1
  6
Continuous
 62
     4
100
AcDbLine
 10
66.20588235294117
 20
-95.2
 30
0.0
 11
66.73529411764706
 21
-95.0
 31
0.0
  0
LINE
  5
F3
330
1F
100
AcDbEntity
  8
1
  6
Continuous
 62
     4
100
AcDbLine
 10
65.8529411764706
 20
-95.6
 30
0.0
 11
66.20588235294117
 21
-95.2
 31
0.0
  0
LINE
  5
F4
330
1F
100
AcDbEntity
  8
1
  6
Continuous
 62
     4
100
AcDbLine
 10
62.05882352941177
 20
-98.0
 30
0.0
 11
64.88235294117648
 21
-98.0
 31
0.0
  0
LINE
  5
F5
330
1F
100
AcDbEntity
  8
1
  6
Continuous
 62
     4
100
AcDbLine
 10
61.0
 20
-97.6
 30
0.0
 11
61.17647058823529
 21
-97.3
 31
0.0
  0
LINE
  5
F6
330
1F
100
AcDbEntity
  8
1
  6
Continuous
 62
     4
100
AcDbLine
 10
60.64705882352941
 20
-97.9
 30
0.0
 11
61.0
 21
-97.6
 31
0.0
  0
LINE
  5
F7
330
1F
100
AcDbEntity
  8
1
  6
Continuous
 62
     4
100
AcDbLine
 10
60.20588235294117
 20
-98.0
 30
0.0
 11
60.64705882352941
 21
-97.9
 31
0.0
  0
LINE
  5
F8
330
1F
100
AcDbEntity
  8
1
  6
Continuous
 62
     4
100
AcDbLine
 10
59.67647058823529
 20
-97.8
 30
0.0
 11
60.20588235294117
 21
-98.0
 31
0.0
  0
LINE
  5
F9
330
1F
100
AcDbEntity
  8
1
  6
Continuous
 62
     4
100
AcDbLine
 10
59.41176470588235
 20
-97.2
 30
0.0
 11
59.67647058823529
 21
-97.8
 31
0.0
  0
LINE
  5
FA
330
1F
100
AcDbEntity
  8
1
  6
Continuous
 62
     4
100
AcDbLine
 10
59.3235294117647
 20
-96.5
 30
0.0
 11
59.41176470588235
 21
-97.2
 31
0.0
  0
LINE
  5
FB
330
1F
100
AcDbEntity
  8
1
  6
Continuous
 62
     4
100
AcDbLine
 10
59.41176470588235
 20
-95.8
 30
0.0
 11
59.3235294117647
 21
-96.5
 31
0.0
  0
LINE
  5
FC
330
1F
100
AcDbEntity
  8
1
  6
Continuous
 62
     4
100
AcDbLine
 10
59.67647058823529
 20
-95.3
 30
0.0
 11
59.41176470588235
 21
-95.8
 31
0.0
  0
LINE
  5
FD
330
1F
100
AcDbEntity
  8
1
  6
Continuous
 62
     4
100
AcDbLine
 10
60.20588235294117
 20
-95.0
 30
0.0
 11
59.67647058823529
 21
-95.3
 31
0.0
  0
LINE
  5
FE
330
1F
100
AcDbEntity
  8
1
  6
Continuous
 62
     4
100
AcDbLine
 10
60.64705882352941
 20
-95.1
 30
0.0
 11
60.20588235294117
 21
-95.0
 31
0.0
  0
LINE
  5
FF
330
1F
100
AcDbEntity
  8
1
  6
Continuous
 62
     4
100
AcDbLine
 10
60.91176470588235
 20
-95.3
 30
0.0
 11
60.64705882352941
 21
-95.1
 31
0.0
  0
LINE
  5
100
330
1F
100
AcDbEntity
  8
1
  6
Continuous
 62
     4
100
AcDbLine
 10
61.17647058823529
 20
-95.6
 30
0.0
 11
60.91176470588235
 21
-95.3
 31
0.0
  0
LINE
  5
101
330
1F
100
AcDbEntity
  8
1
  6
Continuous
 62
     4
100
AcDbLine
 10
56.85294117647059
 20
-96.5
 30
0.0
 11
58.44117647058823
 21
-96.5
 31
0.0
  0
LINE
  5
102
330
1F
100
AcDbEntity
  8
1
  6
Continuous
 62
     4
100
AcDbLine
 10
54.73529411764706
 20
-95.0
 30
0.0
 11
55.44117647058823
 21
-95.0
 31
0.0
  0
LINE
  5
103
330
1F
100
AcDbEntity
  8
1
  6
Continuous
 62
     4
100
AcDbLine
 10
55.44117647058823
 20
-95.0
 30
0.0
 11
55.97058823529412
 21
-95.0
 31
0.0
  0
LINE
  5
104
330
1F
100
AcDbEntity
  8
1
  6
Continuous
 62
     4
100
AcDbLine
 10
55.44117647058823
 20
-98.0
 30
0.0
 11
54.20588235294117
 21
-98.0
 31
0.0
  0
LINE
  5
105
330
1F
100
AcDbEntity
  8
1
  6
Continuous
 62
     4
100
AcDbLine
 10
55.44117647058823
 20
-95.0
 30
0.0
 11
55.44117647058823
 21
-98.0
 31
0.0
  0
LINE
  5
106
330
1F
100
AcDbEntity
  8
1
  6
Continuous
 62
     4
100
AcDbLine
 10
54.20588235294117
 20
-95.0
 30
0.0
 11
54.73529411764706
 21
-95.0
 31
0.0
  0
LINE
  5
107
330
1F
100
AcDbEntity
  8
1
  6
Continuous
 62
     4
100
AcDbLine
 10
54.73529411764706
 20
-95.0
 30
0.0
 11
54.73529411764706
 21
-98.0
 31
0.0
  0
LINE
  5
108
330
1F
100
AcDbEntity
  8
1
  6
Continuous
 62
     4
100
AcDbLine
 10
55.97058823529412
 20
-98.0
 30
0.0
 11
55.44117647058823
 21
-98.0
 31
0.0
  0
LINE
  5
109
330
1F
100
AcDbEntity
  8
1
  6
Continuous
 62
     4
100
AcDbLine
 10
51.64705882352941
 20
-96.6
 30
0.0
 11
51.64705882352941
 21
-98.0
 31
0.0
  0
LINE
  5
10A
330
1F
100
AcDbEntity
  8
1
  6
Continuous
 62
     4
100
AcDbLine
 10
53.32352941176471
 20
-96.6
 30
0.0
 11
53.32352941176471
 21
-98.0
 31
0.0
  0
LINE
  5
10B
330
1F
100
AcDbEntity
  8
1
  6
Continuous
 62
     4
100
AcDbLine
 10
53.32352941176471
 20
-95.0
 30
0.0
 11
53.32352941176471
 21
-96.6
 31
0.0
  0
LINE
  5
10C
330
1F
100
AcDbEntity
  8
1
  6
Continuous
 62
     4
100
AcDbLine
 10
51.64705882352941
 20
-96.6
 30
0.0
 11
53.32352941176471
 21
-96.6
 31
0.0
  0
LINE
  5
10D
330
1F
100
AcDbEntity
  8
1
  6
Continuous
 62
     4
100
AcDbLine
 10
51.64705882352941
 20
-95.0
 30
0.0
 11
51.64705882352941
 21
-96.6
 31
0.0
  0
LINE
  5
10E
330
1F
100
AcDbEntity
  8
1
  6
Continuous
 62
     4
100
AcDbLine
 10
50.05882352941177
 20
-98.0
 30
0.0
 11
49.0
 21
-98.0
 31
0.0
  0
LINE
  5
10F
330
1F
100
AcDbEntity
  8
1
  6
Continuous
 62
     4
100
AcDbLine
 10
50.58823529411765
 20
-97.8
 30
0.0
 11
50.05882352941177
 21
-98.0
 31
0.0
  0
LINE
  5
110
330
1F
100
AcDbEntity
  8
1
  6
Continuous
 62
     4
100
AcDbLine
 10
50.76470588235294
 20
-97.3
 30
0.0
 11
50.58823529411765
 21
-97.8
 31
0.0
  0
LINE
  5
111
330
1F
100
AcDbEntity
  8
1
  6
Continuous
 62
     4
100
AcDbLine
 10
50.58823529411765
 20
-96.8
 30
0.0
 11
50.76470588235294
 21
-97.3
 31
0.0
  0
LINE
  5
112
330
1F
100
AcDbEntity
  8
1
  6
Continuous
 62
     4
100
AcDbLine
 10
50.05882352941177
 20
-96.6
 30
0.0
 11
50.58823529411765
 21
-96.8
 31
0.0
  0
LINE
  5
113
330
1F
100
AcDbEntity
  8
1
  6
Continuous
 62
     4
100
AcDbLine
 10
49.0
 20
-96.6
 30
0.0
 11
50.05882352941177
 21
-96.6
 31
0.0
  0
LINE
  5
114
330
1F
100
AcDbEntity
  8
1
  6
Continuous
 62
     4
100
AcDbLine
 10
50.05882352941177
 20
-96.6
 30
0.0
 11
49.0
 21
-96.6
 31
0.0
  0
LINE
  5
115
330
1F
100
AcDbEntity
  8
1
  6
Continuous
 62
     4
100
AcDbLine
 10
50.5
 20
-96.3
 30
0.0
 11
50.05882352941177
 21
-96.6
 31
0.0
  0
LINE
  5
116
330
1F
100
AcDbEntity
  8
1
  6
Continuous
 62
     4
100
AcDbLine
 10
50.58823529411765
 20
-95.9
 30
0.0
 11
50.5
 21
-96.3
 31
0.0
  0
LINE
  5
117
330
1F
100
AcDbEntity
  8
1
  6
Continuous
 62
     4
100
AcDbLine
 10
50.5
 20
-95.4
 30
0.0
 11
50.58823529411765
 21
-95.9
 31
0.0
  0
LINE
  5
118
330
1F
100
AcDbEntity
  8
1
  6
Continuous
 62
     4
100
AcDbLine
 10
50.05882352941177
 20
-95.2
 30
0.0
 11
50.5
 21
-95.4
 31
0.0
  0
LINE
  5
119
330
1F
100
AcDbEntity
  8
1
  6
Continuous
 62
     4
100
AcDbLine
 10
49.0
 20
-95.2
 30
0.0
 11
50.05882352941177
 21
-95.2
 31
0.0
  0
LINE
  5
11A
330
1F
100
AcDbEntity
  8
1
  6
Continuous
 62
     4
100
AcDbLine
 10
49.0
 20
-98.0
 30
0.0
 11
49.0
 21
-95.2
 31
0.0
  0
LINE
  5
11B
330
1F
100
AcDbEntity
  8
1
  6
Continuous
 62
     4
100
AcDbLine
 10
23.03287678828559
 20
-84.0
 30
0.0
 11
24.97405325887383
 21
-84.0
 31
0.0
  0
LINE
  5
11C
330
1F
100
AcDbEntity
  8
1
  6
Continuous
 62
     4
100
AcDbLine
 10
23.20934737652089
 20
-83.5
 30
0.0
 11
23.03287678828559
 21
-84.0
 31
0.0
  0
LINE
  5
11D
330
1F
100
AcDbEntity
  8
1
  6
Continuous
 62
     4
100
AcDbLine
 10
23.38581796475618
 20
-83.2
 30
0.0
 11
23.20934737652089
 21
-83.5
 31
0.0
  0
LINE
  5
11E
330
1F
100
AcDbEntity
  8
1
  6
Continuous
 62
     4
100
AcDbLine
 10
23.73875914122677
 20
-82.9
 30
0.0
 11
23.38581796475618
 21
-83.2
 31
0.0
  0
LINE
  5
11F
330
1F
100
AcDbEntity
  8
1
  6
Continuous
 62
     4
100
AcDbLine
 10
24.09170031769736
 20
-82.7
 30
0.0
 11
23.73875914122677
 21
-82.9
 31
0.0
  0
LINE
  5
120
330
1F
100
AcDbEntity
  8
1
  6
Continuous
 62
     4
100
AcDbLine
 10
24.53287678828559
 20
-82.4
 30
0.0
 11
24.09170031769736
 21
-82.7
 31
0.0
  0
LINE
  5
121
330
1F
100
AcDbEntity
  8
1
  6
Continuous
 62
     4
100
AcDbLine
 10
24.79758267063853
 20
-82.0
 30
0.0
 11
24.53287678828559
 21
-82.4
 31
0.0
  0
LINE
  5
122
330
1F
100
AcDbEntity
  8
1
  6
Continuous
 62
     4
100
AcDbLine
 10
24.88581796475618
 20
-81.6
 30
0.0
 11
24.79758267063853
 21
-82.0
 31
0.0
  0
LINE
  5
123
330
1F
100
AcDbEntity
  8
1
  6
Continuous
 62
     4
100
AcDbLine
 10
24.53287678828559
 20
-81.2
 30
0.0
 11
24.88581796475618
 21
-81.6
 31
0.0
  0
LINE
  5
124
330
1F
100
AcDbEntity
  8
1
  6
Continuous
 62
     4
100
AcDbLine
 10
24.00346502357971
 20
-81.0
 30
0.0
 11
24.53287678828559
 21
-81.2
 31
0.0
  0
LINE
  5
125
330
1F
100
AcDbEntity
  8
1
  6
Continuous
 62
     4
100
AcDbLine
 10
23.47405325887383
 20
-81.2
 30
0.0
 11
24.00346502357971
 21
-81.0
 31
0.0
  0
LINE
  5
126
330
1F
100
AcDbEntity
  8
1
  6
Continuous
 62
     4
100
AcDbLine
 10
23.12111208240324
 20
-81.6
 30
0.0
 11
23.47405325887383
 21
-81.2
 31
0.0
  0
LINE
  5
127
330
1F
100
AcDbEntity
  8
1
  6
Continuous
 62
     4
100
AcDbLine
 10
22.15052384710912
 20
-81.3
 30
0.0
 11
20.29758267063853
 21
-83.5
 31
0.0
  0
LINE
  5
128
330
1F
100
AcDbEntity
  8
1
  6
Continuous
 62
     4
100
AcDbLine
 10
19.41522972946207
 20
-81.0
 30
0.0
 11
19.41522972946207
 21
-84.0
 31
0.0
  0
LINE
  5
129
330
1F
100
AcDbEntity
  8
1
  6
Continuous
 62
     4
100
AcDbLine
 10
18.97405325887383
 20
-81.3
 30
0.0
 11
19.41522972946207
 21
-81.0
 31
0.0
  0
LINE
  5
12A
330
1F
100
AcDbEntity
  8
1
  6
Continuous
 62
     4
100
AcDbLine
 10
17.91522972946207
 20
-83.7
 30
0.0
 11
18.09170031769736
 21
-83.4
 31
0.0
  0
LINE
  5
12B
330
1F
100
AcDbEntity
  8
1
  6
Continuous
 62
     4
100
AcDbLine
 10
17.65052384710912
 20
-83.9
 30
0.0
 11
17.91522972946207
 21
-83.7
 31
0.0
  0
LINE
  5
12C
330
1F
100
AcDbEntity
  8
1
  6
Continuous
 62
     4
100
AcDbLine
 10
17.29758267063854
 20
-84.0
 30
0.0
 11
17.65052384710912
 21
-83.9
 31
0.0
  0
LINE
  5
12D
330
1F
100
AcDbEntity
  8
1
  6
Continuous
 62
     4
100
AcDbLine
 10
17.0328767882856
 20
-84.0
 30
0.0
 11
17.29758267063854
 21
-84.0
 31
0.0
  0
LINE
  5
12E
330
1F
100
AcDbEntity
  8
1
  6
Continuous
 62
     4
100
AcDbLine
 10
16.8564062000503
 20
-83.9
 30
0.0
 11
17.0328767882856
 21
-84.0
 31
0.0
  0
LINE
  5
12F
330
1F
100
AcDbEntity
  8
1
  6
Continuous
 62
     4
100
AcDbLine
 10
16.76817090593265
 20
-83.7
 30
0.0
 11
16.8564062000503
 21
-83.9
 31
0.0
  0
LINE
  5
130
330
1F
100
AcDbEntity
  8
1
  6
Continuous
 62
     4
100
AcDbLine
 10
16.67993561181501
 20
-83.4
 30
0.0
 11
16.76817090593265
 21
-83.7
 31
0.0
  0
LINE
  5
131
330
1F
100
AcDbEntity
  8
1
  6
Continuous
 62
     4
100
AcDbLine
 10
16.59170031769736
 20
-83.0
 30
0.0
 11
16.67993561181501
 21
-83.4
 31
0.0
  0
LINE
  5
132
330
1F
100
AcDbEntity
  8
1
  6
Continuous
 62
     4
100
AcDbLine
 10
16.67993561181501
 20
-82.5
 30
0.0
 11
16.59170031769736
 21
-83.0
 31
0.0
  0
LINE
  5
133
330
1F
100
AcDbEntity
  8
1
  6
Continuous
 62
     4
100
AcDbLine
 10
16.76817090593265
 20
-82.2
 30
0.0
 11
16.67993561181501
 21
-82.5
 31
0.0
  0
LINE
  5
134
330
1F
100
AcDbEntity
  8
1
  6
Continuous
 62
     4
100
AcDbLine
 10
16.94464149416795
 20
-81.9
 30
0.0
 11
16.76817090593265
 21
-82.2
 31
0.0
  0
LINE
  5
135
330
1F
100
AcDbEntity
  8
1
  6
Continuous
 62
     4
100
AcDbLine
 10
17.29758267063854
 20
-81.8
 30
0.0
 11
16.94464149416795
 21
-81.9
 31
0.0
  0
LINE
  5
136
330
1F
100
AcDbEntity
  8
1
  6
Continuous
 62
     4
100
AcDbLine
 10
17.65052384710912
 20
-81.9
 30
0.0
 11
17.29758267063854
 21
-81.8
 31
0.0
  0
LINE
  5
137
330
1F
100
AcDbEntity
  8
1
  6
Continuous
 62
     4
100
AcDbLine
 10
17.91522972946207
 20
-82.1
 30
0.0
 11
17.65052384710912
 21
-81.9
 31
0.0
  0
LINE
  5
138
330
1F
100
AcDbEntity
  8
1
  6
Continuous
 62
     4
100
AcDbLine
 10
18.09170031769736
 20
-82.3
 30
0.0
 11
17.91522972946207
 21
-82.1
 31
0.0
  0
LINE
  5
139
330
1F
100
AcDbEntity
  8
1
  6
Continuous
 62
     4
100
AcDbLine
 10
13.8564062000503
 20
-82.6
 30
0.0
 11
13.8564062000503
 21
-81.0
 31
0.0
  0
LINE
  5
13A
330
1F
100
AcDbEntity
  8
1
  6
Continuous
 62
     4
100
AcDbLine
 10
15.00346502357971
 20
-82.6
 30
0.0
 11
15.70934737652089
 21
-84.0
 31
0.0
  0
LINE
  5
13B
330
1F
100
AcDbEntity
  8
1
  6
Continuous
 62
     4
100
AcDbLine
 10
15.00346502357971
 20
-82.6
 30
0.0
 11
13.8564062000503
 21
-82.6
 31
0.0
  0
LINE
  5
13C
330
1F
100
AcDbEntity
  8
1
  6
Continuous
 62
     4
100
AcDbLine
 10
15.3564062000503
 20
-82.4
 30
0.0
 11
15.00346502357971
 21
-82.6
 31
0.0
  0
LINE
  5
13D
330
1F
100
AcDbEntity
  8
1
  6
Continuous
 62
     4
100
AcDbLine
 10
15.53287678828559
 20
-82.2
 30
0.0
 11
15.3564062000503
 21
-82.4
 31
0.0
  0
LINE
  5
13E
330
1F
100
AcDbEntity
  8
1
  6
Continuous
 62
     4
100
AcDbLine
 10
15.62111208240324
 20
-81.8
 30
0.0
 11
15.53287678828559
 21
-82.2
 31
0.0
  0
LINE
  5
13F
330
1F
100
AcDbEntity
  8
1
  6
Continuous
 62
     4
100
AcDbLine
 10
15.53287678828559
 20
-81.5
 30
0.0
 11
15.62111208240324
 21
-81.8
 31
0.0
  0
LINE
  5
140
330
1F
100
AcDbEntity
  8
1
  6
Continuous
 62
     4
100
AcDbLine
 10
15.3564062000503
 20
-81.2
 30
0.0
 11
15.53287678828559
 21
-81.5
 31
0.0
  0
LINE
  5
141
330
1F
100
AcDbEntity
  8
1
  6
Continuous
 62
     4
100
AcDbLine
 10
15.00346502357971
 20
-81.0
 30
0.0
 11
15.3564062000503
 21
-81.2
 31
0.0
  0
LINE
  5
142
330
1F
100
AcDbEntity
  8
1
  6
Continuous
 62
     4
100
AcDbLine
 10
13.8564062000503
 20
-81.0
 30
0.0
 11
15.00346502357971
 21
-81.0
 31
0.0
  0
LINE
  5
143
330
1F
100
AcDbEntity
  8
1
  6
Continuous
 62
     4
100
AcDbLine
 10
13.8564062000503
 20
-84.0
 30
0.0
 11
13.8564062000503
 21
-82.6
 31
0.0
  0
LINE
  5
144
330
1F
100
AcDbEntity
  8
1
  6
Continuous
 62
     4
100
AcDbLine
 10
-72.38566196959354
 20
-10.1078516537454
 30
0.0
 11
-72.38566196959354
 21
-13.1078516537454
 31
0.0
  0
LINE
  5
145
330
1F
100
AcDbEntity
  8
1
  6
Continuous
 62
     4
100
AcDbLine
 10
-72.82683844018177
 20
-10.4078516537454
 30
0.0
 11
-72.38566196959354
 21
-10.1078516537454
 31
0.0
  0
LINE
  5
146
330
1F
100
AcDbEntity
  8
1
  6
Continuous
 62
     4
100
AcDbLine
 10
-73.88566196959353
 20
-12.8078516537454
 30
0.0
 11
-73.70919138135824
 21
-12.5078516537454
 31
0.0
  0
LINE
  5
147
330
1F
100
AcDbEntity
  8
1
  6
Continuous
 62
     4
100
AcDbLine
 10
-74.15036785194647
 20
-13.0078516537454
 30
0.0
 11
-73.88566196959353
 21
-12.8078516537454
 31
0.0
  0
LINE
  5
148
330
1F
100
AcDbEntity
  8
1
  6
Continuous
 62
     4
100
AcDbLine
 10
-74.50330902841706
 20
-13.1078516537454
 30
0.0
 11
-74.15036785194647
 21
-13.0078516537454
 31
0.0
  0
LINE
  5
149
330
1F
100
AcDbEntity
  8
1
  6
Continuous
 62
     4
100
AcDbLine
 10
-74.76801491077
 20
-13.1078516537454
 30
0.0
 11
-74.50330902841706
 21
-13.1078516537454
 31
0.0
  0
LINE
  5
14A
330
1F
100
AcDbEntity
  8
1
  6
Continuous
 62
     4
100
AcDbLine
 10
-74.9444854990053
 20
-13.0078516537454
 30
0.0
 11
-74.76801491077
 21
-13.1078516537454
 31
0.0
  0
LINE
  5
14B
330
1F
100
AcDbEntity
  8
1
  6
Continuous
 62
     4
100
AcDbLine
 10
-75.03272079312295
 20
-12.8078516537454
 30
0.0
 11
-74.9444854990053
 21
-13.0078516537454
 31
0.0
  0
LINE
  5
14C
330
1F
100
AcDbEntity
  8
1
  6
Continuous
 62
     4
100
AcDbLine
 10
-75.12095608724059
 20
-12.5078516537454
 30
0.0
 11
-75.03272079312295
 21
-12.8078516537454
 31
0.0
  0
LINE
  5
14D
330
1F
100
AcDbEntity
  8
1
  6
Continuous
 62
     4
100
AcDbLine
 10
-75.20919138135824
 20
-12.1078516537454
 30
0.0
 11
-75.12095608724059
 21
-12.5078516537454
 31
0.0
  0
LINE
  5
14E
330
1F
100
AcDbEntity
  8
1
  6
Continuous
 62
     4
100
AcDbLine
 10
-75.12095608724059
 20
-11.6078516537454
 30
0.0
 11
-75.20919138135824
 21
-12.1078516537454
 31
0.0
  0
LINE
  5
14F
330
1F
100
AcDbEntity
  8
1
  6
Continuous
 62
     4
100
AcDbLine
 10
-75.03272079312295
 20
-11.3078516537454
 30
0.0
 11
-75.12095608724059
 21
-11.6078516537454
 31
0.0
  0
LINE
  5
150
330
1F
100
AcDbEntity
  8
1
  6
Continuous
 62
     4
100
AcDbLine
 10
-74.85625020488764
 20
-11.0078516537454
 30
0.0
 11
-75.03272079312295
 21
-11.3078516537454
 31
0.0
  0
LINE
  5
151
330
1F
100
AcDbEntity
  8
1
  6
Continuous
 62
     4
100
AcDbLine
 10
-74.50330902841706
 20
-10.9078516537454
 30
0.0
 11
-74.85625020488764
 21
-11.0078516537454
 31
0.0
  0
LINE
  5
152
330
1F
100
AcDbEntity
  8
1
  6
Continuous
 62
     4
100
AcDbLine
 10
-74.15036785194647
 20
-11.0078516537454
 30
0.0
 11
-74.50330902841706
 21
-10.9078516537454
 31
0.0
  0
LINE
  5
153
330
1F
100
AcDbEntity
  8
1
  6
Continuous
 62
     4
100
AcDbLine
 10
-73.88566196959353
 20
-11.2078516537454
 30
0.0
 11
-74.15036785194647
 21
-11.0078516537454
 31
0.0
  0
LINE
  5
154
330
1F
100
AcDbEntity
  8
1
  6
Continuous
 62
     4
100
AcDbLine
 10
-73.70919138135824
 20
-11.4078516537454
 30
0.0
 11
-73.88566196959353
 21
-11.2078516537454
 31
0.0
  0
LINE
  5
155
330
1F
100
AcDbEntity
  8
1
  6
Continuous
 62
     4
100
AcDbLine
 10
-77.9444854990053
 20
-11.7078516537454
 30
0.0
 11
-77.9444854990053
 21
-10.1078516537454
 31
0.0
  0
LINE
  5
156
330
1F
100
AcDbEntity
  8
1
  6
Continuous
 62
     4
100
AcDbLine
 10
-76.79742667547589
 20
-11.7078516537454
 30
0.0
 11
-76.0915443225347
 21
-13.1078516537454
 31
0.0
  0
LINE
  5
157
330
1F
100
AcDbEntity
  8
1
  6
Continuous
 62
     4
100
AcDbLine
 10
-76.79742667547589
 20
-11.7078516537454
 30
0.0
 11
-77.9444854990053
 21
-11.7078516537454
 31
0.0
  0
LINE
  5
158
330
1F
100
AcDbEntity
  8
1
  6
Continuous
 62
     4
100
AcDbLine
 10
-76.4444854990053
 20
-11.5078516537454
 30
0.0
 11
-76.79742667547589
 21
-11.7078516537454
 31
0.0
  0
LINE
  5
159
330
1F
100
AcDbEntity
  8
1
  6
Continuous
 62
     4
100
AcDbLine
 10
-76.26801491077
 20
-11.3078516537454
 30
0.0
 11
-76.4444854990053
 21
-11.5078516537454
 31
0.0
  0
LINE
  5
15A
330
1F
100
AcDbEntity
  8
1
  6
Continuous
 62
     4
100
AcDbLine
 10
-76.17977961665235
 20
-10.9078516537454
 30
0.0
 11
-76.26801491077
 21
-11.3078516537454
 31
0.0
  0
LINE
  5
15B
330
1F
100
AcDbEntity
  8
1
  6
Continuous
 62
     4
100
AcDbLine
 10
-76.26801491077
 20
-10.6078516537454
 30
0.0
 11
-76.17977961665235
 21
-10.9078516537454
 31
0.0
  0
LINE
  5
15C
330
1F
100
AcDbEntity
  8
1
  6
Continuous
 62
     4
100
AcDbLine
 10
-76.4444854990053
 20
-10.3078516537454
 30
0.0
 11
-76.26801491077
 21
-10.6078516537454
 31
0.0
  0
LINE
  5
15D
330
1F
100
AcDbEntity
  8
1
  6
Continuous
 62
     4
100
AcDbLine
 10
-76.79742667547589
 20
-10.1078516537454
 30
0.0
 11
-76.4444854990053
 21
-10.3078516537454
 31
0.0
  0
LINE
  5
15E
330
1F
100
AcDbEntity
  8
1
  6
Continuous
 62
     4
100
AcDbLine
 10
-77.9444854990053
 20
-10.1078516537454
 30
0.0
 11
-76.79742667547589
 21
-10.1078516537454
 31
0.0
  0
LINE
  5
15F
330
1F
100
AcDbEntity
  8
1
  6
Continuous
 62
     4
100
AcDbLine
 10
-77.9444854990053
 20
-13.1078516537454
 30
0.0
 11
-77.9444854990053
 21
-11.7078516537454
 31
0.0
  0
LINE
  5
160
330
1F
100
AcDbEntity
  8
1
  6
Continuous
 62
     4
100
AcDbLine
 10
76.50330902841705
 20
-10.1078516537454
 30
0.0
 11
76.50330902841705
 21
-13.1078516537454
 31
0.0
  0
LINE
  5
161
330
1F
100
AcDbEntity
  8
1
  6
Continuous
 62
     4
100
AcDbLine
 10
76.06213255782882
 20
-10.4078516537454
 30
0.0
 11
76.50330902841705
 21
-10.1078516537454
 31
0.0
  0
LINE
  5
162
330
1F
100
AcDbEntity
  8
1
  6
Continuous
 62
     4
100
AcDbLine
 10
75.00330902841706
 20
-12.8078516537454
 30
0.0
 11
75.17977961665235
 21
-12.5078516537454
 31
0.0
  0
LINE
  5
163
330
1F
100
AcDbEntity
  8
1
  6
Continuous
 62
     4
100
AcDbLine
 10
74.73860314606412
 20
-13.0078516537454
 30
0.0
 11
75.00330902841706
 21
-12.8078516537454
 31
0.0
  0
LINE
  5
164
330
1F
100
AcDbEntity
  8
1
  6
Continuous
 62
     4
100
AcDbLine
 10
74.38566196959353
 20
-13.1078516537454
 30
0.0
 11
74.73860314606412
 21
-13.0078516537454
 31
0.0
  0
LINE
  5
165
330
1F
100
AcDbEntity
  8
1
  6
Continuous
 62
     4
100
AcDbLine
 10
74.12095608724059
 20
-13.1078516537454
 30
0.0
 11
74.38566196959353
 21
-13.1078516537454
 31
0.0
  0
LINE
  5
166
330
1F
100
AcDbEntity
  8
1
  6
Continuous
 62
     4
100
AcDbLine
 10
73.9444854990053
 20
-13.0078516537454
 30
0.0
 11
74.12095608724059
 21
-13.1078516537454
 31
0.0
  0
LINE
  5
167
330
1F
100
AcDbEntity
  8
1
  6
Continuous
 62
     4
100
AcDbLine
 10
73.85625020488764
 20
-12.8078516537454
 30
0.0
 11
73.9444854990053
 21
-13.0078516537454
 31
0.0
  0
LINE
  5
168
330
1F
100
AcDbEntity
  8
1
  6
Continuous
 62
     4
100
AcDbLine
 10
73.76801491077
 20
-12.5078516537454
 30
0.0
 11
73.85625020488764
 21
-12.8078516537454
 31
0.0
  0
LINE
  5
169
330
1F
100
AcDbEntity
  8
1
  6
Continuous
 62
     4
100
AcDbLine
 10
73.67977961665235
 20
-12.1078516537454
 30
0.0
 11
73.76801491077
 21
-12.5078516537454
 31
0.0
  0
LINE
  5
16A
330
1F
100
AcDbEntity
  8
1
  6
Continuous
 62
     4
100
AcDbLine
 10
73.76801491077
 20
-11.6078516537454
 30
0.0
 11
73.67977961665235
 21
-12.1078516537454
 31
0.0
  0
LINE
  5
16B
330
1F
100
AcDbEntity
  8
1
  6
Continuous
 62
     4
100
AcDbLine
 10
73.85625020488764
 20
-11.3078516537454
 30
0.0
 11
73.76801491077
 21
-11.6078516537454
 31
0.0
  0
LINE
  5
16C
330
1F
100
AcDbEntity
  8
1
  6
Continuous
 62
     4
100
AcDbLine
 10
74.03272079312295
 20
-11.0078516537454
 30
0.0
 11
73.85625020488764
 21
-11.3078516537454
 31
0.0
  0
LINE
  5
16D
330
1F
100
AcDbEntity
  8
1
  6
Continuous
 62
     4
100
AcDbLine
 10
74.38566196959353
 20
-10.9078516537454
 30
0.0
 11
74.03272079312295
 21
-11.0078516537454
 31
0.0
  0
LINE
  5
16E
330
1F
100
AcDbEntity
  8
1
  6
Continuous
 62
     4
100
AcDbLine
 10
74.73860314606412
 20
-11.0078516537454
 30
0.0
 11
74.38566196959353
 21
-10.9078516537454
 31
0.0
  0
LINE
  5
16F
330
1F
100
AcDbEntity
  8
1
  6
Continuous
 62
     4
100
AcDbLine
 10
75.00330902841706
 20
-11.2078516537454
 30
0.0
 11
74.73860314606412
 21
-11.0078516537454
 31
0.0
  0
LINE
  5
170
330
1F
100
AcDbEntity
  8
1
  6
Continuous
 62
     4
100
AcDbLine
 10
75.17977961665235
 20
-11.4078516537454
 30
0.0
 11
75.00330902841706
 21
-11.2078516537454
 31
0.0
  0
LINE
  5
171
330
1F
100
AcDbEntity
  8
1
  6
Continuous
 62
     4
100
AcDbLine
 10
70.9444854990053
 20
-11.7078516537454
 30
0.0
 11
70.9444854990053
 21
-10.1078516537454
 31
0.0
  0
LINE
  5
172
330
1F
100
AcDbEntity
  8
1
  6
Continuous
 62
     4
100
AcDbLine
 10
72.0915443225347
 20
-11.7078516537454
 30
0.0
 11
72.79742667547589
 21
-13.1078516537454
 31
0.0
  0
LINE
  5
173
330
1F
100
AcDbEntity
  8
1
  6
Continuous
 62
     4
100
AcDbLine
 10
72.0915443225347
 20
-11.7078516537454
 30
0.0
 11
70.9444854990053
 21
-11.7078516537454
 31
0.0
  0
LINE
  5
174
330
1F
100
AcDbEntity
  8
1
  6
Continuous
 62
     4
100
AcDbLine
 10
72.4444854990053
 20
-11.5078516537454
 30
0.0
 11
72.0915443225347
 21
-11.7078516537454
 31
0.0
  0
LINE
  5
175
330
1F
100
AcDbEntity
  8
1
  6
Continuous
 62
     4
100
AcDbLine
 10
72.62095608724059
 20
-11.3078516537454
 30
0.0
 11
72.4444854990053
 21
-11.5078516537454
 31
0.0
  0
LINE
  5
176
330
1F
100
AcDbEntity
  8
1
  6
Continuous
 62
     4
100
AcDbLine
 10
72.70919138135824
 20
-10.9078516537454
 30
0.0
 11
72.62095608724059
 21
-11.3078516537454
 31
0.0
  0
LINE
  5
177
330
1F
100
AcDbEntity
  8
1
  6
Continuous
 62
     4
100
AcDbLine
 10
72.62095608724059
 20
-10.6078516537454
 30
0.0
 11
72.70919138135824
 21
-10.9078516537454
 31
0.0
  0
LINE
  5
178
330
1F
100
AcDbEntity
  8
1
  6
Continuous
 62
     4
100
AcDbLine
 10
72.4444854990053
 20
-10.3078516537454
 30
0.0
 11
72.62095608724059
 21
-10.6078516537454
 31
0.0
  0
LINE
  5
179
330
1F
100
AcDbEntity
  8
1
  6
Continuous
 62
     4
100
AcDbLine
 10
72.0915443225347
 20
-10.1078516537454
 30
0.0
 11
72.4444854990053
 21
-10.3078516537454
 31
0.0
  0
LINE
  5
17A
330
1F
100
AcDbEntity
  8
1
  6
Continuous
 62
     4
100
AcDbLine
 10
70.9444854990053
 20
-10.1078516537454
 30
0.0
 11
72.0915443225347
 21
-10.1078516537454
 31
0.0
  0
LINE
  5
17B
330
1F
100
AcDbEntity
  8
1
  6
Continuous
 62
     4
100
AcDbLine
 10
70.9444854990053
 20
-13.1078516537454
 30
0.0
 11
70.9444854990053
 21
-11.7078516537454
 31
0.0
  0
LINE
  5
17C
330
1F
100
AcDbEntity
  8
1
  6
Continuous
 62
     3
100
AcDbLine
 10
158.000000000001
 20
-38.9001253250114
 30
0.0
 11
121.999999999999
 21
-38.9001253250114
 31
0.0
  0
LINE
  5
17D
330
1F
100
AcDbEntity
  8
1
  6
Continuous
 62
     3
100
AcDbLine
 10
157.5
 20
74.84519763057352
 30
0.0
 11
153.3315726952087
 21
76.3207107989005
 31
0.0
  0
LINE
  5
17E
330
1F
100
AcDbEntity
  8
1
  6
Continuous
 62
     3
100
AcDbLine
 10
126.6684273047913
 20
76.3207107989005
 30
0.0
 11
122.5
 21
74.84519763057352
 31
0.0
  0
LINE
  5
17F
330
1F
100
AcDbEntity
  8
0
  6
Continuous
 62
     3
100
AcDbLine
 10
159.0
 20
14.2735627220426
 30
0.0
 11
159.0
 21
18.171556117034
 31
0.0
  0
LINE
  5
180
330
1F
100
AcDbEntity
  8
0
  6
Continuous
 62
     3
100
AcDbLine
 10
121.0
 20
14.2735627220426
 30
0.0
 11
121.0
 21
18.1715561303355
 31
0.0
  0
LINE
  5
181
330
1F
100
AcDbEntity
  8
1
  6
Continuous
 62
     3
100
AcDbLine
 10
162.516660498395
 20
-8.30662386291811
 30
0.0
 11
162.516660498395
 21
8.30662386291938
 31
0.0
  0
LINE
  5
182
330
1F
100
AcDbEntity
  8
1
  6
Continuous
 62
     3
100
AcDbLine
 10
149.486661392175
 20
-22.0454815241178
 30
0.0
 11
159.0
 21
-14.6628782986152
 31
0.0
  0
LINE
  5
183
330
1F
100
AcDbEntity
  8
1
  6
Continuous
 62
     3
100
AcDbLine
 10
121.0
 20
-14.6628782986152
 30
0.0
 11
130.513338607825
 21
-22.0454815241178
 31
0.0
  0
LINE
  5
184
330
1F
100
AcDbEntity
  8
1
  6
Continuous
 62
     3
100
AcDbLine
 10
117.483339501605
 20
8.30662386291938
 30
0.0
 11
117.483339501605
 21
-8.30662386291811
 31
0.0
  0
LINE
  5
185
330
1F
100
AcDbEntity
  8
1
  6
Continuous
 62
     3
100
AcDbLine
 10
149.486661392175
 20
22.0454815241178
 30
0.0
 11
159.710186451893
 21
13.693376137082
 31
0.0
  0
LINE
  5
186
330
1F
100
AcDbEntity
  8
1
  6
Continuous
 62
     3
100
AcDbLine
 10
130.513338607825
 20
22.0454815241178
 30
0.0
 11
120.289813548107
 21
13.693376137082
 31
0.0
  0
LINE
  5
187
330
1F
100
AcDbEntity
  8
1
  6
DOT_CENTER
 62
     1
100
AcDbLine
 10
0.0
 20
-72.0000002255982
 30
0.0
 11
0.0
 21
140.500000000001
 31
0.0
  0
LINE
  5
188
330
1F
100
AcDbEntity
  8
0
  6
Continuous
 62
     3
100
AcDbLine
 10
-20.5
 20
54.3349364905392
 30
0.0
 11
-20.5000000000001
 21
23.6469662896008
 31
0.0
  0
LINE
  5
189
330
1F
100
AcDbEntity
  8
1
  6
Continuous
 62
     3
100
AcDbLine
 10
-31.610007444483
 20
-19.0
 30
0.0
 11
-30.6446797409389
 21
-19.0
 31
0.0
  0
LINE
  5
18A
330
1F
100
AcDbEntity
  8
0
  6
Continuous
 62
     3
100
AcDbLine
 10
-30.6446797409389
 20
-19.0
 30
0.0
 11
-20.9999994901912
 21
-19.0
 31
0.0
  0
LINE
  5
18B
330
1F
100
AcDbEntity
  8
1
  6
Continuous
 62
     3
100
AcDbLine
 10
-22.565864689025
 20
-8.83267019358738
 30
0.0
 11
-30.0441427554579
 21
-18.2442137178413
 31
0.0
  0
LINE
  5
18C
330
1F
100
AcDbEntity
  8
1
  6
Continuous
 62
     3
100
AcDbLine
 10
30.6446797409388
 20
19.0
 30
0.0
 11
31.6100074444829
 21
19.0
 31
0.0
  0
LINE
  5
18D
330
1F
100
AcDbEntity
  8
0
  6
Continuous
 62
     3
100
AcDbLine
 10
21.0
 20
19.0
 30
0.0
 11
30.6446797409388
 21
19.0
 31
0.0
  0
LINE
  5
18E
330
1F
100
AcDbEntity
  8
0
  6
Continuous
 62
     3
100
AcDbLine
 10
-54.9999999999982
 20
21.5
 30
0.0
 11
-54.9999999999999
 21
17.0
 31
0.0
  0
LINE
  5
18F
330
1F
100
AcDbEntity
  8
0
  6
Continuous
 62
     3
100
AcDbLine
 10
31.6100074444829
 20
19.0
 30
0.0
 11
35.7585481156726
 21
19.0
 31
0.0
  0
LINE
  5
190
330
1F
100
AcDbEntity
  8
0
  6
Continuous
 62
     3
100
AcDbLine
 10
-39.8
 20
24.0
 30
0.0
 11
-53.5566243270259
 21
24.0
 31
0.0
  0
LINE
  5
191
330
1F
100
AcDbEntity
  8
0
  6
Continuous
 62
     3
100
AcDbLine
 10
-54.9999999999982
 20
21.5
 30
0.0
 11
-53.5566243270259
 21
24.0
 31
0.0
  0
LINE
  5
192
330
1F
100
AcDbEntity
  8
0
  6
Continuous
 62
     3
100
AcDbLine
 10
-54.9999999999999
 20
17.0
 30
0.0
 11
-54.9999999999999
 21
-17.0
 31
0.0
  0
LINE
  5
193
330
1F
100
AcDbEntity
  8
0
  6
Continuous
 62
     3
100
AcDbLine
 10
-31.4336649374954
 20
-13.36633663365
 30
0.0
 11
-31.4999999999999
 21
-13.36633663365
 31
0.0
  0
LINE
  5
194
330
1F
100
AcDbEntity
  8
0
  6
Continuous
 62
     3
100
AcDbLine
 10
-35.7585481156726
 20
19.0
 30
0.0
 11
-31.0945665120482
 21
19.0
 31
0.0
  0
LINE
  5
195
330
1F
100
AcDbEntity
  8
0
  6
Continuous
 62
     3
100
AcDbLine
 10
-35.7585481156726
 20
-19.0
 30
0.0
 11
-31.610007444483
 21
-19.0
 31
0.0
  0
LINE
  5
196
330
1F
100
AcDbEntity
  8
0
  6
Continuous
 62
     3
100
AcDbLine
 10
-37.4905989232396
 20
20.0
 30
0.0
 11
-39.8
 21
24.0
 31
0.0
  0
LINE
  5
197
330
1F
100
AcDbEntity
  8
0
  6
Continuous
 62
     3
100
AcDbLine
 10
19.0
 20
26.5762518389415
 30
0.0
 11
19.0000000000001
 21
10.0768839114286
 31
0.0
  0
LINE
  5
198
330
1F
100
AcDbEntity
  8
0
  6
Continuous
 62
     3
100
AcDbLine
 10
-54.9999999999982
 20
-21.5000000000001
 30
0.0
 11
-53.5566243270259
 21
-24.0
 31
0.0
  0
LINE
  5
199
330
1F
100
AcDbEntity
  8
0
  6
Continuous
 62
     3
100
AcDbLine
 10
-39.8
 20
-24.0
 30
0.0
 11
-53.5566243270259
 21
-24.0
 31
0.0
  0
LINE
  5
19A
330
1F
100
AcDbEntity
  8
0
  6
Continuous
 62
     3
100
AcDbLine
 10
-54.9999999999999
 20
-17.0
 30
0.0
 11
-54.9999999999982
 21
-21.5000000000001
 31
0.0
  0
LINE
  5
19B
330
1F
100
AcDbEntity
  8
0
  6
Continuous
 62
     3
100
AcDbLine
 10
55.0
 20
-17.0000000000001
 30
0.0
 11
55.0000000000003
 21
-21.4999999999997
 31
0.0
  0
LINE
  5
19C
330
1F
100
AcDbEntity
  8
0
  6
Continuous
 62
     3
100
AcDbLine
 10
53.5566243270259
 20
-24.0
 30
0.0
 11
39.7999999999999
 21
-24.0000000000001
 31
0.0
  0
LINE
  5
19D
330
1F
100
AcDbEntity
  8
0
  6
Continuous
 62
     3
100
AcDbLine
 10
32.0204859639891
 20
-19.0
 30
0.0
 11
35.7585481156726
 21
-19.0
 31
0.0
  0
LINE
  5
19E
330
1F
100
AcDbEntity
  8
0
  6
Continuous
 62
     3
100
AcDbLine
 10
-37.4905989232396
 20
-20.0000000000001
 30
0.0
 11
-39.8
 21
-24.0
 31
0.0
  0
LINE
  5
19F
330
1F
100
AcDbEntity
  8
0
  6
Continuous
 62
     3
100
AcDbLine
 10
37.4905989232415
 20
20.0
 30
0.0
 11
39.7999999999999
 21
24.0
 31
0.0
  0
LINE
  5
1A0
330
1F
100
AcDbEntity
  8
1
  6
Continuous
 62
     3
100
AcDbLine
 10
-21.8799896891342
 20
21.745921173983
 30
0.0
 11
-16.3799076477999
 21
23.539599706235
 31
0.0
  0
LINE
  5
1A1
330
1F
100
AcDbEntity
  8
0
  6
Continuous
 62
     3
100
AcDbLine
 10
-17.4127545559482
 20
27.8921908983253
 30
0.0
 11
-19.0523492450537
 21
27.9494469216819
 31
0.0
  0
LINE
  5
1A2
330
1F
100
AcDbEntity
  8
0
  6
Continuous
 62
     3
100
AcDbLine
 10
15.0
 20
24.8048057076843
 30
0.0
 11
14.9999971537747
 21
25.3937138307776
 31
0.0
  0
LINE
  5
1A3
330
1F
100
AcDbEntity
  8
0
  6
Continuous
 62
     3
100
AcDbLine
 10
17.4127479542029
 20
27.8921908983253
 30
0.0
 11
19.0523492450539
 21
27.9494469216819
 31
0.0
  0
LINE
  5
1A4
330
1F
100
AcDbEntity
  8
0
  6
Continuous
 62
     3
100
AcDbLine
 10
-20.5
 20
30.4999999999991
 30
0.0
 11
-20.5000000000001
 21
23.6469662896008
 31
0.0
  0
LINE
  5
1A5
330
1F
100
AcDbEntity
  8
1
  6
Continuous
 62
     3
100
AcDbLine
 10
30.0441427554579
 20
18.2442137178413
 30
0.0
 11
22.5658646890251
 21
8.83267019358732
 31
0.0
  0
LINE
  5
1A6
330
1F
100
AcDbEntity
  8
0
  6
Continuous
 62
     3
100
AcDbLine
 10
-54.7113248654034
 20
-22.0000000000001
 30
0.0
 11
-54.9999999999982
 21
-21.5000000000001
 31
0.0
  0
LINE
  5
1A7
330
1F
100
AcDbEntity
  8
0
  6
Continuous
 62
     3
100
AcDbLine
 10
-54.9999999999983
 20
0.0
 30
0.0
 11
-54.9999999999982
 21
-21.5000000000001
 31
0.0
  0
LINE
  5
1A8
330
1F
100
AcDbEntity
  8
0
  6
Continuous
 62
     3
100
AcDbLine
 10
-39.7999999999859
 20
11.0
 30
0.0
 11
-39.7999999999737
 21
8.30662386294484
 31
0.0
  0
LINE
  5
1A9
330
1F
100
AcDbEntity
  8
0
  6
Continuous
 62
     3
100
AcDbLine
 10
-53.5566243270364
 20
11.0
 30
0.0
 11
-53.5566243270241
 21
8.30662386291801
 31
0.0
  0
LINE
  5
1AA
330
1F
100
AcDbEntity
  8
0
  6
Continuous
 62
     3
100
AcDbLine
 10
-53.5566243270241
 20
8.30662386291801
 30
0.0
 11
-39.7999999999737
 21
8.30662386294484
 31
0.0
  0
LINE
  5
1AB
330
1F
100
AcDbEntity
  8
0
  6
Continuous
 62
     3
100
AcDbLine
 10
-53.5566243270488
 20
-8.30662386291811
 30
0.0
 11
-39.7999999999982
 21
-8.30662386291811
 31
0.0
  0
LINE
  5
1AC
330
1F
100
AcDbEntity
  8
0
  6
Continuous
 62
     3
100
AcDbLine
 10
-38.6452994616189
 20
-22.0000000000001
 30
0.0
 11
-37.4905989232396
 21
-20.0000000000001
 31
0.0
  0
LINE
  5
1AD
330
1F
100
AcDbEntity
  8
0
  6
Continuous
 62
     3
100
AcDbLine
 10
-37.4905989232396
 20
20.0
 30
0.0
 11
-38.6452994616189
 21
22.0
 31
0.0
  0
LINE
  5
1AE
330
1F
100
AcDbEntity
  8
0
  6
Continuous
 62
     3
100
AcDbLine
 10
-39.7999999999737
 20
13.6933761370551
 30
0.0
 11
-53.5566243270241
 21
13.693376137082
 31
0.0
  0
LINE
  5
1AF
330
1F
100
AcDbEntity
  8
0
  6
Continuous
 62
     3
100
AcDbLine
 10
-53.5566243270241
 20
13.693376137082
 30
0.0
 11
-53.5566243270364
 21
11.0
 31
0.0
  0
LINE
  5
1B0
330
1F
100
AcDbEntity
  8
0
  6
Continuous
 62
     3
100
AcDbLine
 10
-39.7999999999737
 20
13.6933761370551
 30
0.0
 11
-39.7999999999859
 21
11.0
 31
0.0
  0
LINE
  5
1B1
330
1F
100
AcDbEntity
  8
0
  6
Continuous
 62
     3
100
AcDbLine
 10
-54.9999999999982
 20
21.5
 30
0.0
 11
-54.9999999999983
 21
0.0
 31
0.0
  0
LINE
  5
1B2
330
1F
100
AcDbEntity
  8
0
  6
Continuous
 62
     3
100
AcDbLine
 10
-54.9999999999982
 20
21.5
 30
0.0
 11
-54.7113248654034
 21
22.0
 31
0.0
  0
LINE
  5
1B3
330
1F
100
AcDbEntity
  8
1
  6
Continuous
 62
     3
100
AcDbLine
 10
-53.5566243270259
 20
24.0
 30
0.0
 11
-53.5566243270259
 21
21.9999999999866
 31
0.0
  0
LINE
  5
1B4
330
1F
100
AcDbEntity
  8
1
  6
Continuous
 62
     3
100
AcDbLine
 10
-39.8
 20
24.0
 30
0.0
 11
-39.8
 21
21.9999999999866
 31
0.0
  0
LINE
  5
1B5
330
1F
100
AcDbEntity
  8
1
  6
Continuous
 62
     3
100
AcDbLine
 10
-53.5566243270259
 20
22.0454815241178
 30
0.0
 11
-39.8
 21
22.0454815241178
 31
0.0
  0
LINE
  5
1B6
330
1F
100
AcDbEntity
  8
1
  6
Continuous
 62
     3
100
AcDbLine
 10
-39.8
 20
-22.0454815241178
 30
0.0
 11
-53.5566243270259
 21
-22.0454815241178
 31
0.0
  0
LINE
  5
1B7
330
1F
100
AcDbEntity
  8
1
  6
Continuous
 62
     3
100
AcDbLine
 10
-53.5566243270259
 20
-21.9999999999866
 30
0.0
 11
-53.5566243270259
 21
-24.0
 31
0.0
  0
LINE
  5
1B8
330
1F
100
AcDbEntity
  8
1
  6
Continuous
 62
     3
100
AcDbLine
 10
-39.8
 20
-21.9999999999866
 30
0.0
 11
-39.8
 21
-24.0
 31
0.0
  0
LINE
  5
1B9
330
1F
100
AcDbEntity
  8
0
  6
Continuous
 62
     3
100
AcDbLine
 10
-53.5566243270241
 20
-13.693376137082
 30
0.0
 11
-39.7999999999737
 21
-13.6933761370551
 31
0.0
  0
LINE
  5
1BA
330
1F
100
AcDbEntity
  8
0
  6
Continuous
 62
     3
100
AcDbLine
 10
-39.7999999999982
 20
-8.30662386291811
 30
0.0
 11
-39.7999999999737
 21
-13.6933761370551
 31
0.0
  0
LINE
  5
1BB
330
1F
100
AcDbEntity
  8
0
  6
Continuous
 62
     3
100
AcDbLine
 10
-53.5566243270488
 20
-8.30662386291811
 30
0.0
 11
-53.5566243270241
 21
-13.693376137082
 31
0.0
  0
LINE
  5
1BC
330
1F
100
AcDbEntity
  8
0
  6
Continuous
 62
     3
100
AcDbLine
 10
53.5566243270241
 20
-13.693376137082
 30
0.0
 11
53.5566243270241
 21
-8.30662386291811
 31
0.0
  0
LINE
  5
1BD
330
1F
100
AcDbEntity
  8
0
  6
Continuous
 62
     3
100
AcDbLine
 10
39.7999999999737
 20
-13.6933761370551
 30
0.0
 11
39.7999999999982
 21
-8.30662386291811
 31
0.0
  0
LINE
  5
1BE
330
1F
100
AcDbEntity
  8
0
  6
Continuous
 62
     3
100
AcDbLine
 10
39.7999999999737
 20
-13.6933761370551
 30
0.0
 11
53.5566243270241
 21
-13.693376137082
 31
0.0
  0
LINE
  5
1BF
330
1F
100
AcDbEntity
  8
1
  6
Continuous
 62
     3
100
AcDbLine
 10
39.7999999999999
 20
-24.0000000000001
 30
0.0
 11
39.8
 21
-21.9999999999866
 31
0.0
  0
LINE
  5
1C0
330
1F
100
AcDbEntity
  8
1
  6
Continuous
 62
     3
100
AcDbLine
 10
53.5566243270259
 20
-24.0
 30
0.0
 11
53.5566243270259
 21
-21.9999999999866
 31
0.0
  0
LINE
  5
1C1
330
1F
100
AcDbEntity
  8
1
  6
Continuous
 62
     3
100
AcDbLine
 10
53.5566243270259
 20
-22.0454815241178
 30
0.0
 11
39.8
 21
-22.0454815241178
 31
0.0
  0
LINE
  5
1C2
330
1F
100
AcDbEntity
  8
1
  6
Continuous
 62
     3
100
AcDbLine
 10
39.8
 20
22.0454815241178
 30
0.0
 11
53.5566243270259
 21
22.0454815241178
 31
0.0
  0
LINE
  5
1C3
330
1F
100
AcDbEntity
  8
1
  6
Continuous
 62
     3
100
AcDbLine
 10
39.8
 20
21.9999999999866
 30
0.0
 11
39.7999999999999
 21
24.0
 31
0.0
  0
LINE
  5
1C4
330
1F
100
AcDbEntity
  8
1
  6
Continuous
 62
     3
100
AcDbLine
 10
53.5566243270259
 20
21.9999999999866
 30
0.0
 11
53.5566243270259
 21
24.0
 31
0.0
  0
LINE
  5
1C5
330
1F
100
AcDbEntity
  8
0
  6
Continuous
 62
     3
100
AcDbLine
 10
54.7113248654034
 20
22.0
 30
0.0
 11
55.0000000000003
 21
21.4999999999997
 31
0.0
  0
LINE
  5
1C6
330
1F
100
AcDbEntity
  8
0
  6
Continuous
 62
     3
100
AcDbLine
 10
54.9999999999983
 20
0.0
 30
0.0
 11
55.0000000000003
 21
21.4999999999997
 31
0.0
  0
LINE
  5
1C7
330
1F
100
AcDbEntity
  8
0
  6
Continuous
 62
     3
100
AcDbLine
 10
39.7999999999859
 20
11.0
 30
0.0
 11
39.7999999999737
 21
13.6933761370551
 31
0.0
  0
LINE
  5
1C8
330
1F
100
AcDbEntity
  8
0
  6
Continuous
 62
     3
100
AcDbLine
 10
53.5566243270364
 20
11.0
 30
0.0
 11
53.5566243270241
 21
13.693376137082
 31
0.0
  0
LINE
  5
1C9
330
1F
100
AcDbEntity
  8
0
  6
Continuous
 62
     3
100
AcDbLine
 10
53.5566243270241
 20
13.693376137082
 30
0.0
 11
39.7999999999737
 21
13.6933761370551
 31
0.0
  0
LINE
  5
1CA
330
1F
100
AcDbEntity
  8
0
  6
Continuous
 62
     3
100
AcDbLine
 10
38.6452994616189
 20
22.0
 30
0.0
 11
37.4905989232415
 21
20.0
 31
0.0
  0
LINE
  5
1CB
330
1F
100
AcDbEntity
  8
0
  6
Continuous
 62
     3
100
AcDbLine
 10
37.4905989232415
 20
-20.0
 30
0.0
 11
38.6452994616189
 21
-22.0000000000001
 31
0.0
  0
LINE
  5
1CC
330
1F
100
AcDbEntity
  8
0
  6
Continuous
 62
     3
100
AcDbLine
 10
39.7999999999982
 20
-8.30662386291811
 30
0.0
 11
53.5566243270241
 21
-8.30662386291811
 31
0.0
  0
LINE
  5
1CD
330
1F
100
AcDbEntity
  8
0
  6
Continuous
 62
     3
100
AcDbLine
 10
39.7999999999737
 20
8.30662386294484
 30
0.0
 11
53.5566243270241
 21
8.30662386291801
 31
0.0
  0
LINE
  5
1CE
330
1F
100
AcDbEntity
  8
0
  6
Continuous
 62
     3
100
AcDbLine
 10
53.5566243270241
 20
8.30662386291801
 30
0.0
 11
53.5566243270364
 21
11.0
 31
0.0
  0
LINE
  5
1CF
330
1F
100
AcDbEntity
  8
0
  6
Continuous
 62
     3
100
AcDbLine
 10
39.7999999999737
 20
8.30662386294484
 30
0.0
 11
39.7999999999859
 21
11.0
 31
0.0
  0
LINE
  5
1D0
330
1F
100
AcDbEntity
  8
0
  6
Continuous
 62
     3
100
AcDbLine
 10
55.0000000000003
 20
-21.4999999999997
 30
0.0
 11
54.9999999999983
 21
0.0
 31
0.0
  0
LINE
  5
1D1
330
1F
100
AcDbEntity
  8
0
  6
Continuous
 62
     3
100
AcDbLine
 10
55.0000000000003
 20
-21.4999999999997
 30
0.0
 11
54.7113248654034
 21
-22.0000000000001
 31
0.0
  0
LINE
  5
1D2
330
1F
100
AcDbEntity
  8
0
  6
Continuous
 62
     3
100
AcDbLine
 10
55.0000000000003
 20
-21.4999999999997
 30
0.0
 11
55.0
 21
-17.0000000000001
 31
0.0
  0
LINE
  5
1D3
330
1F
100
AcDbEntity
  8
0
  6
Continuous
 62
     3
100
AcDbLine
 10
53.5566243270259
 20
-24.0
 30
0.0
 11
55.0000000000003
 21
-21.4999999999997
 31
0.0
  0
LINE
  5
1D4
330
1F
100
AcDbEntity
  8
0
  6
Continuous
 62
     3
100
AcDbLine
 10
39.7999999999999
 20
24.0
 30
0.0
 11
37.4905989232415
 21
20.0
 31
0.0
  0
LINE
  5
1D5
330
1F
100
AcDbEntity
  8
0
  6
Continuous
 62
     3
100
AcDbLine
 10
55.0
 20
-17.0000000000001
 30
0.0
 11
55.0
 21
17.0
 31
0.0
  0
LINE
  5
1D6
330
1F
100
AcDbEntity
  8
0
  6
Continuous
 62
     3
100
AcDbLine
 10
53.5566243270259
 20
24.0
 30
0.0
 11
39.7999999999999
 21
24.0
 31
0.0
  0
LINE
  5
1D7
330
1F
100
AcDbEntity
  8
0
  6
Continuous
 62
     3
100
AcDbLine
 10
55.0000000000003
 20
21.4999999999997
 30
0.0
 11
55.0
 21
17.0
 31
0.0
  0
LINE
  5
1D8
330
1F
100
AcDbEntity
  8
0
  6
Continuous
 62
     3
100
AcDbLine
 10
55.0000000000003
 20
21.4999999999997
 30
0.0
 11
53.5566243270259
 21
24.0
 31
0.0
  0
LINE
  5
1D9
330
1F
100
AcDbEntity
  8
0
  6
Continuous
 62
     3
100
AcDbLine
 10
53.5566243270259
 20
24.0
 30
0.0
 11
55.0000000000003
 21
21.4999999999997
 31
0.0
  0
LINE
  5
1DA
330
1F
100
AcDbEntity
  8
0
  6
Continuous
 62
     3
100
AcDbLine
 10
55.0
 20
17.0
 30
0.0
 11
55.0000000000003
 21
21.4999999999997
 31
0.0
  0
LINE
  5
1DB
330
1F
100
AcDbEntity
  8
0
  6
Continuous
 62
     3
100
AcDbLine
 10
37.4905989232415
 20
-20.0
 30
0.0
 11
39.7999999999999
 21
-24.0000000000001
 31
0.0
  0
LINE
  5
1DC
330
1F
100
AcDbEntity
  8
0
  6
Continuous
 62
     3
100
AcDbLine
 10
39.7999999999999
 20
-24.0000000000001
 30
0.0
 11
37.4905989232415
 21
-20.0
 31
0.0
  0
LINE
  5
1DD
330
1F
100
AcDbEntity
  8
0
  6
Continuous
 62
     3
100
AcDbLine
 10
-53.5566243270241
 20
232.0
 30
0.0
 11
-53.5566243270241
 21
229.306623862918
 31
0.0
  0
LINE
  5
1DE
330
1F
100
AcDbEntity
  8
0
  6
Continuous
 62
     3
100
AcDbLine
 10
-54.9999999999982
 20
231.5
 30
0.0
 11
-54.7113248654034
 21
232.0
 31
0.0
  0
LINE
  5
1DF
330
1F
100
AcDbEntity
  8
0
  6
Continuous
 62
     3
100
AcDbLine
 10
-54.7113248654034
 20
232.0
 30
0.0
 11
-53.5566243270241
 21
232.0
 31
0.0
  0
LINE
  5
1E0
330
1F
100
AcDbEntity
  8
0
  6
Continuous
 62
     3
100
AcDbLine
 10
-54.9999999999982
 20
231.5
 30
0.0
 11
-54.9999999999983
 21
210.0
 31
0.0
  0
LINE
  5
1E1
330
1F
100
AcDbEntity
  8
0
  6
Continuous
 62
     3
100
AcDbLine
 10
-39.7999999999737
 20
212.693376137055
 30
0.0
 11
-39.7999999999859
 21
210.0
 31
0.0
  0
LINE
  5
1E2
330
1F
100
AcDbEntity
  8
0
  6
Continuous
 62
     3
100
AcDbLine
 10
-53.5566243270241
 20
212.693376137082
 30
0.0
 11
-53.5566243270364
 21
210.0
 31
0.0
  0
LINE
  5
1E3
330
1F
100
AcDbEntity
  8
0
  6
Continuous
 62
     3
100
AcDbLine
 10
-39.7999999999737
 20
212.693376137055
 30
0.0
 11
-53.5566243270241
 21
212.693376137082
 31
0.0
  0
LINE
  5
1E4
330
1F
100
AcDbEntity
  8
0
  6
Continuous
 62
     3
100
AcDbLine
 10
-35.7585481156707
 20
229.0
 30
0.0
 11
-30.2999999999982
 21
229.0
 31
0.0
  0
LINE
  5
1E5
330
1F
100
AcDbEntity
  8
0
  6
Continuous
 62
     3
100
AcDbLine
 10
-39.7999999999982
 20
229.306623862918
 30
0.0
 11
-53.5566243270241
 21
229.306623862918
 31
0.0
  0
LINE
  5
1E6
330
1F
100
AcDbEntity
  8
0
  6
Continuous
 62
     3
100
AcDbLine
 10
-39.7999999999736
 20
231.999999999972
 30
0.0
 11
-38.6452994616189
 21
232.0
 31
0.0
  0
LINE
  5
1E7
330
1F
100
AcDbEntity
  8
0
  6
Continuous
 62
     3
100
AcDbLine
 10
-37.4905989232396
 20
230.0
 30
0.0
 11
-38.6452994616189
 21
232.0
 31
0.0
  0
LINE
  5
1E8
330
1F
100
AcDbEntity
  8
0
  6
Continuous
 62
     3
100
AcDbLine
 10
-39.7999999999736
 20
231.999999999972
 30
0.0
 11
-39.7999999999982
 21
229.306623862918
 31
0.0
  0
LINE
  5
1E9
330
1F
100
AcDbEntity
  8
0
  6
Continuous
 62
     3
100
AcDbLine
 10
39.8000000000018
 20
212.693376137082
 30
0.0
 11
39.7999999999895
 21
210.0
 31
0.0
  0
LINE
  5
1EA
330
1F
100
AcDbEntity
  8
0
  6
Continuous
 62
     3
100
AcDbLine
 10
53.5566243270524
 20
212.693376137055
 30
0.0
 11
53.5566243268965
 21
210.0
 31
0.0
  0
LINE
  5
1EB
330
1F
100
AcDbEntity
  8
0
  6
Continuous
 62
     3
100
AcDbLine
 10
30.3000000000017
 20
229.0
 30
0.0
 11
35.7585481156744
 21
229.0
 31
0.0
  0
LINE
  5
1EC
330
1F
100
AcDbEntity
  8
0
  6
Continuous
 62
     3
100
AcDbLine
 10
55.000000000002
 20
210.0
 30
0.0
 11
55.0000000000018
 21
231.5
 31
0.0
  0
LINE
  5
1ED
330
1F
100
AcDbEntity
  8
0
  6
Continuous
 62
     3
100
AcDbLine
 10
53.5566243270524
 20
212.693376137055
 30
0.0
 11
39.8000000000018
 21
212.693376137082
 31
0.0
  0
LINE
  5
1EE
330
1F
100
AcDbEntity
  8
0
  6
Continuous
 62
     3
100
AcDbLine
 10
53.5566243270277
 20
229.306623862918
 30
0.0
 11
39.8000000000018
 21
229.306623862918
 31
0.0
  0
LINE
  5
1EF
330
1F
100
AcDbEntity
  8
0
  6
Continuous
 62
     3
100
AcDbLine
 10
55.0000000000018
 20
231.5
 30
0.0
 11
54.7113248654071
 21
232.0
 31
0.0
  0
LINE
  5
1F0
330
1F
100
AcDbEntity
  8
0
  6
Continuous
 62
     3
100
AcDbLine
 10
39.8000000000018
 20
232.0
 30
0.0
 11
39.8000000000018
 21
229.306623862918
 31
0.0
  0
LINE
  5
1F1
330
1F
100
AcDbEntity
  8
0
  6
Continuous
 62
     3
100
AcDbLine
 10
37.4905989232433
 20
230.0
 30
0.0
 11
38.6452994616225
 21
232.0
 31
0.0
  0
LINE
  5
1F2
330
1F
100
AcDbEntity
  8
0
  6
Continuous
 62
     3
100
AcDbLine
 10
53.5566243270524
 20
231.999999999972
 30
0.0
 11
53.5566243270277
 21
229.306623862918
 31
0.0
  0
LINE
  5
1F3
330
1F
100
AcDbEntity
  8
0
  6
Continuous
 62
     3
100
AcDbLine
 10
53.5566243270524
 20
231.999999999972
 30
0.0
 11
54.7113248654071
 21
232.0
 31
0.0
  0
LINE
  5
1F4
330
1F
100
AcDbEntity
  8
0
  6
Continuous
 62
     3
100
AcDbLine
 10
38.6452994616225
 20
232.0
 30
0.0
 11
39.8000000000018
 21
232.0
 31
0.0
  0
LINE
  5
1F5
330
1F
100
AcDbEntity
  8
0
  6
Continuous
 62
     3
100
AcDbLine
 10
-39.7999999999736
 20
231.999999999972
 30
0.0
 11
-53.5566243270241
 21
232.0
 31
0.0
  0
LINE
  5
1F6
330
1F
100
AcDbEntity
  8
0
  6
Continuous
 62
     3
100
AcDbLine
 10
53.5566243270524
 20
231.999999999972
 30
0.0
 11
39.8000000000018
 21
232.0
 31
0.0
  0
LINE
  5
1F7
330
1F
100
AcDbEntity
  8
0
  6
Continuous
 62
     3
100
AcDbLine
 10
39.8000000000018
 20
188.0
 30
0.0
 11
53.5566243270524
 21
188.000000000028
 31
0.0
  0
LINE
  5
1F8
330
1F
100
AcDbEntity
  8
0
  6
Continuous
 62
     3
100
AcDbLine
 10
-53.5566243270241
 20
188.0
 30
0.0
 11
-39.7999999999736
 21
188.000000000028
 31
0.0
  0
LINE
  5
1F9
330
1F
100
AcDbEntity
  8
0
  6
Continuous
 62
     3
100
AcDbLine
 10
39.8000000000018
 20
188.0
 30
0.0
 11
38.6452994616225
 21
188.0
 31
0.0
  0
LINE
  5
1FA
330
1F
100
AcDbEntity
  8
0
  6
Continuous
 62
     3
100
AcDbLine
 10
54.7113248654071
 20
188.0
 30
0.0
 11
53.5566243270524
 21
188.000000000028
 31
0.0
  0
LINE
  5
1FB
330
1F
100
AcDbEntity
  8
0
  6
Continuous
 62
     3
100
AcDbLine
 10
53.5566243270277
 20
190.693376137082
 30
0.0
 11
53.5566243270524
 21
188.000000000028
 31
0.0
  0
LINE
  5
1FC
330
1F
100
AcDbEntity
  8
0
  6
Continuous
 62
     3
100
AcDbLine
 10
38.6452994616225
 20
188.0
 30
0.0
 11
37.4905989232433
 21
190.0
 31
0.0
  0
LINE
  5
1FD
330
1F
100
AcDbEntity
  8
0
  6
Continuous
 62
     3
100
AcDbLine
 10
39.8000000000018
 20
190.693376137082
 30
0.0
 11
39.8000000000018
 21
188.0
 31
0.0
  0
LINE
  5
1FE
330
1F
100
AcDbEntity
  8
0
  6
Continuous
 62
     3
100
AcDbLine
 10
54.7113248654071
 20
188.0
 30
0.0
 11
55.0000000000018
 21
188.5
 31
0.0
  0
LINE
  5
1FF
330
1F
100
AcDbEntity
  8
0
  6
Continuous
 62
     3
100
AcDbLine
 10
39.8000000000018
 20
190.693376137082
 30
0.0
 11
53.5566243270277
 21
190.693376137082
 31
0.0
  0
LINE
  5
200
330
1F
100
AcDbEntity
  8
0
  6
Continuous
 62
     3
100
AcDbLine
 10
39.8000000000018
 20
207.306623862918
 30
0.0
 11
53.5566243270524
 21
207.306623862945
 31
0.0
  0
LINE
  5
201
330
1F
100
AcDbEntity
  8
0
  6
Continuous
 62
     3
100
AcDbLine
 10
55.0000000000018
 20
188.5
 30
0.0
 11
55.000000000002
 21
210.0
 31
0.0
  0
LINE
  5
202
330
1F
100
AcDbEntity
  8
0
  6
Continuous
 62
     3
100
AcDbLine
 10
35.7585481156744
 20
191.0
 30
0.0
 11
30.3000000000017
 21
191.0
 31
0.0
  0
LINE
  5
203
330
1F
100
AcDbEntity
  8
0
  6
Continuous
 62
     3
100
AcDbLine
 10
53.5566243268965
 20
210.0
 30
0.0
 11
53.5566243270524
 21
207.306623862945
 31
0.0
  0
LINE
  5
204
330
1F
100
AcDbEntity
  8
0
  6
Continuous
 62
     3
100
AcDbLine
 10
39.7999999999895
 20
210.0
 30
0.0
 11
39.8000000000018
 21
207.306623862918
 31
0.0
  0
LINE
  5
205
330
1F
100
AcDbEntity
  8
0
  6
Continuous
 62
     3
100
AcDbLine
 10
-39.7999999999982
 20
190.693376137082
 30
0.0
 11
-39.7999999999736
 21
188.000000000028
 31
0.0
  0
LINE
  5
206
330
1F
100
AcDbEntity
  8
0
  6
Continuous
 62
     3
100
AcDbLine
 10
-38.6452994616189
 20
188.0
 30
0.0
 11
-37.4905989232396
 21
190.0
 31
0.0
  0
LINE
  5
207
330
1F
100
AcDbEntity
  8
0
  6
Continuous
 62
     3
100
AcDbLine
 10
-38.6452994616189
 20
188.0
 30
0.0
 11
-39.7999999999736
 21
188.000000000028
 31
0.0
  0
LINE
  5
208
330
1F
100
AcDbEntity
  8
0
  6
Continuous
 62
     3
100
AcDbLine
 10
-53.5566243270241
 20
190.693376137082
 30
0.0
 11
-39.7999999999982
 21
190.693376137082
 31
0.0
  0
LINE
  5
209
330
1F
100
AcDbEntity
  8
0
  6
Continuous
 62
     3
100
AcDbLine
 10
-30.2999999999982
 20
191.0
 30
0.0
 11
-35.7585481156707
 21
191.0
 31
0.0
  0
LINE
  5
20A
330
1F
100
AcDbEntity
  8
0
  6
Continuous
 62
     3
100
AcDbLine
 10
-53.5566243270241
 20
207.306623862918
 30
0.0
 11
-39.7999999999737
 21
207.306623862945
 31
0.0
  0
LINE
  5
20B
330
1F
100
AcDbEntity
  8
0
  6
Continuous
 62
     3
100
AcDbLine
 10
-53.5566243270364
 20
210.0
 30
0.0
 11
-53.5566243270241
 21
207.306623862918
 31
0.0
  0
LINE
  5
20C
330
1F
100
AcDbEntity
  8
0
  6
Continuous
 62
     3
100
AcDbLine
 10
-39.7999999999859
 20
210.0
 30
0.0
 11
-39.7999999999737
 21
207.306623862945
 31
0.0
  0
LINE
  5
20D
330
1F
100
AcDbEntity
  8
0
  6
Continuous
 62
     3
100
AcDbLine
 10
-54.9999999999983
 20
210.0
 30
0.0
 11
-54.9999999999982
 21
188.5
 31
0.0
  0
LINE
  5
20E
330
1F
100
AcDbEntity
  8
0
  6
Continuous
 62
     3
100
AcDbLine
 10
-53.5566243270241
 20
188.0
 30
0.0
 11
-54.7113248654034
 21
188.0
 31
0.0
  0
LINE
  5
20F
330
1F
100
AcDbEntity
  8
0
  6
Continuous
 62
     3
100
AcDbLine
 10
-54.7113248654034
 20
188.0
 30
0.0
 11
-54.9999999999982
 21
188.5
 31
0.0
  0
LINE
  5
210
330
1F
100
AcDbEntity
  8
0
  6
Continuous
 62
     3
100
AcDbLine
 10
-53.5566243270241
 20
190.693376137082
 30
0.0
 11
-53.5566243270241
 21
188.0
 31
0.0
  0
LINE
  5
211
330
1F
100
AcDbEntity
  8
1
  6
Continuous
 62
     3
100
AcDbLine
 10
-19.0000000000001
 20
-10.0768839114287
 30
0.0
 11
-19.0
 21
-17.0000031207259
 31
0.0
  0
LINE
  5
212
330
1F
100
AcDbEntity
  8
1
  6
Continuous
 62
     3
100
AcDbLine
 10
157.636132841501
 20
-53.52553587003
 30
0.0
 11
161.249999600501
 21
-53.52553587003
 31
0.0
  0
LINE
  5
213
330
1F
100
AcDbEntity
  8
1
  6
Continuous
 62
     3
100
AcDbLine
 10
161.249999600501
 20
-40.5103629660285
 30
0.0
 11
157.636132841501
 21
-40.5103629660285
 31
0.0
  0
LINE
  5
214
330
1F
100
AcDbEntity
  8
1
  6
Continuous
 62
     3
100
AcDbLine
 10
157.636132841501
 20
-53.52553587003
 30
0.0
 11
157.636132841501
 21
-40.5103629660285
 31
0.0
  0
LINE
  5
215
330
1F
100
AcDbEntity
  8
1
  6
Continuous
 62
     3
100
AcDbLine
 10
122.363867158499
 20
-40.5103629660285
 30
0.0
 11
118.750000399501
 21
-40.5103629660285
 31
0.0
  0
LINE
  5
216
330
1F
100
AcDbEntity
  8
1
  6
Continuous
 62
     3
100
AcDbLine
 10
152.500000000001
 20
-69.0000002255982
 30
0.0
 11
127.500000000001
 21
-69.0000002255982
 31
0.0
  0
LINE
  5
217
330
1F
100
AcDbEntity
  8
1
  6
Continuous
 62
     3
100
AcDbLine
 10
153.500000000001
 20
-68.0000002255982
 30
0.0
 11
126.500000000001
 21
-68.0000002255982
 31
0.0
  0
LINE
  5
218
330
1F
100
AcDbEntity
  8
1
  6
Continuous
 62
     3
100
AcDbLine
 10
126.500000000001
 20
-58.0000002255982
 30
0.0
 11
153.500000000001
 21
-58.0000002255982
 31
0.0
  0
LINE
  5
219
330
1F
100
AcDbEntity
  8
1
  6
Continuous
 62
     3
100
AcDbLine
 10
119.08914066335
 20
-53.52553587003
 30
0.0
 11
118.750000399501
 21
-53.52553587003
 31
0.0
  0
LINE
  5
21A
330
1F
100
AcDbEntity
  8
1
  6
Continuous
 62
     3
100
AcDbLine
 10
143.27472649515
 20
-53.52553587003
 30
0.0
 11
136.72527350485
 21
-53.52553587003
 31
0.0
  0
LINE
  5
21B
330
1F
100
AcDbEntity
  8
1
  6
Continuous
 62
     3
100
AcDbLine
 10
118.750000399501
 20
-53.52553587003
 30
0.0
 11
122.363867158499
 21
-53.52553587003
 31
0.0
  0
LINE
  5
21C
330
1F
100
AcDbEntity
  8
1
  6
Continuous
 62
     3
100
AcDbLine
 10
161.249999600501
 20
-53.52553587003
 30
0.0
 11
160.962262947545
 21
-53.52553587003
 31
0.0
  0
LINE
  5
21D
330
1F
100
AcDbEntity
  8
1
  6
Continuous
 62
     3
100
AcDbLine
 10
160.962262947545
 20
-40.5103629660285
 30
0.0
 11
161.249999600501
 21
-40.5103629660285
 31
0.0
  0
LINE
  5
21E
330
1F
100
AcDbEntity
  8
1
  6
Continuous
 62
     3
100
AcDbLine
 10
136.72527350485
 20
-40.5103629660285
 30
0.0
 11
143.27472649515
 21
-40.5103629660285
 31
0.0
  0
LINE
  5
21F
330
1F
100
AcDbEntity
  8
1
  6
Continuous
 62
     3
100
AcDbLine
 10
118.750000399501
 20
-40.5103629660285
 30
0.0
 11
119.08914066335
 21
-40.5103629660285
 31
0.0
  0
LINE
  5
220
330
1F
100
AcDbEntity
  8
1
  6
Continuous
 62
     3
100
AcDbLine
 10
122.363867158499
 20
-40.5103629660285
 30
0.0
 11
122.363867158499
 21
-53.52553587003
 31
0.0
  0
LINE
  5
221
330
1F
100
AcDbEntity
  8
1
  6
Continuous
 62
     3
100
AcDbLine
 10
136.72527350485
 20
-40.5103629660285
 30
0.0
 11
136.72527350485
 21
-53.52553587003
 31
0.0
  0
LINE
  5
222
330
1F
100
AcDbEntity
  8
1
  6
Continuous
 62
     3
100
AcDbLine
 10
143.27472649515
 20
-40.5103629660285
 30
0.0
 11
143.27472649515
 21
-53.52553587003
 31
0.0
  0
LINE
  5
223
330
1F
100
AcDbEntity
  8
1
  6
Continuous
 62
     3
100
AcDbLine
 10
126.500000000001
 20
-68.0000002255982
 30
0.0
 11
127.500000000001
 21
-69.0000002255982
 31
0.0
  0
LINE
  5
224
330
1F
100
AcDbEntity
  8
1
  6
Continuous
 62
     3
100
AcDbLine
 10
118.750000399501
 20
-53.52553587003
 30
0.0
 11
126.500000000001
 21
-58.0000002255982
 31
0.0
  0
LINE
  5
225
330
1F
100
AcDbEntity
  8
1
  6
Continuous
 62
     3
100
AcDbLine
 10
126.500000000001
 20
-58.0000002255982
 30
0.0
 11
126.500000000001
 21
-68.0000002255982
 31
0.0
  0
LINE
  5
226
330
1F
100
AcDbEntity
  8
1
  6
Continuous
 62
     3
100
AcDbLine
 10
153.500000000001
 20
-68.0000002255982
 30
0.0
 11
152.500000000001
 21
-69.0000002255982
 31
0.0
  0
LINE
  5
227
330
1F
100
AcDbEntity
  8
1
  6
Continuous
 62
     3
100
AcDbLine
 10
153.500000000001
 20
-58.0000002255982
 30
0.0
 11
161.249999600501
 21
-53.52553587003
 31
0.0
  0
LINE
  5
228
330
1F
100
AcDbEntity
  8
1
  6
Continuous
 62
     3
100
AcDbLine
 10
153.500000000001
 20
-68.0000002255982
 30
0.0
 11
153.500000000001
 21
-58.0000002255982
 31
0.0
  0
LINE
  5
229
330
1F
100
AcDbEntity
  8
1
  6
Continuous
 62
     3
100
AcDbLine
 10
121.750000320541
 20
-39.5000002255981
 30
0.0
 11
122.950000320541
 21
-39.5000002255981
 31
0.0
  0
LINE
  5
22A
330
1F
100
AcDbEntity
  8
1
  6
Continuous
 62
     3
100
AcDbLine
 10
122.950000320541
 20
-39.5000002255981
 30
0.0
 11
140.000000000001
 21
-39.5000002255981
 31
0.0
  0
LINE
  5
22B
330
1F
100
AcDbEntity
  8
1
  6
Continuous
 62
     3
100
AcDbLine
 10
157.049999679461
 20
-39.5000002255981
 30
0.0
 11
158.249999679461
 21
-39.5000002255981
 31
0.0
  0
LINE
  5
22C
330
1F
100
AcDbEntity
  8
1
  6
Continuous
 62
     3
100
AcDbLine
 10
140.000000000001
 20
-39.5000002255981
 30
0.0
 11
157.049999679461
 21
-39.5000002255981
 31
0.0
  0
LINE
  5
22D
330
1F
100
AcDbEntity
  8
1
  6
Continuous
 62
     3
100
AcDbLine
 10
120.500000000001
 20
-39.5000002255981
 30
0.0
 11
121.750000320541
 21
-39.5000002255981
 31
0.0
  0
LINE
  5
22E
330
1F
100
AcDbEntity
  8
1
  6
Continuous
 62
     3
100
AcDbLine
 10
120.500000000001
 20
-39.5000002255981
 30
0.0
 11
118.750000399501
 21
-40.5103629660285
 31
0.0
  0
LINE
  5
22F
330
1F
100
AcDbEntity
  8
1
  6
Continuous
 62
     3
100
AcDbLine
 10
161.249999600501
 20
-40.5103629660285
 30
0.0
 11
161.249999600501
 21
-53.52553587003
 31
0.0
  0
LINE
  5
230
330
1F
100
AcDbEntity
  8
1
  6
Continuous
 62
     3
100
AcDbLine
 10
118.750000399501
 20
-40.5103629660285
 30
0.0
 11
118.750000399501
 21
-53.52553587003
 31
0.0
  0
LINE
  5
231
330
1F
100
AcDbEntity
  8
1
  6
Continuous
 62
     3
100
AcDbLine
 10
158.249999679461
 20
-39.5000002255981
 30
0.0
 11
159.500000000001
 21
-39.5000002255981
 31
0.0
  0
LINE
  5
232
330
1F
100
AcDbEntity
  8
1
  6
Continuous
 62
     3
100
AcDbLine
 10
159.500000000001
 20
-39.5000002255981
 30
0.0
 11
161.249999600501
 21
-40.5103629660285
 31
0.0
  0
LINE
  5
233
330
1F
100
AcDbEntity
  8
0
  6
Continuous
 62
     3
100
AcDbLine
 10
159.0
 20
-24.6715561170337
 30
0.0
 11
159.0
 21
-14.6628782986152
 31
0.0
  0
LINE
  5
234
330
1F
100
AcDbEntity
  8
0
  6
Continuous
 62
     3
100
AcDbLine
 10
155.0
 20
24.804805310377
 30
0.0
 11
155.0
 21
25.3937138307778
 31
0.0
  0
LINE
  5
235
330
1F
100
AcDbEntity
  8
0
  6
Continuous
 62
     3
100
AcDbLine
 10
157.412751258244
 20
27.8921908983255
 30
0.0
 11
159.052349245054
 21
27.9494469216821
 31
0.0
  0
LINE
  5
236
330
1F
100
AcDbEntity
  8
0
  6
Continuous
 62
     3
100
AcDbLine
 10
125.0
 20
24.8048061603234
 30
0.0
 11
125.0
 21
25.3937138307778
 31
0.0
  0
LINE
  5
237
330
1F
100
AcDbEntity
  8
0
  6
Continuous
 62
     3
100
AcDbLine
 10
160.5
 20
30.4999999999991
 30
0.0
 11
160.5
 21
29.4485331622107
 31
0.0
  0
LINE
  5
238
330
1F
100
AcDbEntity
  8
0
  6
Continuous
 62
     3
100
AcDbLine
 10
122.587248741756
 20
27.8921908983255
 30
0.0
 11
120.947650754946
 21
27.9494469216821
 31
0.0
  0
LINE
  5
239
330
1F
100
AcDbEntity
  8
0
  6
Continuous
 62
     3
100
AcDbLine
 10
121.0
 20
-24.6715561303353
 30
0.0
 11
121.0
 21
-14.6628782986152
 31
0.0
  0
LINE
  5
23A
330
1F
100
AcDbEntity
  8
0
  6
Continuous
 62
     3
100
AcDbLine
 10
119.5
 20
30.4999999999991
 30
0.0
 11
119.5
 21
29.4485331622107
 31
0.0
  0
LINE
  5
23B
330
1F
100
AcDbEntity
  8
1
  6
Continuous
 62
     3
100
AcDbLine
 10
19.5000000000006
 20
-39.5000002255981
 30
0.0
 11
21.2499996005005
 21
-40.5103629660285
 31
0.0
  0
LINE
  5
23C
330
1F
100
AcDbEntity
  8
1
  6
Continuous
 62
     3
100
AcDbLine
 10
18.2499996794608
 20
-39.5000002255981
 30
0.0
 11
19.5000000000006
 21
-39.5000002255981
 31
0.0
  0
LINE
  5
23D
330
1F
100
AcDbEntity
  8
1
  6
Continuous
 62
     3
100
AcDbLine
 10
-21.2499996004993
 20
-40.5103629660285
 30
0.0
 11
-21.2499996004993
 21
-53.52553587003
 31
0.0
  0
LINE
  5
23E
330
1F
100
AcDbEntity
  8
1
  6
Continuous
 62
     3
100
AcDbLine
 10
21.2499996005005
 20
-40.5103629660285
 30
0.0
 11
21.2499996005005
 21
-53.52553587003
 31
0.0
  0
LINE
  5
23F
330
1F
100
AcDbEntity
  8
1
  6
Continuous
 62
     3
100
AcDbLine
 10
-19.4999999999994
 20
-39.5000002255981
 30
0.0
 11
-21.2499996004993
 21
-40.5103629660285
 31
0.0
  0
LINE
  5
240
330
1F
100
AcDbEntity
  8
1
  6
Continuous
 62
     3
100
AcDbLine
 10
-19.4999999999994
 20
-39.5000002255981
 30
0.0
 11
-18.2499996794591
 21
-39.5000002255981
 31
0.0
  0
LINE
  5
241
330
1F
100
AcDbEntity
  8
1
  6
Continuous
 62
     3
100
AcDbLine
 10
0.00000000000057
 20
-39.5000002255981
 30
0.0
 11
17.0499996794608
 21
-39.5000002255981
 31
0.0
  0
LINE
  5
242
330
1F
100
AcDbEntity
  8
1
  6
Continuous
 62
     3
100
AcDbLine
 10
17.0499996794608
 20
-39.5000002255981
 30
0.0
 11
18.2499996794608
 21
-39.5000002255981
 31
0.0
  0
LINE
  5
243
330
1F
100
AcDbEntity
  8
1
  6
Continuous
 62
     3
100
AcDbLine
 10
-17.0499996794591
 20
-39.5000002255981
 30
0.0
 11
0.00000000000057
 21
-39.5000002255981
 31
0.0
  0
LINE
  5
244
330
1F
100
AcDbEntity
  8
1
  6
Continuous
 62
     3
100
AcDbLine
 10
-18.2499996794591
 20
-39.5000002255981
 30
0.0
 11
-17.0499996794591
 21
-39.5000002255981
 31
0.0
  0
LINE
  5
245
330
1F
100
AcDbEntity
  8
1
  6
Continuous
 62
     3
100
AcDbLine
 10
13.5000000000006
 20
-68.0000002255982
 30
0.0
 11
13.5000000000006
 21
-58.0000002255982
 31
0.0
  0
LINE
  5
246
330
1F
100
AcDbEntity
  8
1
  6
Continuous
 62
     3
100
AcDbLine
 10
13.5000000000006
 20
-58.0000002255982
 30
0.0
 11
21.2499996005005
 21
-53.52553587003
 31
0.0
  0
LINE
  5
247
330
1F
100
AcDbEntity
  8
1
  6
Continuous
 62
     3
100
AcDbLine
 10
13.5000000000006
 20
-68.0000002255982
 30
0.0
 11
12.5000000000006
 21
-69.0000002255982
 31
0.0
  0
LINE
  5
248
330
1F
100
AcDbEntity
  8
1
  6
Continuous
 62
     3
100
AcDbLine
 10
-13.4999999999994
 20
-58.0000002255982
 30
0.0
 11
-13.4999999999994
 21
-68.0000002255982
 31
0.0
  0
LINE
  5
249
330
1F
100
AcDbEntity
  8
1
  6
Continuous
 62
     3
100
AcDbLine
 10
-21.2499996004993
 20
-53.52553587003
 30
0.0
 11
-13.4999999999994
 21
-58.0000002255982
 31
0.0
  0
LINE
  5
24A
330
1F
100
AcDbEntity
  8
1
  6
Continuous
 62
     3
100
AcDbLine
 10
-13.4999999999994
 20
-68.0000002255982
 30
0.0
 11
-12.4999999999994
 21
-69.0000002255982
 31
0.0
  0
LINE
  5
24B
330
1F
100
AcDbEntity
  8
1
  6
Continuous
 62
     3
100
AcDbLine
 10
13.730156163476
 20
-40.5103629660285
 30
0.0
 11
13.730156163476
 21
-53.52553587003
 31
0.0
  0
LINE
  5
24C
330
1F
100
AcDbEntity
  8
1
  6
Continuous
 62
     3
100
AcDbLine
 10
7.1807031731762
 20
-40.5103629660285
 30
0.0
 11
7.1807031731762
 21
-53.52553587003
 31
0.0
  0
LINE
  5
24D
330
1F
100
AcDbEntity
  8
1
  6
Continuous
 62
     3
100
AcDbLine
 10
-7.18070317317532
 20
-40.5103629660285
 30
0.0
 11
-7.18070317317532
 21
-53.52553587003
 31
0.0
  0
LINE
  5
24E
330
1F
100
AcDbEntity
  8
1
  6
Continuous
 62
     3
100
AcDbLine
 10
-13.7301561634748
 20
-40.5103629660285
 30
0.0
 11
-13.7301561634748
 21
-53.52553587003
 31
0.0
  0
LINE
  5
24F
330
1F
100
AcDbEntity
  8
1
  6
Continuous
 62
     3
100
AcDbLine
 10
-20.9108593366503
 20
-40.5103629660285
 30
0.0
 11
-20.9108593366503
 21
-53.52553587003
 31
0.0
  0
LINE
  5
250
330
1F
100
AcDbEntity
  8
1
  6
Continuous
 62
     3
100
AcDbLine
 10
20.9622629475449
 20
-40.5103629660285
 30
0.0
 11
20.9622629475449
 21
-53.52553587003
 31
0.0
  0
LINE
  5
251
330
1F
100
AcDbEntity
  8
1
  6
Continuous
 62
     3
100
AcDbLine
 10
-21.2499996004993
 20
-40.5103629660285
 30
0.0
 11
-20.9108593366503
 21
-40.5103629660285
 31
0.0
  0
LINE
  5
252
330
1F
100
AcDbEntity
  8
1
  6
Continuous
 62
     3
100
AcDbLine
 10
7.1807031731762
 20
-40.5103629660285
 30
0.0
 11
13.730156163476
 21
-40.5103629660285
 31
0.0
  0
LINE
  5
253
330
1F
100
AcDbEntity
  8
1
  6
Continuous
 62
     3
100
AcDbLine
 10
-7.18070317317532
 20
-40.5103629660285
 30
0.0
 11
-13.7301561634748
 21
-40.5103629660285
 31
0.0
  0
LINE
  5
254
330
1F
100
AcDbEntity
  8
1
  6
Continuous
 62
     3
100
AcDbLine
 10
20.9622629475449
 20
-40.5103629660285
 30
0.0
 11
21.2499996005005
 21
-40.5103629660285
 31
0.0
  0
LINE
  5
255
330
1F
100
AcDbEntity
  8
1
  6
Continuous
 62
     3
100
AcDbLine
 10
21.2499996005005
 20
-53.52553587003
 30
0.0
 11
20.9622629475449
 21
-53.52553587003
 31
0.0
  0
LINE
  5
256
330
1F
100
AcDbEntity
  8
1
  6
Continuous
 62
     3
100
AcDbLine
 10
-13.7301561634748
 20
-53.52553587003
 30
0.0
 11
-7.18070317317532
 21
-53.52553587003
 31
0.0
  0
LINE
  5
257
330
1F
100
AcDbEntity
  8
1
  6
Continuous
 62
     3
100
AcDbLine
 10
13.730156163476
 20
-53.52553587003
 30
0.0
 11
7.1807031731762
 21
-53.52553587003
 31
0.0
  0
LINE
  5
258
330
1F
100
AcDbEntity
  8
1
  6
Continuous
 62
     3
100
AcDbLine
 10
-20.9108593366503
 20
-53.52553587003
 30
0.0
 11
-21.2499996004993
 21
-53.52553587003
 31
0.0
  0
LINE
  5
259
330
1F
100
AcDbEntity
  8
1
  6
Continuous
 62
     3
100
AcDbLine
 10
-13.4999999999994
 20
-58.0000002255982
 30
0.0
 11
13.5000000000006
 21
-58.0000002255982
 31
0.0
  0
LINE
  5
25A
330
1F
100
AcDbEntity
  8
1
  6
Continuous
 62
     3
100
AcDbLine
 10
13.5000000000006
 20
-68.0000002255982
 30
0.0
 11
-13.4999999999994
 21
-68.0000002255982
 31
0.0
  0
LINE
  5
25B
330
1F
100
AcDbEntity
  8
1
  6
Continuous
 62
     3
100
AcDbLine
 10
12.5000000000006
 20
-69.0000002255982
 30
0.0
 11
-12.4999999999994
 21
-69.0000002255982
 31
0.0
  0
LINE
  5
25C
330
1F
100
AcDbEntity
  8
1
  6
DOT_CENTER
 62
     1
100
AcDbLine
 10
0.00000000000182
 20
244.0
 30
0.0
 11
0.00000000000182
 21
176.0
 31
0.0
  0
LINE
  5
25D
330
1F
100
AcDbEntity
  8
1
  6
DOT_CENTER
 62
     1
100
AcDbLine
 10
58.0
 20
210.0
 30
0.0
 11
-57.9999999999999
 21
210.0
 31
0.0
  0
LINE
  5
25E
330
1F
100
AcDbEntity
  8
0
  6
Continuous
 62
     3
100
AcDbLine
 10
125.5
 20
-35.1286346002694
 30
0.0
 11
125.5
 21
-31.5461647483777
 31
0.0
  0
LINE
  5
25F
330
1F
100
AcDbEntity
  8
0
  6
Continuous
 62
     3
100
AcDbLine
 10
119.5
 20
29.4485331622107
 30
0.0
 11
119.5
 21
54.3349364905392
 31
0.0
  0
LINE
  5
260
330
1F
100
AcDbEntity
  8
1
  6
Continuous
 62
     3
100
AcDbLine
 10
140.0
 20
74.4999996616001
 30
0.0
 11
140.0
 21
61.4999999060005
 31
0.0
  0
LINE
  5
261
330
1F
100
AcDbEntity
  8
1
  6
DOT_CENTER
 62
     1
100
AcDbLine
 10
140.0
 20
-72.0000002255982
 30
0.0
 11
140.0
 21
140.500000000001
 31
0.0
  0
LINE
  5
262
330
1F
100
AcDbEntity
  8
1
  6
Continuous
 62
     1
100
AcDbLine
 10
123.0825
 20
-37.8174999999969
 30
0.0
 11
123.0825
 21
-39.5000002255981
 31
0.0
  0
LINE
  5
263
330
1F
100
AcDbEntity
  8
1
  6
Continuous
 62
     1
100
AcDbLine
 10
156.9175
 20
-37.8174999999969
 30
0.0
 11
156.9175
 21
-39.5000002255981
 31
0.0
  0
LINE
  5
264
330
1F
100
AcDbEntity
  8
0
  6
Continuous
 62
     3
100
AcDbLine
 10
121.999999999999
 20
-39.5000002255981
 30
0.0
 11
121.999999999999
 21
-38.9001253250114
 31
0.0
  0
LINE
  5
265
330
1F
100
AcDbEntity
  8
1
  6
Continuous
 62
     3
100
AcDbLine
 10
124.889501141985
 20
-36.7470192534565
 30
0.0
 11
125.0
 21
-36.6286346002694
 31
0.0
  0
LINE
  5
266
330
1F
100
AcDbEntity
  8
1
  6
Continuous
 62
     3
100
AcDbLine
 10
123.251999999999
 20
-37.6481253250114
 30
0.0
 11
121.999999999999
 21
-38.9001253250114
 31
0.0
  0
LINE
  5
267
330
1F
100
AcDbEntity
  8
0
  6
Continuous
 62
     3
100
AcDbLine
 10
158.000000000001
 20
-39.5000002255981
 30
0.0
 11
158.000000000001
 21
-38.9001253250114
 31
0.0
  0
LINE
  5
268
330
1F
100
AcDbEntity
  8
1
  6
Continuous
 62
     3
100
AcDbLine
 10
155.110498858015
 20
-36.7470192534565
 30
0.0
 11
155.0
 21
-36.6286346002694
 31
0.0
  0
LINE
  5
269
330
1F
100
AcDbEntity
  8
1
  6
Continuous
 62
     3
100
AcDbLine
 10
156.748000000001
 20
-37.6481253250114
 30
0.0
 11
158.000000000001
 21
-38.9001253250114
 31
0.0
  0
LINE
  5
26A
330
1F
100
AcDbEntity
  8
1
  6
Continuous
 62
     3
100
AcDbLine
 10
159.999999624
 20
57.4999999812002
 30
0.0
 11
119.999999624
 21
57.4999999812002
 31
0.0
  0
LINE
  5
26B
330
1F
100
AcDbEntity
  8
1
  6
Continuous
 62
     3
100
AcDbLine
 10
158.475208266734
 20
61.4999999060005
 30
0.0
 11
121.475208266734
 21
61.4999999060005
 31
0.0
  0
LINE
  5
26C
330
1F
100
AcDbEntity
  8
1
  6
Continuous
 62
     3
100
AcDbLine
 10
121.0000003572
 20
56.5000000000004
 30
0.0
 11
140.0
 21
56.5000000000004
 31
0.0
  0
LINE
  5
26D
330
1F
100
AcDbEntity
  8
1
  6
Continuous
 62
     3
100
AcDbLine
 10
140.0
 20
56.5000000000004
 30
0.0
 11
158.9999996428
 21
56.5000000000004
 31
0.0
  0
LINE
  5
26E
330
1F
100
AcDbEntity
  8
1
  6
Continuous
 62
     3
100
AcDbLine
 10
158.9999996428
 20
56.5000000000004
 30
0.0
 11
159.999999624
 21
57.4999999812002
 31
0.0
  0
LINE
  5
26F
330
1F
100
AcDbEntity
  8
1
  6
Continuous
 62
     3
100
AcDbLine
 10
159.999999624
 20
57.4999999812002
 30
0.0
 11
159.999999624
 21
58.858983804273
 31
0.0
  0
LINE
  5
270
330
1F
100
AcDbEntity
  8
1
  6
Continuous
 62
     3
100
AcDbLine
 10
157.5
 20
61.4999999060005
 30
0.0
 11
157.5
 21
74.84519763057352
 31
0.0
  0
LINE
  5
271
330
1F
100
AcDbEntity
  8
1
  6
Continuous
 62
     3
100
AcDbLine
 10
149.999999812
 20
81.0341331574013
 30
0.0
 11
149.999999812
 21
97.4999992292
 31
0.0
  0
LINE
  5
272
330
1F
100
AcDbEntity
  8
1
  6
Continuous
 62
     3
100
AcDbLine
 10
130.000000188
 20
97.4999992292
 30
0.0
 11
130.000000188
 21
81.0341331574013
 31
0.0
  0
LINE
  5
273
330
1F
100
AcDbEntity
  8
1
  6
Continuous
 62
     3
100
AcDbLine
 10
122.5
 20
74.84519763057352
 30
0.0
 11
122.5
 21
61.4999999060005
 31
0.0
  0
LINE
  5
274
330
1F
100
AcDbEntity
  8
1
  6
Continuous
 62
     3
100
AcDbLine
 10
120.000000376
 20
58.858983804273
 30
0.0
 11
120.000000376
 21
57.4999999812002
 31
0.0
  0
LINE
  5
275
330
1F
100
AcDbEntity
  8
1
  6
Continuous
 62
     3
100
AcDbLine
 10
120.000000376
 20
57.4999999812002
 30
0.0
 11
121.0000003572
 21
56.5000000000004
 31
0.0
  0
LINE
  5
276
330
1F
100
AcDbEntity
  8
0
  6
Continuous
 62
     3
100
AcDbLine
 10
122.104698490107
 20
27.9090419244317
 30
0.0
 11
157.895301509892
 21
27.9090419244317
 31
0.0
  0
LINE
  5
277
330
1F
100
AcDbEntity
  8
0
  6
Continuous
 62
     3
100
AcDbLine
 10
158.569798993405
 20
27.9325958955762
 30
0.0
 11
157.895301509892
 21
27.9090419244317
 31
0.0
  0
LINE
  5
278
330
1F
100
AcDbEntity
  8
0
  6
Continuous
 62
     3
100
AcDbLine
 10
121.430201006595
 20
27.9325958955762
 30
0.0
 11
122.104698490107
 21
27.9090419244317
 31
0.0
  0
LINE
  5
279
330
1F
100
AcDbEntity
  8
0
  6
Continuous
 62
     3
100
AcDbLine
 10
160.5
 20
29.4485331622107
 30
0.0
 11
160.5
 21
54.3349364905392
 31
0.0
  0
LINE
  5
27A
330
1F
100
AcDbEntity
  8
0
  6
Continuous
 62
     3
100
AcDbLine
 10
158.75
 20
56.5000000000004
 30
0.0
 11
121.25
 21
56.5000000000004
 31
0.0
  0
LINE
  5
27B
330
1F
100
AcDbEntity
  8
1
  6
DOT_CENTER
 62
     1
100
AcDbLine
 10
114.483339501605
 20
0.0
 30
0.0
 11
165.516660498395
 21
0.0
 31
0.0
  0
LINE
  5
27C
330
1F
100
AcDbEntity
  8
5
  6
Continuous
 62
     3
100
AcDbLine
 10
158.75
 20
56.5000000000004
 30
0.0
 11
159.5
 21
56.0669872981081
 31
0.0
  0
LINE
  5
27D
330
1F
100
AcDbEntity
  8
5
  6
Continuous
 62
     3
100
AcDbLine
 10
120.5
 20
56.066987298108
 30
0.0
 11
121.25
 21
56.5000000000004
 31
0.0
  0
LINE
  5
27E
330
1F
100
AcDbEntity
  8
0
  6
Continuous
 62
     3
100
AcDbLine
 10
154.5
 20
-35.1286346002694
 30
0.0
 11
154.5
 21
-31.5454203523213
 31
0.0
  0
LINE
  5
27F
330
1F
100
AcDbEntity
  8
0
  6
Continuous
 62
     3
100
AcDbLine
 10
-14.5
 20
-35.1286346002694
 30
0.0
 11
-14.5
 21
-31.5461647483777
 31
0.0
  0
LINE
  5
280
330
1F
100
AcDbEntity
  8
0
  6
Continuous
 62
     3
100
AcDbLine
 10
-19.0
 20
-24.6715561259646
 30
0.0
 11
-19.0
 21
-16.9999985558095
 31
0.0
  0
LINE
  5
281
330
1F
100
AcDbEntity
  8
0
  6
Continuous
 62
     3
100
AcDbLine
 10
14.5
 20
-35.1286346002694
 30
0.0
 11
14.5
 21
-31.8976936739279
 31
0.0
  0
LINE
  5
282
330
1F
100
AcDbEntity
  8
0
  6
Continuous
 62
     3
100
AcDbLine
 10
19.0
 20
16.9999987212742
 30
0.0
 11
19.0
 21
26.8088785504151
 31
0.0
  0
LINE
  5
283
330
1F
100
AcDbEntity
  8
0
  6
Continuous
 62
     3
100
AcDbLine
 10
15.0
 20
24.8048061603233
 30
0.0
 11
15.0
 21
25.3937138307777
 31
0.0
  0
LINE
  5
284
330
1F
100
AcDbEntity
  8
0
  6
Continuous
 62
     3
100
AcDbLine
 10
15.0
 20
24.8048061603233
 30
0.0
 11
15.0
 21
25.3937138307777
 31
0.0
  0
LINE
  5
285
330
1F
100
AcDbEntity
  8
5
  6
Continuous
 62
     3
100
AcDbLine
 10
-19.5000000000001
 20
56.066987298108
 30
0.0
 11
-18.75
 21
56.5000000000004
 31
0.0
  0
LINE
  5
286
330
1F
100
AcDbEntity
  8
5
  6
Continuous
 62
     3
100
AcDbLine
 10
18.75
 20
56.5000000000004
 30
0.0
 11
19.5000000000001
 21
56.0669872981081
 31
0.0
  0
LINE
  5
287
330
1F
100
AcDbEntity
  8
1
  6
DOT_CENTER
 62
     1
100
AcDbLine
 10
-57.9999999999999
 20
0.0
 30
0.0
 11
58.0
 21
0.0
 31
0.0
  0
LINE
  5
288
330
1F
100
AcDbEntity
  8
0
  6
Continuous
 62
     3
100
AcDbLine
 10
18.75
 20
56.5000000000004
 30
0.0
 11
-18.75
 21
56.5000000000004
 31
0.0
  0
LINE
  5
289
330
1F
100
AcDbEntity
  8
0
  6
Continuous
 62
     3
100
AcDbLine
 10
20.5
 20
29.4485331622105
 30
0.0
 11
20.5
 21
54.3349364905392
 31
0.0
  0
LINE
  5
28A
330
1F
100
AcDbEntity
  8
0
  6
Continuous
 62
     3
100
AcDbLine
 10
-18.569798993405
 20
27.9325958955762
 30
0.0
 11
-17.8953015098925
 21
27.9090419244317
 31
0.0
  0
LINE
  5
28B
330
1F
100
AcDbEntity
  8
0
  6
Continuous
 62
     3
100
AcDbLine
 10
18.569798993405
 20
27.9325958955762
 30
0.0
 11
17.8953015098924
 21
27.9090419244317
 31
0.0
  0
LINE
  5
28C
330
1F
100
AcDbEntity
  8
0
  6
Continuous
 62
     3
100
AcDbLine
 10
-17.8953015098925
 20
27.9090419244317
 30
0.0
 11
17.8953015098924
 21
27.9090419244317
 31
0.0
  0
LINE
  5
28D
330
1F
100
AcDbEntity
  8
1
  6
Continuous
 62
     3
100
AcDbLine
 10
-19.9999996240003
 20
57.4999999812002
 30
0.0
 11
-18.9999996428
 21
56.5000000000004
 31
0.0
  0
LINE
  5
28E
330
1F
100
AcDbEntity
  8
1
  6
Continuous
 62
     3
100
AcDbLine
 10
-19.9999996240003
 20
58.858983804273
 30
0.0
 11
-19.9999996240003
 21
57.4999999812002
 31
0.0
  0
LINE
  5
28F
330
1F
100
AcDbEntity
  8
1
  6
Continuous
 62
     3
100
AcDbLine
 10
-18.4752082667342
 20
74.4999996616001
 30
0.0
 11
-18.4752082667342
 21
61.4999999060005
 31
0.0
  0
LINE
  5
290
330
1F
100
AcDbEntity
  8
1
  6
Continuous
 62
     3
100
AcDbLine
 10
-9.99999981200017
 20
97.4999992292
 30
0.0
 11
-9.99999981200017
 21
81.0341331574013
 31
0.0
  0
LINE
  5
291
330
1F
100
AcDbEntity
  8
1
  6
Continuous
 62
     3
100
AcDbLine
 10
9.99999981199971
 20
81.0341331574013
 30
0.0
 11
9.99999981199971
 21
97.4999992292
 31
0.0
  0
LINE
  5
292
330
1F
100
AcDbEntity
  8
1
  6
Continuous
 62
     3
100
AcDbLine
 10
18.4752082667337
 20
74.4999996616001
 30
0.0
 11
13.3315726952083
 21
76.3207107988996
 31
0.0
  0
LINE
  5
293
330
1F
100
AcDbEntity
  8
1
  6
Continuous
 62
     3
100
AcDbLine
 10
18.4752082667337
 20
61.4999999060005
 30
0.0
 11
18.4752082667337
 21
74.4999996616001
 31
0.0
  0
LINE
  5
294
330
1F
100
AcDbEntity
  8
1
  6
Continuous
 62
     3
100
AcDbLine
 10
19.9999996239999
 20
57.4999999812002
 30
0.0
 11
19.9999996239999
 21
58.858983804273
 31
0.0
  0
LINE
  5
295
330
1F
100
AcDbEntity
  8
1
  6
Continuous
 62
     3
100
AcDbLine
 10
18.9999996427996
 20
56.5000000000004
 30
0.0
 11
19.9999996239999
 21
57.4999999812002
 31
0.0
  0
LINE
  5
296
330
1F
100
AcDbEntity
  8
1
  6
Continuous
 62
     3
100
AcDbLine
 10
0.0
 20
56.5000000000004
 30
0.0
 11
18.9999996427996
 21
56.5000000000004
 31
0.0
  0
LINE
  5
297
330
1F
100
AcDbEntity
  8
1
  6
Continuous
 62
     3
100
AcDbLine
 10
-18.9999996428
 20
56.5000000000004
 30
0.0
 11
0.0
 21
56.5000000000004
 31
0.0
  0
LINE
  5
298
330
1F
100
AcDbEntity
  8
1
  6
Continuous
 62
     3
100
AcDbLine
 10
-13.3315726952087
 20
76.3207107989005
 30
0.0
 11
-18.4752082667342
 21
74.4999996616001
 31
0.0
  0
LINE
  5
299
330
1F
100
AcDbEntity
  8
1
  6
Continuous
 62
     3
100
AcDbLine
 10
18.4752082667337
 20
61.4999999060005
 30
0.0
 11
-18.5247917332663
 21
61.4999999060005
 31
0.0
  0
LINE
  5
29A
330
1F
100
AcDbEntity
  8
1
  6
Continuous
 62
     3
100
AcDbLine
 10
19.9999996239999
 20
57.4999999812002
 30
0.0
 11
-20.0000003760001
 21
57.4999999812002
 31
0.0
  0
LINE
  5
29B
330
1F
100
AcDbEntity
  8
1
  6
Continuous
 62
     3
100
AcDbLine
 10
9.23760413336686
 20
74.4999996616001
 30
0.0
 11
9.23760413336686
 21
61.4999999060005
 31
0.0
  0
LINE
  5
29C
330
1F
100
AcDbEntity
  8
1
  6
Continuous
 62
     3
100
AcDbLine
 10
-9.23760413336731
 20
74.4999996616001
 30
0.0
 11
-9.23760413336731
 21
61.4999999060005
 31
0.0
  0
LINE
  5
29D
330
1F
100
AcDbEntity
  8
1
  6
Continuous
 62
     3
100
AcDbLine
 10
16.748000000001
 20
-37.6481253250114
 30
0.0
 11
18.000000000001
 21
-38.9001253250114
 31
0.0
  0
LINE
  5
29E
330
1F
100
AcDbEntity
  8
1
  6
Continuous
 62
     3
100
AcDbLine
 10
15.1104988580153
 20
-36.7470192534565
 30
0.0
 11
15.0
 21
-36.6286346002694
 31
0.0
  0
LINE
  5
29F
330
1F
100
AcDbEntity
  8
0
  6
Continuous
 62
     3
100
AcDbLine
 10
18.000000000001
 20
-39.5000002255981
 30
0.0
 11
18.000000000001
 21
-38.9001253250114
 31
0.0
  0
LINE
  5
2A0
330
1F
100
AcDbEntity
  8
1
  6
Continuous
 62
     3
100
AcDbLine
 10
-16.7480000000009
 20
-37.6481253250114
 30
0.0
 11
-18.0000000000009
 21
-38.9001253250114
 31
0.0
  0
LINE
  5
2A1
330
1F
100
AcDbEntity
  8
1
  6
Continuous
 62
     3
100
AcDbLine
 10
-15.1104988580154
 20
-36.7470192534565
 30
0.0
 11
-15.0
 21
-36.6286346002694
 31
0.0
  0
LINE
  5
2A2
330
1F
100
AcDbEntity
  8
0
  6
Continuous
 62
     3
100
AcDbLine
 10
-18.0000000000009
 20
-39.5000002255981
 30
0.0
 11
-18.0000000000009
 21
-38.9001253250114
 31
0.0
  0
LINE
  5
2A3
330
1F
100
AcDbEntity
  8
1
  6
Continuous
 62
     1
100
AcDbLine
 10
16.9175
 20
-37.8174999999969
 30
0.0
 11
16.9175
 21
-39.5000002255981
 31
0.0
  0
LINE
  5
2A4
330
1F
100
AcDbEntity
  8
1
  6
Continuous
 62
     1
100
AcDbLine
 10
-16.9175000000001
 20
-37.8174999999969
 30
0.0
 11
-16.9175000000001
 21
-39.5000002255981
 31
0.0
  0
LINE
  5
2A5
330
1F
100
AcDbEntity
  8
3
  6
Continuous
 62
     3
100
AcDbLine
 10
-29.00000000000009
 20
117.5000000000005
 30
0.0
 11
28.9999999999994
 21
117.5000000000005
 31
0.0
  0
LINE
  5
2A6
330
1F
100
AcDbEntity
  8
3
  6
Continuous
 62
     3
100
AcDbLine
 10
30.9999999999994
 20
119.5000000000005
 30
0.0
 11
30.9999999999994
 21
127.544738518465
 31
0.0
  0
LINE
  5
2A7
330
1F
100
AcDbEntity
  8
3
  6
Continuous
 62
     3
100
AcDbLine
 10
26.74401730776742
 20
133.2856795241006
 30
0.0
 11
13.22667387823742
 21
137.3920587523506
 31
0.0
  0
LINE
  5
2A8
330
1F
100
AcDbEntity
  8
3
  6
Continuous
 62
     3
100
AcDbLine
 10
12.4999999999994
 20
137.5000000000005
 30
0.0
 11
-12.87135381800559
 21
137.5000000000005
 31
0.0
  0
LINE
  5
2A9
330
1F
100
AcDbEntity
  8
3
  6
PHANTOM
 62
     4
100
AcDbLine
 10
-29.00000000000009
 20
105.0000000000005
 30
0.0
 11
28.9999999999994
 21
105.0000000000005
 31
0.0
  0
LINE
  5
2AA
330
1F
100
AcDbEntity
  8
3
  6
PHANTOM
 62
     4
100
AcDbLine
 10
30.9999999999994
 20
107.0000000000005
 30
0.0
 11
30.9999999999994
 21
115.0447385184645
 31
0.0
  0
LINE
  5
2AB
330
1F
100
AcDbEntity
  8
3
  6
PHANTOM
 62
     4
100
AcDbLine
 10
26.74401730776731
 20
120.7856795241006
 30
0.0
 11
13.22667387823742
 21
124.8920587523506
 31
0.0
  0
LINE
  5
2AC
330
1F
100
AcDbEntity
  8
3
  6
PHANTOM
 62
     4
100
AcDbLine
 10
12.4999999999994
 20
125.0000000000005
 30
0.0
 11
-12.5
 21
125.000000000001
 31
0.0
  0
LINE
  5
2AD
330
1F
100
AcDbEntity
  8
3
  6
Continuous
 62
     3
100
AcDbLine
 10
-26.74401730776829
 20
133.2856795241006
 30
0.0
 11
-13.2266738782368
 21
137.3920587523506
 31
0.0
  0
LINE
  5
2AE
330
1F
100
AcDbEntity
  8
3
  6
Continuous
 62
     3
100
AcDbLine
 10
-31.00000000000009
 20
119.5000000000005
 30
0.0
 11
-31.00000000000009
 21
127.5447385184645
 31
0.0
  0
LINE
  5
2AF
330
1F
100
AcDbEntity
  8
3
  6
PHANTOM
 62
     4
100
AcDbLine
 10
-26.74401730776849
 20
120.7856795241006
 30
0.0
 11
-13.2266738782368
 21
124.8920587523506
 31
0.0
  0
LINE
  5
2B0
330
1F
100
AcDbEntity
  8
3
  6
PHANTOM
 62
     4
100
AcDbLine
 10
-31.00000000000009
 20
107.0000000000005
 30
0.0
 11
-31.00000000000009
 21
115.0447385184645
 31
0.0
  0
LINE
  5
2B9
330
1F
100
AcDbEntity
  8
1
  6
Continuous
 62
     3
100
AcDbLine
 10
7.99999984959959
 20
99.4999991916006
 30
0.0
 11
-7.99999984960004
 21
99.4999991916006
 31
0.0
  0
LINE
  5
2BA
330
1F
100
AcDbEntity
  8
2
  6
Continuous
 62
     3
100
AcDbLine
 10
4.74999999999991
 20
99.49999919160058
 30
0.0
 11
4.74999999999991
 21
117.5000000000005
 31
0.0
  0
LINE
  5
2BB
330
1F
100
AcDbEntity
  8
2
  6
Continuous
 62
     3
100
AcDbLine
 10
-4.75000000000009
 20
117.5000000000005
 30
0.0
 11
-4.75
 21
99.4999991916006
 31
0.0
  0
LINE
  5
2BC
330
1F
100
AcDbEntity
  8
1
  6
Continuous
 62
     3
100
AcDbLine
 10
147.9999998495995
 20
99.50004342156791
 30
0.0
 11
132.0000001503998
 21
99.50004342156791
 31
0.0
  0
LINE
  5
2BD
330
1F
100
AcDbEntity
  8
3
  6
Continuous
 62
     3
100
AcDbLine
 10
110.9999873064538
 20
117.5000442299679
 30
0.0
 11
168.9999873064533
 21
117.5000442299679
 31
0.0
  0
LINE
  5
2BE
330
1F
100
AcDbEntity
  8
3
  6
Continuous
 62
     3
100
AcDbLine
 10
170.9999873064533
 20
119.5000442299679
 30
0.0
 11
170.9999873064533
 21
127.5447827484318
 31
0.0
  0
LINE
  5
2BF
330
1F
100
AcDbEntity
  8
3
  6
Continuous
 62
     3
100
AcDbLine
 10
166.7440046142212
 20
133.2857237540679
 30
0.0
 11
153.2266611846912
 21
137.3921029823179
 31
0.0
  0
LINE
  5
2C0
330
1F
100
AcDbEntity
  8
3
  6
Continuous
 62
     3
100
AcDbLine
 10
152.4999873064533
 20
137.5000442299679
 30
0.0
 11
127.1286334884483
 21
137.5000442299679
 31
0.0
  0
LINE
  5
2C1
330
1F
100
AcDbEntity
  8
3
  6
Continuous
 62
     3
100
AcDbLine
 10
113.2559699986856
 20
133.2857237540679
 30
0.0
 11
126.7733134282172
 21
137.3921029823179
 31
0.0
  0
LINE
  5
2C2
330
1F
100
AcDbEntity
  8
3
  6
Continuous
 62
     3
100
AcDbLine
 10
108.9999873064538
 20
119.5000442299679
 30
0.0
 11
108.9999873064538
 21
127.5447827484318
 31
0.0
  0
LINE
  5
2CB
330
1F
100
AcDbEntity
  8
2
  6
Continuous
 62
     3
100
AcDbLine
 10
144.7499873064538
 20
99.50004342156791
 30
0.0
 11
144.7499873064538
 21
117.5000442299679
 31
0.0
  0
LINE
  5
2CC
330
1F
100
AcDbEntity
  8
2
  6
Continuous
 62
     3
100
AcDbLine
 10
135.2499873064538
 20
117.5000442299679
 30
0.0
 11
135.2499873064538
 21
99.50004342156791
 31
0.0
  0
ARC
  5
2CD
330
1F
100
AcDbEntity
  8
1
  6
Continuous
 62
     3
100
AcDbCircle
 10
131.25
 20
31.2459251577193
 30
0.0
 40
44.13023296094494
100
AcDbArc
 50
78.56379277335472
 51
101.4362072266453
  0
ARC
  5
2CE
330
1F
100
AcDbEntity
  8
1
  6
Continuous
 62
     3
100
AcDbCircle
 10
148.75
 20
31.2459251577193
 30
0.0
 40
44.13023296094494
100
AcDbArc
 50
78.56379277335472
 51
101.4362072266453
  0
ARC
  5
2CF
330
1F
100
AcDbEntity
  8
1
  6
Continuous
 62
     3
100
AcDbCircle
 10
125.0000002819997
 20
81.0341331574013
 30
0.0
 40
4.999999905999638
100
AcDbArc
 50
289.4926182729844
 51
0.0
  0
ARC
  5
2D0
330
1F
100
AcDbEntity
  8
1
  6
Continuous
 62
     3
100
AcDbCircle
 10
154.999999718
 20
81.0341331574013
 30
0.0
 40
4.999999905999999
100
AcDbArc
 50
180.0
 51
250.5073817270188
  0
ARC
  5
2D1
330
1F
100
AcDbEntity
  8
1
  6
Continuous
 62
     3
100
AcDbCircle
 10
-21.0000000000001
 20
-10.0768839114287
 30
0.0
 40
2.0
100
AcDbArc
 50
0.0
 51
141.5298477639008
  0
ARC
  5
2D2
330
1F
100
AcDbEntity
  8
1
  6
Continuous
 62
     3
100
AcDbCircle
 10
-31.610007444483
 20
-17.0
 30
0.0
 40
2.0
100
AcDbArc
 50
270.0
 51
321.5298477639047
  0
ARC
  5
2D3
330
1F
100
AcDbEntity
  8
1
  6
Continuous
 62
     3
100
AcDbCircle
 10
21.0000000000001
 20
10.0768839114286
 30
0.0
 40
2.0
100
AcDbArc
 50
180.0
 51
321.5298477639035
  0
ARC
  5
2D4
330
1F
100
AcDbEntity
  8
1
  6
Continuous
 62
     3
100
AcDbCircle
 10
31.6100074444829
 20
17.0
 30
0.0
 40
2.0
100
AcDbArc
 50
90.0
 51
141.529847763903
  0
ARC
  5
2D5
330
1F
100
AcDbEntity
  8
1
  6
Continuous
 62
     3
100
AcDbCircle
 10
122.696395541251
 20
-34.699999999998
 30
0.0
 40
3.00000000000006
100
AcDbArc
 50
280.6704440509122
 51
316.9732488830325
  0
ARC
  5
2D6
330
1F
100
AcDbEntity
  8
1
  6
Continuous
 62
     3
100
AcDbCircle
 10
157.303604458749
 20
-34.699999999998
 30
0.0
 40
3.000000000000096
100
AcDbArc
 50
223.0267511169677
 51
259.329555949088
  0
ARC
  5
2D7
330
1F
100
AcDbEntity
  8
1
  6
Continuous
 62
     3
100
AcDbCircle
 10
121.5
 20
54.3349364905392
 30
0.0
 40
1.999999999999936
100
AcDbArc
 50
120.0000000000011
 51
180.0
  0
ARC
  5
2D8
330
1F
100
AcDbEntity
  8
1
  6
Continuous
 62
     3
100
AcDbCircle
 10
158.5
 20
54.3349364905392
 30
0.0
 40
2.0
100
AcDbArc
 50
0.0
 51
60.00000000000038
  0
ARC
  5
2D9
330
1F
100
AcDbEntity
  8
1
  6
Continuous
 62
     3
100
AcDbCircle
 10
18.5
 20
54.3349364905392
 30
0.0
 40
2.0
100
AcDbArc
 50
0.0
 51
59.99999999999791
  0
ARC
  5
2DA
330
1F
100
AcDbEntity
  8
1
  6
Continuous
 62
     3
100
AcDbCircle
 10
-18.5
 20
54.3349364905392
 30
0.0
 40
1.999999999999986
100
AcDbArc
 50
120.0000000000035
 51
180.0
  0
ARC
  5
2DB
330
1F
100
AcDbEntity
  8
1
  6
Continuous
 62
     3
100
AcDbCircle
 10
17.3036044587491
 20
-34.699999999998
 30
0.0
 40
2.99999999999996
100
AcDbArc
 50
223.0267511169701
 51
259.3295559490934
  0
ARC
  5
2DC
330
1F
100
AcDbEntity
  8
1
  6
Continuous
 62
     3
100
AcDbCircle
 10
-17.3036044587491
 20
-34.699999999998
 30
0.0
 40
3.000000000000003
100
AcDbArc
 50
280.6704440509065
 51
316.9732488830286
  0
ARC
  5
2DD
330
1F
100
AcDbEntity
  8
1
  6
Continuous
 62
     3
100
AcDbCircle
 10
140.0
 20
0.0
 30
0.0
 40
23.99999999999985
100
AcDbArc
 50
145.2109001505311
 51
159.7504720407324
  0
ARC
  5
2DE
330
1F
100
AcDbEntity
  8
1
  6
Continuous
 62
     3
100
AcDbCircle
 10
140.0
 20
0.0
 30
0.0
 40
23.99999999999963
100
AcDbArc
 50
200.2495279592648
 51
217.6584620062079
  0
ARC
  5
2DF
330
1F
100
AcDbEntity
  8
1
  6
Continuous
 62
     3
100
AcDbCircle
 10
140.0
 20
0.0
 30
0.0
 40
24.00000000000006
100
AcDbArc
 50
246.7167142343886
 51
293.2832857656114
  0
ARC
  5
2E0
330
1F
100
AcDbEntity
  8
1
  6
Continuous
 62
     3
100
AcDbCircle
 10
140.0
 20
0.0
 30
0.0
 40
24.00000000000007
100
AcDbArc
 50
20.24952795926764
 51
34.78909984946892
  0
ARC
  5
2E1
330
1F
100
AcDbEntity
  8
1
  6
Continuous
 62
     3
100
AcDbCircle
 10
140.0
 20
0.0
 30
0.0
 40
24.00000000000006
100
AcDbArc
 50
66.71671423438858
 51
113.2832857656114
  0
ARC
  5
2E2
330
1F
100
AcDbEntity
  8
1
  6
Continuous
 62
     3
100
AcDbCircle
 10
140.0
 20
0.0
 30
0.0
 40
24.00000000000001
100
AcDbArc
 50
322.3415379937921
 51
339.7504720407352
  0
ARC
  5
2E3
330
1F
100
AcDbEntity
  8
0
  6
Continuous
 62
     3
100
AcDbCircle
 10
14.0
 20
18.1715561259646
 30
0.0
 40
5.0
100
AcDbArc
 50
0.0
 51
62.18186072235385
  0
ARC
  5
2E4
330
1F
100
AcDbEntity
  8
0
  6
Continuous
 62
     3
100
AcDbCircle
 10
35.7585481156726
 20
21.0
 30
0.0
 40
2.0
100
AcDbArc
 50
270.0
 51
330.0000000000003
  0
ARC
  5
2E5
330
1F
100
AcDbEntity
  8
0
  6
Continuous
 62
     3
100
AcDbCircle
 10
-31.0946805022397
 20
23.9998754695829
 30
0.0
 40
4.999875470882309
100
AcDbArc
 50
270.0013062639095
 51
288.0634120471249
  0
ARC
  5
2E6
330
1F
100
AcDbEntity
  8
0
  6
Continuous
 62
     3
100
AcDbCircle
 10
-35.7585481156726
 20
21.0
 30
0.0
 40
1.999999999998374
100
AcDbArc
 50
210.0000000000269
 51
270.0
  0
ARC
  5
2E7
330
1F
100
AcDbEntity
  8
0
  6
Continuous
 62
     3
100
AcDbCircle
 10
-35.7585481156726
 20
-21.0
 30
0.0
 40
2.0
100
AcDbArc
 50
90.0
 51
149.9999999999756
  0
ARC
  5
2E8
330
1F
100
AcDbEntity
  8
0
  6
Continuous
 62
     3
100
AcDbCircle
 10
20.9999984954663
 20
20.9999984954664
 30
0.0
 40
1.999998495466866
100
AcDbArc
 50
179.9999568982549
 51
270.000043101748
  0
ARC
  5
2E9
330
1F
100
AcDbEntity
  8
0
  6
Continuous
 62
     3
100
AcDbCircle
 10
32.0205415531925
 20
-23.9999512920145
 30
0.0
 40
4.999951292323519
100
AcDbArc
 50
90.00063701155372
 51
127.9785123977729
  0
ARC
  5
2EA
330
1F
100
AcDbEntity
  8
0
  6
Continuous
 62
     3
100
AcDbCircle
 10
-21.0000004590176
 20
-21.0000004590176
 30
0.0
 40
2.000000459017734
100
AcDbArc
 50
0.00002775482549
 51
89.99997224517452
  0
ARC
  5
2EB
330
1F
100
AcDbEntity
  8
0
  6
Continuous
 62
     3
100
AcDbCircle
 10
14.2788800456693
 20
-25.1611641706905
 30
0.0
 40
5.002182707304351
100
AcDbArc
 50
291.268651533035
 51
307.9650795855777
  0
ARC
  5
2EC
330
1F
100
AcDbEntity
  8
1
  6
Continuous
 62
     3
100
AcDbCircle
 10
-17.0000030690972
 20
25.4410417033745
 30
0.0
 40
1.999999999999932
100
AcDbArc
 50
288.0621057785312
 51
359.360898166187
  0
ARC
  5
2ED
330
1F
100
AcDbEntity
  8
0
  6
Continuous
 62
     3
100
AcDbCircle
 10
-19.0000000000001
 20
29.4485331622105
 30
0.0
 40
1.5
100
AcDbArc
 50
180.0
 51
268.0000000000056
  0
ARC
  5
2EE
330
1F
100
AcDbEntity
  8
0
  6
Continuous
 62
     3
100
AcDbCircle
 10
17.4999999984849
 20
24.8048057057616
 30
0.0
 40
2.499999998484899
100
AcDbArc
 50
179.999999955935
 51
242.1818607222679
  0
ARC
  5
2EF
330
1F
100
AcDbEntity
  8
0
  6
Continuous
 62
     3
100
AcDbCircle
 10
19.0
 20
29.4485331622105
 30
0.0
 40
1.49999999999996
100
AcDbArc
 50
272.0000000000057
 51
0.0
  0
ARC
  5
2F0
330
1F
100
AcDbEntity
  8
0
  6
Continuous
 62
     3
100
AcDbCircle
 10
19.0
 20
29.4485331622105
 30
0.0
 40
1.500000000000022
100
AcDbArc
 50
304.8499096277448
 51
0.0
  0
ARC
  5
2F1
330
1F
100
AcDbEntity
  8
1
  6
Continuous
 62
     3
100
AcDbCircle
 10
-46.6921188385256
 20
17.846688068499
 30
0.0
 40
8.046819376908992
100
AcDbArc
 50
148.5472383858788
 51
211.0739056061413
  0
ARC
  5
2F2
330
1F
100
AcDbEntity
  8
1
  6
Continuous
 62
     3
100
AcDbCircle
 10
-46.6645054885003
 20
17.846688068499
 30
0.0
 40
8.04681937690896
100
AcDbArc
 50
328.9260943938586
 51
31.45276161412117
  0
ARC
  5
2F3
330
1F
100
AcDbEntity
  8
1
  6
Continuous
 62
     3
100
AcDbCircle
 10
-46.6645054885003
 20
-17.846688068499
 30
0.0
 40
8.046819376908998
100
AcDbArc
 50
328.5472383858788
 51
31.07390560614133
  0
ARC
  5
2F4
330
1F
100
AcDbEntity
  8
1
  6
Continuous
 62
     3
100
AcDbCircle
 10
-46.6921188385256
 20
-17.846688068499
 30
0.0
 40
8.04681937690896
100
AcDbArc
 50
148.9260943938587
 51
211.4527616141212
  0
ARC
  5
2F5
330
1F
100
AcDbEntity
  8
1
  6
Continuous
 62
     3
100
AcDbCircle
 10
46.6921188385256
 20
-17.846688068499
 30
0.0
 40
8.046819376908992
100
AcDbArc
 50
328.5472383858788
 51
31.07390560614133
  0
ARC
  5
2F6
330
1F
100
AcDbEntity
  8
1
  6
Continuous
 62
     3
100
AcDbCircle
 10
46.6645054885003
 20
-17.846688068499
 30
0.0
 40
8.04681937690896
100
AcDbArc
 50
148.9260943938587
 51
211.4527616141212
  0
ARC
  5
2F7
330
1F
100
AcDbEntity
  8
1
  6
Continuous
 62
     3
100
AcDbCircle
 10
46.6645054885003
 20
17.846688068499
 30
0.0
 40
8.046819376908998
100
AcDbArc
 50
148.5472383858788
 51
211.0739056061413
  0
ARC
  5
2F8
330
1F
100
AcDbEntity
  8
1
  6
Continuous
 62
     3
100
AcDbCircle
 10
46.6921188385256
 20
17.846688068499
 30
0.0
 40
8.04681937690896
100
AcDbArc
 50
328.9260943938586
 51
31.4527616141212
  0
ARC
  5
2F9
330
1F
100
AcDbEntity
  8
0
  6
Continuous
 62
     3
100
AcDbCircle
 10
35.7585481156726
 20
21.0
 30
0.0
 40
2.0
100
AcDbArc
 50
270.0
 51
330.0000000000003
  0
ARC
  5
2FA
330
1F
100
AcDbEntity
  8
0
  6
Continuous
 62
     3
100
AcDbCircle
 10
35.7585481156726
 20
-21.0
 30
0.0
 40
2.000000000000016
100
AcDbArc
 50
29.99999999999973
 51
90.0
  0
ARC
  5
2FB
330
1F
100
AcDbEntity
  8
0
  6
Continuous
 62
     3
100
AcDbCircle
 10
35.7585481156726
 20
-21.0
 30
0.0
 40
2.000000000000016
100
AcDbArc
 50
29.99999999999973
 51
90.0
  0
ARC
  5
2FC
330
1F
100
AcDbEntity
  8
0
  6
Continuous
 62
     3
100
AcDbCircle
 10
-35.7585481156707
 20
231.0
 30
0.0
 40
2.000000000000023
100
AcDbArc
 50
209.9999999999996
 51
270.0
  0
ARC
  5
2FD
330
1F
100
AcDbEntity
  8
0
  6
Continuous
 62
     3
100
AcDbCircle
 10
35.7585481156744
 20
231.0
 30
0.0
 40
2.0
100
AcDbArc
 50
270.0
 51
330.0000000000003
  0
ARC
  5
2FE
330
1F
100
AcDbEntity
  8
0
  6
Continuous
 62
     3
100
AcDbCircle
 10
35.7585481156744
 20
189.0
 30
0.0
 40
2.000000000000016
100
AcDbArc
 50
29.99999999999973
 51
90.0
  0
ARC
  5
2FF
330
1F
100
AcDbEntity
  8
0
  6
Continuous
 62
     3
100
AcDbCircle
 10
-35.7585481156707
 20
189.0
 30
0.0
 40
2.0
100
AcDbArc
 50
90.0
 51
150.0000000000004
  0
ARC
  5
300
330
1F
100
AcDbEntity
  8
1
  6
Continuous
 62
     3
100
AcDbCircle
 10
150.455429668326
 20
-75.8730662890811
 30
0.0
 40
36.08439114597169
100
AcDbArc
 50
78.52165904546908
 51
101.4783409545325
  0
ARC
  5
301
330
1F
100
AcDbEntity
  8
1
  6
Continuous
 62
     3
100
AcDbCircle
 10
150.455429668326
 20
-18.1628325469775
 30
0.0
 40
36.08439114597181
100
AcDbArc
 50
258.5216590454675
 51
281.478340954531
  0
ARC
  5
302
330
1F
100
AcDbEntity
  8
1
  6
Continuous
 62
     3
100
AcDbCircle
 10
129.544570331674
 20
-18.1628325469775
 30
0.0
 40
36.08439114597161
100
AcDbArc
 50
258.521659045469
 51
281.4783409545325
  0
ARC
  5
303
330
1F
100
AcDbEntity
  8
1
  6
Continuous
 62
     3
100
AcDbCircle
 10
129.544570331674
 20
-75.8730662890811
 30
0.0
 40
36.08439114597189
100
AcDbArc
 50
78.52165904546753
 51
101.4783409545309
  0
ARC
  5
304
330
1F
100
AcDbEntity
  8
0
  6
Continuous
 62
     3
100
AcDbCircle
 10
125.999987306456
 20
4.4907251434783
 30
0.0
 40
3.0
100
AcDbArc
 50
179.999999999607
 51
180.0220717040404
  0
ARC
  5
305
330
1F
100
AcDbEntity
  8
0
  6
Continuous
 62
     3
100
AcDbCircle
 10
122.999999673612
 20
-31.5454203523213
 30
0.0
 40
2.500000326388006
100
AcDbArc
 50
359.9999981575147
 51
66.42182338681953
  0
ARC
  5
306
330
1F
100
AcDbEntity
  8
0
  6
Continuous
 62
     3
100
AcDbCircle
 10
125.999999893688
 20
-24.671556665814
 30
0.0
 40
4.999999893688029
100
AcDbArc
 50
179.9999937114409
 51
246.4218189383258
  0
ARC
  5
307
330
1F
100
AcDbEntity
  8
0
  6
Continuous
 62
     3
100
AcDbCircle
 10
122.999999673612
 20
-31.5454203523213
 30
0.0
 40
2.500000326388006
100
AcDbArc
 50
359.9999981575147
 51
66.42182338681953
  0
ARC
  5
308
330
1F
100
AcDbEntity
  8
0
  6
Continuous
 62
     3
100
AcDbCircle
 10
154.000000106312
 20
-24.671556665814
 30
0.0
 40
4.999999893688297
100
AcDbArc
 50
293.5781810616728
 51
0.00000628855914
  0
ARC
  5
309
330
1F
100
AcDbEntity
  8
0
  6
Continuous
 62
     3
100
AcDbCircle
 10
153.9999999084
 20
18.1715565830717
 30
0.0
 40
5.000000091600008
100
AcDbArc
 50
359.9999946596015
 51
62.18186225001516
  0
ARC
  5
30A
330
1F
100
AcDbEntity
  8
0
  6
Continuous
 62
     3
100
AcDbCircle
 10
157.5
 20
25.3937138307778
 30
0.0
 40
2.499999999999952
100
AcDbArc
 50
91.99999999999457
 51
180.0
  0
ARC
  5
30B
330
1F
100
AcDbEntity
  8
0
  6
Continuous
 62
     3
100
AcDbCircle
 10
157.499999185621
 20
24.8048057279299
 30
0.0
 40
2.499999185621028
100
AcDbArc
 50
180.0000095696107
 51
242.1818676350007
  0
ARC
  5
30C
330
1F
100
AcDbEntity
  8
0
  6
Continuous
 62
     3
100
AcDbCircle
 10
157.000000326388
 20
-31.5454203523213
 30
0.0
 40
2.500000326387693
100
AcDbArc
 50
113.5781766131832
 51
180.0000018424853
  0
ARC
  5
30D
330
1F
100
AcDbEntity
  8
0
  6
Continuous
 62
     3
100
AcDbCircle
 10
159.0
 20
29.4485331622107
 30
0.0
 40
1.499999999999966
100
AcDbArc
 50
272.0000000000092
 51
0.0
  0
ARC
  5
30E
330
1F
100
AcDbEntity
  8
0
  6
Continuous
 62
     3
100
AcDbCircle
 10
126.000000061547
 20
18.1715565042486
 30
0.0
 40
5.000000061546798
100
AcDbArc
 50
117.8181404753535
 51
180.0000042847284
  0
ARC
  5
30F
330
1F
100
AcDbEntity
  8
0
  6
Continuous
 62
     3
100
AcDbCircle
 10
122.5
 20
25.3937138307778
 30
0.0
 40
2.5
100
AcDbArc
 50
0.0
 51
88.00000000000577
  0
ARC
  5
310
330
1F
100
AcDbEntity
  8
0
  6
Continuous
 62
     3
100
AcDbCircle
 10
122.499999566723
 20
24.8048063833491
 30
0.0
 40
2.500000433276855
100
AcDbArc
 50
297.8181437418554
 51
359.9999948886283
  0
ARC
  5
311
330
1F
100
AcDbEntity
  8
0
  6
Continuous
 62
     3
100
AcDbCircle
 10
121.0
 20
29.4485331622107
 30
0.0
 40
1.5
100
AcDbArc
 50
180.0
 51
267.9999999999903
  0
ARC
  5
312
330
1F
100
AcDbEntity
  8
1
  6
Continuous
 62
     3
100
AcDbCircle
 10
-17.3205077500625
 20
-49.0804058631962
 30
0.0
 40
9.291730720086935
100
AcDbArc
 50
67.26913907337554
 51
112.730860926625
  0
ARC
  5
313
330
1F
100
AcDbEntity
  8
1
  6
Continuous
 62
     3
100
AcDbCircle
 10
0.00000000000048
 20
-75.8730662890811
 30
0.0
 40
36.08439114597184
100
AcDbArc
 50
78.52165904546796
 51
101.4783409545322
  0
ARC
  5
314
330
1F
100
AcDbEntity
  8
1
  6
Continuous
 62
     3
100
AcDbCircle
 10
17.3462095555105
 20
-49.2082707308483
 30
0.0
 40
9.419630651960617
100
AcDbArc
 50
67.42547288938314
 51
112.5745271106174
  0
ARC
  5
315
330
1F
100
AcDbEntity
  8
1
  6
Continuous
 62
     3
100
AcDbCircle
 10
-17.3205077500625
 20
-44.9554929728624
 30
0.0
 40
9.291730720086884
100
AcDbArc
 50
247.2691390733747
 51
292.7308609266247
  0
ARC
  5
316
330
1F
100
AcDbEntity
  8
1
  6
Continuous
 62
     3
100
AcDbCircle
 10
0.00000000000048
 20
-18.1628325469775
 30
0.0
 40
36.08439114597176
100
AcDbArc
 50
258.5216590454678
 51
281.478340954532
  0
ARC
  5
317
330
1F
100
AcDbEntity
  8
1
  6
Continuous
 62
     3
100
AcDbCircle
 10
17.3462095555105
 20
-44.8276281052102
 30
0.0
 40
9.419630651960656
100
AcDbArc
 50
247.4254728893825
 51
292.5745271106169
  0
ARC
  5
318
330
1F
100
AcDbEntity
  8
1
  6
Continuous
 62
     3
100
AcDbCircle
 10
13.023691915227
 20
178.55800776513
 30
0.0
 40
7.999999999999615
100
AcDbArc
 50
74.74447725793806
 51
150.2555227420626
  0
ARC
  5
319
330
1F
100
AcDbEntity
  8
1
  6
Continuous
 62
     3
100
AcDbCircle
 10
-0.00000769648588
 20
186.0
 30
0.0
 40
6.999999999999944
100
AcDbArc
 50
209.7444772579371
 51
330.2555227420631
  0
ARC
  5
31A
330
1F
100
AcDbEntity
  8
1
  6
Continuous
 62
     3
100
AcDbCircle
 10
-13.0237073081987
 20
178.55800776513
 30
0.0
 40
7.999999999999865
100
AcDbArc
 50
29.74447725793742
 51
105.255522742064
  0
ARC
  5
31B
330
1F
100
AcDbEntity
  8
1
  6
Continuous
 62
     3
100
AcDbCircle
 10
-16.970570444963
 20
193.029437251523
 30
0.0
 40
6.99999999999988
100
AcDbArc
 50
164.744477257941
 51
285.2555227420593
  0
ARC
  5
31C
330
1F
100
AcDbEntity
  8
1
  6
Continuous
 62
     3
100
AcDbCircle
 10
-31.4419999313562
 20
196.976300388287
 30
0.0
 40
8.000000000000023
100
AcDbArc
 50
344.7444772579382
 51
60.25552274206272
  0
ARC
  5
31D
330
1F
100
AcDbEntity
  8
1
  6
Continuous
 62
     3
100
AcDbCircle
 10
-24.0000076964859
 20
210.0
 30
0.0
 40
6.999999999999974
100
AcDbArc
 50
119.7444772579379
 51
240.2555227420614
  0
ARC
  5
31E
330
1F
100
AcDbEntity
  8
1
  6
Continuous
 62
     3
100
AcDbCircle
 10
-31.4419999313562
 20
223.023699611713
 30
0.0
 40
8.000000000000131
100
AcDbArc
 50
299.7444772579379
 51
15.2555227420622
  0
ARC
  5
31F
330
1F
100
AcDbEntity
  8
1
  6
Continuous
 62
     3
100
AcDbCircle
 10
-16.970570444963
 20
226.970562748477
 30
0.0
 40
7.000000000000168
100
AcDbArc
 50
74.7444772579391
 51
195.2555227420586
  0
ARC
  5
320
330
1F
100
AcDbEntity
  8
1
  6
Continuous
 62
     3
100
AcDbCircle
 10
-13.0237073081987
 20
241.44199223487
 30
0.0
 40
7.999999999999642
100
AcDbArc
 50
254.7444772579374
 51
330.2555227420626
  0
ARC
  5
321
330
1F
100
AcDbEntity
  8
1
  6
Continuous
 62
     3
100
AcDbCircle
 10
-0.00000769648588
 20
234.0
 30
0.0
 40
6.9999999999999
100
AcDbArc
 50
29.74447725793733
 51
150.2555227420629
  0
ARC
  5
322
330
1F
100
AcDbEntity
  8
1
  6
Continuous
 62
     3
100
AcDbCircle
 10
13.023691915227
 20
241.44199223487
 30
0.0
 40
7.99999999999996
100
AcDbArc
 50
209.744477257937
 51
285.255522742064
  0
ARC
  5
323
330
1F
100
AcDbEntity
  8
1
  6
Continuous
 62
     3
100
AcDbCircle
 10
16.9705550519913
 20
226.970562748477
 30
0.0
 40
6.999999999999877
100
AcDbArc
 50
344.744477257941
 51
105.2555227420594
  0
ARC
  5
324
330
1F
100
AcDbEntity
  8
1
  6
Continuous
 62
     3
100
AcDbCircle
 10
31.4419845383845
 20
223.023699611713
 30
0.0
 40
8.000000000000023
100
AcDbArc
 50
164.7444772579382
 51
240.2555227420627
  0
ARC
  5
325
330
1F
100
AcDbEntity
  8
1
  6
Continuous
 62
     3
100
AcDbCircle
 10
23.9999923035141
 20
210.0
 30
0.0
 40
7.000000000000022
100
AcDbArc
 50
299.7444772579386
 51
60.25552274206073
  0
ARC
  5
326
330
1F
100
AcDbEntity
  8
1
  6
Continuous
 62
     3
100
AcDbCircle
 10
31.4419845383845
 20
196.976300388287
 30
0.0
 40
8.000000000000131
100
AcDbArc
 50
119.7444772579379
 51
195.2555227420624
  0
ARC
  5
327
330
1F
100
AcDbEntity
  8
1
  6
Continuous
 62
     3
100
AcDbCircle
 10
16.9705550519913
 20
193.029437251523
 30
0.0
 40
7.000000000000195
100
AcDbArc
 50
254.7444772579383
 51
15.2555227420584
  0
ARC
  5
328
330
1F
100
AcDbEntity
  8
0
  6
Continuous
 62
     3
100
AcDbCircle
 10
123.0
 20
-35.1286346002694
 30
0.0
 40
2.5
100
AcDbArc
 50
323.130102354156
 51
0.0
  0
ARC
  5
329
330
1F
100
AcDbEntity
  8
0
  6
Continuous
 62
     3
100
AcDbCircle
 10
157.0
 20
-35.1286346002694
 30
0.0
 40
2.5
100
AcDbArc
 50
180.0
 51
216.869897645844
  0
ARC
  5
32A
330
1F
100
AcDbEntity
  8
1
  6
Continuous
 62
     3
100
AcDbCircle
 10
157.000137021856
 20
58.8876897245449
 30
0.0
 40
2.999999943600129
100
AcDbArc
 50
359.4517489303944
 51
60.54825106959829
  0
ARC
  5
32B
330
1F
100
AcDbEntity
  8
1
  6
Continuous
 62
     3
100
AcDbCircle
 10
122.999862978144
 20
58.8876897245449
 30
0.0
 40
2.999999943600416
100
AcDbArc
 50
119.4517489304017
 51
180.5482510696055
  0
ARC
  5
32C
330
1F
100
AcDbEntity
  8
0
  6
Continuous
 62
     3
100
AcDbCircle
 10
-16.9999996661744
 20
-31.5461645292885
 30
0.0
 40
2.499999666174409
100
AcDbArc
 50
359.9999949788448
 51
66.44246146562828
  0
ARC
  5
32D
330
1F
100
AcDbEntity
  8
0
  6
Continuous
 62
     3
100
AcDbCircle
 10
17.5
 20
25.3937138307777
 30
0.0
 40
2.500000000000059
100
AcDbArc
 50
91.99999999999872
 51
180.0
  0
ARC
  5
32E
330
1F
100
AcDbEntity
  8
0
  6
Continuous
 62
     3
100
AcDbCircle
 10
17.5000004332766
 20
24.8048063833491
 30
0.0
 40
2.50000043327661
100
AcDbArc
 50
180.0000051113739
 51
242.1818562581579
  0
ARC
  5
32F
330
1F
100
AcDbEntity
  8
0
  6
Continuous
 62
     3
100
AcDbCircle
 10
-17.5
 20
25.3937138307777
 30
0.0
 40
2.500000000000074
100
AcDbArc
 50
1.47354788977181
 51
87.99999999999893
  0
ARC
  5
330
330
1F
100
AcDbEntity
  8
0
  6
Continuous
 62
     3
100
AcDbCircle
 10
13.9999999384532
 20
18.1715565042485
 30
0.0
 40
5.000000061546814
100
AcDbArc
 50
359.9999957152716
 51
62.18185952464639
  0
ARC
  5
331
330
1F
100
AcDbEntity
  8
1
  6
Continuous
 62
     3
100
AcDbCircle
 10
14.9999997179998
 20
81.0341331574013
 30
0.0
 40
4.99999990600009
100
AcDbArc
 50
180.0
 51
224.9773185645725
  0
ARC
  5
332
330
1F
100
AcDbEntity
  8
1
  6
Continuous
 62
     3
100
AcDbCircle
 10
-17.0001370218565
 20
58.8876897245449
 30
0.0
 40
2.999999943600271
100
AcDbArc
 50
119.4517489303968
 51
180.5482510696056
  0
ARC
  5
333
330
1F
100
AcDbEntity
  8
1
  6
Continuous
 62
     3
100
AcDbCircle
 10
-14.9999997180003
 20
81.0341331574013
 30
0.0
 40
4.999999905999641
100
AcDbArc
 50
289.4926182729845
 51
0.0
  0
ARC
  5
334
330
1F
100
AcDbEntity
  8
1
  6
Continuous
 62
     3
100
AcDbCircle
 10
14.9999997179998
 20
81.0341331574013
 30
0.0
 40
4.99999990600003
100
AcDbArc
 50
224.9773185645725
 51
250.50738172702
  0
ARC
  5
335
330
1F
100
AcDbEntity
  8
1
  6
Continuous
 62
     3
100
AcDbCircle
 10
17.0001370218561
 20
58.8876897245449
 30
0.0
 40
2.999999943599937
100
AcDbArc
 50
359.4517489303944
 51
60.54825106960491
  0
ARC
  5
336
330
1F
100
AcDbEntity
  8
1
  6
Continuous
 62
     3
100
AcDbCircle
 10
13.8564062000503
 20
62.7637214099317
 30
0.0
 40
12.61243670873252
100
AcDbArc
 50
68.51792493819454
 51
111.4820750618056
  0
ARC
  5
337
330
1F
100
AcDbEntity
  8
1
  6
Continuous
 62
     3
100
AcDbCircle
 10
-13.8564062000507
 20
62.7637214099315
 30
0.0
 40
12.6124367087327
100
AcDbArc
 50
68.51792493819491
 51
111.4820750618056
  0
ARC
  5
338
330
1F
100
AcDbEntity
  8
1
  6
Continuous
 62
     3
100
AcDbCircle
 10
-0.00000000000023
 20
26.2406489693259
 30
0.0
 40
49.13550914933829
100
AcDbArc
 50
79.16375810333912
 51
100.8362418966609
  0
ARC
  5
339
330
1F
100
AcDbEntity
  8
0
  6
Continuous
 62
     3
100
AcDbCircle
 10
17.0
 20
-35.1286346002694
 30
0.0
 40
2.5
100
AcDbArc
 50
180.0
 51
216.869897645844
  0
ARC
  5
33A
330
1F
100
AcDbEntity
  8
0
  6
Continuous
 62
     3
100
AcDbCircle
 10
-17.0
 20
-35.1286346002694
 30
0.0
 40
2.5
100
AcDbArc
 50
323.130102354156
 51
0.0
  0
ARC
  5
33B
330
1F
100
AcDbEntity
  8
3
  6
Continuous
 62
     3
100
AcDbCircle
 10
28.9999999999994
 20
119.500000000001
 30
0.0
 40
2.000000000000497
100
AcDbArc
 50
270.0
 51
359.9999999999857
  0
ARC
  5
33C
330
1F
100
AcDbEntity
  8
3
  6
Continuous
 62
     3
100
AcDbCircle
 10
24.9999999999994
 20
127.5447385184645
 30
0.0
 40
6.0
100
AcDbArc
 50
0.00000000000475
 51
73.1019546718034
  0
ARC
  5
33D
330
1F
100
AcDbEntity
  8
3
  6
Continuous
 62
     3
100
AcDbCircle
 10
12.4999999999994
 20
135.0000000000005
 30
0.0
 40
2.500000000001636
100
AcDbArc
 50
73.10195467178536
 51
90.0
  0
ARC
  5
33E
330
1F
100
AcDbEntity
  8
3
  6
PHANTOM
 62
     4
100
AcDbCircle
 10
28.9999999999994
 20
107.0000000000005
 30
0.0
 40
2.0
100
AcDbArc
 50
270.0
 51
0.0
  0
ARC
  5
33F
330
1F
100
AcDbEntity
  8
3
  6
PHANTOM
 62
     4
100
AcDbCircle
 10
24.99999999999932
 20
115.0447385184645
 30
0.0
 40
6.000000000000078
100
AcDbArc
 50
0.0
 51
73.1019546718037
  0
ARC
  5
340
330
1F
100
AcDbEntity
  8
3
  6
PHANTOM
 62
     4
100
AcDbCircle
 10
12.4999999999994
 20
122.5000000000005
 30
0.0
 40
2.500000000001636
100
AcDbArc
 50
73.10195467178536
 51
90.0
  0
ARC
  5
341
330
1F
100
AcDbEntity
  8
3
  6
Continuous
 62
     3
100
AcDbCircle
 10
-12.5
 20
135.000000000001
 30
0.0
 40
2.5
100
AcDbArc
 50
90.0
 51
106.8980453281911
  0
ARC
  5
342
330
1F
100
AcDbEntity
  8
3
  6
Continuous
 62
     3
100
AcDbCircle
 10
-25.00000000000009
 20
127.5447385184645
 30
0.0
 40
5.999999999999091
100
AcDbArc
 50
106.8980453281982
 51
180.0
  0
ARC
  5
343
330
1F
100
AcDbEntity
  8
3
  6
Continuous
 62
     3
100
AcDbCircle
 10
-29.00000000000009
 20
119.5000000000005
 30
0.0
 40
2.0
100
AcDbArc
 50
180.0
 51
270.0
  0
ARC
  5
344
330
1F
100
AcDbEntity
  8
3
  6
PHANTOM
 62
     4
100
AcDbCircle
 10
-25.00000000000009
 20
115.0447385184645
 30
0.0
 40
5.999999999999151
100
AcDbArc
 50
106.8980453282001
 51
180.0
  0
ARC
  5
345
330
1F
100
AcDbEntity
  8
3
  6
PHANTOM
 62
     4
100
AcDbCircle
 10
-12.5
 20
122.500000000001
 30
0.0
 40
2.5
100
AcDbArc
 50
90.0
 51
106.8980453281912
  0
ARC
  5
346
330
1F
100
AcDbEntity
  8
3
  6
CENTER
 62
     4
100
AcDbCircle
 10
-29.00000000000009
 20
107.0000000000005
 30
0.0
 40
2.0
100
AcDbArc
 50
180.0
 51
270.0
  0
ARC
  5
353
330
1F
100
AcDbEntity
  8
1
  6
Continuous
 62
     3
100
AcDbCircle
 10
7.9999998495995
 20
97.4999992292
 30
0.0
 40
1.999999962400206
100
AcDbArc
 50
0.0
 51
89.99999999999756
  0
ARC
  5
354
330
1F
100
AcDbEntity
  8
1
  6
Continuous
 62
     3
100
AcDbCircle
 10
-7.99999984960007
 20
97.4999992292
 30
0.0
 40
1.999999962400594
100
AcDbArc
 50
89.99999999999906
 51
180.0
  0
ARC
  5
355
330
1F
100
AcDbEntity
  8
1
  6
Continuous
 62
     3
100
AcDbCircle
 10
147.9999998495995
 20
97.50004345916727
 30
0.0
 40
1.999999962400096
100
AcDbArc
 50
0.0
 51
90.0
  0
ARC
  5
356
330
1F
100
AcDbEntity
  8
1
  6
Continuous
 62
     3
100
AcDbCircle
 10
132.0000001503998
 20
97.50004345916727
 30
0.0
 40
1.999999962400636
100
AcDbArc
 50
90.0
 51
180.0
  0
ARC
  5
357
330
1F
100
AcDbEntity
  8
3
  6
Continuous
 62
     3
100
AcDbCircle
 10
168.9999873064533
 20
119.5000442299679
 30
0.0
 40
2.0
100
AcDbArc
 50
270.0
 51
0.0
  0
ARC
  5
358
330
1F
100
AcDbEntity
  8
3
  6
Continuous
 62
     3
100
AcDbCircle
 10
164.9999873064533
 20
127.5447827484318
 30
0.0
 40
6.0
100
AcDbArc
 50
0.0
 51
73.10195467180448
  0
ARC
  5
359
330
1F
100
AcDbEntity
  8
3
  6
Continuous
 62
     3
100
AcDbCircle
 10
152.4999873064533
 20
135.0000442299679
 30
0.0
 40
2.500000000001521
100
AcDbArc
 50
73.10195467178737
 51
90.0
  0
ARC
  5
35A
330
1F
100
AcDbEntity
  8
3
  6
Continuous
 62
     3
100
AcDbCircle
 10
127.4999873064538
 20
135.0000442299679
 30
0.0
 40
2.5
100
AcDbArc
 50
90.0
 51
106.8980453281843
  0
ARC
  5
35B
330
1F
100
AcDbEntity
  8
3
  6
Continuous
 62
     3
100
AcDbCircle
 10
114.9999873064538
 20
127.5447827484318
 30
0.0
 40
5.999999999999093
100
AcDbArc
 50
106.8980453281983
 51
180.0
  0
ARC
  5
35C
330
1F
100
AcDbEntity
  8
3
  6
Continuous
 62
     3
100
AcDbCircle
 10
110.9999873064538
 20
119.5000442299679
 30
0.0
 40
2.0
100
AcDbArc
 50
180.0
 51
270.0
  0
CIRCLE
  5
369
330
1F
100
AcDbEntity
  8
1
  6
Continuous
 62
     3
100
AcDbCircle
 10
140.0
 20
0.0
 30
0.0
 40
17.0
  0
CIRCLE
  5
36A
330
1F
100
AcDbEntity
  8
1
  6
Continuous
 62
     3
100
AcDbCircle
 10
140.0
 20
0.0
 30
0.0
 40
15.085674333306
  0
CIRCLE
  5
36B
330
1F
100
AcDbEntity
  8
1
  6
Continuous
 62
     1
100
AcDbCircle
 10
140.0
 20
0.0
 30
0.0
 40
16.61238647191001
  0
CIRCLE
  5
36C
330
1F
100
AcDbEntity
  8
1
  6
Continuous
 62
     3
100
AcDbCircle
 10
140.0
 20
0.0
 30
0.0
 40
14.41108829995301
  0
CIRCLE
  5
36D
330
1F
100
AcDbEntity
  8
1
  6
Continuous
 62
     3
100
AcDbCircle
 10
140.0
 20
0.0
 30
0.0
 40
21.5
  0
CIRCLE
  5
36E
330
1F
100
AcDbEntity
  8
1
  6
Continuous
 62
     3
100
AcDbCircle
 10
0.00000000000182
 20
210.0
 30
0.0
 40
9.999999999999979
  0
SPLINE
  5
36F
330
1F
100
AcDbEntity
  8
0
  6
Continuous
 62
     3
100
AcDbSpline
210
0.0
220
0.0
230
1.0
 70
    24
 71
     3
 72
    59
 73
    55
 74
    53
 42
0.0000000001
 43
0.0000000001
 44
0.00000001
 40
0.0
 40
0.0
 40
0.0
 40
0.0
 40
0.5038532932181803
 40
1.007706586436343
 40
1.070688248088613
 40
1.133669909740861
 40
1.196651571393119
 40
1.259633233045369
 40
1.322614894697613
 40
1.385596556349864
 40
1.448578218002137
 40
1.511559879654425
 40
1.574541541306706
 40
1.637523202958973
 40
1.700504864611226
 40
1.763486526263466
 40
1.826468187915704
 40
1.889449849567961
 40
1.952431511220218
 40
2.015413172872474
 40
2.141376496176998
 40
2.267339819481511
 40
2.393303142786027
 40
2.519266466090553
 40
2.645229789395099
 40
2.771193112699637
 40
2.89715643600417
 40
3.023119759308697
 40
3.149083082613236
 40
3.275046405917775
 40
3.401009729222315
 40
3.526973052526859
 40
3.652936375831393
 40
3.778899699135926
 40
3.904863022440457
 40
4.030826345744994
 40
4.156789669049525
 40
4.28275299235405
 40
4.408716315658586
 40
4.534679638963115
 40
4.660642962267636
 40
4.786606285572156
 40
4.912569608876669
 40
5.038532932181173
 40
5.164496255485671
 40
5.290459578790165
 40
5.416422902094687
 40
5.542386225399218
 40
5.668349548703749
 40
5.794312872008277
 40
5.920276195312812
 40
6.046239518617353
 40
7.05394610505355
 40
8.061652691489735
 40
8.061652691489735
 40
8.061652691489735
 40
8.061652691489735
 10
-29.5443721861098
 20
19.2464242129411
 30
0.0
 10
-29.38469755075612
 20
19.29849706629614
 30
0.0
 10
-29.06534828004876
 20
19.40264277300622
 30
0.0
 10
-28.72603967992224
 20
19.51329758638585
 30
0.0
 10
-28.52644638573013
 20
19.57838865307957
 30
0.0
 10
-28.46656839747251
 20
19.59791597308771
 30
0.0
 10
-28.4066904092149
 20
19.61744329309586
 30
0.0
 10
-28.3468124209573
 20
19.63697061310399
 30
0.0
 10
-28.28693443269968
 20
19.65649793311215
 30
0.0
 10
-28.22705644444208
 20
19.67602525312029
 30
0.0
 10
-28.16717845618444
 20
19.6955525731284
 30
0.0
 10
-28.1073004679268
 20
19.71507989313652
 30
0.0
 10
-28.04742247966916
 20
19.73460721314465
 30
0.0
 10
-27.98754449141152
 20
19.75413453315279
 30
0.0
 10
-27.9276665031539
 20
19.7736618531609
 30
0.0
 10
-27.86778851489629
 20
19.79318917316902
 30
0.0
 10
-27.80791052663869
 20
19.81271649317715
 30
0.0
 10
-27.74803253838108
 20
19.8322438131853
 30
0.0
 10
-27.68815455012347
 20
19.85177113319342
 30
0.0
 10
-27.60831723244664
 20
19.87780755987092
 30
0.0
 10
-27.50852058535061
 20
19.91035309321782
 30
0.0
 10
-27.38876460883538
 20
19.94940773323411
 30
0.0
 10
-27.26900863232015
 20
19.9884623732504
 30
0.0
 10
-27.14925265580491
 20
20.0275170132667
 30
0.0
 10
-27.02949667928966
 20
20.066571653283
 30
0.0
 10
-26.90974070277441
 20
20.10562629329928
 30
0.0
 10
-26.78998472625915
 20
20.14468093331555
 30
0.0
 10
-26.6702287497439
 20
20.18373557333181
 30
0.0
 10
-26.55047277322864
 20
20.2227902133481
 30
0.0
 10
-26.4307167967134
 20
20.2618448533644
 30
0.0
 10
-26.31096082019814
 20
20.3008994933807
 30
0.0
 10
-26.1912048436829
 20
20.339954133397
 30
0.0
 10
-26.07144886716765
 20
20.3790087734133
 30
0.0
 10
-25.9516928906524
 20
20.41806341342959
 30
0.0
 10
-25.83193691413715
 20
20.45711805344586
 30
0.0
 10
-25.71218093762188
 20
20.4961726934621
 30
0.0
 10
-25.59242496110664
 20
20.5352273334784
 30
0.0
 10
-25.4726689845914
 20
20.57428197349468
 30
0.0
 10
-25.35291300807614
 20
20.61333661351095
 30
0.0
 10
-25.2331570315609
 20
20.65239125352721
 30
0.0
 10
-25.11340105504564
 20
20.69144589354345
 30
0.0
 10
-24.9936450785304
 20
20.7305005335597
 30
0.0
 10
-24.87388910201516
 20
20.76955517357595
 30
0.0
 10
-24.75413312549993
 20
20.8086098135922
 30
0.0
 10
-24.6343771489847
 20
20.84766445360845
 30
0.0
 10
-24.51462117246949
 20
20.88671909362471
 30
0.0
 10
-24.39486519595425
 20
20.925773733641
 30
0.0
 10
-24.27510921943901
 20
20.96482837365728
 30
0.0
 10
-24.15535324292376
 20
21.00388301367355
 30
0.0
 10
-24.0355972664085
 20
21.04293765368981
 30
0.0
 10
-23.91584128989325
 20
21.08199229370609
 30
0.0
 10
-23.51665470150909
 20
21.21217442709368
 30
0.0
 10
-22.83803750125609
 20
21.43348405385267
 30
0.0
 10
-22.1993389598415
 20
21.64177546727289
 30
0.0
 10
-21.8799896891342
 20
21.745921173983
 30
0.0
 11
-29.5443721861098
 21
19.2464242129411
 31
0.0
 11
-29.06534828004876
 21
19.40264277300626
 31
0.0
 11
-28.58632437398775
 21
19.55886133307145
 31
0.0
 11
-28.52644638573012
 21
19.57838865307958
 31
0.0
 11
-28.46656839747251
 21
19.59791597308771
 31
0.0
 11
-28.4066904092149
 21
19.61744329309586
 31
0.0
 11
-28.34681242095729
 21
19.636970613104
 31
0.0
 11
-28.2869344326997
 21
19.65649793311215
 31
0.0
 11
-28.22705644444208
 21
19.67602525312028
 31
0.0
 11
-28.16717845618444
 21
19.6955525731284
 31
0.0
 11
-28.10730046792679
 21
19.71507989313652
 31
0.0
 11
-28.04742247966915
 21
19.73460721314465
 31
0.0
 11
-27.98754449141152
 21
19.75413453315278
 31
0.0
 11
-27.9276665031539
 21
19.7736618531609
 31
0.0
 11
-27.8677885148963
 21
19.79318917316902
 31
0.0
 11
-27.8079105266387
 21
19.81271649317715
 31
0.0
 11
-27.74803253838109
 21
19.83224381318529
 31
0.0
 11
-27.68815455012347
 21
19.85177113319342
 31
0.0
 11
-27.62827656186585
 21
19.87129845320155
 31
0.0
 11
-27.50852058535061
 21
19.91035309321782
 31
0.0
 11
-27.38876460883538
 21
19.94940773323411
 31
0.0
 11
-27.26900863232015
 21
19.9884623732504
 31
0.0
 11
-27.14925265580491
 21
20.0275170132667
 31
0.0
 11
-27.02949667928966
 21
20.066571653283
 31
0.0
 11
-26.9097407027744
 21
20.10562629329928
 31
0.0
 11
-26.78998472625915
 21
20.14468093331555
 31
0.0
 11
-26.6702287497439
 21
20.18373557333182
 31
0.0
 11
-26.55047277322865
 21
20.22279021334811
 31
0.0
 11
-26.4307167967134
 21
20.2618448533644
 31
0.0
 11
-26.31096082019815
 21
20.3008994933807
 31
0.0
 11
-26.19120484368289
 21
20.339954133397
 31
0.0
 11
-26.07144886716765
 21
20.3790087734133
 31
0.0
 11
-25.9516928906524
 21
20.41806341342959
 31
0.0
 11
-25.83193691413715
 21
20.45711805344586
 31
0.0
 11
-25.71218093762189
 21
20.49617269346211
 31
0.0
 11
-25.59242496110664
 21
20.5352273334784
 31
0.0
 11
-25.4726689845914
 21
20.57428197349468
 31
0.0
 11
-25.35291300807614
 21
20.61333661351095
 31
0.0
 11
-25.23315703156089
 21
20.6523912535272
 31
0.0
 11
-25.11340105504564
 21
20.69144589354345
 31
0.0
 11
-24.9936450785304
 21
20.7305005335597
 31
0.0
 11
-24.87388910201516
 21
20.76955517357595
 31
0.0
 11
-24.75413312549993
 21
20.8086098135922
 31
0.0
 11
-24.6343771489847
 21
20.84766445360845
 31
0.0
 11
-24.51462117246949
 21
20.88671909362471
 31
0.0
 11
-24.39486519595425
 21
20.925773733641
 31
0.0
 11
-24.27510921943901
 21
20.96482837365728
 31
0.0
 11
-24.15535324292376
 21
21.00388301367355
 31
0.0
 11
-24.03559726640851
 21
21.04293765368981
 31
0.0
 11
-23.91584128989325
 21
21.08199229370609
 31
0.0
 11
-23.79608531337799
 21
21.12104693372237
 31
0.0
 11
-22.83803750125609
 21
21.43348405385267
 31
0.0
 11
-21.8799896891342
 21
21.745921173983
 31
0.0
  0
SPLINE
  5
370
330
1F
100
AcDbEntity
  8
0
  6
Continuous
 62
     3
100
AcDbSpline
210
0.0
220
0.0
230
1.0
 70
     8
 71
     3
 72
   107
 73
   103
 74
   101
 42
0.0000000001
 43
0.0000000001
 44
0.00000001
 40
0.0
 40
0.0
 40
0.0
 40
0.0
 40
0.1799220911517805
 40
0.3598441823037085
 40
0.3829472748260707
 40
0.4060498377343851
 40
0.4291518924911084
 40
0.4522540893626177
 40
0.4753566863857816
 40
0.49845924449149
 40
0.5215620167631666
 40
0.5446648026462272
 40
0.5681019058797004
 40
0.5915390089754525
 40
0.6149760705475338
 40
0.6384131322549604
 40
0.6618501422105847
 40
0.6852871517951146
 40
0.7087241741661617
 40
0.7321611978625537
 40
0.755873337454579
 40
0.7795854809279593
 40
0.803297636242131
 40
0.8270097906903999
 40
0.8507221466984578
 40
0.8744345022949948
 40
0.8981468635901053
 40
0.9218592273982811
 40
0.9457822907334565
 40
0.9697053555207633
 40
0.9936284266931353
 40
1.017551497473721
 40
1.041474446270696
 40
1.065397395181783
 40
1.089320338593607
 40
1.113243281935204
 40
1.137309265869471
 40
1.161375252657731
 40
1.185441252701529
 40
1.209507252072635
 40
1.233573442559509
 40
1.257639632886961
 40
1.281705824317464
 40
1.305772017061423
 40
1.329910726321092
 40
1.354049435662627
 40
1.378188147844351
 40
1.402326859903598
 40
1.426465408087583
 40
1.45060395667723
 40
1.474742495500297
 40
1.498881032818429
 40
1.523020350893211
 40
1.547159670488285
 40
1.571298999822178
 40
1.595438328747376
 40
1.619577821244093
 40
1.643717313859993
 40
1.667856803620053
 40
1.691996293314336
 40
1.71606473512676
 40
1.740133175638875
 40
1.764201614997836
 40
1.78827005451403
 40
1.812338302910423
 40
1.836406551974926
 40
1.860474787808398
 40
1.884543020808392
 40
1.908469414043791
 40
1.932395807357005
 40
1.956322206097305
 40
1.980248604722502
 40
2.004175124802815
 40
2.028101645271134
 40
2.052028159375177
 40
2.075954672043096
 40
2.099671259636623
 40
2.123387844725291
 40
2.147104424049226
 40
2.170821003783865
 40
2.194537382256773
 40
2.218253761590497
 40
2.241970129135208
 40
2.265686492819782
 40
2.289127963124207
 40
2.312569432102816
 40
2.336010888259217
 40
2.359452344786743
 40
2.382893852509269
 40
2.406335360096434
 40
2.429776909032741
 40
2.453218458107032
 40
2.476325271462573
 40
2.499432071253855
 40
2.522538657710498
 40
2.545645282917862
 40
2.568751509370016
 40
2.591857594327495
 40
2.61496418522671
 40
2.638071303425707
 40
2.818009746885077
 40
2.997948190344299
 40
2.997948190344299
 40
2.997948190344299
 40
2.997948190344299
 10
14.5
 20
-32.1512432839087
 30
0.0
 10
14.50124220880137
 20
-32.09125807257688
 30
0.0
 10
14.50372662640412
 20
-31.97128764991322
 30
0.0
 10
14.5181323351515
 20
-31.84425592259187
 30
0.0
 10
14.52929033296783
 20
-31.76971347771746
 30
0.0
 10
14.53292936051012
 20
-31.74689862181632
 30
0.0
 10
14.53677761389268
 20
-31.72411887956115
 30
0.0
 10
14.54083708956112
 20
-31.70137569129201
 30
0.0
 10
14.54510662451487
 20
-31.67867086452568
 30
0.0
 10
14.54958588932674
 20
-31.65600627639411
 30
0.0
 10
14.55427429447812
 20
-31.63338396421365
 30
0.0
 10
14.55919497285798
 20
-31.61069691456675
 30
0.0
 10
14.56435093126015
 20
-31.58794787866418
 30
0.0
 10
14.56974537204654
 20
-31.56513969538356
 30
0.0
 10
14.5753533177548
 20
-31.5423830799653
 30
0.0
 10
14.58117441707196
 20
-31.51968008528088
 30
0.0
 10
14.58720832503289
 20
-31.4970327380759
 30
0.0
 10
14.59345469736096
 20
-31.47444308057312
 30
0.0
 10
14.59991319250718
 20
-31.45191314736694
 30
0.0
 10
14.60660956260323
 20
-31.4293570830906
 30
0.0
 10
14.61354636354786
 20
-31.40677782939249
 30
0.0
 10
14.62072561323084
 20
-31.38417824511988
 30
0.0
 10
14.62811948163106
 20
-31.3616479597688
 30
0.0
 10
14.63572709408462
 20
-31.33918887248219
 30
0.0
 10
14.64354755758499
 20
-31.31680294260117
 30
0.0
 10
14.6515799833434
 20
-31.29449211830053
 30
0.0
 10
14.65982345992241
 20
-31.27225840634751
 30
0.0
 10
14.6683021369208
 20
-31.25003812780231
 30
0.0
 10
14.67701730276618
 20
-31.227834057564
 30
0.0
 10
14.68597047173704
 20
-31.205649123745
 30
0.0
 10
14.69513531298984
 20
-31.18355078985416
 30
0.0
 10
14.70451113857182
 20
-31.16154118405361
 30
0.0
 10
14.71409727246495
 20
-31.1396224027739
 30
0.0
 10
14.72389303667145
 20
-31.11779654786227
 30
0.0
 10
14.73389776870744
 20
-31.09606568890624
 30
0.0
 10
14.74413114205047
 20
-31.07438882218901
 30
0.0
 10
14.75459392410141
 20
-31.05276875837018
 30
0.0
 10
14.7652863107732
 20
-31.03120808237406
 30
0.0
 10
14.77618627741271
 20
-31.00975159560557
 30
0.0
 10
14.78729260240656
 20
-30.98840111860015
 30
0.0
 10
14.79860403834193
 20
-30.96715852556831
 30
0.0
 10
14.81011934322643
 20
-30.94602568045977
 30
0.0
 10
14.82183724619265
 20
-30.925004497076
 30
0.0
 10
14.83376847968043
 20
-30.90407582901438
 30
0.0
 10
14.84591251172238
 20
-30.88324192954273
 30
0.0
 10
14.85826904827307
 20
-30.86250521396751
 30
0.0
 10
14.87082491498486
 20
-30.84188857858913
 30
0.0
 10
14.88357907859202
 20
-30.82139408685648
 30
0.0
 10
14.89653052964528
 20
-30.80102376044701
 30
0.0
 10
14.9096782541227
 20
-30.78077962858661
 30
0.0
 10
14.9230212662951
 20
-30.76066367911439
 30
0.0
 10
14.93655869363922
 20
-30.74067773656371
 30
0.0
 10
14.95028952171525
 20
-30.72082385119013
 30
0.0
 10
14.9642122092334
 20
-30.70110371271335
 30
0.0
 10
14.97832506355818
 20
-30.68151921459879
 30
0.0
 10
14.99262657704769
 20
-30.66207198660448
 30
0.0
 10
15.00711521403041
 20
-30.64276369941198
 30
0.0
 10
15.02178944445562
 20
-30.62359601638778
 30
0.0
 10
15.03664770827576
 20
-30.60457063780243
 30
0.0
 10
15.05167372533204
 20
-30.58570773955296
 30
0.0
 10
15.06686535357808
 20
-30.56700847014047
 30
0.0
 10
15.08222068861285
 20
-30.54847414171082
 30
0.0
 10
15.09775337550539
 20
-30.53008818870977
 30
0.0
 10
15.11346208121944
 20
-30.51185247803068
 30
0.0
 10
15.1293455090126
 20
-30.49376883128248
 30
0.0
 10
15.14540235479217
 20
-30.4758390785371
 30
0.0
 10
15.16163135543087
 20
-30.45806500608153
 30
0.0
 10
15.17799898646744
 20
-30.44048305887503
 30
0.0
 10
15.19450277046961
 20
-30.42309398814509
 30
0.0
 10
15.21113981418442
 20
-30.40589809566585
 30
0.0
 10
15.22794093603469
 20
-30.38886247743626
 30
0.0
 10
15.24490444079076
 20
-30.37198848928995
 30
0.0
 10
15.26202860914517
 20
-30.35527751281477
 30
0.0
 10
15.27931172634709
 20
-30.33873092556099
 30
0.0
 10
15.29675205276477
 20
-30.3223501273389
 30
0.0
 10
15.31429642202529
 20
-30.30618390321037
 30
0.0
 10
15.33194155953447
 20
-30.29023189798786
 30
0.0
 10
15.34968441649383
 20
-30.27449391298288
 30
0.0
 10
15.36757541116804
 20
-30.25892454101784
 30
0.0
 10
15.38561300020156
 20
-30.2435253469291
 30
0.0
 10
15.40379568683208
 20
-30.22829785307592
 30
0.0
 10
15.42212196563913
 20
-30.21324358958188
 30
0.0
 10
15.44059038082828
 20
-30.19836404753654
 30
0.0
 10
15.45912752426579
 20
-30.18371757207883
 30
0.0
 10
15.47773000299281
 20
-30.16930331100244
 30
0.0
 10
15.49639415432885
 20
-30.15511994370008
 30
0.0
 10
15.51519061846725
 20
-30.14111240533874
 30
0.0
 10
15.53411762336411
 20
-30.12728174165791
 30
0.0
 10
15.55317339116814
 20
-30.11362900346307
 30
0.0
 10
15.57235615878655
 20
-30.10015523648662
 30
0.0
 10
15.59166414144507
 20
-30.08686150158459
 30
0.0
 10
15.61100308143764
 20
-30.07381125997382
 30
0.0
 10
15.63036917533391
 20
-30.06100254673855
 30
0.0
 10
15.64975877380978
 20
-30.048433549509
 30
0.0
 10
15.66926335658769
 20
-30.0360438482452
 30
0.0
 10
15.68888124188553
 20
-30.02383472161378
 30
0.0
 10
15.70861080271238
 20
-30.01180714853313
 30
0.0
 10
15.72845077851299
 20
-29.99996285792277
 30
0.0
 10
15.7483991060034
 20
-29.98830050790755
 30
0.0
 10
15.81383598495611
 20
-29.95087965414393
 30
0.0
 10
15.92701454279881
 20
-29.89139762899804
 30
0.0
 10
16.03792410431569
 20
-29.84556413598581
 30
0.0
 10
16.0933788850741
 20
-29.8226473894797
 30
0.0
 11
14.5
 21
-32.1512432839087
 31
0.0
 11
14.50648967618435
 21
-31.97143827010916
 31
0.0
 11
14.52590120441536
 21
-31.79256638451442
 31
0.0
 11
14.52932688086669
 21
-31.76971867948858
 31
0.0
 11
14.53296426682547
 21
-31.74690425781457
 31
0.0
 11
14.53681280894448
 21
-31.72412502039229
 31
0.0
 11
14.54087207040268
 21
-31.70138224358944
 31
0.0
 11
14.54514157594162
 21
-31.6786775896245
 31
0.0
 11
14.54962072979068
 21
-31.65601340263657
 31
0.0
 11
14.55430906624387
 21
-31.63339134287317
 31
0.0
 11
14.55920603950117
 21
-31.61081351373758
 31
0.0
 11
14.56438657340748
 21
-31.58795613251352
 31
0.0
 11
14.56978095999045
 21
-31.56514827433012
 31
0.0
 11
14.57538884460952
 21
-31.54239201178038
 31
0.0
 11
14.58120989027272
 21
-31.51968934037667
 31
0.0
 11
14.58724373634943
 21
-31.49704235079345
 31
0.0
 11
14.59349004980142
 21
-31.47445303945988
 31
0.0
 11
14.59994848804301
 21
-31.45192344574183
 31
0.0
 11
14.60661870048897
 21
-31.42945563886908
 31
0.0
 11
14.61358228238437
 21
-31.40678905352373
 31
0.0
 11
14.62076138155176
 21
-31.38418979948191
 31
0.0
 11
14.62815510194876
 21
-31.36165983702445
 31
0.0
 11
14.63576254378217
 21
-31.33920113943689
 31
0.0
 11
14.64358288088116
 21
-31.31681547091636
 31
0.0
 11
14.65161515767882
 21
-31.29450497254939
 31
0.0
 11
14.65985848642766
 21
-31.27227158303433
 31
0.0
 11
14.66831197738066
 21
-31.25011724512775
 31
0.0
 11
14.67705269273491
 21
-31.22784814423807
 31
0.0
 11
14.68600574948857
 21
-31.20566355941925
 31
0.0
 11
14.69517047962382
 21
-31.18356557182159
 31
0.0
 11
14.70454620876329
 21
-31.1615562779057
 31
0.0
 11
14.71413221367318
 21
-31.13963788405463
 31
0.0
 11
14.7239278655271
 21
-31.11781237857689
 31
0.0
 11
14.73393248318106
 21
-31.09608187358774
 31
0.0
 11
14.74414538713998
 21
-31.07444847785681
 31
0.0
 11
14.75462872900522
 21
-31.05278581121438
 31
0.0
 11
14.76532090506842
 21
-31.0312254519612
 31
0.0
 11
14.77622066535791
 21
-31.00976927374279
 31
0.0
 11
14.78732675296875
 21
-30.98841916499107
 31
0.0
 11
14.7986380115098
 21
-30.96717682625994
 31
0.0
 11
14.81015310933504
 21
-30.94604429117888
 31
0.0
 11
14.82187080570719
 21
-30.92502341675131
 31
0.0
 11
14.83378986167262
 21
-30.90411605589246
 31
0.0
 11
14.84594590020077
 21
-30.88326160763735
 31
0.0
 11
14.85830226939784
 21
-30.86252522827785
 31
0.0
 11
14.8708579692207
 21
-30.84190892822789
 31
0.0
 11
14.8836119937577
 21
-30.8214147271459
 31
0.0
 11
14.89656324697769
 21
-30.8010447848666
 31
0.0
 11
14.90971080418991
 21
-30.78080098909194
 31
0.0
 11
14.9230536451239
 21
-30.76068538190938
 31
0.0
 11
14.93659075559874
 21
-30.74069999665288
 31
0.0
 11
14.95032147296537
 21
-30.72084617894158
 31
0.0
 11
14.96424390146642
 21
-30.7011263225743
 31
0.0
 11
14.9783565011457
 21
-30.68154210058356
 31
0.0
 11
14.99265772637275
 21
-30.66209519445523
 31
0.0
 11
15.00714614088502
 21
-30.6427871406196
 31
0.0
 11
15.02182011736569
 21
-30.62361973291804
 31
0.0
 11
15.03667812661402
 21
-30.60459463036766
 31
0.0
 11
15.05171864620078
 21
-30.58571348280558
 31
0.0
 11
15.06689512730687
 21
-30.56703289629138
 31
0.0
 11
15.08225024758402
 21
-30.54849887055601
 31
0.0
 11
15.0977827189072
 21
-30.53011322104965
 31
0.0
 11
15.11349125031488
 21
-30.51187776597558
 31
0.0
 11
15.12937441933532
 21
-30.49379447195212
 31
0.0
 11
15.14543105080117
 21
-30.47586502134702
 31
0.0
 11
15.16165983108179
 21
-30.45809125790933
 31
0.0
 11
15.17805945806928
 21
-30.44047501329213
 31
0.0
 11
15.19453040487517
 21
-30.42312046908686
 31
0.0
 11
15.21116715906704
 21
-30.40592480954912
 31
0.0
 11
15.22796799488831
 21
-30.38888942072507
 31
0.0
 11
15.2449311844005
 21
-30.37201569106192
 31
0.0
 11
15.26205509593747
 21
-30.35530491559135
 31
0.0
 11
15.27933792972156
 21
-30.33875855532353
 31
0.0
 11
15.29677797064329
 21
-30.32237798604712
 31
0.0
 11
15.31437351578781
 21
-30.30616457186271
 31
0.0
 11
15.33196649845075
 21
-30.29025974592519
 31
0.0
 11
15.34970910788404
 21
-30.27452201359915
 31
0.0
 11
15.36759985218574
 21
-30.25895289663127
 31
0.0
 11
15.38563724284694
 21
-30.24355391314388
 31
0.0
 11
15.40381962768222
 21
-30.22832671742137
 31
0.0
 11
15.42214565872258
 21
-30.21327270682589
 31
0.0
 11
15.44061382027783
 21
-30.19839342262653
 31
0.0
 11
15.45922260759838
 21
-30.18369039773784
 31
0.0
 11
15.47775235485416
 21
-30.16933243838875
 31
0.0
 11
15.49641621048896
 21
-30.15514924549299
 31
0.0
 11
15.51521237341896
 21
-30.14114188579027
 31
0.0
 11
15.53413906770846
 21
-30.12731140758437
 31
0.0
 11
15.55319455365492
 21
-30.11365883494588
 31
0.0
 11
15.57237701475796
 21
-30.10018525101325
 31
0.0
 11
15.59168471422403
 21
-30.08689168272399
 31
0.0
 11
15.61111585026996
 21
-30.07377920107607
 31
0.0
 11
15.63038861811277
 21
-30.0610322311175
 31
0.0
 11
15.64977800649906
 21
-30.0484633881079
 31
0.0
 11
15.66928225639625
 21
-30.03607393397842
 31
0.0
 11
15.68889999139209
 21
-30.02386489625604
 31
0.0
 11
15.70862924710485
 21
-30.01183767006382
 31
0.0
 11
15.72846864918528
 21
-29.99999329219273
 31
0.0
 11
15.74841716728039
 21
-29.98833262459636
 31
0.0
 11
15.76847323365741
 21
-29.97685686261979
 31
0.0
 11
15.92815443440651
 21
-29.89391255864474
 31
0.0
 11
16.0933788850741
 21
-29.8226473894797
 31
0.0
  0
SPLINE
  5
371
330
1F
100
AcDbEntity
  8
0
  6
Continuous
 62
     3
100
AcDbSpline
210
0.0
220
0.0
230
1.0
 70
    24
 71
     3
 72
    43
 73
    39
 74
    37
 42
0.0000000001
 43
0.0000000001
 44
0.00000001
 40
0.0
 40
0.0
 40
0.0
 40
0.0
 40
1.837557378088338
 40
3.675114756176746
 40
3.90480942843778
 40
4.134504100698798
 40
4.364198772959814
 40
4.593893445220824
 40
4.82358811748185
 40
5.053282789742885
 40
5.282977462003914
 40
5.512672134264946
 40
5.742366806526011
 40
5.97206147878708
 40
6.201756151048132
 40
6.431450823309184
 40
6.661145495570229
 40
6.89084016783128
 40
7.120534840092326
 40
7.350229512353365
 40
7.579924184614422
 40
7.809618856875495
 40
8.039313529136567
 40
8.269008201397645
 40
8.498702873658706
 40
8.728397545919757
 40
8.958092218180782
 40
9.187786890441815
 40
9.417481562702854
 40
9.6471762349639
 40
9.876870907224925
 40
10.10656557948593
 40
10.33626025174691
 40
10.56595492400788
 40
10.79564959626893
 40
11.02534426852999
 40
12.86290164661841
 40
14.70045902470681
 40
14.70045902470681
 40
14.70045902470681
 40
14.70045902470681
 10
28.9437420020795
 20
-20.0587817387121
 30
0.0
 10
28.46092476207343
 20
-20.435699756993
 30
0.0
 10
27.49529028206128
 20
-21.18953579355482
 30
0.0
 10
26.46930364704838
 20
-21.99048658240172
 30
0.0
 10
25.86578209704077
 20
-22.46163410525286
 30
0.0
 10
25.68472563203852
 20
-22.6029783621082
 30
0.0
 10
25.50366916703625
 20
-22.7443226189635
 30
0.0
 10
25.32261270203399
 20
-22.8856668758188
 30
0.0
 10
25.1415562370317
 20
-23.0270111326741
 30
0.0
 10
24.96049977202942
 20
-23.16835538952941
 30
0.0
 10
24.77944330702716
 20
-23.30969964638474
 30
0.0
 10
24.5983868420249
 20
-23.45104390324011
 30
0.0
 10
24.41733037702261
 20
-23.59238816009544
 30
0.0
 10
24.23627391202032
 20
-23.7337324169508
 30
0.0
 10
24.05521744701803
 20
-23.87507667380615
 30
0.0
 10
23.87416098201578
 20
-24.01642093066151
 30
0.0
 10
23.69310451701348
 20
-24.15776518751684
 30
0.0
 10
23.51204805201122
 20
-24.2991094443722
 30
0.0
 10
23.33099158700895
 20
-24.44045370122754
 30
0.0
 10
23.14993512200669
 20
-24.58179795808291
 30
0.0
 10
22.9688786570044
 20
-24.72314221493825
 30
0.0
 10
22.78782219200211
 20
-24.8644864717936
 30
0.0
 10
22.6067657269998
 20
-25.00583072864895
 30
0.0
 10
22.4257092619975
 20
-25.14717498550431
 30
0.0
 10
22.2446527969952
 20
-25.28851924235964
 30
0.0
 10
22.06359633199293
 20
-25.42986349921498
 30
0.0
 10
21.88253986699064
 20
-25.5712077560703
 30
0.0
 10
21.70148340198837
 20
-25.71255201292563
 30
0.0
 10
21.52042693698608
 20
-25.85389626978095
 30
0.0
 10
21.33937047198383
 20
-25.9952405266363
 30
0.0
 10
21.15831400698155
 20
-26.13658478349161
 30
0.0
 10
20.97725754197928
 20
-26.27792904034688
 30
0.0
 10
20.79620107697706
 20
-26.41927329720221
 30
0.0
 10
20.61514461197481
 20
-26.5606175540575
 30
0.0
 10
20.43408814697253
 20
-26.70196181091282
 30
0.0
 10
19.83056659696495
 20
-27.17310933376401
 30
0.0
 10
18.80457996195199
 20
-27.9740601226109
 30
0.0
 10
17.8389454819398
 20
-28.7278961591727
 30
0.0
 10
17.3561282419337
 20
-29.1048141774536
 30
0.0
 11
28.9437420020795
 21
-20.0587817387121
 31
0.0
 11
27.4952902820613
 21
-21.1895357935548
 31
0.0
 11
26.04683856204304
 21
-22.32028984839753
 31
0.0
 11
25.86578209704077
 21
-22.46163410525286
 31
0.0
 11
25.68472563203851
 21
-22.60297836210819
 31
0.0
 11
25.50366916703625
 21
-22.7443226189635
 31
0.0
 11
25.32261270203399
 21
-22.8856668758188
 31
0.0
 11
25.1415562370317
 21
-23.0270111326741
 31
0.0
 11
24.96049977202942
 21
-23.16835538952941
 31
0.0
 11
24.77944330702716
 21
-23.30969964638474
 31
0.0
 11
24.5983868420249
 21
-23.45104390324009
 31
0.0
 11
24.41733037702261
 21
-23.59238816009544
 31
0.0
 11
24.23627391202032
 21
-23.7337324169508
 31
0.0
 11
24.05521744701804
 21
-23.87507667380615
 31
0.0
 11
23.87416098201577
 21
-24.01642093066151
 31
0.0
 11
23.6931045170135
 21
-24.15776518751685
 31
0.0
 11
23.51204805201122
 21
-24.2991094443722
 31
0.0
 11
23.33099158700895
 21
-24.44045370122755
 31
0.0
 11
23.14993512200669
 21
-24.5817979580829
 31
0.0
 11
22.9688786570044
 21
-24.72314221493825
 31
0.0
 11
22.7878221920021
 21
-24.8644864717936
 31
0.0
 11
22.6067657269998
 21
-25.00583072864895
 31
0.0
 11
22.42570926199749
 21
-25.14717498550431
 31
0.0
 11
22.2446527969952
 21
-25.28851924235965
 31
0.0
 11
22.06359633199291
 21
-25.42986349921499
 31
0.0
 11
21.88253986699064
 21
-25.5712077560703
 31
0.0
 11
21.70148340198837
 21
-25.71255201292563
 31
0.0
 11
21.52042693698609
 21
-25.85389626978095
 31
0.0
 11
21.33937047198381
 21
-25.99524052663629
 31
0.0
 11
21.15831400698154
 21
-26.13658478349161
 31
0.0
 11
20.97725754197928
 21
-26.2779290403469
 31
0.0
 11
20.79620107697706
 21
-26.4192732972022
 31
0.0
 11
20.61514461197482
 21
-26.56061755405749
 31
0.0
 11
20.43408814697254
 21
-26.70196181091283
 31
0.0
 11
20.25303168197026
 21
-26.84330606776818
 31
0.0
 11
18.80457996195199
 21
-27.97406012261091
 31
0.0
 11
17.3561282419337
 21
-29.1048141774536
 31
0.0
  0
SPLINE
  5
372
330
1F
100
AcDbEntity
  8
0
  6
Continuous
 62
     3
100
AcDbSpline
210
0.0
220
0.0
230
1.0
 70
     8
 71
     3
 72
   107
 73
   103
 74
   101
 42
0.0000000001
 43
0.0000000001
 44
0.00000001
 40
0.0
 40
0.0
 40
0.0
 40
0.0
 40
0.150083203102698
 40
0.3001664062056573
 40
0.3194879806833738
 40
0.3388090741503455
 40
0.358129707488719
 40
0.3774504699182425
 40
0.3967716106049998
 40
0.4160927158655547
 40
0.4354140163553462
 40
0.4547353295155313
 40
0.4743639179794961
 40
0.4939925065863536
 40
0.5136210584236187
 40
0.5332496103231745
 40
0.5528781113255277
 40
0.5725066119683992
 40
0.5921351242298123
 40
0.6117636378428171
 40
0.6316455290601081
 40
0.6515274241812741
 40
0.6714093315506616
 40
0.6912912380491711
 40
0.7111733455983736
 40
0.7310554527334692
 40
0.7509375655154427
 40
0.77081968082615
 40
0.7908960617081386
 40
0.8109724440742765
 40
0.8310488330103183
 40
0.851125221546819
 40
0.8712014889088829
 40
0.8912777563840988
 40
0.9113540183405074
 40
0.9314302802376779
 40
0.9516384497055186
 40
0.9718466220597926
 40
0.9920548078440526
 40
1.01226299294753
 40
1.032471370278644
 40
1.05267974745053
 40
1.072888125712349
 40
1.093096505295325
 40
1.113371576001963
 40
1.133646646799941
 40
1.153921720555877
 40
1.17419679418528
 40
1.194471703140319
 40
1.214746612507585
 40
1.235021511970404
 40
1.255296409905529
 40
1.275571602328433
 40
1.295846796285428
 40
1.316122000137153
 40
1.336397203575376
 40
1.356672571579276
 40
1.37694793970835
 40
1.397223304874917
 40
1.417498669956853
 40
1.437707897117719
 40
1.45791712296287
 40
1.478126347698932
 40
1.498335572593319
 40
1.51854460527312
 40
1.538753638631783
 40
1.558962658572665
 40
1.57917167563566
 40
1.599249235547235
 40
1.619326795521163
 40
1.639404360985569
 40
1.659481926336427
 40
1.679559612661858
 40
1.699637299385257
 40
1.71971497954948
 40
1.739792658236219
 40
1.759676358879259
 40
1.779560056996925
 40
1.799443749441638
 40
1.819327442300117
 40
1.839210934243139
 40
1.85909442705491
 40
1.87897790764238
 40
1.898861384334706
 40
1.918491561689506
 40
1.938121737692522
 40
1.95775190206081
 40
1.977382066788636
 40
1.997012282191969
 40
2.016642497532842
 40
2.036272749585051
 40
2.055903001495104
 40
2.075225815837213
 40
2.094548617525955
 40
2.11387122428113
 40
2.133193866402558
 40
2.15251613083004
 40
2.171838266389233
 40
2.19116086129205
 40
2.210483936373847
 40
2.360573200051187
 40
2.510662463728262
 40
2.510662463728262
 40
2.510662463728262
 40
2.510662463728262
 10
-20.5000000000001
 20
23.6469662896008
 30
0.0
 10
-20.50107972587386
 20
23.59692844016989
 30
0.0
 10
-20.50323917762139
 20
23.496852741308
 30
0.0
 10
-20.51575885277453
 20
23.39091573887448
 30
0.0
 10
-20.525458692607
 20
23.32876216787881
 30
0.0
 10
-20.52862906602583
 20
23.3097023252514
 30
0.0
 10
-20.53198201289604
 20
23.2906744395482
 30
0.0
 10
-20.53551924596083
 20
23.2716798185595
 30
0.0
 10
-20.53923971551829
 20
23.25272010876684
 30
0.0
 10
-20.54314309963001
 20
23.23379701890564
 30
0.0
 10
-20.54722884552865
 20
23.21491240760135
 30
0.0
 10
-20.5515191157856
 20
23.19596810292
 30
0.0
 10
-20.55601680090814
 20
23.17696667912902
 30
0.0
 10
-20.56072497227282
 20
23.15791080197976
 30
0.0
 10
-20.56561970739746
 20
23.13890200272687
 30
0.0
 10
-20.5707006698141
 20
23.11994216169268
 30
0.0
 10
-20.57596752919317
 20
23.10103313482766
 30
0.0
 10
-20.58141995587053
 20
23.08217679233732
 30
0.0
 10
-20.58705762303784
 20
23.06337499673728
 30
0.0
 10
-20.59290525147776
 20
23.04454897539352
 30
0.0
 10
-20.59896529640297
 20
23.02570150137552
 30
0.0
 10
-20.60523970378579
 20
23.00683526801294
 30
0.0
 10
-20.61170176486734
 20
22.98803247831535
 30
0.0
 10
-20.61835064851001
 20
22.96929486203465
 30
0.0
 10
-20.62518550441929
 20
22.95062420895714
 30
0.0
 10
-20.63220548662949
 20
22.93202229776634
 30
0.0
 10
-20.63940972559269
 20
22.91349096531181
 30
0.0
 10
-20.64682143621735
 20
22.89497186269849
 30
0.0
 10
-20.65444186170125
 20
22.87646760117637
 30
0.0
 10
-20.66227245561867
 20
22.85798094456434
 30
0.0
 10
-20.67028791643316
 20
22.83957368530999
 30
0.0
 10
-20.67848758230084
 20
22.82124778100364
 30
0.0
 10
-20.68687080365349
 20
22.8030051580794
 30
0.0
 10
-20.69543692884826
 20
22.78484774840979
 30
0.0
 10
-20.70418532223836
 20
22.76677745226757
 30
0.0
 10
-20.71313488575131
 20
22.7487568329432
 30
0.0
 10
-20.72228635179067
 20
22.73078853688836
 30
0.0
 10
-20.73163990830255
 20
22.71287498545568
 30
0.0
 10
-20.74117439860336
 20
22.69505707248286
 30
0.0
 10
-20.75088865553984
 20
22.67733644984649
 30
0.0
 10
-20.76078148484999
 20
22.65971482300437
 30
0.0
 10
-20.77085169788908
 20
22.64219388730564
 30
0.0
 10
-20.78109807570712
 20
22.62477538764582
 30
0.0
 10
-20.79153089643292
 20
22.60744196212561
 30
0.0
 10
-20.80214964719621
 20
22.59019569757903
 30
0.0
 10
-20.81295403751973
 20
22.57303884190684
 30
0.0
 10
-20.82393144821685
 20
22.5559921687285
 30
0.0
 10
-20.83508088217993
 20
22.53905757178982
 30
0.0
 10
-20.84640136713128
 20
22.52223690357374
 30
0.0
 10
-20.8578919259396
 20
22.5055320241488
 30
0.0
 10
-20.86955161097043
 20
22.48894475290636
 30
0.0
 10
-20.88137949751822
 20
22.47247688120144
 30
0.0
 10
-20.89337460294352
 20
22.45613028750845
 30
0.0
 10
-20.90553544681793
 20
22.43990648894547
 30
0.0
 10
-20.9178604918999
 20
22.42380707459101
 30
0.0
 10
-20.93034829761338
 20
22.40783350562801
 30
0.0
 10
-20.94299739396368
 20
22.39198728372237
 30
0.0
 10
-20.95580631676295
 20
22.37626990345321
 30
0.0
 10
-20.96877357040686
 20
22.36068289563239
 30
0.0
 10
-20.98188342663631
 20
22.34524454834109
 30
0.0
 10
-20.99513383949656
 20
22.32995583429717
 30
0.0
 10
-21.00852298523609
 20
22.31481788801458
 30
0.0
 10
-21.02206406475202
 20
22.29981569498864
 30
0.0
 10
-21.03575579327974
 20
22.2849509506258
 30
0.0
 10
-21.04959692388652
 20
22.27022530605467
 30
0.0
 10
-21.06358620186981
 20
22.25564042076012
 30
0.0
 10
-21.07772241518242
 20
22.24119791174531
 30
0.0
 10
-21.0919733371185
 20
22.22693045061166
 30
0.0
 10
-21.10633660864403
 20
22.21283860817214
 30
0.0
 10
-21.1208094886209
 20
22.19892250791781
 30
0.0
 10
-21.13542160903236
 20
22.18515268313725
 30
0.0
 10
-21.15017135798398
 20
22.17153032268167
 30
0.0
 10
-21.16505709863903
 20
22.15805664025712
 30
0.0
 10
-21.18007719877848
 20
22.14473284582669
 30
0.0
 10
-21.19523000050993
 20
22.1315601705472
 30
0.0
 10
-21.21046465954731
 20
22.11858174570212
 30
0.0
 10
-21.22577809920162
 20
22.10579704413413
 30
0.0
 10
-21.24116745346745
 20
22.09320569206483
 30
0.0
 10
-21.25668093555388
 20
22.0807675992445
 30
0.0
 10
-21.27231706756119
 20
22.0684841572402
 30
0.0
 10
-21.28807441965371
 20
22.05635671713004
 30
0.0
 10
-21.30395155286809
 20
22.04438663746993
 30
0.0
 10
-21.31994707944192
 20
22.03257523995955
 30
0.0
 10
-21.33599113590312
 20
22.02097336635827
 30
0.0
 10
-21.35208055982237
 20
22.00957999853838
 30
0.0
 10
-21.36821195603271
 20
21.99839366014081
 30
0.0
 10
-21.38445254189116
 20
21.98736645374957
 30
0.0
 10
-21.40080064830514
 20
21.97649926372493
 30
0.0
 10
-21.41725459987906
 20
21.96579297943892
 30
0.0
 10
-21.43381273500874
 20
21.95524848644053
 30
0.0
 10
-21.45047337096233
 20
21.9448666835766
 30
0.0
 10
-21.46714734068389
 20
21.93470180056496
 30
0.0
 10
-21.4838311592341
 20
21.92475174015783
 30
0.0
 10
-21.50052148525525
 20
21.91501454956675
 30
0.0
 10
-21.51730483920096
 20
21.90543870651818
 30
0.0
 10
-21.53417962680105
 20
21.89602530941694
 30
0.0
 10
-21.55114432464019
 20
21.88677519101001
 30
0.0
 10
-21.56819769387703
 20
21.87768985609475
 30
0.0
 10
-21.58533796142181
 20
21.86876808048006
 30
0.0
 10
-21.64142789830033
 20
21.8402820675497
 30
0.0
 10
-21.73827131964953
 20
21.79554232383439
 30
0.0
 10
-21.83275023263934
 20
21.76246155726679
 30
0.0
 10
-21.8799896891342
 20
21.745921173983
 30
0.0
 11
-20.5000000000001
 21
23.6469662896008
 31
0.0
 11
-20.50563994635517
 21
23.49698909513885
 31
0.0
 11
-20.52250644339313
 21
23.34785664014896
 31
0.0
 11
-20.52549059609004
 21
23.32876690277571
 31
0.0
 11
-20.52865952828222
 21
23.30970745573439
 31
0.0
 11
-20.53201271889919
 21
23.29068002854935
 31
0.0
 11
-20.53554975681399
 21
23.27168578669432
 31
0.0
 11
-20.5392701977577
 21
23.25272622982656
 31
0.0
 11
-20.54317347781333
 21
23.23380350504135
 31
0.0
 11
-20.54725915899237
 21
23.2149191236133
 31
0.0
 11
-20.55152672725076
 21
23.19607499977074
 31
0.0
 11
-20.55604795030074
 21
23.17697421373403
 31
0.0
 11
-20.56075606972787
 21
23.15791863444194
 31
0.0
 11
-20.56565074651465
 21
23.13891015774387
 31
0.0
 11
-20.570731657863
 21
23.11995061161154
 31
0.0
 11
-20.57599845769381
 21
23.10104191331839
 31
0.0
 11
-20.58145082799308
 21
23.08218588787274
 31
0.0
 11
-20.58708844060129
 21
23.06338440341868
 31
0.0
 11
-20.59291095964697
 21
23.04463935557616
 31
0.0
 11
-20.59899671392969
 21
23.02571177799247
 31
0.0
 11
-20.60527097782386
 21
23.00684584662942
 31
0.0
 11
-20.6117328981161
 21
22.98804335140188
 31
0.0
 11
-20.61838161739934
 21
22.96930609605569
 31
0.0
 11
-20.62521635490838
 21
22.95063567656976
 31
0.0
 11
-20.63223619526
 21
22.93203406304918
 31
0.0
 11
-20.6394402935191
 21
22.91350302484436
 31
0.0
 11
-20.64682780265436
 21
22.89504433534579
 31
0.0
 11
-20.65447277961356
 21
22.87648051578698
 31
0.0
 11
-20.66230326573659
 21
22.85799417986046
 31
0.0
 11
-20.67031861994186
 21
22.83958723851554
 31
0.0
 11
-20.67851819434988
 21
22.82126161830241
 31
0.0
 11
-20.68690129055045
 21
22.80301935393405
 31
0.0
 11
-20.69546730780505
 21
22.78486226539733
 31
0.0
 11
-20.70421559112242
 21
22.76679229491751
 31
0.0
 11
-20.71314548719154
 21
22.74881138148247
 31
0.0
 11
-20.72231670679402
 21
22.73080419280006
 31
0.0
 11
-20.73167006143687
 21
22.71289092992516
 31
0.0
 11
-20.74120435434975
 21
22.6950732973287
 31
0.0
 11
-20.75091838135902
 21
22.67735301447431
 31
0.0
 11
-20.76081104357725
 21
22.65973161417261
 31
0.0
 11
-20.7708810584397
 21
22.64221096040081
 31
0.0
 11
-20.78112723855011
 21
22.62479274163086
 31
0.0
 11
-20.79154839833122
 21
22.60747864234196
 31
0.0
 11
-20.80217864441821
 21
22.59021375426559
 31
0.0
 11
-20.81298287363186
 21
22.57305720662448
 31
0.0
 11
-20.82396012372995
 21
22.55601084055741
 31
0.0
 11
-20.83510942615549
 21
22.53907650661415
 31
0.0
 11
-20.84642971810386
 21
22.52225619379486
 31
0.0
 11
-20.85792011587817
 21
22.50555162229964
 31
0.0
 11
-20.86957963567291
 21
22.48896466518318
 31
0.0
 11
-20.88140730004848
 21
22.472497186879
 31
0.0
 11
-20.89340221565415
 21
22.45615076747294
 31
0.0
 11
-20.90556281132517
 21
22.4399272227641
 31
0.0
 11
-20.91788761280505
 21
22.42382805633504
 31
0.0
 11
-20.93037513972441
 21
22.40785478034357
 31
0.0
 11
-20.94302402607486
 21
22.39200876438413
 31
0.0
 11
-20.95583270596799
 21
22.37629163130698
 31
0.0
 11
-20.96879971600274
 21
22.36070487143213
 31
0.0
 11
-20.98192359988124
 21
22.3452499660248
 31
0.0
 11
-20.99515936851197
 21
22.32997818514655
 31
0.0
 11
-21.00854830786206
 21
22.3148405131875
 31
0.0
 11
-21.02208918015521
 21
22.29983859524433
 31
0.0
 11
-21.03578074451413
 21
22.28497407923347
 31
0.0
 11
-21.04962162276389
 21
22.27024875780646
 31
0.0
 11
-21.06361069480813
 21
22.25566414630555
 31
0.0
 11
-21.07774669581217
 21
22.24122191785614
 31
0.0
 11
-21.09202837300062
 21
22.22692373379881
 31
0.0
 11
-21.10636008971746
 21
22.212862784046
 31
0.0
 11
-21.12083269381554
 21
22.19894688863367
 31
0.0
 11
-21.13544454199533
 21
22.18517726526379
 31
0.0
 11
-21.15019398853535
 21
22.17155513410964
 31
0.0
 11
-21.16507948706091
 21
22.15808162596113
 31
0.0
 11
-21.18009931767257
 21
22.14475803062953
 31
0.0
 11
-21.19525184762368
 21
22.13158555641785
 31
0.0
 11
-21.21053545698112
 21
22.11856540025684
 31
0.0
 11
-21.2257990253067
 21
22.10582236163835
 31
0.0
 11
-21.24118814324257
 21
22.09323123380998
 31
0.0
 11
-21.25670138610479
 21
22.08079336738789
 31
0.0
 11
-21.2723373325337
 21
22.0685101096375
 31
0.0
 11
-21.28809439229321
 21
22.05638293685966
 31
0.0
 11
-21.30397128904039
 21
22.04441308155247
 31
0.0
 11
-21.31996657285054
 21
22.03260191327389
 31
0.0
 11
-21.33607880571317
 21
22.02095079326099
 31
0.0
 11
-21.35209904071246
 21
22.00960637024577
 31
0.0
 11
-21.36823015808334
 21
21.99842017955026
 31
0.0
 11
-21.38447046005785
 21
21.98739312441742
 31
0.0
 11
-21.40081827268608
 21
21.97652609218622
 31
0.0
 11
-21.41727195974533
 21
21.96581994727138
 31
0.0
 11
-21.43382980640938
 21
21.95527560906651
 31
0.0
 11
-21.45049017537396
 21
21.94489394727288
 31
0.0
 11
-21.46725136998734
 21
21.93467586794334
 31
0.0
 11
-21.48384692680662
 21
21.92477846182065
 31
0.0
 11
-21.50053705447248
 21
21.91504140355853
 31
0.0
 11
-21.51732009389605
 21
21.90546577201163
 31
0.0
 11
-21.53419474502758
 21
21.89605244912638
 31
0.0
 11
-21.55115914322227
 21
21.88680263310132
 31
0.0
 11
-21.5682120015255
 21
21.87771720816587
 31
0.0
 11
-21.58535233987964
 21
21.86879692370382
 31
0.0
 11
-21.60257867691126
 21
21.86004280792381
 31
0.0
 11
-21.73914443615639
 21
21.79778061656333
 31
0.0
 11
-21.8799896891342
 21
21.745921173983
 31
0.0
  0
SPLINE
  5
373
330
1F
100
AcDbEntity
  8
0
  6
Continuous
 62
     3
100
AcDbSpline
210
0.0
220
0.0
230
1.0
 70
     8
 71
     3
 72
    11
 73
     7
 74
     5
 42
0.0000000001
 43
0.0000000001
 44
0.00000001
 40
0.0
 40
0.0
 40
0.0
 40
0.0
 40
0.4803117536583857
 40
0.9606235073155323
 40
1.440538089125775
 40
1.92045269853698
 40
1.92045269853698
 40
1.92045269853698
 40
1.92045269853698
 10
19.8571429656122
 20
28.2175555277664
 30
0.0
 10
19.73173503177516
 20
28.11664003703342
 30
0.0
 10
19.48091916410141
 20
27.91480905556772
 30
0.0
 10
19.21209144469913
 20
27.50964607159502
 30
0.0
 10
19.03330945803893
 20
27.05761228253866
 30
0.0
 10
19.0111031528925
 20
26.73670532321657
 30
0.0
 10
19.0
 20
26.5762518389415
 30
0.0
 11
19.8571429656122
 21
28.2175555277664
 31
0.0
 11
19.4988061580035
 21
27.89772101897287
 31
0.0
 11
19.22702707239063
 21
27.50169638675331
 31
0.0
 11
19.05754666422872
 21
27.05270373972736
 31
0.0
 11
19.0
 21
26.5762518389415
 31
0.0
  0
SPLINE
  5
374
330
1F
100
AcDbEntity
  8
0
  6
Continuous
 62
     3
100
AcDbSpline
210
0.0
220
0.0
230
1.0
 70
     8
 71
     3
 72
    75
 73
    71
 74
    69
 42
0.0000000001
 43
0.0000000001
 44
0.00000001
 40
0.0
 40
0.0
 40
0.0
 40
0.0
 40
0.3451518987349645
 40
0.6903037974697802
 40
0.7286860913297022
 40
0.7670654585619523
 40
0.805441700643076
 40
0.8438187261395366
 40
0.8821954171543889
 40
0.9205718996310402
 40
0.9589495479589255
 40
0.9973272480506844
 40
1.035703051413483
 40
1.07407884372269
 40
1.112454378224013
 40
1.150829915815656
 40
1.189205977247762
 40
1.22758203810503
 40
1.265958146719055
 40
1.304334254126092
 40
1.342830836292265
 40
1.38132742595442
 40
1.419824049575154
 40
1.458320670912829
 40
1.496817302111045
 40
1.535313934984636
 40
1.573810526455262
 40
1.612307113479857
 40
1.650802752680505
 40
1.689298396249092
 40
1.727794083866789
 40
1.766289769970165
 40
1.804785270880066
 40
1.84328077356225
 40
1.881776227368174
 40
1.920271675476951
 40
1.958708507778438
 40
1.997145342859464
 40
2.03558222100957
 40
2.074019098009305
 40
2.112456639943654
 40
2.150894183531125
 40
2.189331660614783
 40
2.227769132588417
 40
2.266207765253113
 40
2.304646404461808
 40
2.343085182261191
 40
2.38152395141715
 40
2.419960218540566
 40
2.458396514431387
 40
2.496832465677316
 40
2.53526830935088
 40
2.569496086795152
 40
2.603723780174285
 40
2.637950951803519
 40
2.67217815733884
 40
2.706407003864316
 40
2.740635798244332
 40
2.774865483038757
 40
2.809095343144052
 40
2.851640530968218
 40
2.894185914464717
 40
2.936730952010402
 40
2.979276170210494
 40
3.021821402345263
 40
3.064365719339975
 40
3.106913110467158
 40
3.149463978356218
 40
3.494057609011364
 40
3.838651239927044
 40
3.838651239927044
 40
3.838651239927044
 40
3.838651239927044
 10
17.4127479542029
 20
27.8921908983253
 30
0.0
 10
17.29784648570338
 20
27.88361467736711
 30
0.0
 10
17.0680435487044
 20
27.86646223545073
 30
0.0
 10
16.83144873656892
 20
27.80569202223049
 30
0.0
 10
16.69789884450195
 20
27.76166813900354
 30
0.0
 10
16.6616413474506
 20
27.74907356605366
 30
0.0
 10
16.62558373146781
 20
27.73592972371963
 30
0.0
 10
16.58973286112825
 20
27.7222326746401
 30
0.0
 10
16.55409634923775
 20
27.70798749212884
 30
0.0
 10
16.51868240128708
 20
27.69319701271083
 30
0.0
 10
16.48349927448393
 20
27.67786474611504
 30
0.0
 10
16.44855590373497
 20
27.66199418246653
 30
0.0
 10
16.41386107853059
 20
27.64558883363521
 30
0.0
 10
16.3794228650761
 20
27.62865306607331
 30
0.0
 10
16.34524865566394
 20
27.6111908988957
 30
0.0
 10
16.31134624064013
 20
27.59320654589068
 30
0.0
 10
16.2777234920686
 20
27.57470424982529
 30
0.0
 10
16.24438837274166
 20
27.55568823848068
 30
0.0
 10
16.21134901529495
 20
27.53616284370008
 30
0.0
 10
16.17857915987559
 20
27.51611135485108
 30
0.0
 10
16.14608797424536
 20
27.49553620383892
 30
0.0
 10
16.11388406274642
 20
27.47444086412042
 30
0.0
 10
16.08200879911686
 20
27.45285212226839
 30
0.0
 10
16.05046961814288
 20
27.43077527313252
 30
0.0
 10
16.01927395739671
 20
27.40821561461008
 30
0.0
 10
15.98842925774726
 20
27.38517844383586
 30
0.0
 10
15.95794295808571
 20
27.36166905791098
 30
0.0
 10
15.92782275055874
 20
27.33769295491592
 30
0.0
 10
15.89807607655193
 20
27.31325545373311
 30
0.0
 10
15.86870966486321
 20
27.28836275139406
 30
0.0
 10
15.83973000557168
 20
27.26302082529361
 30
0.0
 10
15.81114387033445
 20
27.23723588746034
 30
0.0
 10
15.78295798611112
 20
27.21101411544625
 30
0.0
 10
15.75517908723764
 20
27.1843616807368
 30
0.0
 10
15.7278138593482
 20
27.15728470656266
 30
0.0
 10
15.70088271656903
 20
27.12980331993342
 30
0.0
 10
15.67439164612201
 20
27.10192443024004
 30
0.0
 10
15.64834581641422
 20
27.0736556743627
 30
0.0
 10
15.62273769333131
 20
27.04498979068089
 30
0.0
 10
15.59757304942172
 20
27.01593350698521
 30
0.0
 10
15.57285781582158
 20
26.98649371730566
 30
0.0
 10
15.54859791003508
 20
26.95667733931523
 30
0.0
 10
15.5247993734003
 20
26.92649145882486
 30
0.0
 10
15.50146787821235
 20
26.89594269126595
 30
0.0
 10
15.47860934923053
 20
26.86503794575227
 30
0.0
 10
15.45622873503786
 20
26.83378483461379
 30
0.0
 10
15.43433121286166
 20
26.80219131091553
 30
0.0
 10
15.41292217844658
 20
26.77026570067571
 30
0.0
 10
15.3920065382105
 20
26.73801568295794
 30
0.0
 10
15.37158930970719
 20
26.70544894388531
 30
0.0
 10
15.35167505628539
 20
26.67257240704919
 30
0.0
 10
15.3329769856597
 20
26.64060445785683
 30
0.0
 10
15.31543670185555
 20
26.60958923149934
 30
0.0
 10
15.29899674921744
 20
26.57956712868767
 30
0.0
 10
15.28296955551291
 20
26.54932288747831
 30
0.0
 10
15.26735779060271
 20
26.51886169417851
 30
0.0
 10
15.25216435082144
 20
26.48818910093127
 30
0.0
 10
15.23739202313132
 20
26.45731057697481
 30
0.0
 10
15.2230439215084
 20
26.42623226989011
 30
0.0
 10
15.20799569470443
 20
26.3924276904098
 30
0.0
 10
15.19238051847982
 20
26.35584553185902
 30
0.0
 10
15.17634559557202
 20
26.31643553187594
 30
0.0
 10
15.16098295457378
 20
26.27675858219624
 30
0.0
 10
15.14629693556109
 20
26.23682636898477
 30
0.0
 10
15.13229105013828
 20
26.19665057058571
 30
0.0
 10
15.11897191699884
 20
26.1562419848655
 30
0.0
 10
15.10633515960969
 20
26.11560982640912
 30
0.0
 10
15.06622132478208
 20
25.97813238203264
 30
0.0
 10
15.01362049709856
 20
25.73854816306409
 30
0.0
 10
15.00453826821713
 20
25.5086586082354
 30
0.0
 10
14.9999971537747
 20
25.3937138307776
 30
0.0
 11
17.4127479542029
 21
27.8921908983253
 31
0.0
 11
17.0694611367125
 21
27.85635803439192
 31
0.0
 11
16.73437711233718
 21
27.77360218983286
 31
0.0
 11
16.69792917811363
 21
27.76157103973052
 31
0.0
 11
16.66167340324469
 21
27.74898157517475
 31
0.0
 11
16.62561829401889
 21
27.73583756304052
 31
0.0
 11
16.58976849628505
 21
27.72214128294706
 31
0.0
 11
16.5541334106689
 21
27.70789659669642
 31
0.0
 11
16.51872128044019
 21
27.69310688946654
 31
0.0
 11
16.48353921565134
 21
27.67777502042289
 31
0.0
 11
16.4485966608183
 21
27.66190474235119
 31
0.0
 11
16.41390373516568
 21
27.6455003772796
 31
0.0
 11
16.37946677572469
 21
27.62856528767786
 31
0.0
 11
16.34529396874995
 21
27.61110387560067
 31
0.0
 11
16.31139303106594
 21
27.59312031895598
 31
0.0
 11
16.27777145788338
 21
27.57461864584866
 31
0.0
 11
16.24443768236383
 21
27.55560335051744
 31
0.0
 11
16.21139964348241
 21
27.5360786559174
 31
0.0
 11
16.17866537975075
 21
27.51604883820323
 31
0.0
 11
16.14614151213458
 21
27.49545308927869
 31
0.0
 11
16.11393884862572
 21
27.47435863790987
 31
0.0
 11
16.08206481417242
 21
27.45277077192302
 31
0.0
 11
16.05052687461021
 21
27.43069480710635
 31
0.0
 11
16.01933245003879
 21
27.40813602856519
 31
0.0
 11
15.98848897813174
 21
27.3850997314816
 31
0.0
 11
15.95800392905915
 21
27.361591236466
 31
0.0
 11
15.92788471952864
 21
27.33761582343934
 31
0.0
 11
15.89813941608683
 21
27.31317955611757
 31
0.0
 11
15.86877413669958
 21
27.28828789204566
 31
0.0
 11
15.83979558667592
 21
27.26294698433333
 31
0.0
 11
15.81121052574027
 21
27.23716303312574
 31
0.0
 11
15.78302580801122
 21
27.21094232991554
 31
0.0
 11
15.75524801863378
 21
27.18429091074024
 31
0.0
 11
15.72788392403869
 21
27.15721497510147
 31
0.0
 11
15.70094023291369
 21
27.12972066598748
 31
0.0
 11
15.67446361204366
 21
27.10185709434497
 31
0.0
 11
15.64841877883468
 21
27.073589498866
 31
0.0
 11
15.62281163201054
 21
27.04492475338565
 31
0.0
 11
15.5976481189402
 21
27.01586978610893
 31
0.0
 11
15.57293372562117
 21
26.98643097851033
 31
0.0
 11
15.54867478860789
 21
26.95661573522734
 31
0.0
 11
15.52487724927618
 21
26.92643102442348
 31
0.0
 11
15.50154697716308
 21
26.8958837224992
 31
0.0
 11
15.47868904602269
 21
26.86497994497747
 31
0.0
 11
15.45630928135409
 21
26.83372814314791
 31
0.0
 11
15.43441255256042
 21
26.80213585125817
 31
0.0
 11
15.41300387570586
 21
26.77021082142949
 31
0.0
 11
15.39208952703881
 21
26.73796277264796
 31
0.0
 11
15.37167306632109
 21
26.70539719306509
 31
0.0
 11
15.35175968576228
 21
26.67252198016997
 31
0.0
 11
15.33235427005207
 21
26.63934451914577
 31
0.0
 11
15.31550497376284
 21
26.60955119836186
 31
0.0
 11
15.29906544477812
 21
26.57952992455783
 31
0.0
 11
15.28303882774878
 21
26.54928679601048
 31
0.0
 11
15.26742779820407
 21
26.51882702983752
 31
0.0
 11
15.25223458910946
 21
26.48815488723431
 31
0.0
 11
15.23746287760309
 21
26.45727759940195
 31
0.0
 11
15.22311515914598
 21
26.42620004647059
 31
0.0
 11
15.2091946230339
 21
26.39492862185993
 31
0.0
 11
15.19249195053685
 21
26.35579917337865
 31
0.0
 11
15.17645760063536
 21
26.31639093464484
 31
0.0
 11
15.16109574304151
 21
26.27671608680606
 31
0.0
 11
15.14641027971408
 21
26.23678573796521
 31
0.0
 11
15.13240544828641
 21
26.19661159859566
 31
0.0
 11
15.11908605240307
 21
26.1562059974759
 31
0.0
 11
15.10645561519561
 21
26.11557654328712
 31
0.0
 11
15.09451890091718
 21
26.07473427094158
 31
0.0
 11
15.02373545696434
 21
25.73748884940072
 31
0.0
 11
14.9999971537747
 21
25.3937138307776
 31
0.0
  0
SPLINE
  5
375
330
1F
100
AcDbEntity
  8
0
  6
Continuous
 62
     3
100
AcDbSpline
210
0.0
220
0.0
230
1.0
 70
     8
 71
     3
 72
    75
 73
    71
 74
    69
 42
0.0000000001
 43
0.0000000001
 44
0.00000001
 40
0.0
 40
0.0
 40
0.0
 40
0.0
 40
0.3332967676140662
 40
0.6665935353732537
 40
0.7008007792316885
 40
0.7350057347777326
 40
0.7692078992518322
 40
0.8034106867085943
 40
0.8376126996903448
 40
0.8718145060797823
 40
0.9060178889091501
 40
0.9402214774399374
 40
0.9826993245008664
 40
1.025177412385215
 40
1.067656150405201
 40
1.110134824306491
 40
1.152619641320094
 40
1.195104476459278
 40
1.237588997148915
 40
1.280073508396467
 40
1.322707281798109
 40
1.365341074231326
 40
1.407975286395708
 40
1.450609476103535
 40
1.493238966630869
 40
1.5358685282013
 40
1.578497084529106
 40
1.621125378195042
 40
1.65541908071526
 40
1.689712620683099
 40
1.724005582670942
 40
1.758298587982048
 40
1.792588593922589
 40
1.826878588773317
 40
1.861168782396877
 40
1.895458977113637
 40
1.929707943901393
 40
1.963956907990053
 40
1.998205672657068
 40
2.032454448655883
 40
2.066706643264432
 40
2.100958794982602
 40
2.135211500587824
 40
2.169464367076342
 40
2.212017999874794
 40
2.254571896053186
 40
2.297126904265745
 40
2.339681833542414
 40
2.382238463553798
 40
2.424795147983247
 40
2.467351048151802
 40
2.509906807635768
 40
2.54825662328214
 40
2.586606340461441
 40
2.624955707201635
 40
2.663305100923907
 40
2.701651604908857
 40
2.73999809881107
 40
2.778344945108137
 40
2.816691804683236
 40
2.855049107348447
 40
2.893406357975798
 40
2.931762424449455
 40
2.970118698602719
 40
3.008475969960307
 40
3.046832461983384
 40
3.085192067270862
 40
3.123554583507115
 40
3.468773944822015
 40
3.813993306137369
 40
3.813993306137369
 40
3.813993306137369
 40
3.813993306137369
 10
-15.0001274891439
 20
25.4187333034769
 30
0.0
 10
-15.00548236628332
 20
25.52985614628764
 30
0.0
 10
-15.01619212056449
 20
25.75210183195752
 30
0.0
 10
-15.06716945537745
 20
25.98133938055167
 30
0.0
 10
-15.10454600634266
 20
26.10990347124018
 30
0.0
 10
-15.11455997229997
 20
26.14261216857525
 30
0.0
 10
-15.12501599713149
 20
26.17517877076074
 30
0.0
 10
-15.13591779687593
 20
26.2075983649155
 30
0.0
 10
-15.14726198855981
 20
26.23986554659709
 30
0.0
 10
-15.1590468400537
 20
26.27197465497545
 30
0.0
 10
-15.17127012109619
 20
26.30392000326876
 30
0.0
 10
-15.18495052544121
 20
26.33825786158086
 30
0.0
 10
-15.20021673709822
 20
26.37492891178329
 30
0.0
 10
-15.21720695516984
 20
26.41386352151286
 30
0.0
 10
-15.23485585887681
 20
26.4525043410103
 30
0.0
 10
-15.25315902314
 20
26.49084206215667
 30
0.0
 10
-15.27211119045982
 20
26.52886541057739
 30
0.0
 10
-15.29170728368461
 20
26.56656313727515
 30
0.0
 10
-15.31194122701254
 20
26.60392226833386
 30
0.0
 10
-15.33283226655382
 20
26.64097497762467
 30
0.0
 10
-15.35437782661219
 20
26.67770867882237
 30
0.0
 10
-15.37657356410342
 20
26.71411166509433
 30
0.0
 10
-15.39938734136491
 20
26.75013070728899
 30
0.0
 10
-15.42281132699834
 20
26.78575421539092
 30
0.0
 10
-15.44683841581146
 20
26.82097188182734
 30
0.0
 10
-15.47146143350455
 20
26.855773212052
 30
0.0
 10
-15.49667424709544
 20
26.89014912827431
 30
0.0
 10
-15.52078882515429
 20
26.92187741710251
 30
0.0
 10
-15.54367410808081
 20
26.95104363512203
 30
0.0
 10
-15.56521292199855
 20
26.97773055551719
 30
0.0
 10
-15.58711602210977
 20
27.00411898702316
 30
0.0
 10
-15.60937854284305
 20
27.03020336442983
 30
0.0
 10
-15.63199631671825
 20
27.0559789912151
 30
0.0
 10
-15.65496507933553
 20
27.08144108718484
 30
0.0
 10
-15.6782812260518
 20
27.10658555038382
 30
0.0
 10
-15.70193101860907
 20
27.13139757127586
 30
0.0
 10
-15.72590966632352
 20
27.1558726874739
 30
0.0
 10
-15.7502119669863
 20
27.18000687007795
 30
0.0
 10
-15.77484286506382
 20
27.2038055058829
 30
0.0
 10
-15.79979852532252
 20
27.22726493836618
 30
0.0
 10
-15.82507435869656
 20
27.25038072638874
 30
0.0
 10
-15.85066583068762
 20
27.27314854243554
 30
0.0
 10
-15.87656746000463
 20
27.29556324729747
 30
0.0
 10
-15.90489146959721
 20
27.31940215723115
 30
0.0
 10
-15.93572416313342
 20
27.34455157802548
 30
0.0
 10
-15.9691550285287
 20
27.37088423641706
 30
0.0
 10
-16.00302983380646
 20
27.3966440486525
 30
0.0
 10
-16.0373389003485
 20
27.4218241036497
 30
0.0
 10
-16.07207192370567
 20
27.44641702858957
 30
0.0
 10
-16.10721878648044
 20
27.47041537990179
 30
0.0
 10
-16.14276900473995
 20
27.49381151737682
 30
0.0
 10
-16.17752847829061
 20
27.51584747838773
 30
0.0
 10
-16.21144423038518
 20
27.53658504170964
 30
0.0
 10
-16.24446723675413
 20
27.55608610990113
 30
0.0
 10
-16.27778561018503
 20
27.57507781599682
 30
0.0
 10
-16.31139054801907
 20
27.5935555060256
 30
0.0
 10
-16.34527413733334
 20
27.61151506298512
 30
0.0
 10
-16.37942845929515
 20
27.6289523936428
 30
0.0
 10
-16.41384637814394
 20
27.64586375722213
 30
0.0
 10
-16.44852304476896
 20
27.66224645061526
 30
0.0
 10
-16.48345039819886
 20
27.67809605631956
 30
0.0
 10
-16.51861970233279
 20
27.69340895861579
 30
0.0
 10
-16.55401942438531
 20
27.70818052889944
 30
0.0
 10
-16.58964150956126
 20
27.72240738154996
 30
0.0
 10
-16.62547776254936
 20
27.73608671223134
 30
0.0
 10
-16.66152058166923
 20
27.74921345663075
 30
0.0
 10
-16.69776289954686
 20
27.76179146651819
 30
0.0
 10
-16.83133346653341
 20
27.80578254602798
 30
0.0
 10
-17.06798136925712
 20
27.86649405999433
 30
0.0
 10
-17.29783016038446
 20
27.88362528554831
 30
0.0
 10
-17.4127545559482
 20
27.8921908983253
 30
0.0
 11
-15.0001274891439
 21
25.4187333034769
 31
0.0
 11
-15.02563694370746
 21
25.75105243177055
 31
0.0
 11
-15.0950625404177
 21
26.07703835465703
 31
0.0
 11
-15.1046239490939
 21
26.10988215158304
 31
0.0
 11
-15.11463400021071
 21
26.14258961037375
 31
0.0
 11
-15.12509027842412
 21
26.17515422768514
 31
0.0
 11
-15.13599161958984
 21
26.20757322567399
 31
0.0
 11
-15.14733544312088
 21
26.23983923502904
 31
0.0
 11
-15.15911969635093
 21
26.2719467876625
 31
0.0
 11
-15.17134277526776
 21
26.30389154840296
 31
0.0
 11
-15.18400201788849
 21
26.33566620882055
 31
0.0
 11
-15.20032734318802
 21
26.37488165532822
 31
0.0
 11
-15.21731662915204
 21
26.41381431658768
 31
0.0
 11
-15.23496475080312
 21
26.45245350635608
 31
0.0
 11
-15.2532661438643
 21
26.49078752190928
 31
0.0
 11
-15.2722183640522
 21
26.52881084405015
 31
0.0
 11
-15.29181364914298
 21
26.56650681225651
 31
0.0
 11
-15.31204668029557
 21
26.60386399293983
 31
0.0
 11
-15.33291241397771
 21
26.64087149020524
 31
0.0
 11
-15.35448197803501
 21
26.67764638029129
 31
0.0
 11
-15.37667648468709
 21
26.71404753592829
 31
0.0
 11
-15.39948917845746
 21
26.750064990722
 31
0.0
 11
-15.42291285967648
 21
26.78568809123547
 31
0.0
 11
-15.44693790092228
 21
26.82090273102856
 31
0.0
 11
-15.4715599676806
 21
26.85570263545711
 31
0.0
 11
-15.49677149746679
 21
26.89007664570371
 31
0.0
 11
-15.52256600071685
 21
26.92401504612199
 31
0.0
 11
-15.54373559668504
 21
26.95099478368723
 31
0.0
 11
-15.56527378286546
 21
26.97768098648162
 31
0.0
 11
-15.58717604338428
 21
27.00406844990775
 31
0.0
 11
-15.60943851384348
 21
27.03015278663155
 31
0.0
 11
-15.63205492021916
 21
27.0559268563539
 31
0.0
 11
-15.65502292488646
 21
27.0813880917612
 31
0.0
 11
-15.67833840623179
 21
27.10653179292822
 31
0.0
 11
-15.70199696942615
 21
27.13135295005862
 31
0.0
 11
-15.72596522004019
 21
27.15581750990611
 31
0.0
 11
-15.75026678827772
 21
27.17995099954899
 31
0.0
 11
-15.77489685848739
 21
27.2037488465668
 31
0.0
 11
-15.79985091392076
 21
27.22720676153905
 31
0.0
 11
-15.82512681437237
 21
27.25032259359983
 31
0.0
 11
-15.85071735668662
 21
27.27308954423858
 31
0.0
 11
-15.87661828788652
 21
27.29550359349917
 31
0.0
 11
-15.90282459644596
 21
27.31756007223825
 31
0.0
 11
-15.93579969327063
 21
27.34445718460649
 31
0.0
 11
-15.96922866850892
 21
27.37078849096373
 31
0.0
 11
-16.00310210992185
 21
27.39654734751474
 31
0.0
 11
-16.03740902436413
 21
27.42172586270512
 31
0.0
 11
-16.07214083843475
 21
27.44631789087056
 31
0.0
 11
-16.10728626976122
 21
27.47031518335335
 31
0.0
 11
-16.14283465395085
 21
27.49370999091106
 31
0.0
 11
-16.17877653389377
 21
27.51649537946219
 31
0.0
 11
-16.21149484809299
 21
27.53650088560604
 31
0.0
 11
-16.24451658588386
 21
27.55600128665328
 31
0.0
 11
-16.27783351936076
 21
27.57499222852223
 31
0.0
 11
-16.31143797798981
 21
27.59346968395079
 31
0.0
 11
-16.34531938733565
 21
27.61142809336275
 31
0.0
 11
-16.37947226941554
 21
27.62886467101519
 31
0.0
 11
-16.41388895595415
 21
27.64577538680826
 31
0.0
 11
-16.44856114259369
 21
27.66215589696225
 31
0.0
 11
-16.48349027378727
 21
27.67800640048146
 31
0.0
 11
-16.51865852094166
 21
27.69331891391906
 31
0.0
 11
-16.55405641939769
 21
27.70808971688399
 31
0.0
 11
-16.58967687269559
 21
27.72231599797821
 31
0.0
 11
-16.62551225992882
 21
27.73599464147253
 31
0.0
 11
-16.66155257858488
 21
27.7491215570084
 31
0.0
 11
-16.69779317805004
 21
27.7616944750554
 31
0.0
 11
-16.73422555874089
 21
27.77370964418338
 31
0.0
 11
-17.06939574941853
 21
27.85639791848986
 31
0.0
 11
-17.4127545559482
 21
27.8921908983253
 31
0.0
  0
SPLINE
  5
376
330
1F
100
AcDbEntity
  8
0
  6
Continuous
 62
     3
100
AcDbSpline
210
0.0
220
0.0
230
1.0
 70
     8
 71
     3
 72
    11
 73
     7
 74
     5
 42
0.0000000001
 43
0.0000000001
 44
0.00000001
 40
0.0
 40
0.0
 40
0.0
 40
0.0
 40
4.20187210933777
 40
8.40374421850824
 40
12.60656795962462
 40
16.80939170090864
 40
16.80939170090864
 40
16.80939170090864
 40
16.80939170090864
 10
-53.5566243270488
 20
-8.30662386291811
 30
0.0
 10
-53.87798583821873
 20
-6.941370522932955
 30
0.0
 10
-54.52070886054582
 20
-4.210863843017002
 30
0.0
 10
-54.80658478028703
 20
-0.0006404659104873
 30
0.0
 10
-54.52090117904751
 20
4.209927333719511
 30
0.0
 10
-53.87804994436951
 20
6.941058353167021
 30
0.0
 10
-53.5566243270241
 20
8.30662386291801
 30
0.0
 11
-53.5566243270488
 21
-8.30662386291811
 31
0.0
 11
-54.40767049494379
 21
-4.191839586271047
 31
0.0
 11
-54.71132484948549
 21
-0.0009538499627226
 31
0.0
 11
-54.40780589788807
 21
4.190895818729214
 31
0.0
 11
-53.5566243270241
 21
8.30662386291801
 31
0.0
  0
SPLINE
  5
377
330
1F
100
AcDbEntity
  8
0
  6
Continuous
 62
     3
100
AcDbSpline
210
0.0
220
0.0
230
1.0
 70
     8
 71
     3
 72
    11
 73
     7
 74
     5
 42
0.0000000001
 43
0.0000000001
 44
0.00000001
 40
0.0
 40
0.0
 40
0.0
 40
0.0
 40
4.2018721093511
 40
8.403744218534893
 40
12.60656795965129
 40
16.80939170093533
 40
16.80939170093533
 40
16.80939170093533
 40
16.80939170093533
 10
-39.7999999999737
 20
8.30662386294484
 30
0.0
 10
-39.47863848880319
 20
6.941370522955233
 30
0.0
 10
-38.83591546647498
 20
4.210863843030383
 30
0.0
 10
-38.5500395467356
 20
0.0006404659148378
 30
0.0
 10
-38.83572314797459
 20
-4.209927333719593
 30
0.0
 10
-39.47857438265272
 20
-6.941058353167116
 30
0.0
 10
-39.7999999999982
 20
-8.30662386291811
 30
0.0
 11
-39.7999999999737
 21
8.30662386294484
 31
0.0
 11
-38.94895383207755
 21
4.191839586284404
 31
0.0
 11
-38.64529947753676
 21
0.0009538499626558
 31
0.0
 11
-38.9488184291342
 21
-4.1908958187293
 31
0.0
 11
-39.7999999999982
 21
-8.30662386291811
 31
0.0
  0
SPLINE
  5
378
330
1F
100
AcDbEntity
  8
0
  6
Continuous
 62
     3
100
AcDbSpline
210
0.0
220
0.0
230
1.0
 70
     8
 71
     3
 72
    11
 73
     7
 74
     5
 42
0.0000000001
 43
0.0000000001
 44
0.00000001
 40
0.0
 40
0.0
 40
0.0
 40
0.0
 40
4.2018721093511
 40
8.403744218534893
 40
12.60656795965129
 40
16.80939170093533
 40
16.80939170093533
 40
16.80939170093533
 40
16.80939170093533
 10
39.7999999999737
 20
8.30662386294484
 30
0.0
 10
39.47863848880319
 20
6.941370522955233
 30
0.0
 10
38.83591546647498
 20
4.210863843030383
 30
0.0
 10
38.5500395467356
 20
0.0006404659148378
 30
0.0
 10
38.83572314797459
 20
-4.209927333719593
 30
0.0
 10
39.47857438265272
 20
-6.941058353167116
 30
0.0
 10
39.7999999999982
 20
-8.30662386291811
 30
0.0
 11
39.7999999999737
 21
8.30662386294484
 31
0.0
 11
38.94895383207755
 21
4.191839586284404
 31
0.0
 11
38.64529947753676
 21
0.0009538499626558
 31
0.0
 11
38.9488184291342
 21
-4.1908958187293
 31
0.0
 11
39.7999999999982
 21
-8.30662386291811
 31
0.0
  0
SPLINE
  5
379
330
1F
100
AcDbEntity
  8
0
  6
Continuous
 62
     3
100
AcDbSpline
210
0.0
220
0.0
230
1.0
 70
     8
 71
     3
 72
    11
 73
     7
 74
     5
 42
0.0000000001
 43
0.0000000001
 44
0.00000001
 40
0.0
 40
0.0
 40
0.0
 40
0.0
 40
4.201872109340065
 40
8.403744218512827
 40
12.60656795962921
 40
16.80939170091322
 40
16.80939170091322
 40
16.80939170091322
 40
16.80939170091322
 10
53.5566243270241
 20
-8.30662386291811
 30
0.0
 10
53.87798583820266
 20
-6.941370522934006
 30
0.0
 10
54.52070886054699
 20
-4.210863843020156
 30
0.0
 10
54.80658478028666
 20
-0.0006404659110346
 30
0.0
 10
54.52090117904751
 20
4.20992733371944
 30
0.0
 10
53.87804994436951
 20
6.941058353166998
 30
0.0
 10
53.5566243270241
 20
8.30662386291801
 30
0.0
 11
53.5566243270241
 21
-8.30662386291811
 31
0.0
 11
54.4076704949404
 21
-4.191839586273112
 31
0.0
 11
54.71132484948544
 21
-0.0009538499627313
 31
0.0
 11
54.40780589788801
 21
4.190895818729205
 31
0.0
 11
53.5566243270241
 21
8.30662386291801
 31
0.0
  0
SPLINE
  5
37A
330
1F
100
AcDbEntity
  8
0
  6
Continuous
 62
     3
100
AcDbSpline
210
0.0
220
0.0
230
1.0
 70
     8
 71
     3
 72
    11
 73
     7
 74
     5
 42
0.0000000001
 43
0.0000000001
 44
0.00000001
 40
0.0
 40
0.0
 40
0.0
 40
0.0
 40
4.201872109339959
 40
8.403744218512688
 40
12.60656795962932
 40
16.80939170091312
 40
16.80939170091312
 40
16.80939170091312
 40
16.80939170091312
 10
-53.5566243270241
 20
229.306623862918
 30
0.0
 10
-53.87798583820268
 20
227.9413705229339
 30
0.0
 10
-54.52070886054706
 20
225.2108638430201
 30
0.0
 10
-54.80658478028664
 20
221.000640465911
 30
0.0
 10
-54.52090117904764
 20
216.7900726662805
 30
0.0
 10
-53.87804994436955
 20
214.0589416468329
 30
0.0
 10
-53.5566243270241
 20
212.693376137082
 30
0.0
 11
-53.5566243270241
 21
229.306623862918
 31
0.0
 11
-54.40767049494044
 21
225.1918395862731
 31
0.0
 11
-54.71132484948544
 21
221.0009538499628
 31
0.0
 11
-54.40780589788805
 21
216.8091041812706
 31
0.0
 11
-53.5566243270241
 21
212.693376137082
 31
0.0
  0
SPLINE
  5
37B
330
1F
100
AcDbEntity
  8
0
  6
Continuous
 62
     3
100
AcDbSpline
210
0.0
220
0.0
230
1.0
 70
     8
 71
     3
 72
    11
 73
     7
 74
     5
 42
0.0000000001
 43
0.0000000001
 44
0.00000001
 40
0.0
 40
0.0
 40
0.0
 40
0.0
 40
4.201872109351513
 40
8.40374421853559
 40
12.6065679596518
 40
16.80939170093539
 40
16.80939170093539
 40
16.80939170093539
 40
16.80939170093539
 10
-39.7999999999737
 20
212.693376137055
 30
0.0
 10
-39.47863848880321
 20
214.0586294770448
 30
0.0
 10
-38.835915466475
 20
216.7891361569699
 30
0.0
 10
-38.55003954673559
 20
220.9993595340854
 30
0.0
 10
-38.83572314797459
 20
225.2099273337199
 30
0.0
 10
-39.47857438265274
 20
227.9410583531672
 30
0.0
 10
-39.7999999999982
 20
229.306623862918
 30
0.0
 11
-39.7999999999737
 21
212.693376137055
 31
0.0
 11
-38.94895383207754
 21
216.8081604137159
 31
0.0
 11
-38.64529947753676
 21
220.9990461500379
 31
0.0
 11
-38.94881842913421
 21
225.1908958187296
 31
0.0
 11
-39.7999999999982
 21
229.306623862918
 31
0.0
  0
SPLINE
  5
37C
330
1F
100
AcDbEntity
  8
0
  6
Continuous
 62
     3
100
AcDbSpline
210
0.0
220
0.0
230
1.0
 70
     8
 71
     3
 72
    11
 73
     7
 74
     5
 42
0.0000000001
 43
0.0000000001
 44
0.00000001
 40
0.0
 40
0.0
 40
0.0
 40
0.0
 40
4.201872109351488
 40
8.403744218535586
 40
12.60656795965176
 40
16.80939170093536
 40
16.80939170093536
 40
16.80939170093536
 40
16.80939170093536
 10
53.5566243270524
 20
212.693376137055
 30
0.0
 10
53.87798583822286
 20
214.0586294770447
 30
0.0
 10
54.52070886055096
 20
216.7891361569698
 30
0.0
 10
54.80658478029027
 20
220.9993595340856
 30
0.0
 10
54.52090117905139
 20
225.2099273337199
 30
0.0
 10
53.87804994437319
 20
227.9410583531671
 30
0.0
 10
53.5566243270277
 20
229.306623862918
 30
0.0
 11
53.5566243270524
 21
212.693376137055
 31
0.0
 11
54.40767049494843
 21
216.8081604137159
 31
0.0
 11
54.71132484948915
 21
220.9990461500379
 31
0.0
 11
54.40780589789173
 21
225.1908958187296
 31
0.0
 11
53.5566243270277
 21
229.306623862918
 31
0.0
  0
SPLINE
  5
37D
330
1F
100
AcDbEntity
  8
0
  6
Continuous
 62
     3
100
AcDbSpline
210
0.0
220
0.0
230
1.0
 70
     8
 71
     3
 72
     9
 73
     5
 74
     3
 42
0.0000000001
 43
0.0000000001
 44
0.00000001
 40
0.0
 40
0.0
 40
0.0
 40
0.0
 40
3.315129420505994
 40
6.630258841011985
 40
6.630258841011985
 40
6.630258841011985
 40
6.630258841011985
 10
23.6697411849073
 20
229.000564018573
 30
0.0
 10
24.77478431735609
 20
229.0004300438971
 30
0.0
 10
26.98487058225367
 20
229.0001620945454
 30
0.0
 10
29.19495686075236
 20
229.0000540315152
 30
0.0
 10
30.3000000000017
 20
229.0
 30
0.0
 11
23.6697411849073
 21
229.000564018573
 31
0.0
 11
26.98487058565395
 21
229.0002020661258
 31
0.0
 11
30.3000000000017
 21
229.0
 31
0.0
  0
SPLINE
  5
37E
330
1F
100
AcDbEntity
  8
0
  6
Continuous
 62
     3
100
AcDbSpline
210
0.0
220
0.0
230
1.0
 70
     8
 71
     3
 72
    11
 73
     7
 74
     5
 42
0.0000000001
 43
0.0000000001
 44
0.00000001
 40
0.0
 40
0.0
 40
0.0
 40
0.0
 40
4.201872109339876
 40
8.40374421851223
 40
12.60656795962863
 40
16.8093917009131
 40
16.8093917009131
 40
16.8093917009131
 40
16.8093917009131
 10
39.8000000000018
 20
229.306623862918
 30
0.0
 10
39.47863848882321
 20
227.941370522934
 30
0.0
 10
38.83591546647884
 20
225.2108638430203
 30
0.0
 10
38.55003954673937
 20
221.0006404659114
 30
0.0
 10
38.83572314797838
 20
216.7900726662809
 30
0.0
 10
39.47857438265638
 20
214.0589416468332
 30
0.0
 10
39.8000000000018
 20
212.693376137082
 30
0.0
 11
39.8000000000018
 21
229.306623862918
 31
0.0
 11
38.94895383208546
 21
225.1918395862732
 31
0.0
 11
38.64529947754053
 21
221.0009538499632
 31
0.0
 11
38.94881842913789
 21
216.8091041812713
 31
0.0
 11
39.8000000000018
 21
212.693376137082
 31
0.0
  0
SPLINE
  5
37F
330
1F
100
AcDbEntity
  8
0
  6
Continuous
 62
     3
100
AcDbSpline
210
0.0
220
0.0
230
1.0
 70
     8
 71
     3
 72
     9
 73
     5
 74
     3
 42
0.0000000001
 43
0.0000000001
 44
0.00000001
 40
0.0
 40
0.0
 40
0.0
 40
0.0
 40
3.315121723795253
 40
6.630243447590521
 40
6.630243447590521
 40
6.630243447590521
 40
6.630243447590521
 10
-30.2999999999982
 20
229.0
 30
0.0
 10
-29.19495942631909
 20
229.0000540312411
 30
0.0
 10
-26.98487827896087
 20
229.000162093723
 30
0.0
 10
-24.77479714520376
 20
229.0004300426323
 30
0.0
 10
-23.6697565783252
 20
229.000564017087
 30
0.0
 11
-30.2999999999982
 21
229.0
 31
0.0
 11
-26.98487828236115
 21
229.0002020653299
 31
0.0
 11
-23.6697565783252
 21
229.000564017087
 31
0.0
  0
SPLINE
  5
380
330
1F
100
AcDbEntity
  8
0
  6
Continuous
 62
     3
100
AcDbSpline
210
0.0
220
0.0
230
1.0
 70
     8
 71
     3
 72
     9
 73
     5
 74
     3
 42
0.0000000001
 43
0.0000000001
 44
0.00000001
 40
0.0
 40
0.0
 40
0.0
 40
0.0
 40
3.315121723795253
 40
6.630243447590521
 40
6.630243447590521
 40
6.630243447590521
 40
6.630243447590521
 10
-30.2999999999982
 20
191.0
 30
0.0
 10
-29.19495942631909
 20
190.999945968759
 30
0.0
 10
-26.98487827896087
 20
190.999837906277
 30
0.0
 10
-24.77479714520376
 20
190.9995699573677
 30
0.0
 10
-23.6697565783252
 20
190.999435982913
 30
0.0
 11
-30.2999999999982
 21
191.0
 31
0.0
 11
-26.98487828236115
 21
190.9997979346701
 31
0.0
 11
-23.6697565783252
 21
190.999435982913
 31
0.0
  0
SPLINE
  5
381
330
1F
100
AcDbEntity
  8
0
  6
Continuous
 62
     3
100
AcDbSpline
210
0.0
220
0.0
230
1.0
 70
     8
 71
     3
 72
    11
 73
     7
 74
     5
 42
0.0000000001
 43
0.0000000001
 44
0.00000001
 40
0.0
 40
0.0
 40
0.0
 40
0.0
 40
4.201872109339978
 40
8.403744218512703
 40
12.60656795962933
 40
16.80939170091315
 40
16.80939170091315
 40
16.80939170091315
 40
16.80939170091315
 10
39.8000000000018
 20
190.693376137082
 30
0.0
 10
39.47863848882317
 20
192.0586294770661
 30
0.0
 10
38.8359154664787
 20
194.7891361569798
 30
0.0
 10
38.5500395467393
 20
198.9993595340891
 30
0.0
 10
38.83572314797819
 20
203.2099273337195
 30
0.0
 10
39.47857438265634
 20
205.9410583531671
 30
0.0
 10
39.8000000000018
 20
207.306623862918
 30
0.0
 11
39.8000000000018
 21
190.693376137082
 31
0.0
 11
38.94895383208537
 21
194.8081604137269
 31
0.0
 11
38.64529947754043
 21
198.9990461500372
 31
0.0
 11
38.9488184291378
 21
203.1908958187294
 31
0.0
 11
39.8000000000018
 21
207.306623862918
 31
0.0
  0
SPLINE
  5
382
330
1F
100
AcDbEntity
  8
0
  6
Continuous
 62
     3
100
AcDbSpline
210
0.0
220
0.0
230
1.0
 70
     8
 71
     3
 72
     9
 73
     5
 74
     3
 42
0.0000000001
 43
0.0000000001
 44
0.00000001
 40
0.0
 40
0.0
 40
0.0
 40
0.0
 40
3.315129420505994
 40
6.630258841011985
 40
6.630258841011985
 40
6.630258841011985
 40
6.630258841011985
 10
23.6697411849073
 20
190.999435981427
 30
0.0
 10
24.77478431735609
 20
190.9995699561029
 30
0.0
 10
26.98487058225367
 20
190.9998379054546
 30
0.0
 10
29.19495686075236
 20
190.9999459684849
 30
0.0
 10
30.3000000000017
 20
191.0
 30
0.0
 11
23.6697411849073
 21
190.999435981427
 31
0.0
 11
26.98487058565395
 21
190.9997979338742
 31
0.0
 11
30.3000000000017
 21
191.0
 31
0.0
  0
SPLINE
  5
383
330
1F
100
AcDbEntity
  8
0
  6
Continuous
 62
     3
100
AcDbSpline
210
0.0
220
0.0
230
1.0
 70
     8
 71
     3
 72
    11
 73
     7
 74
     5
 42
0.0000000001
 43
0.0000000001
 44
0.00000001
 40
0.0
 40
0.0
 40
0.0
 40
0.0
 40
4.201872109351481
 40
8.403744218535584
 40
12.60656795965173
 40
16.80939170093536
 40
16.80939170093536
 40
16.80939170093536
 40
16.80939170093536
 10
53.5566243270524
 20
207.306623862945
 30
0.0
 10
53.87798583822284
 20
205.9413705229553
 30
0.0
 10
54.5207088605509
 20
203.2108638430301
 30
0.0
 10
54.80658478029034
 20
199.0006404659145
 30
0.0
 10
54.52090117905139
 20
194.7900726662801
 30
0.0
 10
53.8780499443732
 20
192.0589416468328
 30
0.0
 10
53.5566243270277
 20
190.693376137082
 30
0.0
 11
53.5566243270524
 21
207.306623862945
 31
0.0
 11
54.40767049494839
 21
203.1918395862841
 31
0.0
 11
54.71132484948917
 21
199.0009538499621
 31
0.0
 11
54.40780589789176
 21
194.8091041812704
 31
0.0
 11
53.5566243270277
 21
190.693376137082
 31
0.0
  0
SPLINE
  5
384
330
1F
100
AcDbEntity
  8
0
  6
Continuous
 62
     3
100
AcDbSpline
210
0.0
220
0.0
230
1.0
 70
     8
 71
     3
 72
    11
 73
     7
 74
     5
 42
0.0000000001
 43
0.0000000001
 44
0.00000001
 40
0.0
 40
0.0
 40
0.0
 40
0.0
 40
4.201872109351245
 40
8.40374421853513
 40
12.60656795965153
 40
16.80939170093538
 40
16.80939170093538
 40
16.80939170093538
 40
16.80939170093538
 10
-39.7999999999737
 20
207.306623862945
 30
0.0
 10
-39.47863848880324
 20
205.9413705229554
 30
0.0
 10
-38.83591546647513
 20
203.2108638430304
 30
0.0
 10
-38.55003954673555
 20
199.0006404659147
 30
0.0
 10
-38.83572314797457
 20
194.7900726662804
 30
0.0
 10
-39.47857438265272
 20
192.0589416468329
 30
0.0
 10
-39.7999999999982
 20
190.693376137082
 30
0.0
 11
-39.7999999999737
 21
207.306623862945
 31
0.0
 11
-38.94895383207763
 21
203.1918395862844
 31
0.0
 11
-38.64529947753675
 21
199.0009538499626
 31
0.0
 11
-38.94881842913419
 21
194.8091041812706
 31
0.0
 11
-39.7999999999982
 21
190.693376137082
 31
0.0
  0
SPLINE
  5
385
330
1F
100
AcDbEntity
  8
0
  6
Continuous
 62
     3
100
AcDbSpline
210
0.0
220
0.0
230
1.0
 70
     8
 71
     3
 72
    11
 73
     7
 74
     5
 42
0.0000000001
 43
0.0000000001
 44
0.00000001
 40
0.0
 40
0.0
 40
0.0
 40
0.0
 40
4.201872109339906
 40
8.403744218512497
 40
12.60656795962927
 40
16.80939170091314
 40
16.80939170091314
 40
16.80939170091314
 40
16.80939170091314
 10
-53.5566243270241
 20
190.693376137082
 30
0.0
 10
-53.87798583820269
 20
192.058629477066
 30
0.0
 10
-54.52070886054705
 20
194.7891361569798
 30
0.0
 10
-54.80658478028669
 20
198.9993595340889
 30
0.0
 10
-54.52090117904769
 20
203.2099273337195
 30
0.0
 10
-53.87804994436955
 20
205.9410583531671
 30
0.0
 10
-53.5566243270241
 20
207.306623862918
 30
0.0
 11
-53.5566243270241
 21
190.693376137082
 31
0.0
 11
-54.40767049494045
 21
194.8081604137268
 31
0.0
 11
-54.71132484948549
 21
198.999046150037
 31
0.0
 11
-54.4078058978881
 21
203.1908958187294
 31
0.0
 11
-53.5566243270241
 21
207.306623862918
 31
0.0
  0
SPLINE
  5
386
330
1F
100
AcDbEntity
  8
0
  6
Continuous
 62
     3
100
AcDbSpline
210
0.0
220
0.0
230
1.0
 70
     8
 71
     3
 72
    75
 73
    71
 74
    69
 42
0.0000000001
 43
0.0000000001
 44
0.00000001
 40
0.0
 40
0.0
 40
0.0
 40
0.0
 40
0.2291638758182593
 40
0.4583277516366451
 40
0.534707563620335
 40
0.6110865315815478
 40
0.6874676661397888
 40
0.7638490280058976
 40
0.8402459831629282
 40
0.9166428783622422
 40
0.9930392708679278
 40
1.06943567173303
 40
1.145810605418379
 40
1.222185539633747
 40
1.298560503072621
 40
1.374935477416787
 40
1.451310563082828
 40
1.527685600819904
 40
1.60406110953293
 40
1.680436802381136
 40
1.764753687246575
 40
1.849070833111248
 40
1.933389496056834
 40
2.017708057254548
 40
2.102023347130122
 40
2.186338787846124
 40
2.27065213202046
 40
2.354964969458248
 40
2.422954611047528
 40
2.490943937600218
 40
2.558932035270757
 40
2.626920227004712
 40
2.694905320994164
 40
2.762890351635114
 40
2.830876254798989
 40
2.898862319097361
 40
2.975040341370591
 40
3.051218569839188
 40
3.127397486040869
 40
3.203576347276653
 40
3.27975892852043
 40
3.355941525765665
 40
3.432123896078795
 40
3.508306255458932
 40
3.584495622497605
 40
3.66068499555952
 40
3.736874312293661
 40
3.813063639583957
 40
3.889255498791202
 40
3.965447308005763
 40
4.041639626035036
 40
4.117832135401017
 40
4.202306423296264
 40
4.286780982114197
 40
4.371257119511567
 40
4.455733151924083
 40
4.540209904531878
 40
4.624686808936886
 40
4.70916146181098
 40
4.79363561071411
 40
4.861745018269031
 40
4.929854097568537
 40
4.997962331236336
 40
5.066070707386148
 40
5.134162875487244
 40
5.202254801777886
 40
5.270345922451621
 40
5.338437866932681
 40
5.567478416165152
 40
5.796518965397477
 40
5.796518965397477
 40
5.796518965397477
 40
5.796518965397477
 10
-16.0008252664868
 20
-29.2545169015147
 30
0.0
 10
-16.07045034511816
 20
-29.22306210854384
 30
0.0
 10
-16.2097005023809
 20
-29.16015252260208
 30
0.0
 10
-16.36765286644097
 20
-29.07734460624726
 30
0.0
 10
-16.478745137411
 20
-29.01517214413408
 30
0.0
 10
-16.54480551617242
 20
-28.97682440352138
 30
0.0
 10
-16.61027596273985
 20
-28.93747972063734
 30
0.0
 10
-16.67514200725638
 20
-28.89713422283326
 30
0.0
 10
-16.73938902921009
 20
-28.85580061128813
 30
0.0
 10
-16.80300111851346
 20
-28.81348724621103
 30
0.0
 10
-16.86595871082074
 20
-28.77020640569992
 30
0.0
 10
-16.928240672421
 20
-28.72597146589638
 30
0.0
 10
-16.98983201831976
 20
-28.68079198263688
 30
0.0
 10
-17.0507189822095
 20
-28.63467945822828
 30
0.0
 10
-17.11089337148731
 20
-28.58764083556905
 30
0.0
 10
-17.17034124157027
 20
-28.53968723778373
 30
0.0
 10
-17.22904860213283
 20
-28.49082982635247
 30
0.0
 10
-17.28700180905609
 20
-28.44107992004115
 30
0.0
 10
-17.34418712788266
 20
-28.39044889375658
 30
0.0
 10
-17.40254560125924
 20
-28.33716330337231
 30
0.0
 10
-17.46196429395436
 20
-28.2811272504198
 30
0.0
 10
-17.52232321043447
 20
-28.2222466482205
 30
0.0
 10
-17.58168021250192
 20
-28.16235534915864
 30
0.0
 10
-17.64001816800308
 20
-28.10147186718538
 30
0.0
 10
-17.69732056255136
 20
-28.03961421237087
 30
0.0
 10
-17.75357043973477
 20
-27.97680024381629
 30
0.0
 10
-17.80875184706334
 20
-27.91304673084099
 30
0.0
 10
-17.85935721096391
 20
-27.85254471777701
 30
0.0
 10
-17.90560470564593
 20
-27.79550488960732
 30
0.0
 10
-17.94770143231013
 20
-27.7421132979477
 30
0.0
 10
-17.98906668418344
 20
-27.68815366269408
 30
0.0
 10
-18.02969248381516
 20
-27.63363687761291
 30
0.0
 10
-18.06957163198056
 20
-27.57857282647216
 30
0.0
 10
-18.10869702645491
 20
-27.52297160852429
 30
0.0
 10
-18.1470620118469
 20
-27.46684259653597
 30
0.0
 10
-18.18616934339237
 20
-27.40792090585599
 30
0.0
 10
-18.2258990435693
 20
-27.34614304495464
 30
0.0
 10
-18.26612401798234
 20
-27.28144725282397
 30
0.0
 10
-18.30535856457139
 20
-27.21614572444697
 30
0.0
 10
-18.34359458646203
 20
-27.15025288860314
 30
0.0
 10
-18.38082327303831
 20
-27.08378431488531
 30
0.0
 10
-18.41703571545834
 20
-27.0167553368979
 30
0.0
 10
-18.45222247678514
 20
-26.9491823699987
 30
0.0
 10
-18.4863757774197
 20
-26.88107869290565
 30
0.0
 10
-18.51948669134097
 20
-26.81245958493915
 30
0.0
 10
-18.55154825116795
 20
-26.74334139989427
 30
0.0
 10
-18.5825526138817
 20
-26.67374259060986
 30
0.0
 10
-18.61249327138481
 20
-26.60367870676426
 30
0.0
 10
-18.64136335159337
 20
-26.53316604081468
 30
0.0
 10
-18.66915620482481
 20
-26.46222080780693
 30
0.0
 10
-18.69586485848817
 20
-26.39086008410899
 30
0.0
 10
-18.72241080126433
 20
-26.31650035703781
 30
0.0
 10
-18.74864396996263
 20
-26.23910777924879
 30
0.0
 10
-18.77440821248866
 20
-26.1586534235219
 30
0.0
 10
-18.79881110587632
 20
-26.07777512079659
 30
0.0
 10
-18.82184649984227
 20
-25.99649601136853
 30
0.0
 10
-18.84350811139436
 20
-25.91483977829196
 30
0.0
 10
-18.86378941871588
 20
-25.83283027152954
 30
0.0
 10
-18.88268402856241
 20
-25.75049115460669
 30
0.0
 10
-18.89905544867945
 20
-25.67318230703804
 30
0.0
 10
-18.91319597057706
 20
-25.60098771457363
 30
0.0
 10
-18.92537658537729
 20
-25.53397469062903
 30
0.0
 10
-18.93664428991797
 20
-25.46680251476666
 30
0.0
 10
-18.94699658144557
 20
-25.39948890817549
 30
0.0
 10
-18.95643287484873
 20
-25.33204619135245
 30
0.0
 10
-18.96494923366351
 20
-25.26448727879801
 30
0.0
 10
-18.97255411186635
 20
-25.1968186249097
 30
0.0
 10
-18.98445567695001
 20
-25.07566221175732
 30
0.0
 10
-18.99699436612661
 20
-24.90061459825129
 30
0.0
 10
-18.99899812204221
 20
-24.74790895006015
 30
0.0
 10
-19.0
 20
-24.6715561259646
 30
0.0
 11
-16.0008252664868
 21
-29.2545169015147
 31
0.0
 11
-16.20873541390129
 21
-29.15813509523296
 31
0.0
 11
-16.41200777552369
 21
-29.05232191561644
 31
0.0
 11
-16.47864688175599
 21
-29.01499759111855
 31
0.0
 11
-16.54470649839916
 21
-28.97665865795945
 31
0.0
 11
-16.61017431483141
 21
-28.93731348382086
 31
0.0
 11
-16.67503370416241
 21
-28.89697278407318
 31
0.0
 11
-16.73928252129702
 21
-28.855637759529
 31
0.0
 11
-16.80289220001167
 21
-28.81332588920973
 31
0.0
 11
-16.8658470984251
 21
-28.77004668457705
 31
0.0
 11
-16.92813233858289
 21
-28.72580915612408
 31
0.0
 11
-16.98971558153883
 21
-28.68063577145488
 31
0.0
 11
-17.05060021026632
 21
-28.63452511584126
 31
0.0
 11
-17.11077227554064
 21
-28.58748834723508
 31
0.0
 11
-17.17021779140494
 21
-28.53953662829092
 31
0.0
 11
-17.22892289948684
 21
-28.4906810861735
 31
0.0
 11
-17.28687368400957
 21
-28.44093319212219
 31
0.0
 11
-17.3440567701514
 21
-28.39030402078323
 31
0.0
 11
-17.40045817052145
 21
-28.33880520046334
 31
0.0
 11
-17.46179988710685
 21
-28.2809559923463
 31
0.0
 11
-17.5221557994695
 21
-28.22207862038018
 31
0.0
 11
-17.58151046543482
 21
-28.16218988563752
 31
0.0
 11
-17.63984644512186
 21
-28.10130858114751
 31
0.0
 11
-17.69714530470786
 21
-28.03945465001176
 31
0.0
 11
-17.75339291303174
 21
-27.97664302607975
 31
0.0
 11
-17.80857122129482
 21
-27.91289277664427
 31
0.0
 11
-17.86266465829305
 21
-27.8482201036631
 31
0.0
 11
-17.90548417137747
 21
-27.79540835627058
 31
0.0
 11
-17.94757982083275
 21
-27.7420182371283
 31
0.0
 11
-17.98894356445991
 21
-27.68806064138863
 31
0.0
 11
-18.02956875409325
 21
-27.63354469709242
 31
0.0
 11
-18.06944609373143
 21
-27.57848317887746
 31
0.0
 11
-18.108570095205
 21
-27.52288392618512
 31
0.0
 11
-18.14693399214712
 21
-27.46675644236104
 31
0.0
 11
-18.18453007338422
 21
-27.41011158721606
 31
0.0
 11
-18.22573534563108
 21
-27.34603962285939
 31
0.0
 11
-18.26595880271683
 21
-27.28134653209473
 31
0.0
 11
-18.30519203124968
 21
-27.21604736630716
 31
0.0
 11
-18.34342598180481
 21
-27.15015818719459
 31
0.0
 11
-18.38065380101043
 21
-27.08369108885144
 31
0.0
 11
-18.41686480982261
 21
-27.01666459435982
 31
0.0
 11
-18.45205006656625
 21
-26.9490942513504
 31
0.0
 11
-18.48620084339237
 21
-26.880995232834
 31
0.0
 11
-18.51931163011076
 21
-26.81237675534694
 31
0.0
 11
-18.55137206033567
 21
-26.74326127675234
 31
0.0
 11
-18.58237527403513
 21
-26.67366520843867
 31
0.0
 11
-18.61231446264293
 21
-26.60360481607283
 31
0.0
 11
-18.64118375738261
 21
-26.53309408475702
 31
0.0
 11
-18.66897543141295
 21
-26.46215175151389
 31
0.0
 11
-18.69568300807388
 21
-26.39079367786014
 31
0.0
 11
-18.72129970491921
 21
-26.31903656444119
 31
0.0
 11
-18.74841804701978
 21
-26.2390334342704
 31
0.0
 11
-18.77418113577462
 21
-26.15858336065144
 31
0.0
 11
-18.7985831645252
 21
-26.07770840295479
 31
0.0
 11
-18.82161746143964
 21
-25.99643343006758
 31
0.0
 11
-18.84327806580556
 21
-25.91478087377164
 31
0.0
 11
-18.86355850973807
 21
-25.83277446565768
 31
0.0
 11
-18.88245192738575
 21
-25.75043974790272
 31
0.0
 11
-18.89995236487652
 21
-25.66779825396329
 31
0.0
 11
-18.91304410884663
 21
-25.60095891197593
 31
0.0
 11
-18.92522449222824
 21
-25.5339478312228
 31
0.0
 11
-18.93649185693634
 21
-25.46677806134168
 31
0.0
 11
-18.94684483152892
 21
-25.39946114802229
 31
0.0
 11
-18.9562796951865
 21
-25.33202579598443
 31
0.0
 11
-18.96479735388441
 21
-25.26446870963314
 31
0.0
 11
-18.97239605739658
 21
-25.19680291015113
 31
0.0
 11
-18.9790741872205
 21
-25.12903923636298
 31
0.0
 11
-18.99476629010354
 21
-24.9005368707301
 31
0.0
 11
-19.0
 21
-24.6715561259646
 31
0.0
  0
LWPOLYLINE
  5
387
330
1F
100
AcDbEntity
  8
3
  6
Continuous
 62
     3
100
AcDbPolyline
 90
        7
 70
     0
 43
0.0
 10
-23.05095597477998
 20
127.5447385184645
 10
-21.92031021678298
 20
127.5447385184645
 42
0.09122267891982
 10
-19.42896680569184
 20
128.0030867386753
 10
-12.45357556388339
 20
130.6596168621146
 42
-0.2247461153704
 10
-6.48159584874978
 20
130.1912813855486
 10
-3.48063630404209
 20
128.4714222152406
 42
0.13084094293331
 10
-0.00000000000008
 20
127.5447385184621
  0
LWPOLYLINE
  5
388
330
1F
100
AcDbEntity
  8
3
  6
Continuous
 62
     3
100
AcDbPolyline
 90
        4
 70
     0
 43
0.0
 10
-21.15996383496659
 20
132.6764117470805
 42
0.26230105055339
 10
-24.05095597478072
 20
127.5447385184645
 10
-24.05095597477998
 20
119.5000000000005
 42
0.41421356237314
 10
-22.05095597477998
 20
117.5000000000008
  0
LWPOLYLINE
  5
389
330
1F
100
AcDbEntity
  8
3
  6
Continuous
 62
     3
100
AcDbPolyline
 90
        2
 70
     0
 43
0.0
 10
-24.06409814587859
 20
131.1283290684785
 42
0.19873478621276
 10
-29.79081778589526
 20
128.9758447138093
  0
LWPOLYLINE
  5
38A
330
1F
100
AcDbEntity
  8
3
  6
Continuous
 62
     3
100
AcDbPolyline
 90
        4
 70
     0
 43
0.0
 10
22.05095597477941
 20
117.5000000000005
 42
0.4142135623731
 10
24.05095597477941
 20
119.5000000000005
 10
24.05095597477941
 20
127.5447385184645
 42
0.26230105055338
 10
21.15996383496636
 20
132.6764117470788
  0
LWPOLYLINE
  5
38B
330
1F
100
AcDbEntity
  8
3
  6
Continuous
 62
     3
100
AcDbPolyline
 90
        7
 70
     0
 43
0.0
 10
23.05095597477941
 20
127.5447385184645
 10
21.92031021678341
 20
127.5447385184645
 42
-0.09122267891984
 10
19.42896680569152
 20
128.0030867386746
 10
12.45357556388342
 20
130.6596168621146
 42
0.2247461153704
 10
6.48159584874986
 20
130.1912813855485
 10
3.48063630404221
 20
128.4714222152406
 42
-0.13084094293333
 10
-0.00000000000008
 20
127.5447385184645
  0
LWPOLYLINE
  5
38C
330
1F
100
AcDbEntity
  8
3
  6
Continuous
 62
     3
100
AcDbPolyline
 90
        2
 70
     0
 43
0.0
 10
29.79081778589531
 20
128.9758447138085
 42
0.19873478621275
 10
24.06409814587943
 20
131.1283290684784
  0
LWPOLYLINE
  5
38D
330
1F
100
AcDbEntity
  8
3
  6
Continuous
 62
     3
100
AcDbPolyline
 90
        7
 70
     0
 43
0.0
 10
163.0509432812332
 20
127.5447827484318
 10
161.9202975232373
 20
127.5447827484318
 42
-0.09122267891984
 10
159.4289541121453
 20
128.0031309686419
 10
152.4535628703372
 20
130.6596610920819
 42
0.2247461153704
 10
146.4815831552038
 20
130.1913256155158
 10
143.4806236104961
 20
128.4714664452079
 42
-0.13084094293333
 10
139.9999873064538
 20
127.5447827484318
  0
LWPOLYLINE
  5
38E
330
1F
100
AcDbEntity
  8
3
  6
Continuous
 62
     3
100
AcDbPolyline
 90
        2
 70
     0
 43
0.0
 10
115.9358891605752
 20
131.1283732984459
 42
0.19873478621276
 10
110.2091695205586
 20
128.9758889437767
  0
LWPOLYLINE
  5
38F
330
1F
100
AcDbEntity
  8
3
  6
Continuous
 62
     3
100
AcDbPolyline
 90
        2
 70
     0
 43
0.0
 10
169.7908050923493
 20
128.9758889437758
 42
0.19873478621275
 10
164.0640854523333
 20
131.1283732984457
  0
LWPOLYLINE
  5
390
330
1F
100
AcDbEntity
  8
3
  6
Continuous
 62
     3
100
AcDbPolyline
 90
        7
 70
     0
 43
0.0
 10
116.9490313316739
 20
127.5447827484318
 10
118.0796770896709
 20
127.5447827484318
 42
0.09122267891982
 10
120.571020500762
 20
128.0031309686426
 10
127.5464117425705
 20
130.6596610920819
 42
-0.2247461153704
 10
133.5183914577041
 20
130.1913256155158
 10
136.5193510024118
 20
128.4714664452079
 42
0.13084094293331
 10
139.9999873064538
 20
127.5447827484295
  0
LWPOLYLINE
  5
391
330
1F
100
AcDbEntity
  8
3
  6
Continuous
 62
     3
100
AcDbPolyline
 90
        4
 70
     0
 43
0.0
 10
118.8400234714873
 20
132.6764559770479
 42
0.26230105055339
 10
115.9490313316731
 20
127.5447827484318
 10
115.9490313316739
 20
119.5000442299679
 42
0.41421356237314
 10
117.9490313316739
 20
117.5000442299682
  0
LWPOLYLINE
  5
392
330
1F
100
AcDbEntity
  8
3
  6
Continuous
 62
     3
100
AcDbPolyline
 90
        4
 70
     0
 43
0.0
 10
162.0509432812332
 20
117.5000442299679
 42
0.4142135623731
 10
164.0509432812332
 20
119.5000442299679
 10
164.0509432812332
 20
127.5447827484318
 42
0.26230105055338
 10
161.1599511414202
 20
132.676455977046
  0
LINE
  5
393
330
1F
100
AcDbEntity
  8
1
 62
     4
100
AcDbLine
 10
-28.0
 20
-35.0
 30
0.0
 11
-30.4
 21
-35.64307806183469
 31
0.0
  0
LINE
  5
394
330
1F
100
AcDbEntity
  8
1
 62
     4
100
AcDbLine
 10
-28.0
 20
-35.0
 30
0.0
 11
-30.4
 21
-34.35692193816531
 31
0.0
  0
LEADER
  5
395
330
1F
100
AcDbEntity
  8
1
  6
Continuous
 62
     4
100
AcDbLeader
  3
Standard
 71
     0
 76
     2
 10
-28.0
 20
-35.0
 30
0.0
 10
-56.0
 20
-35.0
 30
0.0
  0
LINE
  5
396
330
1F
100
AcDbEntity
  8
1
 62
     4
100
AcDbLine
 10
0.0
 20
-69.0000002255982
 30
0.0
 11
2.04943544660572
 21
-70.40476488340002
 31
0.0
  0
LINE
  5
397
330
1F
100
AcDbEntity
  8
1
 62
     4
100
AcDbLine
 10
0.0
 20
-69.0000002255982
 30
0.0
 11
1.07248083127595
 21
-71.241279828896
 31
0.0
  0
LEADER
  5
398
330
1F
100
AcDbEntity
  8
1
  6
Continuous
 62
     4
100
AcDbLeader
  3
Standard
 71
     0
 76
     3
 10
0.0
 20
-69.0000002255982
 30
0.0
 10
13.4090019130086
 20
-84.6601941963258
 30
0.0
 10
25.7279602026493
 20
-84.6601941963258
 30
0.0
  0
LINE
  5
399
330
1F
100
AcDbEntity
  8
1
 62
     4
100
AcDbLine
 10
-54.9999999999983
 20
0.0
 30
0.0
 11
-56.31574874578535
 21
-2.10768940585962
 31
0.0
  0
LINE
  5
39A
330
1F
100
AcDbEntity
  8
1
 62
     4
100
AcDbLine
 10
-54.9999999999983
 20
0.0
 30
0.0
 11
-57.19331654177721
 21
-1.16743819586824
 31
0.0
  0
LEADER
  5
39B
330
1F
100
AcDbEntity
  8
1
  6
Continuous
 62
     4
100
AcDbLeader
  3
Standard
 71
     0
 76
     3
 10
-54.9999999999983
 20
0.0
 30
0.0
 10
-70.0
 20
-14.0
 30
0.0
 10
-78.2751432759279
 20
-14.0
 30
0.0
  0
LINE
  5
39C
330
1F
100
AcDbEntity
  8
1
 62
     4
100
AcDbLine
 10
54.9999999999983
 20
0.0
 30
0.0
 11
57.19331654177721
 21
-1.16743819586824
 31
0.0
  0
LINE
  5
39D
330
1F
100
AcDbEntity
  8
1
 62
     4
100
AcDbLine
 10
54.9999999999983
 20
0.0
 30
0.0
 11
56.31574874578535
 21
-2.10768940585962
 31
0.0
  0
LEADER
  5
39E
330
1F
100
AcDbEntity
  8
1
  6
Continuous
 62
     4
100
AcDbLeader
  3
Standard
 71
     0
 76
     3
 10
54.9999999999983
 20
0.0
 30
0.0
 10
70.0
 20
-14.0
 30
0.0
 10
78.2751432759279
 20
-14.0
 30
0.0
  0
ENDSEC
  0
SECTION
  2
OBJECTS
  0
DICTIONARY
  5
C
330
0
100
AcDbDictionary
281
     1
  3
ACAD_GROUP
350
D
  3
ACAD_LAYOUT
350
1A
  3
ACAD_MATERIAL
350
3B
  3
ACAD_MLEADERSTYLE
350
3A1
  3
ACAD_MLINESTYLE
350
17
  3
ACAD_PLOTSETTINGS
350
19
  3
ACAD_PLOTSTYLENAME
350
E
  3
ACAD_VISUALSTYLE
350
2A
  3
AcDbVariableDictionary
350
39F
  0
DICTIONARY
  5
D
102
{ACAD_REACTORS
330
C
102
}
330
C
100
AcDbDictionary
281
     1
  0
DICTIONARY
  5
1A
102
{ACAD_REACTORS
330
C
102
}
330
C
100
AcDbDictionary
281
     1
  3
Layout1
350
1E
  3
Layout2
350
26
  3
Model
350
22
  0
DICTIONARY
  5
3B
102
{ACAD_REACTORS
330
C
102
}
330
C
100
AcDbDictionary
281
     1
  3
ByBlock
350
3D
  3
ByLayer
350
3C
  3
Global
350
3E
  0
DICTIONARY
  5
3A1
102
{ACAD_REACTORS
330
C
102
}
330
C
100
AcDbDictionary
281
     1
  0
DICTIONARY
  5
17
102
{ACAD_REACTORS
330
C
102
}
330
C
100
AcDbDictionary
281
     1
  3
Standard
350
18
  0
DICTIONARY
  5
19
102
{ACAD_REACTORS
330
C
102
}
330
C
100
AcDbDictionary
281
     1
  0
ACDBDICTIONARYWDFLT
  5
E
102
{ACAD_REACTORS
330
C
102
}
330
C
100
AcDbDictionary
281
     1
  3
Normal
350
F
100
AcDbDictionaryWithDefault
340
F
  0
DICTIONARY
  5
2A
102
{ACAD_REACTORS
330
C
102
}
330
C
100
AcDbDictionary
281
     1
  3
2dWireframe
350
2F
  3
3D Hidden
350
31
  3
3dWireframe
350
30
  3
Basic
350
32
  3
Brighten
350
36
  3
ColorChange
350
3A
  3
Conceptual
350
34
  3
Dim
350
35
  3
Facepattern
350
39
  3
Flat
350
2B
  3
FlatWithEdges
350
2C
  3
Gouraud
350
2D
  3
GouraudWithEdges
350
2E
  3
Linepattern
350
38
  3
Realistic
350
33
  3
Thicken
350
37
  0
DICTIONARY
  5
39F
102
{ACAD_REACTORS
330
C
102
}
330
C
100
AcDbDictionary
281
     1
  3
DIMASSOC
350
3A2
  3
HIDETEXT
350
3A3
  0
LAYOUT
  5
1E
102
{ACAD_REACTORS
330
1A
102
}
330
1A
100
AcDbPlotSettings
  1

  2
none_device
  4

  6

 40
0.0
 41
0.0
 42
0.0
 43
0.0
 44
0.0
 45
0.0
 46
0.0
 47
0.0
 48
0.0
 49
0.0
140
0.0
141
0.0
142
1.0
143
1.0
 70
   688
 72
     0
 73
     0
 74
     5
  7

 75
    16
147
1.0
148
0.0
149
0.0
100
AcDbLayout
  1
Layout1
 70
     1
 71
     1
 10
0.0
 20
0.0
 11
12.0
 21
9.0
 12
0.0
 22
0.0
 32
0.0
 14
1.00000000000000E+20
 24
1.00000000000000E+20
 34
1.00000000000000E+20
 15
-1.00000000000000E+20
 25
-1.00000000000000E+20
 35
-1.00000000000000E+20
146
0.0
 13
0.0
 23
0.0
 33
0.0
 16
1.0
 26
0.0
 36
0.0
 17
0.0
 27
1.0
 37
0.0
 76
     0
330
1B
  0
LAYOUT
  5
26
102
{ACAD_REACTORS
330
1A
102
}
330
1A
100
AcDbPlotSettings
  1

  2
none_device
  4

  6

 40
0.0
 41
0.0
 42
0.0
 43
0.0
 44
0.0
 45
0.0
 46
0.0
 47
0.0
 48
0.0
 49
0.0
140
0.0
141
0.0
142
1.0
143
1.0
 70
   688
 72
     0
 73
     0
 74
     5
  7

 75
    16
147
1.0
148
0.0
149
0.0
100
AcDbLayout
  1
Layout2
 70
     1
 71
     2
 10
0.0
 20
0.0
 11
0.0
 21
0.0
 12
0.0
 22
0.0
 32
0.0
 14
0.0
 24
0.0
 34
0.0
 15
0.0
 25
0.0
 35
0.0
146
0.0
 13
0.0
 23
0.0
 33
0.0
 16
1.0
 26
0.0
 36
0.0
 17
0.0
 27
1.0
 37
0.0
 76
     0
330
23
  0
LAYOUT
  5
22
102
{ACAD_REACTORS
330
1A
102
}
330
1A
100
AcDbPlotSettings
  1

  2
none_device
  4

  6

 40
0.0
 41
0.0
 42
0.0
 43
0.0
 44
0.0
 45
0.0
 46
0.0
 47
0.0
 48
0.0
 49
0.0
140
0.0
141
0.0
142
1.0
143
1.0
 70
  1712
 72
     0
 73
     0
 74
     0
  7

 75
     0
147
1.0
148
0.0
149
0.0
100
AcDbLayout
  1
Model
 70
     1
 71
     0
 10
0.0
 20
0.0
 11
12.0
 21
9.0
 12
0.0
 22
0.0
 32
0.0
 14
-78.2751432759279
 24
-98.0
 34
0.0
 15
170.9999873064533
 25
244.0
 35
0.0
146
0.0
 13
0.0
 23
0.0
 33
0.0
 16
1.0
 26
0.0
 36
0.0
 17
0.0
 27
1.0
 37
0.0
 76
     0
330
1F
331
29
  0
MATERIAL
  5
3D
102
{ACAD_REACTORS
330
3B
102
}
102
{ACAD_XDICTIONARY
360
3C6
102
}
330
3B
100
AcDbMaterial
  1
ByBlock
  0
MATERIAL
  5
3C
102
{ACAD_REACTORS
330
3B
102
}
102
{ACAD_XDICTIONARY
360
3C4
102
}
330
3B
100
AcDbMaterial
  1
ByLayer
  0
MATERIAL
  5
3E
102
{ACAD_REACTORS
330
3B
102
}
102
{ACAD_XDICTIONARY
360
3C8
102
}
330
3B
100
AcDbMaterial
  1
Global
  0
MLINESTYLE
  5
18
102
{ACAD_REACTORS
330
17
102
}
330
17
100
AcDbMlineStyle
  2
Standard
 70
     0
  3

 62
   256
 51
90.0
 52
90.0
 71
     2
 49
0.5
 62
   256
  6
BYLAYER
 49
-0.5
 62
   256
  6
BYLAYER
  0
ACDBPLACEHOLDER
  5
F
102
{ACAD_REACTORS
330
E
102
}
330
E
  0
VISUALSTYLE
  5
2F
102
{ACAD_REACTORS
330
2A
102
}
102
{ACAD_XDICTIONARY
360
3AC
102
}
330
2A
100
AcDbVisualStyle
  2
2dWireframe
 70
     4
 71
     0
 72
     2
 73
     0
 90
        0
 40
-0.6
 41
-30.0
 62
     5
 63
     7
 74
     1
 91
        4
 64
     7
 65
   257
 75
     1
175
     1
 42
1.0
 92
        0
 66
   257
 43
1.0
 76
     1
 77
     6
 78
     2
 67
     7
 79
     5
170
     0
171
     0
290
     0
174
     0
 93
        1
 44
0.0
173
     0
291
     0
 45
0.0
1001
ACAD
1000
AcDbSavedByObjectVersion
1070
     0
  0
VISUALSTYLE
  5
31
102
{ACAD_REACTORS
330
2A
102
}
102
{ACAD_XDICTIONARY
360
3B0
102
}
330
2A
100
AcDbVisualStyle
  2
3D Hidden
 70
     6
 71
     1
 72
     2
 73
     2
 90
        0
 40
-0.6
 41
-30.0
 62
     5
 63
     7
 74
     2
 91
        2
 64
     7
 65
   257
 75
     2
175
     1
 42
40.0
 92
        0
 66
   257
 43
1.0
 76
     1
 77
     6
 78
     2
 67
     7
 79
     3
170
     0
171
     0
290
     0
174
     0
 93
        1
 44
0.0
173
     0
291
     0
 45
0.0
1001
ACAD
1000
AcDbSavedByObjectVersion
1070
     0
  0
VISUALSTYLE
  5
30
102
{ACAD_REACTORS
330
2A
102
}
102
{ACAD_XDICTIONARY
360
3AE
102
}
330
2A
100
AcDbVisualStyle
  2
3dWireframe
 70
     5
 71
     0
 72
     2
 73
     0
 90
        0
 40
-0.6
 41
-30.0
 62
     5
 63
     7
 74
     1
 91
        4
 64
     7
 65
   257
 75
     1
175
     1
 42
1.0
 92
        0
 66
   257
 43
1.0
 76
     1
 77
     6
 78
     2
 67
     7
 79
     5
170
     0
171
     0
290
     0
174
     0
 93
        1
 44
0.0
173
     0
291
     0
 45
0.0
1001
ACAD
1000
AcDbSavedByObjectVersion
1070
     0
  0
VISUALSTYLE
  5
32
102
{ACAD_REACTORS
330
2A
102
}
102
{ACAD_XDICTIONARY
360
3B2
102
}
330
2A
100
AcDbVisualStyle
  2
Basic
 70
     7
 71
     1
 72
     0
 73
     1
 90
        0
 40
-0.6
 41
-30.0
 62
     5
 63
     7
 74
     0
 91
        4
 64
     7
 65
   257
 75
     1
175
     1
 42
1.0
 92
        8
 66
     7
 43
1.0
 76
     1
 77
     6
 78
     2
 67
     7
 79
     5
170
     0
171
     0
290
     0
174
     0
 93
        1
 44
0.0
173
     0
291
     1
 45
0.0
1001
ACAD
1000
AcDbSavedByObjectVersion
1070
     0
  0
VISUALSTYLE
  5
36
102
{ACAD_REACTORS
330
2A
102
}
102
{ACAD_XDICTIONARY
360
3BA
102
}
330
2A
100
AcDbVisualStyle
  2
Brighten
 70
    12
 71
     2
 72
     2
 73
     0
 90
        0
 40
-0.6
 41
-30.0
 62
     5
 63
     7
 74
     1
 91
        4
 64
     7
 65
   257
 75
     1
175
     1
 42
1.0
 92
        8
 66
     7
 43
1.0
 76
     1
 77
     6
 78
     2
 67
     7
 79
     5
170
     0
171
     0
290
     0
174
     0
 93
        1
 44
50.0
173
     0
291
     1
 45
0.0
1001
ACAD
1000
AcDbSavedByObjectVersion
1070
     0
  0
VISUALSTYLE
  5
3A
102
{ACAD_REACTORS
330
2A
102
}
102
{ACAD_XDICTIONARY
360
3C2
102
}
330
2A
100
AcDbVisualStyle
  2
ColorChange
 70
    16
 71
     2
 72
     2
 73
     3
 90
        0
 40
-0.6
 41
-30.0
 62
     5
 63
     8
 74
     1
 91
        4
 64
     7
 65
   257
 75
     1
175
     1
 42
1.0
 92
        8
 66
     8
 43
1.0
 76
     1
 77
     6
 78
     2
 67
     7
 79
     5
170
     0
171
     0
290
     0
174
     0
 93
        1
 44
0.0
173
     0
291
     1
 45
0.0
1001
ACAD
1000
AcDbSavedByObjectVersion
1070
     0
  0
VISUALSTYLE
  5
34
102
{ACAD_REACTORS
330
2A
102
}
102
{ACAD_XDICTIONARY
360
3B6
102
}
330
2A
100
AcDbVisualStyle
  2
Conceptual
 70
     9
 71
     3
 72
     2
 73
     0
 90
        0
 40
-0.6
 41
-30.0
 62
     5
 63
     7
 74
     2
 91
        2
 64
     7
 65
   257
 75
     1
175
     1
 42
40.0
 92
        8
 66
     7
 43
1.0
 76
     1
 77
     6
 78
     2
 67
     7
 79
     3
170
     0
171
     0
290
     0
174
     0
 93
        1
 44
0.0
173
     0
291
     0
 45
0.0
1001
ACAD
1000
AcDbSavedByObjectVersion
1070
     0
  0
VISUALSTYLE
  5
35
102
{ACAD_REACTORS
330
2A
102
}
102
{ACAD_XDICTIONARY
360
3B8
102
}
330
2A
100
AcDbVisualStyle
  2
Dim
 70
    11
 71
     2
 72
     2
 73
     0
 90
        0
 40
-0.6
 41
-30.0
 62
     5
 63
     7
 74
     1
 91
        4
 64
     7
 65
   257
 75
     1
175
     1
 42
1.0
 92
        8
 66
     7
 43
1.0
 76
     1
 77
     6
 78
     2
 67
     7
 79
     5
170
     0
171
     0
290
     0
174
     0
 93
        1
 44
-50.0
173
     0
291
     1
 45
0.0
1001
ACAD
1000
AcDbSavedByObjectVersion
1070
     0
  0
VISUALSTYLE
  5
39
102
{ACAD_REACTORS
330
2A
102
}
102
{ACAD_XDICTIONARY
360
3C0
102
}
330
2A
100
AcDbVisualStyle
  2
Facepattern
 70
    15
 71
     2
 72
     2
 73
     0
 90
        0
 40
-0.6
 41
-30.0
 62
     5
 63
     7
 74
     1
 91
        4
 64
     7
 65
   257
 75
     1
175
     1
 42
1.0
 92
        8
 66
     7
 43
1.0
 76
     1
 77
     6
 78
     2
 67
     7
 79
     5
170
     0
171
     0
290
     0
174
     0
 93
        1
 44
0.0
173
     0
291
     1
 45
0.0
1001
ACAD
1000
AcDbSavedByObjectVersion
1070
     0
  0
VISUALSTYLE
  5
2B
102
{ACAD_REACTORS
330
2A
102
}
102
{ACAD_XDICTIONARY
360
3A4
102
}
330
2A
100
AcDbVisualStyle
  2
Flat
 70
     0
 71
     2
 72
     1
 73
     1
 90
        2
 40
-0.6
 41
30.0
 62
     5
 63
     7
 74
     0
 91
        4
 64
     7
 65
   257
 75
     1
175
     1
 42
1.0
 92
        8
 66
     7
 43
1.0
 76
     1
 77
     6
 78
     2
 67
     7
 79
     5
170
     0
171
     0
290
     0
174
     0
 93
       13
 44
0.0
173
     0
291
     1
 45
0.0
1001
ACAD
1000
AcDbSavedByObjectVersion
1070
     0
  0
VISUALSTYLE
  5
2C
102
{ACAD_REACTORS
330
2A
102
}
102
{ACAD_XDICTIONARY
360
3A6
102
}
330
2A
100
AcDbVisualStyle
  2
FlatWithEdges
 70
     1
 71
     2
 72
     1
 73
     1
 90
        2
 40
-0.6
 41
30.0
 62
     5
 63
     7
 74
     1
 91
        4
 64
     7
 65
   257
 75
     1
175
     1
 42
1.0
 92
        0
 66
   257
 43
1.0
 76
     1
 77
     6
 78
     2
 67
     7
 79
     5
170
     0
171
     0
290
     0
174
     0
 93
       13
 44
0.0
173
     0
291
     1
 45
0.0
1001
ACAD
1000
AcDbSavedByObjectVersion
1070
     0
  0
VISUALSTYLE
  5
2D
102
{ACAD_REACTORS
330
2A
102
}
102
{ACAD_XDICTIONARY
360
3A8
102
}
330
2A
100
AcDbVisualStyle
  2
Gouraud
 70
     2
 71
     2
 72
     2
 73
     1
 90
        2
 40
-0.6
 41
30.0
 62
     5
 63
     7
 74
     0
 91
        4
 64
     7
 65
   257
 75
     1
175
     1
 42
1.0
 92
        0
 66
     7
 43
1.0
 76
     1
 77
     6
 78
     2
 67
     7
 79
     5
170
     0
171
     0
290
     0
174
     0
 93
       13
 44
0.0
173
     0
291
     1
 45
0.0
1001
ACAD
1000
AcDbSavedByObjectVersion
1070
     0
  0
VISUALSTYLE
  5
2E
102
{ACAD_REACTORS
330
2A
102
}
102
{ACAD_XDICTIONARY
360
3AA
102
}
330
2A
100
AcDbVisualStyle
  2
GouraudWithEdges
 70
     3
 71
     2
 72
     2
 73
     1
 90
        2
 40
-0.6
 41
30.0
 62
     5
 63
     7
 74
     1
 91
        4
 64
     7
 65
   257
 75
     1
175
     1
 42
1.0
 92
        0
 66
   257
 43
1.0
 76
     1
 77
     6
 78
     2
 67
     7
 79
     5
170
     0
171
     0
290
     0
174
     0
 93
       13
 44
0.0
173
     0
291
     1
 45
0.0
1001
ACAD
1000
AcDbSavedByObjectVersion
1070
     0
  0
VISUALSTYLE
  5
38
102
{ACAD_REACTORS
330
2A
102
}
102
{ACAD_XDICTIONARY
360
3BE
102
}
330
2A
100
AcDbVisualStyle
  2
Linepattern
 70
    14
 71
     2
 72
     2
 73
     0
 90
        0
 40
-0.6
 41
-30.0
 62
     5
 63
     7
 74
     1
 91
        4
 64
     7
 65
   257
 75
     7
175
     7
 42
1.0
 92
        8
 66
     7
 43
1.0
 76
     1
 77
     6
 78
     2
 67
     7
 79
     5
170
     0
171
     0
290
     0
174
     0
 93
        1
 44
0.0
173
     0
291
     1
 45
0.0
1001
ACAD
1000
AcDbSavedByObjectVersion
1070
     0
  0
VISUALSTYLE
  5
33
102
{ACAD_REACTORS
330
2A
102
}
102
{ACAD_XDICTIONARY
360
3B4
102
}
330
2A
100
AcDbVisualStyle
  2
Realistic
 70
     8
 71
     2
 72
     2
 73
     0
 90
        0
 40
-0.6
 41
-30.0
 62
     5
 63
     7
 74
     1
 91
        0
 64
     7
 65
   257
 75
     1
175
     1
 42
1.0
 92
        8
 66
     8
 43
1.0
 76
     1
 77
     6
 78
     2
 67
     7
 79
     5
170
     0
171
     0
290
     0
174
     0
 93
       13
 44
0.0
173
     0
291
     0
 45
0.0
1001
ACAD
1000
AcDbSavedByObjectVersion
1070
     0
  0
VISUALSTYLE
  5
37
102
{ACAD_REACTORS
330
2A
102
}
102
{ACAD_XDICTIONARY
360
3BC
102
}
330
2A
100
AcDbVisualStyle
  2
Thicken
 70
    13
 71
     2
 72
     2
 73
     0
 90
        0
 40
-0.6
 41
-30.0
 62
     5
 63
     7
 74
     1
 91
        4
 64
     7
 65
   257
 75
     1
175
     1
 42
1.0
 92
       12
 66
     7
 43
1.0
 76
     1
 77
     6
 78
     2
 67
     7
 79
     5
170
     0
171
     0
290
     0
174
     0
 93
        1
 44
0.0
173
     0
291
     1
 45
0.0
1001
ACAD
1000
AcDbSavedByObjectVersion
1070
     0
  0
DICTIONARYVAR
  5
3A2
102
{ACAD_REACTORS
330
39F
102
}
330
39F
100
DictionaryVariables
280
     0
  1
2
  0
DICTIONARYVAR
  5
3A3
102
{ACAD_REACTORS
330
39F
102
}
330
39F
100
DictionaryVariables
280
     0
  1
1
  0
DICTIONARY
  5
3C6
330
3D
100
AcDbDictionary
280
     1
281
     1
  3
ACAD_XREC_ROUNDTRIP
360
3C7
  0
DICTIONARY
  5
3C4
330
3C
100
AcDbDictionary
280
     1
281
     1
  3
ACAD_XREC_ROUNDTRIP
360
3C5
  0
DICTIONARY
  5
3C8
330
3E
100
AcDbDictionary
280
     1
281
     1
  3
ACAD_XREC_ROUNDTRIP
360
3C9
  0
DICTIONARY
  5
3AC
330
2F
100
AcDbDictionary
280
     1
281
     1
  3
ACAD_XREC_ROUNDTRIP
360
3AD
  0
DICTIONARY
  5
3B0
330
31
100
AcDbDictionary
280
     1
281
     1
  3
ACAD_XREC_ROUNDTRIP
360
3B1
  0
DICTIONARY
  5
3AE
330
30
100
AcDbDictionary
280
     1
281
     1
  3
ACAD_XREC_ROUNDTRIP
360
3AF
  0
DICTIONARY
  5
3B2
330
32
100
AcDbDictionary
280
     1
281
     1
  3
ACAD_XREC_ROUNDTRIP
360
3B3
  0
DICTIONARY
  5
3BA
330
36
100
AcDbDictionary
280
     1
281
     1
  3
ACAD_XREC_ROUNDTRIP
360
3BB
  0
DICTIONARY
  5
3C2
330
3A
100
AcDbDictionary
280
     1
281
     1
  3
ACAD_XREC_ROUNDTRIP
360
3C3
  0
DICTIONARY
  5
3B6
330
34
100
AcDbDictionary
280
     1
281
     1
  3
ACAD_XREC_ROUNDTRIP
360
3B7
  0
DICTIONARY
  5
3B8
330
35
100
AcDbDictionary
280
     1
281
     1
  3
ACAD_XREC_ROUNDTRIP
360
3B9
  0
DICTIONARY
  5
3C0
330
39
100
AcDbDictionary
280
     1
281
     1
  3
ACAD_XREC_ROUNDTRIP
360
3C1
  0
DICTIONARY
  5
3A4
330
2B
100
AcDbDictionary
280
     1
281
     1
  3
ACAD_XREC_ROUNDTRIP
360
3A5
  0
DICTIONARY
  5
3A6
330
2C
100
AcDbDictionary
280
     1
281
     1
  3
ACAD_XREC_ROUNDTRIP
360
3A7
  0
DICTIONARY
  5
3A8
330
2D
100
AcDbDictionary
280
     1
281
     1
  3
ACAD_XREC_ROUNDTRIP
360
3A9
  0
DICTIONARY
  5
3AA
330
2E
100
AcDbDictionary
280
     1
281
     1
  3
ACAD_XREC_ROUNDTRIP
360
3AB
  0
DICTIONARY
  5
3BE
330
38
100
AcDbDictionary
280
     1
281
     1
  3
ACAD_XREC_ROUNDTRIP
360
3BF
  0
DICTIONARY
  5
3B4
330
33
100
AcDbDictionary
280
     1
281
     1
  3
ACAD_XREC_ROUNDTRIP
360
3B5
  0
DICTIONARY
  5
3BC
330
37
100
AcDbDictionary
280
     1
281
     1
  3
ACAD_XREC_ROUNDTRIP
360
3BD
  0
XRECORD
  5
3C7
102
{ACAD_REACTORS
330
3C6
102
}
330
3C6
100
AcDbXrecord
280
     1
102
MATERIAL
148
0.0
149
0.0
149
0.0
 93
        0
 94
      127
282
     0
 72
     1
 77
     1
171
     1
175
     1
179
     1
273
     0
  0
XRECORD
  5
3C5
102
{ACAD_REACTORS
330
3C4
102
}
330
3C4
100
AcDbXrecord
280
     1
102
MATERIAL
148
0.0
149
0.0
149
0.0
 93
        0
 94
      127
282
     0
 72
     1
 77
     1
171
     1
175
     1
179
     1
273
     0
  0
XRECORD
  5
3C9
102
{ACAD_REACTORS
330
3C8
102
}
330
3C8
100
AcDbXrecord
280
     1
102
MATERIAL
148
0.0
149
0.0
149
0.0
 93
        0
 94
      127
282
     0
 72
     1
 77
     1
171
     1
175
     1
179
     1
273
     0
  0
XRECORD
  5
3AD
102
{ACAD_REACTORS
330
3AC
102
}
330
3AC
100
AcDbXrecord
280
     1
102
RTVSPropertyOp0
 70
     1
102
RTVSPropertyOp1
 70
     1
102
RTVSPropertyOp2
 70
     1
102
RTVSPropertyOp3
 70
     1
102
RTVSPropertyOp4
 70
     1
102
RTVSPropertyOp5
 70
     1
102
RTVSPropertyOp6
 70
     1
102
RTVSPropertyOp7
 70
     1
102
RTVSPropertyOp8
 70
     1
102
RTVSPropertyOp9
 70
     1
102
RTVSPropertyOp10
 70
     1
102
RTVSPropertyOp11
 70
     1
102
RTVSPropertyOp12
 70
     1
102
RTVSPropertyOp13
 70
     1
102
RTVSPropertyOp14
 70
     1
102
RTVSPropertyOp15
 70
     1
102
RTVSPropertyOp16
 70
     1
102
RTVSPropertyOp17
 70
     1
102
RTVSPropertyOp18
 70
     1
102
RTVSPropertyOp19
 70
     1
102
RTVSPropertyOp20
 70
     1
102
RTVSPropertyOp21
 70
     1
102
RTVSPropertyOp22
 70
     1
102
RTVSPropertyOp23
 70
     1
102
RTVSPropertyOp24
 70
     1
102
RTVSPropertyOp25
 70
     1
102
RTVSPropertyOp26
 70
     1
102
RTVSPropertyOp27
 70
     1
  0
XRECORD
  5
3B1
102
{ACAD_REACTORS
330
3B0
102
}
330
3B0
100
AcDbXrecord
280
     1
102
RTVSPropertyOp0
 70
     1
102
RTVSPropertyOp1
 70
     1
102
RTVSPropertyOp2
 70
     1
102
RTVSPropertyOp3
 70
     1
102
RTVSPropertyOp4
 70
     1
102
RTVSPropertyOp5
 70
     1
102
RTVSPropertyOp6
 70
     1
102
RTVSPropertyOp7
 70
     1
102
RTVSPropertyOp8
 70
     1
102
RTVSPropertyOp9
 70
     1
102
RTVSPropertyOp10
 70
     1
102
RTVSPropertyOp11
 70
     1
102
RTVSPropertyOp12
 70
     1
102
RTVSPropertyOp13
 70
     1
102
RTVSPropertyOp14
 70
     1
102
RTVSPropertyOp15
 70
     1
102
RTVSPropertyOp16
 70
     1
102
RTVSPropertyOp17
 70
     1
102
RTVSPropertyOp18
 70
     1
102
RTVSPropertyOp19
 70
     1
102
RTVSPropertyOp20
 70
     1
102
RTVSPropertyOp21
 70
     1
102
RTVSPropertyOp22
 70
     1
102
RTVSPropertyOp23
 70
     1
102
RTVSPropertyOp24
 70
     1
102
RTVSPropertyOp25
 70
     1
102
RTVSPropertyOp26
 70
     1
102
RTVSPropertyOp27
 70
     1
  0
XRECORD
  5
3AF
102
{ACAD_REACTORS
330
3AE
102
}
330
3AE
100
AcDbXrecord
280
     1
102
RTVSPropertyOp0
 70
     1
102
RTVSPropertyOp1
 70
     1
102
RTVSPropertyOp2
 70
     1
102
RTVSPropertyOp3
 70
     1
102
RTVSPropertyOp4
 70
     1
102
RTVSPropertyOp5
 70
     1
102
RTVSPropertyOp6
 70
     1
102
RTVSPropertyOp7
 70
     1
102
RTVSPropertyOp8
 70
     1
102
RTVSPropertyOp9
 70
     1
102
RTVSPropertyOp10
 70
     1
102
RTVSPropertyOp11
 70
     1
102
RTVSPropertyOp12
 70
     1
102
RTVSPropertyOp13
 70
     1
102
RTVSPropertyOp14
 70
     1
102
RTVSPropertyOp15
 70
     1
102
RTVSPropertyOp16
 70
     1
102
RTVSPropertyOp17
 70
     1
102
RTVSPropertyOp18
 70
     1
102
RTVSPropertyOp19
 70
     1
102
RTVSPropertyOp20
 70
     1
102
RTVSPropertyOp21
 70
     1
102
RTVSPropertyOp22
 70
     1
102
RTVSPropertyOp23
 70
     1
102
RTVSPropertyOp24
 70
     1
102
RTVSPropertyOp25
 70
     1
102
RTVSPropertyOp26
 70
     1
102
RTVSPropertyOp27
 70
     1
  0
XRECORD
  5
3B3
102
{ACAD_REACTORS
330
3B2
102
}
330
3B2
100
AcDbXrecord
280
     1
102
RTVSPropertyOp0
 70
     1
102
RTVSPropertyOp1
 70
     1
102
RTVSPropertyOp2
 70
     1
102
RTVSPropertyOp3
 70
     1
102
RTVSPropertyOp4
 70
     1
102
RTVSPropertyOp5
 70
     1
102
RTVSPropertyOp6
 70
     1
102
RTVSPropertyOp7
 70
     1
102
RTVSPropertyOp8
 70
     1
102
RTVSPropertyOp9
 70
     1
102
RTVSPropertyOp10
 70
     1
102
RTVSPropertyOp11
 70
     1
102
RTVSPropertyOp12
 70
     1
102
RTVSPropertyOp13
 70
     1
102
RTVSPropertyOp14
 70
     1
102
RTVSPropertyOp15
 70
     1
102
RTVSPropertyOp16
 70
     1
102
RTVSPropertyOp17
 70
     1
102
RTVSPropertyOp18
 70
     1
102
RTVSPropertyOp19
 70
     1
102
RTVSPropertyOp20
 70
     1
102
RTVSPropertyOp21
 70
     1
102
RTVSPropertyOp22
 70
     1
102
RTVSPropertyOp23
 70
     1
102
RTVSPropertyOp24
 70
     1
102
RTVSPropertyOp25
 70
     1
102
RTVSPropertyOp26
 70
     1
102
RTVSPropertyOp27
 70
     1
  0
XRECORD
  5
3BB
102
{ACAD_REACTORS
330
3BA
102
}
330
3BA
100
AcDbXrecord
280
     1
102
RTVSPropertyOp0
 70
     1
102
RTVSPropertyOp1
 70
     1
102
RTVSPropertyOp2
 70
     1
102
RTVSPropertyOp3
 70
     1
102
RTVSPropertyOp4
 70
     1
102
RTVSPropertyOp5
 70
     1
102
RTVSPropertyOp6
 70
     1
102
RTVSPropertyOp7
 70
     1
102
RTVSPropertyOp8
 70
     1
102
RTVSPropertyOp9
 70
     1
102
RTVSPropertyOp10
 70
     1
102
RTVSPropertyOp11
 70
     1
102
RTVSPropertyOp12
 70
     1
102
RTVSPropertyOp13
 70
     1
102
RTVSPropertyOp14
 70
     1
102
RTVSPropertyOp15
 70
     1
102
RTVSPropertyOp16
 70
     1
102
RTVSPropertyOp17
 70
     1
102
RTVSPropertyOp18
 70
     1
102
RTVSPropertyOp19
 70
     1
102
RTVSPropertyOp20
 70
     1
102
RTVSPropertyOp21
 70
     1
102
RTVSPropertyOp22
 70
     1
102
RTVSPropertyOp23
 70
     1
102
RTVSPropertyOp24
 70
     1
102
RTVSPropertyOp25
 70
     1
102
RTVSPropertyOp26
 70
     1
102
RTVSPropertyOp27
 70
     1
  0
XRECORD
  5
3C3
102
{ACAD_REACTORS
330
3C2
102
}
330
3C2
100
AcDbXrecord
280
     1
102
RTVSPropertyOp0
 70
     1
102
RTVSPropertyOp1
 70
     1
102
RTVSPropertyOp2
 70
     1
102
RTVSPropertyOp3
 70
     1
102
RTVSPropertyOp4
 70
     1
102
RTVSPropertyOp5
 70
     1
102
RTVSPropertyOp6
 70
     1
102
RTVSPropertyOp7
 70
     1
102
RTVSPropertyOp8
 70
     1
102
RTVSPropertyOp9
 70
     1
102
RTVSPropertyOp10
 70
     1
102
RTVSPropertyOp11
 70
     1
102
RTVSPropertyOp12
 70
     1
102
RTVSPropertyOp13
 70
     1
102
RTVSPropertyOp14
 70
     1
102
RTVSPropertyOp15
 70
     1
102
RTVSPropertyOp16
 70
     1
102
RTVSPropertyOp17
 70
     1
102
RTVSPropertyOp18
 70
     1
102
RTVSPropertyOp19
 70
     1
102
RTVSPropertyOp20
 70
     1
102
RTVSPropertyOp21
 70
     1
102
RTVSPropertyOp22
 70
     1
102
RTVSPropertyOp23
 70
     1
102
RTVSPropertyOp24
 70
     1
102
RTVSPropertyOp25
 70
     1
102
RTVSPropertyOp26
 70
     1
102
RTVSPropertyOp27
 70
     1
  0
XRECORD
  5
3B7
102
{ACAD_REACTORS
330
3B6
102
}
330
3B6
100
AcDbXrecord
280
     1
102
RTVSPropertyOp0
 70
     1
102
RTVSPropertyOp1
 70
     1
102
RTVSPropertyOp2
 70
     1
102
RTVSPropertyOp3
 70
     1
102
RTVSPropertyOp4
 70
     1
102
RTVSPropertyOp5
 70
     1
102
RTVSPropertyOp6
 70
     1
102
RTVSPropertyOp7
 70
     1
102
RTVSPropertyOp8
 70
     1
102
RTVSPropertyOp9
 70
     1
102
RTVSPropertyOp10
 70
     1
102
RTVSPropertyOp11
 70
     1
102
RTVSPropertyOp12
 70
     1
102
RTVSPropertyOp13
 70
     1
102
RTVSPropertyOp14
 70
     1
102
RTVSPropertyOp15
 70
     1
102
RTVSPropertyOp16
 70
     1
102
RTVSPropertyOp17
 70
     1
102
RTVSPropertyOp18
 70
     1
102
RTVSPropertyOp19
 70
     1
102
RTVSPropertyOp20
 70
     1
102
RTVSPropertyOp21
 70
     1
102
RTVSPropertyOp22
 70
     1
102
RTVSPropertyOp23
 70
     1
102
RTVSPropertyOp24
 70
     1
102
RTVSPropertyOp25
 70
     1
102
RTVSPropertyOp26
 70
     1
102
RTVSPropertyOp27
 70
     1
  0
XRECORD
  5
3B9
102
{ACAD_REACTORS
330
3B8
102
}
330
3B8
100
AcDbXrecord
280
     1
102
RTVSPropertyOp0
 70
     1
102
RTVSPropertyOp1
 70
     1
102
RTVSPropertyOp2
 70
     1
102
RTVSPropertyOp3
 70
     1
102
RTVSPropertyOp4
 70
     1
102
RTVSPropertyOp5
 70
     1
102
RTVSPropertyOp6
 70
     1
102
RTVSPropertyOp7
 70
     1
102
RTVSPropertyOp8
 70
     1
102
RTVSPropertyOp9
 70
     1
102
RTVSPropertyOp10
 70
     1
102
RTVSPropertyOp11
 70
     1
102
RTVSPropertyOp12
 70
     1
102
RTVSPropertyOp13
 70
     1
102
RTVSPropertyOp14
 70
     1
102
RTVSPropertyOp15
 70
     1
102
RTVSPropertyOp16
 70
     1
102
RTVSPropertyOp17
 70
     1
102
RTVSPropertyOp18
 70
     1
102
RTVSPropertyOp19
 70
     1
102
RTVSPropertyOp20
 70
     1
102
RTVSPropertyOp21
 70
     1
102
RTVSPropertyOp22
 70
     1
102
RTVSPropertyOp23
 70
     1
102
RTVSPropertyOp24
 70
     1
102
RTVSPropertyOp25
 70
     1
102
RTVSPropertyOp26
 70
     1
102
RTVSPropertyOp27
 70
     1
  0
XRECORD
  5
3C1
102
{ACAD_REACTORS
330
3C0
102
}
330
3C0
100
AcDbXrecord
280
     1
102
RTVSPropertyOp0
 70
     1
102
RTVSPropertyOp1
 70
     1
102
RTVSPropertyOp2
 70
     1
102
RTVSPropertyOp3
 70
     1
102
RTVSPropertyOp4
 70
     1
102
RTVSPropertyOp5
 70
     1
102
RTVSPropertyOp6
 70
     1
102
RTVSPropertyOp7
 70
     1
102
RTVSPropertyOp8
 70
     1
102
RTVSPropertyOp9
 70
     1
102
RTVSPropertyOp10
 70
     1
102
RTVSPropertyOp11
 70
     1
102
RTVSPropertyOp12
 70
     1
102
RTVSPropertyOp13
 70
     1
102
RTVSPropertyOp14
 70
     1
102
RTVSPropertyOp15
 70
     1
102
RTVSPropertyOp16
 70
     1
102
RTVSPropertyOp17
 70
     1
102
RTVSPropertyOp18
 70
     1
102
RTVSPropertyOp19
 70
     1
102
RTVSPropertyOp20
 70
     1
102
RTVSPropertyOp21
 70
     1
102
RTVSPropertyOp22
 70
     1
102
RTVSPropertyOp23
 70
     1
102
RTVSPropertyOp24
 70
     1
102
RTVSPropertyOp25
 70
     1
102
RTVSPropertyOp26
 70
     1
102
RTVSPropertyOp27
 70
     1
  0
XRECORD
  5
3A5
102
{ACAD_REACTORS
330
3A4
102
}
330
3A4
100
AcDbXrecord
280
     1
102
RTVSPropertyOp0
 70
     1
102
RTVSPropertyOp1
 70
     1
102
RTVSPropertyOp2
 70
     1
102
RTVSPropertyOp3
 70
     1
102
RTVSPropertyOp4
 70
     1
102
RTVSPropertyOp5
 70
     1
102
RTVSPropertyOp6
 70
     1
102
RTVSPropertyOp7
 70
     1
102
RTVSPropertyOp8
 70
     1
102
RTVSPropertyOp9
 70
     1
102
RTVSPropertyOp10
 70
     1
102
RTVSPropertyOp11
 70
     1
102
RTVSPropertyOp12
 70
     1
102
RTVSPropertyOp13
 70
     1
102
RTVSPropertyOp14
 70
     1
102
RTVSPropertyOp15
 70
     1
102
RTVSPropertyOp16
 70
     1
102
RTVSPropertyOp17
 70
     1
102
RTVSPropertyOp18
 70
     1
102
RTVSPropertyOp19
 70
     1
102
RTVSPropertyOp20
 70
     1
102
RTVSPropertyOp21
 70
     1
102
RTVSPropertyOp22
 70
     1
102
RTVSPropertyOp23
 70
     1
102
RTVSPropertyOp24
 70
     1
102
RTVSPropertyOp25
 70
     1
102
RTVSPropertyOp26
 70
     1
102
RTVSPropertyOp27
 70
     1
  0
XRECORD
  5
3A7
102
{ACAD_REACTORS
330
3A6
102
}
330
3A6
100
AcDbXrecord
280
     1
102
RTVSPropertyOp0
 70
     1
102
RTVSPropertyOp1
 70
     1
102
RTVSPropertyOp2
 70
     1
102
RTVSPropertyOp3
 70
     1
102
RTVSPropertyOp4
 70
     1
102
RTVSPropertyOp5
 70
     1
102
RTVSPropertyOp6
 70
     1
102
RTVSPropertyOp7
 70
     1
102
RTVSPropertyOp8
 70
     1
102
RTVSPropertyOp9
 70
     1
102
RTVSPropertyOp10
 70
     1
102
RTVSPropertyOp11
 70
     1
102
RTVSPropertyOp12
 70
     1
102
RTVSPropertyOp13
 70
     1
102
RTVSPropertyOp14
 70
     1
102
RTVSPropertyOp15
 70
     1
102
RTVSPropertyOp16
 70
     1
102
RTVSPropertyOp17
 70
     1
102
RTVSPropertyOp18
 70
     1
102
RTVSPropertyOp19
 70
     1
102
RTVSPropertyOp20
 70
     1
102
RTVSPropertyOp21
 70
     1
102
RTVSPropertyOp22
 70
     1
102
RTVSPropertyOp23
 70
     1
102
RTVSPropertyOp24
 70
     1
102
RTVSPropertyOp25
 70
     1
102
RTVSPropertyOp26
 70
     1
102
RTVSPropertyOp27
 70
     1
  0
XRECORD
  5
3A9
102
{ACAD_REACTORS
330
3A8
102
}
330
3A8
100
AcDbXrecord
280
     1
102
RTVSPropertyOp0
 70
     1
102
RTVSPropertyOp1
 70
     1
102
RTVSPropertyOp2
 70
     1
102
RTVSPropertyOp3
 70
     1
102
RTVSPropertyOp4
 70
     1
102
RTVSPropertyOp5
 70
     1
102
RTVSPropertyOp6
 70
     1
102
RTVSPropertyOp7
 70
     1
102
RTVSPropertyOp8
 70
     1
102
RTVSPropertyOp9
 70
     1
102
RTVSPropertyOp10
 70
     1
102
RTVSPropertyOp11
 70
     1
102
RTVSPropertyOp12
 70
     1
102
RTVSPropertyOp13
 70
     1
102
RTVSPropertyOp14
 70
     1
102
RTVSPropertyOp15
 70
     1
102
RTVSPropertyOp16
 70
     1
102
RTVSPropertyOp17
 70
     1
102
RTVSPropertyOp18
 70
     1
102
RTVSPropertyOp19
 70
     1
102
RTVSPropertyOp20
 70
     1
102
RTVSPropertyOp21
 70
     1
102
RTVSPropertyOp22
 70
     1
102
RTVSPropertyOp23
 70
     1
102
RTVSPropertyOp24
 70
     1
102
RTVSPropertyOp25
 70
     1
102
RTVSPropertyOp26
 70
     1
102
RTVSPropertyOp27
 70
     1
  0
XRECORD
  5
3AB
102
{ACAD_REACTORS
330
3AA
102
}
330
3AA
100
AcDbXrecord
280
     1
102
RTVSPropertyOp0
 70
     1
102
RTVSPropertyOp1
 70
     1
102
RTVSPropertyOp2
 70
     1
102
RTVSPropertyOp3
 70
     1
102
RTVSPropertyOp4
 70
     1
102
RTVSPropertyOp5
 70
     1
102
RTVSPropertyOp6
 70
     1
102
RTVSPropertyOp7
 70
     1
102
RTVSPropertyOp8
 70
     1
102
RTVSPropertyOp9
 70
     1
102
RTVSPropertyOp10
 70
     1
102
RTVSPropertyOp11
 70
     1
102
RTVSPropertyOp12
 70
     1
102
RTVSPropertyOp13
 70
     1
102
RTVSPropertyOp14
 70
     1
102
RTVSPropertyOp15
 70
     1
102
RTVSPropertyOp16
 70
     1
102
RTVSPropertyOp17
 70
     1
102
RTVSPropertyOp18
 70
     1
102
RTVSPropertyOp19
 70
     1
102
RTVSPropertyOp20
 70
     1
102
RTVSPropertyOp21
 70
     1
102
RTVSPropertyOp22
 70
     1
102
RTVSPropertyOp23
 70
     1
102
RTVSPropertyOp24
 70
     1
102
RTVSPropertyOp25
 70
     1
102
RTVSPropertyOp26
 70
     1
102
RTVSPropertyOp27
 70
     1
  0
XRECORD
  5
3BF
102
{ACAD_REACTORS
330
3BE
102
}
330
3BE
100
AcDbXrecord
280
     1
102
RTVSPropertyOp0
 70
     1
102
RTVSPropertyOp1
 70
     1
102
RTVSPropertyOp2
 70
     1
102
RTVSPropertyOp3
 70
     1
102
RTVSPropertyOp4
 70
     1
102
RTVSPropertyOp5
 70
     1
102
RTVSPropertyOp6
 70
     1
102
RTVSPropertyOp7
 70
     1
102
RTVSPropertyOp8
 70
     1
102
RTVSPropertyOp9
 70
     1
102
RTVSPropertyOp10
 70
     1
102
RTVSPropertyOp11
 70
     1
102
RTVSPropertyOp12
 70
     1
102
RTVSPropertyOp13
 70
     1
102
RTVSPropertyOp14
 70
     1
102
RTVSPropertyOp15
 70
     1
102
RTVSPropertyOp16
 70
     1
102
RTVSPropertyOp17
 70
     1
102
RTVSPropertyOp18
 70
     1
102
RTVSPropertyOp19
 70
     1
102
RTVSPropertyOp20
 70
     1
102
RTVSPropertyOp21
 70
     1
102
RTVSPropertyOp22
 70
     1
102
RTVSPropertyOp23
 70
     1
102
RTVSPropertyOp24
 70
     1
102
RTVSPropertyOp25
 70
     1
102
RTVSPropertyOp26
 70
     1
102
RTVSPropertyOp27
 70
     1
  0
XRECORD
  5
3B5
102
{ACAD_REACTORS
330
3B4
102
}
330
3B4
100
AcDbXrecord
280
     1
102
RTVSPropertyOp0
 70
     1
102
RTVSPropertyOp1
 70
     1
102
RTVSPropertyOp2
 70
     1
102
RTVSPropertyOp3
 70
     1
102
RTVSPropertyOp4
 70
     1
102
RTVSPropertyOp5
 70
     1
102
RTVSPropertyOp6
 70
     1
102
RTVSPropertyOp7
 70
     1
102
RTVSPropertyOp8
 70
     1
102
RTVSPropertyOp9
 70
     1
102
RTVSPropertyOp10
 70
     1
102
RTVSPropertyOp11
 70
     1
102
RTVSPropertyOp12
 70
     1
102
RTVSPropertyOp13
 70
     1
102
RTVSPropertyOp14
 70
     1
102
RTVSPropertyOp15
 70
     1
102
RTVSPropertyOp16
 70
     1
102
RTVSPropertyOp17
 70
     1
102
RTVSPropertyOp18
 70
     1
102
RTVSPropertyOp19
 70
     1
102
RTVSPropertyOp20
 70
     1
102
RTVSPropertyOp21
 70
     1
102
RTVSPropertyOp22
 70
     1
102
RTVSPropertyOp23
 70
     1
102
RTVSPropertyOp24
 70
     1
102
RTVSPropertyOp25
 70
     1
102
RTVSPropertyOp26
 70
     1
102
RTVSPropertyOp27
 70
     1
  0
XRECORD
  5
3BD
102
{ACAD_REACTORS
330
3BC
102
}
330
3BC
100
AcDbXrecord
280
     1
102
RTVSPropertyOp0
 70
     1
102
RTVSPropertyOp1
 70
     1
102
RTVSPropertyOp2
 70
     1
102
RTVSPropertyOp3
 70
     1
102
RTVSPropertyOp4
 70
     1
102
RTVSPropertyOp5
 70
     1
102
RTVSPropertyOp6
 70
     1
102
RTVSPropertyOp7
 70
     1
102
RTVSPropertyOp8
 70
     1
102
RTVSPropertyOp9
 70
     1
102
RTVSPropertyOp10
 70
     1
102
RTVSPropertyOp11
 70
     1
102
RTVSPropertyOp12
 70
     1
102
RTVSPropertyOp13
 70
     1
102
RTVSPropertyOp14
 70
     1
102
RTVSPropertyOp15
 70
     1
102
RTVSPropertyOp16
 70
     1
102
RTVSPropertyOp17
 70
     1
102
RTVSPropertyOp18
 70
     1
102
RTVSPropertyOp19
 70
     1
102
RTVSPropertyOp20
 70
     1
102
RTVSPropertyOp21
 70
     1
102
RTVSPropertyOp22
 70
     1
102
RTVSPropertyOp23
 70
     1
102
RTVSPropertyOp24
 70
     1
102
RTVSPropertyOp25
 70
     1
102
RTVSPropertyOp26
 70
     1
102
RTVSPropertyOp27
 70
     1
  0
ENDSEC
  0
EOF
