  0
SECTION
  2
HEADER
  9
$ACADVER
  1
AC1015
  9
$ACADMAINTVER
 70
     6
  9
$DWGCODEPAGE
  3
ANSI_932
  9
$INSBASE
 10
0.0
 20
0.0
 30
0.0
  9
$EXTMIN
 10
-72.2528833182174
 20
-98.0
 30
0.0
  9
$EXTMAX
 10
170.9999999999994
 20
244.0
 30
0.0
  9
$LIMMIN
 10
0.0
 20
0.0
  9
$LIMMAX
 10
12.0
 20
9.0
  9
$ORTHOMODE
 70
     0
  9
$REGENMODE
 70
     1
  9
$FILLMODE
 70
     1
  9
$QTEXTMODE
 70
     0
  9
$MIRRTEXT
 70
     1
  9
$LTSCALE
 40
1.0
  9
$ATTMODE
 70
     1
  9
$TEXTSIZE
 40
0.2
  9
$TRACEWID
 40
0.05
  9
$TEXTSTYLE
  7
Standard
  9
$CLAYER
  8
0
  9
$CELTYPE
  6
ByLayer
  9
$CECOLOR
 62
   256
  9
$CELTSCALE
 40
1.0
  9
$DISPSILH
 70
     0
  9
$DIMSCALE
 40
1.0
  9
$DIMASZ
 40
0.18
  9
$DIMEXO
 40
0.0625
  9
$DIMDLI
 40
0.38
  9
$DIMRND
 40
0.0
  9
$DIMDLE
 40
0.0
  9
$DIMEXE
 40
0.18
  9
$DIMTP
 40
0.0
  9
$DIMTM
 40
0.0
  9
$DIMTXT
 40
0.18
  9
$DIMCEN
 40
0.09
  9
$DIMTSZ
 40
0.0
  9
$DIMTOL
 70
     0
  9
$DIMLIM
 70
     0
  9
$DIMTIH
 70
     1
  9
$DIMTOH
 70
     1
  9
$DIMSE1
 70
     0
  9
$DIMSE2
 70
     0
  9
$DIMTAD
 70
     0
  9
$DIMZIN
 70
     0
  9
$DIMBLK
  1

  9
$DIMASO
 70
     1
  9
$DIMSHO
 70
     1
  9
$DIMPOST
  1

  9
$DIMAPOST
  1

  9
$DIMALT
 70
     0
  9
$DIMALTD
 70
     2
  9
$DIMALTF
 40
25.4
  9
$DIMLFAC
 40
1.0
  9
$DIMTOFL
 70
     0
  9
$DIMTVP
 40
0.0
  9
$DIMTIX
 70
     0
  9
$DIMSOXD
 70
     0
  9
$DIMSAH
 70
     0
  9
$DIMBLK1
  1

  9
$DIMBLK2
  1

  9
$DIMSTYLE
  2
Standard
  9
$DIMCLRD
 70
     0
  9
$DIMCLRE
 70
     0
  9
$DIMCLRT
 70
     0
  9
$DIMTFAC
 40
1.0
  9
$DIMGAP
 40
0.09
  9
$DIMJUST
 70
     0
  9
$DIMSD1
 70
     0
  9
$DIMSD2
 70
     0
  9
$DIMTOLJ
 70
     1
  9
$DIMTZIN
 70
     0
  9
$DIMALTZ
 70
     0
  9
$DIMALTTZ
 70
     0
  9
$DIMUPT
 70
     0
  9
$DIMDEC
 70
     4
  9
$DIMTDEC
 70
     4
  9
$DIMALTU
 70
     2
  9
$DIMALTTD
 70
     2
  9
$DIMTXSTY
  7
Standard
  9
$DIMAUNIT
 70
     0
  9
$DIMADEC
 70
     0
  9
$DIMALTRND
 40
0.0
  9
$DIMAZIN
 70
     0
  9
$DIMDSEP
 70
    46
  9
$DIMATFIT
 70
     3
  9
$DIMFRAC
 70
     0
  9
$DIMLDRBLK
  1

  9
$DIMLUNIT
 70
     2
  9
$DIMLWD
 70
    -2
  9
$DIMLWE
 70
    -2
  9
$DIMTMOVE
 70
     0
  9
$LUNITS
 70
     2
  9
$LUPREC
 70
     4
  9
$SKETCHINC
 40
0.1
  9
$FILLETRAD
 40
0.5
  9
$AUNITS
 70
     0
  9
$AUPREC
 70
     0
  9
$MENU
  1
.
  9
$ELEVATION
 40
0.0
  9
$PELEVATION
 40
0.0
  9
$THICKNESS
 40
0.0
  9
$LIMCHECK
 70
     0
  9
$CHAMFERA
 40
0.5
  9
$CHAMFERB
 40
0.5
  9
$CHAMFERC
 40
1.0
  9
$CHAMFERD
 40
0.0
  9
$SKPOLY
 70
     0
  9
$TDCREATE
 40
2458519.670578831
  9
$TDUCREATE
 40
2458519.295578831
  9
$TDUPDATE
 40
2458519.670578843
  9
$TDUUPDATE
 40
2458519.295578843
  9
$TDINDWG
 40
0.0000000116
  9
$TDUSRTIMER
 40
0.0000000116
  9
$USRTIMER
 70
     1
  9
$ANGBASE
 50
0.0
  9
$ANGDIR
 70
     0
  9
$PDMODE
 70
     0
  9
$PDSIZE
 40
0.0
  9
$PLINEWID
 40
0.0
  9
$SPLFRAME
 70
     0
  9
$SPLINETYPE
 70
     6
  9
$SPLINESEGS
 70
     8
  9
$HANDSEED
  5
3D3
  9
$SURFTAB1
 70
     6
  9
$SURFTAB2
 70
     6
  9
$SURFTYPE
 70
     6
  9
$SURFU
 70
     6
  9
$SURFV
 70
     6
  9
$UCSBASE
  2

  9
$UCSNAME
  2

  9
$UCSORG
 10
0.0
 20
0.0
 30
0.0
  9
$UCSXDIR
 10
1.0
 20
0.0
 30
0.0
  9
$UCSYDIR
 10
0.0
 20
1.0
 30
0.0
  9
$UCSORTHOREF
  2

  9
$UCSORTHOVIEW
 70
     0
  9
$UCSORGTOP
 10
0.0
 20
0.0
 30
0.0
  9
$UCSORGBOTTOM
 10
0.0
 20
0.0
 30
0.0
  9
$UCSORGLEFT
 10
0.0
 20
0.0
 30
0.0
  9
$UCSORGRIGHT
 10
0.0
 20
0.0
 30
0.0
  9
$UCSORGFRONT
 10
0.0
 20
0.0
 30
0.0
  9
$UCSORGBACK
 10
0.0
 20
0.0
 30
0.0
  9
$PUCSBASE
  2

  9
$PUCSNAME
  2

  9
$PUCSORG
 10
0.0
 20
0.0
 30
0.0
  9
$PUCSXDIR
 10
1.0
 20
0.0
 30
0.0
  9
$PUCSYDIR
 10
0.0
 20
1.0
 30
0.0
  9
$PUCSORTHOREF
  2

  9
$PUCSORTHOVIEW
 70
     0
  9
$PUCSORGTOP
 10
0.0
 20
0.0
 30
0.0
  9
$PUCSORGBOTTOM
 10
0.0
 20
0.0
 30
0.0
  9
$PUCSORGLEFT
 10
0.0
 20
0.0
 30
0.0
  9
$PUCSORGRIGHT
 10
0.0
 20
0.0
 30
0.0
  9
$PUCSORGFRONT
 10
0.0
 20
0.0
 30
0.0
  9
$PUCSORGBACK
 10
0.0
 20
0.0
 30
0.0
  9
$USERI1
 70
     0
  9
$USERI2
 70
     0
  9
$USERI3
 70
     0
  9
$USERI4
 70
     0
  9
$USERI5
 70
     0
  9
$USERR1
 40
18.0
  9
$USERR2
 40
0.0
  9
$USERR3
 40
0.0
  9
$USERR4
 40
0.0
  9
$USERR5
 40
0.0
  9
$WORLDVIEW
 70
     1
  9
$SHADEDGE
 70
     3
  9
$SHADEDIF
 70
    70
  9
$TILEMODE
 70
     1
  9
$MAXACTVP
 70
    64
  9
$PINSBASE
 10
0.0
 20
0.0
 30
0.0
  9
$PLIMCHECK
 70
     0
  9
$PEXTMIN
 10
1.00000000000000E+20
 20
1.00000000000000E+20
 30
1.00000000000000E+20
  9
$PEXTMAX
 10
-1.00000000000000E+20
 20
-1.00000000000000E+20
 30
-1.00000000000000E+20
  9
$PLIMMIN
 10
0.0
 20
0.0
  9
$PLIMMAX
 10
12.0
 20
9.0
  9
$UNITMODE
 70
     0
  9
$VISRETAIN
 70
     1
  9
$PLINEGEN
 70
     0
  9
$PSLTSCALE
 70
     1
  9
$TREEDEPTH
 70
  3020
  9
$CMLSTYLE
  2
Standard
  9
$CMLJUST
 70
     0
  9
$CMLSCALE
 40
1.0
  9
$PROXYGRAPHICS
 70
     1
  9
$MEASUREMENT
 70
     1
  9
$CELWEIGHT
370
    -1
  9
$ENDCAPS
280
     0
  9
$JOINSTYLE
280
     0
  9
$LWDISPLAY
290
     0
  9
$INSUNITS
 70
     1
  9
$HYPERLINKBASE
  1

  9
$STYLESHEET
  1

  9
$XEDIT
290
     1
  9
$CEPSNTYPE
380
     0
  9
$PSTYLEMODE
290
     1
  9
$FINGERPRINTGUID
  2
{A126B462-B71B-4986-BBE0-9EEC467666AC}
  9
$VERSIONGUID
  2
{FAEB1C32-E019-11D5-929B-00C0DF256EC4}
  9
$EXTNAMES
290
     1
  9
$PSVPSCALE
 40
0.0
  9
$OLESTARTUP
290
     0
  0
ENDSEC
  0
SECTION
  2
CLASSES
  0
CLASS
  1
ACDBDICTIONARYWDFLT
  2
AcDbDictionaryWithDefault
  3
ObjectDBX Classes
 90
        0
280
     0
281
     0
  0
CLASS
  1
VISUALSTYLE
  2
AcDbVisualStyle
  3
ObjectDBX Classes
 90
     4095
280
     0
281
     0
  0
CLASS
  1
MATERIAL
  2
AcDbMaterial
  3
ObjectDBX Classes
 90
     1153
280
     0
281
     0
  0
CLASS
  1

  2
exOdDbCircle
  3

 90
        0
280
     0
281
     1
  0
CLASS
  1

  2
exOdDbSpline
  3

 90
        0
280
     0
281
     1
  0
CLASS
  1

  2
exOdDbPolyline
  3

 90
        0
280
     0
281
     1
  0
CLASS
  1
DICTIONARYVAR
  2
AcDbDictionaryVar
  3
ObjectDBX Classes
 90
        0
280
     0
281
     0
  0
CLASS
  1
ACDBPLACEHOLDER
  2
AcDbPlaceHolder
  3
ObjectDBX Classes
 90
        0
280
     0
281
     0
  0
CLASS
  1
LAYOUT
  2
AcDbLayout
  3
ObjectDBX Classes
 90
        0
280
     0
281
     0
  0
ENDSEC
  0
SECTION
  2
TABLES
  0
TABLE
  2
VPORT
  5
8
330
0
100
AcDbSymbolTable
 70
     1
  0
VPORT
  5
29
330
8
100
AcDbSymbolTableRecord
100
AcDbViewportTableRecord
  2
*Active
 70
     0
 10
0.0
 20
0.0
 11
1.0
 21
1.0
 12
49.373558340891
 22
73.0
 13
0.0
 23
0.0
 14
0.5
 24
0.5
 15
0.5
 25
0.5
 16
0.0
 26
0.0
 36
1.0
 17
0.0
 27
0.0
 37
0.0
 40
376.2
 41
1.60267857142857
 42
50.0
 43
0.0
 44
0.0
 50
0.0
 51
0.0
 71
     0
 72
   100
 73
     1
 74
     3
 75
     0
 76
     0
 77
     0
 78
     0
281
     0
 65
     1
110
0.0
120
0.0
130
0.0
111
1.0
121
0.0
131
0.0
112
0.0
122
1.0
132
0.0
 79
     0
146
0.0
  0
ENDTAB
  0
TABLE
  2
LTYPE
  5
5
330
0
100
AcDbSymbolTable
 70
     9
  0
LTYPE
  5
14
330
5
100
AcDbSymbolTableRecord
100
AcDbLinetypeTableRecord
  2
ByBlock
 70
     0
  3

 72
    65
 73
     0
 40
0.0
  0
LTYPE
  5
15
330
5
100
AcDbSymbolTableRecord
100
AcDbLinetypeTableRecord
  2
ByLayer
 70
     0
  3

 72
    65
 73
     0
 40
0.0
  0
LTYPE
  5
16
330
5
100
AcDbSymbolTableRecord
100
AcDbLinetypeTableRecord
  2
Continuous
 70
     0
  3
Solid line
 72
    65
 73
     0
 40
0.0
  0
LTYPE
  5
3F
330
5
100
AcDbSymbolTableRecord
100
AcDbLinetypeTableRecord
  2
DASHED
 70
     0
  3
Dashed
 72
    65
 73
     2
 40
15.0
 49
7.0
 74
     0
 49
-8.0
 74
     0
  0
LTYPE
  5
40
330
5
100
AcDbSymbolTableRecord
100
AcDbLinetypeTableRecord
  2
DOTTED
 70
     0
  3
Dotted
 72
    65
 73
     2
 40
1.0
 49
0.0
 74
     0
 49
-1.0
 74
     0
  0
LTYPE
  5
41
330
5
100
AcDbSymbolTableRecord
100
AcDbLinetypeTableRecord
  2
DOT_CENTER
 70
     0
  3
Dot_Center
 72
    65
 73
     4
 40
14.0
 49
12.0
 74
     0
 49
-1.0
 74
     0
 49
0.0
 74
     0
 49
-1.0
 74
     0
  0
LTYPE
  5
42
330
5
100
AcDbSymbolTableRecord
100
AcDbLinetypeTableRecord
  2
LONG_DASHED
 70
     0
  3
Long_Dashed
 72
    65
 73
     2
 40
15.0
 49
10.0
 74
     0
 49
-5.0
 74
     0
  0
LTYPE
  5
43
330
5
100
AcDbSymbolTableRecord
100
AcDbLinetypeTableRecord
  2
DASH_CENTER
 70
     0
  3
Dash_Center
 72
    65
 73
     4
 40
14.0
 49
11.0
 74
     0
 49
-1.0
 74
     0
 49
1.0
 74
     0
 49
-1.0
 74
     0
  0
LTYPE
  5
44
330
5
100
AcDbSymbolTableRecord
100
AcDbLinetypeTableRecord
  2
PHANTOM
 70
     0
  3
Phantom
 72
    65
 73
     6
 40
13.0
 49
10.0
 74
     0
 49
-1.0
 74
     0
 49
0.0
 74
     0
 49
-1.0
 74
     0
 49
0.0
 74
     0
 49
-1.0
 74
     0
  0
LTYPE
  5
45
330
5
100
AcDbSymbolTableRecord
100
AcDbLinetypeTableRecord
  2
CENTER_DASH_DASH
 70
     0
  3
Center_Dash_Dash
 72
    65
 73
     6
 40
14.0
 49
9.0
 74
     0
 49
-1.0
 74
     0
 49
1.0
 74
     0
 49
-1.0
 74
     0
 49
1.0
 74
     0
 49
-1.0
 74
     0
  0
LTYPE
  5
46
330
5
100
AcDbSymbolTableRecord
100
AcDbLinetypeTableRecord
  2
CENTER
 70
     0
  3
CENTER
 72
    65
 73
     4
 40
6.0
 49
3.0
 74
     0
 49
-1.0
 74
     0
 49
1.0
 74
     0
 49
-1.0
 74
     0
  0
ENDTAB
  0
TABLE
  2
LAYER
  5
2
330
0
100
AcDbSymbolTable
 70
     5
  0
LAYER
  5
10
330
2
100
AcDbSymbolTableRecord
100
AcDbLayerTableRecord
  2
0
 70
     0
 62
     7
  6
Continuous
370
    -3
390
F
  0
LAYER
  5
47
330
2
100
AcDbSymbolTableRecord
100
AcDbLayerTableRecord
  2
1
 70
     0
 62
     7
  6
Continuous
370
    -3
390
F
  0
LAYER
  5
48
330
2
100
AcDbSymbolTableRecord
100
AcDbLayerTableRecord
  2
2
 70
     0
 62
     7
  6
Continuous
370
    -3
390
F
  0
LAYER
  5
49
330
2
100
AcDbSymbolTableRecord
100
AcDbLayerTableRecord
  2
3
 70
     0
 62
     7
  6
Continuous
370
    -3
390
F
  0
LAYER
  5
4A
330
2
100
AcDbSymbolTableRecord
100
AcDbLayerTableRecord
  2
5
 70
     0
 62
     7
  6
Continuous
370
    -3
390
F
  0
ENDTAB
  0
TABLE
  2
STYLE
  5
3
330
0
100
AcDbSymbolTable
 70
     1
  0
STYLE
  5
11
330
3
100
AcDbSymbolTableRecord
100
AcDbTextStyleTableRecord
  2
Standard
 70
     0
 40
0.0
 41
1.0
 50
0.0
 71
     0
 42
0.2
  3
txt
  4

  0
ENDTAB
  0
TABLE
  2
VIEW
  5
6
330
0
100
AcDbSymbolTable
 70
     0
  0
ENDTAB
  0
TABLE
  2
UCS
  5
7
330
0
100
AcDbSymbolTable
 70
     0
  0
ENDTAB
  0
TABLE
  2
APPID
  5
9
330
0
100
AcDbSymbolTable
 70
     1
  0
APPID
  5
12
330
9
100
AcDbSymbolTableRecord
100
AcDbRegAppTableRecord
  2
ACAD
 70
     0
  0
ENDTAB
  0
TABLE
  2
DIMSTYLE
  5
A
330
0
100
AcDbSymbolTable
 70
     1
100
AcDbDimStyleTable
  0
DIMSTYLE
105
27
330
A
100
AcDbSymbolTableRecord
100
AcDbDimStyleTableRecord
  2
Standard
 70
     0
340
11
  0
ENDTAB
  0
TABLE
  2
BLOCK_RECORD
  5
1
330
0
100
AcDbSymbolTable
 70
     1
  0
BLOCK_RECORD
  5
1F
330
1
100
AcDbSymbolTableRecord
100
AcDbBlockTableRecord
  2
*Model_Space
340
22
  0
BLOCK_RECORD
  5
1B
330
1
100
AcDbSymbolTableRecord
100
AcDbBlockTableRecord
  2
*Paper_Space
340
1E
  0
BLOCK_RECORD
  5
23
330
1
100
AcDbSymbolTableRecord
100
AcDbBlockTableRecord
  2
*Paper_Space0
340
26
  0
ENDTAB
  0
ENDSEC
  0
SECTION
  2
BLOCKS
  0
BLOCK
  5
20
330
1F
100
AcDbEntity
  8
0
100
AcDbBlockBegin
  2
*Model_Space
 70
     0
 10
0.0
 20
0.0
 30
0.0
  3
*Model_Space
  1

  0
ENDBLK
  5
21
330
1F
100
AcDbEntity
  8
0
100
AcDbBlockEnd
  0
BLOCK
  5
1C
330
1B
100
AcDbEntity
 67
     1
  8
0
100
AcDbBlockBegin
  2
*Paper_Space
 70
     0
 10
0.0
 20
0.0
 30
0.0
  3
*Paper_Space
  1

  0
ENDBLK
  5
1D
330
1B
100
AcDbEntity
 67
     1
  8
0
100
AcDbBlockEnd
  0
BLOCK
  5
24
330
23
100
AcDbEntity
  8
0
100
AcDbBlockBegin
  2
*Paper_Space0
 70
     0
 10
0.0
 20
0.0
 30
0.0
  3
*Paper_Space0
  1

  0
ENDBLK
  5
25
330
23
100
AcDbEntity
  8
0
100
AcDbBlockEnd
  0
ENDSEC
  0
SECTION
  2
ENTITIES
  0
POINT
  5
4B
330
1F
100
AcDbEntity
  8
1
 62
     7
100
AcDbPoint
 10
9.99999230351227
 20
210.0
 30
0.0
  0
LINE
  5
4C
330
1F
100
AcDbEntity
  8
0
  6
Continuous
 62
     3
100
AcDbLine
 10
-20.50000000000011
 20
22.29934256633134
 30
0.0
 11
-20.5
 21
54.33493649053922
 31
0.0
  0
LINE
  5
4D
330
1F
100
AcDbEntity
  8
1
  6
Continuous
 62
     3
100
AcDbLine
 10
35.69999999999993
 20
-18.40824829046379
 30
0.0
 11
35.69999999999993
 21
-18.15544456622764
 31
0.0
  0
LINE
  5
4E
330
1F
100
AcDbEntity
  8
1
  6
Continuous
 62
     3
100
AcDbLine
 10
35.69999999999993
 20
-6.0
 30
0.0
 11
35.69999999999993
 21
-12.15544456622789
 31
0.0
  0
LINE
  5
4F
330
1F
100
AcDbEntity
  8
1
  6
Continuous
 62
     3
100
AcDbLine
 10
35.69999999999993
 20
12.15544456622774
 30
0.0
 11
35.69999999999993
 21
6.0
 31
0.0
  0
LINE
  5
50
330
1F
100
AcDbEntity
  8
1
  6
Continuous
 62
     3
100
AcDbLine
 10
35.69999999999993
 20
18.50000000000011
 30
0.0
 11
35.69999999999993
 21
18.15544456622766
 31
0.0
  0
LINE
  5
51
330
1F
100
AcDbEntity
  8
1
  6
Continuous
 62
     3
100
AcDbLine
 10
-35.70000000000005
 20
18.15544456622766
 30
0.0
 11
-35.70000000000005
 21
18.50000000000011
 31
0.0
  0
LINE
  5
52
330
1F
100
AcDbEntity
  8
1
  6
Continuous
 62
     3
100
AcDbLine
 10
-35.70000000000005
 20
6.0
 30
0.0
 11
-35.70000000000005
 21
12.15544456622774
 31
0.0
  0
LINE
  5
53
330
1F
100
AcDbEntity
  8
1
  6
Continuous
 62
     3
100
AcDbLine
 10
-35.70000000000005
 20
-12.15544456622789
 30
0.0
 11
-35.70000000000005
 21
-6.0
 31
0.0
  0
LINE
  5
54
330
1F
100
AcDbEntity
  8
1
  6
Continuous
 62
     3
100
AcDbLine
 10
-35.70000000000005
 20
-18.15544456622764
 30
0.0
 11
-35.70000000000005
 21
-18.4999999999999
 31
0.0
  0
LINE
  5
55
330
1F
100
AcDbEntity
  8
0
  6
Continuous
 62
     3
100
AcDbLine
 10
34.25662432702598
 20
16.00000000000011
 30
0.0
 11
35.69999999999993
 21
18.50000000000011
 31
0.0
  0
LINE
  5
56
330
1F
100
AcDbEntity
  8
0
  6
Continuous
 62
     3
100
AcDbLine
 10
32.52457351945714
 20
15.00000000000011
 30
0.0
 11
29.74507017102667
 21
15.00000000000011
 31
0.0
  0
LINE
  5
57
330
1F
100
AcDbEntity
  8
0
  6
Continuous
 62
     3
100
AcDbLine
 10
-32.52457351945714
 20
15.00000000000011
 30
0.0
 11
-30.5133175189776
 21
15.00000000000011
 31
0.0
  0
LINE
  5
58
330
1F
100
AcDbEntity
  8
0
  6
Continuous
 62
     3
100
AcDbLine
 10
-34.25662432702586
 20
16.00000000000011
 30
0.0
 11
-35.70000000000005
 21
18.50000000000011
 31
0.0
  0
LINE
  5
59
330
1F
100
AcDbEntity
  8
0
  6
Continuous
 62
     3
100
AcDbLine
 10
-14.5
 20
-35.12863460026938
 30
0.0
 11
-14.5
 21
-31.54616474837769
 31
0.0
  0
LINE
  5
5A
330
1F
100
AcDbEntity
  8
0
  6
Continuous
 62
     3
100
AcDbLine
 10
-19.0
 20
-24.67155612596457
 30
0.0
 11
-19.0
 21
-16.9999985558095
 31
0.0
  0
LINE
  5
5B
330
1F
100
AcDbEntity
  8
0
  6
Continuous
 62
     3
100
AcDbLine
 10
14.49999999999997
 20
-35.12863460026938
 30
0.0
 11
14.5
 21
-31.8976936739279
 31
0.0
  0
LINE
  5
5C
330
1F
100
AcDbEntity
  8
0
  6
Continuous
 62
     3
100
AcDbLine
 10
19.0
 20
16.99999872127421
 30
0.0
 11
19.0
 21
26.80887855041514
 31
0.0
  0
LINE
  5
5D
330
1F
100
AcDbEntity
  8
0
  6
Continuous
 62
     3
100
AcDbLine
 10
-34.25662432702586
 20
-15.9999999999999
 30
0.0
 11
-35.70000000000005
 21
-18.4999999999999
 31
0.0
  0
LINE
  5
5E
330
1F
100
AcDbEntity
  8
0
  6
Continuous
 62
     3
100
AcDbLine
 10
34.25662432702586
 20
-15.9999999999999
 30
0.0
 11
35.69999999999993
 21
-18.4999999999999
 31
0.0
  0
LINE
  5
5F
330
1F
100
AcDbEntity
  8
0
  6
Continuous
 62
     3
100
AcDbLine
 10
32.52457351945714
 20
-14.9999999999999
 30
0.0
 11
31.29930192824963
 21
-14.9999999999999
 31
0.0
  0
LINE
  5
60
330
1F
100
AcDbEntity
  8
0
  6
Continuous
 62
     3
100
AcDbLine
 10
-32.52457351945714
 20
-14.9999999999999
 30
0.0
 11
-29.74507017102678
 21
-14.9999999999999
 31
0.0
  0
LINE
  5
61
330
1F
100
AcDbEntity
  8
0
  6
Continuous
 62
     3
100
AcDbLine
 10
-20.5
 20
30.49999999999909
 30
0.0
 11
-20.5
 21
21.73476317445679
 31
0.0
  0
LINE
  5
62
330
1F
100
AcDbEntity
  8
0
  6
Continuous
 62
     3
100
AcDbLine
 10
15.0
 20
24.8048061603233
 30
0.0
 11
15.0
 21
25.3937138307777
 31
0.0
  0
LINE
  5
63
330
1F
100
AcDbEntity
  8
0
  6
Continuous
 62
     3
100
AcDbLine
 10
15.0
 20
24.8048061603233
 30
0.0
 11
15.0
 21
25.3937138307777
 31
0.0
  0
LINE
  5
64
330
1F
100
AcDbEntity
  8
1
  6
Continuous
 62
     3
100
AcDbLine
 10
-21.39104379329262
 20
20.07078085871061
 30
0.0
 11
-15.89088076413634
 21
23.73621415210249
 31
0.0
  0
LINE
  5
65
330
1F
100
AcDbEntity
  8
1
  6
Continuous
 62
     3
100
AcDbLine
 10
-28.2451678964045
 20
-14.3229864574449
 30
0.0
 11
-22.49990227462229
 21
-7.8094375651433
 31
0.0
  0
LINE
  5
66
330
1F
100
AcDbEntity
  8
1
  6
Continuous
 62
     3
100
AcDbLine
 10
-19.0
 20
-9.1324240225883
 30
0.0
 11
-19.0
 21
-17.00000312072591
 31
0.0
  0
LINE
  5
67
330
1F
100
AcDbEntity
  8
1
  6
Continuous
 62
     3
100
AcDbLine
 10
19.0
 20
17.00000201434781
 30
0.0
 11
19.0
 21
9.1324240225884
 31
0.0
  0
LINE
  5
68
330
1F
100
AcDbEntity
  8
1
  6
Continuous
 62
     3
100
AcDbLine
 10
22.49990227462229
 20
7.80943756514341
 30
0.0
 11
28.24516789640427
 21
14.32298645744501
 31
0.0
  0
LINE
  5
69
330
1F
100
AcDbEntity
  8
0
  6
Continuous
 62
     3
100
AcDbLine
 10
28.84232663365117
 20
15.00000000000011
 30
0.0
 11
20.99999837403482
 21
15.00000000000011
 31
0.0
  0
LINE
  5
6A
330
1F
100
AcDbEntity
  8
1
  6
Continuous
 62
     3
100
AcDbLine
 10
29.74507017102667
 20
15.00000000000011
 30
0.0
 11
28.84232663365117
 21
15.00000000000011
 31
0.0
  0
LINE
  5
6B
330
1F
100
AcDbEntity
  8
0
  6
Continuous
 62
     3
100
AcDbLine
 10
-28.84232663365128
 20
-14.9999999999999
 30
0.0
 11
-20.99999815684475
 21
-14.9999999999999
 31
0.0
  0
LINE
  5
6C
330
1F
100
AcDbEntity
  8
1
  6
Continuous
 62
     3
100
AcDbLine
 10
-29.74507017102678
 20
-14.9999999999999
 30
0.0
 11
-28.84232663365128
 21
-14.9999999999999
 31
0.0
  0
LINE
  5
6D
330
1F
100
AcDbEntity
  8
5
  6
Continuous
 62
     3
100
AcDbLine
 10
-19.50000000000011
 20
56.06698729810802
 30
0.0
 11
-18.75
 21
56.5000000000004
 31
0.0
  0
LINE
  5
6E
330
1F
100
AcDbEntity
  8
5
  6
Continuous
 62
     3
100
AcDbLine
 10
18.75
 20
56.5000000000004
 30
0.0
 11
19.50000000000011
 21
56.06698729810805
 31
0.0
  0
LINE
  5
6F
330
1F
100
AcDbEntity
  8
1
  6
DOT_CENTER
 62
     1
100
AcDbLine
 10
-56.0
 20
0.0
 30
0.0
 11
56.0
 21
0.0
 31
0.0
  0
LINE
  5
70
330
1F
100
AcDbEntity
  8
1
  6
DOT_CENTER
 62
     1
100
AcDbLine
 10
0.0
 20
-71.99999448787605
 30
0.0
 11
0.0
 21
140.5000000000005
 31
0.0
  0
LINE
  5
71
330
1F
100
AcDbEntity
  8
0
  6
Continuous
 62
     3
100
AcDbLine
 10
18.75
 20
56.5000000000004
 30
0.0
 11
-18.75
 21
56.5000000000004
 31
0.0
  0
LINE
  5
72
330
1F
100
AcDbEntity
  8
0
  6
Continuous
 62
     3
100
AcDbLine
 10
20.5
 20
29.93137754961434
 30
0.0
 11
20.5
 21
54.33493649053924
 31
0.0
  0
LINE
  5
73
330
1F
100
AcDbEntity
  8
0
  6
Continuous
 62
     3
100
AcDbLine
 10
-18.56979899340502
 20
27.93259589557616
 30
0.0
 11
-17.89530150989253
 21
27.90904192443165
 31
0.0
  0
LINE
  5
74
330
1F
100
AcDbEntity
  8
0
  6
Continuous
 62
     3
100
AcDbLine
 10
18.56979899340502
 20
27.93259589557616
 30
0.0
 11
17.89530150989242
 21
27.90904192443165
 31
0.0
  0
LINE
  5
75
330
1F
100
AcDbEntity
  8
0
  6
Continuous
 62
     3
100
AcDbLine
 10
-17.89530150989253
 20
27.90904192443165
 30
0.0
 11
17.89530150989242
 21
27.90904192443165
 31
0.0
  0
LINE
  5
76
330
1F
100
AcDbEntity
  8
2
  6
Continuous
 62
     3
100
AcDbLine
 10
-4.75
 20
117.5000000000005
 30
0.0
 11
-4.75
 21
99.49999919160058
 31
0.0
  0
LINE
  5
77
330
1F
100
AcDbEntity
  8
2
  6
Continuous
 62
     3
100
AcDbLine
 10
4.75
 20
99.49999919160058
 30
0.0
 11
4.75
 21
117.5000000000005
 31
0.0
  0
LINE
  5
78
330
1F
100
AcDbEntity
  8
1
  6
Continuous
 62
     3
100
AcDbLine
 10
-19.99999962400034
 20
57.49999998120019
 30
0.0
 11
-18.99999964280005
 21
56.5000000000004
 31
0.0
  0
LINE
  5
79
330
1F
100
AcDbEntity
  8
1
  6
Continuous
 62
     3
100
AcDbLine
 10
-19.99999962400034
 20
58.858983804273
 30
0.0
 11
-19.99999962400034
 21
57.49999998120019
 31
0.0
  0
LINE
  5
7A
330
1F
100
AcDbEntity
  8
1
  6
Continuous
 62
     3
100
AcDbLine
 10
-18.47520826673417
 20
74.4999996616001
 30
0.0
 11
-18.47520826673417
 21
61.4999999060005
 31
0.0
  0
LINE
  5
7B
330
1F
100
AcDbEntity
  8
1
  6
Continuous
 62
     3
100
AcDbLine
 10
-9.99999981200017
 20
97.4999992292
 30
0.0
 11
-9.99999981200017
 21
81.0341331574013
 31
0.0
  0
LINE
  5
7C
330
1F
100
AcDbEntity
  8
1
  6
Continuous
 62
     3
100
AcDbLine
 10
7.99999984959959
 20
99.49999919160058
 30
0.0
 11
-7.99999984960004
 21
99.49999919160058
 31
0.0
  0
LINE
  5
7D
330
1F
100
AcDbEntity
  8
1
  6
Continuous
 62
     3
100
AcDbLine
 10
9.99999981199971
 20
81.0341331574013
 30
0.0
 11
9.99999981199971
 21
97.4999992292
 31
0.0
  0
LINE
  5
7E
330
1F
100
AcDbEntity
  8
1
  6
Continuous
 62
     3
100
AcDbLine
 10
18.47520826673372
 20
74.4999996616001
 30
0.0
 11
13.33157269520825
 21
76.3207107988996
 31
0.0
  0
LINE
  5
7F
330
1F
100
AcDbEntity
  8
1
  6
Continuous
 62
     3
100
AcDbLine
 10
18.47520826673372
 20
61.4999999060005
 30
0.0
 11
18.47520826673372
 21
74.4999996616001
 31
0.0
  0
LINE
  5
80
330
1F
100
AcDbEntity
  8
1
  6
Continuous
 62
     3
100
AcDbLine
 10
19.99999962399988
 20
57.49999998120019
 30
0.0
 11
19.99999962399988
 21
58.858983804273
 31
0.0
  0
LINE
  5
81
330
1F
100
AcDbEntity
  8
1
  6
Continuous
 62
     3
100
AcDbLine
 10
18.99999964279959
 20
56.5000000000004
 30
0.0
 11
19.99999962399988
 21
57.49999998120019
 31
0.0
  0
LINE
  5
82
330
1F
100
AcDbEntity
  8
1
  6
Continuous
 62
     3
100
AcDbLine
 10
0.0
 20
56.5000000000004
 30
0.0
 11
18.99999964279959
 21
56.5000000000004
 31
0.0
  0
LINE
  5
83
330
1F
100
AcDbEntity
  8
1
  6
Continuous
 62
     3
100
AcDbLine
 10
-18.99999964280005
 20
56.5000000000004
 30
0.0
 11
0.0
 21
56.5000000000004
 31
0.0
  0
LINE
  5
84
330
1F
100
AcDbEntity
  8
1
  6
Continuous
 62
     3
100
AcDbLine
 10
-13.33157269520871
 20
76.3207107989005
 30
0.0
 11
-18.47520826673417
 21
74.4999996616001
 31
0.0
  0
LINE
  5
85
330
1F
100
AcDbEntity
  8
1
  6
Continuous
 62
     3
100
AcDbLine
 10
18.47520826673372
 20
61.4999999060005
 30
0.0
 11
-18.52479173326628
 21
61.4999999060005
 31
0.0
  0
LINE
  5
86
330
1F
100
AcDbEntity
  8
1
  6
Continuous
 62
     3
100
AcDbLine
 10
19.99999962399988
 20
57.49999998120019
 30
0.0
 11
-20.00000037600012
 21
57.49999998120019
 31
0.0
  0
LINE
  5
87
330
1F
100
AcDbEntity
  8
1
  6
Continuous
 62
     3
100
AcDbLine
 10
9.23760413336686
 20
74.4999996616001
 30
0.0
 11
9.23760413336686
 21
61.4999999060005
 31
0.0
  0
LINE
  5
88
330
1F
100
AcDbEntity
  8
1
  6
Continuous
 62
     3
100
AcDbLine
 10
-9.23760413336731
 20
74.4999996616001
 30
0.0
 11
-9.23760413336731
 21
61.4999999060005
 31
0.0
  0
LINE
  5
91
330
1F
100
AcDbEntity
  8
3
  6
PHANTOM
 62
     4
100
AcDbLine
 10
-31.0
 20
107.0000000000005
 30
0.0
 11
-31.0
 21
115.0447385184645
 31
0.0
  0
LINE
  5
92
330
1F
100
AcDbEntity
  8
3
  6
PHANTOM
 62
     4
100
AcDbLine
 10
-26.74401730776845
 20
120.7856795241006
 30
0.0
 11
-13.22667387823674
 21
124.8920587523506
 31
0.0
  0
LINE
  5
93
330
1F
100
AcDbEntity
  8
3
  6
Continuous
 62
     3
100
AcDbLine
 10
-31.0
 20
119.5000000000005
 30
0.0
 11
-31.0
 21
127.5447385184645
 31
0.0
  0
LINE
  5
94
330
1F
100
AcDbEntity
  8
3
  6
Continuous
 62
     3
100
AcDbLine
 10
-26.74401730776822
 20
133.2856795241006
 30
0.0
 11
-13.22667387823674
 21
137.3920587523506
 31
0.0
  0
LINE
  5
95
330
1F
100
AcDbEntity
  8
3
  6
PHANTOM
 62
     4
100
AcDbLine
 10
12.49999999999943
 20
125.0000000000005
 30
0.0
 11
-12.5
 21
125.0000000000005
 31
0.0
  0
LINE
  5
96
330
1F
100
AcDbEntity
  8
3
  6
PHANTOM
 62
     4
100
AcDbLine
 10
26.74401730776742
 20
120.7856795241006
 30
0.0
 11
13.22667387823742
 21
124.8920587523506
 31
0.0
  0
LINE
  5
97
330
1F
100
AcDbEntity
  8
3
  6
PHANTOM
 62
     4
100
AcDbLine
 10
30.99999999999943
 20
107.0000000000005
 30
0.0
 11
30.99999999999943
 21
115.0447385184645
 31
0.0
  0
LINE
  5
98
330
1F
100
AcDbEntity
  8
3
  6
PHANTOM
 62
     4
100
AcDbLine
 10
-29.0
 20
105.0000000000005
 30
0.0
 11
28.99999999999943
 21
105.0000000000005
 31
0.0
  0
LINE
  5
99
330
1F
100
AcDbEntity
  8
3
  6
Continuous
 62
     3
100
AcDbLine
 10
12.49999999999943
 20
137.5000000000005
 30
0.0
 11
-12.87135381800556
 21
137.5000000000005
 31
0.0
  0
LINE
  5
9A
330
1F
100
AcDbEntity
  8
3
  6
Continuous
 62
     3
100
AcDbLine
 10
26.74401730776742
 20
133.2856795241006
 30
0.0
 11
13.22667387823742
 21
137.3920587523506
 31
0.0
  0
LINE
  5
9B
330
1F
100
AcDbEntity
  8
3
  6
Continuous
 62
     3
100
AcDbLine
 10
30.99999999999943
 20
119.5000000000005
 30
0.0
 11
30.99999999999943
 21
127.5447385184645
 31
0.0
  0
LINE
  5
9C
330
1F
100
AcDbEntity
  8
3
  6
Continuous
 62
     3
100
AcDbLine
 10
-29.0
 20
117.5000000000005
 30
0.0
 11
28.99999999999943
 21
117.5000000000005
 31
0.0
  0
LINE
  5
9D
330
1F
100
AcDbEntity
  8
0
  6
Continuous
 62
     3
100
AcDbLine
 10
-50.0
 20
-17.0
 30
0.0
 11
-50.0
 21
17.0
 31
0.0
  0
LINE
  5
9E
330
1F
100
AcDbEntity
  8
0
  6
Continuous
 62
     3
100
AcDbLine
 10
-35.70000000000005
 20
18.50000000000011
 30
0.0
 11
-49.13397459621547
 21
18.5
 31
0.0
  0
LINE
  5
9F
330
1F
100
AcDbEntity
  8
1
  6
Continuous
 62
     3
100
AcDbLine
 10
-50.0
 20
17.0
 30
0.0
 11
-49.13397459621547
 21
18.5
 31
0.0
  0
LINE
  5
A0
330
1F
100
AcDbEntity
  8
1
  6
Continuous
 62
     3
100
AcDbLine
 10
-50.0
 20
-17.0
 30
0.0
 11
-49.13397459621547
 21
-18.5
 31
0.0
  0
LINE
  5
A1
330
1F
100
AcDbEntity
  8
0
  6
Continuous
 62
     3
100
AcDbLine
 10
-35.70000000000005
 20
-18.4999999999999
 30
0.0
 11
-49.13397459621547
 21
-18.5
 31
0.0
  0
LINE
  5
A2
330
1F
100
AcDbEntity
  8
1
  6
Continuous
 62
     3
100
AcDbLine
 10
-49.13397459621547
 20
18.5
 30
0.0
 11
-49.13397459621547
 21
18.15544456622766
 31
0.0
  0
LINE
  5
A3
330
1F
100
AcDbEntity
  8
1
  6
Continuous
 62
     3
100
AcDbLine
 10
-49.13397459621547
 20
12.15544456622774
 30
0.0
 11
-49.13397459621547
 21
6.0
 31
0.0
  0
LINE
  5
A4
330
1F
100
AcDbEntity
  8
1
  6
Continuous
 62
     3
100
AcDbLine
 10
-49.13397459621547
 20
-6.0
 30
0.0
 11
-49.13397459621547
 21
-12.15544456622789
 31
0.0
  0
LINE
  5
A5
330
1F
100
AcDbEntity
  8
1
  6
Continuous
 62
     3
100
AcDbLine
 10
-49.13397459621547
 20
-18.15544456622764
 30
0.0
 11
-49.13397459621547
 21
-18.5
 31
0.0
  0
LINE
  5
A6
330
1F
100
AcDbEntity
  8
1
  6
Continuous
 62
     3
100
AcDbLine
 10
-49.13397459621547
 20
12.15544456622774
 30
0.0
 11
-35.70000000000005
 21
12.15544456622774
 31
0.0
  0
LINE
  5
A7
330
1F
100
AcDbEntity
  8
1
  6
Continuous
 62
     3
100
AcDbLine
 10
-35.70000000000005
 20
6.0
 30
0.0
 11
-49.13397459621547
 21
6.0
 31
0.0
  0
LINE
  5
A8
330
1F
100
AcDbEntity
  8
1
  6
Continuous
 62
     3
100
AcDbLine
 10
-49.13397459621547
 20
-6.0
 30
0.0
 11
-35.70000000000005
 21
-6.0
 31
0.0
  0
LINE
  5
A9
330
1F
100
AcDbEntity
  8
1
  6
Continuous
 62
     3
100
AcDbLine
 10
-35.70000000000005
 20
-12.15544456622789
 30
0.0
 11
-49.13397459621547
 21
-12.15544456622789
 31
0.0
  0
LINE
  5
AA
330
1F
100
AcDbEntity
  8
1
  6
Continuous
 62
     3
100
AcDbLine
 10
-49.13397459621547
 20
-18.15544456622764
 30
0.0
 11
-35.70000000000005
 21
-18.15544456622764
 31
0.0
  0
LINE
  5
AB
330
1F
100
AcDbEntity
  8
1
  6
Continuous
 62
     3
100
AcDbLine
 10
35.69999999999993
 20
-18.15544456622764
 30
0.0
 11
49.13397459621547
 21
-18.15544456622764
 31
0.0
  0
LINE
  5
AC
330
1F
100
AcDbEntity
  8
1
  6
Continuous
 62
     3
100
AcDbLine
 10
49.13397459621547
 20
-12.15544456622789
 30
0.0
 11
35.69999999999993
 21
-12.15544456622789
 31
0.0
  0
LINE
  5
AD
330
1F
100
AcDbEntity
  8
1
  6
Continuous
 62
     3
100
AcDbLine
 10
35.69999999999993
 20
-6.0
 30
0.0
 11
49.13397459621547
 21
-6.0
 31
0.0
  0
LINE
  5
AE
330
1F
100
AcDbEntity
  8
1
  6
Continuous
 62
     3
100
AcDbLine
 10
49.13397459621547
 20
6.0
 30
0.0
 11
35.69999999999993
 21
6.0
 31
0.0
  0
LINE
  5
AF
330
1F
100
AcDbEntity
  8
1
  6
Continuous
 62
     3
100
AcDbLine
 10
35.69999999999993
 20
12.15544456622774
 30
0.0
 11
49.13397459621547
 21
12.15544456622774
 31
0.0
  0
LINE
  5
B0
330
1F
100
AcDbEntity
  8
1
  6
Continuous
 62
     3
100
AcDbLine
 10
49.13397459621547
 20
-18.5
 30
0.0
 11
49.13397459621547
 21
-18.15544456622764
 31
0.0
  0
LINE
  5
B1
330
1F
100
AcDbEntity
  8
1
  6
Continuous
 62
     3
100
AcDbLine
 10
49.13397459621547
 20
-12.15544456622789
 30
0.0
 11
49.13397459621547
 21
-6.0
 31
0.0
  0
LINE
  5
B2
330
1F
100
AcDbEntity
  8
1
  6
Continuous
 62
     3
100
AcDbLine
 10
49.13397459621547
 20
6.0
 30
0.0
 11
49.13397459621547
 21
12.15544456622774
 31
0.0
  0
LINE
  5
B3
330
1F
100
AcDbEntity
  8
1
  6
Continuous
 62
     3
100
AcDbLine
 10
49.13397459621547
 20
18.15544456622766
 30
0.0
 11
49.13397459621547
 21
18.5
 31
0.0
  0
LINE
  5
B4
330
1F
100
AcDbEntity
  8
0
  6
Continuous
 62
     3
100
AcDbLine
 10
49.13397459621547
 20
-18.5
 30
0.0
 11
35.69999999999993
 21
-18.4999999999999
 31
0.0
  0
LINE
  5
B5
330
1F
100
AcDbEntity
  8
1
  6
Continuous
 62
     3
100
AcDbLine
 10
49.13397459621547
 20
-18.5
 30
0.0
 11
50.0
 21
-17.0
 31
0.0
  0
LINE
  5
B6
330
1F
100
AcDbEntity
  8
1
  6
Continuous
 62
     3
100
AcDbLine
 10
49.13397459621547
 20
18.5
 30
0.0
 11
50.0
 21
17.0
 31
0.0
  0
LINE
  5
B7
330
1F
100
AcDbEntity
  8
0
  6
Continuous
 62
     3
100
AcDbLine
 10
49.13397459621547
 20
18.5
 30
0.0
 11
35.69999999999993
 21
18.50000000000011
 31
0.0
  0
LINE
  5
B8
330
1F
100
AcDbEntity
  8
0
  6
Continuous
 62
     3
100
AcDbLine
 10
50.0
 20
17.0
 30
0.0
 11
50.0
 21
-17.0
 31
0.0
  0
LINE
  5
B9
330
1F
100
AcDbEntity
  8
1
  6
Continuous
 62
     3
100
AcDbLine
 10
49.13397459621547
 20
18.15544456622766
 30
0.0
 11
35.69999999999993
 21
18.15544456622766
 31
0.0
  0
LINE
  5
BA
330
1F
100
AcDbEntity
  8
1
  6
Continuous
 62
     3
100
AcDbLine
 10
-49.13397459621547
 20
18.15544456622766
 30
0.0
 11
-35.70000000000005
 21
18.15544456622766
 31
0.0
  0
LINE
  5
BB
330
1F
100
AcDbEntity
  8
1
  6
Continuous
 62
     3
100
AcDbLine
 10
16.74800000000097
 20
-37.64812532501139
 30
0.0
 11
18.00000000000097
 21
-38.90012532501135
 31
0.0
  0
LINE
  5
BC
330
1F
100
AcDbEntity
  8
1
  6
Continuous
 62
     3
100
AcDbLine
 10
15.11049885801533
 20
-36.74701925345653
 30
0.0
 11
14.99999999999997
 21
-36.62863460026938
 31
0.0
  0
LINE
  5
BD
330
1F
100
AcDbEntity
  8
0
  6
Continuous
 62
     3
100
AcDbLine
 10
18.00000000000097
 20
-39.50000022559813
 30
0.0
 11
18.00000000000097
 21
-38.90012532501135
 31
0.0
  0
LINE
  5
BE
330
1F
100
AcDbEntity
  8
1
  6
Continuous
 62
     3
100
AcDbLine
 10
-16.74800000000091
 20
-37.64812532501139
 30
0.0
 11
-18.00000000000091
 21
-38.90012532501135
 31
0.0
  0
LINE
  5
BF
330
1F
100
AcDbEntity
  8
1
  6
Continuous
 62
     3
100
AcDbLine
 10
-15.11049885801536
 20
-36.74701925345653
 30
0.0
 11
-15.0
 21
-36.62863460026938
 31
0.0
  0
LINE
  5
C0
330
1F
100
AcDbEntity
  8
0
  6
Continuous
 62
     3
100
AcDbLine
 10
-18.00000000000091
 20
-39.50000022559813
 30
0.0
 11
-18.00000000000091
 21
-38.90012532501135
 31
0.0
  0
LINE
  5
C1
330
1F
100
AcDbEntity
  8
1
  6
Continuous
 62
     1
100
AcDbLine
 10
16.91749999999996
 20
-37.81749999999687
 30
0.0
 11
16.91749999999996
 21
-39.50000022559813
 31
0.0
  0
LINE
  5
C2
330
1F
100
AcDbEntity
  8
1
  6
Continuous
 62
     1
100
AcDbLine
 10
-16.91750000000005
 20
-37.81749999999687
 30
0.0
 11
-16.91750000000005
 21
-39.50000022559813
 31
0.0
  0
LINE
  5
C3
330
1F
100
AcDbEntity
  8
1
  6
Continuous
 62
     1
100
AcDbLine
 10
156.9175126935459
 20
-37.8175442299644
 30
0.0
 11
156.917512693546
 21
-39.49999448787594
 31
0.0
  0
LINE
  5
C4
330
1F
100
AcDbEntity
  8
0
  6
Continuous
 62
     3
100
AcDbLine
 10
158.0000126935469
 20
-39.49999448787594
 30
0.0
 11
158.0000126935469
 21
-38.9001695549789
 31
0.0
  0
LINE
  5
C5
330
1F
100
AcDbEntity
  8
0
  6
Continuous
 62
     3
100
AcDbLine
 10
122.000012693545
 20
-39.49999448787594
 30
0.0
 11
122.000012693545
 21
-38.9001695549789
 31
0.0
  0
LINE
  5
C6
330
1F
100
AcDbEntity
  8
1
  6
Continuous
 62
     3
100
AcDbLine
 10
155.1105115515613
 20
-36.74706348342419
 30
0.0
 11
155.000012693546
 21
-36.62867883023691
 31
0.0
  0
LINE
  5
C7
330
1F
100
AcDbEntity
  8
1
  6
Continuous
 62
     3
100
AcDbLine
 10
124.8895138355306
 20
-36.74706348342419
 30
0.0
 11
125.000012693546
 21
-36.62867883023691
 31
0.0
  0
LINE
  5
C8
330
1F
100
AcDbEntity
  8
1
  6
Continuous
 62
     3
100
AcDbLine
 10
123.252012693545
 20
-37.64816955497881
 30
0.0
 11
122.000012693545
 21
-38.9001695549789
 31
0.0
  0
LINE
  5
C9
330
1F
100
AcDbEntity
  8
1
  6
Continuous
 62
     3
100
AcDbLine
 10
156.748012693547
 20
-37.64816955497881
 30
0.0
 11
158.0000126935469
 21
-38.9001695549789
 31
0.0
  0
LINE
  5
CA
330
1F
100
AcDbEntity
  8
1
  6
Continuous
 62
     3
100
AcDbLine
 10
159.500012693546
 20
56.06694306814071
 30
0.0
 11
158.750012693546
 21
56.4999557700331
 31
0.0
  0
LINE
  5
CB
330
1F
100
AcDbEntity
  8
0
  6
Continuous
 62
     3
100
AcDbLine
 10
154.500012693546
 20
-35.12867883023691
 30
0.0
 11
154.500012693546
 21
-31.54546377835109
 31
0.0
  0
LINE
  5
CC
330
1F
100
AcDbEntity
  8
0
  6
Continuous
 62
     3
100
AcDbLine
 10
125.500012693546
 20
-35.12867883023691
 30
0.0
 11
125.500012693546
 21
-31.5454646626825
 31
0.0
  0
LINE
  5
CD
330
1F
100
AcDbEntity
  8
0
  6
Continuous
 62
     3
100
AcDbLine
 10
155.000012693546
 20
24.8047619303559
 30
0.0
 11
155.000012693546
 21
25.39366960081022
 31
0.0
  0
LINE
  5
CE
330
1F
100
AcDbEntity
  8
0
  6
Continuous
 62
     3
100
AcDbLine
 10
157.4127639517898
 20
27.89214666835812
 30
0.0
 11
159.0523619385999
 21
27.9494026917145
 31
0.0
  0
LINE
  5
CF
330
1F
100
AcDbEntity
  8
0
  6
Continuous
 62
     3
100
AcDbLine
 10
159.0000393708228
 20
-24.67160036030279
 30
0.0
 11
159.000012693546
 21
18.1715119003679
 31
0.0
  0
LINE
  5
D0
330
1F
100
AcDbEntity
  8
0
  6
Continuous
 62
     3
100
AcDbLine
 10
160.500012693546
 20
54.33489226057181
 30
0.0
 11
160.500012693546
 21
29.44848893224312
 31
0.0
  0
LINE
  5
D1
330
1F
100
AcDbEntity
  8
0
  6
Continuous
 62
     3
100
AcDbLine
 10
122.5872614353023
 20
27.89214666835812
 30
0.0
 11
120.9476634484923
 21
27.9494026917145
 31
0.0
  0
LINE
  5
D2
330
1F
100
AcDbEntity
  8
0
  6
Continuous
 62
     3
100
AcDbLine
 10
119.500012693546
 20
54.33489226057181
 30
0.0
 11
119.500012693546
 21
29.44848893224312
 31
0.0
  0
LINE
  5
D3
330
1F
100
AcDbEntity
  8
0
  6
Continuous
 62
     3
100
AcDbLine
 10
121.000012693546
 20
-24.6716003470013
 30
0.0
 11
121.000012693546
 21
18.17151188706651
 31
0.0
  0
LINE
  5
D4
330
1F
100
AcDbEntity
  8
0
  6
Continuous
 62
     3
100
AcDbLine
 10
125.000012693546
 20
24.80476108040951
 30
0.0
 11
125.000012693546
 21
25.39366960081022
 31
0.0
  0
LINE
  5
D5
330
1F
100
AcDbEntity
  8
1
  6
DOT_CENTER
 62
     1
100
AcDbLine
 10
140.000012693546
 20
-52.50004422996535
 30
0.0
 11
140.000012693546
 21
59.4999557700331
 31
0.0
  0
LINE
  5
D6
330
1F
100
AcDbEntity
  8
1
  6
Continuous
 62
     1
100
AcDbLine
 10
156.917512693546
 20
-38.8175442299644
 30
0.0
 11
156.917512693546
 21
-39.49999448787594
 31
0.0
  0
LINE
  5
D7
330
1F
100
AcDbEntity
  8
1
  6
Continuous
 62
     1
100
AcDbLine
 10
123.082512693546
 20
-37.81766955497782
 30
0.0
 11
123.082512693546
 21
-39.49999448787594
 31
0.0
  0
LINE
  5
D8
330
1F
100
AcDbEntity
  8
1
  6
Continuous
 62
     3
100
AcDbLine
 10
121.250012693546
 20
56.4999557700331
 30
0.0
 11
120.500012693546
 21
56.06694306814071
 31
0.0
  0
LINE
  5
D9
330
1F
100
AcDbEntity
  8
1
  6
Continuous
 62
     3
100
AcDbLine
 10
140.000012693546
 20
56.4999557700331
 30
0.0
 11
158.750012693546
 21
56.4999557700331
 31
0.0
  0
LINE
  5
DA
330
1F
100
AcDbEntity
  8
1
  6
Continuous
 62
     3
100
AcDbLine
 10
140.000012693546
 20
56.4999557700331
 30
0.0
 11
121.250012693546
 21
56.4999557700331
 31
0.0
  0
LINE
  5
DB
330
1F
100
AcDbEntity
  8
1
  6
Continuous
 62
     3
100
AcDbLine
 10
160.0000123175459
 20
57.49999998120019
 30
0.0
 11
120.0000123175459
 21
57.49999998120019
 31
0.0
  0
LINE
  5
DC
330
1F
100
AcDbEntity
  8
1
  6
Continuous
 62
     3
100
AcDbLine
 10
158.4752209602797
 20
61.4999999060005
 30
0.0
 11
121.4752209602797
 21
61.4999999060005
 31
0.0
  0
LINE
  5
DD
330
1F
100
AcDbEntity
  8
1
  6
Continuous
 62
     3
100
AcDbLine
 10
126.6684399983373
 20
76.3207107989005
 30
0.0
 11
123.9999878789083
 21
75.3761492284632
 31
0.0
  0
LINE
  5
DE
330
1F
100
AcDbEntity
  8
1
  6
Continuous
 62
     3
100
AcDbLine
 10
160.0000123175459
 20
57.49999998120019
 30
0.0
 11
160.0000123175459
 21
58.858983804273
 31
0.0
  0
LINE
  5
DF
330
1F
100
AcDbEntity
  8
1
  6
Continuous
 62
     3
100
AcDbLine
 10
156.000012392746
 20
61.4999999060005
 30
0.0
 11
156.000012392746
 21
75.37615811866421
 31
0.0
  0
LINE
  5
E0
330
1F
100
AcDbEntity
  8
1
  6
Continuous
 62
     3
100
AcDbLine
 10
155.9999878789083
 20
75.37616679591528
 30
0.0
 11
153.3315853887543
 21
76.3207107988996
 31
0.0
  0
LINE
  5
E1
330
1F
100
AcDbEntity
  8
1
  6
Continuous
 62
     3
100
AcDbLine
 10
150.0000125055457
 20
81.0341331574013
 30
0.0
 11
150.0000125055457
 21
97.4999992292
 31
0.0
  0
LINE
  5
E2
330
1F
100
AcDbEntity
  8
1
  6
Continuous
 62
     3
100
AcDbLine
 10
148.0000125431456
 20
99.49999919160058
 30
0.0
 11
132.000012843946
 21
99.49999919160058
 31
0.0
  0
LINE
  5
E3
330
1F
100
AcDbEntity
  8
1
  6
Continuous
 62
     3
100
AcDbLine
 10
130.0000128815458
 20
97.4999992292
 30
0.0
 11
130.0000128815458
 21
81.0341331574013
 31
0.0
  0
LINE
  5
E4
330
1F
100
AcDbEntity
  8
1
  6
Continuous
 62
     3
100
AcDbLine
 10
123.9999878789083
 20
75.37615811866421
 30
0.0
 11
123.9999878789083
 21
61.4999999060005
 31
0.0
  0
LINE
  5
E5
330
1F
100
AcDbEntity
  8
1
  6
Continuous
 62
     3
100
AcDbLine
 10
120.0000130695457
 20
58.858983804273
 30
0.0
 11
120.0000130695457
 21
57.49999998120019
 31
0.0
  0
LINE
  5
E6
330
1F
100
AcDbEntity
  8
1
  6
Continuous
 62
     3
100
AcDbLine
 10
159.0000123363456
 20
56.5000000000004
 30
0.0
 11
160.0000123175459
 21
57.49999998120019
 31
0.0
  0
LINE
  5
E7
330
1F
100
AcDbEntity
  8
1
  6
Continuous
 62
     3
100
AcDbLine
 10
120.0000130695457
 20
57.49999998120019
 30
0.0
 11
121.000013050746
 21
56.5000000000004
 31
0.0
  0
LINE
  5
E8
330
1F
100
AcDbEntity
  8
1
  6
Continuous
 62
     3
100
AcDbLine
 10
121.000013050746
 20
56.5000000000004
 30
0.0
 11
140.000012693546
 21
56.5000000000004
 31
0.0
  0
LINE
  5
E9
330
1F
100
AcDbEntity
  8
1
  6
Continuous
 62
     3
100
AcDbLine
 10
140.000012693546
 20
56.5000000000004
 30
0.0
 11
159.0000123363456
 21
56.5000000000004
 31
0.0
  0
LINE
  5
EA
330
1F
100
AcDbEntity
  8
1
  6
Continuous
 62
     3
100
AcDbLine
 10
139.9999878789083
 20
74.4999996616001
 30
0.0
 11
139.9999878789083
 21
61.4999999060005
 31
0.0
  0
LINE
  5
EB
330
1F
100
AcDbEntity
  8
0
  6
Continuous
 62
     3
100
AcDbLine
 10
136.446152422713
 20
18.15545030394549
 30
0.0
 11
126.053847577183
 21
12.15545030387821
 31
0.0
  0
LINE
  5
EC
330
1F
100
AcDbEntity
  8
0
  6
Continuous
 62
     3
100
AcDbLine
 10
143.5538475773
 20
18.15545030394549
 30
0.0
 11
153.946152422713
 21
12.15545030394549
 31
0.0
  0
LINE
  5
ED
330
1F
100
AcDbEntity
  8
0
  6
Continuous
 62
     3
100
AcDbLine
 10
157.500000000007
 20
6.0000057377178
 30
0.0
 11
157.500000000007
 21
-5.9999942622822
 31
0.0
  0
LINE
  5
EE
330
1F
100
AcDbEntity
  8
0
  6
Continuous
 62
     3
100
AcDbLine
 10
153.946152422713
 20
-12.15543882850989
 30
0.0
 11
143.5538475773
 21
-18.15543882850989
 31
0.0
  0
LINE
  5
EF
330
1F
100
AcDbEntity
  8
0
  6
Continuous
 62
     3
100
AcDbLine
 10
126.0538475773
 20
-12.15543882850989
 30
0.0
 11
136.446152422713
 21
-18.15543882850989
 31
0.0
  0
LINE
  5
F0
330
1F
100
AcDbEntity
  8
0
  6
Continuous
 62
     3
100
AcDbLine
 10
122.500000000007
 20
6.0000057377178
 30
0.0
 11
122.5
 21
-5.99999426226282
 31
0.0
  0
LINE
  5
F1
330
1F
100
AcDbEntity
  8
1
  6
Continuous
 62
     3
100
AcDbLine
 10
159.500000000001
 20
-39.49999448787594
 30
0.0
 11
161.249999600501
 21
-40.5103572283063
 31
0.0
  0
LINE
  5
F2
330
1F
100
AcDbEntity
  8
1
  6
Continuous
 62
     3
100
AcDbLine
 10
158.249999679461
 20
-39.49999448787594
 30
0.0
 11
159.500000000001
 21
-39.49999448787594
 31
0.0
  0
LINE
  5
F3
330
1F
100
AcDbEntity
  8
1
  6
Continuous
 62
     3
100
AcDbLine
 10
118.750000399501
 20
-40.5103572283063
 30
0.0
 11
118.750000399501
 21
-53.52553013230784
 31
0.0
  0
LINE
  5
F4
330
1F
100
AcDbEntity
  8
1
  6
Continuous
 62
     3
100
AcDbLine
 10
161.249999600501
 20
-40.5103572283063
 30
0.0
 11
161.249999600501
 21
-53.52553013230784
 31
0.0
  0
LINE
  5
F5
330
1F
100
AcDbEntity
  8
1
  6
Continuous
 62
     3
100
AcDbLine
 10
120.500000000001
 20
-39.49999448787594
 30
0.0
 11
118.750000399501
 21
-40.5103572283063
 31
0.0
  0
LINE
  5
F6
330
1F
100
AcDbEntity
  8
1
  6
Continuous
 62
     3
100
AcDbLine
 10
120.500000000001
 20
-39.49999448787594
 30
0.0
 11
121.750000320541
 21
-39.49999448787594
 31
0.0
  0
LINE
  5
F7
330
1F
100
AcDbEntity
  8
1
  6
Continuous
 62
     3
100
AcDbLine
 10
140.000000000001
 20
-39.49999448787594
 30
0.0
 11
157.049999679461
 21
-39.49999448787594
 31
0.0
  0
LINE
  5
F8
330
1F
100
AcDbEntity
  8
1
  6
Continuous
 62
     3
100
AcDbLine
 10
157.049999679461
 20
-39.49999448787594
 30
0.0
 11
158.249999679461
 21
-39.49999448787594
 31
0.0
  0
LINE
  5
F9
330
1F
100
AcDbEntity
  8
1
  6
Continuous
 62
     3
100
AcDbLine
 10
122.950000320541
 20
-39.49999448787594
 30
0.0
 11
140.000000000001
 21
-39.49999448787594
 31
0.0
  0
LINE
  5
FA
330
1F
100
AcDbEntity
  8
1
  6
Continuous
 62
     3
100
AcDbLine
 10
121.750000320541
 20
-39.49999448787594
 30
0.0
 11
122.950000320541
 21
-39.49999448787594
 31
0.0
  0
LINE
  5
FB
330
1F
100
AcDbEntity
  8
1
  6
Continuous
 62
     3
100
AcDbLine
 10
153.500000000001
 20
-67.99999448787605
 30
0.0
 11
153.500000000001
 21
-57.99999448787605
 31
0.0
  0
LINE
  5
FC
330
1F
100
AcDbEntity
  8
1
  6
Continuous
 62
     3
100
AcDbLine
 10
153.500000000001
 20
-57.99999448787605
 30
0.0
 11
161.249999600501
 21
-53.52553013230784
 31
0.0
  0
LINE
  5
FD
330
1F
100
AcDbEntity
  8
1
  6
Continuous
 62
     3
100
AcDbLine
 10
153.500000000001
 20
-67.99999448787605
 30
0.0
 11
152.500000000001
 21
-68.99999448787605
 31
0.0
  0
LINE
  5
FE
330
1F
100
AcDbEntity
  8
1
  6
Continuous
 62
     3
100
AcDbLine
 10
126.500000000001
 20
-57.99999448787605
 30
0.0
 11
126.500000000001
 21
-67.99999448787605
 31
0.0
  0
LINE
  5
FF
330
1F
100
AcDbEntity
  8
1
  6
Continuous
 62
     3
100
AcDbLine
 10
118.750000399501
 20
-53.52553013230784
 30
0.0
 11
126.500000000001
 21
-57.99999448787605
 31
0.0
  0
LINE
  5
100
330
1F
100
AcDbEntity
  8
1
  6
Continuous
 62
     3
100
AcDbLine
 10
126.500000000001
 20
-67.99999448787605
 30
0.0
 11
127.500000000001
 21
-68.99999448787605
 31
0.0
  0
LINE
  5
101
330
1F
100
AcDbEntity
  8
1
  6
Continuous
 62
     3
100
AcDbLine
 10
143.27472649515
 20
-40.5103572283063
 30
0.0
 11
143.27472649515
 21
-53.52553013230784
 31
0.0
  0
LINE
  5
102
330
1F
100
AcDbEntity
  8
1
  6
Continuous
 62
     3
100
AcDbLine
 10
136.72527350485
 20
-40.5103572283063
 30
0.0
 11
136.72527350485
 21
-53.52553013230784
 31
0.0
  0
LINE
  5
103
330
1F
100
AcDbEntity
  8
1
  6
Continuous
 62
     3
100
AcDbLine
 10
122.363867158499
 20
-40.5103572283063
 30
0.0
 11
122.363867158499
 21
-53.52553013230784
 31
0.0
  0
LINE
  5
104
330
1F
100
AcDbEntity
  8
1
  6
Continuous
 62
     3
100
AcDbLine
 10
118.750000399501
 20
-40.5103572283063
 30
0.0
 11
119.08914066335
 21
-40.5103572283063
 31
0.0
  0
LINE
  5
105
330
1F
100
AcDbEntity
  8
1
  6
Continuous
 62
     3
100
AcDbLine
 10
136.72527350485
 20
-40.5103572283063
 30
0.0
 11
143.27472649515
 21
-40.5103572283063
 31
0.0
  0
LINE
  5
106
330
1F
100
AcDbEntity
  8
1
  6
Continuous
 62
     3
100
AcDbLine
 10
160.962262947545
 20
-40.5103572283063
 30
0.0
 11
161.249999600501
 21
-40.5103572283063
 31
0.0
  0
LINE
  5
107
330
1F
100
AcDbEntity
  8
1
  6
Continuous
 62
     3
100
AcDbLine
 10
161.249999600501
 20
-53.52553013230784
 30
0.0
 11
160.962262947545
 21
-53.52553013230784
 31
0.0
  0
LINE
  5
108
330
1F
100
AcDbEntity
  8
1
  6
Continuous
 62
     3
100
AcDbLine
 10
118.750000399501
 20
-53.52553013230784
 30
0.0
 11
122.363867158499
 21
-53.52553013230784
 31
0.0
  0
LINE
  5
109
330
1F
100
AcDbEntity
  8
1
  6
Continuous
 62
     3
100
AcDbLine
 10
143.27472649515
 20
-53.52553013230784
 30
0.0
 11
136.72527350485
 21
-53.52553013230784
 31
0.0
  0
LINE
  5
10A
330
1F
100
AcDbEntity
  8
1
  6
Continuous
 62
     3
100
AcDbLine
 10
119.08914066335
 20
-53.52553013230784
 30
0.0
 11
118.750000399501
 21
-53.52553013230784
 31
0.0
  0
LINE
  5
10B
330
1F
100
AcDbEntity
  8
1
  6
Continuous
 62
     3
100
AcDbLine
 10
126.500000000001
 20
-57.99999448787605
 30
0.0
 11
153.500000000001
 21
-57.99999448787605
 31
0.0
  0
LINE
  5
10C
330
1F
100
AcDbEntity
  8
1
  6
Continuous
 62
     3
100
AcDbLine
 10
153.500000000001
 20
-67.99999448787605
 30
0.0
 11
126.500000000001
 21
-67.99999448787605
 31
0.0
  0
LINE
  5
10D
330
1F
100
AcDbEntity
  8
1
  6
Continuous
 62
     3
100
AcDbLine
 10
152.500000000001
 20
-68.99999448787605
 30
0.0
 11
127.500000000001
 21
-68.99999448787605
 31
0.0
  0
LINE
  5
10E
330
1F
100
AcDbEntity
  8
1
  6
Continuous
 62
     3
100
AcDbLine
 10
122.363867158499
 20
-40.5103572283063
 30
0.0
 11
118.750000399501
 21
-40.5103572283063
 31
0.0
  0
LINE
  5
10F
330
1F
100
AcDbEntity
  8
1
  6
Continuous
 62
     3
100
AcDbLine
 10
157.636132841501
 20
-53.52553013230784
 30
0.0
 11
157.636132841501
 21
-40.5103572283063
 31
0.0
  0
LINE
  5
110
330
1F
100
AcDbEntity
  8
1
  6
Continuous
 62
     3
100
AcDbLine
 10
161.249999600501
 20
-40.5103572283063
 30
0.0
 11
157.636132841501
 21
-40.5103572283063
 31
0.0
  0
LINE
  5
111
330
1F
100
AcDbEntity
  8
1
  6
Continuous
 62
     3
100
AcDbLine
 10
157.636132841501
 20
-53.52553013230784
 30
0.0
 11
161.249999600501
 21
-53.52553013230784
 31
0.0
  0
LINE
  5
112
330
1F
100
AcDbEntity
  8
1
  6
Continuous
 62
     3
100
AcDbLine
 10
12.50000000000057
 20
-69.00000022559816
 30
0.0
 11
-12.49999999999943
 21
-69.00000022559816
 31
0.0
  0
LINE
  5
113
330
1F
100
AcDbEntity
  8
1
  6
Continuous
 62
     3
100
AcDbLine
 10
13.50000000000057
 20
-68.00000022559816
 30
0.0
 11
-13.49999999999943
 21
-68.00000022559816
 31
0.0
  0
LINE
  5
114
330
1F
100
AcDbEntity
  8
1
  6
Continuous
 62
     3
100
AcDbLine
 10
-13.49999999999943
 20
-58.00000022559816
 30
0.0
 11
13.50000000000057
 21
-58.00000022559816
 31
0.0
  0
LINE
  5
115
330
1F
100
AcDbEntity
  8
1
  6
Continuous
 62
     3
100
AcDbLine
 10
-20.9108593366503
 20
-53.52553587003003
 30
0.0
 11
-21.24999960049931
 21
-53.52553587003003
 31
0.0
  0
LINE
  5
116
330
1F
100
AcDbEntity
  8
1
  6
Continuous
 62
     3
100
AcDbLine
 10
13.73015616347601
 20
-53.52553587003003
 30
0.0
 11
7.1807031731762
 21
-53.52553587003003
 31
0.0
  0
LINE
  5
117
330
1F
100
AcDbEntity
  8
1
  6
Continuous
 62
     3
100
AcDbLine
 10
-13.73015616347482
 20
-53.52553587003003
 30
0.0
 11
-7.18070317317532
 21
-53.52553587003003
 31
0.0
  0
LINE
  5
118
330
1F
100
AcDbEntity
  8
1
  6
Continuous
 62
     3
100
AcDbLine
 10
21.24999960050047
 20
-53.52553587003003
 30
0.0
 11
20.9622629475449
 21
-53.52553587003003
 31
0.0
  0
LINE
  5
119
330
1F
100
AcDbEntity
  8
1
  6
Continuous
 62
     3
100
AcDbLine
 10
20.9622629475449
 20
-40.51036296602852
 30
0.0
 11
21.24999960050047
 21
-40.51036296602852
 31
0.0
  0
LINE
  5
11A
330
1F
100
AcDbEntity
  8
1
  6
Continuous
 62
     3
100
AcDbLine
 10
-7.18070317317532
 20
-40.51036296602852
 30
0.0
 11
-13.73015616347482
 21
-40.51036296602852
 31
0.0
  0
LINE
  5
11B
330
1F
100
AcDbEntity
  8
1
  6
Continuous
 62
     3
100
AcDbLine
 10
7.1807031731762
 20
-40.51036296602852
 30
0.0
 11
13.73015616347601
 21
-40.51036296602852
 31
0.0
  0
LINE
  5
11C
330
1F
100
AcDbEntity
  8
1
  6
Continuous
 62
     3
100
AcDbLine
 10
-21.24999960049931
 20
-40.51036296602852
 30
0.0
 11
-20.9108593366503
 21
-40.51036296602852
 31
0.0
  0
LINE
  5
11D
330
1F
100
AcDbEntity
  8
1
  6
Continuous
 62
     3
100
AcDbLine
 10
20.9622629475449
 20
-40.51036296602852
 30
0.0
 11
20.9622629475449
 21
-53.52553587003003
 31
0.0
  0
LINE
  5
11E
330
1F
100
AcDbEntity
  8
1
  6
Continuous
 62
     3
100
AcDbLine
 10
-20.9108593366503
 20
-40.51036296602852
 30
0.0
 11
-20.9108593366503
 21
-53.52553587003003
 31
0.0
  0
LINE
  5
11F
330
1F
100
AcDbEntity
  8
1
  6
Continuous
 62
     3
100
AcDbLine
 10
-13.73015616347482
 20
-40.51036296602852
 30
0.0
 11
-13.73015616347482
 21
-53.52553587003003
 31
0.0
  0
LINE
  5
120
330
1F
100
AcDbEntity
  8
1
  6
Continuous
 62
     3
100
AcDbLine
 10
-7.18070317317532
 20
-40.51036296602852
 30
0.0
 11
-7.18070317317532
 21
-53.52553587003003
 31
0.0
  0
LINE
  5
121
330
1F
100
AcDbEntity
  8
1
  6
Continuous
 62
     3
100
AcDbLine
 10
7.1807031731762
 20
-40.51036296602852
 30
0.0
 11
7.1807031731762
 21
-53.52553587003003
 31
0.0
  0
LINE
  5
122
330
1F
100
AcDbEntity
  8
1
  6
Continuous
 62
     3
100
AcDbLine
 10
13.73015616347601
 20
-40.51036296602852
 30
0.0
 11
13.73015616347601
 21
-53.52553587003003
 31
0.0
  0
LINE
  5
123
330
1F
100
AcDbEntity
  8
1
  6
Continuous
 62
     3
100
AcDbLine
 10
-13.49999999999943
 20
-68.00000022559816
 30
0.0
 11
-12.49999999999943
 21
-69.00000022559816
 31
0.0
  0
LINE
  5
124
330
1F
100
AcDbEntity
  8
1
  6
Continuous
 62
     3
100
AcDbLine
 10
-21.24999960049931
 20
-53.52553587003003
 30
0.0
 11
-13.49999999999943
 21
-58.00000022559816
 31
0.0
  0
LINE
  5
125
330
1F
100
AcDbEntity
  8
1
  6
Continuous
 62
     3
100
AcDbLine
 10
-13.49999999999943
 20
-58.00000022559816
 30
0.0
 11
-13.49999999999943
 21
-68.00000022559816
 31
0.0
  0
LINE
  5
126
330
1F
100
AcDbEntity
  8
1
  6
Continuous
 62
     3
100
AcDbLine
 10
13.50000000000057
 20
-68.00000022559816
 30
0.0
 11
12.50000000000057
 21
-69.00000022559816
 31
0.0
  0
LINE
  5
127
330
1F
100
AcDbEntity
  8
1
  6
Continuous
 62
     3
100
AcDbLine
 10
13.50000000000057
 20
-58.00000022559816
 30
0.0
 11
21.24999960050047
 21
-53.52553587003003
 31
0.0
  0
LINE
  5
128
330
1F
100
AcDbEntity
  8
1
  6
Continuous
 62
     3
100
AcDbLine
 10
13.50000000000057
 20
-68.00000022559816
 30
0.0
 11
13.50000000000057
 21
-58.00000022559816
 31
0.0
  0
LINE
  5
129
330
1F
100
AcDbEntity
  8
1
  6
Continuous
 62
     3
100
AcDbLine
 10
-18.24999967945908
 20
-39.50000022559813
 30
0.0
 11
-17.04999967945912
 21
-39.50000022559813
 31
0.0
  0
LINE
  5
12A
330
1F
100
AcDbEntity
  8
1
  6
Continuous
 62
     3
100
AcDbLine
 10
-17.04999967945912
 20
-39.50000022559813
 30
0.0
 11
0.00000000000057
 21
-39.50000022559813
 31
0.0
  0
LINE
  5
12B
330
1F
100
AcDbEntity
  8
1
  6
Continuous
 62
     3
100
AcDbLine
 10
17.04999967946077
 20
-39.50000022559813
 30
0.0
 11
18.24999967946076
 21
-39.50000022559813
 31
0.0
  0
LINE
  5
12C
330
1F
100
AcDbEntity
  8
1
  6
Continuous
 62
     3
100
AcDbLine
 10
0.00000000000057
 20
-39.50000022559813
 30
0.0
 11
17.04999967946077
 21
-39.50000022559813
 31
0.0
  0
LINE
  5
12D
330
1F
100
AcDbEntity
  8
1
  6
Continuous
 62
     3
100
AcDbLine
 10
-19.4999999999994
 20
-39.50000022559813
 30
0.0
 11
-18.24999967945908
 21
-39.50000022559813
 31
0.0
  0
LINE
  5
12E
330
1F
100
AcDbEntity
  8
1
  6
Continuous
 62
     3
100
AcDbLine
 10
-19.4999999999994
 20
-39.50000022559813
 30
0.0
 11
-21.24999960049931
 21
-40.51036296602852
 31
0.0
  0
LINE
  5
12F
330
1F
100
AcDbEntity
  8
1
  6
Continuous
 62
     3
100
AcDbLine
 10
21.24999960050047
 20
-40.51036296602852
 30
0.0
 11
21.24999960050047
 21
-53.52553587003003
 31
0.0
  0
LINE
  5
130
330
1F
100
AcDbEntity
  8
1
  6
Continuous
 62
     3
100
AcDbLine
 10
-21.24999960049931
 20
-40.51036296602852
 30
0.0
 11
-21.24999960049931
 21
-53.52553587003003
 31
0.0
  0
LINE
  5
131
330
1F
100
AcDbEntity
  8
1
  6
Continuous
 62
     3
100
AcDbLine
 10
18.24999967946076
 20
-39.50000022559813
 30
0.0
 11
19.50000000000057
 21
-39.50000022559813
 31
0.0
  0
LINE
  5
132
330
1F
100
AcDbEntity
  8
1
  6
Continuous
 62
     3
100
AcDbLine
 10
19.50000000000057
 20
-39.50000022559813
 30
0.0
 11
21.24999960050047
 21
-40.51036296602852
 31
0.0
  0
LINE
  5
133
330
1F
100
AcDbEntity
  8
3
  6
Continuous
 62
     3
100
AcDbLine
 10
111.0
 20
117.5000000000005
 30
0.0
 11
168.9999999999994
 21
117.5000000000005
 31
0.0
  0
LINE
  5
134
330
1F
100
AcDbEntity
  8
3
  6
Continuous
 62
     3
100
AcDbLine
 10
170.9999999999994
 20
119.5000000000005
 30
0.0
 11
170.9999999999994
 21
127.5447385184645
 31
0.0
  0
LINE
  5
135
330
1F
100
AcDbEntity
  8
3
  6
Continuous
 62
     3
100
AcDbLine
 10
166.7440173077674
 20
133.2856795241006
 30
0.0
 11
153.2266738782374
 21
137.3920587523506
 31
0.0
  0
LINE
  5
136
330
1F
100
AcDbEntity
  8
3
  6
Continuous
 62
     3
100
AcDbLine
 10
152.4999999999994
 20
137.5000000000005
 30
0.0
 11
127.1286461819944
 21
137.5000000000005
 31
0.0
  0
LINE
  5
137
330
1F
100
AcDbEntity
  8
3
  6
Continuous
 62
     3
100
AcDbLine
 10
113.2559826922318
 20
133.2856795241006
 30
0.0
 11
126.7733261217633
 21
137.3920587523506
 31
0.0
  0
LINE
  5
138
330
1F
100
AcDbEntity
  8
3
  6
Continuous
 62
     3
100
AcDbLine
 10
109.0
 20
119.5000000000005
 30
0.0
 11
109.0
 21
127.5447385184645
 31
0.0
  0
LINE
  5
141
330
1F
100
AcDbEntity
  8
1
  6
DOT_CENTER
 62
     1
100
AcDbLine
 10
140.0
 20
-71.99999448787605
 30
0.0
 11
140.0
 21
140.5000000000005
 31
0.0
  0
LINE
  5
142
330
1F
100
AcDbEntity
  8
2
  6
Continuous
 62
     3
100
AcDbLine
 10
144.75
 20
99.49999919160058
 30
0.0
 11
144.75
 21
117.5000000000005
 31
0.0
  0
LINE
  5
143
330
1F
100
AcDbEntity
  8
2
  6
Continuous
 62
     3
100
AcDbLine
 10
135.25
 20
117.5000000000005
 30
0.0
 11
135.25
 21
99.49999919160058
 31
0.0
  0
LINE
  5
144
330
1F
100
AcDbEntity
  8
0
  6
Continuous
 62
     3
100
AcDbLine
 10
-49.13397459621552
 20
210.0
 30
0.0
 11
-49.13397459621552
 21
213.553847577293
 31
0.0
  0
LINE
  5
145
330
1F
100
AcDbEntity
  8
0
  6
Continuous
 62
     3
100
AcDbLine
 10
-49.71132486540512
 20
227.5
 30
0.0
 11
-49.13397459621552
 21
227.5
 31
0.0
  0
LINE
  5
146
330
1F
100
AcDbEntity
  8
0
  6
Continuous
 62
     3
100
AcDbLine
 10
-49.71132486540512
 20
227.5
 30
0.0
 11
-50.0
 21
227.0
 31
0.0
  0
LINE
  5
147
330
1F
100
AcDbEntity
  8
0
  6
Continuous
 62
     3
100
AcDbLine
 10
-50.0
 20
227.0
 30
0.0
 11
-50.0
 21
210.0
 31
0.0
  0
LINE
  5
148
330
1F
100
AcDbEntity
  8
0
  6
Continuous
 62
     3
100
AcDbLine
 10
-35.70000000000005
 20
210.0
 30
0.0
 11
-35.69999999999993
 21
213.553847577293
 31
0.0
  0
LINE
  5
149
330
1F
100
AcDbEntity
  8
0
  6
Continuous
 62
     3
100
AcDbLine
 10
35.12264973081051
 20
227.5
 30
0.0
 11
34.25662432702598
 21
226.0
 31
0.0
  0
LINE
  5
14A
330
1F
100
AcDbEntity
  8
0
  6
Continuous
 62
     3
100
AcDbLine
 10
49.13397459621569
 20
227.5
 30
0.0
 11
49.71132486540529
 21
227.5
 31
0.0
  0
LINE
  5
14B
330
1F
100
AcDbEntity
  8
0
  6
Continuous
 62
     3
100
AcDbLine
 10
35.12264973081051
 20
227.5
 30
0.0
 11
35.7000000000001
 21
227.5
 31
0.0
  0
LINE
  5
14C
330
1F
100
AcDbEntity
  8
0
  6
Continuous
 62
     3
100
AcDbLine
 10
50.0
 20
210.0
 30
0.0
 11
50.0
 21
227.0
 31
0.0
  0
LINE
  5
14D
330
1F
100
AcDbEntity
  8
0
  6
Continuous
 62
     3
100
AcDbLine
 10
49.71132486540529
 20
227.5
 30
0.0
 11
50.0
 21
227.0
 31
0.0
  0
LINE
  5
14E
330
1F
100
AcDbEntity
  8
0
  6
Continuous
 62
     3
100
AcDbLine
 10
-29.52787219445702
 20
224.999999961551
 30
0.0
 11
-32.52457351945702
 21
225.0
 31
0.0
  0
LINE
  5
14F
330
1F
100
AcDbEntity
  8
0
  6
Continuous
 62
     3
100
AcDbLine
 10
-35.12264973081039
 20
227.5
 30
0.0
 11
-34.25662432702592
 21
226.0
 31
0.0
  0
LINE
  5
150
330
1F
100
AcDbEntity
  8
0
  6
Continuous
 62
     3
100
AcDbLine
 10
-35.69999999999993
 20
223.946152422707
 30
0.0
 11
-35.69999999999993
 21
227.5
 31
0.0
  0
LINE
  5
151
330
1F
100
AcDbEntity
  8
0
  6
Continuous
 62
     3
100
AcDbLine
 10
-35.69999999999993
 20
227.5
 30
0.0
 11
-35.12264973081039
 21
227.5
 31
0.0
  0
LINE
  5
152
330
1F
100
AcDbEntity
  8
0
  6
Continuous
 62
     3
100
AcDbLine
 10
-35.69999999999993
 20
223.946152422707
 30
0.0
 11
-49.13397459621649
 21
223.946152422702
 31
0.0
  0
LINE
  5
153
330
1F
100
AcDbEntity
  8
0
  6
Continuous
 62
     3
100
AcDbLine
 10
35.7000000000001
 20
213.553847577293
 30
0.0
 11
49.13397459621569
 21
213.553847577293
 31
0.0
  0
LINE
  5
154
330
1F
100
AcDbEntity
  8
0
  6
Continuous
 62
     3
100
AcDbLine
 10
-35.69999999999993
 20
213.553847577293
 30
0.0
 11
-49.13397459621552
 21
213.553847577293
 31
0.0
  0
LINE
  5
155
330
1F
100
AcDbEntity
  8
0
  6
Continuous
 62
     3
100
AcDbLine
 10
35.7000000000001
 20
213.553847577293
 30
0.0
 11
35.7000000000001
 21
210.0
 31
0.0
  0
LINE
  5
156
330
1F
100
AcDbEntity
  8
0
  6
Continuous
 62
     3
100
AcDbLine
 10
49.13397459621569
 20
213.553847577293
 30
0.0
 11
49.13397459621569
 21
210.0
 31
0.0
  0
LINE
  5
157
330
1F
100
AcDbEntity
  8
0
  6
Continuous
 62
     3
100
AcDbLine
 10
-35.69999999999993
 20
227.5
 30
0.0
 11
-49.13397459621552
 21
227.5
 31
0.0
  0
LINE
  5
158
330
1F
100
AcDbEntity
  8
0
  6
Continuous
 62
     3
100
AcDbLine
 10
-49.13397459621649
 20
223.946152422702
 30
0.0
 11
-49.13397459621552
 21
227.5
 31
0.0
  0
LINE
  5
159
330
1F
100
AcDbEntity
  8
0
  6
Continuous
 62
     3
100
AcDbLine
 10
35.7000000000001
 20
227.5
 30
0.0
 11
35.7000000000001
 21
223.946152422707
 31
0.0
  0
LINE
  5
15A
330
1F
100
AcDbEntity
  8
0
  6
Continuous
 62
     3
100
AcDbLine
 10
35.7000000000001
 20
227.5
 30
0.0
 11
49.13397459621569
 21
227.5
 31
0.0
  0
LINE
  5
15B
330
1F
100
AcDbEntity
  8
0
  6
Continuous
 62
     3
100
AcDbLine
 10
49.13397459621569
 20
227.5
 30
0.0
 11
49.13397459621558
 21
223.946152422707
 31
0.0
  0
LINE
  5
15C
330
1F
100
AcDbEntity
  8
0
  6
Continuous
 62
     3
100
AcDbLine
 10
35.7000000000001
 20
223.946152422707
 30
0.0
 11
49.13397459621558
 21
223.946152422707
 31
0.0
  0
LINE
  5
15D
330
1F
100
AcDbEntity
  8
0
  6
Continuous
 62
     3
100
AcDbLine
 10
29.21355796504309
 20
224.999999373269
 30
0.0
 11
32.52457351945708
 21
225.0
 31
0.0
  0
LINE
  5
15E
330
1F
100
AcDbEntity
  8
0
  6
DOT_CENTER
 62
     1
100
AcDbLine
 10
53.0
 20
210.0
 30
0.0
 11
-53.0
 21
210.0
 31
0.0
  0
LINE
  5
15F
330
1F
100
AcDbEntity
  8
0
  6
DOT_CENTER
 62
     1
100
AcDbLine
 10
0.0
 20
244.0
 30
0.0
 11
0.0
 21
176.0
 31
0.0
  0
LINE
  5
160
330
1F
100
AcDbEntity
  8
0
  6
Continuous
 62
     3
100
AcDbLine
 10
-49.13397459621552
 20
192.5
 30
0.0
 11
-49.13397459621649
 21
196.053847577298
 31
0.0
  0
LINE
  5
161
330
1F
100
AcDbEntity
  8
0
  6
Continuous
 62
     3
100
AcDbLine
 10
-49.13397459621552
 20
192.5
 30
0.0
 11
-35.69999999999993
 21
192.5
 31
0.0
  0
LINE
  5
162
330
1F
100
AcDbEntity
  8
0
  6
Continuous
 62
     3
100
AcDbLine
 10
-49.13397459621552
 20
206.446152422707
 30
0.0
 11
-35.69999999999993
 21
206.446152422707
 31
0.0
  0
LINE
  5
163
330
1F
100
AcDbEntity
  8
0
  6
Continuous
 62
     3
100
AcDbLine
 10
-49.13397459621649
 20
196.053847577298
 30
0.0
 11
-35.69999999999993
 21
196.053847577293
 31
0.0
  0
LINE
  5
164
330
1F
100
AcDbEntity
  8
0
  6
Continuous
 62
     3
100
AcDbLine
 10
-35.12264973081039
 20
192.5
 30
0.0
 11
-35.69999999999993
 21
192.5
 31
0.0
  0
LINE
  5
165
330
1F
100
AcDbEntity
  8
0
  6
Continuous
 62
     3
100
AcDbLine
 10
-35.69999999999993
 20
192.5
 30
0.0
 11
-35.69999999999993
 21
196.053847577293
 31
0.0
  0
LINE
  5
166
330
1F
100
AcDbEntity
  8
0
  6
Continuous
 62
     3
100
AcDbLine
 10
-34.25662432702592
 20
194.0
 30
0.0
 11
-35.12264973081039
 21
192.5
 31
0.0
  0
LINE
  5
167
330
1F
100
AcDbEntity
  8
0
  6
Continuous
 62
     3
100
AcDbLine
 10
-32.52457351945702
 20
195.0
 30
0.0
 11
-29.52787219445702
 21
195.00000003845
 31
0.0
  0
LINE
  5
168
330
1F
100
AcDbEntity
  8
0
  6
Continuous
 62
     3
100
AcDbLine
 10
-35.69999999999993
 20
206.446152422707
 30
0.0
 11
-35.70000000000005
 21
210.0
 31
0.0
  0
LINE
  5
169
330
1F
100
AcDbEntity
  8
0
  6
Continuous
 62
     3
100
AcDbLine
 10
-50.0
 20
210.0
 30
0.0
 11
-50.0
 21
193.0
 31
0.0
  0
LINE
  5
16A
330
1F
100
AcDbEntity
  8
0
  6
Continuous
 62
     3
100
AcDbLine
 10
-50.0
 20
193.0
 30
0.0
 11
-49.71132486540512
 21
192.5
 31
0.0
  0
LINE
  5
16B
330
1F
100
AcDbEntity
  8
0
  6
Continuous
 62
     3
100
AcDbLine
 10
-49.13397459621552
 20
192.5
 30
0.0
 11
-49.71132486540512
 21
192.5
 31
0.0
  0
LINE
  5
16C
330
1F
100
AcDbEntity
  8
0
  6
Continuous
 62
     3
100
AcDbLine
 10
-49.13397459621552
 20
206.446152422707
 30
0.0
 11
-49.13397459621552
 21
210.0
 31
0.0
  0
LINE
  5
16D
330
1F
100
AcDbEntity
  8
0
  6
Continuous
 62
     3
100
AcDbLine
 10
32.52457351945708
 20
195.0
 30
0.0
 11
29.21355796504309
 21
195.000000626731
 31
0.0
  0
LINE
  5
16E
330
1F
100
AcDbEntity
  8
0
  6
Continuous
 62
     3
100
AcDbLine
 10
49.13397459621558
 20
196.053847577293
 30
0.0
 11
35.7000000000001
 21
196.053847577293
 31
0.0
  0
LINE
  5
16F
330
1F
100
AcDbEntity
  8
0
  6
Continuous
 62
     3
100
AcDbLine
 10
49.13397459621558
 20
196.053847577293
 30
0.0
 11
49.13397459621569
 21
192.5
 31
0.0
  0
LINE
  5
170
330
1F
100
AcDbEntity
  8
0
  6
Continuous
 62
     3
100
AcDbLine
 10
49.13397459621569
 20
192.5
 30
0.0
 11
35.7000000000001
 21
192.5
 31
0.0
  0
LINE
  5
171
330
1F
100
AcDbEntity
  8
0
  6
Continuous
 62
     3
100
AcDbLine
 10
35.7000000000001
 20
196.053847577293
 30
0.0
 11
35.7000000000001
 21
192.5
 31
0.0
  0
LINE
  5
172
330
1F
100
AcDbEntity
  8
0
  6
Continuous
 62
     3
100
AcDbLine
 10
49.13397459621569
 20
210.0
 30
0.0
 11
49.13397459621569
 21
206.446152422707
 31
0.0
  0
LINE
  5
173
330
1F
100
AcDbEntity
  8
0
  6
Continuous
 62
     3
100
AcDbLine
 10
35.7000000000001
 20
210.0
 30
0.0
 11
35.7000000000001
 21
206.446152422707
 31
0.0
  0
LINE
  5
174
330
1F
100
AcDbEntity
  8
0
  6
Continuous
 62
     3
100
AcDbLine
 10
49.13397459621569
 20
206.446152422707
 30
0.0
 11
35.7000000000001
 21
206.446152422707
 31
0.0
  0
LINE
  5
175
330
1F
100
AcDbEntity
  8
0
  6
Continuous
 62
     3
100
AcDbLine
 10
50.0
 20
193.0
 30
0.0
 11
49.71132486540529
 21
192.5
 31
0.0
  0
LINE
  5
176
330
1F
100
AcDbEntity
  8
0
  6
Continuous
 62
     3
100
AcDbLine
 10
50.0
 20
193.0
 30
0.0
 11
50.0
 21
210.0
 31
0.0
  0
LINE
  5
177
330
1F
100
AcDbEntity
  8
0
  6
Continuous
 62
     3
100
AcDbLine
 10
35.7000000000001
 20
192.5
 30
0.0
 11
35.12264973081051
 21
192.5
 31
0.0
  0
LINE
  5
178
330
1F
100
AcDbEntity
  8
0
  6
Continuous
 62
     3
100
AcDbLine
 10
49.71132486540529
 20
192.5
 30
0.0
 11
49.13397459621569
 21
192.5
 31
0.0
  0
LINE
  5
179
330
1F
100
AcDbEntity
  8
0
  6
Continuous
 62
     3
100
AcDbLine
 10
34.25662432702598
 20
194.0
 30
0.0
 11
35.12264973081051
 21
192.5
 31
0.0
  0
LINE
  5
17A
330
1F
100
AcDbEntity
  8
1
  6
Continuous
 62
     3
100
AcDbLine
 10
122.5872614353023
 20
27.89214666835812
 30
0.0
 11
157.4127639517898
 21
27.89214666835812
 31
0.0
  0
LINE
  5
17B
330
1F
100
AcDbEntity
  8
1
  6
DOT_CENTER
 62
     1
100
AcDbLine
 10
118.000012693546
 20
0.00000573781608
 30
0.0
 11
162.0000240084645
 21
0.00000573781608
 31
0.0
  0
LINE
  5
17C
330
1F
100
AcDbEntity
  8
1
  6
Continuous
 62
     3
100
AcDbLine
 10
18.00000000000097
 20
-38.90012532501135
 30
0.0
 11
-18.00000000000091
 21
-38.90012532501135
 31
0.0
  0
LINE
  5
17D
330
1F
100
AcDbEntity
  8
1
  6
Continuous
 62
     3
100
AcDbLine
 10
-16.74812532501444
 20
-37.64812532501139
 30
0.0
 11
16.74812532501437
 21
-37.64812532501139
 31
0.0
  0
LINE
  5
17E
330
1F
100
AcDbEntity
  8
1
  6
Continuous
 62
     3
100
AcDbLine
 10
122.000012693545
 20
-38.9001695549789
 30
0.0
 11
158.0000126935469
 21
-38.9001695549789
 31
0.0
  0
LINE
  5
17F
330
1F
100
AcDbEntity
  8
1
  6
Continuous
 62
     3
100
AcDbLine
 10
156.748012693547
 20
-37.64816955497881
 30
0.0
 11
123.252012693545
 21
-37.64816955497881
 31
0.0
  0
LINE
  5
180
330
1F
100
AcDbEntity
  8
1
  6
Continuous
 62
     4
100
AcDbLine
 10
-71.0
 20
-6.0
 30
0.0
 11
-71.0
 21
-4.6
 31
0.0
  0
LINE
  5
181
330
1F
100
AcDbEntity
  8
1
  6
Continuous
 62
     4
100
AcDbLine
 10
-71.0
 20
-3.0
 30
0.0
 11
-69.8529411764706
 21
-3.0
 31
0.0
  0
LINE
  5
182
330
1F
100
AcDbEntity
  8
1
  6
Continuous
 62
     4
100
AcDbLine
 10
-69.8529411764706
 20
-3.0
 30
0.0
 11
-69.5
 21
-3.2
 31
0.0
  0
LINE
  5
183
330
1F
100
AcDbEntity
  8
1
  6
Continuous
 62
     4
100
AcDbLine
 10
-69.5
 20
-3.2
 30
0.0
 11
-69.32352941176471
 21
-3.5
 31
0.0
  0
LINE
  5
184
330
1F
100
AcDbEntity
  8
1
  6
Continuous
 62
     4
100
AcDbLine
 10
-69.32352941176471
 20
-3.5
 30
0.0
 11
-69.23529411764706
 21
-3.8
 31
0.0
  0
LINE
  5
185
330
1F
100
AcDbEntity
  8
1
  6
Continuous
 62
     4
100
AcDbLine
 10
-69.23529411764706
 20
-3.8
 30
0.0
 11
-69.32352941176471
 21
-4.2
 31
0.0
  0
LINE
  5
186
330
1F
100
AcDbEntity
  8
1
  6
Continuous
 62
     4
100
AcDbLine
 10
-69.32352941176471
 20
-4.2
 30
0.0
 11
-69.5
 21
-4.4
 31
0.0
  0
LINE
  5
187
330
1F
100
AcDbEntity
  8
1
  6
Continuous
 62
     4
100
AcDbLine
 10
-69.5
 20
-4.4
 30
0.0
 11
-69.8529411764706
 21
-4.6
 31
0.0
  0
LINE
  5
188
330
1F
100
AcDbEntity
  8
1
  6
Continuous
 62
     4
100
AcDbLine
 10
-69.8529411764706
 20
-4.6
 30
0.0
 11
-71.0
 21
-4.6
 31
0.0
  0
LINE
  5
189
330
1F
100
AcDbEntity
  8
1
  6
Continuous
 62
     4
100
AcDbLine
 10
-69.8529411764706
 20
-4.6
 30
0.0
 11
-69.1470588235294
 21
-6.0
 31
0.0
  0
LINE
  5
18A
330
1F
100
AcDbEntity
  8
1
  6
Continuous
 62
     4
100
AcDbLine
 10
-71.0
 20
-4.6
 30
0.0
 11
-71.0
 21
-3.0
 31
0.0
  0
LINE
  5
18B
330
1F
100
AcDbEntity
  8
1
  6
Continuous
 62
     4
100
AcDbLine
 10
-66.76470588235294
 20
-4.3
 30
0.0
 11
-66.94117647058823
 21
-4.1
 31
0.0
  0
LINE
  5
18C
330
1F
100
AcDbEntity
  8
1
  6
Continuous
 62
     4
100
AcDbLine
 10
-66.94117647058823
 20
-4.1
 30
0.0
 11
-67.20588235294117
 21
-3.9
 31
0.0
  0
LINE
  5
18D
330
1F
100
AcDbEntity
  8
1
  6
Continuous
 62
     4
100
AcDbLine
 10
-67.20588235294117
 20
-3.9
 30
0.0
 11
-67.55882352941177
 21
-3.8
 31
0.0
  0
LINE
  5
18E
330
1F
100
AcDbEntity
  8
1
  6
Continuous
 62
     4
100
AcDbLine
 10
-67.55882352941177
 20
-3.8
 30
0.0
 11
-67.91176470588235
 21
-3.9
 31
0.0
  0
LINE
  5
18F
330
1F
100
AcDbEntity
  8
1
  6
Continuous
 62
     4
100
AcDbLine
 10
-67.91176470588235
 20
-3.9
 30
0.0
 11
-68.08823529411765
 21
-4.2
 31
0.0
  0
LINE
  5
190
330
1F
100
AcDbEntity
  8
1
  6
Continuous
 62
     4
100
AcDbLine
 10
-68.08823529411765
 20
-4.2
 30
0.0
 11
-68.17647058823529
 21
-4.5
 31
0.0
  0
LINE
  5
191
330
1F
100
AcDbEntity
  8
1
  6
Continuous
 62
     4
100
AcDbLine
 10
-68.17647058823529
 20
-4.5
 30
0.0
 11
-68.26470588235294
 21
-5.0
 31
0.0
  0
LINE
  5
192
330
1F
100
AcDbEntity
  8
1
  6
Continuous
 62
     4
100
AcDbLine
 10
-68.26470588235294
 20
-5.0
 30
0.0
 11
-68.17647058823529
 21
-5.4
 31
0.0
  0
LINE
  5
193
330
1F
100
AcDbEntity
  8
1
  6
Continuous
 62
     4
100
AcDbLine
 10
-68.17647058823529
 20
-5.4
 30
0.0
 11
-68.08823529411765
 21
-5.7
 31
0.0
  0
LINE
  5
194
330
1F
100
AcDbEntity
  8
1
  6
Continuous
 62
     4
100
AcDbLine
 10
-68.08823529411765
 20
-5.7
 30
0.0
 11
-68.0
 21
-5.9
 31
0.0
  0
LINE
  5
195
330
1F
100
AcDbEntity
  8
1
  6
Continuous
 62
     4
100
AcDbLine
 10
-68.0
 20
-5.9
 30
0.0
 11
-67.82352941176471
 21
-6.0
 31
0.0
  0
LINE
  5
196
330
1F
100
AcDbEntity
  8
1
  6
Continuous
 62
     4
100
AcDbLine
 10
-67.82352941176471
 20
-6.0
 30
0.0
 11
-67.55882352941177
 21
-6.0
 31
0.0
  0
LINE
  5
197
330
1F
100
AcDbEntity
  8
1
  6
Continuous
 62
     4
100
AcDbLine
 10
-67.55882352941177
 20
-6.0
 30
0.0
 11
-67.20588235294117
 21
-5.9
 31
0.0
  0
LINE
  5
198
330
1F
100
AcDbEntity
  8
1
  6
Continuous
 62
     4
100
AcDbLine
 10
-67.20588235294117
 20
-5.9
 30
0.0
 11
-66.94117647058823
 21
-5.7
 31
0.0
  0
LINE
  5
199
330
1F
100
AcDbEntity
  8
1
  6
Continuous
 62
     4
100
AcDbLine
 10
-66.94117647058823
 20
-5.7
 30
0.0
 11
-66.76470588235294
 21
-5.4
 31
0.0
  0
LINE
  5
19A
330
1F
100
AcDbEntity
  8
1
  6
Continuous
 62
     4
100
AcDbLine
 10
-65.79411764705881
 20
-3.5
 30
0.0
 11
-65.44117647058823
 21
-3.1
 31
0.0
  0
LINE
  5
19B
330
1F
100
AcDbEntity
  8
1
  6
Continuous
 62
     4
100
AcDbLine
 10
-65.44117647058823
 20
-3.1
 30
0.0
 11
-64.91176470588235
 21
-3.0
 31
0.0
  0
LINE
  5
19C
330
1F
100
AcDbEntity
  8
1
  6
Continuous
 62
     4
100
AcDbLine
 10
-64.91176470588235
 20
-3.0
 30
0.0
 11
-64.38235294117646
 21
-3.1
 31
0.0
  0
LINE
  5
19D
330
1F
100
AcDbEntity
  8
1
  6
Continuous
 62
     4
100
AcDbLine
 10
-64.38235294117646
 20
-3.1
 30
0.0
 11
-64.11764705882352
 21
-3.5
 31
0.0
  0
LINE
  5
19E
330
1F
100
AcDbEntity
  8
1
  6
Continuous
 62
     4
100
AcDbLine
 10
-64.11764705882352
 20
-3.5
 30
0.0
 11
-64.02941176470587
 21
-3.8
 31
0.0
  0
LINE
  5
19F
330
1F
100
AcDbEntity
  8
1
  6
Continuous
 62
     4
100
AcDbLine
 10
-64.02941176470587
 20
-3.8
 30
0.0
 11
-64.20588235294117
 21
-4.2
 31
0.0
  0
LINE
  5
1A0
330
1F
100
AcDbEntity
  8
1
  6
Continuous
 62
     4
100
AcDbLine
 10
-64.20588235294117
 20
-4.2
 30
0.0
 11
-64.55882352941175
 21
-4.4
 31
0.0
  0
LINE
  5
1A1
330
1F
100
AcDbEntity
  8
1
  6
Continuous
 62
     4
100
AcDbLine
 10
-64.55882352941175
 20
-4.4
 30
0.0
 11
-65.0
 21
-4.4
 31
0.0
  0
LINE
  5
1A2
330
1F
100
AcDbEntity
  8
1
  6
Continuous
 62
     4
100
AcDbLine
 10
-65.0
 20
-4.4
 30
0.0
 11
-64.55882352941175
 21
-4.4
 31
0.0
  0
LINE
  5
1A3
330
1F
100
AcDbEntity
  8
1
  6
Continuous
 62
     4
100
AcDbLine
 10
-64.55882352941175
 20
-4.4
 30
0.0
 11
-64.11764705882352
 21
-4.7
 31
0.0
  0
LINE
  5
1A4
330
1F
100
AcDbEntity
  8
1
  6
Continuous
 62
     4
100
AcDbLine
 10
-64.11764705882352
 20
-4.7
 30
0.0
 11
-63.94117647058823
 21
-5.2
 31
0.0
  0
LINE
  5
1A5
330
1F
100
AcDbEntity
  8
1
  6
Continuous
 62
     4
100
AcDbLine
 10
-63.94117647058823
 20
-5.2
 30
0.0
 11
-64.11764705882352
 21
-5.7
 31
0.0
  0
LINE
  5
1A6
330
1F
100
AcDbEntity
  8
1
  6
Continuous
 62
     4
100
AcDbLine
 10
-64.11764705882352
 20
-5.7
 30
0.0
 11
-64.38235294117646
 21
-5.9
 31
0.0
  0
LINE
  5
1A7
330
1F
100
AcDbEntity
  8
1
  6
Continuous
 62
     4
100
AcDbLine
 10
-64.38235294117646
 20
-5.9
 30
0.0
 11
-64.91176470588235
 21
-6.0
 31
0.0
  0
LINE
  5
1A8
330
1F
100
AcDbEntity
  8
1
  6
Continuous
 62
     4
100
AcDbLine
 10
-64.91176470588235
 20
-6.0
 30
0.0
 11
-65.35294117647058
 21
-5.9
 31
0.0
  0
LINE
  5
1A9
330
1F
100
AcDbEntity
  8
1
  6
Continuous
 62
     4
100
AcDbLine
 10
-65.35294117647058
 20
-5.9
 30
0.0
 11
-65.70588235294117
 21
-5.7
 31
0.0
  0
LINE
  5
1AA
330
1F
100
AcDbEntity
  8
1
  6
Continuous
 62
     4
100
AcDbLine
 10
-65.70588235294117
 20
-5.7
 30
0.0
 11
-65.88235294117646
 21
-5.5
 31
0.0
  0
LINE
  5
1AB
330
1F
100
AcDbEntity
  8
1
  6
Continuous
 62
     4
100
AcDbLine
 10
-61.20588235294118
 20
-3.3
 30
0.0
 11
-63.05882352941177
 21
-5.5
 31
0.0
  0
LINE
  5
1AC
330
1F
100
AcDbEntity
  8
1
  6
Continuous
 62
     4
100
AcDbLine
 10
-58.73529411764707
 20
-6.0
 30
0.0
 11
-58.73529411764707
 21
-3.0
 31
0.0
  0
LINE
  5
1AD
330
1F
100
AcDbEntity
  8
1
  6
Continuous
 62
     4
100
AcDbLine
 10
-58.73529411764707
 20
-3.0
 30
0.0
 11
-60.32352941176471
 21
-5.3
 31
0.0
  0
LINE
  5
1AE
330
1F
100
AcDbEntity
  8
1
  6
Continuous
 62
     4
100
AcDbLine
 10
-60.32352941176471
 20
-5.3
 30
0.0
 11
-58.20588235294118
 21
-5.3
 31
0.0
  0
LINE
  5
1AF
330
1F
100
AcDbEntity
  8
1
  6
Continuous
 62
     4
100
AcDbLine
 10
57.0
 20
-6.0
 30
0.0
 11
57.0
 21
-4.6
 31
0.0
  0
LINE
  5
1B0
330
1F
100
AcDbEntity
  8
1
  6
Continuous
 62
     4
100
AcDbLine
 10
57.0
 20
-3.0
 30
0.0
 11
58.14705882352941
 21
-3.0
 31
0.0
  0
LINE
  5
1B1
330
1F
100
AcDbEntity
  8
1
  6
Continuous
 62
     4
100
AcDbLine
 10
58.14705882352941
 20
-3.0
 30
0.0
 11
58.5
 21
-3.2
 31
0.0
  0
LINE
  5
1B2
330
1F
100
AcDbEntity
  8
1
  6
Continuous
 62
     4
100
AcDbLine
 10
58.5
 20
-3.2
 30
0.0
 11
58.6764705882353
 21
-3.5
 31
0.0
  0
LINE
  5
1B3
330
1F
100
AcDbEntity
  8
1
  6
Continuous
 62
     4
100
AcDbLine
 10
58.6764705882353
 20
-3.5
 30
0.0
 11
58.76470588235294
 21
-3.8
 31
0.0
  0
LINE
  5
1B4
330
1F
100
AcDbEntity
  8
1
  6
Continuous
 62
     4
100
AcDbLine
 10
58.76470588235294
 20
-3.8
 30
0.0
 11
58.6764705882353
 21
-4.2
 31
0.0
  0
LINE
  5
1B5
330
1F
100
AcDbEntity
  8
1
  6
Continuous
 62
     4
100
AcDbLine
 10
58.6764705882353
 20
-4.2
 30
0.0
 11
58.5
 21
-4.4
 31
0.0
  0
LINE
  5
1B6
330
1F
100
AcDbEntity
  8
1
  6
Continuous
 62
     4
100
AcDbLine
 10
58.5
 20
-4.4
 30
0.0
 11
58.14705882352941
 21
-4.6
 31
0.0
  0
LINE
  5
1B7
330
1F
100
AcDbEntity
  8
1
  6
Continuous
 62
     4
100
AcDbLine
 10
58.14705882352941
 20
-4.6
 30
0.0
 11
57.0
 21
-4.6
 31
0.0
  0
LINE
  5
1B8
330
1F
100
AcDbEntity
  8
1
  6
Continuous
 62
     4
100
AcDbLine
 10
58.14705882352941
 20
-4.6
 30
0.0
 11
58.85294117647059
 21
-6.0
 31
0.0
  0
LINE
  5
1B9
330
1F
100
AcDbEntity
  8
1
  6
Continuous
 62
     4
100
AcDbLine
 10
57.0
 20
-4.6
 30
0.0
 11
57.0
 21
-3.0
 31
0.0
  0
LINE
  5
1BA
330
1F
100
AcDbEntity
  8
1
  6
Continuous
 62
     4
100
AcDbLine
 10
61.23529411764706
 20
-4.3
 30
0.0
 11
61.05882352941176
 21
-4.1
 31
0.0
  0
LINE
  5
1BB
330
1F
100
AcDbEntity
  8
1
  6
Continuous
 62
     4
100
AcDbLine
 10
61.05882352941176
 20
-4.1
 30
0.0
 11
60.79411764705883
 21
-3.9
 31
0.0
  0
LINE
  5
1BC
330
1F
100
AcDbEntity
  8
1
  6
Continuous
 62
     4
100
AcDbLine
 10
60.79411764705883
 20
-3.9
 30
0.0
 11
60.44117647058823
 21
-3.8
 31
0.0
  0
LINE
  5
1BD
330
1F
100
AcDbEntity
  8
1
  6
Continuous
 62
     4
100
AcDbLine
 10
60.44117647058823
 20
-3.8
 30
0.0
 11
60.08823529411765
 21
-3.9
 31
0.0
  0
LINE
  5
1BE
330
1F
100
AcDbEntity
  8
1
  6
Continuous
 62
     4
100
AcDbLine
 10
60.08823529411765
 20
-3.9
 30
0.0
 11
59.91176470588236
 21
-4.2
 31
0.0
  0
LINE
  5
1BF
330
1F
100
AcDbEntity
  8
1
  6
Continuous
 62
     4
100
AcDbLine
 10
59.91176470588236
 20
-4.2
 30
0.0
 11
59.8235294117647
 21
-4.5
 31
0.0
  0
LINE
  5
1C0
330
1F
100
AcDbEntity
  8
1
  6
Continuous
 62
     4
100
AcDbLine
 10
59.8235294117647
 20
-4.5
 30
0.0
 11
59.73529411764706
 21
-5.0
 31
0.0
  0
LINE
  5
1C1
330
1F
100
AcDbEntity
  8
1
  6
Continuous
 62
     4
100
AcDbLine
 10
59.73529411764706
 20
-5.0
 30
0.0
 11
59.8235294117647
 21
-5.4
 31
0.0
  0
LINE
  5
1C2
330
1F
100
AcDbEntity
  8
1
  6
Continuous
 62
     4
100
AcDbLine
 10
59.8235294117647
 20
-5.4
 30
0.0
 11
59.91176470588236
 21
-5.7
 31
0.0
  0
LINE
  5
1C3
330
1F
100
AcDbEntity
  8
1
  6
Continuous
 62
     4
100
AcDbLine
 10
59.91176470588236
 20
-5.7
 30
0.0
 11
60.0
 21
-5.9
 31
0.0
  0
LINE
  5
1C4
330
1F
100
AcDbEntity
  8
1
  6
Continuous
 62
     4
100
AcDbLine
 10
60.0
 20
-5.9
 30
0.0
 11
60.17647058823529
 21
-6.0
 31
0.0
  0
LINE
  5
1C5
330
1F
100
AcDbEntity
  8
1
  6
Continuous
 62
     4
100
AcDbLine
 10
60.17647058823529
 20
-6.0
 30
0.0
 11
60.44117647058823
 21
-6.0
 31
0.0
  0
LINE
  5
1C6
330
1F
100
AcDbEntity
  8
1
  6
Continuous
 62
     4
100
AcDbLine
 10
60.44117647058823
 20
-6.0
 30
0.0
 11
60.79411764705883
 21
-5.9
 31
0.0
  0
LINE
  5
1C7
330
1F
100
AcDbEntity
  8
1
  6
Continuous
 62
     4
100
AcDbLine
 10
60.79411764705883
 20
-5.9
 30
0.0
 11
61.05882352941176
 21
-5.7
 31
0.0
  0
LINE
  5
1C8
330
1F
100
AcDbEntity
  8
1
  6
Continuous
 62
     4
100
AcDbLine
 10
61.05882352941176
 20
-5.7
 30
0.0
 11
61.23529411764706
 21
-5.4
 31
0.0
  0
LINE
  5
1C9
330
1F
100
AcDbEntity
  8
1
  6
Continuous
 62
     4
100
AcDbLine
 10
62.20588235294117
 20
-3.5
 30
0.0
 11
62.55882352941176
 21
-3.1
 31
0.0
  0
LINE
  5
1CA
330
1F
100
AcDbEntity
  8
1
  6
Continuous
 62
     4
100
AcDbLine
 10
62.55882352941176
 20
-3.1
 30
0.0
 11
63.08823529411765
 21
-3.0
 31
0.0
  0
LINE
  5
1CB
330
1F
100
AcDbEntity
  8
1
  6
Continuous
 62
     4
100
AcDbLine
 10
63.08823529411765
 20
-3.0
 30
0.0
 11
63.61764705882353
 21
-3.1
 31
0.0
  0
LINE
  5
1CC
330
1F
100
AcDbEntity
  8
1
  6
Continuous
 62
     4
100
AcDbLine
 10
63.61764705882353
 20
-3.1
 30
0.0
 11
63.88235294117647
 21
-3.5
 31
0.0
  0
LINE
  5
1CD
330
1F
100
AcDbEntity
  8
1
  6
Continuous
 62
     4
100
AcDbLine
 10
63.88235294117647
 20
-3.5
 30
0.0
 11
63.97058823529412
 21
-3.8
 31
0.0
  0
LINE
  5
1CE
330
1F
100
AcDbEntity
  8
1
  6
Continuous
 62
     4
100
AcDbLine
 10
63.97058823529412
 20
-3.8
 30
0.0
 11
63.79411764705883
 21
-4.2
 31
0.0
  0
LINE
  5
1CF
330
1F
100
AcDbEntity
  8
1
  6
Continuous
 62
     4
100
AcDbLine
 10
63.79411764705883
 20
-4.2
 30
0.0
 11
63.44117647058823
 21
-4.4
 31
0.0
  0
LINE
  5
1D0
330
1F
100
AcDbEntity
  8
1
  6
Continuous
 62
     4
100
AcDbLine
 10
63.44117647058823
 20
-4.4
 30
0.0
 11
63.0
 21
-4.4
 31
0.0
  0
LINE
  5
1D1
330
1F
100
AcDbEntity
  8
1
  6
Continuous
 62
     4
100
AcDbLine
 10
63.0
 20
-4.4
 30
0.0
 11
63.44117647058823
 21
-4.4
 31
0.0
  0
LINE
  5
1D2
330
1F
100
AcDbEntity
  8
1
  6
Continuous
 62
     4
100
AcDbLine
 10
63.44117647058823
 20
-4.4
 30
0.0
 11
63.88235294117647
 21
-4.7
 31
0.0
  0
LINE
  5
1D3
330
1F
100
AcDbEntity
  8
1
  6
Continuous
 62
     4
100
AcDbLine
 10
63.88235294117647
 20
-4.7
 30
0.0
 11
64.05882352941177
 21
-5.2
 31
0.0
  0
LINE
  5
1D4
330
1F
100
AcDbEntity
  8
1
  6
Continuous
 62
     4
100
AcDbLine
 10
64.05882352941177
 20
-5.2
 30
0.0
 11
63.88235294117647
 21
-5.7
 31
0.0
  0
LINE
  5
1D5
330
1F
100
AcDbEntity
  8
1
  6
Continuous
 62
     4
100
AcDbLine
 10
63.88235294117647
 20
-5.7
 30
0.0
 11
63.61764705882353
 21
-5.9
 31
0.0
  0
LINE
  5
1D6
330
1F
100
AcDbEntity
  8
1
  6
Continuous
 62
     4
100
AcDbLine
 10
63.61764705882353
 20
-5.9
 30
0.0
 11
63.08823529411765
 21
-6.0
 31
0.0
  0
LINE
  5
1D7
330
1F
100
AcDbEntity
  8
1
  6
Continuous
 62
     4
100
AcDbLine
 10
63.08823529411765
 20
-6.0
 30
0.0
 11
62.64705882352941
 21
-5.9
 31
0.0
  0
LINE
  5
1D8
330
1F
100
AcDbEntity
  8
1
  6
Continuous
 62
     4
100
AcDbLine
 10
62.64705882352941
 20
-5.9
 30
0.0
 11
62.29411764705883
 21
-5.7
 31
0.0
  0
LINE
  5
1D9
330
1F
100
AcDbEntity
  8
1
  6
Continuous
 62
     4
100
AcDbLine
 10
62.29411764705883
 20
-5.7
 30
0.0
 11
62.11764705882353
 21
-5.5
 31
0.0
  0
LINE
  5
1DA
330
1F
100
AcDbEntity
  8
1
  6
Continuous
 62
     4
100
AcDbLine
 10
66.79411764705883
 20
-3.3
 30
0.0
 11
64.94117647058823
 21
-5.5
 31
0.0
  0
LINE
  5
1DB
330
1F
100
AcDbEntity
  8
1
  6
Continuous
 62
     4
100
AcDbLine
 10
69.26470588235294
 20
-6.0
 30
0.0
 11
69.26470588235294
 21
-3.0
 31
0.0
  0
LINE
  5
1DC
330
1F
100
AcDbEntity
  8
1
  6
Continuous
 62
     4
100
AcDbLine
 10
69.26470588235294
 20
-3.0
 30
0.0
 11
67.67647058823529
 21
-5.3
 31
0.0
  0
LINE
  5
1DD
330
1F
100
AcDbEntity
  8
1
  6
Continuous
 62
     4
100
AcDbLine
 10
67.67647058823529
 20
-5.3
 30
0.0
 11
69.79411764705883
 21
-5.3
 31
0.0
  0
LINE
  5
1DE
330
1F
100
AcDbEntity
  8
1
  6
Continuous
 62
     4
100
AcDbLine
 10
14.0
 20
-84.0
 30
0.0
 11
14.0
 21
-82.6
 31
0.0
  0
LINE
  5
1DF
330
1F
100
AcDbEntity
  8
1
  6
Continuous
 62
     4
100
AcDbLine
 10
14.0
 20
-81.0
 30
0.0
 11
15.14705882352941
 21
-81.0
 31
0.0
  0
LINE
  5
1E0
330
1F
100
AcDbEntity
  8
1
  6
Continuous
 62
     4
100
AcDbLine
 10
15.14705882352941
 20
-81.0
 30
0.0
 11
15.5
 21
-81.2
 31
0.0
  0
LINE
  5
1E1
330
1F
100
AcDbEntity
  8
1
  6
Continuous
 62
     4
100
AcDbLine
 10
15.5
 20
-81.2
 30
0.0
 11
15.67647058823529
 21
-81.5
 31
0.0
  0
LINE
  5
1E2
330
1F
100
AcDbEntity
  8
1
  6
Continuous
 62
     4
100
AcDbLine
 10
15.67647058823529
 20
-81.5
 30
0.0
 11
15.76470588235294
 21
-81.8
 31
0.0
  0
LINE
  5
1E3
330
1F
100
AcDbEntity
  8
1
  6
Continuous
 62
     4
100
AcDbLine
 10
15.76470588235294
 20
-81.8
 30
0.0
 11
15.67647058823529
 21
-82.2
 31
0.0
  0
LINE
  5
1E4
330
1F
100
AcDbEntity
  8
1
  6
Continuous
 62
     4
100
AcDbLine
 10
15.67647058823529
 20
-82.2
 30
0.0
 11
15.5
 21
-82.4
 31
0.0
  0
LINE
  5
1E5
330
1F
100
AcDbEntity
  8
1
  6
Continuous
 62
     4
100
AcDbLine
 10
15.5
 20
-82.4
 30
0.0
 11
15.14705882352941
 21
-82.6
 31
0.0
  0
LINE
  5
1E6
330
1F
100
AcDbEntity
  8
1
  6
Continuous
 62
     4
100
AcDbLine
 10
15.14705882352941
 20
-82.6
 30
0.0
 11
14.0
 21
-82.6
 31
0.0
  0
LINE
  5
1E7
330
1F
100
AcDbEntity
  8
1
  6
Continuous
 62
     4
100
AcDbLine
 10
15.14705882352941
 20
-82.6
 30
0.0
 11
15.85294117647059
 21
-84.0
 31
0.0
  0
LINE
  5
1E8
330
1F
100
AcDbEntity
  8
1
  6
Continuous
 62
     4
100
AcDbLine
 10
14.0
 20
-82.6
 30
0.0
 11
14.0
 21
-81.0
 31
0.0
  0
LINE
  5
1E9
330
1F
100
AcDbEntity
  8
1
  6
Continuous
 62
     4
100
AcDbLine
 10
18.23529411764706
 20
-82.3
 30
0.0
 11
18.05882352941176
 21
-82.1
 31
0.0
  0
LINE
  5
1EA
330
1F
100
AcDbEntity
  8
1
  6
Continuous
 62
     4
100
AcDbLine
 10
18.05882352941176
 20
-82.1
 30
0.0
 11
17.79411764705882
 21
-81.9
 31
0.0
  0
LINE
  5
1EB
330
1F
100
AcDbEntity
  8
1
  6
Continuous
 62
     4
100
AcDbLine
 10
17.79411764705882
 20
-81.9
 30
0.0
 11
17.44117647058824
 21
-81.8
 31
0.0
  0
LINE
  5
1EC
330
1F
100
AcDbEntity
  8
1
  6
Continuous
 62
     4
100
AcDbLine
 10
17.44117647058824
 20
-81.8
 30
0.0
 11
17.08823529411765
 21
-81.9
 31
0.0
  0
LINE
  5
1ED
330
1F
100
AcDbEntity
  8
1
  6
Continuous
 62
     4
100
AcDbLine
 10
17.08823529411765
 20
-81.9
 30
0.0
 11
16.91176470588235
 21
-82.2
 31
0.0
  0
LINE
  5
1EE
330
1F
100
AcDbEntity
  8
1
  6
Continuous
 62
     4
100
AcDbLine
 10
16.91176470588235
 20
-82.2
 30
0.0
 11
16.82352941176471
 21
-82.5
 31
0.0
  0
LINE
  5
1EF
330
1F
100
AcDbEntity
  8
1
  6
Continuous
 62
     4
100
AcDbLine
 10
16.82352941176471
 20
-82.5
 30
0.0
 11
16.73529411764706
 21
-83.0
 31
0.0
  0
LINE
  5
1F0
330
1F
100
AcDbEntity
  8
1
  6
Continuous
 62
     4
100
AcDbLine
 10
16.73529411764706
 20
-83.0
 30
0.0
 11
16.82352941176471
 21
-83.4
 31
0.0
  0
LINE
  5
1F1
330
1F
100
AcDbEntity
  8
1
  6
Continuous
 62
     4
100
AcDbLine
 10
16.82352941176471
 20
-83.4
 30
0.0
 11
16.91176470588235
 21
-83.7
 31
0.0
  0
LINE
  5
1F2
330
1F
100
AcDbEntity
  8
1
  6
Continuous
 62
     4
100
AcDbLine
 10
16.91176470588235
 20
-83.7
 30
0.0
 11
17.0
 21
-83.9
 31
0.0
  0
LINE
  5
1F3
330
1F
100
AcDbEntity
  8
1
  6
Continuous
 62
     4
100
AcDbLine
 10
17.0
 20
-83.9
 30
0.0
 11
17.17647058823529
 21
-84.0
 31
0.0
  0
LINE
  5
1F4
330
1F
100
AcDbEntity
  8
1
  6
Continuous
 62
     4
100
AcDbLine
 10
17.17647058823529
 20
-84.0
 30
0.0
 11
17.44117647058824
 21
-84.0
 31
0.0
  0
LINE
  5
1F5
330
1F
100
AcDbEntity
  8
1
  6
Continuous
 62
     4
100
AcDbLine
 10
17.44117647058824
 20
-84.0
 30
0.0
 11
17.79411764705882
 21
-83.9
 31
0.0
  0
LINE
  5
1F6
330
1F
100
AcDbEntity
  8
1
  6
Continuous
 62
     4
100
AcDbLine
 10
17.79411764705882
 20
-83.9
 30
0.0
 11
18.05882352941176
 21
-83.7
 31
0.0
  0
LINE
  5
1F7
330
1F
100
AcDbEntity
  8
1
  6
Continuous
 62
     4
100
AcDbLine
 10
18.05882352941176
 20
-83.7
 30
0.0
 11
18.23529411764706
 21
-83.4
 31
0.0
  0
LINE
  5
1F8
330
1F
100
AcDbEntity
  8
1
  6
Continuous
 62
     4
100
AcDbLine
 10
19.11764705882353
 20
-81.3
 30
0.0
 11
19.55882352941176
 21
-81.0
 31
0.0
  0
LINE
  5
1F9
330
1F
100
AcDbEntity
  8
1
  6
Continuous
 62
     4
100
AcDbLine
 10
19.55882352941176
 20
-81.0
 30
0.0
 11
19.55882352941176
 21
-84.0
 31
0.0
  0
LINE
  5
1FA
330
1F
100
AcDbEntity
  8
1
  6
Continuous
 62
     4
100
AcDbLine
 10
22.29411764705882
 20
-81.3
 30
0.0
 11
20.44117647058824
 21
-83.5
 31
0.0
  0
LINE
  5
1FB
330
1F
100
AcDbEntity
  8
1
  6
Continuous
 62
     4
100
AcDbLine
 10
23.26470588235294
 20
-81.6
 30
0.0
 11
23.61764705882353
 21
-81.2
 31
0.0
  0
LINE
  5
1FC
330
1F
100
AcDbEntity
  8
1
  6
Continuous
 62
     4
100
AcDbLine
 10
23.61764705882353
 20
-81.2
 30
0.0
 11
24.14705882352941
 21
-81.0
 31
0.0
  0
LINE
  5
1FD
330
1F
100
AcDbEntity
  8
1
  6
Continuous
 62
     4
100
AcDbLine
 10
24.14705882352941
 20
-81.0
 30
0.0
 11
24.67647058823529
 21
-81.2
 31
0.0
  0
LINE
  5
1FE
330
1F
100
AcDbEntity
  8
1
  6
Continuous
 62
     4
100
AcDbLine
 10
24.67647058823529
 20
-81.2
 30
0.0
 11
25.02941176470588
 21
-81.6
 31
0.0
  0
LINE
  5
1FF
330
1F
100
AcDbEntity
  8
1
  6
Continuous
 62
     4
100
AcDbLine
 10
25.02941176470588
 20
-81.6
 30
0.0
 11
24.94117647058824
 21
-82.0
 31
0.0
  0
LINE
  5
200
330
1F
100
AcDbEntity
  8
1
  6
Continuous
 62
     4
100
AcDbLine
 10
24.94117647058824
 20
-82.0
 30
0.0
 11
24.67647058823529
 21
-82.4
 31
0.0
  0
LINE
  5
201
330
1F
100
AcDbEntity
  8
1
  6
Continuous
 62
     4
100
AcDbLine
 10
24.67647058823529
 20
-82.4
 30
0.0
 11
24.23529411764706
 21
-82.7
 31
0.0
  0
LINE
  5
202
330
1F
100
AcDbEntity
  8
1
  6
Continuous
 62
     4
100
AcDbLine
 10
24.23529411764706
 20
-82.7
 30
0.0
 11
23.88235294117647
 21
-82.9
 31
0.0
  0
LINE
  5
203
330
1F
100
AcDbEntity
  8
1
  6
Continuous
 62
     4
100
AcDbLine
 10
23.88235294117647
 20
-82.9
 30
0.0
 11
23.52941176470588
 21
-83.2
 31
0.0
  0
LINE
  5
204
330
1F
100
AcDbEntity
  8
1
  6
Continuous
 62
     4
100
AcDbLine
 10
23.52941176470588
 20
-83.2
 30
0.0
 11
23.35294117647059
 21
-83.5
 31
0.0
  0
LINE
  5
205
330
1F
100
AcDbEntity
  8
1
  6
Continuous
 62
     4
100
AcDbLine
 10
23.35294117647059
 20
-83.5
 30
0.0
 11
23.17647058823529
 21
-84.0
 31
0.0
  0
LINE
  5
206
330
1F
100
AcDbEntity
  8
1
  6
Continuous
 62
     4
100
AcDbLine
 10
23.17647058823529
 20
-84.0
 30
0.0
 11
25.11764705882353
 21
-84.0
 31
0.0
  0
LINE
  5
207
330
1F
100
AcDbEntity
  8
1
  6
Continuous
 62
     4
100
AcDbLine
 10
7.0
 20
-98.0
 30
0.0
 11
7.0
 21
-95.2
 31
0.0
  0
LINE
  5
208
330
1F
100
AcDbEntity
  8
1
  6
Continuous
 62
     4
100
AcDbLine
 10
7.0
 20
-95.2
 30
0.0
 11
8.05882352941176
 21
-95.2
 31
0.0
  0
LINE
  5
209
330
1F
100
AcDbEntity
  8
1
  6
Continuous
 62
     4
100
AcDbLine
 10
8.05882352941176
 20
-95.2
 30
0.0
 11
8.5
 21
-95.4
 31
0.0
  0
LINE
  5
20A
330
1F
100
AcDbEntity
  8
1
  6
Continuous
 62
     4
100
AcDbLine
 10
8.5
 20
-95.4
 30
0.0
 11
8.58823529411765
 21
-95.9
 31
0.0
  0
LINE
  5
20B
330
1F
100
AcDbEntity
  8
1
  6
Continuous
 62
     4
100
AcDbLine
 10
8.58823529411765
 20
-95.9
 30
0.0
 11
8.5
 21
-96.3
 31
0.0
  0
LINE
  5
20C
330
1F
100
AcDbEntity
  8
1
  6
Continuous
 62
     4
100
AcDbLine
 10
8.5
 20
-96.3
 30
0.0
 11
8.05882352941176
 21
-96.6
 31
0.0
  0
LINE
  5
20D
330
1F
100
AcDbEntity
  8
1
  6
Continuous
 62
     4
100
AcDbLine
 10
8.05882352941176
 20
-96.6
 30
0.0
 11
7.0
 21
-96.6
 31
0.0
  0
LINE
  5
20E
330
1F
100
AcDbEntity
  8
1
  6
Continuous
 62
     4
100
AcDbLine
 10
7.0
 20
-96.6
 30
0.0
 11
8.05882352941176
 21
-96.6
 31
0.0
  0
LINE
  5
20F
330
1F
100
AcDbEntity
  8
1
  6
Continuous
 62
     4
100
AcDbLine
 10
8.05882352941176
 20
-96.6
 30
0.0
 11
8.58823529411765
 21
-96.8
 31
0.0
  0
LINE
  5
210
330
1F
100
AcDbEntity
  8
1
  6
Continuous
 62
     4
100
AcDbLine
 10
8.58823529411765
 20
-96.8
 30
0.0
 11
8.76470588235294
 21
-97.3
 31
0.0
  0
LINE
  5
211
330
1F
100
AcDbEntity
  8
1
  6
Continuous
 62
     4
100
AcDbLine
 10
8.76470588235294
 20
-97.3
 30
0.0
 11
8.58823529411765
 21
-97.8
 31
0.0
  0
LINE
  5
212
330
1F
100
AcDbEntity
  8
1
  6
Continuous
 62
     4
100
AcDbLine
 10
8.58823529411765
 20
-97.8
 30
0.0
 11
8.05882352941176
 21
-98.0
 31
0.0
  0
LINE
  5
213
330
1F
100
AcDbEntity
  8
1
  6
Continuous
 62
     4
100
AcDbLine
 10
8.05882352941176
 20
-98.0
 30
0.0
 11
7.0
 21
-98.0
 31
0.0
  0
LINE
  5
214
330
1F
100
AcDbEntity
  8
1
  6
Continuous
 62
     4
100
AcDbLine
 10
9.64705882352941
 20
-95.0
 30
0.0
 11
9.64705882352941
 21
-96.6
 31
0.0
  0
LINE
  5
215
330
1F
100
AcDbEntity
  8
1
  6
Continuous
 62
     4
100
AcDbLine
 10
9.64705882352941
 20
-96.6
 30
0.0
 11
11.32352941176471
 21
-96.6
 31
0.0
  0
LINE
  5
216
330
1F
100
AcDbEntity
  8
1
  6
Continuous
 62
     4
100
AcDbLine
 10
11.32352941176471
 20
-95.0
 30
0.0
 11
11.32352941176471
 21
-96.6
 31
0.0
  0
LINE
  5
217
330
1F
100
AcDbEntity
  8
1
  6
Continuous
 62
     4
100
AcDbLine
 10
11.32352941176471
 20
-96.6
 30
0.0
 11
11.32352941176471
 21
-98.0
 31
0.0
  0
LINE
  5
218
330
1F
100
AcDbEntity
  8
1
  6
Continuous
 62
     4
100
AcDbLine
 10
9.64705882352941
 20
-96.6
 30
0.0
 11
9.64705882352941
 21
-98.0
 31
0.0
  0
LINE
  5
219
330
1F
100
AcDbEntity
  8
1
  6
Continuous
 62
     4
100
AcDbLine
 10
13.97058823529412
 20
-98.0
 30
0.0
 11
13.44117647058824
 21
-98.0
 31
0.0
  0
LINE
  5
21A
330
1F
100
AcDbEntity
  8
1
  6
Continuous
 62
     4
100
AcDbLine
 10
12.73529411764706
 20
-95.0
 30
0.0
 11
12.73529411764706
 21
-98.0
 31
0.0
  0
LINE
  5
21B
330
1F
100
AcDbEntity
  8
1
  6
Continuous
 62
     4
100
AcDbLine
 10
12.20588235294118
 20
-95.0
 30
0.0
 11
12.73529411764706
 21
-95.0
 31
0.0
  0
LINE
  5
21C
330
1F
100
AcDbEntity
  8
1
  6
Continuous
 62
     4
100
AcDbLine
 10
13.44117647058824
 20
-95.0
 30
0.0
 11
13.44117647058824
 21
-98.0
 31
0.0
  0
LINE
  5
21D
330
1F
100
AcDbEntity
  8
1
  6
Continuous
 62
     4
100
AcDbLine
 10
13.44117647058824
 20
-98.0
 30
0.0
 11
12.20588235294118
 21
-98.0
 31
0.0
  0
LINE
  5
21E
330
1F
100
AcDbEntity
  8
1
  6
Continuous
 62
     4
100
AcDbLine
 10
13.44117647058824
 20
-95.0
 30
0.0
 11
13.97058823529412
 21
-95.0
 31
0.0
  0
LINE
  5
21F
330
1F
100
AcDbEntity
  8
1
  6
Continuous
 62
     4
100
AcDbLine
 10
12.73529411764706
 20
-95.0
 30
0.0
 11
13.44117647058824
 21
-95.0
 31
0.0
  0
LINE
  5
220
330
1F
100
AcDbEntity
  8
1
  6
Continuous
 62
     4
100
AcDbLine
 10
14.85294117647059
 20
-96.5
 30
0.0
 11
16.44117647058824
 21
-96.5
 31
0.0
  0
LINE
  5
221
330
1F
100
AcDbEntity
  8
1
  6
Continuous
 62
     4
100
AcDbLine
 10
19.17647058823529
 20
-95.6
 30
0.0
 11
18.91176470588235
 21
-95.3
 31
0.0
  0
LINE
  5
222
330
1F
100
AcDbEntity
  8
1
  6
Continuous
 62
     4
100
AcDbLine
 10
18.91176470588235
 20
-95.3
 30
0.0
 11
18.64705882352941
 21
-95.1
 31
0.0
  0
LINE
  5
223
330
1F
100
AcDbEntity
  8
1
  6
Continuous
 62
     4
100
AcDbLine
 10
18.64705882352941
 20
-95.1
 30
0.0
 11
18.20588235294117
 21
-95.0
 31
0.0
  0
LINE
  5
224
330
1F
100
AcDbEntity
  8
1
  6
Continuous
 62
     4
100
AcDbLine
 10
18.20588235294117
 20
-95.0
 30
0.0
 11
17.67647058823529
 21
-95.3
 31
0.0
  0
LINE
  5
225
330
1F
100
AcDbEntity
  8
1
  6
Continuous
 62
     4
100
AcDbLine
 10
17.67647058823529
 20
-95.3
 30
0.0
 11
17.41176470588235
 21
-95.8
 31
0.0
  0
LINE
  5
226
330
1F
100
AcDbEntity
  8
1
  6
Continuous
 62
     4
100
AcDbLine
 10
17.41176470588235
 20
-95.8
 30
0.0
 11
17.3235294117647
 21
-96.5
 31
0.0
  0
LINE
  5
227
330
1F
100
AcDbEntity
  8
1
  6
Continuous
 62
     4
100
AcDbLine
 10
17.3235294117647
 20
-96.5
 30
0.0
 11
17.41176470588235
 21
-97.2
 31
0.0
  0
LINE
  5
228
330
1F
100
AcDbEntity
  8
1
  6
Continuous
 62
     4
100
AcDbLine
 10
17.41176470588235
 20
-97.2
 30
0.0
 11
17.67647058823529
 21
-97.8
 31
0.0
  0
LINE
  5
229
330
1F
100
AcDbEntity
  8
1
  6
Continuous
 62
     4
100
AcDbLine
 10
17.67647058823529
 20
-97.8
 30
0.0
 11
18.20588235294117
 21
-98.0
 31
0.0
  0
LINE
  5
22A
330
1F
100
AcDbEntity
  8
1
  6
Continuous
 62
     4
100
AcDbLine
 10
18.20588235294117
 20
-98.0
 30
0.0
 11
18.64705882352941
 21
-97.9
 31
0.0
  0
LINE
  5
22B
330
1F
100
AcDbEntity
  8
1
  6
Continuous
 62
     4
100
AcDbLine
 10
18.64705882352941
 20
-97.9
 30
0.0
 11
19.0
 21
-97.6
 31
0.0
  0
LINE
  5
22C
330
1F
100
AcDbEntity
  8
1
  6
Continuous
 62
     4
100
AcDbLine
 10
19.0
 20
-97.6
 30
0.0
 11
19.17647058823529
 21
-97.3
 31
0.0
  0
LINE
  5
22D
330
1F
100
AcDbEntity
  8
1
  6
Continuous
 62
     4
100
AcDbLine
 10
20.05882352941176
 20
-98.0
 30
0.0
 11
22.88235294117647
 21
-98.0
 31
0.0
  0
LINE
  5
22E
330
1F
100
AcDbEntity
  8
1
  6
Continuous
 62
     4
100
AcDbLine
 10
23.85294117647059
 20
-95.6
 30
0.0
 11
24.20588235294118
 21
-95.2
 31
0.0
  0
LINE
  5
22F
330
1F
100
AcDbEntity
  8
1
  6
Continuous
 62
     4
100
AcDbLine
 10
24.20588235294118
 20
-95.2
 30
0.0
 11
24.73529411764706
 21
-95.0
 31
0.0
  0
LINE
  5
230
330
1F
100
AcDbEntity
  8
1
  6
Continuous
 62
     4
100
AcDbLine
 10
24.73529411764706
 20
-95.0
 30
0.0
 11
25.26470588235294
 21
-95.2
 31
0.0
  0
LINE
  5
231
330
1F
100
AcDbEntity
  8
1
  6
Continuous
 62
     4
100
AcDbLine
 10
25.26470588235294
 20
-95.2
 30
0.0
 11
25.61764705882353
 21
-95.6
 31
0.0
  0
LINE
  5
232
330
1F
100
AcDbEntity
  8
1
  6
Continuous
 62
     4
100
AcDbLine
 10
25.61764705882353
 20
-95.6
 30
0.0
 11
25.52941176470588
 21
-96.0
 31
0.0
  0
LINE
  5
233
330
1F
100
AcDbEntity
  8
1
  6
Continuous
 62
     4
100
AcDbLine
 10
25.52941176470588
 20
-96.0
 30
0.0
 11
25.26470588235294
 21
-96.4
 31
0.0
  0
LINE
  5
234
330
1F
100
AcDbEntity
  8
1
  6
Continuous
 62
     4
100
AcDbLine
 10
25.26470588235294
 20
-96.4
 30
0.0
 11
24.82352941176471
 21
-96.7
 31
0.0
  0
LINE
  5
235
330
1F
100
AcDbEntity
  8
1
  6
Continuous
 62
     4
100
AcDbLine
 10
24.82352941176471
 20
-96.7
 30
0.0
 11
24.47058823529412
 21
-96.9
 31
0.0
  0
LINE
  5
236
330
1F
100
AcDbEntity
  8
1
  6
Continuous
 62
     4
100
AcDbLine
 10
24.47058823529412
 20
-96.9
 30
0.0
 11
24.11764705882353
 21
-97.2
 31
0.0
  0
LINE
  5
237
330
1F
100
AcDbEntity
  8
1
  6
Continuous
 62
     4
100
AcDbLine
 10
24.11764705882353
 20
-97.2
 30
0.0
 11
23.94117647058824
 21
-97.5
 31
0.0
  0
LINE
  5
238
330
1F
100
AcDbEntity
  8
1
  6
Continuous
 62
     4
100
AcDbLine
 10
23.94117647058824
 20
-97.5
 30
0.0
 11
23.76470588235294
 21
-98.0
 31
0.0
  0
LINE
  5
239
330
1F
100
AcDbEntity
  8
1
  6
Continuous
 62
     4
100
AcDbLine
 10
23.76470588235294
 20
-98.0
 30
0.0
 11
25.70588235294118
 21
-98.0
 31
0.0
  0
LINE
  5
23A
330
1F
100
AcDbEntity
  8
1
  6
Continuous
 62
     4
100
AcDbLine
 10
27.55882352941177
 20
-95.0
 30
0.0
 11
27.02941176470588
 21
-95.2
 31
0.0
  0
LINE
  5
23B
330
1F
100
AcDbEntity
  8
1
  6
Continuous
 62
     4
100
AcDbLine
 10
27.02941176470588
 20
-95.2
 30
0.0
 11
26.76470588235294
 21
-95.7
 31
0.0
  0
LINE
  5
23C
330
1F
100
AcDbEntity
  8
1
  6
Continuous
 62
     4
100
AcDbLine
 10
26.76470588235294
 20
-95.7
 30
0.0
 11
26.58823529411765
 21
-96.5
 31
0.0
  0
LINE
  5
23D
330
1F
100
AcDbEntity
  8
1
  6
Continuous
 62
     4
100
AcDbLine
 10
26.58823529411765
 20
-96.5
 30
0.0
 11
26.76470588235294
 21
-97.3
 31
0.0
  0
LINE
  5
23E
330
1F
100
AcDbEntity
  8
1
  6
Continuous
 62
     4
100
AcDbLine
 10
26.76470588235294
 20
-97.3
 30
0.0
 11
27.02941176470588
 21
-97.8
 31
0.0
  0
LINE
  5
23F
330
1F
100
AcDbEntity
  8
1
  6
Continuous
 62
     4
100
AcDbLine
 10
27.02941176470588
 20
-97.8
 30
0.0
 11
27.55882352941177
 21
-98.0
 31
0.0
  0
LINE
  5
240
330
1F
100
AcDbEntity
  8
1
  6
Continuous
 62
     4
100
AcDbLine
 10
27.55882352941177
 20
-98.0
 30
0.0
 11
28.08823529411765
 21
-97.8
 31
0.0
  0
LINE
  5
241
330
1F
100
AcDbEntity
  8
1
  6
Continuous
 62
     4
100
AcDbLine
 10
28.08823529411765
 20
-97.8
 30
0.0
 11
28.44117647058824
 21
-97.3
 31
0.0
  0
LINE
  5
242
330
1F
100
AcDbEntity
  8
1
  6
Continuous
 62
     4
100
AcDbLine
 10
28.44117647058824
 20
-97.3
 30
0.0
 11
28.52941176470588
 21
-96.5
 31
0.0
  0
LINE
  5
243
330
1F
100
AcDbEntity
  8
1
  6
Continuous
 62
     4
100
AcDbLine
 10
28.52941176470588
 20
-96.5
 30
0.0
 11
28.44117647058824
 21
-95.7
 31
0.0
  0
LINE
  5
244
330
1F
100
AcDbEntity
  8
1
  6
Continuous
 62
     4
100
AcDbLine
 10
28.44117647058824
 20
-95.7
 30
0.0
 11
28.08823529411765
 21
-95.2
 31
0.0
  0
LINE
  5
245
330
1F
100
AcDbEntity
  8
1
  6
Continuous
 62
     4
100
AcDbLine
 10
28.08823529411765
 20
-95.2
 30
0.0
 11
27.55882352941177
 21
-95.0
 31
0.0
  0
LINE
  5
246
330
1F
100
AcDbEntity
  8
1
  6
Continuous
 62
     4
100
AcDbLine
 10
29.41176470588236
 20
-98.0
 30
0.0
 11
32.23529411764706
 21
-98.0
 31
0.0
  0
LINE
  5
247
330
1F
100
AcDbEntity
  8
1
  6
Continuous
 62
     4
100
AcDbLine
 10
34.08823529411765
 20
-95.0
 30
0.0
 11
33.55882352941177
 21
-95.2
 31
0.0
  0
LINE
  5
248
330
1F
100
AcDbEntity
  8
1
  6
Continuous
 62
     4
100
AcDbLine
 10
33.55882352941177
 20
-95.2
 30
0.0
 11
33.29411764705883
 21
-95.7
 31
0.0
  0
LINE
  5
249
330
1F
100
AcDbEntity
  8
1
  6
Continuous
 62
     4
100
AcDbLine
 10
33.29411764705883
 20
-95.7
 30
0.0
 11
33.11764705882354
 21
-96.5
 31
0.0
  0
LINE
  5
24A
330
1F
100
AcDbEntity
  8
1
  6
Continuous
 62
     4
100
AcDbLine
 10
33.11764705882354
 20
-96.5
 30
0.0
 11
33.29411764705883
 21
-97.3
 31
0.0
  0
LINE
  5
24B
330
1F
100
AcDbEntity
  8
1
  6
Continuous
 62
     4
100
AcDbLine
 10
33.29411764705883
 20
-97.3
 30
0.0
 11
33.55882352941177
 21
-97.8
 31
0.0
  0
LINE
  5
24C
330
1F
100
AcDbEntity
  8
1
  6
Continuous
 62
     4
100
AcDbLine
 10
33.55882352941177
 20
-97.8
 30
0.0
 11
34.08823529411765
 21
-98.0
 31
0.0
  0
LINE
  5
24D
330
1F
100
AcDbEntity
  8
1
  6
Continuous
 62
     4
100
AcDbLine
 10
34.08823529411765
 20
-98.0
 30
0.0
 11
34.61764705882354
 21
-97.8
 31
0.0
  0
LINE
  5
24E
330
1F
100
AcDbEntity
  8
1
  6
Continuous
 62
     4
100
AcDbLine
 10
34.61764705882354
 20
-97.8
 30
0.0
 11
34.97058823529412
 21
-97.3
 31
0.0
  0
LINE
  5
24F
330
1F
100
AcDbEntity
  8
1
  6
Continuous
 62
     4
100
AcDbLine
 10
34.97058823529412
 20
-97.3
 30
0.0
 11
35.05882352941177
 21
-96.5
 31
0.0
  0
LINE
  5
250
330
1F
100
AcDbEntity
  8
1
  6
Continuous
 62
     4
100
AcDbLine
 10
35.05882352941177
 20
-96.5
 30
0.0
 11
34.97058823529412
 21
-95.7
 31
0.0
  0
LINE
  5
251
330
1F
100
AcDbEntity
  8
1
  6
Continuous
 62
     4
100
AcDbLine
 10
34.97058823529412
 20
-95.7
 30
0.0
 11
34.61764705882354
 21
-95.2
 31
0.0
  0
LINE
  5
252
330
1F
100
AcDbEntity
  8
1
  6
Continuous
 62
     4
100
AcDbLine
 10
34.61764705882354
 20
-95.2
 30
0.0
 11
34.08823529411765
 21
-95.0
 31
0.0
  0
LINE
  5
253
330
1F
100
AcDbEntity
  8
1
  6
Continuous
 62
     4
100
AcDbLine
 10
36.91176470588236
 20
-95.0
 30
0.0
 11
36.38235294117647
 21
-95.2
 31
0.0
  0
LINE
  5
254
330
1F
100
AcDbEntity
  8
1
  6
Continuous
 62
     4
100
AcDbLine
 10
36.38235294117647
 20
-95.2
 30
0.0
 11
36.11764705882354
 21
-95.7
 31
0.0
  0
LINE
  5
255
330
1F
100
AcDbEntity
  8
1
  6
Continuous
 62
     4
100
AcDbLine
 10
36.11764705882354
 20
-95.7
 30
0.0
 11
35.94117647058824
 21
-96.5
 31
0.0
  0
LINE
  5
256
330
1F
100
AcDbEntity
  8
1
  6
Continuous
 62
     4
100
AcDbLine
 10
35.94117647058824
 20
-96.5
 30
0.0
 11
36.11764705882354
 21
-97.3
 31
0.0
  0
LINE
  5
257
330
1F
100
AcDbEntity
  8
1
  6
Continuous
 62
     4
100
AcDbLine
 10
36.11764705882354
 20
-97.3
 30
0.0
 11
36.38235294117647
 21
-97.8
 31
0.0
  0
LINE
  5
258
330
1F
100
AcDbEntity
  8
1
  6
Continuous
 62
     4
100
AcDbLine
 10
36.38235294117647
 20
-97.8
 30
0.0
 11
36.91176470588236
 21
-98.0
 31
0.0
  0
LINE
  5
259
330
1F
100
AcDbEntity
  8
1
  6
Continuous
 62
     4
100
AcDbLine
 10
36.91176470588236
 20
-98.0
 30
0.0
 11
37.44117647058824
 21
-97.8
 31
0.0
  0
LINE
  5
25A
330
1F
100
AcDbEntity
  8
1
  6
Continuous
 62
     4
100
AcDbLine
 10
37.44117647058824
 20
-97.8
 30
0.0
 11
37.79411764705883
 21
-97.3
 31
0.0
  0
LINE
  5
25B
330
1F
100
AcDbEntity
  8
1
  6
Continuous
 62
     4
100
AcDbLine
 10
37.79411764705883
 20
-97.3
 30
0.0
 11
37.88235294117648
 21
-96.5
 31
0.0
  0
LINE
  5
25C
330
1F
100
AcDbEntity
  8
1
  6
Continuous
 62
     4
100
AcDbLine
 10
37.88235294117648
 20
-96.5
 30
0.0
 11
37.79411764705883
 21
-95.7
 31
0.0
  0
LINE
  5
25D
330
1F
100
AcDbEntity
  8
1
  6
Continuous
 62
     4
100
AcDbLine
 10
37.79411764705883
 20
-95.7
 30
0.0
 11
37.44117647058824
 21
-95.2
 31
0.0
  0
LINE
  5
25E
330
1F
100
AcDbEntity
  8
1
  6
Continuous
 62
     4
100
AcDbLine
 10
37.44117647058824
 20
-95.2
 30
0.0
 11
36.91176470588236
 21
-95.0
 31
0.0
  0
LINE
  5
25F
330
1F
100
AcDbEntity
  8
1
  6
Continuous
 62
     4
100
AcDbLine
 10
40.35294117647059
 20
-98.0
 30
0.0
 11
40.35294117647059
 21
-95.0
 31
0.0
  0
LINE
  5
260
330
1F
100
AcDbEntity
  8
1
  6
Continuous
 62
     4
100
AcDbLine
 10
40.35294117647059
 20
-95.0
 30
0.0
 11
38.76470588235294
 21
-97.3
 31
0.0
  0
LINE
  5
261
330
1F
100
AcDbEntity
  8
1
  6
Continuous
 62
     4
100
AcDbLine
 10
38.76470588235294
 20
-97.3
 30
0.0
 11
40.88235294117647
 21
-97.3
 31
0.0
  0
LINE
  5
262
330
1F
100
AcDbEntity
  8
1
  6
Continuous
 62
     4
100
AcDbLine
 10
43.44117647058824
 20
-95.9
 30
0.0
 11
43.35294117647059
 21
-95.4
 31
0.0
  0
LINE
  5
263
330
1F
100
AcDbEntity
  8
1
  6
Continuous
 62
     4
100
AcDbLine
 10
43.35294117647059
 20
-95.4
 30
0.0
 11
43.08823529411765
 21
-95.1
 31
0.0
  0
LINE
  5
264
330
1F
100
AcDbEntity
  8
1
  6
Continuous
 62
     4
100
AcDbLine
 10
43.08823529411765
 20
-95.1
 30
0.0
 11
42.64705882352941
 21
-95.0
 31
0.0
  0
LINE
  5
265
330
1F
100
AcDbEntity
  8
1
  6
Continuous
 62
     4
100
AcDbLine
 10
42.64705882352941
 20
-95.0
 30
0.0
 11
42.20588235294117
 21
-95.1
 31
0.0
  0
LINE
  5
266
330
1F
100
AcDbEntity
  8
1
  6
Continuous
 62
     4
100
AcDbLine
 10
42.20588235294117
 20
-95.1
 30
0.0
 11
41.94117647058824
 21
-95.4
 31
0.0
  0
LINE
  5
267
330
1F
100
AcDbEntity
  8
1
  6
Continuous
 62
     4
100
AcDbLine
 10
41.94117647058824
 20
-95.4
 30
0.0
 11
41.76470588235294
 21
-95.9
 31
0.0
  0
LINE
  5
268
330
1F
100
AcDbEntity
  8
1
  6
Continuous
 62
     4
100
AcDbLine
 10
41.76470588235294
 20
-95.9
 30
0.0
 11
41.85294117647059
 21
-96.3
 31
0.0
  0
LINE
  5
269
330
1F
100
AcDbEntity
  8
1
  6
Continuous
 62
     4
100
AcDbLine
 10
41.85294117647059
 20
-96.3
 30
0.0
 11
41.94117647058824
 21
-96.5
 31
0.0
  0
LINE
  5
26A
330
1F
100
AcDbEntity
  8
1
  6
Continuous
 62
     4
100
AcDbLine
 10
41.94117647058824
 20
-96.5
 30
0.0
 11
42.29411764705883
 21
-96.8
 31
0.0
  0
LINE
  5
26B
330
1F
100
AcDbEntity
  8
1
  6
Continuous
 62
     4
100
AcDbLine
 10
42.29411764705883
 20
-96.8
 30
0.0
 11
42.64705882352941
 21
-96.9
 31
0.0
  0
LINE
  5
26C
330
1F
100
AcDbEntity
  8
1
  6
Continuous
 62
     4
100
AcDbLine
 10
42.64705882352941
 20
-96.9
 30
0.0
 11
43.0
 21
-96.8
 31
0.0
  0
LINE
  5
26D
330
1F
100
AcDbEntity
  8
1
  6
Continuous
 62
     4
100
AcDbLine
 10
43.0
 20
-96.8
 30
0.0
 11
43.26470588235294
 21
-96.5
 31
0.0
  0
LINE
  5
26E
330
1F
100
AcDbEntity
  8
1
  6
Continuous
 62
     4
100
AcDbLine
 10
43.26470588235294
 20
-96.5
 30
0.0
 11
43.44117647058824
 21
-95.9
 31
0.0
  0
LINE
  5
26F
330
1F
100
AcDbEntity
  8
1
  6
Continuous
 62
     4
100
AcDbLine
 10
43.44117647058824
 20
-95.9
 30
0.0
 11
43.44117647058824
 21
-97.1
 31
0.0
  0
LINE
  5
270
330
1F
100
AcDbEntity
  8
1
  6
Continuous
 62
     4
100
AcDbLine
 10
43.44117647058824
 20
-97.1
 30
0.0
 11
43.35294117647059
 21
-97.5
 31
0.0
  0
LINE
  5
271
330
1F
100
AcDbEntity
  8
1
  6
Continuous
 62
     4
100
AcDbLine
 10
43.35294117647059
 20
-97.5
 30
0.0
 11
43.08823529411765
 21
-97.8
 31
0.0
  0
LINE
  5
272
330
1F
100
AcDbEntity
  8
1
  6
Continuous
 62
     4
100
AcDbLine
 10
43.08823529411765
 20
-97.8
 30
0.0
 11
42.64705882352941
 21
-98.0
 31
0.0
  0
LINE
  5
273
330
1F
100
AcDbEntity
  8
1
  6
Continuous
 62
     4
100
AcDbLine
 10
42.64705882352941
 20
-98.0
 30
0.0
 11
42.02941176470588
 21
-97.8
 31
0.0
  0
LINE
  5
274
330
1F
100
AcDbEntity
  8
1
  6
Continuous
 62
     4
100
AcDbLine
 10
42.02941176470588
 20
-97.8
 30
0.0
 11
41.76470588235294
 21
-97.5
 31
0.0
  0
LINE
  5
275
330
1F
100
AcDbEntity
  8
1
  6
Continuous
 62
     4
100
AcDbLine
 10
45.73529411764707
 20
-95.0
 30
0.0
 11
45.73529411764707
 21
-97.2
 31
0.0
  0
LINE
  5
276
330
1F
100
AcDbEntity
  8
1
  6
Continuous
 62
     4
100
AcDbLine
 10
45.73529411764707
 20
-97.2
 30
0.0
 11
45.64705882352941
 21
-97.6
 31
0.0
  0
LINE
  5
277
330
1F
100
AcDbEntity
  8
1
  6
Continuous
 62
     4
100
AcDbLine
 10
45.64705882352941
 20
-97.6
 30
0.0
 11
45.38235294117648
 21
-97.9
 31
0.0
  0
LINE
  5
278
330
1F
100
AcDbEntity
  8
1
  6
Continuous
 62
     4
100
AcDbLine
 10
45.38235294117648
 20
-97.9
 30
0.0
 11
45.02941176470588
 21
-98.0
 31
0.0
  0
LINE
  5
279
330
1F
100
AcDbEntity
  8
1
  6
Continuous
 62
     4
100
AcDbLine
 10
45.02941176470588
 20
-98.0
 30
0.0
 11
44.6764705882353
 21
-97.9
 31
0.0
  0
LINE
  5
27A
330
1F
100
AcDbEntity
  8
1
  6
Continuous
 62
     4
100
AcDbLine
 10
44.6764705882353
 20
-97.9
 30
0.0
 11
44.41176470588236
 21
-97.6
 31
0.0
  0
LINE
  5
27B
330
1F
100
AcDbEntity
  8
1
  6
Continuous
 62
     4
100
AcDbLine
 10
44.41176470588236
 20
-97.6
 30
0.0
 11
44.32352941176471
 21
-97.2
 31
0.0
  0
LINE
  5
27C
330
1F
100
AcDbEntity
  8
1
  6
Continuous
 62
     4
100
AcDbLine
 10
48.29411764705883
 20
-95.0
 30
0.0
 11
46.61764705882354
 21
-95.0
 31
0.0
  0
LINE
  5
27D
330
1F
100
AcDbEntity
  8
1
  6
Continuous
 62
     4
100
AcDbLine
 10
46.61764705882354
 20
-95.0
 30
0.0
 11
46.61764705882354
 21
-96.5
 31
0.0
  0
LINE
  5
27E
330
1F
100
AcDbEntity
  8
1
  6
Continuous
 62
     4
100
AcDbLine
 10
46.61764705882354
 20
-96.5
 30
0.0
 11
48.11764705882354
 21
-96.5
 31
0.0
  0
LINE
  5
27F
330
1F
100
AcDbEntity
  8
1
  6
Continuous
 62
     4
100
AcDbLine
 10
46.61764705882354
 20
-96.5
 30
0.0
 11
46.61764705882354
 21
-98.0
 31
0.0
  0
LINE
  5
280
330
1F
100
AcDbEntity
  8
1
  6
Continuous
 62
     4
100
AcDbLine
 10
50.14705882352942
 20
-95.0
 30
0.0
 11
49.61764705882354
 21
-95.2
 31
0.0
  0
LINE
  5
281
330
1F
100
AcDbEntity
  8
1
  6
Continuous
 62
     4
100
AcDbLine
 10
49.61764705882354
 20
-95.2
 30
0.0
 11
49.3529411764706
 21
-95.7
 31
0.0
  0
LINE
  5
282
330
1F
100
AcDbEntity
  8
1
  6
Continuous
 62
     4
100
AcDbLine
 10
49.3529411764706
 20
-95.7
 30
0.0
 11
49.1764705882353
 21
-96.5
 31
0.0
  0
LINE
  5
283
330
1F
100
AcDbEntity
  8
1
  6
Continuous
 62
     4
100
AcDbLine
 10
49.1764705882353
 20
-96.5
 30
0.0
 11
49.3529411764706
 21
-97.3
 31
0.0
  0
LINE
  5
284
330
1F
100
AcDbEntity
  8
1
  6
Continuous
 62
     4
100
AcDbLine
 10
49.3529411764706
 20
-97.3
 30
0.0
 11
49.61764705882354
 21
-97.8
 31
0.0
  0
LINE
  5
285
330
1F
100
AcDbEntity
  8
1
  6
Continuous
 62
     4
100
AcDbLine
 10
49.61764705882354
 20
-97.8
 30
0.0
 11
50.14705882352942
 21
-98.0
 31
0.0
  0
LINE
  5
286
330
1F
100
AcDbEntity
  8
1
  6
Continuous
 62
     4
100
AcDbLine
 10
50.14705882352942
 20
-98.0
 30
0.0
 11
50.6764705882353
 21
-97.8
 31
0.0
  0
LINE
  5
287
330
1F
100
AcDbEntity
  8
1
  6
Continuous
 62
     4
100
AcDbLine
 10
50.6764705882353
 20
-97.8
 30
0.0
 11
51.02941176470589
 21
-97.3
 31
0.0
  0
LINE
  5
288
330
1F
100
AcDbEntity
  8
1
  6
Continuous
 62
     4
100
AcDbLine
 10
51.02941176470589
 20
-97.3
 30
0.0
 11
51.11764705882354
 21
-96.5
 31
0.0
  0
LINE
  5
289
330
1F
100
AcDbEntity
  8
1
  6
Continuous
 62
     4
100
AcDbLine
 10
51.11764705882354
 20
-96.5
 30
0.0
 11
51.02941176470589
 21
-95.7
 31
0.0
  0
LINE
  5
28A
330
1F
100
AcDbEntity
  8
1
  6
Continuous
 62
     4
100
AcDbLine
 10
51.02941176470589
 20
-95.7
 30
0.0
 11
50.6764705882353
 21
-95.2
 31
0.0
  0
LINE
  5
28B
330
1F
100
AcDbEntity
  8
1
  6
Continuous
 62
     4
100
AcDbLine
 10
50.6764705882353
 20
-95.2
 30
0.0
 11
50.14705882352942
 21
-95.0
 31
0.0
  0
LINE
  5
28C
330
1F
100
AcDbEntity
  8
1
  6
Continuous
 62
     4
100
AcDbLine
 10
52.00000000000001
 20
-95.3
 30
0.0
 11
52.44117647058824
 21
-95.0
 31
0.0
  0
LINE
  5
28D
330
1F
100
AcDbEntity
  8
1
  6
Continuous
 62
     4
100
AcDbLine
 10
52.44117647058824
 20
-95.0
 30
0.0
 11
52.44117647058824
 21
-98.0
 31
0.0
  0
LINE
  5
28E
330
1F
100
AcDbEntity
  8
1
  6
Continuous
 62
     4
100
AcDbLine
 10
53.32352941176471
 20
-96.5
 30
0.0
 11
54.91176470588236
 21
-96.5
 31
0.0
  0
LINE
  5
28F
330
1F
100
AcDbEntity
  8
1
  6
Continuous
 62
     4
100
AcDbLine
 10
56.76470588235294
 20
-95.0
 30
0.0
 11
56.23529411764706
 21
-95.2
 31
0.0
  0
LINE
  5
290
330
1F
100
AcDbEntity
  8
1
  6
Continuous
 62
     4
100
AcDbLine
 10
56.23529411764706
 20
-95.2
 30
0.0
 11
55.97058823529412
 21
-95.7
 31
0.0
  0
LINE
  5
291
330
1F
100
AcDbEntity
  8
1
  6
Continuous
 62
     4
100
AcDbLine
 10
55.97058823529412
 20
-95.7
 30
0.0
 11
55.79411764705883
 21
-96.5
 31
0.0
  0
LINE
  5
292
330
1F
100
AcDbEntity
  8
1
  6
Continuous
 62
     4
100
AcDbLine
 10
55.79411764705883
 20
-96.5
 30
0.0
 11
55.97058823529412
 21
-97.3
 31
0.0
  0
LINE
  5
293
330
1F
100
AcDbEntity
  8
1
  6
Continuous
 62
     4
100
AcDbLine
 10
55.97058823529412
 20
-97.3
 30
0.0
 11
56.23529411764706
 21
-97.8
 31
0.0
  0
LINE
  5
294
330
1F
100
AcDbEntity
  8
1
  6
Continuous
 62
     4
100
AcDbLine
 10
56.23529411764706
 20
-97.8
 30
0.0
 11
56.76470588235294
 21
-98.0
 31
0.0
  0
LINE
  5
295
330
1F
100
AcDbEntity
  8
1
  6
Continuous
 62
     4
100
AcDbLine
 10
56.76470588235294
 20
-98.0
 30
0.0
 11
57.29411764705883
 21
-97.8
 31
0.0
  0
LINE
  5
296
330
1F
100
AcDbEntity
  8
1
  6
Continuous
 62
     4
100
AcDbLine
 10
57.29411764705883
 20
-97.8
 30
0.0
 11
57.64705882352941
 21
-97.3
 31
0.0
  0
LINE
  5
297
330
1F
100
AcDbEntity
  8
1
  6
Continuous
 62
     4
100
AcDbLine
 10
57.64705882352941
 20
-97.3
 30
0.0
 11
57.73529411764706
 21
-96.5
 31
0.0
  0
LINE
  5
298
330
1F
100
AcDbEntity
  8
1
  6
Continuous
 62
     4
100
AcDbLine
 10
57.73529411764706
 20
-96.5
 30
0.0
 11
57.64705882352941
 21
-95.7
 31
0.0
  0
LINE
  5
299
330
1F
100
AcDbEntity
  8
1
  6
Continuous
 62
     4
100
AcDbLine
 10
57.64705882352941
 20
-95.7
 30
0.0
 11
57.29411764705883
 21
-95.2
 31
0.0
  0
LINE
  5
29A
330
1F
100
AcDbEntity
  8
1
  6
Continuous
 62
     4
100
AcDbLine
 10
57.29411764705883
 20
-95.2
 30
0.0
 11
56.76470588235294
 21
-95.0
 31
0.0
  0
LINE
  5
29B
330
1F
100
AcDbEntity
  8
1
  6
Continuous
 62
     4
100
AcDbLine
 10
-50.73529411764706
 20
-24.2
 30
0.0
 11
-50.29411764705883
 21
-24.6
 31
0.0
  0
LINE
  5
29C
330
1F
100
AcDbEntity
  8
1
  6
Continuous
 62
     4
100
AcDbLine
 10
-50.8235294117647
 20
-25.1
 30
0.0
 11
-50.38235294117647
 21
-25.5
 31
0.0
  0
LINE
  5
29D
330
1F
100
AcDbEntity
  8
1
  6
Continuous
 62
     4
100
AcDbLine
 10
-50.8235294117647
 20
-27.0
 30
0.0
 11
-50.38235294117647
 21
-25.8
 31
0.0
  0
LINE
  5
29E
330
1F
100
AcDbEntity
  8
1
  6
Continuous
 62
     4
100
AcDbLine
 10
-50.29411764705883
 20
-24.3
 30
0.0
 11
-49.3235294117647
 21
-24.3
 31
0.0
  0
LINE
  5
29F
330
1F
100
AcDbEntity
  8
1
  6
Continuous
 62
     4
100
AcDbLine
 10
-49.3235294117647
 20
-23.9
 30
0.0
 11
-49.3235294117647
 21
-24.3
 31
0.0
  0
LINE
  5
2A0
330
1F
100
AcDbEntity
  8
1
  6
Continuous
 62
     4
100
AcDbLine
 10
-49.3235294117647
 20
-24.3
 30
0.0
 11
-50.02941176470588
 21
-25.4
 31
0.0
  0
LINE
  5
2A1
330
1F
100
AcDbEntity
  8
1
  6
Continuous
 62
     4
100
AcDbLine
 10
-50.29411764705883
 20
-25.4
 30
0.0
 11
-50.02941176470588
 21
-25.4
 31
0.0
  0
LINE
  5
2A2
330
1F
100
AcDbEntity
  8
1
  6
Continuous
 62
     4
100
AcDbLine
 10
-50.02941176470588
 20
-25.4
 30
0.0
 11
-48.44117647058823
 21
-25.3
 31
0.0
  0
LINE
  5
2A3
330
1F
100
AcDbEntity
  8
1
  6
Continuous
 62
     4
100
AcDbLine
 10
-48.79411764705883
 20
-24.7
 30
0.0
 11
-48.44117647058823
 21
-25.3
 31
0.0
  0
LINE
  5
2A4
330
1F
100
AcDbEntity
  8
1
  6
Continuous
 62
     4
100
AcDbLine
 10
-48.44117647058823
 20
-25.3
 30
0.0
 11
-48.26470588235294
 21
-25.7
 31
0.0
  0
LINE
  5
2A5
330
1F
100
AcDbEntity
  8
1
  6
Continuous
 62
     4
100
AcDbLine
 10
-49.85294117647059
 20
-25.4
 30
0.0
 11
-49.94117647058823
 21
-26.0
 31
0.0
  0
LINE
  5
2A6
330
1F
100
AcDbEntity
  8
1
  6
Continuous
 62
     4
100
AcDbLine
 10
-49.94117647058823
 20
-26.0
 30
0.0
 11
-50.11764705882353
 21
-26.5
 31
0.0
  0
LINE
  5
2A7
330
1F
100
AcDbEntity
  8
1
  6
Continuous
 62
     4
100
AcDbLine
 10
-50.11764705882353
 20
-26.5
 30
0.0
 11
-50.47058823529412
 21
-27.0
 31
0.0
  0
LINE
  5
2A8
330
1F
100
AcDbEntity
  8
1
  6
Continuous
 62
     4
100
AcDbLine
 10
-49.3235294117647
 20
-25.4
 30
0.0
 11
-49.3235294117647
 21
-27.0
 31
0.0
  0
LINE
  5
2A9
330
1F
100
AcDbEntity
  8
1
  6
Continuous
 62
     4
100
AcDbLine
 10
-48.70588235294117
 20
-25.4
 30
0.0
 11
-48.70588235294117
 21
-27.0
 31
0.0
  0
LINE
  5
2AA
330
1F
100
AcDbEntity
  8
1
  6
Continuous
 62
     4
100
AcDbLine
 10
-48.70588235294117
 20
-27.0
 30
0.0
 11
-48.26470588235294
 21
-27.0
 31
0.0
  0
LINE
  5
2AB
330
1F
100
AcDbEntity
  8
1
  6
Continuous
 62
     4
100
AcDbLine
 10
-48.26470588235294
 20
-27.0
 30
0.0
 11
-48.26470588235294
 21
-26.3
 31
0.0
  0
LINE
  5
2AC
330
1F
100
AcDbEntity
  8
1
  6
Continuous
 62
     4
100
AcDbLine
 10
-49.3235294117647
 20
-24.3
 30
0.0
 11
-48.35294117647059
 21
-24.3
 31
0.0
  0
LINE
  5
2AD
330
1F
100
AcDbEntity
  8
1
  6
Continuous
 62
     4
100
AcDbLine
 10
-46.05882352941176
 20
-24.0
 30
0.0
 11
-46.05882352941176
 21
-24.3
 31
0.0
  0
LINE
  5
2AE
330
1F
100
AcDbEntity
  8
1
  6
Continuous
 62
     4
100
AcDbLine
 10
-46.05882352941176
 20
-27.1
 30
0.0
 11
-46.67647058823529
 21
-26.7
 31
0.0
  0
LINE
  5
2AF
330
1F
100
AcDbEntity
  8
1
  6
Continuous
 62
     4
100
AcDbLine
 10
-47.38235294117647
 20
-24.6
 30
0.0
 11
-46.5
 21
-24.6
 31
0.0
  0
LINE
  5
2B0
330
1F
100
AcDbEntity
  8
1
  6
Continuous
 62
     4
100
AcDbLine
 10
-46.5
 20
-24.6
 30
0.0
 11
-46.58823529411765
 21
-25.4
 31
0.0
  0
LINE
  5
2B1
330
1F
100
AcDbEntity
  8
1
  6
Continuous
 62
     4
100
AcDbLine
 10
-46.58823529411765
 20
-25.4
 30
0.0
 11
-46.85294117647059
 21
-26.1
 31
0.0
  0
LINE
  5
2B2
330
1F
100
AcDbEntity
  8
1
  6
Continuous
 62
     4
100
AcDbLine
 10
-46.85294117647059
 20
-26.1
 30
0.0
 11
-47.38235294117647
 21
-26.8
 31
0.0
  0
LINE
  5
2B3
330
1F
100
AcDbEntity
  8
1
  6
Continuous
 62
     4
100
AcDbLine
 10
-44.8235294117647
 20
-24.3
 30
0.0
 11
-45.52941176470588
 21
-25.3
 31
0.0
  0
LINE
  5
2B4
330
1F
100
AcDbEntity
  8
1
  6
Continuous
 62
     4
100
AcDbLine
 10
-46.05882352941176
 20
-24.3
 30
0.0
 11
-45.70588235294117
 21
-25.4
 31
0.0
  0
LINE
  5
2B5
330
1F
100
AcDbEntity
  8
1
  6
Continuous
 62
     4
100
AcDbLine
 10
-45.70588235294117
 20
-25.4
 30
0.0
 11
-45.26470588235294
 21
-26.2
 31
0.0
  0
LINE
  5
2B6
330
1F
100
AcDbEntity
  8
1
  6
Continuous
 62
     4
100
AcDbLine
 10
-45.26470588235294
 20
-26.2
 30
0.0
 11
-44.64705882352941
 21
-26.9
 31
0.0
  0
LINE
  5
2B7
330
1F
100
AcDbEntity
  8
1
  6
Continuous
 62
     4
100
AcDbLine
 10
-46.05882352941176
 20
-24.3
 30
0.0
 11
-46.05882352941176
 21
-27.1
 31
0.0
  0
LINE
  5
2B8
330
1F
100
AcDbEntity
  8
1
  6
Continuous
 62
     4
100
AcDbLine
 10
-42.44117647058823
 20
-24.0
 30
0.0
 11
-42.44117647058823
 21
-24.4
 31
0.0
  0
LINE
  5
2B9
330
1F
100
AcDbEntity
  8
1
  6
Continuous
 62
     4
100
AcDbLine
 10
-43.85294117647059
 20
-24.4
 30
0.0
 11
-43.05882352941176
 21
-24.4
 31
0.0
  0
LINE
  5
2BA
330
1F
100
AcDbEntity
  8
1
  6
Continuous
 62
     4
100
AcDbLine
 10
-43.05882352941176
 20
-24.4
 30
0.0
 11
-43.05882352941176
 21
-25.1
 31
0.0
  0
LINE
  5
2BB
330
1F
100
AcDbEntity
  8
1
  6
Continuous
 62
     4
100
AcDbLine
 10
-43.05882352941176
 20
-25.4
 30
0.0
 11
-43.3235294117647
 21
-26.3
 31
0.0
  0
LINE
  5
2BC
330
1F
100
AcDbEntity
  8
1
  6
Continuous
 62
     4
100
AcDbLine
 10
-43.3235294117647
 20
-26.3
 30
0.0
 11
-43.85294117647059
 21
-27.0
 31
0.0
  0
LINE
  5
2BD
330
1F
100
AcDbEntity
  8
1
  6
Continuous
 62
     4
100
AcDbLine
 10
-43.05882352941176
 20
-25.1
 30
0.0
 11
-41.38235294117646
 21
-25.1
 31
0.0
  0
LINE
  5
2BE
330
1F
100
AcDbEntity
  8
1
  6
Continuous
 62
     4
100
AcDbLine
 10
-41.38235294117646
 20
-25.1
 30
0.0
 11
-41.38235294117646
 21
-26.3
 31
0.0
  0
LINE
  5
2BF
330
1F
100
AcDbEntity
  8
1
  6
Continuous
 62
     4
100
AcDbLine
 10
-41.38235294117646
 20
-26.3
 30
0.0
 11
-41.91176470588235
 21
-27.0
 31
0.0
  0
LINE
  5
2C0
330
1F
100
AcDbEntity
  8
1
  6
Continuous
 62
     4
100
AcDbLine
 10
-41.91176470588235
 20
-27.0
 30
0.0
 11
-42.70588235294117
 21
-26.9
 31
0.0
  0
LINE
  5
2C1
330
1F
100
AcDbEntity
  8
1
  6
Continuous
 62
     4
100
AcDbLine
 10
-43.05882352941176
 20
-25.1
 30
0.0
 11
-43.05882352941176
 21
-25.4
 31
0.0
  0
LINE
  5
2C2
330
1F
100
AcDbEntity
  8
1
  6
Continuous
 62
     4
100
AcDbLine
 10
-43.05882352941176
 20
-24.4
 30
0.0
 11
-41.20588235294117
 21
-24.4
 31
0.0
  0
LINE
  5
2C3
330
1F
100
AcDbEntity
  8
1
  6
Continuous
 62
     4
100
AcDbLine
 10
-38.91176470588236
 20
-24.0
 30
0.0
 11
-39.08823529411765
 21
-24.4
 31
0.0
  0
LINE
  5
2C4
330
1F
100
AcDbEntity
  8
1
  6
Continuous
 62
     4
100
AcDbLine
 10
-40.14705882352941
 20
-27.0
 30
0.0
 11
-40.14705882352941
 21
-24.4
 31
0.0
  0
LINE
  5
2C5
330
1F
100
AcDbEntity
  8
1
  6
Continuous
 62
     4
100
AcDbLine
 10
-40.14705882352941
 20
-24.4
 30
0.0
 11
-39.08823529411765
 21
-24.4
 31
0.0
  0
LINE
  5
2C6
330
1F
100
AcDbEntity
  8
1
  6
Continuous
 62
     4
100
AcDbLine
 10
-37.76470588235294
 20
-24.4
 30
0.0
 11
-37.76470588235294
 21
-26.7
 31
0.0
  0
LINE
  5
2C7
330
1F
100
AcDbEntity
  8
1
  6
Continuous
 62
     4
100
AcDbLine
 10
-37.76470588235294
 20
-26.7
 30
0.0
 11
-38.02941176470588
 21
-27.0
 31
0.0
  0
LINE
  5
2C8
330
1F
100
AcDbEntity
  8
1
  6
Continuous
 62
     4
100
AcDbLine
 10
-38.02941176470588
 20
-27.0
 30
0.0
 11
-38.47058823529412
 21
-26.9
 31
0.0
  0
LINE
  5
2C9
330
1F
100
AcDbEntity
  8
1
  6
Continuous
 62
     4
100
AcDbLine
 10
-39.70588235294118
 20
-24.9
 30
0.0
 11
-38.20588235294118
 21
-24.9
 31
0.0
  0
LINE
  5
2CA
330
1F
100
AcDbEntity
  8
1
  6
Continuous
 62
     4
100
AcDbLine
 10
-38.20588235294118
 20
-24.9
 30
0.0
 11
-38.20588235294118
 21
-26.3
 31
0.0
  0
LINE
  5
2CB
330
1F
100
AcDbEntity
  8
1
  6
Continuous
 62
     4
100
AcDbLine
 10
-38.20588235294118
 20
-26.3
 30
0.0
 11
-39.70588235294118
 21
-26.3
 31
0.0
  0
LINE
  5
2CC
330
1F
100
AcDbEntity
  8
1
  6
Continuous
 62
     4
100
AcDbLine
 10
-39.70588235294118
 20
-26.3
 30
0.0
 11
-39.70588235294118
 21
-24.9
 31
0.0
  0
LINE
  5
2CD
330
1F
100
AcDbEntity
  8
1
  6
Continuous
 62
     4
100
AcDbLine
 10
-39.08823529411765
 20
-24.4
 30
0.0
 11
-37.76470588235294
 21
-24.4
 31
0.0
  0
ARC
  5
2CE
330
1F
100
AcDbEntity
  8
1
  6
Continuous
 62
     3
100
AcDbCircle
 10
21.0
 20
26.80887855041514
 30
0.0
 40
1.999999999999998
100
AcDbArc
 50
128.6821874534895
 51
180.0
  0
ARC
  5
2CF
330
1F
100
AcDbEntity
  8
1
  6
Continuous
 62
     3
100
AcDbCircle
 10
43.20555349946574
 20
-15.15544456622776
 30
0.0
 40
8.08290376865534
100
AcDbArc
 50
158.2132107017408
 51
201.7867892982592
  0
ARC
  5
2D0
330
1F
100
AcDbEntity
  8
1
  6
Continuous
 62
     3
100
AcDbCircle
 10
66.58823940164973
 20
0.0
 30
0.0
 40
31.46558967083934
100
AcDbArc
 50
169.0072669106925
 51
190.9927330893075
  0
ARC
  5
2D1
330
1F
100
AcDbEntity
  8
1
  6
Continuous
 62
     3
100
AcDbCircle
 10
43.20555349946619
 20
15.1554445662277
 30
0.0
 40
8.08290376865579
100
AcDbArc
 50
158.2132107017414
 51
201.7867892982586
  0
ARC
  5
2D2
330
1F
100
AcDbEntity
  8
1
  6
Continuous
 62
     3
100
AcDbCircle
 10
-43.20555349946631
 20
15.1554445662277
 30
0.0
 40
8.08290376865579
100
AcDbArc
 50
338.2132107017414
 51
21.7867892982586
  0
ARC
  5
2D3
330
1F
100
AcDbEntity
  8
1
  6
Continuous
 62
     3
100
AcDbCircle
 10
-66.58823940164984
 20
0.0
 30
0.0
 40
31.46558967083933
100
AcDbArc
 50
349.0072669106924
 51
10.99273308930754
  0
ARC
  5
2D4
330
1F
100
AcDbEntity
  8
1
  6
Continuous
 62
     3
100
AcDbCircle
 10
-43.20555349946585
 20
-15.15544456622776
 30
0.0
 40
8.082903768655331
100
AcDbArc
 50
338.2132107017407
 51
21.78678929825922
  0
ARC
  5
2D5
330
1F
100
AcDbEntity
  8
0
  6
Continuous
 62
     3
100
AcDbCircle
 10
21.00000201434841
 20
17.00000201434781
 30
0.0
 40
2.000002014351122
100
AcDbArc
 50
180.0000943395144
 51
269.9998957128026
  0
ARC
  5
2D6
330
1F
100
AcDbEntity
  8
0
  6
Continuous
 62
     3
100
AcDbCircle
 10
32.52457351945714
 20
17.00000000000011
 30
0.0
 40
2.0
100
AcDbArc
 50
270.0
 51
329.9999999999995
  0
ARC
  5
2D7
330
1F
100
AcDbEntity
  8
0
  6
Continuous
 62
     3
100
AcDbCircle
 10
-22.50038407558816
 20
21.73558713449441
 30
0.0
 40
2.000553872759409
100
AcDbArc
 50
303.6774241456496
 51
337.3295166589868
  0
ARC
  5
2D8
330
1F
100
AcDbEntity
  8
0
  6
Continuous
 62
     3
100
AcDbCircle
 10
-30.51339925802097
 20
19.9999409883963
 30
0.0
 40
4.999940989064325
100
AcDbArc
 50
270.0009366714961
 51
303.681324391187
  0
ARC
  5
2D9
330
1F
100
AcDbEntity
  8
0
  6
Continuous
 62
     3
100
AcDbCircle
 10
-32.52457351945714
 20
17.00000000000011
 30
0.0
 40
1.999999999999863
100
AcDbArc
 50
210.0000000000022
 51
270.0
  0
ARC
  5
2DA
330
1F
100
AcDbEntity
  8
0
  6
Continuous
 62
     3
100
AcDbCircle
 10
-21.00000312072689
 20
-17.00000312072591
 30
0.0
 40
2.000003120732101
100
AcDbArc
 50
0.00013077501799
 51
89.99985779547356
  0
ARC
  5
2DB
330
1F
100
AcDbEntity
  8
0
  6
Continuous
 62
     3
100
AcDbCircle
 10
-16.9999996661744
 20
-31.54616452928849
 30
0.0
 40
2.499999666174409
100
AcDbArc
 50
359.9999949788447
 51
66.44246146562811
  0
ARC
  5
2DC
330
1F
100
AcDbEntity
  8
0
  6
Continuous
 62
     3
100
AcDbCircle
 10
13.69989165377126
 20
-25.16276818896301
 30
0.0
 40
5.001063681691384
100
AcDbArc
 50
296.1040875843148
 51
319.3933415277384
  0
ARC
  5
2DD
330
1F
100
AcDbEntity
  8
0
  6
Continuous
 62
     3
100
AcDbCircle
 10
31.29934387959997
 20
-19.9999615264453
 30
0.0
 40
4.999961526621393
100
AcDbArc
 50
90.00048073076296
 51
139.3932642739296
  0
ARC
  5
2DE
330
1F
100
AcDbEntity
  8
0
  6
Continuous
 62
     3
100
AcDbCircle
 10
32.52457351945714
 20
-16.9999999999999
 30
0.0
 40
1.999999999999863
100
AcDbArc
 50
30.00000000000228
 51
90.0
  0
ARC
  5
2DF
330
1F
100
AcDbEntity
  8
0
  6
Continuous
 62
     3
100
AcDbCircle
 10
-32.52457351945714
 20
-16.9999999999999
 30
0.0
 40
2.0
100
AcDbArc
 50
90.0
 51
149.9999999999978
  0
ARC
  5
2E0
330
1F
100
AcDbEntity
  8
0
  6
Continuous
 62
     3
100
AcDbCircle
 10
-22.49867099951155
 20
21.734803191937
 30
0.0
 40
1.998670999912252
100
AcDbArc
 50
337.3313255558857
 51
359.9988528213383
  0
ARC
  5
2E1
330
1F
100
AcDbEntity
  8
0
  6
Continuous
 62
     3
100
AcDbCircle
 10
17.5
 20
25.3937138307777
 30
0.0
 40
2.500000000000068
100
AcDbArc
 50
91.9999999999983
 51
180.0
  0
ARC
  5
2E2
330
1F
100
AcDbEntity
  8
0
  6
Continuous
 62
     3
100
AcDbCircle
 10
17.50000043327657
 20
24.8048063833491
 30
0.0
 40
2.500000433276578
100
AcDbArc
 50
180.0000051113739
 51
242.1818562581592
  0
ARC
  5
2E3
330
1F
100
AcDbEntity
  8
0
  6
Continuous
 62
     3
100
AcDbCircle
 10
-17.5
 20
25.3937138307777
 30
0.0
 40
2.500000000000063
100
AcDbArc
 50
1.47354788977157
 51
87.99999999999893
  0
ARC
  5
2E4
330
1F
100
AcDbEntity
  8
0
  6
Continuous
 62
     3
100
AcDbCircle
 10
13.99999993845324
 20
18.17155650424851
 30
0.0
 40
5.000000061546775
100
AcDbArc
 50
359.9999957152714
 51
62.18185952464639
  0
ARC
  5
2E5
330
1F
100
AcDbEntity
  8
1
  6
Continuous
 62
     3
100
AcDbCircle
 10
-17.0
 20
25.40050214419921
 30
0.0
 40
2.000000000000028
100
AcDbArc
 50
303.6803877152381
 51
1.647487976687
  0
ARC
  5
2E6
330
1F
100
AcDbEntity
  8
1
  6
Continuous
 62
     3
100
AcDbCircle
 10
-21.0
 20
-9.1324240225883
 30
0.0
 40
2.0
100
AcDbArc
 50
0.0
 51
59.65650859589169
  0
ARC
  5
2E7
330
1F
100
AcDbEntity
  8
1
  6
Continuous
 62
     3
100
AcDbCircle
 10
-21.0
 20
-9.1324240225883
 30
0.0
 40
2.000000000000044
100
AcDbArc
 50
59.65650859589169
 51
138.5861454315515
  0
ARC
  5
2E8
330
1F
100
AcDbEntity
  8
1
  6
Continuous
 62
     3
100
AcDbCircle
 10
21.0
 20
9.1324240225884
 30
0.0
 40
2.0
100
AcDbArc
 50
180.0
 51
318.5861454315518
  0
ARC
  5
2E9
330
1F
100
AcDbEntity
  8
0
  6
Continuous
 62
     3
100
AcDbCircle
 10
18.5
 20
29.93137754961434
 30
0.0
 40
1.999999999999988
100
AcDbArc
 50
272.0000000000005
 51
0.0
  0
ARC
  5
2EA
330
1F
100
AcDbEntity
  8
0
  6
Continuous
 62
     3
100
AcDbCircle
 10
-18.5
 20
29.93137754961434
 30
0.0
 40
2.0
100
AcDbArc
 50
180.0
 51
267.9999999999995
  0
ARC
  5
2EB
330
1F
100
AcDbEntity
  8
1
  6
Continuous
 62
     3
100
AcDbCircle
 10
14.9999997179998
 20
81.0341331574013
 30
0.0
 40
4.999999906000086
100
AcDbArc
 50
180.0
 51
224.977318564573
  0
ARC
  5
2EC
330
1F
100
AcDbEntity
  8
1
  6
Continuous
 62
     3
100
AcDbCircle
 10
-17.00013702185652
 20
58.8876897245449
 30
0.0
 40
2.999999943600246
100
AcDbArc
 50
119.451748930396
 51
180.5482510696056
  0
ARC
  5
2ED
330
1F
100
AcDbEntity
  8
1
  6
Continuous
 62
     3
100
AcDbCircle
 10
-14.99999971800025
 20
81.0341331574013
 30
0.0
 40
4.999999905999621
100
AcDbArc
 50
289.4926182729839
 51
0.0
  0
ARC
  5
2EE
330
1F
100
AcDbEntity
  8
1
  6
Continuous
 62
     3
100
AcDbCircle
 10
-7.99999984960004
 20
97.4999992292
 30
0.0
 40
1.99999996240058
100
AcDbArc
 50
90.0
 51
180.0
  0
ARC
  5
2EF
330
1F
100
AcDbEntity
  8
1
  6
Continuous
 62
     3
100
AcDbCircle
 10
7.99999984959959
 20
97.4999992292
 30
0.0
 40
1.999999962400125
100
AcDbArc
 50
0.0
 51
90.0
  0
ARC
  5
2F0
330
1F
100
AcDbEntity
  8
1
  6
Continuous
 62
     3
100
AcDbCircle
 10
14.9999997179998
 20
81.0341331574013
 30
0.0
 40
4.999999906000452
100
AcDbArc
 50
224.977318564573
 51
250.5073817270195
  0
ARC
  5
2F1
330
1F
100
AcDbEntity
  8
1
  6
Continuous
 62
     3
100
AcDbCircle
 10
17.00013702185606
 20
58.8876897245449
 30
0.0
 40
2.999999943599958
100
AcDbArc
 50
359.4517489303944
 51
60.54825106960385
  0
ARC
  5
2F2
330
1F
100
AcDbEntity
  8
1
  6
Continuous
 62
     3
100
AcDbCircle
 10
13.85640620005029
 20
62.76372140993169
 30
0.0
 40
12.61243670873254
100
AcDbArc
 50
68.51792493819443
 51
111.4820750618056
  0
ARC
  5
2F3
330
1F
100
AcDbEntity
  8
1
  6
Continuous
 62
     3
100
AcDbCircle
 10
-13.85640620005074
 20
62.76372140993149
 30
0.0
 40
12.61243670873272
100
AcDbArc
 50
68.51792493819477
 51
111.4820750618053
  0
ARC
  5
2F4
330
1F
100
AcDbEntity
  8
1
  6
Continuous
 62
     3
100
AcDbCircle
 10
-0.00000000000023
 20
26.24064896932592
 30
0.0
 40
49.13550914933828
100
AcDbArc
 50
79.16375810333912
 51
100.8362418966609
  0
ARC
  5
301
330
1F
100
AcDbEntity
  8
3
  6
CENTER
 62
     4
100
AcDbCircle
 10
-29.0
 20
107.0000000000005
 30
0.0
 40
2.0
100
AcDbArc
 50
180.0
 51
270.0
  0
ARC
  5
302
330
1F
100
AcDbEntity
  8
3
  6
PHANTOM
 62
     4
100
AcDbCircle
 10
-12.5
 20
122.5000000000005
 30
0.0
 40
2.5
100
AcDbArc
 50
90.0
 51
106.8980453281866
  0
ARC
  5
303
330
1F
100
AcDbEntity
  8
3
  6
PHANTOM
 62
     4
100
AcDbCircle
 10
-25.0
 20
115.0447385184645
 30
0.0
 40
5.999999999999164
100
AcDbArc
 50
106.8980453282005
 51
180.0
  0
ARC
  5
304
330
1F
100
AcDbEntity
  8
3
  6
Continuous
 62
     3
100
AcDbCircle
 10
-29.0
 20
119.5000000000005
 30
0.0
 40
2.0
100
AcDbArc
 50
180.0
 51
270.0
  0
ARC
  5
305
330
1F
100
AcDbEntity
  8
3
  6
Continuous
 62
     3
100
AcDbCircle
 10
-25.0
 20
127.5447385184645
 30
0.0
 40
5.999999999999098
100
AcDbArc
 50
106.8980453281984
 51
180.0
  0
ARC
  5
306
330
1F
100
AcDbEntity
  8
3
  6
Continuous
 62
     3
100
AcDbCircle
 10
-12.5
 20
135.0000000000005
 30
0.0
 40
2.5
100
AcDbArc
 50
90.0
 51
106.8980453281866
  0
ARC
  5
307
330
1F
100
AcDbEntity
  8
3
  6
PHANTOM
 62
     4
100
AcDbCircle
 10
12.49999999999943
 20
122.5000000000005
 30
0.0
 40
2.500000000001628
100
AcDbArc
 50
73.10195467178603
 51
90.0
  0
ARC
  5
308
330
1F
100
AcDbEntity
  8
3
  6
PHANTOM
 62
     4
100
AcDbCircle
 10
24.99999999999943
 20
115.0447385184645
 30
0.0
 40
6.0
100
AcDbArc
 50
0.0
 51
73.1019546718037
  0
ARC
  5
309
330
1F
100
AcDbEntity
  8
3
  6
PHANTOM
 62
     4
100
AcDbCircle
 10
28.99999999999943
 20
107.0000000000005
 30
0.0
 40
2.0
100
AcDbArc
 50
270.0
 51
0.0
  0
ARC
  5
30A
330
1F
100
AcDbEntity
  8
3
  6
Continuous
 62
     3
100
AcDbCircle
 10
12.49999999999943
 20
135.0000000000005
 30
0.0
 40
2.500000000001628
100
AcDbArc
 50
73.10195467178603
 51
90.0
  0
ARC
  5
30B
330
1F
100
AcDbEntity
  8
3
  6
Continuous
 62
     3
100
AcDbCircle
 10
24.99999999999943
 20
127.5447385184645
 30
0.0
 40
6.0
100
AcDbArc
 50
0.0
 51
73.1019546718037
  0
ARC
  5
30C
330
1F
100
AcDbEntity
  8
3
  6
Continuous
 62
     3
100
AcDbCircle
 10
28.99999999999943
 20
119.5000000000005
 30
0.0
 40
2.0
100
AcDbArc
 50
270.0
 51
0.0
  0
ARC
  5
30D
330
1F
100
AcDbEntity
  8
1
  6
Continuous
 62
     3
100
AcDbCircle
 10
-41.62842109675285
 20
15.1554445662277
 30
0.0
 40
8.082903768652406
100
AcDbArc
 50
158.2132107017318
 51
201.7867892982682
  0
ARC
  5
30E
330
1F
100
AcDbEntity
  8
1
  6
Continuous
 62
     3
100
AcDbCircle
 10
-18.2457351945784
 20
0.0
 30
0.0
 40
31.46558967082684
100
AcDbArc
 50
169.007266910688
 51
190.992733089312
  0
ARC
  5
30F
330
1F
100
AcDbEntity
  8
1
  6
Continuous
 62
     3
100
AcDbCircle
 10
-41.62842109675307
 20
-15.15544456622776
 30
0.0
 40
8.082903768652168
100
AcDbArc
 50
158.2132107017318
 51
201.7867892982682
  0
ARC
  5
310
330
1F
100
AcDbEntity
  8
1
  6
Continuous
 62
     3
100
AcDbCircle
 10
41.62842109675307
 20
-15.15544456622776
 30
0.0
 40
8.082903768652171
100
AcDbArc
 50
338.2132107017318
 51
21.78678929826817
  0
ARC
  5
311
330
1F
100
AcDbEntity
  8
1
  6
Continuous
 62
     3
100
AcDbCircle
 10
18.2457351945784
 20
0.0
 30
0.0
 40
31.46558967082684
100
AcDbArc
 50
349.007266910688
 51
10.99273308931196
  0
ARC
  5
312
330
1F
100
AcDbEntity
  8
1
  6
Continuous
 62
     3
100
AcDbCircle
 10
41.62842109675285
 20
15.1554445662277
 30
0.0
 40
8.082903768652406
100
AcDbArc
 50
338.2132107017318
 51
21.78678929826819
  0
ARC
  5
313
330
1F
100
AcDbEntity
  8
0
  6
Continuous
 62
     3
100
AcDbCircle
 10
16.99999999999997
 20
-35.12863460026938
 30
0.0
 40
2.500000000000002
100
AcDbArc
 50
180.0
 51
216.869897645844
  0
ARC
  5
314
330
1F
100
AcDbEntity
  8
0
  6
Continuous
 62
     3
100
AcDbCircle
 10
-17.0
 20
-35.12863460026938
 30
0.0
 40
2.5
100
AcDbArc
 50
323.130102354156
 51
0.0
  0
ARC
  5
315
330
1F
100
AcDbEntity
  8
0
  6
Continuous
 62
     3
100
AcDbCircle
 10
157.000012693546
 20
-35.12867883023691
 30
0.0
 40
2.5
100
AcDbArc
 50
180.0
 51
216.869897645844
  0
ARC
  5
316
330
1F
100
AcDbEntity
  8
0
  6
Continuous
 62
     3
100
AcDbCircle
 10
123.000012693546
 20
-35.12867883023691
 30
0.0
 40
2.5
100
AcDbArc
 50
323.130102354156
 51
0.0
  0
ARC
  5
317
330
1F
100
AcDbEntity
  8
0
  6
Continuous
 62
     3
100
AcDbCircle
 10
126.0000125872345
 20
-24.67160089578148
 30
0.0
 40
4.999999893688527
100
AcDbArc
 50
179.9999937114422
 51
246.4218189383255
  0
ARC
  5
318
330
1F
100
AcDbEntity
  8
0
  6
Continuous
 62
     3
100
AcDbCircle
 10
123.000012693546
 20
-35.12867883023691
 30
0.0
 40
2.5
100
AcDbArc
 50
323.130102354156
 51
0.0
  0
ARC
  5
319
330
1F
100
AcDbEntity
  8
0
  6
Continuous
 62
     3
100
AcDbCircle
 10
123.0000123671583
 20
-31.54546458228899
 30
0.0
 40
2.500000326387693
100
AcDbArc
 50
359.9999981575167
 51
66.42182338681806
  0
ARC
  5
31A
330
1F
100
AcDbEntity
  8
0
  6
Continuous
 62
     3
100
AcDbCircle
 10
154.0000126319992
 20
18.17151227428112
 30
0.0
 40
5.000000061546828
100
AcDbArc
 50
359.9999957152701
 51
62.18185952464445
  0
ARC
  5
31B
330
1F
100
AcDbEntity
  8
0
  6
Continuous
 62
     3
100
AcDbCircle
 10
157.500012693546
 20
25.39366960081022
 30
0.0
 40
2.500000000000158
100
AcDbArc
 50
91.99999999999895
 51
180.0
  0
ARC
  5
31C
330
1F
100
AcDbEntity
  8
0
  6
Continuous
 62
     3
100
AcDbCircle
 10
157.5000131268225
 20
24.8047621533818
 30
0.0
 40
2.500000433276493
100
AcDbArc
 50
180.0000051113763
 51
242.1818562581647
  0
ARC
  5
31D
330
1F
100
AcDbEntity
  8
0
  6
Continuous
 62
     3
100
AcDbCircle
 10
159.000012693546
 20
29.44848893224312
 30
0.0
 40
1.49999999999998
100
AcDbArc
 50
272.0000000000048
 51
0.0
  0
ARC
  5
31E
330
1F
100
AcDbEntity
  8
0
  6
Continuous
 62
     3
100
AcDbCircle
 10
126.0000127851458
 20
18.1715123531039
 30
0.0
 40
5.000000091599912
100
AcDbArc
 50
117.8181377499782
 51
180.000005340395
  0
ARC
  5
31F
330
1F
100
AcDbEntity
  8
0
  6
Continuous
 62
     3
100
AcDbCircle
 10
122.500012693546
 20
25.39366960081022
 30
0.0
 40
2.5
100
AcDbArc
 50
0.0
 51
87.9999999999991
  0
ARC
  5
320
330
1F
100
AcDbEntity
  8
0
  6
Continuous
 62
     3
100
AcDbCircle
 10
122.5000135079254
 20
24.8047614979624
 30
0.0
 40
2.499999185620682
100
AcDbArc
 50
297.8181323649974
 51
359.9999904303896
  0
ARC
  5
321
330
1F
100
AcDbEntity
  8
0
  6
Continuous
 62
     3
100
AcDbCircle
 10
121.000012693546
 20
29.44848893224312
 30
0.0
 40
1.5
100
AcDbArc
 50
180.0
 51
268.0000000000023
  0
ARC
  5
322
330
1F
100
AcDbEntity
  8
0
  6
Continuous
 62
     3
100
AcDbCircle
 10
154.0000127907883
 20
-24.67160080060188
 30
0.0
 40
4.99999990275772
100
AcDbArc
 50
293.5781761617851
 51
0.00000504545601
  0
ARC
  5
323
330
1F
100
AcDbEntity
  8
0
  6
Continuous
 62
     3
100
AcDbCircle
 10
157.000012693546
 20
-35.12867883023691
 30
0.0
 40
2.5
100
AcDbArc
 50
180.0
 51
216.869897645844
  0
ARC
  5
324
330
1F
100
AcDbEntity
  8
0
  6
Continuous
 62
     3
100
AcDbCircle
 10
157.0000123767203
 20
-31.5454640719647
 30
0.0
 40
2.499999683174462
100
AcDbArc
 50
113.5781768985401
 51
179.9999932708708
  0
ARC
  5
325
330
1F
100
AcDbEntity
  8
1
  6
Continuous
 62
     3
100
AcDbCircle
 10
157.0001497154021
 20
58.8876897245449
 30
0.0
 40
2.99999994359993
100
AcDbArc
 50
359.4517489303944
 51
60.54825106960491
  0
ARC
  5
326
330
1F
100
AcDbEntity
  8
1
  6
Continuous
 62
     3
100
AcDbCircle
 10
155.0000124115458
 20
81.0341331574013
 30
0.0
 40
4.999999906000489
100
AcDbArc
 50
224.9773185645726
 51
250.5073817270198
  0
ARC
  5
327
330
1F
100
AcDbEntity
  8
1
  6
Continuous
 62
     3
100
AcDbCircle
 10
148.0000125431456
 20
97.4999992292
 30
0.0
 40
1.999999962400096
100
AcDbArc
 50
0.0
 51
90.0
  0
ARC
  5
328
330
1F
100
AcDbEntity
  8
1
  6
Continuous
 62
     3
100
AcDbCircle
 10
132.000012843946
 20
97.4999992292
 30
0.0
 40
1.99999996240058
100
AcDbArc
 50
90.0
 51
180.0
  0
ARC
  5
329
330
1F
100
AcDbEntity
  8
1
  6
Continuous
 62
     3
100
AcDbCircle
 10
125.0000129755457
 20
81.0341331574013
 30
0.0
 40
4.999999905999642
100
AcDbArc
 50
289.4926182729846
 51
0.0
  0
ARC
  5
32A
330
1F
100
AcDbEntity
  8
1
  6
Continuous
 62
     3
100
AcDbCircle
 10
122.9998756716895
 20
58.8876897245449
 30
0.0
 40
2.999999943600269
100
AcDbArc
 50
119.4517489303967
 51
180.5482510696056
  0
ARC
  5
32B
330
1F
100
AcDbEntity
  8
1
  6
Continuous
 62
     3
100
AcDbCircle
 10
155.0000124115458
 20
81.0341331574013
 30
0.0
 40
4.999999906000113
100
AcDbArc
 50
180.0
 51
224.9773185645726
  0
ARC
  5
32C
330
1F
100
AcDbEntity
  8
1
  6
Continuous
 62
     3
100
AcDbCircle
 10
131.9999878789083
 20
38.41500507626078
 30
0.0
 40
36.96115304240342
100
AcDbArc
 50
77.49977404844614
 51
102.5002259515539
  0
ARC
  5
32D
330
1F
100
AcDbEntity
  8
1
  6
Continuous
 62
     3
100
AcDbCircle
 10
148.0000001358271
 20
38.41489316108719
 30
0.0
 40
36.96126495757703
100
AcDbArc
 50
77.49979304862863
 51
102.5002069513712
  0
ARC
  5
32E
330
1F
100
AcDbEntity
  8
0
  6
Continuous
 62
     3
100
AcDbCircle
 10
140.000000000007
 20
0.0000057377178
 30
0.0
 40
11.50000000000024
100
AcDbArc
 50
299.3872618106658
 51
306.337547620548
  0
ARC
  5
32F
330
1F
100
AcDbEntity
  8
0
  6
Continuous
 62
     3
100
AcDbCircle
 10
140.0
 20
0.00000573772218
 30
0.0
 40
11.49999999999934
100
AcDbArc
 50
233.6616391125364
 51
240.6125195495882
  0
ARC
  5
330
330
1F
100
AcDbEntity
  8
0
  6
Continuous
 62
     3
100
AcDbCircle
 10
140.000000000007
 20
0.0000057377178
 30
0.0
 40
11.49999999999894
100
AcDbArc
 50
240.6125195495471
 51
270.0
  0
ARC
  5
331
330
1F
100
AcDbEntity
  8
0
  6
Continuous
 62
     3
100
AcDbCircle
 10
140.000000000007
 20
0.0000057377178
 30
0.0
 40
11.5000000000004
100
AcDbArc
 50
270.0
 51
299.3872618106658
  0
ARC
  5
332
330
1F
100
AcDbEntity
  8
0
  6
Continuous
 62
     3
100
AcDbCircle
 10
140.000000000007
 20
0.0000057377178
 30
0.0
 40
11.49999999999985
100
AcDbArc
 50
306.337547620548
 51
233.6616391124954
  0
ARC
  5
333
330
1F
100
AcDbEntity
  8
0
  6
Continuous
 62
     3
100
AcDbCircle
 10
140.000000000007
 20
0.0000057377178
 30
0.0
 40
18.49999999999994
100
AcDbArc
 50
78.92464441605237
 51
101.0753555839507
  0
ARC
  5
334
330
1F
100
AcDbEntity
  8
0
  6
Continuous
 62
     3
100
AcDbCircle
 10
140.000000000007
 20
0.0000057377178
 30
0.0
 40
18.5
100
AcDbArc
 50
18.92464441605124
 51
41.07535558395007
  0
ARC
  5
335
330
1F
100
AcDbEntity
  8
0
  6
Continuous
 62
     3
100
AcDbCircle
 10
140.000000000007
 20
0.0000057377178
 30
0.0
 40
18.49999999999934
100
AcDbArc
 50
339.0297562642502
 51
341.0753555839487
  0
ARC
  5
336
330
1F
100
AcDbEntity
  8
0
  6
Continuous
 62
     3
100
AcDbCircle
 10
140.000000000007
 20
0.0000057377178
 30
0.0
 40
18.49999999999954
100
AcDbArc
 50
318.9246444160499
 51
339.0297562642502
  0
ARC
  5
337
330
1F
100
AcDbEntity
  8
0
  6
Continuous
 62
     3
100
AcDbCircle
 10
140.000000000007
 20
0.0000057377178
 30
0.0
 40
18.50000000000014
100
AcDbArc
 50
258.9246444160493
 51
281.0753555839476
  0
ARC
  5
338
330
1F
100
AcDbEntity
  8
0
  6
Continuous
 62
     3
100
AcDbCircle
 10
140.000000000007
 20
0.0000057377178
 30
0.0
 40
18.49999999999999
100
AcDbArc
 50
198.9246444160512
 51
221.0753555839481
  0
ARC
  5
339
330
1F
100
AcDbEntity
  8
0
  6
Continuous
 62
     3
100
AcDbCircle
 10
140.000000000063
 20
0.00000573781608
 30
0.0
 40
18.50000000002192
100
AcDbArc
 50
138.9246444167906
 51
161.075355584293
  0
ARC
  5
33A
330
1F
100
AcDbEntity
  8
0
  6
Continuous
 62
     3
100
AcDbCircle
 10
126.000000000002
 20
4.4907251434783
 30
0.0
 40
3.0
100
AcDbArc
 50
179.999999999607
 51
180.0220717040405
  0
ARC
  5
33B
330
1F
100
AcDbEntity
  8
1
  6
Continuous
 62
     3
100
AcDbCircle
 10
129.544570331674
 20
-75.87306055135889
 30
0.0
 40
36.08439114597189
100
AcDbArc
 50
78.52165904546753
 51
101.4783409545309
  0
ARC
  5
33C
330
1F
100
AcDbEntity
  8
1
  6
Continuous
 62
     3
100
AcDbCircle
 10
129.544570331674
 20
-18.16282680925531
 30
0.0
 40
36.08439114597163
100
AcDbArc
 50
258.5216590454691
 51
281.4783409545325
  0
ARC
  5
33D
330
1F
100
AcDbEntity
  8
1
  6
Continuous
 62
     3
100
AcDbCircle
 10
150.455429668326
 20
-18.16282680925531
 30
0.0
 40
36.08439114597183
100
AcDbArc
 50
258.5216590454675
 51
281.4783409545309
  0
ARC
  5
33E
330
1F
100
AcDbEntity
  8
1
  6
Continuous
 62
     3
100
AcDbCircle
 10
150.455429668326
 20
-75.87306055135889
 30
0.0
 40
36.08439114597169
100
AcDbArc
 50
78.52165904546908
 51
101.4783409545325
  0
ARC
  5
33F
330
1F
100
AcDbEntity
  8
1
  6
Continuous
 62
     3
100
AcDbCircle
 10
17.34620955551048
 20
-44.82762810521022
 30
0.0
 40
9.419630651960656
100
AcDbArc
 50
247.4254728893828
 51
292.5745271106169
  0
ARC
  5
340
330
1F
100
AcDbEntity
  8
1
  6
Continuous
 62
     3
100
AcDbCircle
 10
0.00000000000048
 20
-18.16283254697753
 30
0.0
 40
36.08439114597176
100
AcDbArc
 50
258.5216590454678
 51
281.478340954532
  0
ARC
  5
341
330
1F
100
AcDbEntity
  8
1
  6
Continuous
 62
     3
100
AcDbCircle
 10
-17.32050775006252
 20
-44.95549297286242
 30
0.0
 40
9.291730720086887
100
AcDbArc
 50
247.2691390733749
 51
292.7308609266247
  0
ARC
  5
342
330
1F
100
AcDbEntity
  8
1
  6
Continuous
 62
     3
100
AcDbCircle
 10
17.34620955551048
 20
-49.20827073084833
 30
0.0
 40
9.419630651960638
100
AcDbArc
 50
67.42547288938304
 51
112.5745271106172
  0
ARC
  5
343
330
1F
100
AcDbEntity
  8
1
  6
Continuous
 62
     3
100
AcDbCircle
 10
0.00000000000048
 20
-75.87306628908105
 30
0.0
 40
36.08439114597178
100
AcDbArc
 50
78.52165904546794
 51
101.4783409545322
  0
ARC
  5
344
330
1F
100
AcDbEntity
  8
1
  6
Continuous
 62
     3
100
AcDbCircle
 10
-17.32050775006252
 20
-49.08040586319622
 30
0.0
 40
9.291730720086942
100
AcDbArc
 50
67.26913907337556
 51
112.7308609266249
  0
ARC
  5
345
330
1F
100
AcDbEntity
  8
3
  6
Continuous
 62
     3
100
AcDbCircle
 10
168.9999999999994
 20
119.5000000000005
 30
0.0
 40
2.0
100
AcDbArc
 50
270.0
 51
0.0
  0
ARC
  5
346
330
1F
100
AcDbEntity
  8
3
  6
Continuous
 62
     3
100
AcDbCircle
 10
164.9999999999994
 20
127.5447385184645
 30
0.0
 40
6.0
100
AcDbArc
 50
0.0
 51
73.1019546718037
  0
ARC
  5
347
330
1F
100
AcDbEntity
  8
3
  6
Continuous
 62
     3
100
AcDbCircle
 10
152.4999999999994
 20
135.0000000000005
 30
0.0
 40
2.500000000001627
100
AcDbArc
 50
73.10195467178607
 51
90.0
  0
ARC
  5
348
330
1F
100
AcDbEntity
  8
3
  6
Continuous
 62
     3
100
AcDbCircle
 10
127.5
 20
135.0000000000005
 30
0.0
 40
2.5
100
AcDbArc
 50
90.0
 51
106.8980453281856
  0
ARC
  5
349
330
1F
100
AcDbEntity
  8
3
  6
Continuous
 62
     3
100
AcDbCircle
 10
115.0
 20
127.5447385184645
 30
0.0
 40
5.999999999999093
100
AcDbArc
 50
106.8980453281983
 51
180.0
  0
ARC
  5
34A
330
1F
100
AcDbEntity
  8
3
  6
Continuous
 62
     3
100
AcDbCircle
 10
111.0
 20
119.5000000000005
 30
0.0
 40
2.0
100
AcDbArc
 50
180.0
 51
270.0
  0
ARC
  5
357
330
1F
100
AcDbEntity
  8
1
  6
Continuous
 62
     3
100
AcDbCircle
 10
16.97055505198949
 20
193.029437251523
 30
0.0
 40
7.000000000000194
100
AcDbArc
 50
254.7444772579383
 51
15.25552274205837
  0
ARC
  5
358
330
1F
100
AcDbEntity
  8
1
  6
Continuous
 62
     3
100
AcDbCircle
 10
31.44198453838266
 20
196.976300388287
 30
0.0
 40
8.00000000000012
100
AcDbArc
 50
119.7444772579378
 51
195.2555227420625
  0
ARC
  5
359
330
1F
100
AcDbEntity
  8
1
  6
Continuous
 62
     3
100
AcDbCircle
 10
23.99999230351227
 20
210.0
 30
0.0
 40
7.000000000000029
100
AcDbArc
 50
299.7444772579387
 51
60.25552274206056
  0
ARC
  5
35A
330
1F
100
AcDbEntity
  8
1
  6
Continuous
 62
     3
100
AcDbCircle
 10
31.44198453838266
 20
223.023699611713
 30
0.0
 40
8.000000000000023
100
AcDbArc
 50
164.7444772579382
 51
240.2555227420629
  0
ARC
  5
35B
330
1F
100
AcDbEntity
  8
1
  6
Continuous
 62
     3
100
AcDbCircle
 10
16.97055505198949
 20
226.970562748477
 30
0.0
 40
6.999999999999849
100
AcDbArc
 50
344.7444772579409
 51
105.2555227420594
  0
ARC
  5
35C
330
1F
100
AcDbEntity
  8
1
  6
Continuous
 62
     3
100
AcDbCircle
 10
13.02369191522519
 20
241.44199223487
 30
0.0
 40
7.99999999999999
100
AcDbArc
 50
209.7444772579369
 51
285.2555227420639
  0
ARC
  5
35D
330
1F
100
AcDbEntity
  8
1
  6
Continuous
 62
     3
100
AcDbCircle
 10
-0.00000769648767
 20
234.0
 30
0.0
 40
6.999999999999853
100
AcDbArc
 50
29.74447725793755
 51
150.2555227420629
  0
ARC
  5
35E
330
1F
100
AcDbEntity
  8
1
  6
Continuous
 62
     3
100
AcDbCircle
 10
-13.02370730820053
 20
241.44199223487
 30
0.0
 40
7.999999999999631
100
AcDbArc
 50
254.7444772579376
 51
330.2555227420627
  0
ARC
  5
35F
330
1F
100
AcDbEntity
  8
1
  6
Continuous
 62
     3
100
AcDbCircle
 10
-16.97057044496484
 20
226.970562748477
 30
0.0
 40
7.00000000000018
100
AcDbArc
 50
74.7444772579387
 51
195.2555227420586
  0
ARC
  5
360
330
1F
100
AcDbEntity
  8
1
  6
Continuous
 62
     3
100
AcDbCircle
 10
-31.441999931358
 20
223.023699611713
 30
0.0
 40
8.000000000000123
100
AcDbArc
 50
299.7444772579378
 51
15.25552274206225
  0
ARC
  5
361
330
1F
100
AcDbEntity
  8
1
  6
Continuous
 62
     3
100
AcDbCircle
 10
-24.00000769648773
 20
210.0
 30
0.0
 40
6.999999999999967
100
AcDbArc
 50
119.7444772579378
 51
240.2555227420615
  0
ARC
  5
362
330
1F
100
AcDbEntity
  8
1
  6
Continuous
 62
     3
100
AcDbCircle
 10
-31.441999931358
 20
196.976300388287
 30
0.0
 40
8.000000000000027
100
AcDbArc
 50
344.7444772579382
 51
60.25552274206289
  0
ARC
  5
363
330
1F
100
AcDbEntity
  8
1
  6
Continuous
 62
     3
100
AcDbCircle
 10
-16.97057044496484
 20
193.029437251523
 30
0.0
 40
6.999999999999839
100
AcDbArc
 50
164.7444772579409
 51
285.2555227420595
  0
ARC
  5
364
330
1F
100
AcDbEntity
  8
1
  6
Continuous
 62
     3
100
AcDbCircle
 10
-13.02370730820053
 20
178.55800776513
 30
0.0
 40
7.99999999999989
100
AcDbArc
 50
29.74447725793731
 51
105.2555227420639
  0
ARC
  5
365
330
1F
100
AcDbEntity
  8
1
  6
Continuous
 62
     3
100
AcDbCircle
 10
-0.00000769648767
 20
186.0
 30
0.0
 40
6.999999999999952
100
AcDbArc
 50
209.7444772579371
 51
330.2555227420629
  0
ARC
  5
366
330
1F
100
AcDbEntity
  8
1
  6
Continuous
 62
     3
100
AcDbCircle
 10
13.02369191522519
 20
178.55800776513
 30
0.0
 40
7.999999999999616
100
AcDbArc
 50
74.74447725793806
 51
150.2555227420627
  0
ARC
  5
367
330
1F
100
AcDbEntity
  8
0
  6
Continuous
 62
     3
100
AcDbCircle
 10
32.52457351945708
 20
227.0
 30
0.0
 40
2.0
100
AcDbArc
 50
270.0
 51
330.0000000000004
  0
ARC
  5
368
330
1F
100
AcDbEntity
  8
0
  6
Continuous
 62
     3
100
AcDbCircle
 10
-32.52457351945702
 20
227.0
 30
0.0
 40
2.000000000000016
100
AcDbArc
 50
209.9999999999997
 51
270.0
  0
ARC
  5
369
330
1F
100
AcDbEntity
  8
0
  6
Continuous
 62
     3
100
AcDbCircle
 10
29.2133506288119
 20
226.924745716696
 30
0.0
 40
1.924746354594188
100
AcDbArc
 50
257.3549456979827
 51
270.0061719774047
  0
ARC
  5
36A
330
1F
100
AcDbEntity
  8
0
  6
Continuous
 62
     3
100
AcDbCircle
 10
-32.52457351945702
 20
193.0
 30
0.0
 40
2.0
100
AcDbArc
 50
90.0
 51
150.0000000000003
  0
ARC
  5
36B
330
1F
100
AcDbEntity
  8
1
  6
Continuous
 62
     3
100
AcDbCircle
 10
-31.441999931358
 20
196.976300388287
 30
0.0
 40
8.000000000000027
100
AcDbArc
 50
344.7444772579382
 51
60.25552274206289
  0
ARC
  5
36C
330
1F
100
AcDbEntity
  8
0
  6
Continuous
 62
     3
100
AcDbCircle
 10
29.2133506288119
 20
193.075254283304
 30
0.0
 40
1.924746354594284
100
AcDbArc
 50
89.99382802259525
 51
102.6450543020173
  0
ARC
  5
36D
330
1F
100
AcDbEntity
  8
0
  6
Continuous
 62
     3
100
AcDbCircle
 10
32.52457351945708
 20
193.0
 30
0.0
 40
2.000000000000023
100
AcDbArc
 50
29.99999999999963
 51
90.0
  0
ARC
  5
36E
330
1F
100
AcDbEntity
  8
1
  6
Continuous
 62
     3
100
AcDbCircle
 10
31.44198453838266
 20
196.976300388287
 30
0.0
 40
8.00000000000012
100
AcDbArc
 50
119.7444772579378
 51
195.2555227420625
  0
CIRCLE
  5
36F
330
1F
100
AcDbEntity
  8
1
  6
Continuous
 62
     1
100
AcDbCircle
 10
140.000012693546
 20
0.0
 30
0.0
 40
13.20826317071899
  0
CIRCLE
  5
370
330
1F
100
AcDbEntity
  8
0
  6
Continuous
 62
     3
100
AcDbCircle
 10
140.000000000007
 20
0.0000057377178
 30
0.0
 40
12.00877162835801
  0
CIRCLE
  5
371
330
1F
100
AcDbEntity
  8
0
  6
Continuous
 62
     3
100
AcDbCircle
 10
140.000000000007
 20
0.0000057377178
 30
0.0
 40
13.59999999999999
  0
CIRCLE
  5
372
330
1F
100
AcDbEntity
  8
0
  6
Continuous
 62
     3
100
AcDbCircle
 10
140.000000000007
 20
0.0000057377178
 30
0.0
 40
17.0
  0
CIRCLE
  5
373
330
1F
100
AcDbEntity
  8
1
  6
Continuous
 62
     3
100
AcDbCircle
 10
0.0
 20
210.0
 30
0.0
 40
10.0
  0
SPLINE
  5
374
330
1F
100
AcDbEntity
  8
0
  6
Continuous
 62
     3
100
AcDbSpline
210
0.0
220
0.0
230
1.0
 70
     8
 71
     3
 72
    15
 73
    11
 74
     9
 42
0.0000000001
 43
0.0000000001
 44
0.00000001
 40
0.0
 40
0.0
 40
0.0
 40
0.0
 40
1.921801225170951
 40
3.843602450341854
 40
5.765403675512755
 40
7.687204900683684
 40
9.609006125854632
 40
11.5308073510255
 40
13.45260857766122
 40
15.37440981318339
 40
15.37440981318339
 40
15.37440981318339
 40
15.37440981318339
 10
27.50339910497621
 20
-16.74566920157641
 30
0.0
 10
27.0864516175655
 20
-17.23200619993427
 30
0.0
 10
26.25255664274406
 20
-18.20468019664997
 30
0.0
 10
25.00171418302007
 20
-19.66369119387375
 30
0.0
 10
23.75087171326374
 20
-21.12270218249685
 30
0.0
 10
22.50002928112837
 20
-22.58171320337215
 30
0.0
 10
21.24918670854159
 20
-24.04072410383949
 30
0.0
 10
19.99834465982158
 20
-25.499735454057
 30
0.0
 10
18.74750065256909
 20
-26.95874512978418
 30
0.0
 10
17.91361859658162
 20
-27.93143020716428
 30
0.0
 10
17.49667756762392
 20
-28.41777274697876
 30
0.0
 11
27.50339910497621
 21
-16.74566920157641
 31
0.0
 11
26.25255664316207
 21
-18.20468019700835
 31
0.0
 11
25.00171418134801
 21
-19.6636911924403
 31
0.0
 11
23.7508717195339
 21
-21.12270218787221
 31
0.0
 11
22.5000292577198
 21
-22.58171318330415
 31
0.0
 11
21.24918679590566
 21
-24.04072417873609
 31
0.0
 11
19.9983443340916
 21
-25.499735174168
 31
0.0
 11
18.74750414192257
 21
-26.9587481173433
 31
0.0
 11
17.49667756762392
 21
-28.41777274697876
 31
0.0
  0
SPLINE
  5
375
330
1F
100
AcDbEntity
  8
0
  6
Continuous
 62
     3
100
AcDbSpline
210
0.0
220
0.0
230
1.0
 70
    24
 71
     3
 72
    15
 73
    11
 74
     9
 42
0.0000000001
 43
0.0000000001
 44
0.00000001
 40
0.0
 40
0.0
 40
0.0
 40
0.0
 40
0.9537895652219858
 40
1.907579130444048
 40
2.861368695666113
 40
3.815158260888183
 40
4.768947826110239
 40
5.722737391332221
 40
6.676526956554604
 40
7.630316521776418
 40
7.630316521776418
 40
7.630316521776418
 40
7.630316521776418
 10
-27.74056587483676
 20
15.83931544369449
 30
0.0
 10
-27.47600245477244
 20
16.01562650265349
 30
0.0
 10
-26.9468756146438
 20
16.36824862057152
 30
0.0
 10
-26.15318535445078
 20
16.8971817974485
 30
0.0
 10
-25.35949509425773
 20
17.4261149743255
 30
0.0
 10
-24.56580483406469
 20
17.95504815120249
 30
0.0
 10
-23.77211457387169
 20
18.4839813280795
 30
0.0
 10
-22.97842431367858
 20
19.01291450495654
 30
0.0
 10
-22.18473405348569
 20
19.54184768183376
 30
0.0
 10
-21.65560721335693
 20
19.8944697997517
 30
0.0
 10
-21.39104379329262
 20
20.07078085871061
 30
0.0
 11
-27.74056587483676
 21
15.83931544369449
 31
0.0
 11
-26.94687561464382
 21
16.36824862057149
 31
0.0
 11
-26.15318535445078
 21
16.8971817974485
 31
0.0
 11
-25.35949509425774
 21
17.4261149743255
 31
0.0
 11
-24.56580483406469
 21
17.9550481512025
 31
0.0
 11
-23.77211457387167
 21
18.48398132807951
 31
0.0
 11
-22.97842431367872
 21
19.01291450495651
 31
0.0
 11
-22.1847340534855
 21
19.54184768183381
 31
0.0
 11
-21.39104379329262
 21
20.07078085871061
 31
0.0
  0
SPLINE
  5
376
330
1F
100
AcDbEntity
  8
0
  6
Continuous
 62
     3
100
AcDbSpline
210
0.0
220
0.0
230
1.0
 70
     8
 71
     3
 72
    19
 73
    15
 74
    13
 42
0.0000000001
 43
0.0000000001
 44
0.00000001
 40
0.0
 40
0.0
 40
0.0
 40
0.0
 40
0.2200798107275937
 40
0.4583275569286833
 40
1.069060842990956
 40
1.679686549306612
 40
2.353710713962918
 40
2.897343326685229
 40
3.506415875690579
 40
4.115570223678868
 40
4.790868757620659
 40
5.335406673487537
 40
5.573533363295279
 40
5.793487581907502
 40
5.793487581907502
 40
5.793487581907502
 40
5.793487581907502
 10
-16.0008252664868
 20
-29.25451690151471
 30
0.0
 10
-16.06770115802932
 20
-29.22433015659103
 30
0.0
 10
-16.20697365143421
 20
-29.16146470334132
 30
0.0
 10
-16.5229779817271
 20
-28.99642280292577
 30
0.0
 10
-16.93549676430247
 20
-28.73604269507733
 30
0.0
 10
-17.42528108868175
 20
-28.33453022518896
 30
0.0
 10
-17.84456053785559
 20
-27.88956291331159
 30
0.0
 10
-18.2057172852077
 20
-27.39793152535671
 30
0.0
 10
-18.49736029089266
 20
-26.88643091714365
 30
0.0
 10
-18.74149120038515
 20
-26.3027576675893
 30
0.0
 10
-18.90345917454093
 20
-25.71295745662457
 30
0.0
 10
-18.97373443857762
 20
-25.23113340203902
 30
0.0
 10
-18.99710723961128
 20
-24.89758823407891
 30
0.0
 10
-18.99906159013661
 20
-24.7448808162932
 30
0.0
 10
-19.0
 20
-24.67155612596457
 30
0.0
 11
-16.0008252664868
 21
-29.25451690151471
 31
0.0
 11
-16.20057787543057
 21
-29.16213715097352
 31
0.0
 11
-16.41200777552365
 21
-29.05232191561646
 31
0.0
 11
-16.92813233858285
 21
-28.72580915612401
 31
0.0
 11
-17.40045817052146
 21
-28.33880520046336
 31
0.0
 11
-17.86266465829302
 21
-27.84822010366311
 31
0.0
 11
-18.18453007338428
 21
-27.41011158721608
 31
0.0
 11
-18.48620084339238
 21
-26.88099523283399
 31
0.0
 11
-18.72129970491915
 21
-26.31903656444115
 31
0.0
 11
-18.89995236487651
 21
-25.66779825396326
 31
0.0
 11
-18.97907418722048
 21
-25.12903923636299
 31
0.0
 11
-18.9951733090803
 21
-24.89145737957646
 31
0.0
 11
-19.0
 21
-24.67155612596457
 31
0.0
  0
SPLINE
  5
377
330
1F
100
AcDbEntity
  8
0
  6
Continuous
 62
     3
100
AcDbSpline
210
0.0
220
0.0
230
1.0
 70
     8
 71
     3
 72
    19
 73
    15
 74
    13
 42
0.0000000001
 43
0.0000000001
 44
0.00000001
 40
0.0
 40
0.0
 40
0.0
 40
0.0
 40
0.3362437353144615
 40
0.6824312993635502
 40
0.858465740899255
 40
1.035842872092521
 40
1.214129844146661
 40
1.392877894900879
 40
1.571631583835069
 40
1.749934821799247
 40
1.92733696209376
 40
2.103402139042321
 40
2.449652687057097
 40
2.785927592311805
 40
2.785927592311805
 40
2.785927592311805
 40
2.785927592311805
 10
14.5
 20
-31.8976936739279
 30
0.0
 10
14.50440150002302
 20
-31.78553874619866
 30
0.0
 10
14.51333466684335
 20
-31.55791210212539
 30
0.0
 10
14.57386226630717
 20
-31.27669503686494
 30
0.0
 10
14.64451059516646
 20
-31.05439004487869
 30
0.0
 10
14.71028902811296
 20
-30.88962163318972
 30
0.0
 10
14.78797280442685
 20
-30.72915735814617
 30
0.0
 10
14.87712987500111
 20
-30.57422887698149
 30
0.0
 10
14.97716380415358
 20
-30.42608388164065
 30
0.0
 10
15.08721177973954
 20
-30.28580375089268
 30
0.0
 10
15.20635311483687
 20
-30.15431562459285
 30
0.0
 10
15.37504025169061
 20
-29.99315164085501
 30
0.0
 10
15.60106541812092
 20
-29.81516420145087
 30
0.0
 10
15.80158261479075
 20
-29.70699729129676
 30
0.0
 10
15.90037585537846
 20
-29.65370430817131
 30
0.0
 11
14.5
 21
-31.8976936739279
 31
0.0
 11
14.52271681552729
 21
-31.56221819668624
 31
0.0
 11
14.59285350358823
 21
-31.22320982733515
 31
0.0
 11
14.64636801442506
 21
-31.05550675122537
 31
0.0
 11
14.71209159914008
 21
-30.89075525022292
 31
0.0
 11
14.78977897051908
 21
-30.73028432845684
 31
0.0
 11
14.87894275233509
 21
-30.57536278166396
 31
0.0
 11
14.97896672441237
 21
-30.42721391627018
 31
0.0
 11
15.08901873206901
 21
-30.28692635345988
 31
0.0
 11
15.20816915307499
 21
-30.15549311354253
 31
0.0
 11
15.33532809039116
 21
-30.03371646884187
 31
0.0
 11
15.60905529742763
 21
-29.82167199678813
 31
0.0
 11
15.90037585537846
 21
-29.65370430817131
 31
0.0
  0
SPLINE
  5
378
330
1F
100
AcDbEntity
  8
0
  6
Continuous
 62
     3
100
AcDbSpline
210
0.0
220
0.0
230
1.0
 70
     8
 71
     3
 72
    11
 73
     7
 74
     5
 42
0.0000000001
 43
0.0000000001
 44
0.00000001
 40
0.0
 40
0.0
 40
0.0
 40
0.0
 40
2.618705428489354
 40
5.237410856939704
 40
7.854372512338276
 40
10.47133416777533
 40
10.47133416777533
 40
10.47133416777533
 40
10.47133416777533
 10
-49.13397459621552
 20
213.553847577293
 30
0.0
 10
-49.29625181316553
 20
214.4124071132609
 30
0.0
 10
-49.62080624706311
 20
216.129526185184
 30
0.0
 10
-49.75665412687967
 20
218.751169346311
 30
0.0
 10
-49.62052630654939
 20
221.3722005768261
 30
0.0
 10
-49.29615849966159
 20
223.0881684740725
 30
0.0
 10
-49.13397459621649
 20
223.946152422702
 30
0.0
 11
-49.13397459621552
 21
213.553847577293
 31
0.0
 11
-49.56231397855968
 21
216.1372839505626
 31
0.0
 11
-49.71132479832458
 21
218.7517463994397
 31
0.0
 11
-49.56211728674053
 21
221.3644510180894
 31
0.0
 11
-49.13397459621649
 21
223.946152422702
 31
0.0
  0
SPLINE
  5
379
330
1F
100
AcDbEntity
  8
0
  6
Continuous
 62
     3
100
AcDbSpline
210
0.0
220
0.0
230
1.0
 70
     8
 71
     3
 72
    11
 73
     7
 74
     5
 42
0.0000000001
 43
0.0000000001
 44
0.00000001
 40
0.0
 40
0.0
 40
0.0
 40
0.0
 40
2.618705428564611
 40
5.237410857090598
 40
7.854372512416258
 40
10.47133416778067
 40
10.47133416778067
 40
10.47133416778067
 40
10.47133416778067
 10
-35.69999999999993
 20
223.946152422707
 30
0.0
 10
-35.53772278304653
 20
223.0875928867141
 30
0.0
 10
-35.2131683491421
 20
221.370473814741
 30
0.0
 10
-35.07732046933702
 20
218.748830653587
 30
0.0
 10
-35.21344828967218
 20
216.1277994230958
 30
0.0
 10
-35.53781609655655
 20
214.4118315258982
 30
0.0
 10
-35.69999999999993
 20
213.553847577293
 30
0.0
 11
-35.69999999999993
 21
223.946152422707
 31
0.0
 11
-35.27166061764874
 21
221.3627160493622
 31
0.0
 11
-35.12264979789104
 21
218.748253600409
 31
0.0
 11
-35.27185730947979
 21
216.1355489818326
 31
0.0
 11
-35.69999999999993
 21
213.553847577293
 31
0.0
  0
SPLINE
  5
37A
330
1F
100
AcDbEntity
  8
0
  6
Continuous
 62
     3
100
AcDbSpline
210
0.0
220
0.0
230
1.0
 70
     8
 71
     3
 72
    11
 73
     7
 74
     5
 42
0.0000000001
 43
0.0000000001
 44
0.00000001
 40
0.0
 40
0.0
 40
0.0
 40
0.0
 40
0.2605787459765991
 40
0.5211574919528094
 40
0.7855493829688607
 40
1.049941273984524
 40
1.049941273984524
 40
1.049941273984524
 40
1.049941273984524
 10
-28.48629308792062
 20
225.115303353142
 30
0.0
 10
-28.57135626108022
 20
225.0976071744229
 30
0.0
 10
-28.74148260739928
 20
225.0622148169849
 30
0.0
 10
-29.00113759441403
 20
225.0270868711675
 30
0.0
 10
-29.26343684193778
 20
225.0041819403565
 30
0.0
 10
-29.43972707695065
 20
225.0013939544862
 30
0.0
 10
-29.52787219445702
 20
224.999999961551
 30
0.0
 11
-28.48629308792062
 21
225.115303353142
 31
0.0
 11
-28.74201678623793
 21
225.0652366678747
 31
0.0
 11
-29.00010395680372
 21
225.0292881596459
 31
0.0
 11
-29.26358167952107
 21
225.007320873361
 31
0.0
 11
-29.52787219445702
 21
224.999999961551
 31
0.0
  0
SPLINE
  5
37B
330
1F
100
AcDbEntity
  8
0
  6
Continuous
 62
     3
100
AcDbSpline
210
0.0
220
0.0
230
1.0
 70
     8
 71
     3
 72
    11
 73
     7
 74
     5
 42
0.0000000001
 43
0.0000000001
 44
0.00000001
 40
0.0
 40
0.0
 40
0.0
 40
0.0
 40
2.61870542798001
 40
5.237410855921429
 40
7.854372511829924
 40
10.47133416777761
 40
10.47133416777761
 40
10.47133416777761
 40
10.47133416777761
 10
35.7000000000001
 20
213.553847577293
 30
0.0
 10
35.53772278307834
 20
214.4124071130927
 30
0.0
 10
35.21316834923721
 20
216.1295261846795
 30
0.0
 10
35.07732046932465
 20
218.7511693456293
 30
0.0
 10
35.2134482896265
 20
221.3722005763198
 30
0.0
 10
35.53781609654143
 20
223.088168473907
 30
0.0
 10
35.7000000000001
 20
223.946152422707
 30
0.0
 11
35.7000000000001
 21
213.553847577293
 31
0.0
 11
35.27166061771347
 21
216.1372839500559
 31
0.0
 11
35.12264979789096
 21
218.7517463984199
 31
0.0
 11
35.27185730944392
 21
221.3644510175821
 31
0.0
 11
35.7000000000001
 21
223.946152422707
 31
0.0
  0
SPLINE
  5
37C
330
1F
100
AcDbEntity
  8
0
  6
Continuous
 62
     3
100
AcDbSpline
210
0.0
220
0.0
230
1.0
 70
     8
 71
     3
 72
    11
 73
     7
 74
     5
 42
0.0000000001
 43
0.0000000001
 44
0.00000001
 40
0.0
 40
0.0
 40
0.0
 40
0.0
 40
2.618705429077347
 40
5.237410858115995
 40
7.854372512930357
 40
10.47133416778346
 40
10.47133416778346
 40
10.47133416778346
 40
10.47133416778346
 10
49.13397459621558
 20
223.946152422707
 30
0.0
 10
49.29625181319737
 20
223.0875928865448
 30
0.0
 10
49.62080624715855
 20
221.3704738142331
 30
0.0
 10
49.75665412686739
 20
218.7488306528997
 30
0.0
 10
49.6205263065027
 20
216.1277994225837
 30
0.0
 10
49.29615849964549
 20
214.4118315257275
 30
0.0
 10
49.13397459621569
 20
213.553847577293
 30
0.0
 11
49.13397459621558
 21
223.946152422707
 31
0.0
 11
49.56231397862464
 21
221.3627160488521
 31
0.0
 11
49.71132479832445
 21
218.7482535993821
 31
0.0
 11
49.56211728670384
 21
216.1355489813196
 31
0.0
 11
49.13397459621569
 21
213.553847577293
 31
0.0
  0
SPLINE
  5
37D
330
1F
100
AcDbEntity
  8
0
  6
Continuous
 62
     3
100
AcDbSpline
210
0.0
220
0.0
230
1.0
 70
     8
 71
     3
 72
     9
 73
     5
 74
     3
 42
0.0000000001
 43
0.0000000001
 44
0.00000001
 40
0.0
 40
0.0
 40
0.0
 40
0.0
 40
2.339393466336382
 40
4.67878693267277
 40
4.67878693267277
 40
4.67878693267277
 40
4.67878693267277
 10
-23.92115379410029
 20
226.140266953765
 30
0.0
 10
-24.6820058385459
 20
225.9694196240562
 30
0.0
 10
-26.20370992743712
 20
225.6277249646384
 30
0.0
 10
-27.72543203442612
 20
225.2861105569741
 30
0.0
 10
-28.48629308792062
 20
225.115303353142
 30
0.0
 11
-23.92115379410029
 21
226.140266953765
 31
0.0
 11
-26.20371443196156
 21
225.6277450275768
 31
0.0
 11
-28.48629308792062
 21
225.115303353142
 31
0.0
  0
SPLINE
  5
37E
330
1F
100
AcDbEntity
  8
0
  6
Continuous
 62
     3
100
AcDbSpline
210
0.0
220
0.0
230
1.0
 70
     8
 71
     3
 72
     9
 73
     5
 74
     3
 42
0.0000000001
 43
0.0000000001
 44
0.00000001
 40
0.0
 40
0.0
 40
0.0
 40
0.0
 40
2.496059461178784
 40
4.992118922357556
 40
4.992118922357556
 40
4.992118922357556
 40
4.992118922357556
 10
28.7920032840662
 20
225.046684230855
 30
0.0
 10
27.98018689755438
 20
225.2289234595787
 30
0.0
 10
26.35655412453074
 20
225.5934019170259
 30
0.0
 10
24.73294391029751
 20
225.9579808519866
 30
0.0
 10
23.9211388031809
 20
226.140270319467
 30
0.0
 11
28.7920032840662
 21
225.046684230855
 31
0.0
 11
26.35655976422834
 21
225.5934270364043
 31
0.0
 11
23.9211388031809
 21
226.140270319467
 31
0.0
  0
SPLINE
  5
37F
330
1F
100
AcDbEntity
  8
0
  6
Continuous
 62
     3
100
AcDbSpline
210
0.0
220
0.0
230
1.0
 70
     8
 71
     3
 72
     9
 73
     5
 74
     3
 42
0.0000000001
 43
0.0000000001
 44
0.00000001
 40
0.0
 40
0.0
 40
0.0
 40
0.0
 40
2.339393466336382
 40
4.67878693267277
 40
4.67878693267277
 40
4.67878693267277
 40
4.67878693267277
 10
-23.92115379410029
 20
193.859733046235
 30
0.0
 10
-24.6820058385459
 20
194.0305803759439
 30
0.0
 10
-26.20370992743712
 20
194.3722750353616
 30
0.0
 10
-27.72543203442612
 20
194.7138894430259
 30
0.0
 10
-28.48629308792062
 20
194.884696646858
 30
0.0
 11
-23.92115379410029
 21
193.859733046235
 31
0.0
 11
-26.20371443196156
 21
194.3722549724232
 31
0.0
 11
-28.48629308792062
 21
194.884696646858
 31
0.0
  0
SPLINE
  5
380
330
1F
100
AcDbEntity
  8
0
  6
Continuous
 62
     3
100
AcDbSpline
210
0.0
220
0.0
230
1.0
 70
     8
 71
     3
 72
    11
 73
     7
 74
     5
 42
0.0000000001
 43
0.0000000001
 44
0.00000001
 40
0.0
 40
0.0
 40
0.0
 40
0.0
 40
0.2605787459765995
 40
0.5211574919527805
 40
0.7855493829688638
 40
1.049941273984561
 40
1.049941273984561
 40
1.049941273984561
 40
1.049941273984561
 10
-28.48629308792062
 20
194.884696646858
 30
0.0
 10
-28.57135626108021
 20
194.9023928255771
 30
0.0
 10
-28.74148260739926
 20
194.9377851830152
 30
0.0
 10
-29.00113759441402
 20
194.9729131288323
 30
0.0
 10
-29.26343684193777
 20
194.9958180596435
 30
0.0
 10
-29.43972707695065
 20
194.9986060455145
 30
0.0
 10
-29.52787219445702
 20
195.00000003845
 30
0.0
 11
-28.48629308792062
 21
194.884696646858
 31
0.0
 11
-28.74201678623792
 21
194.9347633321254
 31
0.0
 11
-29.00010395680369
 21
194.9707118403541
 31
0.0
 11
-29.26358167952106
 21
194.9926791266391
 31
0.0
 11
-29.52787219445702
 21
195.00000003845
 31
0.0
  0
SPLINE
  5
381
330
1F
100
AcDbEntity
  8
0
  6
Continuous
 62
     3
100
AcDbSpline
210
0.0
220
0.0
230
1.0
 70
     8
 71
     3
 72
    11
 73
     7
 74
     5
 42
0.0000000001
 43
0.0000000001
 44
0.00000001
 40
0.0
 40
0.0
 40
0.0
 40
0.0
 40
2.618705428565202
 40
5.237410857090905
 40
7.85437251241631
 40
10.47133416778066
 40
10.47133416778066
 40
10.47133416778066
 40
10.47133416778066
 10
-35.69999999999993
 20
196.053847577293
 30
0.0
 10
-35.53772278304652
 20
196.9124071132861
 30
0.0
 10
-35.21316834914213
 20
198.6295261852592
 30
0.0
 10
-35.07732046933703
 20
201.2511693464133
 30
0.0
 10
-35.21344828967221
 20
203.8722005769043
 30
0.0
 10
-35.53781609655654
 20
205.5881684741018
 30
0.0
 10
-35.69999999999993
 20
206.446152422707
 30
0.0
 11
-35.69999999999993
 21
196.053847577293
 31
0.0
 11
-35.27166061764873
 21
198.6372839506384
 31
0.0
 11
-35.12264979789104
 21
201.2517463995913
 31
0.0
 11
-35.2718573094798
 21
203.8644510181674
 31
0.0
 11
-35.69999999999993
 21
206.446152422707
 31
0.0
  0
SPLINE
  5
382
330
1F
100
AcDbEntity
  8
0
  6
Continuous
 62
     3
100
AcDbSpline
210
0.0
220
0.0
230
1.0
 70
     8
 71
     3
 72
    11
 73
     7
 74
     5
 42
0.0000000001
 43
0.0000000001
 44
0.00000001
 40
0.0
 40
0.0
 40
0.0
 40
0.0
 40
2.618705428489287
 40
5.237410856939464
 40
7.854372512338232
 40
10.4713341677753
 40
10.4713341677753
 40
10.4713341677753
 40
10.4713341677753
 10
-49.13397459621552
 20
206.446152422707
 30
0.0
 10
-49.2962518131655
 20
205.5875928867391
 30
0.0
 10
-49.62080624706304
 20
203.8704738148161
 30
0.0
 10
-49.75665412687955
 20
201.2488306536891
 30
0.0
 10
-49.62052630654937
 20
198.6277994231739
 30
0.0
 10
-49.29615849966157
 20
196.9118315259275
 30
0.0
 10
-49.13397459621649
 20
196.053847577298
 30
0.0
 11
-49.13397459621552
 21
206.446152422707
 31
0.0
 11
-49.56231397855962
 21
203.8627160494374
 31
0.0
 11
-49.71132479832446
 21
201.2482536005605
 31
0.0
 11
-49.56211728674047
 21
198.6355489819106
 31
0.0
 11
-49.13397459621649
 21
196.053847577298
 31
0.0
  0
SPLINE
  5
383
330
1F
100
AcDbEntity
  8
0
  6
Continuous
 62
     3
100
AcDbSpline
210
0.0
220
0.0
230
1.0
 70
     8
 71
     3
 72
     9
 73
     5
 74
     3
 42
0.0000000001
 43
0.0000000001
 44
0.00000001
 40
0.0
 40
0.0
 40
0.0
 40
0.0
 40
2.496059461178784
 40
4.992118922357556
 40
4.992118922357556
 40
4.992118922357556
 40
4.992118922357556
 10
28.7920032840662
 20
194.953315769145
 30
0.0
 10
27.98018689755438
 20
194.7710765404214
 30
0.0
 10
26.35655412453074
 20
194.4065980829741
 30
0.0
 10
24.73294391029751
 20
194.0420191480134
 30
0.0
 10
23.9211388031809
 20
193.859729680533
 30
0.0
 11
28.7920032840662
 21
194.953315769145
 31
0.0
 11
26.35655976422834
 21
194.4065729635957
 31
0.0
 11
23.9211388031809
 21
193.859729680533
 31
0.0
  0
SPLINE
  5
384
330
1F
100
AcDbEntity
  8
0
  6
Continuous
 62
     3
100
AcDbSpline
210
0.0
220
0.0
230
1.0
 70
     8
 71
     3
 72
    11
 73
     7
 74
     5
 42
0.0000000001
 43
0.0000000001
 44
0.00000001
 40
0.0
 40
0.0
 40
0.0
 40
0.0
 40
2.618705429077288
 40
5.23741085811594
 40
7.854372512930361
 40
10.47133416778347
 40
10.47133416778347
 40
10.47133416778347
 40
10.47133416778347
 10
49.13397459621558
 20
196.053847577293
 30
0.0
 10
49.29625181319734
 20
196.9124071134551
 30
0.0
 10
49.62080624715852
 20
198.6295261857668
 30
0.0
 10
49.75665412686747
 20
201.2511693471003
 30
0.0
 10
49.62052630650274
 20
203.8722005774163
 30
0.0
 10
49.2961584996455
 20
205.5881684742725
 30
0.0
 10
49.13397459621569
 20
206.446152422707
 30
0.0
 11
49.13397459621558
 21
196.053847577293
 31
0.0
 11
49.56231397862462
 21
198.6372839511479
 31
0.0
 11
49.71132479832451
 21
201.2517464006179
 31
0.0
 11
49.56211728670387
 21
203.8644510186804
 31
0.0
 11
49.13397459621569
 21
206.446152422707
 31
0.0
  0
SPLINE
  5
385
330
1F
100
AcDbEntity
  8
0
  6
Continuous
 62
     3
100
AcDbSpline
210
0.0
220
0.0
230
1.0
 70
     8
 71
     3
 72
    11
 73
     7
 74
     5
 42
0.0000000001
 43
0.0000000001
 44
0.00000001
 40
0.0
 40
0.0
 40
0.0
 40
0.0
 40
2.618705427979957
 40
5.237410855921318
 40
7.854372511829933
 40
10.4713341677776
 40
10.4713341677776
 40
10.4713341677776
 40
10.4713341677776
 10
35.7000000000001
 20
206.446152422707
 30
0.0
 10
35.53772278307834
 20
205.5875928869073
 30
0.0
 10
35.21316834923719
 20
203.8704738153206
 30
0.0
 10
35.07732046932461
 20
201.2488306543708
 30
0.0
 10
35.21344828962668
 20
198.6277994236802
 30
0.0
 10
35.53781609654148
 20
196.911831526093
 30
0.0
 10
35.7000000000001
 20
196.053847577293
 30
0.0
 11
35.7000000000001
 21
206.446152422707
 31
0.0
 11
35.27166061771346
 21
203.8627160499442
 31
0.0
 11
35.12264979789096
 21
201.2482536015802
 31
0.0
 11
35.27185730944403
 21
198.6355489824179
 31
0.0
 11
35.7000000000001
 21
196.053847577293
 31
0.0
  0
ARC
  5
386
330
1F
100
AcDbEntity
  8
1
  6
Continuous
 62
     3
100
AcDbCircle
 10
29.74507017102667
 20
13.00000000000011
 30
0.0
 40
2.0
100
AcDbArc
 50
90.0
 51
138.5861454315557
  0
ARC
  5
387
330
1F
100
AcDbEntity
  8
1
  6
Continuous
 62
     3
100
AcDbCircle
 10
-29.74507017102678
 20
-12.9999999999999
 30
0.0
 40
2.0
100
AcDbArc
 50
270.0
 51
318.5861454315512
  0
ARC
  5
388
330
1F
100
AcDbEntity
  8
1
  6
Continuous
 62
     3
100
AcDbCircle
 10
18.5
 20
54.33493649053924
 30
0.0
 40
2.0
100
AcDbArc
 50
0.0
 51
59.99999999999632
  0
ARC
  5
389
330
1F
100
AcDbEntity
  8
1
  6
Continuous
 62
     3
100
AcDbCircle
 10
-18.5
 20
54.33493649053922
 30
0.0
 40
1.999999999999985
100
AcDbArc
 50
120.0000000000039
 51
180.0
  0
ARC
  5
38A
330
1F
100
AcDbEntity
  8
1
  6
Continuous
 62
     3
100
AcDbCircle
 10
17.30360445874909
 20
-34.699999999998
 30
0.0
 40
2.999999999999949
100
AcDbArc
 50
223.026751116971
 51
259.3295559490931
  0
ARC
  5
38B
330
1F
100
AcDbEntity
  8
1
  6
Continuous
 62
     3
100
AcDbCircle
 10
-17.30360445874912
 20
-34.699999999998
 30
0.0
 40
2.999999999999993
100
AcDbArc
 50
280.6704440509062
 51
316.973248883029
  0
ARC
  5
38C
330
1F
100
AcDbEntity
  8
1
  6
Continuous
 62
     3
100
AcDbCircle
 10
157.3036171522951
 20
-34.70004422996539
 30
0.0
 40
3.000000000000155
100
AcDbArc
 50
223.0267511169744
 51
259.3295559490917
  0
ARC
  5
38D
330
1F
100
AcDbEntity
  8
1
  6
Continuous
 62
     3
100
AcDbCircle
 10
122.6964082347968
 20
-34.70004422996539
 30
0.0
 40
3.000000000000016
100
AcDbArc
 50
280.6704440509064
 51
316.9732488830256
  0
ARC
  5
38E
330
1F
100
AcDbEntity
  8
1
  6
Continuous
 62
     3
100
AcDbCircle
 10
158.500012693546
 20
54.33489226057181
 30
0.0
 40
2.0
100
AcDbArc
 50
0.0
 51
60.00000000000028
  0
ARC
  5
38F
330
1F
100
AcDbEntity
  8
1
  6
Continuous
 62
     3
100
AcDbCircle
 10
121.500012693546
 20
54.33489226057181
 30
0.0
 40
2.000000000000016
100
AcDbArc
 50
119.9999999999997
 51
180.0
  0
LWPOLYLINE
  5
390
330
1F
100
AcDbEntity
  8
3
  6
Continuous
 62
     3
100
AcDbPolyline
 90
        4
 70
     0
 43
0.0
 10
22.05095597477941
 20
117.5000000000005
 42
0.4142135623731
 10
24.05095597477941
 20
119.5000000000005
 10
24.05095597477941
 20
127.5447385184645
 42
0.26230105055338
 10
21.1599638349664
 20
132.6764117470787
  0
LWPOLYLINE
  5
391
330
1F
100
AcDbEntity
  8
3
  6
Continuous
 62
     3
100
AcDbPolyline
 90
        4
 70
     0
 43
0.0
 10
-21.15996383496656
 20
132.6764117470805
 42
0.26230105055339
 10
-24.05095597478068
 20
127.5447385184645
 10
-24.05095597477998
 20
119.5000000000005
 42
0.41421356237313
 10
-22.05095597477998
 20
117.5000000000007
  0
LWPOLYLINE
  5
392
330
1F
100
AcDbEntity
  8
3
  6
Continuous
 62
     3
100
AcDbPolyline
 90
        7
 70
     0
 43
0.0
 10
-23.05095597477998
 20
127.5447385184645
 10
-21.92031021678292
 20
127.5447385184645
 42
0.09122267891982
 10
-19.42896680569181
 20
128.0030867386753
 10
-12.45357556388331
 20
130.6596168621146
 42
-0.2247461153704
 10
-6.48159584874975
 20
130.1912813855485
 10
-3.48063630404204
 20
128.4714222152406
 42
0.13084094293331
 10
0.0
 20
127.5447385184621
  0
LWPOLYLINE
  5
393
330
1F
100
AcDbEntity
  8
3
  6
Continuous
 62
     3
100
AcDbPolyline
 90
        2
 70
     0
 43
0.0
 10
29.79081778589546
 20
128.9758447138085
 42
0.19873478621275
 10
24.06409814587948
 20
131.1283290684784
  0
LWPOLYLINE
  5
394
330
1F
100
AcDbEntity
  8
3
  6
Continuous
 62
     3
100
AcDbPolyline
 90
        2
 70
     0
 43
0.0
 10
-24.06409814587858
 20
131.1283290684785
 42
0.19873478621276
 10
-29.7908177858952
 20
128.9758447138093
  0
LWPOLYLINE
  5
395
330
1F
100
AcDbEntity
  8
3
  6
Continuous
 62
     3
100
AcDbPolyline
 90
        7
 70
     0
 43
0.0
 10
23.05095597477941
 20
127.5447385184645
 10
21.92031021678349
 20
127.5447385184645
 42
-0.09122267891984
 10
19.42896680569152
 20
128.0030867386745
 10
12.45357556388342
 20
130.6596168621146
 42
0.2247461153704
 10
6.48159584874988
 20
130.1912813855485
 10
3.48063630404226
 20
128.4714222152406
 42
-0.13084094293333
 10
0.0
 20
127.5447385184645
  0
LWPOLYLINE
  5
396
330
1F
100
AcDbEntity
  8
3
  6
Continuous
 62
     3
100
AcDbPolyline
 90
        7
 70
     0
 43
0.0
 10
163.0509559747794
 20
127.5447385184645
 10
161.9203102167835
 20
127.5447385184645
 42
-0.09122267891984
 10
159.4289668056915
 20
128.0030867386745
 10
152.4535755638834
 20
130.6596168621146
 42
0.2247461153704
 10
146.4815958487499
 20
130.1912813855485
 10
143.4806363040423
 20
128.4714222152406
 42
-0.13084094293333
 10
140.0
 20
127.5447385184645
  0
LWPOLYLINE
  5
397
330
1F
100
AcDbEntity
  8
3
  6
Continuous
 62
     3
100
AcDbPolyline
 90
        2
 70
     0
 43
0.0
 10
115.9359018541214
 20
131.1283290684785
 42
0.19873478621276
 10
110.2091822141048
 20
128.9758447138093
  0
LWPOLYLINE
  5
398
330
1F
100
AcDbEntity
  8
3
  6
Continuous
 62
     3
100
AcDbPolyline
 90
        2
 70
     0
 43
0.0
 10
169.7908177858954
 20
128.9758447138085
 42
0.19873478621275
 10
164.0640981458795
 20
131.1283290684784
  0
LWPOLYLINE
  5
399
330
1F
100
AcDbEntity
  8
3
  6
Continuous
 62
     3
100
AcDbPolyline
 90
        7
 70
     0
 43
0.0
 10
116.94904402522
 20
127.5447385184645
 10
118.0796897832171
 20
127.5447385184645
 42
0.09122267891982
 10
120.5710331943082
 20
128.0030867386753
 10
127.5464244361167
 20
130.6596168621146
 42
-0.2247461153704
 10
133.5184041512502
 20
130.1912813855485
 10
136.519363695958
 20
128.4714222152406
 42
0.13084094293331
 10
140.0
 20
127.5447385184622
  0
LWPOLYLINE
  5
39A
330
1F
100
AcDbEntity
  8
3
  6
Continuous
 62
     3
100
AcDbPolyline
 90
        4
 70
     0
 43
0.0
 10
118.8400361650334
 20
132.6764117470805
 42
0.26230105055339
 10
115.9490440252193
 20
127.5447385184645
 10
115.94904402522
 20
119.5000000000005
 42
0.41421356237312
 10
117.94904402522
 20
117.5000000000007
  0
LWPOLYLINE
  5
39B
330
1F
100
AcDbEntity
  8
3
  6
Continuous
 62
     3
100
AcDbPolyline
 90
        4
 70
     0
 43
0.0
 10
162.0509559747794
 20
117.5000000000005
 42
0.4142135623731
 10
164.0509559747794
 20
119.5000000000005
 10
164.0509559747794
 20
127.5447385184645
 42
0.26230105055338
 10
161.1599638349664
 20
132.6764117470787
  0
LINE
  5
39C
330
1F
100
AcDbEntity
  8
1
 62
     4
100
AcDbLine
 10
-50.0
 20
0.0
 30
0.0
 11
-51.07363803201005
 21
-2.24072550077752
 31
0.0
  0
LINE
  5
39D
330
1F
100
AcDbEntity
  8
1
 62
     4
100
AcDbLine
 10
-50.0
 20
0.0
 30
0.0
 11
-52.05016056057859
 21
-1.40370619057591
 31
0.0
  0
LEADER
  5
39E
330
1F
100
AcDbEntity
  8
1
  6
Continuous
 62
     4
100
AcDbLeader
  3
Standard
 71
     0
 76
     3
 10
-50.0
 20
0.0
 30
0.0
 10
-56.0
 20
-7.0
 30
0.0
 10
-72.2528833182174
 20
-7.0
 30
0.0
  0
LINE
  5
39F
330
1F
100
AcDbEntity
  8
1
 62
     4
100
AcDbLine
 10
50.0
 20
0.0
 30
0.0
 11
52.05016056057859
 21
-1.40370619057591
 31
0.0
  0
LINE
  5
3A0
330
1F
100
AcDbEntity
  8
1
 62
     4
100
AcDbLine
 10
50.0
 20
0.0
 30
0.0
 11
51.07363803201005
 21
-2.24072550077752
 31
0.0
  0
LEADER
  5
3A1
330
1F
100
AcDbEntity
  8
1
  6
Continuous
 62
     4
100
AcDbLeader
  3
Standard
 71
     0
 76
     3
 10
50.0
 20
0.0
 30
0.0
 10
56.0
 20
-7.0
 30
0.0
 10
70.3565884662148
 20
-7.0
 30
0.0
  0
LINE
  5
3A2
330
1F
100
AcDbEntity
  8
1
 62
     4
100
AcDbLine
 10
0.0
 20
-69.00000022559816
 30
0.0
 11
2.01562833190812
 21
-70.45285666077073
 31
0.0
  0
LINE
  5
3A3
330
1F
100
AcDbEntity
  8
1
 62
     4
100
AcDbLine
 10
0.0
 20
-69.00000022559816
 30
0.0
 11
1.0191571224338
 21
-71.26602497246337
 31
0.0
  0
LEADER
  5
3A4
330
1F
100
AcDbEntity
  8
1
  6
Continuous
 62
     4
100
AcDbLeader
  3
Standard
 71
     0
 76
     3
 10
0.0
 20
-69.00000022559816
 30
0.0
 10
13.0524260393247
 20
-84.9946800169282
 30
0.0
 10
27.1020439327336
 20
-84.9946800169282
 30
0.0
  0
LINE
  5
3A5
330
1F
100
AcDbEntity
  8
1
 62
     4
100
AcDbLine
 10
-28.0
 20
-28.0
 30
0.0
 11
-30.4
 21
-28.64307806183469
 31
0.0
  0
LINE
  5
3A6
330
1F
100
AcDbEntity
  8
1
 62
     4
100
AcDbLine
 10
-28.0
 20
-28.0
 30
0.0
 11
-30.4
 21
-27.3569219381653
 31
0.0
  0
LEADER
  5
3A7
330
1F
100
AcDbEntity
  8
1
  6
Continuous
 62
     4
100
AcDbLeader
  3
Standard
 71
     0
 76
     2
 10
-28.0
 20
-28.0
 30
0.0
 10
-56.0
 20
-28.0
 30
0.0
  0
ENDSEC
  0
SECTION
  2
OBJECTS
  0
DICTIONARY
  5
C
330
0
100
AcDbDictionary
281
     1
  3
ACAD_GROUP
350
D
  3
ACAD_LAYOUT
350
1A
  3
ACAD_MATERIAL
350
3B
  3
ACAD_MLEADERSTYLE
350
3AA
  3
ACAD_MLINESTYLE
350
17
  3
ACAD_PLOTSETTINGS
350
19
  3
ACAD_PLOTSTYLENAME
350
E
  3
ACAD_VISUALSTYLE
350
2A
  3
AcDbVariableDictionary
350
3A8
  0
DICTIONARY
  5
D
102
{ACAD_REACTORS
330
C
102
}
330
C
100
AcDbDictionary
281
     1
  0
DICTIONARY
  5
1A
102
{ACAD_REACTORS
330
C
102
}
330
C
100
AcDbDictionary
281
     1
  3
Layout1
350
1E
  3
Layout2
350
26
  3
Model
350
22
  0
DICTIONARY
  5
3B
102
{ACAD_REACTORS
330
C
102
}
330
C
100
AcDbDictionary
281
     1
  3
ByBlock
350
3D
  3
ByLayer
350
3C
  3
Global
350
3E
  0
DICTIONARY
  5
3AA
102
{ACAD_REACTORS
330
C
102
}
330
C
100
AcDbDictionary
281
     1
  0
DICTIONARY
  5
17
102
{ACAD_REACTORS
330
C
102
}
330
C
100
AcDbDictionary
281
     1
  3
Standard
350
18
  0
DICTIONARY
  5
19
102
{ACAD_REACTORS
330
C
102
}
330
C
100
AcDbDictionary
281
     1
  0
ACDBDICTIONARYWDFLT
  5
E
102
{ACAD_REACTORS
330
C
102
}
330
C
100
AcDbDictionary
281
     1
  3
Normal
350
F
100
AcDbDictionaryWithDefault
340
F
  0
DICTIONARY
  5
2A
102
{ACAD_REACTORS
330
C
102
}
330
C
100
AcDbDictionary
281
     1
  3
2dWireframe
350
2F
  3
3D Hidden
350
31
  3
3dWireframe
350
30
  3
Basic
350
32
  3
Brighten
350
36
  3
ColorChange
350
3A
  3
Conceptual
350
34
  3
Dim
350
35
  3
Facepattern
350
39
  3
Flat
350
2B
  3
FlatWithEdges
350
2C
  3
Gouraud
350
2D
  3
GouraudWithEdges
350
2E
  3
Linepattern
350
38
  3
Realistic
350
33
  3
Thicken
350
37
  0
DICTIONARY
  5
3A8
102
{ACAD_REACTORS
330
C
102
}
330
C
100
AcDbDictionary
281
     1
  3
DIMASSOC
350
3AB
  3
HIDETEXT
350
3AC
  0
LAYOUT
  5
1E
102
{ACAD_REACTORS
330
1A
102
}
330
1A
100
AcDbPlotSettings
  1

  2
none_device
  4

  6

 40
0.0
 41
0.0
 42
0.0
 43
0.0
 44
0.0
 45
0.0
 46
0.0
 47
0.0
 48
0.0
 49
0.0
140
0.0
141
0.0
142
1.0
143
1.0
 70
   688
 72
     0
 73
     0
 74
     5
  7

 75
    16
147
1.0
148
0.0
149
0.0
100
AcDbLayout
  1
Layout1
 70
     1
 71
     1
 10
0.0
 20
0.0
 11
12.0
 21
9.0
 12
0.0
 22
0.0
 32
0.0
 14
1.00000000000000E+20
 24
1.00000000000000E+20
 34
1.00000000000000E+20
 15
-1.00000000000000E+20
 25
-1.00000000000000E+20
 35
-1.00000000000000E+20
146
0.0
 13
0.0
 23
0.0
 33
0.0
 16
1.0
 26
0.0
 36
0.0
 17
0.0
 27
1.0
 37
0.0
 76
     0
330
1B
  0
LAYOUT
  5
26
102
{ACAD_REACTORS
330
1A
102
}
330
1A
100
AcDbPlotSettings
  1

  2
none_device
  4

  6

 40
0.0
 41
0.0
 42
0.0
 43
0.0
 44
0.0
 45
0.0
 46
0.0
 47
0.0
 48
0.0
 49
0.0
140
0.0
141
0.0
142
1.0
143
1.0
 70
   688
 72
     0
 73
     0
 74
     5
  7

 75
    16
147
1.0
148
0.0
149
0.0
100
AcDbLayout
  1
Layout2
 70
     1
 71
     2
 10
0.0
 20
0.0
 11
0.0
 21
0.0
 12
0.0
 22
0.0
 32
0.0
 14
0.0
 24
0.0
 34
0.0
 15
0.0
 25
0.0
 35
0.0
146
0.0
 13
0.0
 23
0.0
 33
0.0
 16
1.0
 26
0.0
 36
0.0
 17
0.0
 27
1.0
 37
0.0
 76
     0
330
23
  0
LAYOUT
  5
22
102
{ACAD_REACTORS
330
1A
102
}
330
1A
100
AcDbPlotSettings
  1

  2
none_device
  4

  6

 40
0.0
 41
0.0
 42
0.0
 43
0.0
 44
0.0
 45
0.0
 46
0.0
 47
0.0
 48
0.0
 49
0.0
140
0.0
141
0.0
142
1.0
143
1.0
 70
  1712
 72
     0
 73
     0
 74
     0
  7

 75
     0
147
1.0
148
0.0
149
0.0
100
AcDbLayout
  1
Model
 70
     1
 71
     0
 10
0.0
 20
0.0
 11
12.0
 21
9.0
 12
0.0
 22
0.0
 32
0.0
 14
-72.2528833182174
 24
-98.0
 34
0.0
 15
170.9999999999994
 25
244.0
 35
0.0
146
0.0
 13
0.0
 23
0.0
 33
0.0
 16
1.0
 26
0.0
 36
0.0
 17
0.0
 27
1.0
 37
0.0
 76
     0
330
1F
331
29
  0
MATERIAL
  5
3D
102
{ACAD_REACTORS
330
3B
102
}
102
{ACAD_XDICTIONARY
360
3CF
102
}
330
3B
100
AcDbMaterial
  1
ByBlock
  0
MATERIAL
  5
3C
102
{ACAD_REACTORS
330
3B
102
}
102
{ACAD_XDICTIONARY
360
3CD
102
}
330
3B
100
AcDbMaterial
  1
ByLayer
  0
MATERIAL
  5
3E
102
{ACAD_REACTORS
330
3B
102
}
102
{ACAD_XDICTIONARY
360
3D1
102
}
330
3B
100
AcDbMaterial
  1
Global
  0
MLINESTYLE
  5
18
102
{ACAD_REACTORS
330
17
102
}
330
17
100
AcDbMlineStyle
  2
Standard
 70
     0
  3

 62
   256
 51
90.0
 52
90.0
 71
     2
 49
0.5
 62
   256
  6
BYLAYER
 49
-0.5
 62
   256
  6
BYLAYER
  0
ACDBPLACEHOLDER
  5
F
102
{ACAD_REACTORS
330
E
102
}
330
E
  0
VISUALSTYLE
  5
2F
102
{ACAD_REACTORS
330
2A
102
}
102
{ACAD_XDICTIONARY
360
3B5
102
}
330
2A
100
AcDbVisualStyle
  2
2dWireframe
 70
     4
 71
     0
 72
     2
 73
     0
 90
        0
 40
-0.6
 41
-30.0
 62
     5
 63
     7
 74
     1
 91
        4
 64
     7
 65
   257
 75
     1
175
     1
 42
1.0
 92
        0
 66
   257
 43
1.0
 76
     1
 77
     6
 78
     2
 67
     7
 79
     5
170
     0
171
     0
290
     0
174
     0
 93
        1
 44
0.0
173
     0
291
     0
 45
0.0
1001
ACAD
1000
AcDbSavedByObjectVersion
1070
     0
  0
VISUALSTYLE
  5
31
102
{ACAD_REACTORS
330
2A
102
}
102
{ACAD_XDICTIONARY
360
3B9
102
}
330
2A
100
AcDbVisualStyle
  2
3D Hidden
 70
     6
 71
     1
 72
     2
 73
     2
 90
        0
 40
-0.6
 41
-30.0
 62
     5
 63
     7
 74
     2
 91
        2
 64
     7
 65
   257
 75
     2
175
     1
 42
40.0
 92
        0
 66
   257
 43
1.0
 76
     1
 77
     6
 78
     2
 67
     7
 79
     3
170
     0
171
     0
290
     0
174
     0
 93
        1
 44
0.0
173
     0
291
     0
 45
0.0
1001
ACAD
1000
AcDbSavedByObjectVersion
1070
     0
  0
VISUALSTYLE
  5
30
102
{ACAD_REACTORS
330
2A
102
}
102
{ACAD_XDICTIONARY
360
3B7
102
}
330
2A
100
AcDbVisualStyle
  2
3dWireframe
 70
     5
 71
     0
 72
     2
 73
     0
 90
        0
 40
-0.6
 41
-30.0
 62
     5
 63
     7
 74
     1
 91
        4
 64
     7
 65
   257
 75
     1
175
     1
 42
1.0
 92
        0
 66
   257
 43
1.0
 76
     1
 77
     6
 78
     2
 67
     7
 79
     5
170
     0
171
     0
290
     0
174
     0
 93
        1
 44
0.0
173
     0
291
     0
 45
0.0
1001
ACAD
1000
AcDbSavedByObjectVersion
1070
     0
  0
VISUALSTYLE
  5
32
102
{ACAD_REACTORS
330
2A
102
}
102
{ACAD_XDICTIONARY
360
3BB
102
}
330
2A
100
AcDbVisualStyle
  2
Basic
 70
     7
 71
     1
 72
     0
 73
     1
 90
        0
 40
-0.6
 41
-30.0
 62
     5
 63
     7
 74
     0
 91
        4
 64
     7
 65
   257
 75
     1
175
     1
 42
1.0
 92
        8
 66
     7
 43
1.0
 76
     1
 77
     6
 78
     2
 67
     7
 79
     5
170
     0
171
     0
290
     0
174
     0
 93
        1
 44
0.0
173
     0
291
     1
 45
0.0
1001
ACAD
1000
AcDbSavedByObjectVersion
1070
     0
  0
VISUALSTYLE
  5
36
102
{ACAD_REACTORS
330
2A
102
}
102
{ACAD_XDICTIONARY
360
3C3
102
}
330
2A
100
AcDbVisualStyle
  2
Brighten
 70
    12
 71
     2
 72
     2
 73
     0
 90
        0
 40
-0.6
 41
-30.0
 62
     5
 63
     7
 74
     1
 91
        4
 64
     7
 65
   257
 75
     1
175
     1
 42
1.0
 92
        8
 66
     7
 43
1.0
 76
     1
 77
     6
 78
     2
 67
     7
 79
     5
170
     0
171
     0
290
     0
174
     0
 93
        1
 44
50.0
173
     0
291
     1
 45
0.0
1001
ACAD
1000
AcDbSavedByObjectVersion
1070
     0
  0
VISUALSTYLE
  5
3A
102
{ACAD_REACTORS
330
2A
102
}
102
{ACAD_XDICTIONARY
360
3CB
102
}
330
2A
100
AcDbVisualStyle
  2
ColorChange
 70
    16
 71
     2
 72
     2
 73
     3
 90
        0
 40
-0.6
 41
-30.0
 62
     5
 63
     8
 74
     1
 91
        4
 64
     7
 65
   257
 75
     1
175
     1
 42
1.0
 92
        8
 66
     8
 43
1.0
 76
     1
 77
     6
 78
     2
 67
     7
 79
     5
170
     0
171
     0
290
     0
174
     0
 93
        1
 44
0.0
173
     0
291
     1
 45
0.0
1001
ACAD
1000
AcDbSavedByObjectVersion
1070
     0
  0
VISUALSTYLE
  5
34
102
{ACAD_REACTORS
330
2A
102
}
102
{ACAD_XDICTIONARY
360
3BF
102
}
330
2A
100
AcDbVisualStyle
  2
Conceptual
 70
     9
 71
     3
 72
     2
 73
     0
 90
        0
 40
-0.6
 41
-30.0
 62
     5
 63
     7
 74
     2
 91
        2
 64
     7
 65
   257
 75
     1
175
     1
 42
40.0
 92
        8
 66
     7
 43
1.0
 76
     1
 77
     6
 78
     2
 67
     7
 79
     3
170
     0
171
     0
290
     0
174
     0
 93
        1
 44
0.0
173
     0
291
     0
 45
0.0
1001
ACAD
1000
AcDbSavedByObjectVersion
1070
     0
  0
VISUALSTYLE
  5
35
102
{ACAD_REACTORS
330
2A
102
}
102
{ACAD_XDICTIONARY
360
3C1
102
}
330
2A
100
AcDbVisualStyle
  2
Dim
 70
    11
 71
     2
 72
     2
 73
     0
 90
        0
 40
-0.6
 41
-30.0
 62
     5
 63
     7
 74
     1
 91
        4
 64
     7
 65
   257
 75
     1
175
     1
 42
1.0
 92
        8
 66
     7
 43
1.0
 76
     1
 77
     6
 78
     2
 67
     7
 79
     5
170
     0
171
     0
290
     0
174
     0
 93
        1
 44
-50.0
173
     0
291
     1
 45
0.0
1001
ACAD
1000
AcDbSavedByObjectVersion
1070
     0
  0
VISUALSTYLE
  5
39
102
{ACAD_REACTORS
330
2A
102
}
102
{ACAD_XDICTIONARY
360
3C9
102
}
330
2A
100
AcDbVisualStyle
  2
Facepattern
 70
    15
 71
     2
 72
     2
 73
     0
 90
        0
 40
-0.6
 41
-30.0
 62
     5
 63
     7
 74
     1
 91
        4
 64
     7
 65
   257
 75
     1
175
     1
 42
1.0
 92
        8
 66
     7
 43
1.0
 76
     1
 77
     6
 78
     2
 67
     7
 79
     5
170
     0
171
     0
290
     0
174
     0
 93
        1
 44
0.0
173
     0
291
     1
 45
0.0
1001
ACAD
1000
AcDbSavedByObjectVersion
1070
     0
  0
VISUALSTYLE
  5
2B
102
{ACAD_REACTORS
330
2A
102
}
102
{ACAD_XDICTIONARY
360
3AD
102
}
330
2A
100
AcDbVisualStyle
  2
Flat
 70
     0
 71
     2
 72
     1
 73
     1
 90
        2
 40
-0.6
 41
30.0
 62
     5
 63
     7
 74
     0
 91
        4
 64
     7
 65
   257
 75
     1
175
     1
 42
1.0
 92
        8
 66
     7
 43
1.0
 76
     1
 77
     6
 78
     2
 67
     7
 79
     5
170
     0
171
     0
290
     0
174
     0
 93
       13
 44
0.0
173
     0
291
     1
 45
0.0
1001
ACAD
1000
AcDbSavedByObjectVersion
1070
     0
  0
VISUALSTYLE
  5
2C
102
{ACAD_REACTORS
330
2A
102
}
102
{ACAD_XDICTIONARY
360
3AF
102
}
330
2A
100
AcDbVisualStyle
  2
FlatWithEdges
 70
     1
 71
     2
 72
     1
 73
     1
 90
        2
 40
-0.6
 41
30.0
 62
     5
 63
     7
 74
     1
 91
        4
 64
     7
 65
   257
 75
     1
175
     1
 42
1.0
 92
        0
 66
   257
 43
1.0
 76
     1
 77
     6
 78
     2
 67
     7
 79
     5
170
     0
171
     0
290
     0
174
     0
 93
       13
 44
0.0
173
     0
291
     1
 45
0.0
1001
ACAD
1000
AcDbSavedByObjectVersion
1070
     0
  0
VISUALSTYLE
  5
2D
102
{ACAD_REACTORS
330
2A
102
}
102
{ACAD_XDICTIONARY
360
3B1
102
}
330
2A
100
AcDbVisualStyle
  2
Gouraud
 70
     2
 71
     2
 72
     2
 73
     1
 90
        2
 40
-0.6
 41
30.0
 62
     5
 63
     7
 74
     0
 91
        4
 64
     7
 65
   257
 75
     1
175
     1
 42
1.0
 92
        0
 66
     7
 43
1.0
 76
     1
 77
     6
 78
     2
 67
     7
 79
     5
170
     0
171
     0
290
     0
174
     0
 93
       13
 44
0.0
173
     0
291
     1
 45
0.0
1001
ACAD
1000
AcDbSavedByObjectVersion
1070
     0
  0
VISUALSTYLE
  5
2E
102
{ACAD_REACTORS
330
2A
102
}
102
{ACAD_XDICTIONARY
360
3B3
102
}
330
2A
100
AcDbVisualStyle
  2
GouraudWithEdges
 70
     3
 71
     2
 72
     2
 73
     1
 90
        2
 40
-0.6
 41
30.0
 62
     5
 63
     7
 74
     1
 91
        4
 64
     7
 65
   257
 75
     1
175
     1
 42
1.0
 92
        0
 66
   257
 43
1.0
 76
     1
 77
     6
 78
     2
 67
     7
 79
     5
170
     0
171
     0
290
     0
174
     0
 93
       13
 44
0.0
173
     0
291
     1
 45
0.0
1001
ACAD
1000
AcDbSavedByObjectVersion
1070
     0
  0
VISUALSTYLE
  5
38
102
{ACAD_REACTORS
330
2A
102
}
102
{ACAD_XDICTIONARY
360
3C7
102
}
330
2A
100
AcDbVisualStyle
  2
Linepattern
 70
    14
 71
     2
 72
     2
 73
     0
 90
        0
 40
-0.6
 41
-30.0
 62
     5
 63
     7
 74
     1
 91
        4
 64
     7
 65
   257
 75
     7
175
     7
 42
1.0
 92
        8
 66
     7
 43
1.0
 76
     1
 77
     6
 78
     2
 67
     7
 79
     5
170
     0
171
     0
290
     0
174
     0
 93
        1
 44
0.0
173
     0
291
     1
 45
0.0
1001
ACAD
1000
AcDbSavedByObjectVersion
1070
     0
  0
VISUALSTYLE
  5
33
102
{ACAD_REACTORS
330
2A
102
}
102
{ACAD_XDICTIONARY
360
3BD
102
}
330
2A
100
AcDbVisualStyle
  2
Realistic
 70
     8
 71
     2
 72
     2
 73
     0
 90
        0
 40
-0.6
 41
-30.0
 62
     5
 63
     7
 74
     1
 91
        0
 64
     7
 65
   257
 75
     1
175
     1
 42
1.0
 92
        8
 66
     8
 43
1.0
 76
     1
 77
     6
 78
     2
 67
     7
 79
     5
170
     0
171
     0
290
     0
174
     0
 93
       13
 44
0.0
173
     0
291
     0
 45
0.0
1001
ACAD
1000
AcDbSavedByObjectVersion
1070
     0
  0
VISUALSTYLE
  5
37
102
{ACAD_REACTORS
330
2A
102
}
102
{ACAD_XDICTIONARY
360
3C5
102
}
330
2A
100
AcDbVisualStyle
  2
Thicken
 70
    13
 71
     2
 72
     2
 73
     0
 90
        0
 40
-0.6
 41
-30.0
 62
     5
 63
     7
 74
     1
 91
        4
 64
     7
 65
   257
 75
     1
175
     1
 42
1.0
 92
       12
 66
     7
 43
1.0
 76
     1
 77
     6
 78
     2
 67
     7
 79
     5
170
     0
171
     0
290
     0
174
     0
 93
        1
 44
0.0
173
     0
291
     1
 45
0.0
1001
ACAD
1000
AcDbSavedByObjectVersion
1070
     0
  0
DICTIONARYVAR
  5
3AB
102
{ACAD_REACTORS
330
3A8
102
}
330
3A8
100
DictionaryVariables
280
     0
  1
2
  0
DICTIONARYVAR
  5
3AC
102
{ACAD_REACTORS
330
3A8
102
}
330
3A8
100
DictionaryVariables
280
     0
  1
1
  0
DICTIONARY
  5
3CF
330
3D
100
AcDbDictionary
280
     1
281
     1
  3
ACAD_XREC_ROUNDTRIP
360
3D0
  0
DICTIONARY
  5
3CD
330
3C
100
AcDbDictionary
280
     1
281
     1
  3
ACAD_XREC_ROUNDTRIP
360
3CE
  0
DICTIONARY
  5
3D1
330
3E
100
AcDbDictionary
280
     1
281
     1
  3
ACAD_XREC_ROUNDTRIP
360
3D2
  0
DICTIONARY
  5
3B5
330
2F
100
AcDbDictionary
280
     1
281
     1
  3
ACAD_XREC_ROUNDTRIP
360
3B6
  0
DICTIONARY
  5
3B9
330
31
100
AcDbDictionary
280
     1
281
     1
  3
ACAD_XREC_ROUNDTRIP
360
3BA
  0
DICTIONARY
  5
3B7
330
30
100
AcDbDictionary
280
     1
281
     1
  3
ACAD_XREC_ROUNDTRIP
360
3B8
  0
DICTIONARY
  5
3BB
330
32
100
AcDbDictionary
280
     1
281
     1
  3
ACAD_XREC_ROUNDTRIP
360
3BC
  0
DICTIONARY
  5
3C3
330
36
100
AcDbDictionary
280
     1
281
     1
  3
ACAD_XREC_ROUNDTRIP
360
3C4
  0
DICTIONARY
  5
3CB
330
3A
100
AcDbDictionary
280
     1
281
     1
  3
ACAD_XREC_ROUNDTRIP
360
3CC
  0
DICTIONARY
  5
3BF
330
34
100
AcDbDictionary
280
     1
281
     1
  3
ACAD_XREC_ROUNDTRIP
360
3C0
  0
DICTIONARY
  5
3C1
330
35
100
AcDbDictionary
280
     1
281
     1
  3
ACAD_XREC_ROUNDTRIP
360
3C2
  0
DICTIONARY
  5
3C9
330
39
100
AcDbDictionary
280
     1
281
     1
  3
ACAD_XREC_ROUNDTRIP
360
3CA
  0
DICTIONARY
  5
3AD
330
2B
100
AcDbDictionary
280
     1
281
     1
  3
ACAD_XREC_ROUNDTRIP
360
3AE
  0
DICTIONARY
  5
3AF
330
2C
100
AcDbDictionary
280
     1
281
     1
  3
ACAD_XREC_ROUNDTRIP
360
3B0
  0
DICTIONARY
  5
3B1
330
2D
100
AcDbDictionary
280
     1
281
     1
  3
ACAD_XREC_ROUNDTRIP
360
3B2
  0
DICTIONARY
  5
3B3
330
2E
100
AcDbDictionary
280
     1
281
     1
  3
ACAD_XREC_ROUNDTRIP
360
3B4
  0
DICTIONARY
  5
3C7
330
38
100
AcDbDictionary
280
     1
281
     1
  3
ACAD_XREC_ROUNDTRIP
360
3C8
  0
DICTIONARY
  5
3BD
330
33
100
AcDbDictionary
280
     1
281
     1
  3
ACAD_XREC_ROUNDTRIP
360
3BE
  0
DICTIONARY
  5
3C5
330
37
100
AcDbDictionary
280
     1
281
     1
  3
ACAD_XREC_ROUNDTRIP
360
3C6
  0
XRECORD
  5
3D0
102
{ACAD_REACTORS
330
3CF
102
}
330
3CF
100
AcDbXrecord
280
     1
102
MATERIAL
148
0.0
149
0.0
149
0.0
 93
        0
 94
      127
282
     0
 72
     1
 77
     1
171
     1
175
     1
179
     1
273
     0
  0
XRECORD
  5
3CE
102
{ACAD_REACTORS
330
3CD
102
}
330
3CD
100
AcDbXrecord
280
     1
102
MATERIAL
148
0.0
149
0.0
149
0.0
 93
        0
 94
      127
282
     0
 72
     1
 77
     1
171
     1
175
     1
179
     1
273
     0
  0
XRECORD
  5
3D2
102
{ACAD_REACTORS
330
3D1
102
}
330
3D1
100
AcDbXrecord
280
     1
102
MATERIAL
148
0.0
149
0.0
149
0.0
 93
        0
 94
      127
282
     0
 72
     1
 77
     1
171
     1
175
     1
179
     1
273
     0
  0
XRECORD
  5
3B6
102
{ACAD_REACTORS
330
3B5
102
}
330
3B5
100
AcDbXrecord
280
     1
102
RTVSPropertyOp0
 70
     1
102
RTVSPropertyOp1
 70
     1
102
RTVSPropertyOp2
 70
     1
102
RTVSPropertyOp3
 70
     1
102
RTVSPropertyOp4
 70
     1
102
RTVSPropertyOp5
 70
     1
102
RTVSPropertyOp6
 70
     1
102
RTVSPropertyOp7
 70
     1
102
RTVSPropertyOp8
 70
     1
102
RTVSPropertyOp9
 70
     1
102
RTVSPropertyOp10
 70
     1
102
RTVSPropertyOp11
 70
     1
102
RTVSPropertyOp12
 70
     1
102
RTVSPropertyOp13
 70
     1
102
RTVSPropertyOp14
 70
     1
102
RTVSPropertyOp15
 70
     1
102
RTVSPropertyOp16
 70
     1
102
RTVSPropertyOp17
 70
     1
102
RTVSPropertyOp18
 70
     1
102
RTVSPropertyOp19
 70
     1
102
RTVSPropertyOp20
 70
     1
102
RTVSPropertyOp21
 70
     1
102
RTVSPropertyOp22
 70
     1
102
RTVSPropertyOp23
 70
     1
102
RTVSPropertyOp24
 70
     1
102
RTVSPropertyOp25
 70
     1
102
RTVSPropertyOp26
 70
     1
102
RTVSPropertyOp27
 70
     1
  0
XRECORD
  5
3BA
102
{ACAD_REACTORS
330
3B9
102
}
330
3B9
100
AcDbXrecord
280
     1
102
RTVSPropertyOp0
 70
     1
102
RTVSPropertyOp1
 70
     1
102
RTVSPropertyOp2
 70
     1
102
RTVSPropertyOp3
 70
     1
102
RTVSPropertyOp4
 70
     1
102
RTVSPropertyOp5
 70
     1
102
RTVSPropertyOp6
 70
     1
102
RTVSPropertyOp7
 70
     1
102
RTVSPropertyOp8
 70
     1
102
RTVSPropertyOp9
 70
     1
102
RTVSPropertyOp10
 70
     1
102
RTVSPropertyOp11
 70
     1
102
RTVSPropertyOp12
 70
     1
102
RTVSPropertyOp13
 70
     1
102
RTVSPropertyOp14
 70
     1
102
RTVSPropertyOp15
 70
     1
102
RTVSPropertyOp16
 70
     1
102
RTVSPropertyOp17
 70
     1
102
RTVSPropertyOp18
 70
     1
102
RTVSPropertyOp19
 70
     1
102
RTVSPropertyOp20
 70
     1
102
RTVSPropertyOp21
 70
     1
102
RTVSPropertyOp22
 70
     1
102
RTVSPropertyOp23
 70
     1
102
RTVSPropertyOp24
 70
     1
102
RTVSPropertyOp25
 70
     1
102
RTVSPropertyOp26
 70
     1
102
RTVSPropertyOp27
 70
     1
  0
XRECORD
  5
3B8
102
{ACAD_REACTORS
330
3B7
102
}
330
3B7
100
AcDbXrecord
280
     1
102
RTVSPropertyOp0
 70
     1
102
RTVSPropertyOp1
 70
     1
102
RTVSPropertyOp2
 70
     1
102
RTVSPropertyOp3
 70
     1
102
RTVSPropertyOp4
 70
     1
102
RTVSPropertyOp5
 70
     1
102
RTVSPropertyOp6
 70
     1
102
RTVSPropertyOp7
 70
     1
102
RTVSPropertyOp8
 70
     1
102
RTVSPropertyOp9
 70
     1
102
RTVSPropertyOp10
 70
     1
102
RTVSPropertyOp11
 70
     1
102
RTVSPropertyOp12
 70
     1
102
RTVSPropertyOp13
 70
     1
102
RTVSPropertyOp14
 70
     1
102
RTVSPropertyOp15
 70
     1
102
RTVSPropertyOp16
 70
     1
102
RTVSPropertyOp17
 70
     1
102
RTVSPropertyOp18
 70
     1
102
RTVSPropertyOp19
 70
     1
102
RTVSPropertyOp20
 70
     1
102
RTVSPropertyOp21
 70
     1
102
RTVSPropertyOp22
 70
     1
102
RTVSPropertyOp23
 70
     1
102
RTVSPropertyOp24
 70
     1
102
RTVSPropertyOp25
 70
     1
102
RTVSPropertyOp26
 70
     1
102
RTVSPropertyOp27
 70
     1
  0
XRECORD
  5
3BC
102
{ACAD_REACTORS
330
3BB
102
}
330
3BB
100
AcDbXrecord
280
     1
102
RTVSPropertyOp0
 70
     1
102
RTVSPropertyOp1
 70
     1
102
RTVSPropertyOp2
 70
     1
102
RTVSPropertyOp3
 70
     1
102
RTVSPropertyOp4
 70
     1
102
RTVSPropertyOp5
 70
     1
102
RTVSPropertyOp6
 70
     1
102
RTVSPropertyOp7
 70
     1
102
RTVSPropertyOp8
 70
     1
102
RTVSPropertyOp9
 70
     1
102
RTVSPropertyOp10
 70
     1
102
RTVSPropertyOp11
 70
     1
102
RTVSPropertyOp12
 70
     1
102
RTVSPropertyOp13
 70
     1
102
RTVSPropertyOp14
 70
     1
102
RTVSPropertyOp15
 70
     1
102
RTVSPropertyOp16
 70
     1
102
RTVSPropertyOp17
 70
     1
102
RTVSPropertyOp18
 70
     1
102
RTVSPropertyOp19
 70
     1
102
RTVSPropertyOp20
 70
     1
102
RTVSPropertyOp21
 70
     1
102
RTVSPropertyOp22
 70
     1
102
RTVSPropertyOp23
 70
     1
102
RTVSPropertyOp24
 70
     1
102
RTVSPropertyOp25
 70
     1
102
RTVSPropertyOp26
 70
     1
102
RTVSPropertyOp27
 70
     1
  0
XRECORD
  5
3C4
102
{ACAD_REACTORS
330
3C3
102
}
330
3C3
100
AcDbXrecord
280
     1
102
RTVSPropertyOp0
 70
     1
102
RTVSPropertyOp1
 70
     1
102
RTVSPropertyOp2
 70
     1
102
RTVSPropertyOp3
 70
     1
102
RTVSPropertyOp4
 70
     1
102
RTVSPropertyOp5
 70
     1
102
RTVSPropertyOp6
 70
     1
102
RTVSPropertyOp7
 70
     1
102
RTVSPropertyOp8
 70
     1
102
RTVSPropertyOp9
 70
     1
102
RTVSPropertyOp10
 70
     1
102
RTVSPropertyOp11
 70
     1
102
RTVSPropertyOp12
 70
     1
102
RTVSPropertyOp13
 70
     1
102
RTVSPropertyOp14
 70
     1
102
RTVSPropertyOp15
 70
     1
102
RTVSPropertyOp16
 70
     1
102
RTVSPropertyOp17
 70
     1
102
RTVSPropertyOp18
 70
     1
102
RTVSPropertyOp19
 70
     1
102
RTVSPropertyOp20
 70
     1
102
RTVSPropertyOp21
 70
     1
102
RTVSPropertyOp22
 70
     1
102
RTVSPropertyOp23
 70
     1
102
RTVSPropertyOp24
 70
     1
102
RTVSPropertyOp25
 70
     1
102
RTVSPropertyOp26
 70
     1
102
RTVSPropertyOp27
 70
     1
  0
XRECORD
  5
3CC
102
{ACAD_REACTORS
330
3CB
102
}
330
3CB
100
AcDbXrecord
280
     1
102
RTVSPropertyOp0
 70
     1
102
RTVSPropertyOp1
 70
     1
102
RTVSPropertyOp2
 70
     1
102
RTVSPropertyOp3
 70
     1
102
RTVSPropertyOp4
 70
     1
102
RTVSPropertyOp5
 70
     1
102
RTVSPropertyOp6
 70
     1
102
RTVSPropertyOp7
 70
     1
102
RTVSPropertyOp8
 70
     1
102
RTVSPropertyOp9
 70
     1
102
RTVSPropertyOp10
 70
     1
102
RTVSPropertyOp11
 70
     1
102
RTVSPropertyOp12
 70
     1
102
RTVSPropertyOp13
 70
     1
102
RTVSPropertyOp14
 70
     1
102
RTVSPropertyOp15
 70
     1
102
RTVSPropertyOp16
 70
     1
102
RTVSPropertyOp17
 70
     1
102
RTVSPropertyOp18
 70
     1
102
RTVSPropertyOp19
 70
     1
102
RTVSPropertyOp20
 70
     1
102
RTVSPropertyOp21
 70
     1
102
RTVSPropertyOp22
 70
     1
102
RTVSPropertyOp23
 70
     1
102
RTVSPropertyOp24
 70
     1
102
RTVSPropertyOp25
 70
     1
102
RTVSPropertyOp26
 70
     1
102
RTVSPropertyOp27
 70
     1
  0
XRECORD
  5
3C0
102
{ACAD_REACTORS
330
3BF
102
}
330
3BF
100
AcDbXrecord
280
     1
102
RTVSPropertyOp0
 70
     1
102
RTVSPropertyOp1
 70
     1
102
RTVSPropertyOp2
 70
     1
102
RTVSPropertyOp3
 70
     1
102
RTVSPropertyOp4
 70
     1
102
RTVSPropertyOp5
 70
     1
102
RTVSPropertyOp6
 70
     1
102
RTVSPropertyOp7
 70
     1
102
RTVSPropertyOp8
 70
     1
102
RTVSPropertyOp9
 70
     1
102
RTVSPropertyOp10
 70
     1
102
RTVSPropertyOp11
 70
     1
102
RTVSPropertyOp12
 70
     1
102
RTVSPropertyOp13
 70
     1
102
RTVSPropertyOp14
 70
     1
102
RTVSPropertyOp15
 70
     1
102
RTVSPropertyOp16
 70
     1
102
RTVSPropertyOp17
 70
     1
102
RTVSPropertyOp18
 70
     1
102
RTVSPropertyOp19
 70
     1
102
RTVSPropertyOp20
 70
     1
102
RTVSPropertyOp21
 70
     1
102
RTVSPropertyOp22
 70
     1
102
RTVSPropertyOp23
 70
     1
102
RTVSPropertyOp24
 70
     1
102
RTVSPropertyOp25
 70
     1
102
RTVSPropertyOp26
 70
     1
102
RTVSPropertyOp27
 70
     1
  0
XRECORD
  5
3C2
102
{ACAD_REACTORS
330
3C1
102
}
330
3C1
100
AcDbXrecord
280
     1
102
RTVSPropertyOp0
 70
     1
102
RTVSPropertyOp1
 70
     1
102
RTVSPropertyOp2
 70
     1
102
RTVSPropertyOp3
 70
     1
102
RTVSPropertyOp4
 70
     1
102
RTVSPropertyOp5
 70
     1
102
RTVSPropertyOp6
 70
     1
102
RTVSPropertyOp7
 70
     1
102
RTVSPropertyOp8
 70
     1
102
RTVSPropertyOp9
 70
     1
102
RTVSPropertyOp10
 70
     1
102
RTVSPropertyOp11
 70
     1
102
RTVSPropertyOp12
 70
     1
102
RTVSPropertyOp13
 70
     1
102
RTVSPropertyOp14
 70
     1
102
RTVSPropertyOp15
 70
     1
102
RTVSPropertyOp16
 70
     1
102
RTVSPropertyOp17
 70
     1
102
RTVSPropertyOp18
 70
     1
102
RTVSPropertyOp19
 70
     1
102
RTVSPropertyOp20
 70
     1
102
RTVSPropertyOp21
 70
     1
102
RTVSPropertyOp22
 70
     1
102
RTVSPropertyOp23
 70
     1
102
RTVSPropertyOp24
 70
     1
102
RTVSPropertyOp25
 70
     1
102
RTVSPropertyOp26
 70
     1
102
RTVSPropertyOp27
 70
     1
  0
XRECORD
  5
3CA
102
{ACAD_REACTORS
330
3C9
102
}
330
3C9
100
AcDbXrecord
280
     1
102
RTVSPropertyOp0
 70
     1
102
RTVSPropertyOp1
 70
     1
102
RTVSPropertyOp2
 70
     1
102
RTVSPropertyOp3
 70
     1
102
RTVSPropertyOp4
 70
     1
102
RTVSPropertyOp5
 70
     1
102
RTVSPropertyOp6
 70
     1
102
RTVSPropertyOp7
 70
     1
102
RTVSPropertyOp8
 70
     1
102
RTVSPropertyOp9
 70
     1
102
RTVSPropertyOp10
 70
     1
102
RTVSPropertyOp11
 70
     1
102
RTVSPropertyOp12
 70
     1
102
RTVSPropertyOp13
 70
     1
102
RTVSPropertyOp14
 70
     1
102
RTVSPropertyOp15
 70
     1
102
RTVSPropertyOp16
 70
     1
102
RTVSPropertyOp17
 70
     1
102
RTVSPropertyOp18
 70
     1
102
RTVSPropertyOp19
 70
     1
102
RTVSPropertyOp20
 70
     1
102
RTVSPropertyOp21
 70
     1
102
RTVSPropertyOp22
 70
     1
102
RTVSPropertyOp23
 70
     1
102
RTVSPropertyOp24
 70
     1
102
RTVSPropertyOp25
 70
     1
102
RTVSPropertyOp26
 70
     1
102
RTVSPropertyOp27
 70
     1
  0
XRECORD
  5
3AE
102
{ACAD_REACTORS
330
3AD
102
}
330
3AD
100
AcDbXrecord
280
     1
102
RTVSPropertyOp0
 70
     1
102
RTVSPropertyOp1
 70
     1
102
RTVSPropertyOp2
 70
     1
102
RTVSPropertyOp3
 70
     1
102
RTVSPropertyOp4
 70
     1
102
RTVSPropertyOp5
 70
     1
102
RTVSPropertyOp6
 70
     1
102
RTVSPropertyOp7
 70
     1
102
RTVSPropertyOp8
 70
     1
102
RTVSPropertyOp9
 70
     1
102
RTVSPropertyOp10
 70
     1
102
RTVSPropertyOp11
 70
     1
102
RTVSPropertyOp12
 70
     1
102
RTVSPropertyOp13
 70
     1
102
RTVSPropertyOp14
 70
     1
102
RTVSPropertyOp15
 70
     1
102
RTVSPropertyOp16
 70
     1
102
RTVSPropertyOp17
 70
     1
102
RTVSPropertyOp18
 70
     1
102
RTVSPropertyOp19
 70
     1
102
RTVSPropertyOp20
 70
     1
102
RTVSPropertyOp21
 70
     1
102
RTVSPropertyOp22
 70
     1
102
RTVSPropertyOp23
 70
     1
102
RTVSPropertyOp24
 70
     1
102
RTVSPropertyOp25
 70
     1
102
RTVSPropertyOp26
 70
     1
102
RTVSPropertyOp27
 70
     1
  0
XRECORD
  5
3B0
102
{ACAD_REACTORS
330
3AF
102
}
330
3AF
100
AcDbXrecord
280
     1
102
RTVSPropertyOp0
 70
     1
102
RTVSPropertyOp1
 70
     1
102
RTVSPropertyOp2
 70
     1
102
RTVSPropertyOp3
 70
     1
102
RTVSPropertyOp4
 70
     1
102
RTVSPropertyOp5
 70
     1
102
RTVSPropertyOp6
 70
     1
102
RTVSPropertyOp7
 70
     1
102
RTVSPropertyOp8
 70
     1
102
RTVSPropertyOp9
 70
     1
102
RTVSPropertyOp10
 70
     1
102
RTVSPropertyOp11
 70
     1
102
RTVSPropertyOp12
 70
     1
102
RTVSPropertyOp13
 70
     1
102
RTVSPropertyOp14
 70
     1
102
RTVSPropertyOp15
 70
     1
102
RTVSPropertyOp16
 70
     1
102
RTVSPropertyOp17
 70
     1
102
RTVSPropertyOp18
 70
     1
102
RTVSPropertyOp19
 70
     1
102
RTVSPropertyOp20
 70
     1
102
RTVSPropertyOp21
 70
     1
102
RTVSPropertyOp22
 70
     1
102
RTVSPropertyOp23
 70
     1
102
RTVSPropertyOp24
 70
     1
102
RTVSPropertyOp25
 70
     1
102
RTVSPropertyOp26
 70
     1
102
RTVSPropertyOp27
 70
     1
  0
XRECORD
  5
3B2
102
{ACAD_REACTORS
330
3B1
102
}
330
3B1
100
AcDbXrecord
280
     1
102
RTVSPropertyOp0
 70
     1
102
RTVSPropertyOp1
 70
     1
102
RTVSPropertyOp2
 70
     1
102
RTVSPropertyOp3
 70
     1
102
RTVSPropertyOp4
 70
     1
102
RTVSPropertyOp5
 70
     1
102
RTVSPropertyOp6
 70
     1
102
RTVSPropertyOp7
 70
     1
102
RTVSPropertyOp8
 70
     1
102
RTVSPropertyOp9
 70
     1
102
RTVSPropertyOp10
 70
     1
102
RTVSPropertyOp11
 70
     1
102
RTVSPropertyOp12
 70
     1
102
RTVSPropertyOp13
 70
     1
102
RTVSPropertyOp14
 70
     1
102
RTVSPropertyOp15
 70
     1
102
RTVSPropertyOp16
 70
     1
102
RTVSPropertyOp17
 70
     1
102
RTVSPropertyOp18
 70
     1
102
RTVSPropertyOp19
 70
     1
102
RTVSPropertyOp20
 70
     1
102
RTVSPropertyOp21
 70
     1
102
RTVSPropertyOp22
 70
     1
102
RTVSPropertyOp23
 70
     1
102
RTVSPropertyOp24
 70
     1
102
RTVSPropertyOp25
 70
     1
102
RTVSPropertyOp26
 70
     1
102
RTVSPropertyOp27
 70
     1
  0
XRECORD
  5
3B4
102
{ACAD_REACTORS
330
3B3
102
}
330
3B3
100
AcDbXrecord
280
     1
102
RTVSPropertyOp0
 70
     1
102
RTVSPropertyOp1
 70
     1
102
RTVSPropertyOp2
 70
     1
102
RTVSPropertyOp3
 70
     1
102
RTVSPropertyOp4
 70
     1
102
RTVSPropertyOp5
 70
     1
102
RTVSPropertyOp6
 70
     1
102
RTVSPropertyOp7
 70
     1
102
RTVSPropertyOp8
 70
     1
102
RTVSPropertyOp9
 70
     1
102
RTVSPropertyOp10
 70
     1
102
RTVSPropertyOp11
 70
     1
102
RTVSPropertyOp12
 70
     1
102
RTVSPropertyOp13
 70
     1
102
RTVSPropertyOp14
 70
     1
102
RTVSPropertyOp15
 70
     1
102
RTVSPropertyOp16
 70
     1
102
RTVSPropertyOp17
 70
     1
102
RTVSPropertyOp18
 70
     1
102
RTVSPropertyOp19
 70
     1
102
RTVSPropertyOp20
 70
     1
102
RTVSPropertyOp21
 70
     1
102
RTVSPropertyOp22
 70
     1
102
RTVSPropertyOp23
 70
     1
102
RTVSPropertyOp24
 70
     1
102
RTVSPropertyOp25
 70
     1
102
RTVSPropertyOp26
 70
     1
102
RTVSPropertyOp27
 70
     1
  0
XRECORD
  5
3C8
102
{ACAD_REACTORS
330
3C7
102
}
330
3C7
100
AcDbXrecord
280
     1
102
RTVSPropertyOp0
 70
     1
102
RTVSPropertyOp1
 70
     1
102
RTVSPropertyOp2
 70
     1
102
RTVSPropertyOp3
 70
     1
102
RTVSPropertyOp4
 70
     1
102
RTVSPropertyOp5
 70
     1
102
RTVSPropertyOp6
 70
     1
102
RTVSPropertyOp7
 70
     1
102
RTVSPropertyOp8
 70
     1
102
RTVSPropertyOp9
 70
     1
102
RTVSPropertyOp10
 70
     1
102
RTVSPropertyOp11
 70
     1
102
RTVSPropertyOp12
 70
     1
102
RTVSPropertyOp13
 70
     1
102
RTVSPropertyOp14
 70
     1
102
RTVSPropertyOp15
 70
     1
102
RTVSPropertyOp16
 70
     1
102
RTVSPropertyOp17
 70
     1
102
RTVSPropertyOp18
 70
     1
102
RTVSPropertyOp19
 70
     1
102
RTVSPropertyOp20
 70
     1
102
RTVSPropertyOp21
 70
     1
102
RTVSPropertyOp22
 70
     1
102
RTVSPropertyOp23
 70
     1
102
RTVSPropertyOp24
 70
     1
102
RTVSPropertyOp25
 70
     1
102
RTVSPropertyOp26
 70
     1
102
RTVSPropertyOp27
 70
     1
  0
XRECORD
  5
3BE
102
{ACAD_REACTORS
330
3BD
102
}
330
3BD
100
AcDbXrecord
280
     1
102
RTVSPropertyOp0
 70
     1
102
RTVSPropertyOp1
 70
     1
102
RTVSPropertyOp2
 70
     1
102
RTVSPropertyOp3
 70
     1
102
RTVSPropertyOp4
 70
     1
102
RTVSPropertyOp5
 70
     1
102
RTVSPropertyOp6
 70
     1
102
RTVSPropertyOp7
 70
     1
102
RTVSPropertyOp8
 70
     1
102
RTVSPropertyOp9
 70
     1
102
RTVSPropertyOp10
 70
     1
102
RTVSPropertyOp11
 70
     1
102
RTVSPropertyOp12
 70
     1
102
RTVSPropertyOp13
 70
     1
102
RTVSPropertyOp14
 70
     1
102
RTVSPropertyOp15
 70
     1
102
RTVSPropertyOp16
 70
     1
102
RTVSPropertyOp17
 70
     1
102
RTVSPropertyOp18
 70
     1
102
RTVSPropertyOp19
 70
     1
102
RTVSPropertyOp20
 70
     1
102
RTVSPropertyOp21
 70
     1
102
RTVSPropertyOp22
 70
     1
102
RTVSPropertyOp23
 70
     1
102
RTVSPropertyOp24
 70
     1
102
RTVSPropertyOp25
 70
     1
102
RTVSPropertyOp26
 70
     1
102
RTVSPropertyOp27
 70
     1
  0
XRECORD
  5
3C6
102
{ACAD_REACTORS
330
3C5
102
}
330
3C5
100
AcDbXrecord
280
     1
102
RTVSPropertyOp0
 70
     1
102
RTVSPropertyOp1
 70
     1
102
RTVSPropertyOp2
 70
     1
102
RTVSPropertyOp3
 70
     1
102
RTVSPropertyOp4
 70
     1
102
RTVSPropertyOp5
 70
     1
102
RTVSPropertyOp6
 70
     1
102
RTVSPropertyOp7
 70
     1
102
RTVSPropertyOp8
 70
     1
102
RTVSPropertyOp9
 70
     1
102
RTVSPropertyOp10
 70
     1
102
RTVSPropertyOp11
 70
     1
102
RTVSPropertyOp12
 70
     1
102
RTVSPropertyOp13
 70
     1
102
RTVSPropertyOp14
 70
     1
102
RTVSPropertyOp15
 70
     1
102
RTVSPropertyOp16
 70
     1
102
RTVSPropertyOp17
 70
     1
102
RTVSPropertyOp18
 70
     1
102
RTVSPropertyOp19
 70
     1
102
RTVSPropertyOp20
 70
     1
102
RTVSPropertyOp21
 70
     1
102
RTVSPropertyOp22
 70
     1
102
RTVSPropertyOp23
 70
     1
102
RTVSPropertyOp24
 70
     1
102
RTVSPropertyOp25
 70
     1
102
RTVSPropertyOp26
 70
     1
102
RTVSPropertyOp27
 70
     1
  0
ENDSEC
  0
EOF
