  0
SECTION
  2
HEADER
  9
$ACADVER
  1
AC1015
  9
$ACADMAINTVER
 70
     6
  9
$DWGCODEPAGE
  3
ANSI_932
  9
$INSBASE
 10
0.0
 20
0.0
 30
0.0
  9
$EXTMIN
 10
-184.416882273803
 20
-189.000470259671
 30
0.0
  9
$EXTMAX
 10
407.271316990811
 20
421.0
 30
0.0
  9
$LIMMIN
 10
0.0
 20
0.0
  9
$LIMMAX
 10
12.0
 20
9.0
  9
$ORTHOMODE
 70
     0
  9
$REGENMODE
 70
     1
  9
$FILLMODE
 70
     1
  9
$QTEXTMODE
 70
     0
  9
$MIRRTEXT
 70
     1
  9
$LTSCALE
 40
1.0
  9
$ATTMODE
 70
     1
  9
$TEXTSIZE
 40
0.2
  9
$TRACEWID
 40
0.05
  9
$TEXTSTYLE
  7
Standard
  9
$CLAYER
  8
0
  9
$CELTYPE
  6
ByLayer
  9
$CECOLOR
 62
   256
  9
$CELTSCALE
 40
1.0
  9
$DISPSILH
 70
     0
  9
$DIMSCALE
 40
1.0
  9
$DIMASZ
 40
0.18
  9
$DIMEXO
 40
0.0625
  9
$DIMDLI
 40
0.38
  9
$DIMRND
 40
0.0
  9
$DIMDLE
 40
0.0
  9
$DIMEXE
 40
0.18
  9
$DIMTP
 40
0.0
  9
$DIMTM
 40
0.0
  9
$DIMTXT
 40
0.18
  9
$DIMCEN
 40
0.09
  9
$DIMTSZ
 40
0.0
  9
$DIMTOL
 70
     0
  9
$DIMLIM
 70
     0
  9
$DIMTIH
 70
     1
  9
$DIMTOH
 70
     1
  9
$DIMSE1
 70
     0
  9
$DIMSE2
 70
     0
  9
$DIMTAD
 70
     0
  9
$DIMZIN
 70
     0
  9
$DIMBLK
  1

  9
$DIMASO
 70
     1
  9
$DIMSHO
 70
     1
  9
$DIMPOST
  1

  9
$DIMAPOST
  1

  9
$DIMALT
 70
     0
  9
$DIMALTD
 70
     2
  9
$DIMALTF
 40
25.4
  9
$DIMLFAC
 40
1.0
  9
$DIMTOFL
 70
     0
  9
$DIMTVP
 40
0.0
  9
$DIMTIX
 70
     0
  9
$DIMSOXD
 70
     0
  9
$DIMSAH
 70
     0
  9
$DIMBLK1
  1

  9
$DIMBLK2
  1

  9
$DIMSTYLE
  2
Standard
  9
$DIMCLRD
 70
     0
  9
$DIMCLRE
 70
     0
  9
$DIMCLRT
 70
     0
  9
$DIMTFAC
 40
1.0
  9
$DIMGAP
 40
0.09
  9
$DIMJUST
 70
     0
  9
$DIMSD1
 70
     0
  9
$DIMSD2
 70
     0
  9
$DIMTOLJ
 70
     1
  9
$DIMTZIN
 70
     0
  9
$DIMALTZ
 70
     0
  9
$DIMALTTZ
 70
     0
  9
$DIMUPT
 70
     0
  9
$DIMDEC
 70
     4
  9
$DIMTDEC
 70
     4
  9
$DIMALTU
 70
     2
  9
$DIMALTTD
 70
     2
  9
$DIMTXSTY
  7
Standard
  9
$DIMAUNIT
 70
     0
  9
$DIMADEC
 70
     0
  9
$DIMALTRND
 40
0.0
  9
$DIMAZIN
 70
     0
  9
$DIMDSEP
 70
    46
  9
$DIMATFIT
 70
     3
  9
$DIMFRAC
 70
     0
  9
$DIMLDRBLK
  1

  9
$DIMLUNIT
 70
     2
  9
$DIMLWD
 70
    -2
  9
$DIMLWE
 70
    -2
  9
$DIMTMOVE
 70
     0
  9
$LUNITS
 70
     2
  9
$LUPREC
 70
     4
  9
$SKETCHINC
 40
0.1
  9
$FILLETRAD
 40
0.5
  9
$AUNITS
 70
     0
  9
$AUPREC
 70
     0
  9
$MENU
  1
.
  9
$ELEVATION
 40
0.0
  9
$PELEVATION
 40
0.0
  9
$THICKNESS
 40
0.0
  9
$LIMCHECK
 70
     0
  9
$CHAMFERA
 40
0.5
  9
$CHAMFERB
 40
0.5
  9
$CHAMFERC
 40
1.0
  9
$CHAMFERD
 40
0.0
  9
$SKPOLY
 70
     0
  9
$TDCREATE
 40
2457624.701912928
  9
$TDUCREATE
 40
2457624.326912928
  9
$TDUPDATE
 40
2457624.70191294
  9
$TDUUPDATE
 40
2457624.32691294
  9
$TDINDWG
 40
0.0000000116
  9
$TDUSRTIMER
 40
0.0000000116
  9
$USRTIMER
 70
     1
  9
$ANGBASE
 50
0.0
  9
$ANGDIR
 70
     0
  9
$PDMODE
 70
     0
  9
$PDSIZE
 40
0.0
  9
$PLINEWID
 40
0.0
  9
$SPLFRAME
 70
     0
  9
$SPLINETYPE
 70
     6
  9
$SPLINESEGS
 70
     8
  9
$HANDSEED
  5
568
  9
$SURFTAB1
 70
     6
  9
$SURFTAB2
 70
     6
  9
$SURFTYPE
 70
     6
  9
$SURFU
 70
     6
  9
$SURFV
 70
     6
  9
$UCSBASE
  2

  9
$UCSNAME
  2

  9
$UCSORG
 10
0.0
 20
0.0
 30
0.0
  9
$UCSXDIR
 10
1.0
 20
0.0
 30
0.0
  9
$UCSYDIR
 10
0.0
 20
1.0
 30
0.0
  9
$UCSORTHOREF
  2

  9
$UCSORTHOVIEW
 70
     0
  9
$UCSORGTOP
 10
0.0
 20
0.0
 30
0.0
  9
$UCSORGBOTTOM
 10
0.0
 20
0.0
 30
0.0
  9
$UCSORGLEFT
 10
0.0
 20
0.0
 30
0.0
  9
$UCSORGRIGHT
 10
0.0
 20
0.0
 30
0.0
  9
$UCSORGFRONT
 10
0.0
 20
0.0
 30
0.0
  9
$UCSORGBACK
 10
0.0
 20
0.0
 30
0.0
  9
$PUCSBASE
  2

  9
$PUCSNAME
  2

  9
$PUCSORG
 10
0.0
 20
0.0
 30
0.0
  9
$PUCSXDIR
 10
1.0
 20
0.0
 30
0.0
  9
$PUCSYDIR
 10
0.0
 20
1.0
 30
0.0
  9
$PUCSORTHOREF
  2

  9
$PUCSORTHOVIEW
 70
     0
  9
$PUCSORGTOP
 10
0.0
 20
0.0
 30
0.0
  9
$PUCSORGBOTTOM
 10
0.0
 20
0.0
 30
0.0
  9
$PUCSORGLEFT
 10
0.0
 20
0.0
 30
0.0
  9
$PUCSORGRIGHT
 10
0.0
 20
0.0
 30
0.0
  9
$PUCSORGFRONT
 10
0.0
 20
0.0
 30
0.0
  9
$PUCSORGBACK
 10
0.0
 20
0.0
 30
0.0
  9
$USERI1
 70
     0
  9
$USERI2
 70
     0
  9
$USERI3
 70
     0
  9
$USERI4
 70
     0
  9
$USERI5
 70
     0
  9
$USERR1
 40
18.0
  9
$USERR2
 40
0.0
  9
$USERR3
 40
0.0
  9
$USERR4
 40
0.0
  9
$USERR5
 40
0.0
  9
$WORLDVIEW
 70
     1
  9
$SHADEDGE
 70
     3
  9
$SHADEDIF
 70
    70
  9
$TILEMODE
 70
     1
  9
$MAXACTVP
 70
    64
  9
$PINSBASE
 10
0.0
 20
0.0
 30
0.0
  9
$PLIMCHECK
 70
     0
  9
$PEXTMIN
 10
1.00000000000000E+20
 20
1.00000000000000E+20
 30
1.00000000000000E+20
  9
$PEXTMAX
 10
-1.00000000000000E+20
 20
-1.00000000000000E+20
 30
-1.00000000000000E+20
  9
$PLIMMIN
 10
0.0
 20
0.0
  9
$PLIMMAX
 10
12.0
 20
9.0
  9
$UNITMODE
 70
     0
  9
$VISRETAIN
 70
     1
  9
$PLINEGEN
 70
     0
  9
$PSLTSCALE
 70
     1
  9
$TREEDEPTH
 70
  3020
  9
$CMLSTYLE
  2
Standard
  9
$CMLJUST
 70
     0
  9
$CMLSCALE
 40
1.0
  9
$PROXYGRAPHICS
 70
     1
  9
$MEASUREMENT
 70
     1
  9
$CELWEIGHT
370
    -1
  9
$ENDCAPS
280
     0
  9
$JOINSTYLE
280
     0
  9
$LWDISPLAY
290
     0
  9
$INSUNITS
 70
     1
  9
$HYPERLINKBASE
  1

  9
$STYLESHEET
  1

  9
$XEDIT
290
     1
  9
$CEPSNTYPE
380
     0
  9
$PSTYLEMODE
290
     1
  9
$FINGERPRINTGUID
  2
{A2978D80-5DE8-4EE8-A219-10365E4FEE24}
  9
$VERSIONGUID
  2
{FAEB1C32-E019-11D5-929B-00C0DF256EC4}
  9
$EXTNAMES
290
     1
  9
$PSVPSCALE
 40
0.0
  9
$OLESTARTUP
290
     0
  0
ENDSEC
  0
SECTION
  2
CLASSES
  0
CLASS
  1
ACDBDICTIONARYWDFLT
  2
AcDbDictionaryWithDefault
  3
ObjectDBX Classes
 90
        0
280
     0
281
     0
  0
CLASS
  1
VISUALSTYLE
  2
AcDbVisualStyle
  3
ObjectDBX Classes
 90
     4095
280
     0
281
     0
  0
CLASS
  1
MATERIAL
  2
AcDbMaterial
  3
ObjectDBX Classes
 90
     1153
280
     0
281
     0
  0
CLASS
  1

  2
exOdDbCircle
  3

 90
        0
280
     0
281
     1
  0
CLASS
  1

  2
exOdDbPolyline
  3

 90
        0
280
     0
281
     1
  0
CLASS
  1
DICTIONARYVAR
  2
AcDbDictionaryVar
  3
ObjectDBX Classes
 90
        0
280
     0
281
     0
  0
CLASS
  1
ACDBPLACEHOLDER
  2
AcDbPlaceHolder
  3
ObjectDBX Classes
 90
        0
280
     0
281
     0
  0
CLASS
  1
LAYOUT
  2
AcDbLayout
  3
ObjectDBX Classes
 90
        0
280
     0
281
     0
  0
ENDSEC
  0
SECTION
  2
TABLES
  0
TABLE
  2
VPORT
  5
8
330
0
100
AcDbSymbolTable
 70
     1
  0
VPORT
  5
29
330
8
100
AcDbSymbolTableRecord
100
AcDbViewportTableRecord
  2
*Active
 70
     0
 10
0.0
 20
0.0
 11
1.0
 21
1.0
 12
111.427217358504
 22
115.9997648701645
 13
0.0
 23
0.0
 14
0.5
 24
0.5
 15
0.5
 25
0.5
 16
0.0
 26
0.0
 36
1.0
 17
0.0
 27
0.0
 37
0.0
 40
671.0005172856382
 41
1.60267857142857
 42
50.0
 43
0.0
 44
0.0
 50
0.0
 51
0.0
 71
     0
 72
   100
 73
     1
 74
     3
 75
     0
 76
     0
 77
     0
 78
     0
281
     0
 65
     1
110
0.0
120
0.0
130
0.0
111
1.0
121
0.0
131
0.0
112
0.0
122
1.0
132
0.0
 79
     0
146
0.0
  0
ENDTAB
  0
TABLE
  2
LTYPE
  5
5
330
0
100
AcDbSymbolTable
 70
     9
  0
LTYPE
  5
14
330
5
100
AcDbSymbolTableRecord
100
AcDbLinetypeTableRecord
  2
ByBlock
 70
     0
  3

 72
    65
 73
     0
 40
0.0
  0
LTYPE
  5
15
330
5
100
AcDbSymbolTableRecord
100
AcDbLinetypeTableRecord
  2
ByLayer
 70
     0
  3

 72
    65
 73
     0
 40
0.0
  0
LTYPE
  5
16
330
5
100
AcDbSymbolTableRecord
100
AcDbLinetypeTableRecord
  2
Continuous
 70
     0
  3
Solid line
 72
    65
 73
     0
 40
0.0
  0
LTYPE
  5
3F
330
5
100
AcDbSymbolTableRecord
100
AcDbLinetypeTableRecord
  2
DASHED
 70
     0
  3
Dashed
 72
    65
 73
     2
 40
15.0
 49
7.0
 74
     0
 49
-8.0
 74
     0
  0
LTYPE
  5
40
330
5
100
AcDbSymbolTableRecord
100
AcDbLinetypeTableRecord
  2
DOTTED
 70
     0
  3
Dotted
 72
    65
 73
     2
 40
1.0
 49
0.0
 74
     0
 49
-1.0
 74
     0
  0
LTYPE
  5
41
330
5
100
AcDbSymbolTableRecord
100
AcDbLinetypeTableRecord
  2
DOT_CENTER
 70
     0
  3
Dot_Center
 72
    65
 73
     4
 40
14.0
 49
12.0
 74
     0
 49
-1.0
 74
     0
 49
0.0
 74
     0
 49
-1.0
 74
     0
  0
LTYPE
  5
42
330
5
100
AcDbSymbolTableRecord
100
AcDbLinetypeTableRecord
  2
LONG_DASHED
 70
     0
  3
Long_Dashed
 72
    65
 73
     2
 40
15.0
 49
10.0
 74
     0
 49
-5.0
 74
     0
  0
LTYPE
  5
43
330
5
100
AcDbSymbolTableRecord
100
AcDbLinetypeTableRecord
  2
DASH_CENTER
 70
     0
  3
Dash_Center
 72
    65
 73
     4
 40
14.0
 49
11.0
 74
     0
 49
-1.0
 74
     0
 49
1.0
 74
     0
 49
-1.0
 74
     0
  0
LTYPE
  5
44
330
5
100
AcDbSymbolTableRecord
100
AcDbLinetypeTableRecord
  2
PHANTOM
 70
     0
  3
Phantom
 72
    65
 73
     6
 40
13.0
 49
10.0
 74
     0
 49
-1.0
 74
     0
 49
0.0
 74
     0
 49
-1.0
 74
     0
 49
0.0
 74
     0
 49
-1.0
 74
     0
  0
LTYPE
  5
45
330
5
100
AcDbSymbolTableRecord
100
AcDbLinetypeTableRecord
  2
CENTER_DASH_DASH
 70
     0
  3
Center_Dash_Dash
 72
    65
 73
     6
 40
14.0
 49
9.0
 74
     0
 49
-1.0
 74
     0
 49
1.0
 74
     0
 49
-1.0
 74
     0
 49
1.0
 74
     0
 49
-1.0
 74
     0
  0
LTYPE
  5
46
330
5
100
AcDbSymbolTableRecord
100
AcDbLinetypeTableRecord
  2
CENTER
 70
     0
  3
CENTER
 72
    65
 73
     4
 40
6.0
 49
3.0
 74
     0
 49
-1.0
 74
     0
 49
1.0
 74
     0
 49
-1.0
 74
     0
  0
ENDTAB
  0
TABLE
  2
LAYER
  5
2
330
0
100
AcDbSymbolTable
 70
     4
  0
LAYER
  5
10
330
2
100
AcDbSymbolTableRecord
100
AcDbLayerTableRecord
  2
0
 70
     0
 62
     7
  6
Continuous
370
    -3
390
F
  0
LAYER
  5
47
330
2
100
AcDbSymbolTableRecord
100
AcDbLayerTableRecord
  2
1
 70
     0
 62
     7
  6
Continuous
370
    -3
390
F
  0
LAYER
  5
48
330
2
100
AcDbSymbolTableRecord
100
AcDbLayerTableRecord
  2
100
 70
     0
 62
     7
  6
Continuous
370
    -3
390
F
  0
LAYER
  5
49
330
2
100
AcDbSymbolTableRecord
100
AcDbLayerTableRecord
  2
2
 70
     0
 62
     7
  6
Continuous
370
    -3
390
F
  0
ENDTAB
  0
TABLE
  2
STYLE
  5
3
330
0
100
AcDbSymbolTable
 70
     1
  0
STYLE
  5
11
330
3
100
AcDbSymbolTableRecord
100
AcDbTextStyleTableRecord
  2
Standard
 70
     0
 40
0.0
 41
1.0
 50
0.0
 71
     0
 42
0.2
  3
txt
  4

  0
ENDTAB
  0
TABLE
  2
VIEW
  5
6
330
0
100
AcDbSymbolTable
 70
     0
  0
ENDTAB
  0
TABLE
  2
UCS
  5
7
330
0
100
AcDbSymbolTable
 70
     0
  0
ENDTAB
  0
TABLE
  2
APPID
  5
9
330
0
100
AcDbSymbolTable
 70
     1
  0
APPID
  5
12
330
9
100
AcDbSymbolTableRecord
100
AcDbRegAppTableRecord
  2
ACAD
 70
     0
  0
ENDTAB
  0
TABLE
  2
DIMSTYLE
  5
A
330
0
100
AcDbSymbolTable
 70
     1
100
AcDbDimStyleTable
  0
DIMSTYLE
105
27
330
A
100
AcDbSymbolTableRecord
100
AcDbDimStyleTableRecord
  2
Standard
 70
     0
340
11
  0
ENDTAB
  0
TABLE
  2
BLOCK_RECORD
  5
1
330
0
100
AcDbSymbolTable
 70
     1
  0
BLOCK_RECORD
  5
1F
330
1
100
AcDbSymbolTableRecord
100
AcDbBlockTableRecord
  2
*Model_Space
340
22
  0
BLOCK_RECORD
  5
1B
330
1
100
AcDbSymbolTableRecord
100
AcDbBlockTableRecord
  2
*Paper_Space
340
1E
  0
BLOCK_RECORD
  5
23
330
1
100
AcDbSymbolTableRecord
100
AcDbBlockTableRecord
  2
*Paper_Space0
340
26
  0
ENDTAB
  0
ENDSEC
  0
SECTION
  2
BLOCKS
  0
BLOCK
  5
20
330
1F
100
AcDbEntity
  8
0
100
AcDbBlockBegin
  2
*Model_Space
 70
     0
 10
0.0
 20
0.0
 30
0.0
  3
*Model_Space
  1

  0
ENDBLK
  5
21
330
1F
100
AcDbEntity
  8
0
100
AcDbBlockEnd
  0
BLOCK
  5
1C
330
1B
100
AcDbEntity
 67
     1
  8
0
100
AcDbBlockBegin
  2
*Paper_Space
 70
     0
 10
0.0
 20
0.0
 30
0.0
  3
*Paper_Space
  1

  0
ENDBLK
  5
1D
330
1B
100
AcDbEntity
 67
     1
  8
0
100
AcDbBlockEnd
  0
BLOCK
  5
24
330
23
100
AcDbEntity
  8
0
100
AcDbBlockBegin
  2
*Paper_Space0
 70
     0
 10
0.0
 20
0.0
 30
0.0
  3
*Paper_Space0
  1

  0
ENDBLK
  5
25
330
23
100
AcDbEntity
  8
0
100
AcDbBlockEnd
  0
ENDSEC
  0
SECTION
  2
ENTITIES
  0
LINE
  5
4A
330
1F
100
AcDbEntity
  8
1
  6
Continuous
 62
     4
100
AcDbLine
 10
63.6941012249121
 20
-166.39159063827
 30
0.0
 11
64.6941012249121
 21
-167.01659063827
 31
0.0
  0
LINE
  5
4B
330
1F
100
AcDbEntity
  8
1
  6
Continuous
 62
     4
100
AcDbLine
 10
65.0691012249121
 20
-166.07909063827
 30
0.0
 11
64.2566012249121
 21
-165.45409063827
 31
0.0
  0
LINE
  5
4C
330
1F
100
AcDbEntity
  8
1
  6
Continuous
 62
     4
100
AcDbLine
 10
65.7566012249121
 20
-165.32909063827
 30
0.0
 11
66.1941012249121
 21
-165.76659063827
 31
0.0
  0
LINE
  5
4D
330
1F
100
AcDbEntity
  8
1
  6
Continuous
 62
     4
100
AcDbLine
 10
66.5066012249121
 20
-165.45409063827
 30
0.0
 11
66.0691012249121
 21
-165.01659063827
 31
0.0
  0
LINE
  5
4E
330
1F
100
AcDbEntity
  8
1
  6
Continuous
 62
     4
100
AcDbLine
 10
66.1941012249121
 20
-167.32909063827
 30
0.0
 11
66.8816012249121
 21
-166.39159063827
 31
0.0
  0
LINE
  5
4F
330
1F
100
AcDbEntity
  8
1
  6
Continuous
 62
     4
100
AcDbLine
 10
65.0691012249121
 20
-168.26659063827
 30
0.0
 11
66.1941012249121
 21
-167.32909063827
 31
0.0
  0
LINE
  5
50
330
1F
100
AcDbEntity
  8
1
  6
Continuous
 62
     4
100
AcDbLine
 10
64.0066012249121
 20
-168.89159063827
 30
0.0
 11
65.0691012249121
 21
-168.26659063827
 31
0.0
  0
LINE
  5
51
330
1F
100
AcDbEntity
  8
1
  6
Continuous
 62
     4
100
AcDbLine
 10
61.3191012249121
 20
-167.51659063827
 30
0.0
 11
61.7566012249121
 21
-168.14159063827
 31
0.0
  0
LINE
  5
52
330
1F
100
AcDbEntity
  8
1
  6
Continuous
 62
     4
100
AcDbLine
 10
60.7566012249121
 20
-167.01659063827
 30
0.0
 11
61.3191012249121
 21
-167.51659063827
 31
0.0
  0
LINE
  5
53
330
1F
100
AcDbEntity
  8
1
  6
Continuous
 62
     4
100
AcDbLine
 10
60.3816012249121
 20
-165.01659063827
 30
0.0
 11
60.6316012249121
 21
-165.32909063827
 31
0.0
  0
LINE
  5
54
330
1F
100
AcDbEntity
  8
1
  6
Continuous
 62
     4
100
AcDbLine
 10
59.8191012249121
 20
-164.70409063827
 30
0.0
 11
60.3816012249121
 21
-165.01659063827
 31
0.0
  0
LINE
  5
55
330
1F
100
AcDbEntity
  8
1
  6
Continuous
 62
     4
100
AcDbLine
 10
61.0691012249121
 20
-165.95409063827
 30
0.0
 11
59.1316012249121
 21
-165.95409063827
 31
0.0
  0
LINE
  5
56
330
1F
100
AcDbEntity
  8
1
  6
Continuous
 62
     4
100
AcDbLine
 10
60.0691012249121
 20
-167.01659063827
 30
0.0
 11
61.0691012249121
 21
-165.95409063827
 31
0.0
  0
LINE
  5
57
330
1F
100
AcDbEntity
  8
1
  6
Continuous
 62
     4
100
AcDbLine
 10
58.6941012249121
 20
-167.95409063827
 30
0.0
 11
60.0691012249121
 21
-167.01659063827
 31
0.0
  0
LINE
  5
58
330
1F
100
AcDbEntity
  8
1
  6
Continuous
 62
     4
100
AcDbLine
 10
60.2566012249121
 20
-168.89159063827
 30
0.0
 11
60.2566012249121
 21
-166.89159063827
 31
0.0
  0
LINE
  5
59
330
1F
100
AcDbEntity
  8
1
  6
Continuous
 62
     4
100
AcDbLine
 10
55.7566012249121
 20
-167.39159063827
 30
0.0
 11
55.7566012249121
 21
-169.39159063827
 31
0.0
  0
LINE
  5
5A
330
1F
100
AcDbEntity
  8
1
  6
Continuous
 62
     4
100
AcDbLine
 10
53.5066012249121
 20
-168.39159063827
 30
0.0
 11
56.5066012249121
 21
-168.39159063827
 31
0.0
  0
LINE
  5
5B
330
1F
100
AcDbEntity
  8
1
  6
Continuous
 62
     4
100
AcDbLine
 10
55.7566012249121
 20
-164.39159063827
 30
0.0
 11
53.5066012249121
 21
-168.39159063827
 31
0.0
  0
LINE
  5
5C
330
1F
100
AcDbEntity
  8
1
  6
Continuous
 62
     4
100
AcDbLine
 10
50.0066012249121
 20
-169.39159063827
 30
0.0
 11
52.0066012249121
 21
-164.39159063827
 31
0.0
  0
LINE
  5
5D
330
1F
100
AcDbEntity
  8
1
  6
Continuous
 62
     4
100
AcDbLine
 10
47.3816012249121
 20
-169.39159063827
 30
0.0
 11
45.5066012249121
 21
-169.39159063827
 31
0.0
  0
LINE
  5
5E
330
1F
100
AcDbEntity
  8
1
  6
Continuous
 62
     4
100
AcDbLine
 10
47.7566012249121
 20
-169.26659063827
 30
0.0
 11
47.3816012249121
 21
-169.39159063827
 31
0.0
  0
LINE
  5
5F
330
1F
100
AcDbEntity
  8
1
  6
Continuous
 62
     4
100
AcDbLine
 10
48.1316012249121
 20
-169.01659063827
 30
0.0
 11
47.7566012249121
 21
-169.26659063827
 31
0.0
  0
LINE
  5
60
330
1F
100
AcDbEntity
  8
1
  6
Continuous
 62
     4
100
AcDbLine
 10
48.3816012249121
 20
-168.64159063827
 30
0.0
 11
48.1316012249121
 21
-169.01659063827
 31
0.0
  0
LINE
  5
61
330
1F
100
AcDbEntity
  8
1
  6
Continuous
 62
     4
100
AcDbLine
 10
48.5066012249121
 20
-168.14159063827
 30
0.0
 11
48.3816012249121
 21
-168.64159063827
 31
0.0
  0
LINE
  5
62
330
1F
100
AcDbEntity
  8
1
  6
Continuous
 62
     4
100
AcDbLine
 10
48.5066012249121
 20
-167.51659063827
 30
0.0
 11
48.5066012249121
 21
-168.14159063827
 31
0.0
  0
LINE
  5
63
330
1F
100
AcDbEntity
  8
1
  6
Continuous
 62
     4
100
AcDbLine
 10
48.3816012249121
 20
-167.01659063827
 30
0.0
 11
48.5066012249121
 21
-167.51659063827
 31
0.0
  0
LINE
  5
64
330
1F
100
AcDbEntity
  8
1
  6
Continuous
 62
     4
100
AcDbLine
 10
48.2566012249121
 20
-166.76659063827
 30
0.0
 11
48.3816012249121
 21
-167.01659063827
 31
0.0
  0
LINE
  5
65
330
1F
100
AcDbEntity
  8
1
  6
Continuous
 62
     4
100
AcDbLine
 10
48.0066012249121
 20
-166.51659063827
 30
0.0
 11
48.2566012249121
 21
-166.76659063827
 31
0.0
  0
LINE
  5
66
330
1F
100
AcDbEntity
  8
1
  6
Continuous
 62
     4
100
AcDbLine
 10
47.5066012249121
 20
-166.39159063827
 30
0.0
 11
48.0066012249121
 21
-166.51659063827
 31
0.0
  0
LINE
  5
67
330
1F
100
AcDbEntity
  8
1
  6
Continuous
 62
     4
100
AcDbLine
 10
47.8816012249121
 20
-166.26659063827
 30
0.0
 11
47.5066012249121
 21
-166.39159063827
 31
0.0
  0
LINE
  5
68
330
1F
100
AcDbEntity
  8
1
  6
Continuous
 62
     4
100
AcDbLine
 10
48.1316012249121
 20
-166.14159063827
 30
0.0
 11
47.8816012249121
 21
-166.26659063827
 31
0.0
  0
LINE
  5
69
330
1F
100
AcDbEntity
  8
1
  6
Continuous
 62
     4
100
AcDbLine
 10
48.3816012249121
 20
-165.89159063827
 30
0.0
 11
48.1316012249121
 21
-166.14159063827
 31
0.0
  0
LINE
  5
6A
330
1F
100
AcDbEntity
  8
1
  6
Continuous
 62
     4
100
AcDbLine
 10
48.5066012249121
 20
-165.51659063827
 30
0.0
 11
48.3816012249121
 21
-165.89159063827
 31
0.0
  0
LINE
  5
6B
330
1F
100
AcDbEntity
  8
1
  6
Continuous
 62
     4
100
AcDbLine
 10
48.5066012249121
 20
-165.14159063827
 30
0.0
 11
48.5066012249121
 21
-165.51659063827
 31
0.0
  0
LINE
  5
6C
330
1F
100
AcDbEntity
  8
1
  6
Continuous
 62
     4
100
AcDbLine
 10
48.3816012249121
 20
-164.76659063827
 30
0.0
 11
48.5066012249121
 21
-165.14159063827
 31
0.0
  0
LINE
  5
6D
330
1F
100
AcDbEntity
  8
1
  6
Continuous
 62
     4
100
AcDbLine
 10
48.0066012249121
 20
-164.51659063827
 30
0.0
 11
48.3816012249121
 21
-164.76659063827
 31
0.0
  0
LINE
  5
6E
330
1F
100
AcDbEntity
  8
1
  6
Continuous
 62
     4
100
AcDbLine
 10
47.3816012249121
 20
-164.39159063827
 30
0.0
 11
48.0066012249121
 21
-164.51659063827
 31
0.0
  0
LINE
  5
6F
330
1F
100
AcDbEntity
  8
1
  6
Continuous
 62
     4
100
AcDbLine
 10
45.5066012249121
 20
-164.39159063827
 30
0.0
 11
47.3816012249121
 21
-164.39159063827
 31
0.0
  0
LINE
  5
70
330
1F
100
AcDbEntity
  8
1
  6
Continuous
 62
     4
100
AcDbLine
 10
46.2566012249121
 20
-166.39159063827
 30
0.0
 11
47.5066012249121
 21
-166.39159063827
 31
0.0
  0
LINE
  5
71
330
1F
100
AcDbEntity
  8
1
  6
Continuous
 62
     4
100
AcDbLine
 10
40.5066012249121
 20
-169.39159063827
 30
0.0
 11
40.5066012249121
 21
-166.89159063827
 31
0.0
  0
LINE
  5
72
330
1F
100
AcDbEntity
  8
1
  6
Continuous
 62
     4
100
AcDbLine
 10
42.5066012249121
 20
-166.89159063827
 30
0.0
 11
44.0066012249121
 21
-169.39159063827
 31
0.0
  0
LINE
  5
73
330
1F
100
AcDbEntity
  8
1
  6
Continuous
 62
     4
100
AcDbLine
 10
42.8816012249121
 20
-166.89159063827
 30
0.0
 11
42.5066012249121
 21
-166.89159063827
 31
0.0
  0
LINE
  5
74
330
1F
100
AcDbEntity
  8
1
  6
Continuous
 62
     4
100
AcDbLine
 10
43.3816012249121
 20
-166.76659063827
 30
0.0
 11
42.8816012249121
 21
-166.89159063827
 31
0.0
  0
LINE
  5
75
330
1F
100
AcDbEntity
  8
1
  6
Continuous
 62
     4
100
AcDbLine
 10
43.7566012249121
 20
-166.51659063827
 30
0.0
 11
43.3816012249121
 21
-166.76659063827
 31
0.0
  0
LINE
  5
76
330
1F
100
AcDbEntity
  8
1
  6
Continuous
 62
     4
100
AcDbLine
 10
43.8816012249121
 20
-166.26659063827
 30
0.0
 11
43.7566012249121
 21
-166.51659063827
 31
0.0
  0
LINE
  5
77
330
1F
100
AcDbEntity
  8
1
  6
Continuous
 62
     4
100
AcDbLine
 10
44.0066012249121
 20
-165.89159063827
 30
0.0
 11
43.8816012249121
 21
-166.26659063827
 31
0.0
  0
LINE
  5
78
330
1F
100
AcDbEntity
  8
1
  6
Continuous
 62
     4
100
AcDbLine
 10
44.0066012249121
 20
-165.39159063827
 30
0.0
 11
44.0066012249121
 21
-165.89159063827
 31
0.0
  0
LINE
  5
79
330
1F
100
AcDbEntity
  8
1
  6
Continuous
 62
     4
100
AcDbLine
 10
43.8816012249121
 20
-165.01659063827
 30
0.0
 11
44.0066012249121
 21
-165.39159063827
 31
0.0
  0
LINE
  5
7A
330
1F
100
AcDbEntity
  8
1
  6
Continuous
 62
     4
100
AcDbLine
 10
43.7566012249121
 20
-164.76659063827
 30
0.0
 11
43.8816012249121
 21
-165.01659063827
 31
0.0
  0
LINE
  5
7B
330
1F
100
AcDbEntity
  8
1
  6
Continuous
 62
     4
100
AcDbLine
 10
43.3816012249121
 20
-164.51659063827
 30
0.0
 11
43.7566012249121
 21
-164.76659063827
 31
0.0
  0
LINE
  5
7C
330
1F
100
AcDbEntity
  8
1
  6
Continuous
 62
     4
100
AcDbLine
 10
42.8816012249121
 20
-164.39159063827
 30
0.0
 11
43.3816012249121
 21
-164.51659063827
 31
0.0
  0
LINE
  5
7D
330
1F
100
AcDbEntity
  8
1
  6
Continuous
 62
     4
100
AcDbLine
 10
40.5066012249121
 20
-164.39159063827
 30
0.0
 11
42.8816012249121
 21
-164.39159063827
 31
0.0
  0
LINE
  5
7E
330
1F
100
AcDbEntity
  8
1
  6
Continuous
 62
     4
100
AcDbLine
 10
40.5066012249121
 20
-166.89159063827
 30
0.0
 11
40.5066012249121
 21
-164.39159063827
 31
0.0
  0
LINE
  5
7F
330
1F
100
AcDbEntity
  8
1
  6
Continuous
 62
     4
100
AcDbLine
 10
42.5066012249121
 20
-166.89159063827
 30
0.0
 11
40.5066012249121
 21
-166.89159063827
 31
0.0
  0
LINE
  5
80
330
1F
100
AcDbEntity
  8
1
  6
Continuous
 62
     4
100
AcDbLine
 10
-166.184159088645
 20
-50.81883673202
 30
0.0
 11
-165.184159088645
 21
-51.44383673202
 31
0.0
  0
LINE
  5
81
330
1F
100
AcDbEntity
  8
1
  6
Continuous
 62
     4
100
AcDbLine
 10
-164.809159088645
 20
-50.50633673202
 30
0.0
 11
-165.621659088645
 21
-49.88133673202
 31
0.0
  0
LINE
  5
82
330
1F
100
AcDbEntity
  8
1
  6
Continuous
 62
     4
100
AcDbLine
 10
-164.121659088645
 20
-49.75633673202
 30
0.0
 11
-163.684159088645
 21
-50.19383673202
 31
0.0
  0
LINE
  5
83
330
1F
100
AcDbEntity
  8
1
  6
Continuous
 62
     4
100
AcDbLine
 10
-163.371659088645
 20
-49.88133673202
 30
0.0
 11
-163.809159088645
 21
-49.44383673202
 31
0.0
  0
LINE
  5
84
330
1F
100
AcDbEntity
  8
1
  6
Continuous
 62
     4
100
AcDbLine
 10
-163.684159088645
 20
-51.75633673202
 30
0.0
 11
-162.996659088645
 21
-50.81883673202
 31
0.0
  0
LINE
  5
85
330
1F
100
AcDbEntity
  8
1
  6
Continuous
 62
     4
100
AcDbLine
 10
-164.809159088645
 20
-52.69383673202
 30
0.0
 11
-163.684159088645
 21
-51.75633673202
 31
0.0
  0
LINE
  5
86
330
1F
100
AcDbEntity
  8
1
  6
Continuous
 62
     4
100
AcDbLine
 10
-165.871659088645
 20
-53.31883673202
 30
0.0
 11
-164.809159088645
 21
-52.69383673202
 31
0.0
  0
LINE
  5
87
330
1F
100
AcDbEntity
  8
1
  6
Continuous
 62
     4
100
AcDbLine
 10
-168.559159088645
 20
-51.94383673202
 30
0.0
 11
-168.121659088645
 21
-52.56883673202
 31
0.0
  0
LINE
  5
88
330
1F
100
AcDbEntity
  8
1
  6
Continuous
 62
     4
100
AcDbLine
 10
-169.121659088645
 20
-51.44383673202
 30
0.0
 11
-168.559159088645
 21
-51.94383673202
 31
0.0
  0
LINE
  5
89
330
1F
100
AcDbEntity
  8
1
  6
Continuous
 62
     4
100
AcDbLine
 10
-169.496659088645
 20
-49.44383673202
 30
0.0
 11
-169.246659088645
 21
-49.75633673202
 31
0.0
  0
LINE
  5
8A
330
1F
100
AcDbEntity
  8
1
  6
Continuous
 62
     4
100
AcDbLine
 10
-170.059159088645
 20
-49.13133673202
 30
0.0
 11
-169.496659088645
 21
-49.44383673202
 31
0.0
  0
LINE
  5
8B
330
1F
100
AcDbEntity
  8
1
  6
Continuous
 62
     4
100
AcDbLine
 10
-168.809159088645
 20
-50.38133673202
 30
0.0
 11
-170.746659088645
 21
-50.38133673202
 31
0.0
  0
LINE
  5
8C
330
1F
100
AcDbEntity
  8
1
  6
Continuous
 62
     4
100
AcDbLine
 10
-169.809159088645
 20
-51.44383673202
 30
0.0
 11
-168.809159088645
 21
-50.38133673202
 31
0.0
  0
LINE
  5
8D
330
1F
100
AcDbEntity
  8
1
  6
Continuous
 62
     4
100
AcDbLine
 10
-171.184159088645
 20
-52.38133673202
 30
0.0
 11
-169.809159088645
 21
-51.44383673202
 31
0.0
  0
LINE
  5
8E
330
1F
100
AcDbEntity
  8
1
  6
Continuous
 62
     4
100
AcDbLine
 10
-169.621659088645
 20
-53.31883673202
 30
0.0
 11
-169.621659088645
 21
-51.31883673202
 31
0.0
  0
LINE
  5
8F
330
1F
100
AcDbEntity
  8
1
  6
Continuous
 62
     4
100
AcDbLine
 10
-176.371659088645
 20
-53.81883673202
 30
0.0
 11
-173.371659088645
 21
-53.81883673202
 31
0.0
  0
LINE
  5
90
330
1F
100
AcDbEntity
  8
1
  6
Continuous
 62
     4
100
AcDbLine
 10
-173.621659088645
 20
-50.56883673202
 30
0.0
 11
-176.371659088645
 21
-53.81883673202
 31
0.0
  0
LINE
  5
91
330
1F
100
AcDbEntity
  8
1
  6
Continuous
 62
     4
100
AcDbLine
 10
-173.371659088645
 20
-50.06883673202
 30
0.0
 11
-173.621659088645
 21
-50.56883673202
 31
0.0
  0
LINE
  5
92
330
1F
100
AcDbEntity
  8
1
  6
Continuous
 62
     4
100
AcDbLine
 10
-173.371659088645
 20
-49.56883673202
 30
0.0
 11
-173.371659088645
 21
-50.06883673202
 31
0.0
  0
LINE
  5
93
330
1F
100
AcDbEntity
  8
1
  6
Continuous
 62
     4
100
AcDbLine
 10
-173.621659088645
 20
-49.19383673202
 30
0.0
 11
-173.371659088645
 21
-49.56883673202
 31
0.0
  0
LINE
  5
94
330
1F
100
AcDbEntity
  8
1
  6
Continuous
 62
     4
100
AcDbLine
 10
-173.996659088645
 20
-48.94383673202
 30
0.0
 11
-173.621659088645
 21
-49.19383673202
 31
0.0
  0
LINE
  5
95
330
1F
100
AcDbEntity
  8
1
  6
Continuous
 62
     4
100
AcDbLine
 10
-174.496659088645
 20
-48.81883673202
 30
0.0
 11
-173.996659088645
 21
-48.94383673202
 31
0.0
  0
LINE
  5
96
330
1F
100
AcDbEntity
  8
1
  6
Continuous
 62
     4
100
AcDbLine
 10
-175.246659088645
 20
-48.81883673202
 30
0.0
 11
-174.496659088645
 21
-48.81883673202
 31
0.0
  0
LINE
  5
97
330
1F
100
AcDbEntity
  8
1
  6
Continuous
 62
     4
100
AcDbLine
 10
-175.746659088645
 20
-48.94383673202
 30
0.0
 11
-175.246659088645
 21
-48.81883673202
 31
0.0
  0
LINE
  5
98
330
1F
100
AcDbEntity
  8
1
  6
Continuous
 62
     4
100
AcDbLine
 10
-176.121659088645
 20
-49.19383673202
 30
0.0
 11
-175.746659088645
 21
-48.94383673202
 31
0.0
  0
LINE
  5
99
330
1F
100
AcDbEntity
  8
1
  6
Continuous
 62
     4
100
AcDbLine
 10
-176.371659088645
 20
-49.56883673202
 30
0.0
 11
-176.121659088645
 21
-49.19383673202
 31
0.0
  0
LINE
  5
9A
330
1F
100
AcDbEntity
  8
1
  6
Continuous
 62
     4
100
AcDbLine
 10
-181.371659088645
 20
-53.81883673202
 30
0.0
 11
-181.371659088645
 21
-51.31883673202
 31
0.0
  0
LINE
  5
9B
330
1F
100
AcDbEntity
  8
1
  6
Continuous
 62
     4
100
AcDbLine
 10
-179.371659088645
 20
-51.31883673202
 30
0.0
 11
-177.871659088645
 21
-53.81883673202
 31
0.0
  0
LINE
  5
9C
330
1F
100
AcDbEntity
  8
1
  6
Continuous
 62
     4
100
AcDbLine
 10
-178.996659088645
 20
-51.31883673202
 30
0.0
 11
-179.371659088645
 21
-51.31883673202
 31
0.0
  0
LINE
  5
9D
330
1F
100
AcDbEntity
  8
1
  6
Continuous
 62
     4
100
AcDbLine
 10
-178.496659088645
 20
-51.19383673202
 30
0.0
 11
-178.996659088645
 21
-51.31883673202
 31
0.0
  0
LINE
  5
9E
330
1F
100
AcDbEntity
  8
1
  6
Continuous
 62
     4
100
AcDbLine
 10
-178.121659088645
 20
-50.94383673202
 30
0.0
 11
-178.496659088645
 21
-51.19383673202
 31
0.0
  0
LINE
  5
9F
330
1F
100
AcDbEntity
  8
1
  6
Continuous
 62
     4
100
AcDbLine
 10
-177.996659088645
 20
-50.69383673202
 30
0.0
 11
-178.121659088645
 21
-50.94383673202
 31
0.0
  0
LINE
  5
A0
330
1F
100
AcDbEntity
  8
1
  6
Continuous
 62
     4
100
AcDbLine
 10
-177.871659088645
 20
-50.31883673202
 30
0.0
 11
-177.996659088645
 21
-50.69383673202
 31
0.0
  0
LINE
  5
A1
330
1F
100
AcDbEntity
  8
1
  6
Continuous
 62
     4
100
AcDbLine
 10
-177.871659088645
 20
-49.81883673202
 30
0.0
 11
-177.871659088645
 21
-50.31883673202
 31
0.0
  0
LINE
  5
A2
330
1F
100
AcDbEntity
  8
1
  6
Continuous
 62
     4
100
AcDbLine
 10
-177.996659088645
 20
-49.44383673202
 30
0.0
 11
-177.871659088645
 21
-49.81883673202
 31
0.0
  0
LINE
  5
A3
330
1F
100
AcDbEntity
  8
1
  6
Continuous
 62
     4
100
AcDbLine
 10
-178.121659088645
 20
-49.19383673202
 30
0.0
 11
-177.996659088645
 21
-49.44383673202
 31
0.0
  0
LINE
  5
A4
330
1F
100
AcDbEntity
  8
1
  6
Continuous
 62
     4
100
AcDbLine
 10
-178.496659088645
 20
-48.94383673202
 30
0.0
 11
-178.121659088645
 21
-49.19383673202
 31
0.0
  0
LINE
  5
A5
330
1F
100
AcDbEntity
  8
1
  6
Continuous
 62
     4
100
AcDbLine
 10
-178.996659088645
 20
-48.81883673202
 30
0.0
 11
-178.496659088645
 21
-48.94383673202
 31
0.0
  0
LINE
  5
A6
330
1F
100
AcDbEntity
  8
1
  6
Continuous
 62
     4
100
AcDbLine
 10
-181.371659088645
 20
-48.81883673202
 30
0.0
 11
-178.996659088645
 21
-48.81883673202
 31
0.0
  0
LINE
  5
A7
330
1F
100
AcDbEntity
  8
1
  6
Continuous
 62
     4
100
AcDbLine
 10
-181.371659088645
 20
-51.31883673202
 30
0.0
 11
-181.371659088645
 21
-48.81883673202
 31
0.0
  0
LINE
  5
A8
330
1F
100
AcDbEntity
  8
1
  6
Continuous
 62
     4
100
AcDbLine
 10
-179.371659088645
 20
-51.31883673202
 30
0.0
 11
-181.371659088645
 21
-51.31883673202
 31
0.0
  0
LINE
  5
A9
330
1F
100
AcDbEntity
  8
1
  6
Continuous
 62
     4
100
AcDbLine
 10
178.747896085752
 20
-51.4311681224009
 30
0.0
 11
179.747896085752
 21
-52.0561681224009
 31
0.0
  0
LINE
  5
AA
330
1F
100
AcDbEntity
  8
1
  6
Continuous
 62
     4
100
AcDbLine
 10
180.122896085752
 20
-51.1186681224009
 30
0.0
 11
179.310396085752
 21
-50.4936681224009
 31
0.0
  0
LINE
  5
AB
330
1F
100
AcDbEntity
  8
1
  6
Continuous
 62
     4
100
AcDbLine
 10
180.810396085752
 20
-50.3686681224009
 30
0.0
 11
181.247896085752
 21
-50.8061681224009
 31
0.0
  0
LINE
  5
AC
330
1F
100
AcDbEntity
  8
1
  6
Continuous
 62
     4
100
AcDbLine
 10
181.560396085752
 20
-50.4936681224009
 30
0.0
 11
181.122896085752
 21
-50.0561681224009
 31
0.0
  0
LINE
  5
AD
330
1F
100
AcDbEntity
  8
1
  6
Continuous
 62
     4
100
AcDbLine
 10
181.247896085752
 20
-52.3686681224009
 30
0.0
 11
181.935396085752
 21
-51.4311681224009
 31
0.0
  0
LINE
  5
AE
330
1F
100
AcDbEntity
  8
1
  6
Continuous
 62
     4
100
AcDbLine
 10
180.122896085752
 20
-53.3061681224009
 30
0.0
 11
181.247896085752
 21
-52.3686681224009
 31
0.0
  0
LINE
  5
AF
330
1F
100
AcDbEntity
  8
1
  6
Continuous
 62
     4
100
AcDbLine
 10
179.060396085752
 20
-53.9311681224009
 30
0.0
 11
180.122896085752
 21
-53.3061681224009
 31
0.0
  0
LINE
  5
B0
330
1F
100
AcDbEntity
  8
1
  6
Continuous
 62
     4
100
AcDbLine
 10
176.372896085752
 20
-52.5561681224009
 30
0.0
 11
176.810396085752
 21
-53.1811681224009
 31
0.0
  0
LINE
  5
B1
330
1F
100
AcDbEntity
  8
1
  6
Continuous
 62
     4
100
AcDbLine
 10
175.810396085752
 20
-52.0561681224009
 30
0.0
 11
176.372896085752
 21
-52.5561681224009
 31
0.0
  0
LINE
  5
B2
330
1F
100
AcDbEntity
  8
1
  6
Continuous
 62
     4
100
AcDbLine
 10
175.435396085752
 20
-50.0561681224009
 30
0.0
 11
175.685396085752
 21
-50.3686681224009
 31
0.0
  0
LINE
  5
B3
330
1F
100
AcDbEntity
  8
1
  6
Continuous
 62
     4
100
AcDbLine
 10
174.872896085752
 20
-49.7436681224009
 30
0.0
 11
175.435396085752
 21
-50.0561681224009
 31
0.0
  0
LINE
  5
B4
330
1F
100
AcDbEntity
  8
1
  6
Continuous
 62
     4
100
AcDbLine
 10
176.122896085752
 20
-50.9936681224009
 30
0.0
 11
174.185396085752
 21
-50.9936681224009
 31
0.0
  0
LINE
  5
B5
330
1F
100
AcDbEntity
  8
1
  6
Continuous
 62
     4
100
AcDbLine
 10
175.122896085752
 20
-52.0561681224009
 30
0.0
 11
176.122896085752
 21
-50.9936681224009
 31
0.0
  0
LINE
  5
B6
330
1F
100
AcDbEntity
  8
1
  6
Continuous
 62
     4
100
AcDbLine
 10
173.747896085752
 20
-52.9936681224009
 30
0.0
 11
175.122896085752
 21
-52.0561681224009
 31
0.0
  0
LINE
  5
B7
330
1F
100
AcDbEntity
  8
1
  6
Continuous
 62
     4
100
AcDbLine
 10
175.310396085752
 20
-53.9311681224009
 30
0.0
 11
175.310396085752
 21
-51.9311681224009
 31
0.0
  0
LINE
  5
B8
330
1F
100
AcDbEntity
  8
1
  6
Continuous
 62
     4
100
AcDbLine
 10
168.560396085752
 20
-54.4311681224009
 30
0.0
 11
171.560396085752
 21
-54.4311681224009
 31
0.0
  0
LINE
  5
B9
330
1F
100
AcDbEntity
  8
1
  6
Continuous
 62
     4
100
AcDbLine
 10
171.310396085752
 20
-51.1811681224009
 30
0.0
 11
168.560396085752
 21
-54.4311681224009
 31
0.0
  0
LINE
  5
BA
330
1F
100
AcDbEntity
  8
1
  6
Continuous
 62
     4
100
AcDbLine
 10
171.560396085752
 20
-50.6811681224009
 30
0.0
 11
171.310396085752
 21
-51.1811681224009
 31
0.0
  0
LINE
  5
BB
330
1F
100
AcDbEntity
  8
1
  6
Continuous
 62
     4
100
AcDbLine
 10
171.560396085752
 20
-50.1811681224009
 30
0.0
 11
171.560396085752
 21
-50.6811681224009
 31
0.0
  0
LINE
  5
BC
330
1F
100
AcDbEntity
  8
1
  6
Continuous
 62
     4
100
AcDbLine
 10
171.310396085752
 20
-49.8061681224009
 30
0.0
 11
171.560396085752
 21
-50.1811681224009
 31
0.0
  0
LINE
  5
BD
330
1F
100
AcDbEntity
  8
1
  6
Continuous
 62
     4
100
AcDbLine
 10
170.935396085752
 20
-49.5561681224009
 30
0.0
 11
171.310396085752
 21
-49.8061681224009
 31
0.0
  0
LINE
  5
BE
330
1F
100
AcDbEntity
  8
1
  6
Continuous
 62
     4
100
AcDbLine
 10
170.435396085752
 20
-49.4311681224009
 30
0.0
 11
170.935396085752
 21
-49.5561681224009
 31
0.0
  0
LINE
  5
BF
330
1F
100
AcDbEntity
  8
1
  6
Continuous
 62
     4
100
AcDbLine
 10
169.685396085752
 20
-49.4311681224009
 30
0.0
 11
170.435396085752
 21
-49.4311681224009
 31
0.0
  0
LINE
  5
C0
330
1F
100
AcDbEntity
  8
1
  6
Continuous
 62
     4
100
AcDbLine
 10
169.185396085752
 20
-49.5561681224009
 30
0.0
 11
169.685396085752
 21
-49.4311681224009
 31
0.0
  0
LINE
  5
C1
330
1F
100
AcDbEntity
  8
1
  6
Continuous
 62
     4
100
AcDbLine
 10
168.810396085752
 20
-49.8061681224009
 30
0.0
 11
169.185396085752
 21
-49.5561681224009
 31
0.0
  0
LINE
  5
C2
330
1F
100
AcDbEntity
  8
1
  6
Continuous
 62
     4
100
AcDbLine
 10
168.560396085752
 20
-50.1811681224009
 30
0.0
 11
168.810396085752
 21
-49.8061681224009
 31
0.0
  0
LINE
  5
C3
330
1F
100
AcDbEntity
  8
1
  6
Continuous
 62
     4
100
AcDbLine
 10
163.560396085752
 20
-54.4311681224009
 30
0.0
 11
163.560396085752
 21
-51.9311681224009
 31
0.0
  0
LINE
  5
C4
330
1F
100
AcDbEntity
  8
1
  6
Continuous
 62
     4
100
AcDbLine
 10
165.560396085752
 20
-51.9311681224009
 30
0.0
 11
167.060396085752
 21
-54.4311681224009
 31
0.0
  0
LINE
  5
C5
330
1F
100
AcDbEntity
  8
1
  6
Continuous
 62
     4
100
AcDbLine
 10
165.935396085752
 20
-51.9311681224009
 30
0.0
 11
165.560396085752
 21
-51.9311681224009
 31
0.0
  0
LINE
  5
C6
330
1F
100
AcDbEntity
  8
1
  6
Continuous
 62
     4
100
AcDbLine
 10
166.435396085752
 20
-51.8061681224009
 30
0.0
 11
165.935396085752
 21
-51.9311681224009
 31
0.0
  0
LINE
  5
C7
330
1F
100
AcDbEntity
  8
1
  6
Continuous
 62
     4
100
AcDbLine
 10
166.810396085752
 20
-51.5561681224009
 30
0.0
 11
166.435396085752
 21
-51.8061681224009
 31
0.0
  0
LINE
  5
C8
330
1F
100
AcDbEntity
  8
1
  6
Continuous
 62
     4
100
AcDbLine
 10
166.935396085752
 20
-51.3061681224009
 30
0.0
 11
166.810396085752
 21
-51.5561681224009
 31
0.0
  0
LINE
  5
C9
330
1F
100
AcDbEntity
  8
1
  6
Continuous
 62
     4
100
AcDbLine
 10
167.060396085752
 20
-50.9311681224009
 30
0.0
 11
166.935396085752
 21
-51.3061681224009
 31
0.0
  0
LINE
  5
CA
330
1F
100
AcDbEntity
  8
1
  6
Continuous
 62
     4
100
AcDbLine
 10
167.060396085752
 20
-50.4311681224009
 30
0.0
 11
167.060396085752
 21
-50.9311681224009
 31
0.0
  0
LINE
  5
CB
330
1F
100
AcDbEntity
  8
1
  6
Continuous
 62
     4
100
AcDbLine
 10
166.935396085752
 20
-50.0561681224009
 30
0.0
 11
167.060396085752
 21
-50.4311681224009
 31
0.0
  0
LINE
  5
CC
330
1F
100
AcDbEntity
  8
1
  6
Continuous
 62
     4
100
AcDbLine
 10
166.810396085752
 20
-49.8061681224009
 30
0.0
 11
166.935396085752
 21
-50.0561681224009
 31
0.0
  0
LINE
  5
CD
330
1F
100
AcDbEntity
  8
1
  6
Continuous
 62
     4
100
AcDbLine
 10
166.435396085752
 20
-49.5561681224009
 30
0.0
 11
166.810396085752
 21
-49.8061681224009
 31
0.0
  0
LINE
  5
CE
330
1F
100
AcDbEntity
  8
1
  6
Continuous
 62
     4
100
AcDbLine
 10
165.935396085752
 20
-49.4311681224009
 30
0.0
 11
166.435396085752
 21
-49.5561681224009
 31
0.0
  0
LINE
  5
CF
330
1F
100
AcDbEntity
  8
1
  6
Continuous
 62
     4
100
AcDbLine
 10
163.560396085752
 20
-49.4311681224009
 30
0.0
 11
165.935396085752
 21
-49.4311681224009
 31
0.0
  0
LINE
  5
D0
330
1F
100
AcDbEntity
  8
1
  6
Continuous
 62
     4
100
AcDbLine
 10
163.560396085752
 20
-51.9311681224009
 30
0.0
 11
163.560396085752
 21
-49.4311681224009
 31
0.0
  0
LINE
  5
D1
330
1F
100
AcDbEntity
  8
1
  6
Continuous
 62
     4
100
AcDbLine
 10
165.560396085752
 20
-51.9311681224009
 30
0.0
 11
163.560396085752
 21
-51.9311681224009
 31
0.0
  0
LINE
  5
D2
330
1F
100
AcDbEntity
  8
1
  6
Continuous
 62
     4
100
AcDbLine
 10
2.7698227363513
 20
-186.500470259671
 30
0.0
 11
2.2698227363513
 21
-187.125470259671
 31
0.0
  0
LINE
  5
D3
330
1F
100
AcDbEntity
  8
1
  6
Continuous
 62
     4
100
AcDbLine
 10
2.2698227363513
 20
-185.875470259671
 30
0.0
 11
2.7698227363513
 21
-186.500470259671
 31
0.0
  0
LINE
  5
D4
330
1F
100
AcDbEntity
  8
1
  6
Continuous
 62
     4
100
AcDbLine
 10
-0.9801772636487
 20
-186.500470259671
 30
0.0
 11
2.7698227363513
 21
-186.500470259671
 31
0.0
  0
LINE
  5
D5
330
1F
100
AcDbEntity
  8
1
  6
Continuous
 62
     4
100
AcDbLine
 10
-5.1051772636487
 20
-185.062970259671
 30
0.0
 11
-2.2301772636487
 21
-185.062970259671
 31
0.0
  0
LINE
  5
D6
330
1F
100
AcDbEntity
  8
1
  6
Continuous
 62
     4
100
AcDbLine
 10
-5.1051772636487
 20
-185.062970259671
 30
0.0
 11
-4.4176772636487
 21
-184.125470259671
 31
0.0
  0
LINE
  5
D7
330
1F
100
AcDbEntity
  8
1
  6
Continuous
 62
     4
100
AcDbLine
 10
-3.4801772636487
 20
-187.437970259671
 30
0.0
 11
-4.5426772636487
 21
-187.437970259671
 31
0.0
  0
LINE
  5
D8
330
1F
100
AcDbEntity
  8
1
  6
Continuous
 62
     4
100
AcDbLine
 10
-3.4801772636487
 20
-186.187970259671
 30
0.0
 11
-3.4801772636487
 21
-187.437970259671
 31
0.0
  0
LINE
  5
D9
330
1F
100
AcDbEntity
  8
1
  6
Continuous
 62
     4
100
AcDbLine
 10
-4.5426772636487
 20
-186.187970259671
 30
0.0
 11
-3.4801772636487
 21
-186.187970259671
 31
0.0
  0
LINE
  5
DA
330
1F
100
AcDbEntity
  8
1
  6
Continuous
 62
     4
100
AcDbLine
 10
-4.5426772636487
 20
-187.437970259671
 30
0.0
 11
-4.5426772636487
 21
-186.187970259671
 31
0.0
  0
LINE
  5
DB
330
1F
100
AcDbEntity
  8
1
  6
Continuous
 62
     4
100
AcDbLine
 10
-2.2301772636487
 20
-188.812970259671
 30
0.0
 11
-2.9176772636487
 21
-188.812970259671
 31
0.0
  0
LINE
  5
DC
330
1F
100
AcDbEntity
  8
1
  6
Continuous
 62
     4
100
AcDbLine
 10
-2.2301772636487
 20
-185.062970259671
 30
0.0
 11
-2.2301772636487
 21
-188.812970259671
 31
0.0
  0
LINE
  5
DD
330
1F
100
AcDbEntity
  8
1
  6
Continuous
 62
     4
100
AcDbLine
 10
-5.7926772636487
 20
-185.062970259671
 30
0.0
 11
-5.1051772636487
 21
-185.062970259671
 31
0.0
  0
LINE
  5
DE
330
1F
100
AcDbEntity
  8
1
  6
Continuous
 62
     4
100
AcDbLine
 10
-5.7926772636487
 20
-188.812970259671
 30
0.0
 11
-5.7926772636487
 21
-185.062970259671
 31
0.0
  0
LINE
  5
DF
330
1F
100
AcDbEntity
  8
1
  6
Continuous
 62
     4
100
AcDbLine
 10
-8.4801772636487
 20
-189.000470259671
 30
0.0
 11
-8.9801772636487
 21
-188.687970259671
 31
0.0
  0
LINE
  5
E0
330
1F
100
AcDbEntity
  8
1
  6
Continuous
 62
     4
100
AcDbLine
 10
-8.1676772636487
 20
-188.500470259671
 30
0.0
 11
-8.4801772636487
 21
-189.000470259671
 31
0.0
  0
LINE
  5
E1
330
1F
100
AcDbEntity
  8
1
  6
Continuous
 62
     4
100
AcDbLine
 10
-7.9176772636487
 20
-187.750470259671
 30
0.0
 11
-8.1676772636487
 21
-188.500470259671
 31
0.0
  0
LINE
  5
E2
330
1F
100
AcDbEntity
  8
1
  6
Continuous
 62
     4
100
AcDbLine
 10
-7.6051772636487
 20
-186.625470259671
 30
0.0
 11
-7.9176772636487
 21
-187.750470259671
 31
0.0
  0
LINE
  5
E3
330
1F
100
AcDbEntity
  8
1
  6
Continuous
 62
     4
100
AcDbLine
 10
-7.6051772636487
 20
-186.187970259671
 30
0.0
 11
-7.6051772636487
 21
-186.625470259671
 31
0.0
  0
LINE
  5
E4
330
1F
100
AcDbEntity
  8
1
  6
Continuous
 62
     4
100
AcDbLine
 10
-9.4176772636487
 20
-186.187970259671
 30
0.0
 11
-7.6051772636487
 21
-186.187970259671
 31
0.0
  0
LINE
  5
E5
330
1F
100
AcDbEntity
  8
1
  6
Continuous
 62
     4
100
AcDbLine
 10
-11.1051772636487
 20
-184.937970259671
 30
0.0
 11
-6.9176772636487
 21
-184.937970259671
 31
0.0
  0
LINE
  5
E6
330
1F
100
AcDbEntity
  8
1
  6
Continuous
 62
     4
100
AcDbLine
 10
-9.2926772636487
 20
-185.375470259671
 30
0.0
 11
-9.1676772636487
 21
-184.125470259671
 31
0.0
  0
LINE
  5
E7
330
1F
100
AcDbEntity
  8
1
  6
Continuous
 62
     4
100
AcDbLine
 10
-9.5426772636487
 20
-186.625470259671
 30
0.0
 11
-9.2926772636487
 21
-185.375470259671
 31
0.0
  0
LINE
  5
E8
330
1F
100
AcDbEntity
  8
1
  6
Continuous
 62
     4
100
AcDbLine
 10
-9.8551772636487
 20
-187.437970259671
 30
0.0
 11
-9.5426772636487
 21
-186.625470259671
 31
0.0
  0
LINE
  5
E9
330
1F
100
AcDbEntity
  8
1
  6
Continuous
 62
     4
100
AcDbLine
 10
-10.2301772636487
 20
-188.187970259671
 30
0.0
 11
-9.8551772636487
 21
-187.437970259671
 31
0.0
  0
LINE
  5
EA
330
1F
100
AcDbEntity
  8
1
  6
Continuous
 62
     4
100
AcDbLine
 10
-10.7926772636487
 20
-188.812970259671
 30
0.0
 11
-10.2301772636487
 21
-188.187970259671
 31
0.0
  0
LINE
  5
EB
330
1F
100
AcDbEntity
  8
1
  6
Continuous
 62
     4
100
AcDbLine
 10
-12.4801772636487
 20
-187.437970259671
 30
0.0
 11
-11.7926772636487
 21
-188.187970259671
 31
0.0
  0
LINE
  5
EC
330
1F
100
AcDbEntity
  8
1
  6
Continuous
 62
     4
100
AcDbLine
 10
-13.0426772636487
 20
-186.500470259671
 30
0.0
 11
-12.4801772636487
 21
-187.437970259671
 31
0.0
  0
LINE
  5
ED
330
1F
100
AcDbEntity
  8
1
  6
Continuous
 62
     4
100
AcDbLine
 10
-13.4801772636487
 20
-185.375470259671
 30
0.0
 11
-13.0426772636487
 21
-186.500470259671
 31
0.0
  0
LINE
  5
EE
330
1F
100
AcDbEntity
  8
1
  6
Continuous
 62
     4
100
AcDbLine
 10
-12.2301772636487
 20
-185.250470259671
 30
0.0
 11
-13.1676772636487
 21
-186.000470259671
 31
0.0
  0
LINE
  5
EF
330
1F
100
AcDbEntity
  8
1
  6
Continuous
 62
     4
100
AcDbLine
 10
-13.8551772636487
 20
-189.000470259671
 30
0.0
 11
-14.2926772636487
 21
-188.812970259671
 31
0.0
  0
LINE
  5
F0
330
1F
100
AcDbEntity
  8
1
  6
Continuous
 62
     4
100
AcDbLine
 10
-13.8551772636487
 20
-184.125470259671
 30
0.0
 11
-13.8551772636487
 21
-189.000470259671
 31
0.0
  0
LINE
  5
F1
330
1F
100
AcDbEntity
  8
1
  6
Continuous
 62
     4
100
AcDbLine
 10
-14.5426772636487
 20
-185.687970259671
 30
0.0
 11
-15.9801772636487
 21
-185.687970259671
 31
0.0
  0
LINE
  5
F2
330
1F
100
AcDbEntity
  8
1
  6
Continuous
 62
     4
100
AcDbLine
 10
-14.8551772636487
 20
-186.625470259671
 30
0.0
 11
-14.5426772636487
 21
-185.687970259671
 31
0.0
  0
LINE
  5
F3
330
1F
100
AcDbEntity
  8
1
  6
Continuous
 62
     4
100
AcDbLine
 10
-15.4176772636487
 20
-187.562970259671
 30
0.0
 11
-14.8551772636487
 21
-186.625470259671
 31
0.0
  0
LINE
  5
F4
330
1F
100
AcDbEntity
  8
1
  6
Continuous
 62
     4
100
AcDbLine
 10
-15.9801772636487
 20
-188.187970259671
 30
0.0
 11
-15.4176772636487
 21
-187.562970259671
 31
0.0
  0
LINE
  5
F5
330
1F
100
AcDbEntity
  8
1
  6
Continuous
 62
     4
100
AcDbLine
 10
-18.7301772636487
 20
-184.750470259671
 30
0.0
 11
-17.0426772636487
 21
-184.750470259671
 31
0.0
  0
LINE
  5
F6
330
1F
100
AcDbEntity
  8
1
  6
Continuous
 62
     4
100
AcDbLine
 10
-16.7926772636487
 20
-188.500470259671
 30
0.0
 11
-16.7926772636487
 21
-188.187970259671
 31
0.0
  0
LINE
  5
F7
330
1F
100
AcDbEntity
  8
1
  6
Continuous
 62
     4
100
AcDbLine
 10
-17.0426772636487
 20
-188.812970259671
 30
0.0
 11
-16.7926772636487
 21
-188.500470259671
 31
0.0
  0
LINE
  5
F8
330
1F
100
AcDbEntity
  8
1
  6
Continuous
 62
     4
100
AcDbLine
 10
-17.6051772636487
 20
-188.812970259671
 30
0.0
 11
-17.0426772636487
 21
-188.812970259671
 31
0.0
  0
LINE
  5
F9
330
1F
100
AcDbEntity
  8
1
  6
Continuous
 62
     4
100
AcDbLine
 10
-17.9176772636487
 20
-188.375470259671
 30
0.0
 11
-17.6051772636487
 21
-188.812970259671
 31
0.0
  0
LINE
  5
FA
330
1F
100
AcDbEntity
  8
1
  6
Continuous
 62
     4
100
AcDbLine
 10
-17.9176772636487
 20
-186.812970259671
 30
0.0
 11
-17.9176772636487
 21
-188.375470259671
 31
0.0
  0
LINE
  5
FB
330
1F
100
AcDbEntity
  8
1
  6
Continuous
 62
     4
100
AcDbLine
 10
-18.7301772636487
 20
-188.812970259671
 30
0.0
 11
-18.7301772636487
 21
-186.812970259671
 31
0.0
  0
LINE
  5
FC
330
1F
100
AcDbEntity
  8
1
  6
Continuous
 62
     4
100
AcDbLine
 10
-19.9801772636487
 20
-188.687970259671
 30
0.0
 11
-20.4176772636487
 21
-189.000470259671
 31
0.0
  0
LINE
  5
FD
330
1F
100
AcDbEntity
  8
1
  6
Continuous
 62
     4
100
AcDbLine
 10
-19.7301772636487
 20
-188.375470259671
 30
0.0
 11
-19.9801772636487
 21
-188.687970259671
 31
0.0
  0
LINE
  5
FE
330
1F
100
AcDbEntity
  8
1
  6
Continuous
 62
     4
100
AcDbLine
 10
-19.5426772636487
 20
-187.875470259671
 30
0.0
 11
-19.7301772636487
 21
-188.375470259671
 31
0.0
  0
LINE
  5
FF
330
1F
100
AcDbEntity
  8
1
  6
Continuous
 62
     4
100
AcDbLine
 10
-19.4176772636487
 20
-186.812970259671
 30
0.0
 11
-19.5426772636487
 21
-187.875470259671
 31
0.0
  0
LINE
  5
100
330
1F
100
AcDbEntity
  8
1
  6
Continuous
 62
     4
100
AcDbLine
 10
-18.0426772636487
 20
-185.250470259671
 30
0.0
 11
-17.4801772636487
 21
-186.312970259671
 31
0.0
  0
LINE
  5
101
330
1F
100
AcDbEntity
  8
1
  6
Continuous
 62
     4
100
AcDbLine
 10
-19.8551772636487
 20
-186.000470259671
 30
0.0
 11
-17.7301772636487
 21
-185.875470259671
 31
0.0
  0
LINE
  5
102
330
1F
100
AcDbEntity
  8
1
  6
Continuous
 62
     4
100
AcDbLine
 10
-18.7301772636487
 20
-184.750470259671
 30
0.0
 11
-19.2926772636487
 21
-186.000470259671
 31
0.0
  0
LINE
  5
103
330
1F
100
AcDbEntity
  8
1
  6
Continuous
 62
     4
100
AcDbLine
 10
-18.6051772636487
 20
-184.000470259671
 30
0.0
 11
-18.6051772636487
 21
-184.750470259671
 31
0.0
  0
LINE
  5
104
330
1F
100
AcDbEntity
  8
1
  6
Continuous
 62
     4
100
AcDbLine
 10
-20.1051772636487
 20
-184.750470259671
 30
0.0
 11
-18.7301772636487
 21
-184.750470259671
 31
0.0
  0
LINE
  5
105
330
1F
100
AcDbEntity
  8
1
  6
Continuous
 62
     4
100
AcDbLine
 10
-21.1051772636487
 20
-188.812970259671
 30
0.0
 11
-20.5426772636487
 21
-186.812970259671
 31
0.0
  0
LINE
  5
106
330
1F
100
AcDbEntity
  8
1
  6
Continuous
 62
     4
100
AcDbLine
 10
-21.2301772636487
 20
-185.562970259671
 30
0.0
 11
-20.7926772636487
 21
-186.000470259671
 31
0.0
  0
LINE
  5
107
330
1F
100
AcDbEntity
  8
1
  6
Continuous
 62
     4
100
AcDbLine
 10
-20.7926772636487
 20
-184.125470259671
 30
0.0
 11
-20.5426772636487
 21
-184.625470259671
 31
0.0
  0
LINE
  5
108
330
1F
100
AcDbEntity
  8
1
  6
Continuous
 62
     4
100
AcDbLine
 10
404.271316990811
 20
140.079030197323
 30
0.0
 11
403.146316990811
 21
139.579030197323
 31
0.0
  0
LINE
  5
109
330
1F
100
AcDbEntity
  8
1
  6
Continuous
 62
     4
100
AcDbLine
 10
405.146316990811
 20
140.829030197323
 30
0.0
 11
404.271316990811
 21
140.079030197323
 31
0.0
  0
LINE
  5
10A
330
1F
100
AcDbEntity
  8
1
  6
Continuous
 62
     4
100
AcDbLine
 10
405.521316990811
 20
141.329030197323
 30
0.0
 11
405.146316990811
 21
140.829030197323
 31
0.0
  0
LINE
  5
10B
330
1F
100
AcDbEntity
  8
1
  6
Continuous
 62
     4
100
AcDbLine
 10
405.646316990811
 20
141.829030197323
 30
0.0
 11
405.521316990811
 21
141.329030197323
 31
0.0
  0
LINE
  5
10C
330
1F
100
AcDbEntity
  8
1
  6
Continuous
 62
     4
100
AcDbLine
 10
405.771316990811
 20
142.454030197323
 30
0.0
 11
405.646316990811
 21
141.829030197323
 31
0.0
  0
LINE
  5
10D
330
1F
100
AcDbEntity
  8
1
  6
Continuous
 62
     4
100
AcDbLine
 10
405.771316990811
 20
143.329030197323
 30
0.0
 11
405.771316990811
 21
142.454030197323
 31
0.0
  0
LINE
  5
10E
330
1F
100
AcDbEntity
  8
1
  6
Continuous
 62
     4
100
AcDbLine
 10
405.646316990811
 20
143.829030197323
 30
0.0
 11
405.771316990811
 21
143.329030197323
 31
0.0
  0
LINE
  5
10F
330
1F
100
AcDbEntity
  8
1
  6
Continuous
 62
     4
100
AcDbLine
 10
405.396316990811
 20
144.204030197323
 30
0.0
 11
405.646316990811
 21
143.829030197323
 31
0.0
  0
LINE
  5
110
330
1F
100
AcDbEntity
  8
1
  6
Continuous
 62
     4
100
AcDbLine
 10
405.021316990811
 20
144.454030197323
 30
0.0
 11
405.396316990811
 21
144.204030197323
 31
0.0
  0
LINE
  5
111
330
1F
100
AcDbEntity
  8
1
  6
Continuous
 62
     4
100
AcDbLine
 10
404.646316990811
 20
144.579030197323
 30
0.0
 11
405.021316990811
 21
144.454030197323
 31
0.0
  0
LINE
  5
112
330
1F
100
AcDbEntity
  8
1
  6
Continuous
 62
     4
100
AcDbLine
 10
403.896316990811
 20
144.579030197323
 30
0.0
 11
404.646316990811
 21
144.579030197323
 31
0.0
  0
LINE
  5
113
330
1F
100
AcDbEntity
  8
1
  6
Continuous
 62
     4
100
AcDbLine
 10
403.521316990811
 20
144.454030197323
 30
0.0
 11
403.896316990811
 21
144.579030197323
 31
0.0
  0
LINE
  5
114
330
1F
100
AcDbEntity
  8
1
  6
Continuous
 62
     4
100
AcDbLine
 10
403.146316990811
 20
144.204030197323
 30
0.0
 11
403.521316990811
 21
144.454030197323
 31
0.0
  0
LINE
  5
115
330
1F
100
AcDbEntity
  8
1
  6
Continuous
 62
     4
100
AcDbLine
 10
402.896316990811
 20
143.829030197323
 30
0.0
 11
403.146316990811
 21
144.204030197323
 31
0.0
  0
LINE
  5
116
330
1F
100
AcDbEntity
  8
1
  6
Continuous
 62
     4
100
AcDbLine
 10
402.771316990811
 20
143.329030197323
 30
0.0
 11
402.896316990811
 21
143.829030197323
 31
0.0
  0
LINE
  5
117
330
1F
100
AcDbEntity
  8
1
  6
Continuous
 62
     4
100
AcDbLine
 10
402.771316990811
 20
143.079030197323
 30
0.0
 11
402.771316990811
 21
143.329030197323
 31
0.0
  0
LINE
  5
118
330
1F
100
AcDbEntity
  8
1
  6
Continuous
 62
     4
100
AcDbLine
 10
402.896316990811
 20
142.579030197323
 30
0.0
 11
402.771316990811
 21
143.079030197323
 31
0.0
  0
LINE
  5
119
330
1F
100
AcDbEntity
  8
1
  6
Continuous
 62
     4
100
AcDbLine
 10
403.146316990811
 20
142.204030197323
 30
0.0
 11
402.896316990811
 21
142.579030197323
 31
0.0
  0
LINE
  5
11A
330
1F
100
AcDbEntity
  8
1
  6
Continuous
 62
     4
100
AcDbLine
 10
403.521316990811
 20
141.954030197323
 30
0.0
 11
403.146316990811
 21
142.204030197323
 31
0.0
  0
LINE
  5
11B
330
1F
100
AcDbEntity
  8
1
  6
Continuous
 62
     4
100
AcDbLine
 10
403.896316990811
 20
141.829030197323
 30
0.0
 11
403.521316990811
 21
141.954030197323
 31
0.0
  0
LINE
  5
11C
330
1F
100
AcDbEntity
  8
1
  6
Continuous
 62
     4
100
AcDbLine
 10
405.646316990811
 20
141.829030197323
 30
0.0
 11
403.896316990811
 21
141.829030197323
 31
0.0
  0
LINE
  5
11D
330
1F
100
AcDbEntity
  8
1
  6
Continuous
 62
     4
100
AcDbLine
 10
399.771316990811
 20
140.079030197323
 30
0.0
 11
398.646316990811
 21
139.579030197323
 31
0.0
  0
LINE
  5
11E
330
1F
100
AcDbEntity
  8
1
  6
Continuous
 62
     4
100
AcDbLine
 10
400.646316990811
 20
140.829030197323
 30
0.0
 11
399.771316990811
 21
140.079030197323
 31
0.0
  0
LINE
  5
11F
330
1F
100
AcDbEntity
  8
1
  6
Continuous
 62
     4
100
AcDbLine
 10
401.021316990811
 20
141.329030197323
 30
0.0
 11
400.646316990811
 21
140.829030197323
 31
0.0
  0
LINE
  5
120
330
1F
100
AcDbEntity
  8
1
  6
Continuous
 62
     4
100
AcDbLine
 10
401.146316990811
 20
141.829030197323
 30
0.0
 11
401.021316990811
 21
141.329030197323
 31
0.0
  0
LINE
  5
121
330
1F
100
AcDbEntity
  8
1
  6
Continuous
 62
     4
100
AcDbLine
 10
401.271316990811
 20
142.454030197323
 30
0.0
 11
401.146316990811
 21
141.829030197323
 31
0.0
  0
LINE
  5
122
330
1F
100
AcDbEntity
  8
1
  6
Continuous
 62
     4
100
AcDbLine
 10
401.271316990811
 20
143.329030197323
 30
0.0
 11
401.271316990811
 21
142.454030197323
 31
0.0
  0
LINE
  5
123
330
1F
100
AcDbEntity
  8
1
  6
Continuous
 62
     4
100
AcDbLine
 10
401.146316990811
 20
143.829030197323
 30
0.0
 11
401.271316990811
 21
143.329030197323
 31
0.0
  0
LINE
  5
124
330
1F
100
AcDbEntity
  8
1
  6
Continuous
 62
     4
100
AcDbLine
 10
400.896316990811
 20
144.204030197323
 30
0.0
 11
401.146316990811
 21
143.829030197323
 31
0.0
  0
LINE
  5
125
330
1F
100
AcDbEntity
  8
1
  6
Continuous
 62
     4
100
AcDbLine
 10
400.521316990811
 20
144.454030197323
 30
0.0
 11
400.896316990811
 21
144.204030197323
 31
0.0
  0
LINE
  5
126
330
1F
100
AcDbEntity
  8
1
  6
Continuous
 62
     4
100
AcDbLine
 10
400.146316990811
 20
144.579030197323
 30
0.0
 11
400.521316990811
 21
144.454030197323
 31
0.0
  0
LINE
  5
127
330
1F
100
AcDbEntity
  8
1
  6
Continuous
 62
     4
100
AcDbLine
 10
399.396316990811
 20
144.579030197323
 30
0.0
 11
400.146316990811
 21
144.579030197323
 31
0.0
  0
LINE
  5
128
330
1F
100
AcDbEntity
  8
1
  6
Continuous
 62
     4
100
AcDbLine
 10
399.021316990811
 20
144.454030197323
 30
0.0
 11
399.396316990811
 21
144.579030197323
 31
0.0
  0
LINE
  5
129
330
1F
100
AcDbEntity
  8
1
  6
Continuous
 62
     4
100
AcDbLine
 10
398.646316990811
 20
144.204030197323
 30
0.0
 11
399.021316990811
 21
144.454030197323
 31
0.0
  0
LINE
  5
12A
330
1F
100
AcDbEntity
  8
1
  6
Continuous
 62
     4
100
AcDbLine
 10
398.396316990811
 20
143.829030197323
 30
0.0
 11
398.646316990811
 21
144.204030197323
 31
0.0
  0
LINE
  5
12B
330
1F
100
AcDbEntity
  8
1
  6
Continuous
 62
     4
100
AcDbLine
 10
398.271316990811
 20
143.329030197323
 30
0.0
 11
398.396316990811
 21
143.829030197323
 31
0.0
  0
LINE
  5
12C
330
1F
100
AcDbEntity
  8
1
  6
Continuous
 62
     4
100
AcDbLine
 10
398.271316990811
 20
143.079030197323
 30
0.0
 11
398.271316990811
 21
143.329030197323
 31
0.0
  0
LINE
  5
12D
330
1F
100
AcDbEntity
  8
1
  6
Continuous
 62
     4
100
AcDbLine
 10
398.396316990811
 20
142.579030197323
 30
0.0
 11
398.271316990811
 21
143.079030197323
 31
0.0
  0
LINE
  5
12E
330
1F
100
AcDbEntity
  8
1
  6
Continuous
 62
     4
100
AcDbLine
 10
398.646316990811
 20
142.204030197323
 30
0.0
 11
398.396316990811
 21
142.579030197323
 31
0.0
  0
LINE
  5
12F
330
1F
100
AcDbEntity
  8
1
  6
Continuous
 62
     4
100
AcDbLine
 10
399.021316990811
 20
141.954030197323
 30
0.0
 11
398.646316990811
 21
142.204030197323
 31
0.0
  0
LINE
  5
130
330
1F
100
AcDbEntity
  8
1
  6
Continuous
 62
     4
100
AcDbLine
 10
399.396316990811
 20
141.829030197323
 30
0.0
 11
399.021316990811
 21
141.954030197323
 31
0.0
  0
LINE
  5
131
330
1F
100
AcDbEntity
  8
1
  6
Continuous
 62
     4
100
AcDbLine
 10
401.146316990811
 20
141.829030197323
 30
0.0
 11
399.396316990811
 21
141.829030197323
 31
0.0
  0
LINE
  5
132
330
1F
100
AcDbEntity
  8
1
  6
Continuous
 62
     4
100
AcDbLine
 10
395.271316990811
 20
140.079030197323
 30
0.0
 11
394.146316990811
 21
139.579030197323
 31
0.0
  0
LINE
  5
133
330
1F
100
AcDbEntity
  8
1
  6
Continuous
 62
     4
100
AcDbLine
 10
396.146316990811
 20
140.829030197323
 30
0.0
 11
395.271316990811
 21
140.079030197323
 31
0.0
  0
LINE
  5
134
330
1F
100
AcDbEntity
  8
1
  6
Continuous
 62
     4
100
AcDbLine
 10
396.521316990811
 20
141.329030197323
 30
0.0
 11
396.146316990811
 21
140.829030197323
 31
0.0
  0
LINE
  5
135
330
1F
100
AcDbEntity
  8
1
  6
Continuous
 62
     4
100
AcDbLine
 10
396.646316990811
 20
141.829030197323
 30
0.0
 11
396.521316990811
 21
141.329030197323
 31
0.0
  0
LINE
  5
136
330
1F
100
AcDbEntity
  8
1
  6
Continuous
 62
     4
100
AcDbLine
 10
396.771316990811
 20
142.454030197323
 30
0.0
 11
396.646316990811
 21
141.829030197323
 31
0.0
  0
LINE
  5
137
330
1F
100
AcDbEntity
  8
1
  6
Continuous
 62
     4
100
AcDbLine
 10
396.771316990811
 20
143.329030197323
 30
0.0
 11
396.771316990811
 21
142.454030197323
 31
0.0
  0
LINE
  5
138
330
1F
100
AcDbEntity
  8
1
  6
Continuous
 62
     4
100
AcDbLine
 10
396.646316990811
 20
143.829030197323
 30
0.0
 11
396.771316990811
 21
143.329030197323
 31
0.0
  0
LINE
  5
139
330
1F
100
AcDbEntity
  8
1
  6
Continuous
 62
     4
100
AcDbLine
 10
396.396316990811
 20
144.204030197323
 30
0.0
 11
396.646316990811
 21
143.829030197323
 31
0.0
  0
LINE
  5
13A
330
1F
100
AcDbEntity
  8
1
  6
Continuous
 62
     4
100
AcDbLine
 10
396.021316990811
 20
144.454030197323
 30
0.0
 11
396.396316990811
 21
144.204030197323
 31
0.0
  0
LINE
  5
13B
330
1F
100
AcDbEntity
  8
1
  6
Continuous
 62
     4
100
AcDbLine
 10
395.646316990811
 20
144.579030197323
 30
0.0
 11
396.021316990811
 21
144.454030197323
 31
0.0
  0
LINE
  5
13C
330
1F
100
AcDbEntity
  8
1
  6
Continuous
 62
     4
100
AcDbLine
 10
394.896316990811
 20
144.579030197323
 30
0.0
 11
395.646316990811
 21
144.579030197323
 31
0.0
  0
LINE
  5
13D
330
1F
100
AcDbEntity
  8
1
  6
Continuous
 62
     4
100
AcDbLine
 10
394.521316990811
 20
144.454030197323
 30
0.0
 11
394.896316990811
 21
144.579030197323
 31
0.0
  0
LINE
  5
13E
330
1F
100
AcDbEntity
  8
1
  6
Continuous
 62
     4
100
AcDbLine
 10
394.146316990811
 20
144.204030197323
 30
0.0
 11
394.521316990811
 21
144.454030197323
 31
0.0
  0
LINE
  5
13F
330
1F
100
AcDbEntity
  8
1
  6
Continuous
 62
     4
100
AcDbLine
 10
393.896316990811
 20
143.829030197323
 30
0.0
 11
394.146316990811
 21
144.204030197323
 31
0.0
  0
LINE
  5
140
330
1F
100
AcDbEntity
  8
1
  6
Continuous
 62
     4
100
AcDbLine
 10
393.771316990811
 20
143.329030197323
 30
0.0
 11
393.896316990811
 21
143.829030197323
 31
0.0
  0
LINE
  5
141
330
1F
100
AcDbEntity
  8
1
  6
Continuous
 62
     4
100
AcDbLine
 10
393.771316990811
 20
143.079030197323
 30
0.0
 11
393.771316990811
 21
143.329030197323
 31
0.0
  0
LINE
  5
142
330
1F
100
AcDbEntity
  8
1
  6
Continuous
 62
     4
100
AcDbLine
 10
393.896316990811
 20
142.579030197323
 30
0.0
 11
393.771316990811
 21
143.079030197323
 31
0.0
  0
LINE
  5
143
330
1F
100
AcDbEntity
  8
1
  6
Continuous
 62
     4
100
AcDbLine
 10
394.146316990811
 20
142.204030197323
 30
0.0
 11
393.896316990811
 21
142.579030197323
 31
0.0
  0
LINE
  5
144
330
1F
100
AcDbEntity
  8
1
  6
Continuous
 62
     4
100
AcDbLine
 10
394.521316990811
 20
141.954030197323
 30
0.0
 11
394.146316990811
 21
142.204030197323
 31
0.0
  0
LINE
  5
145
330
1F
100
AcDbEntity
  8
1
  6
Continuous
 62
     4
100
AcDbLine
 10
394.896316990811
 20
141.829030197323
 30
0.0
 11
394.521316990811
 21
141.954030197323
 31
0.0
  0
LINE
  5
146
330
1F
100
AcDbEntity
  8
1
  6
Continuous
 62
     4
100
AcDbLine
 10
396.646316990811
 20
141.829030197323
 30
0.0
 11
394.896316990811
 21
141.829030197323
 31
0.0
  0
LINE
  5
147
330
1F
100
AcDbEntity
  8
1
  6
Continuous
 62
     4
100
AcDbLine
 10
377.271316990811
 20
142.704030197323
 30
0.0
 11
377.271316990811
 21
141.454030197323
 31
0.0
  0
LINE
  5
148
330
1F
100
AcDbEntity
  8
1
  6
Continuous
 62
     4
100
AcDbLine
 10
377.146316990811
 20
143.454030197323
 30
0.0
 11
377.271316990811
 21
142.704030197323
 31
0.0
  0
LINE
  5
149
330
1F
100
AcDbEntity
  8
1
  6
Continuous
 62
     4
100
AcDbLine
 10
376.896316990811
 20
143.954030197323
 30
0.0
 11
377.146316990811
 21
143.454030197323
 31
0.0
  0
LINE
  5
14A
330
1F
100
AcDbEntity
  8
1
  6
Continuous
 62
     4
100
AcDbLine
 10
376.646316990811
 20
144.204030197323
 30
0.0
 11
376.896316990811
 21
143.954030197323
 31
0.0
  0
LINE
  5
14B
330
1F
100
AcDbEntity
  8
1
  6
Continuous
 62
     4
100
AcDbLine
 10
376.271316990811
 20
144.454030197323
 30
0.0
 11
376.646316990811
 21
144.204030197323
 31
0.0
  0
LINE
  5
14C
330
1F
100
AcDbEntity
  8
1
  6
Continuous
 62
     4
100
AcDbLine
 10
375.896316990811
 20
144.579030197323
 30
0.0
 11
376.271316990811
 21
144.454030197323
 31
0.0
  0
LINE
  5
14D
330
1F
100
AcDbEntity
  8
1
  6
Continuous
 62
     4
100
AcDbLine
 10
375.646316990811
 20
144.579030197323
 30
0.0
 11
375.896316990811
 21
144.579030197323
 31
0.0
  0
LINE
  5
14E
330
1F
100
AcDbEntity
  8
1
  6
Continuous
 62
     4
100
AcDbLine
 10
375.271316990811
 20
144.454030197323
 30
0.0
 11
375.646316990811
 21
144.579030197323
 31
0.0
  0
LINE
  5
14F
330
1F
100
AcDbEntity
  8
1
  6
Continuous
 62
     4
100
AcDbLine
 10
374.896316990811
 20
144.204030197323
 30
0.0
 11
375.271316990811
 21
144.454030197323
 31
0.0
  0
LINE
  5
150
330
1F
100
AcDbEntity
  8
1
  6
Continuous
 62
     4
100
AcDbLine
 10
374.646316990811
 20
143.954030197323
 30
0.0
 11
374.896316990811
 21
144.204030197323
 31
0.0
  0
LINE
  5
151
330
1F
100
AcDbEntity
  8
1
  6
Continuous
 62
     4
100
AcDbLine
 10
374.396316990811
 20
143.454030197323
 30
0.0
 11
374.646316990811
 21
143.954030197323
 31
0.0
  0
LINE
  5
152
330
1F
100
AcDbEntity
  8
1
  6
Continuous
 62
     4
100
AcDbLine
 10
374.271316990811
 20
142.704030197323
 30
0.0
 11
374.396316990811
 21
143.454030197323
 31
0.0
  0
LINE
  5
153
330
1F
100
AcDbEntity
  8
1
  6
Continuous
 62
     4
100
AcDbLine
 10
374.271316990811
 20
141.454030197323
 30
0.0
 11
374.271316990811
 21
142.704030197323
 31
0.0
  0
LINE
  5
154
330
1F
100
AcDbEntity
  8
1
  6
Continuous
 62
     4
100
AcDbLine
 10
374.396316990811
 20
140.704030197323
 30
0.0
 11
374.271316990811
 21
141.454030197323
 31
0.0
  0
LINE
  5
155
330
1F
100
AcDbEntity
  8
1
  6
Continuous
 62
     4
100
AcDbLine
 10
374.646316990811
 20
140.204030197323
 30
0.0
 11
374.396316990811
 21
140.704030197323
 31
0.0
  0
LINE
  5
156
330
1F
100
AcDbEntity
  8
1
  6
Continuous
 62
     4
100
AcDbLine
 10
374.896316990811
 20
139.954030197323
 30
0.0
 11
374.646316990811
 21
140.204030197323
 31
0.0
  0
LINE
  5
157
330
1F
100
AcDbEntity
  8
1
  6
Continuous
 62
     4
100
AcDbLine
 10
375.271316990811
 20
139.704030197323
 30
0.0
 11
374.896316990811
 21
139.954030197323
 31
0.0
  0
LINE
  5
158
330
1F
100
AcDbEntity
  8
1
  6
Continuous
 62
     4
100
AcDbLine
 10
375.646316990811
 20
139.579030197323
 30
0.0
 11
375.271316990811
 21
139.704030197323
 31
0.0
  0
LINE
  5
159
330
1F
100
AcDbEntity
  8
1
  6
Continuous
 62
     4
100
AcDbLine
 10
375.896316990811
 20
139.579030197323
 30
0.0
 11
375.646316990811
 21
139.579030197323
 31
0.0
  0
LINE
  5
15A
330
1F
100
AcDbEntity
  8
1
  6
Continuous
 62
     4
100
AcDbLine
 10
376.271316990811
 20
139.704030197323
 30
0.0
 11
375.896316990811
 21
139.579030197323
 31
0.0
  0
LINE
  5
15B
330
1F
100
AcDbEntity
  8
1
  6
Continuous
 62
     4
100
AcDbLine
 10
376.646316990811
 20
139.954030197323
 30
0.0
 11
376.271316990811
 21
139.704030197323
 31
0.0
  0
LINE
  5
15C
330
1F
100
AcDbEntity
  8
1
  6
Continuous
 62
     4
100
AcDbLine
 10
376.896316990811
 20
140.204030197323
 30
0.0
 11
376.646316990811
 21
139.954030197323
 31
0.0
  0
LINE
  5
15D
330
1F
100
AcDbEntity
  8
1
  6
Continuous
 62
     4
100
AcDbLine
 10
377.146316990811
 20
140.704030197323
 30
0.0
 11
376.896316990811
 21
140.204030197323
 31
0.0
  0
LINE
  5
15E
330
1F
100
AcDbEntity
  8
1
  6
Continuous
 62
     4
100
AcDbLine
 10
377.271316990811
 20
141.454030197323
 30
0.0
 11
377.146316990811
 21
140.704030197323
 31
0.0
  0
LINE
  5
15F
330
1F
100
AcDbEntity
  8
1
  6
Continuous
 62
     4
100
AcDbLine
 10
372.896316990811
 20
139.829030197323
 30
0.0
 11
372.896316990811
 21
139.704030197323
 31
0.0
  0
LINE
  5
160
330
1F
100
AcDbEntity
  8
1
  6
Continuous
 62
     4
100
AcDbLine
 10
372.771316990811
 20
139.829030197323
 30
0.0
 11
372.896316990811
 21
139.829030197323
 31
0.0
  0
LINE
  5
161
330
1F
100
AcDbEntity
  8
1
  6
Continuous
 62
     4
100
AcDbLine
 10
372.771316990811
 20
139.704030197323
 30
0.0
 11
372.771316990811
 21
139.829030197323
 31
0.0
  0
LINE
  5
162
330
1F
100
AcDbEntity
  8
1
  6
Continuous
 62
     4
100
AcDbLine
 10
372.896316990811
 20
139.704030197323
 30
0.0
 11
372.771316990811
 21
139.704030197323
 31
0.0
  0
LINE
  5
163
330
1F
100
AcDbEntity
  8
1
  6
Continuous
 62
     4
100
AcDbLine
 10
373.021316990811
 20
139.954030197323
 30
0.0
 11
373.021316990811
 21
139.579030197323
 31
0.0
  0
LINE
  5
164
330
1F
100
AcDbEntity
  8
1
  6
Continuous
 62
     4
100
AcDbLine
 10
372.646316990811
 20
139.954030197323
 30
0.0
 11
373.021316990811
 21
139.954030197323
 31
0.0
  0
LINE
  5
165
330
1F
100
AcDbEntity
  8
1
  6
Continuous
 62
     4
100
AcDbLine
 10
372.646316990811
 20
139.579030197323
 30
0.0
 11
372.646316990811
 21
139.954030197323
 31
0.0
  0
LINE
  5
166
330
1F
100
AcDbEntity
  8
1
  6
Continuous
 62
     4
100
AcDbLine
 10
373.021316990811
 20
139.579030197323
 30
0.0
 11
372.646316990811
 21
139.579030197323
 31
0.0
  0
LINE
  5
167
330
1F
100
AcDbEntity
  8
1
  6
Continuous
 62
     4
100
AcDbLine
 10
371.146316990811
 20
144.579030197323
 30
0.0
 11
371.146316990811
 21
139.579030197323
 31
0.0
  0
LINE
  5
168
330
1F
100
AcDbEntity
  8
1
  6
Continuous
 62
     4
100
AcDbLine
 10
369.646316990811
 20
143.079030197323
 30
0.0
 11
371.146316990811
 21
144.579030197323
 31
0.0
  0
LINE
  5
169
330
1F
100
AcDbEntity
  8
1
  6
Continuous
 62
     4
100
AcDbLine
 10
405.771316990811
 20
148.409030197323
 30
0.0
 11
404.646316990811
 21
147.909030197323
 31
0.0
  0
LINE
  5
16A
330
1F
100
AcDbEntity
  8
1
  6
Continuous
 62
     4
100
AcDbLine
 10
406.646316990811
 20
149.159030197323
 30
0.0
 11
405.771316990811
 21
148.409030197323
 31
0.0
  0
LINE
  5
16B
330
1F
100
AcDbEntity
  8
1
  6
Continuous
 62
     4
100
AcDbLine
 10
407.021316990811
 20
149.659030197323
 30
0.0
 11
406.646316990811
 21
149.159030197323
 31
0.0
  0
LINE
  5
16C
330
1F
100
AcDbEntity
  8
1
  6
Continuous
 62
     4
100
AcDbLine
 10
407.146316990811
 20
150.159030197323
 30
0.0
 11
407.021316990811
 21
149.659030197323
 31
0.0
  0
LINE
  5
16D
330
1F
100
AcDbEntity
  8
1
  6
Continuous
 62
     4
100
AcDbLine
 10
407.271316990811
 20
150.784030197323
 30
0.0
 11
407.146316990811
 21
150.159030197323
 31
0.0
  0
LINE
  5
16E
330
1F
100
AcDbEntity
  8
1
  6
Continuous
 62
     4
100
AcDbLine
 10
407.271316990811
 20
151.659030197323
 30
0.0
 11
407.271316990811
 21
150.784030197323
 31
0.0
  0
LINE
  5
16F
330
1F
100
AcDbEntity
  8
1
  6
Continuous
 62
     4
100
AcDbLine
 10
407.146316990811
 20
152.159030197323
 30
0.0
 11
407.271316990811
 21
151.659030197323
 31
0.0
  0
LINE
  5
170
330
1F
100
AcDbEntity
  8
1
  6
Continuous
 62
     4
100
AcDbLine
 10
406.896316990811
 20
152.534030197323
 30
0.0
 11
407.146316990811
 21
152.159030197323
 31
0.0
  0
LINE
  5
171
330
1F
100
AcDbEntity
  8
1
  6
Continuous
 62
     4
100
AcDbLine
 10
406.521316990811
 20
152.784030197323
 30
0.0
 11
406.896316990811
 21
152.534030197323
 31
0.0
  0
LINE
  5
172
330
1F
100
AcDbEntity
  8
1
  6
Continuous
 62
     4
100
AcDbLine
 10
406.146316990811
 20
152.909030197323
 30
0.0
 11
406.521316990811
 21
152.784030197323
 31
0.0
  0
LINE
  5
173
330
1F
100
AcDbEntity
  8
1
  6
Continuous
 62
     4
100
AcDbLine
 10
405.396316990811
 20
152.909030197323
 30
0.0
 11
406.146316990811
 21
152.909030197323
 31
0.0
  0
LINE
  5
174
330
1F
100
AcDbEntity
  8
1
  6
Continuous
 62
     4
100
AcDbLine
 10
405.021316990811
 20
152.784030197323
 30
0.0
 11
405.396316990811
 21
152.909030197323
 31
0.0
  0
LINE
  5
175
330
1F
100
AcDbEntity
  8
1
  6
Continuous
 62
     4
100
AcDbLine
 10
404.646316990811
 20
152.534030197323
 30
0.0
 11
405.021316990811
 21
152.784030197323
 31
0.0
  0
LINE
  5
176
330
1F
100
AcDbEntity
  8
1
  6
Continuous
 62
     4
100
AcDbLine
 10
404.396316990811
 20
152.159030197323
 30
0.0
 11
404.646316990811
 21
152.534030197323
 31
0.0
  0
LINE
  5
177
330
1F
100
AcDbEntity
  8
1
  6
Continuous
 62
     4
100
AcDbLine
 10
404.271316990811
 20
151.659030197323
 30
0.0
 11
404.396316990811
 21
152.159030197323
 31
0.0
  0
LINE
  5
178
330
1F
100
AcDbEntity
  8
1
  6
Continuous
 62
     4
100
AcDbLine
 10
404.271316990811
 20
151.409030197323
 30
0.0
 11
404.271316990811
 21
151.659030197323
 31
0.0
  0
LINE
  5
179
330
1F
100
AcDbEntity
  8
1
  6
Continuous
 62
     4
100
AcDbLine
 10
404.396316990811
 20
150.909030197323
 30
0.0
 11
404.271316990811
 21
151.409030197323
 31
0.0
  0
LINE
  5
17A
330
1F
100
AcDbEntity
  8
1
  6
Continuous
 62
     4
100
AcDbLine
 10
404.646316990811
 20
150.534030197323
 30
0.0
 11
404.396316990811
 21
150.909030197323
 31
0.0
  0
LINE
  5
17B
330
1F
100
AcDbEntity
  8
1
  6
Continuous
 62
     4
100
AcDbLine
 10
405.021316990811
 20
150.284030197323
 30
0.0
 11
404.646316990811
 21
150.534030197323
 31
0.0
  0
LINE
  5
17C
330
1F
100
AcDbEntity
  8
1
  6
Continuous
 62
     4
100
AcDbLine
 10
405.396316990811
 20
150.159030197323
 30
0.0
 11
405.021316990811
 21
150.284030197323
 31
0.0
  0
LINE
  5
17D
330
1F
100
AcDbEntity
  8
1
  6
Continuous
 62
     4
100
AcDbLine
 10
407.146316990811
 20
150.159030197323
 30
0.0
 11
405.396316990811
 21
150.159030197323
 31
0.0
  0
LINE
  5
17E
330
1F
100
AcDbEntity
  8
1
  6
Continuous
 62
     4
100
AcDbLine
 10
401.271316990811
 20
148.409030197323
 30
0.0
 11
400.146316990811
 21
147.909030197323
 31
0.0
  0
LINE
  5
17F
330
1F
100
AcDbEntity
  8
1
  6
Continuous
 62
     4
100
AcDbLine
 10
402.146316990811
 20
149.159030197323
 30
0.0
 11
401.271316990811
 21
148.409030197323
 31
0.0
  0
LINE
  5
180
330
1F
100
AcDbEntity
  8
1
  6
Continuous
 62
     4
100
AcDbLine
 10
402.521316990811
 20
149.659030197323
 30
0.0
 11
402.146316990811
 21
149.159030197323
 31
0.0
  0
LINE
  5
181
330
1F
100
AcDbEntity
  8
1
  6
Continuous
 62
     4
100
AcDbLine
 10
402.646316990811
 20
150.159030197323
 30
0.0
 11
402.521316990811
 21
149.659030197323
 31
0.0
  0
LINE
  5
182
330
1F
100
AcDbEntity
  8
1
  6
Continuous
 62
     4
100
AcDbLine
 10
402.771316990811
 20
150.784030197323
 30
0.0
 11
402.646316990811
 21
150.159030197323
 31
0.0
  0
LINE
  5
183
330
1F
100
AcDbEntity
  8
1
  6
Continuous
 62
     4
100
AcDbLine
 10
402.771316990811
 20
151.659030197323
 30
0.0
 11
402.771316990811
 21
150.784030197323
 31
0.0
  0
LINE
  5
184
330
1F
100
AcDbEntity
  8
1
  6
Continuous
 62
     4
100
AcDbLine
 10
402.646316990811
 20
152.159030197323
 30
0.0
 11
402.771316990811
 21
151.659030197323
 31
0.0
  0
LINE
  5
185
330
1F
100
AcDbEntity
  8
1
  6
Continuous
 62
     4
100
AcDbLine
 10
402.396316990811
 20
152.534030197323
 30
0.0
 11
402.646316990811
 21
152.159030197323
 31
0.0
  0
LINE
  5
186
330
1F
100
AcDbEntity
  8
1
  6
Continuous
 62
     4
100
AcDbLine
 10
402.021316990811
 20
152.784030197323
 30
0.0
 11
402.396316990811
 21
152.534030197323
 31
0.0
  0
LINE
  5
187
330
1F
100
AcDbEntity
  8
1
  6
Continuous
 62
     4
100
AcDbLine
 10
401.646316990811
 20
152.909030197323
 30
0.0
 11
402.021316990811
 21
152.784030197323
 31
0.0
  0
LINE
  5
188
330
1F
100
AcDbEntity
  8
1
  6
Continuous
 62
     4
100
AcDbLine
 10
400.896316990811
 20
152.909030197323
 30
0.0
 11
401.646316990811
 21
152.909030197323
 31
0.0
  0
LINE
  5
189
330
1F
100
AcDbEntity
  8
1
  6
Continuous
 62
     4
100
AcDbLine
 10
400.521316990811
 20
152.784030197323
 30
0.0
 11
400.896316990811
 21
152.909030197323
 31
0.0
  0
LINE
  5
18A
330
1F
100
AcDbEntity
  8
1
  6
Continuous
 62
     4
100
AcDbLine
 10
400.146316990811
 20
152.534030197323
 30
0.0
 11
400.521316990811
 21
152.784030197323
 31
0.0
  0
LINE
  5
18B
330
1F
100
AcDbEntity
  8
1
  6
Continuous
 62
     4
100
AcDbLine
 10
399.896316990811
 20
152.159030197323
 30
0.0
 11
400.146316990811
 21
152.534030197323
 31
0.0
  0
LINE
  5
18C
330
1F
100
AcDbEntity
  8
1
  6
Continuous
 62
     4
100
AcDbLine
 10
399.771316990811
 20
151.659030197323
 30
0.0
 11
399.896316990811
 21
152.159030197323
 31
0.0
  0
LINE
  5
18D
330
1F
100
AcDbEntity
  8
1
  6
Continuous
 62
     4
100
AcDbLine
 10
399.771316990811
 20
151.409030197323
 30
0.0
 11
399.771316990811
 21
151.659030197323
 31
0.0
  0
LINE
  5
18E
330
1F
100
AcDbEntity
  8
1
  6
Continuous
 62
     4
100
AcDbLine
 10
399.896316990811
 20
150.909030197323
 30
0.0
 11
399.771316990811
 21
151.409030197323
 31
0.0
  0
LINE
  5
18F
330
1F
100
AcDbEntity
  8
1
  6
Continuous
 62
     4
100
AcDbLine
 10
400.146316990811
 20
150.534030197323
 30
0.0
 11
399.896316990811
 21
150.909030197323
 31
0.0
  0
LINE
  5
190
330
1F
100
AcDbEntity
  8
1
  6
Continuous
 62
     4
100
AcDbLine
 10
400.521316990811
 20
150.284030197323
 30
0.0
 11
400.146316990811
 21
150.534030197323
 31
0.0
  0
LINE
  5
191
330
1F
100
AcDbEntity
  8
1
  6
Continuous
 62
     4
100
AcDbLine
 10
400.896316990811
 20
150.159030197323
 30
0.0
 11
400.521316990811
 21
150.284030197323
 31
0.0
  0
LINE
  5
192
330
1F
100
AcDbEntity
  8
1
  6
Continuous
 62
     4
100
AcDbLine
 10
402.646316990811
 20
150.159030197323
 30
0.0
 11
400.896316990811
 21
150.159030197323
 31
0.0
  0
LINE
  5
193
330
1F
100
AcDbEntity
  8
1
  6
Continuous
 62
     4
100
AcDbLine
 10
398.271316990811
 20
152.909030197323
 30
0.0
 11
395.771316990811
 21
147.909030197323
 31
0.0
  0
LINE
  5
194
330
1F
100
AcDbEntity
  8
1
  6
Continuous
 62
     4
100
AcDbLine
 10
395.271316990811
 20
152.909030197323
 30
0.0
 11
398.271316990811
 21
152.909030197323
 31
0.0
  0
LINE
  5
195
330
1F
100
AcDbEntity
  8
1
  6
Continuous
 62
     4
100
AcDbLine
 10
395.271316990811
 20
152.409030197323
 30
0.0
 11
395.271316990811
 21
152.909030197323
 31
0.0
  0
LINE
  5
196
330
1F
100
AcDbEntity
  8
1
  6
Continuous
 62
     4
100
AcDbLine
 10
376.271316990811
 20
152.534030197323
 30
0.0
 11
376.646316990811
 21
152.784030197323
 31
0.0
  0
LINE
  5
197
330
1F
100
AcDbEntity
  8
1
  6
Continuous
 62
     4
100
AcDbLine
 10
376.021316990811
 20
152.159030197323
 30
0.0
 11
376.271316990811
 21
152.534030197323
 31
0.0
  0
LINE
  5
198
330
1F
100
AcDbEntity
  8
1
  6
Continuous
 62
     4
100
AcDbLine
 10
376.021316990811
 20
151.659030197323
 30
0.0
 11
376.021316990811
 21
152.159030197323
 31
0.0
  0
LINE
  5
199
330
1F
100
AcDbEntity
  8
1
  6
Continuous
 62
     4
100
AcDbLine
 10
376.271316990811
 20
151.284030197323
 30
0.0
 11
376.021316990811
 21
151.659030197323
 31
0.0
  0
LINE
  5
19A
330
1F
100
AcDbEntity
  8
1
  6
Continuous
 62
     4
100
AcDbLine
 10
376.646316990811
 20
151.034030197323
 30
0.0
 11
376.271316990811
 21
151.284030197323
 31
0.0
  0
LINE
  5
19B
330
1F
100
AcDbEntity
  8
1
  6
Continuous
 62
     4
100
AcDbLine
 10
377.021316990811
 20
150.909030197323
 30
0.0
 11
376.646316990811
 21
151.034030197323
 31
0.0
  0
LINE
  5
19C
330
1F
100
AcDbEntity
  8
1
  6
Continuous
 62
     4
100
AcDbLine
 10
377.521316990811
 20
150.909030197323
 30
0.0
 11
377.021316990811
 21
150.909030197323
 31
0.0
  0
LINE
  5
19D
330
1F
100
AcDbEntity
  8
1
  6
Continuous
 62
     4
100
AcDbLine
 10
377.896316990811
 20
151.034030197323
 30
0.0
 11
377.521316990811
 21
150.909030197323
 31
0.0
  0
LINE
  5
19E
330
1F
100
AcDbEntity
  8
1
  6
Continuous
 62
     4
100
AcDbLine
 10
378.271316990811
 20
151.284030197323
 30
0.0
 11
377.896316990811
 21
151.034030197323
 31
0.0
  0
LINE
  5
19F
330
1F
100
AcDbEntity
  8
1
  6
Continuous
 62
     4
100
AcDbLine
 10
378.521316990811
 20
151.659030197323
 30
0.0
 11
378.271316990811
 21
151.284030197323
 31
0.0
  0
LINE
  5
1A0
330
1F
100
AcDbEntity
  8
1
  6
Continuous
 62
     4
100
AcDbLine
 10
378.521316990811
 20
152.159030197323
 30
0.0
 11
378.521316990811
 21
151.659030197323
 31
0.0
  0
LINE
  5
1A1
330
1F
100
AcDbEntity
  8
1
  6
Continuous
 62
     4
100
AcDbLine
 10
378.271316990811
 20
152.534030197323
 30
0.0
 11
378.521316990811
 21
152.159030197323
 31
0.0
  0
LINE
  5
1A2
330
1F
100
AcDbEntity
  8
1
  6
Continuous
 62
     4
100
AcDbLine
 10
377.896316990811
 20
152.784030197323
 30
0.0
 11
378.271316990811
 21
152.534030197323
 31
0.0
  0
LINE
  5
1A3
330
1F
100
AcDbEntity
  8
1
  6
Continuous
 62
     4
100
AcDbLine
 10
377.521316990811
 20
152.909030197323
 30
0.0
 11
377.896316990811
 21
152.784030197323
 31
0.0
  0
LINE
  5
1A4
330
1F
100
AcDbEntity
  8
1
  6
Continuous
 62
     4
100
AcDbLine
 10
377.021316990811
 20
152.909030197323
 30
0.0
 11
377.521316990811
 21
152.909030197323
 31
0.0
  0
LINE
  5
1A5
330
1F
100
AcDbEntity
  8
1
  6
Continuous
 62
     4
100
AcDbLine
 10
376.646316990811
 20
152.784030197323
 30
0.0
 11
377.021316990811
 21
152.909030197323
 31
0.0
  0
LINE
  5
1A6
330
1F
100
AcDbEntity
  8
1
  6
Continuous
 62
     4
100
AcDbLine
 10
378.146316990811
 20
150.659030197323
 30
0.0
 11
377.521316990811
 21
150.909030197323
 31
0.0
  0
LINE
  5
1A7
330
1F
100
AcDbEntity
  8
1
  6
Continuous
 62
     4
100
AcDbLine
 10
378.521316990811
 20
150.284030197323
 30
0.0
 11
378.146316990811
 21
150.659030197323
 31
0.0
  0
LINE
  5
1A8
330
1F
100
AcDbEntity
  8
1
  6
Continuous
 62
     4
100
AcDbLine
 10
378.771316990811
 20
149.784030197323
 30
0.0
 11
378.521316990811
 21
150.284030197323
 31
0.0
  0
LINE
  5
1A9
330
1F
100
AcDbEntity
  8
1
  6
Continuous
 62
     4
100
AcDbLine
 10
378.771316990811
 20
149.034030197323
 30
0.0
 11
378.771316990811
 21
149.784030197323
 31
0.0
  0
LINE
  5
1AA
330
1F
100
AcDbEntity
  8
1
  6
Continuous
 62
     4
100
AcDbLine
 10
378.521316990811
 20
148.534030197323
 30
0.0
 11
378.771316990811
 21
149.034030197323
 31
0.0
  0
LINE
  5
1AB
330
1F
100
AcDbEntity
  8
1
  6
Continuous
 62
     4
100
AcDbLine
 10
378.146316990811
 20
148.159030197323
 30
0.0
 11
378.521316990811
 21
148.534030197323
 31
0.0
  0
LINE
  5
1AC
330
1F
100
AcDbEntity
  8
1
  6
Continuous
 62
     4
100
AcDbLine
 10
377.646316990811
 20
147.909030197323
 30
0.0
 11
378.146316990811
 21
148.159030197323
 31
0.0
  0
LINE
  5
1AD
330
1F
100
AcDbEntity
  8
1
  6
Continuous
 62
     4
100
AcDbLine
 10
376.896316990811
 20
147.909030197323
 30
0.0
 11
377.646316990811
 21
147.909030197323
 31
0.0
  0
LINE
  5
1AE
330
1F
100
AcDbEntity
  8
1
  6
Continuous
 62
     4
100
AcDbLine
 10
376.396316990811
 20
148.159030197323
 30
0.0
 11
376.896316990811
 21
147.909030197323
 31
0.0
  0
LINE
  5
1AF
330
1F
100
AcDbEntity
  8
1
  6
Continuous
 62
     4
100
AcDbLine
 10
376.021316990811
 20
148.534030197323
 30
0.0
 11
376.396316990811
 21
148.159030197323
 31
0.0
  0
LINE
  5
1B0
330
1F
100
AcDbEntity
  8
1
  6
Continuous
 62
     4
100
AcDbLine
 10
375.771316990811
 20
149.034030197323
 30
0.0
 11
376.021316990811
 21
148.534030197323
 31
0.0
  0
LINE
  5
1B1
330
1F
100
AcDbEntity
  8
1
  6
Continuous
 62
     4
100
AcDbLine
 10
375.771316990811
 20
149.784030197323
 30
0.0
 11
375.771316990811
 21
149.034030197323
 31
0.0
  0
LINE
  5
1B2
330
1F
100
AcDbEntity
  8
1
  6
Continuous
 62
     4
100
AcDbLine
 10
376.021316990811
 20
150.284030197323
 30
0.0
 11
375.771316990811
 21
149.784030197323
 31
0.0
  0
LINE
  5
1B3
330
1F
100
AcDbEntity
  8
1
  6
Continuous
 62
     4
100
AcDbLine
 10
376.396316990811
 20
150.659030197323
 30
0.0
 11
376.021316990811
 21
150.284030197323
 31
0.0
  0
LINE
  5
1B4
330
1F
100
AcDbEntity
  8
1
  6
Continuous
 62
     4
100
AcDbLine
 10
377.021316990811
 20
150.909030197323
 30
0.0
 11
376.396316990811
 21
150.659030197323
 31
0.0
  0
LINE
  5
1B5
330
1F
100
AcDbEntity
  8
1
  6
Continuous
 62
     4
100
AcDbLine
 10
374.396316990811
 20
148.159030197323
 30
0.0
 11
374.396316990811
 21
148.034030197323
 31
0.0
  0
LINE
  5
1B6
330
1F
100
AcDbEntity
  8
1
  6
Continuous
 62
     4
100
AcDbLine
 10
374.271316990811
 20
148.159030197323
 30
0.0
 11
374.396316990811
 21
148.159030197323
 31
0.0
  0
LINE
  5
1B7
330
1F
100
AcDbEntity
  8
1
  6
Continuous
 62
     4
100
AcDbLine
 10
374.271316990811
 20
148.034030197323
 30
0.0
 11
374.271316990811
 21
148.159030197323
 31
0.0
  0
LINE
  5
1B8
330
1F
100
AcDbEntity
  8
1
  6
Continuous
 62
     4
100
AcDbLine
 10
374.396316990811
 20
148.034030197323
 30
0.0
 11
374.271316990811
 21
148.034030197323
 31
0.0
  0
LINE
  5
1B9
330
1F
100
AcDbEntity
  8
1
  6
Continuous
 62
     4
100
AcDbLine
 10
374.521316990811
 20
148.284030197323
 30
0.0
 11
374.521316990811
 21
147.909030197323
 31
0.0
  0
LINE
  5
1BA
330
1F
100
AcDbEntity
  8
1
  6
Continuous
 62
     4
100
AcDbLine
 10
374.146316990811
 20
148.284030197323
 30
0.0
 11
374.521316990811
 21
148.284030197323
 31
0.0
  0
LINE
  5
1BB
330
1F
100
AcDbEntity
  8
1
  6
Continuous
 62
     4
100
AcDbLine
 10
374.146316990811
 20
147.909030197323
 30
0.0
 11
374.146316990811
 21
148.284030197323
 31
0.0
  0
LINE
  5
1BC
330
1F
100
AcDbEntity
  8
1
  6
Continuous
 62
     4
100
AcDbLine
 10
374.521316990811
 20
147.909030197323
 30
0.0
 11
374.146316990811
 21
147.909030197323
 31
0.0
  0
LINE
  5
1BD
330
1F
100
AcDbEntity
  8
1
  6
Continuous
 62
     4
100
AcDbLine
 10
372.646316990811
 20
151.034030197323
 30
0.0
 11
372.646316990811
 21
149.784030197323
 31
0.0
  0
LINE
  5
1BE
330
1F
100
AcDbEntity
  8
1
  6
Continuous
 62
     4
100
AcDbLine
 10
372.521316990811
 20
151.784030197323
 30
0.0
 11
372.646316990811
 21
151.034030197323
 31
0.0
  0
LINE
  5
1BF
330
1F
100
AcDbEntity
  8
1
  6
Continuous
 62
     4
100
AcDbLine
 10
372.271316990811
 20
152.284030197323
 30
0.0
 11
372.521316990811
 21
151.784030197323
 31
0.0
  0
LINE
  5
1C0
330
1F
100
AcDbEntity
  8
1
  6
Continuous
 62
     4
100
AcDbLine
 10
372.021316990811
 20
152.534030197323
 30
0.0
 11
372.271316990811
 21
152.284030197323
 31
0.0
  0
LINE
  5
1C1
330
1F
100
AcDbEntity
  8
1
  6
Continuous
 62
     4
100
AcDbLine
 10
371.646316990811
 20
152.784030197323
 30
0.0
 11
372.021316990811
 21
152.534030197323
 31
0.0
  0
LINE
  5
1C2
330
1F
100
AcDbEntity
  8
1
  6
Continuous
 62
     4
100
AcDbLine
 10
371.271316990811
 20
152.909030197323
 30
0.0
 11
371.646316990811
 21
152.784030197323
 31
0.0
  0
LINE
  5
1C3
330
1F
100
AcDbEntity
  8
1
  6
Continuous
 62
     4
100
AcDbLine
 10
371.021316990811
 20
152.909030197323
 30
0.0
 11
371.271316990811
 21
152.909030197323
 31
0.0
  0
LINE
  5
1C4
330
1F
100
AcDbEntity
  8
1
  6
Continuous
 62
     4
100
AcDbLine
 10
370.646316990811
 20
152.784030197323
 30
0.0
 11
371.021316990811
 21
152.909030197323
 31
0.0
  0
LINE
  5
1C5
330
1F
100
AcDbEntity
  8
1
  6
Continuous
 62
     4
100
AcDbLine
 10
370.271316990811
 20
152.534030197323
 30
0.0
 11
370.646316990811
 21
152.784030197323
 31
0.0
  0
LINE
  5
1C6
330
1F
100
AcDbEntity
  8
1
  6
Continuous
 62
     4
100
AcDbLine
 10
370.021316990811
 20
152.284030197323
 30
0.0
 11
370.271316990811
 21
152.534030197323
 31
0.0
  0
LINE
  5
1C7
330
1F
100
AcDbEntity
  8
1
  6
Continuous
 62
     4
100
AcDbLine
 10
369.771316990811
 20
151.784030197323
 30
0.0
 11
370.021316990811
 21
152.284030197323
 31
0.0
  0
LINE
  5
1C8
330
1F
100
AcDbEntity
  8
1
  6
Continuous
 62
     4
100
AcDbLine
 10
369.646316990811
 20
151.034030197323
 30
0.0
 11
369.771316990811
 21
151.784030197323
 31
0.0
  0
LINE
  5
1C9
330
1F
100
AcDbEntity
  8
1
  6
Continuous
 62
     4
100
AcDbLine
 10
369.646316990811
 20
149.784030197323
 30
0.0
 11
369.646316990811
 21
151.034030197323
 31
0.0
  0
LINE
  5
1CA
330
1F
100
AcDbEntity
  8
1
  6
Continuous
 62
     4
100
AcDbLine
 10
369.771316990811
 20
149.034030197323
 30
0.0
 11
369.646316990811
 21
149.784030197323
 31
0.0
  0
LINE
  5
1CB
330
1F
100
AcDbEntity
  8
1
  6
Continuous
 62
     4
100
AcDbLine
 10
370.021316990811
 20
148.534030197323
 30
0.0
 11
369.771316990811
 21
149.034030197323
 31
0.0
  0
LINE
  5
1CC
330
1F
100
AcDbEntity
  8
1
  6
Continuous
 62
     4
100
AcDbLine
 10
370.271316990811
 20
148.284030197323
 30
0.0
 11
370.021316990811
 21
148.534030197323
 31
0.0
  0
LINE
  5
1CD
330
1F
100
AcDbEntity
  8
1
  6
Continuous
 62
     4
100
AcDbLine
 10
370.646316990811
 20
148.034030197323
 30
0.0
 11
370.271316990811
 21
148.284030197323
 31
0.0
  0
LINE
  5
1CE
330
1F
100
AcDbEntity
  8
1
  6
Continuous
 62
     4
100
AcDbLine
 10
371.021316990811
 20
147.909030197323
 30
0.0
 11
370.646316990811
 21
148.034030197323
 31
0.0
  0
LINE
  5
1CF
330
1F
100
AcDbEntity
  8
1
  6
Continuous
 62
     4
100
AcDbLine
 10
371.271316990811
 20
147.909030197323
 30
0.0
 11
371.021316990811
 21
147.909030197323
 31
0.0
  0
LINE
  5
1D0
330
1F
100
AcDbEntity
  8
1
  6
Continuous
 62
     4
100
AcDbLine
 10
371.646316990811
 20
148.034030197323
 30
0.0
 11
371.271316990811
 21
147.909030197323
 31
0.0
  0
LINE
  5
1D1
330
1F
100
AcDbEntity
  8
1
  6
Continuous
 62
     4
100
AcDbLine
 10
372.021316990811
 20
148.284030197323
 30
0.0
 11
371.646316990811
 21
148.034030197323
 31
0.0
  0
LINE
  5
1D2
330
1F
100
AcDbEntity
  8
1
  6
Continuous
 62
     4
100
AcDbLine
 10
372.271316990811
 20
148.534030197323
 30
0.0
 11
372.021316990811
 21
148.284030197323
 31
0.0
  0
LINE
  5
1D3
330
1F
100
AcDbEntity
  8
1
  6
Continuous
 62
     4
100
AcDbLine
 10
372.521316990811
 20
149.034030197323
 30
0.0
 11
372.271316990811
 21
148.534030197323
 31
0.0
  0
LINE
  5
1D4
330
1F
100
AcDbEntity
  8
1
  6
Continuous
 62
     4
100
AcDbLine
 10
372.646316990811
 20
149.784030197323
 30
0.0
 11
372.521316990811
 21
149.034030197323
 31
0.0
  0
LINE
  5
1D5
330
1F
100
AcDbEntity
  8
1
  6
Continuous
 62
     4
100
AcDbLine
 10
405.771316990811
 20
156.739030197323
 30
0.0
 11
404.646316990811
 21
156.239030197323
 31
0.0
  0
LINE
  5
1D6
330
1F
100
AcDbEntity
  8
1
  6
Continuous
 62
     4
100
AcDbLine
 10
406.646316990811
 20
157.489030197323
 30
0.0
 11
405.771316990811
 21
156.739030197323
 31
0.0
  0
LINE
  5
1D7
330
1F
100
AcDbEntity
  8
1
  6
Continuous
 62
     4
100
AcDbLine
 10
407.021316990811
 20
157.989030197323
 30
0.0
 11
406.646316990811
 21
157.489030197323
 31
0.0
  0
LINE
  5
1D8
330
1F
100
AcDbEntity
  8
1
  6
Continuous
 62
     4
100
AcDbLine
 10
407.146316990811
 20
158.489030197323
 30
0.0
 11
407.021316990811
 21
157.989030197323
 31
0.0
  0
LINE
  5
1D9
330
1F
100
AcDbEntity
  8
1
  6
Continuous
 62
     4
100
AcDbLine
 10
407.271316990811
 20
159.114030197323
 30
0.0
 11
407.146316990811
 21
158.489030197323
 31
0.0
  0
LINE
  5
1DA
330
1F
100
AcDbEntity
  8
1
  6
Continuous
 62
     4
100
AcDbLine
 10
407.271316990811
 20
159.989030197323
 30
0.0
 11
407.271316990811
 21
159.114030197323
 31
0.0
  0
LINE
  5
1DB
330
1F
100
AcDbEntity
  8
1
  6
Continuous
 62
     4
100
AcDbLine
 10
407.146316990811
 20
160.489030197323
 30
0.0
 11
407.271316990811
 21
159.989030197323
 31
0.0
  0
LINE
  5
1DC
330
1F
100
AcDbEntity
  8
1
  6
Continuous
 62
     4
100
AcDbLine
 10
406.896316990811
 20
160.864030197323
 30
0.0
 11
407.146316990811
 21
160.489030197323
 31
0.0
  0
LINE
  5
1DD
330
1F
100
AcDbEntity
  8
1
  6
Continuous
 62
     4
100
AcDbLine
 10
406.521316990811
 20
161.114030197323
 30
0.0
 11
406.896316990811
 21
160.864030197323
 31
0.0
  0
LINE
  5
1DE
330
1F
100
AcDbEntity
  8
1
  6
Continuous
 62
     4
100
AcDbLine
 10
406.146316990811
 20
161.239030197323
 30
0.0
 11
406.521316990811
 21
161.114030197323
 31
0.0
  0
LINE
  5
1DF
330
1F
100
AcDbEntity
  8
1
  6
Continuous
 62
     4
100
AcDbLine
 10
405.396316990811
 20
161.239030197323
 30
0.0
 11
406.146316990811
 21
161.239030197323
 31
0.0
  0
LINE
  5
1E0
330
1F
100
AcDbEntity
  8
1
  6
Continuous
 62
     4
100
AcDbLine
 10
405.021316990811
 20
161.114030197323
 30
0.0
 11
405.396316990811
 21
161.239030197323
 31
0.0
  0
LINE
  5
1E1
330
1F
100
AcDbEntity
  8
1
  6
Continuous
 62
     4
100
AcDbLine
 10
404.646316990811
 20
160.864030197323
 30
0.0
 11
405.021316990811
 21
161.114030197323
 31
0.0
  0
LINE
  5
1E2
330
1F
100
AcDbEntity
  8
1
  6
Continuous
 62
     4
100
AcDbLine
 10
404.396316990811
 20
160.489030197323
 30
0.0
 11
404.646316990811
 21
160.864030197323
 31
0.0
  0
LINE
  5
1E3
330
1F
100
AcDbEntity
  8
1
  6
Continuous
 62
     4
100
AcDbLine
 10
404.271316990811
 20
159.989030197323
 30
0.0
 11
404.396316990811
 21
160.489030197323
 31
0.0
  0
LINE
  5
1E4
330
1F
100
AcDbEntity
  8
1
  6
Continuous
 62
     4
100
AcDbLine
 10
404.271316990811
 20
159.739030197323
 30
0.0
 11
404.271316990811
 21
159.989030197323
 31
0.0
  0
LINE
  5
1E5
330
1F
100
AcDbEntity
  8
1
  6
Continuous
 62
     4
100
AcDbLine
 10
404.396316990811
 20
159.239030197323
 30
0.0
 11
404.271316990811
 21
159.739030197323
 31
0.0
  0
LINE
  5
1E6
330
1F
100
AcDbEntity
  8
1
  6
Continuous
 62
     4
100
AcDbLine
 10
404.646316990811
 20
158.864030197323
 30
0.0
 11
404.396316990811
 21
159.239030197323
 31
0.0
  0
LINE
  5
1E7
330
1F
100
AcDbEntity
  8
1
  6
Continuous
 62
     4
100
AcDbLine
 10
405.021316990811
 20
158.614030197323
 30
0.0
 11
404.646316990811
 21
158.864030197323
 31
0.0
  0
LINE
  5
1E8
330
1F
100
AcDbEntity
  8
1
  6
Continuous
 62
     4
100
AcDbLine
 10
405.396316990811
 20
158.489030197323
 30
0.0
 11
405.021316990811
 21
158.614030197323
 31
0.0
  0
LINE
  5
1E9
330
1F
100
AcDbEntity
  8
1
  6
Continuous
 62
     4
100
AcDbLine
 10
407.146316990811
 20
158.489030197323
 30
0.0
 11
405.396316990811
 21
158.489030197323
 31
0.0
  0
LINE
  5
1EA
330
1F
100
AcDbEntity
  8
1
  6
Continuous
 62
     4
100
AcDbLine
 10
401.271316990811
 20
156.739030197323
 30
0.0
 11
400.146316990811
 21
156.239030197323
 31
0.0
  0
LINE
  5
1EB
330
1F
100
AcDbEntity
  8
1
  6
Continuous
 62
     4
100
AcDbLine
 10
402.146316990811
 20
157.489030197323
 30
0.0
 11
401.271316990811
 21
156.739030197323
 31
0.0
  0
LINE
  5
1EC
330
1F
100
AcDbEntity
  8
1
  6
Continuous
 62
     4
100
AcDbLine
 10
402.521316990811
 20
157.989030197323
 30
0.0
 11
402.146316990811
 21
157.489030197323
 31
0.0
  0
LINE
  5
1ED
330
1F
100
AcDbEntity
  8
1
  6
Continuous
 62
     4
100
AcDbLine
 10
402.646316990811
 20
158.489030197323
 30
0.0
 11
402.521316990811
 21
157.989030197323
 31
0.0
  0
LINE
  5
1EE
330
1F
100
AcDbEntity
  8
1
  6
Continuous
 62
     4
100
AcDbLine
 10
402.771316990811
 20
159.114030197323
 30
0.0
 11
402.646316990811
 21
158.489030197323
 31
0.0
  0
LINE
  5
1EF
330
1F
100
AcDbEntity
  8
1
  6
Continuous
 62
     4
100
AcDbLine
 10
402.771316990811
 20
159.989030197323
 30
0.0
 11
402.771316990811
 21
159.114030197323
 31
0.0
  0
LINE
  5
1F0
330
1F
100
AcDbEntity
  8
1
  6
Continuous
 62
     4
100
AcDbLine
 10
402.646316990811
 20
160.489030197323
 30
0.0
 11
402.771316990811
 21
159.989030197323
 31
0.0
  0
LINE
  5
1F1
330
1F
100
AcDbEntity
  8
1
  6
Continuous
 62
     4
100
AcDbLine
 10
402.396316990811
 20
160.864030197323
 30
0.0
 11
402.646316990811
 21
160.489030197323
 31
0.0
  0
LINE
  5
1F2
330
1F
100
AcDbEntity
  8
1
  6
Continuous
 62
     4
100
AcDbLine
 10
402.021316990811
 20
161.114030197323
 30
0.0
 11
402.396316990811
 21
160.864030197323
 31
0.0
  0
LINE
  5
1F3
330
1F
100
AcDbEntity
  8
1
  6
Continuous
 62
     4
100
AcDbLine
 10
401.646316990811
 20
161.239030197323
 30
0.0
 11
402.021316990811
 21
161.114030197323
 31
0.0
  0
LINE
  5
1F4
330
1F
100
AcDbEntity
  8
1
  6
Continuous
 62
     4
100
AcDbLine
 10
400.896316990811
 20
161.239030197323
 30
0.0
 11
401.646316990811
 21
161.239030197323
 31
0.0
  0
LINE
  5
1F5
330
1F
100
AcDbEntity
  8
1
  6
Continuous
 62
     4
100
AcDbLine
 10
400.521316990811
 20
161.114030197323
 30
0.0
 11
400.896316990811
 21
161.239030197323
 31
0.0
  0
LINE
  5
1F6
330
1F
100
AcDbEntity
  8
1
  6
Continuous
 62
     4
100
AcDbLine
 10
400.146316990811
 20
160.864030197323
 30
0.0
 11
400.521316990811
 21
161.114030197323
 31
0.0
  0
LINE
  5
1F7
330
1F
100
AcDbEntity
  8
1
  6
Continuous
 62
     4
100
AcDbLine
 10
399.896316990811
 20
160.489030197323
 30
0.0
 11
400.146316990811
 21
160.864030197323
 31
0.0
  0
LINE
  5
1F8
330
1F
100
AcDbEntity
  8
1
  6
Continuous
 62
     4
100
AcDbLine
 10
399.771316990811
 20
159.989030197323
 30
0.0
 11
399.896316990811
 21
160.489030197323
 31
0.0
  0
LINE
  5
1F9
330
1F
100
AcDbEntity
  8
1
  6
Continuous
 62
     4
100
AcDbLine
 10
399.771316990811
 20
159.739030197323
 30
0.0
 11
399.771316990811
 21
159.989030197323
 31
0.0
  0
LINE
  5
1FA
330
1F
100
AcDbEntity
  8
1
  6
Continuous
 62
     4
100
AcDbLine
 10
399.896316990811
 20
159.239030197323
 30
0.0
 11
399.771316990811
 21
159.739030197323
 31
0.0
  0
LINE
  5
1FB
330
1F
100
AcDbEntity
  8
1
  6
Continuous
 62
     4
100
AcDbLine
 10
400.146316990811
 20
158.864030197323
 30
0.0
 11
399.896316990811
 21
159.239030197323
 31
0.0
  0
LINE
  5
1FC
330
1F
100
AcDbEntity
  8
1
  6
Continuous
 62
     4
100
AcDbLine
 10
400.521316990811
 20
158.614030197323
 30
0.0
 11
400.146316990811
 21
158.864030197323
 31
0.0
  0
LINE
  5
1FD
330
1F
100
AcDbEntity
  8
1
  6
Continuous
 62
     4
100
AcDbLine
 10
400.896316990811
 20
158.489030197323
 30
0.0
 11
400.521316990811
 21
158.614030197323
 31
0.0
  0
LINE
  5
1FE
330
1F
100
AcDbEntity
  8
1
  6
Continuous
 62
     4
100
AcDbLine
 10
402.646316990811
 20
158.489030197323
 30
0.0
 11
400.896316990811
 21
158.489030197323
 31
0.0
  0
LINE
  5
1FF
330
1F
100
AcDbEntity
  8
1
  6
Continuous
 62
     4
100
AcDbLine
 10
397.146316990811
 20
156.239030197323
 30
0.0
 11
395.271316990811
 21
156.239030197323
 31
0.0
  0
LINE
  5
200
330
1F
100
AcDbEntity
  8
1
  6
Continuous
 62
     4
100
AcDbLine
 10
397.521316990811
 20
156.364030197323
 30
0.0
 11
397.146316990811
 21
156.239030197323
 31
0.0
  0
LINE
  5
201
330
1F
100
AcDbEntity
  8
1
  6
Continuous
 62
     4
100
AcDbLine
 10
397.896316990811
 20
156.614030197323
 30
0.0
 11
397.521316990811
 21
156.364030197323
 31
0.0
  0
LINE
  5
202
330
1F
100
AcDbEntity
  8
1
  6
Continuous
 62
     4
100
AcDbLine
 10
398.146316990811
 20
156.989030197323
 30
0.0
 11
397.896316990811
 21
156.614030197323
 31
0.0
  0
LINE
  5
203
330
1F
100
AcDbEntity
  8
1
  6
Continuous
 62
     4
100
AcDbLine
 10
398.271316990811
 20
157.489030197323
 30
0.0
 11
398.146316990811
 21
156.989030197323
 31
0.0
  0
LINE
  5
204
330
1F
100
AcDbEntity
  8
1
  6
Continuous
 62
     4
100
AcDbLine
 10
398.271316990811
 20
158.239030197323
 30
0.0
 11
398.271316990811
 21
157.489030197323
 31
0.0
  0
LINE
  5
205
330
1F
100
AcDbEntity
  8
1
  6
Continuous
 62
     4
100
AcDbLine
 10
398.146316990811
 20
158.739030197323
 30
0.0
 11
398.271316990811
 21
158.239030197323
 31
0.0
  0
LINE
  5
206
330
1F
100
AcDbEntity
  8
1
  6
Continuous
 62
     4
100
AcDbLine
 10
397.771316990811
 20
159.114030197323
 30
0.0
 11
398.146316990811
 21
158.739030197323
 31
0.0
  0
LINE
  5
207
330
1F
100
AcDbEntity
  8
1
  6
Continuous
 62
     4
100
AcDbLine
 10
397.146316990811
 20
159.239030197323
 30
0.0
 11
397.771316990811
 21
159.114030197323
 31
0.0
  0
LINE
  5
208
330
1F
100
AcDbEntity
  8
1
  6
Continuous
 62
     4
100
AcDbLine
 10
395.271316990811
 20
159.239030197323
 30
0.0
 11
397.146316990811
 21
159.239030197323
 31
0.0
  0
LINE
  5
209
330
1F
100
AcDbEntity
  8
1
  6
Continuous
 62
     4
100
AcDbLine
 10
395.271316990811
 20
161.239030197323
 30
0.0
 11
395.271316990811
 21
159.239030197323
 31
0.0
  0
LINE
  5
20A
330
1F
100
AcDbEntity
  8
1
  6
Continuous
 62
     4
100
AcDbLine
 10
398.021316990811
 20
161.239030197323
 30
0.0
 11
395.271316990811
 21
161.239030197323
 31
0.0
  0
LINE
  5
20B
330
1F
100
AcDbEntity
  8
1
  6
Continuous
 62
     4
100
AcDbLine
 10
376.646316990811
 20
160.114030197323
 30
0.0
 11
378.021316990811
 21
161.239030197323
 31
0.0
  0
LINE
  5
20C
330
1F
100
AcDbEntity
  8
1
  6
Continuous
 62
     4
100
AcDbLine
 10
376.146316990811
 20
159.489030197323
 30
0.0
 11
376.646316990811
 21
160.114030197323
 31
0.0
  0
LINE
  5
20D
330
1F
100
AcDbEntity
  8
1
  6
Continuous
 62
     4
100
AcDbLine
 10
375.896316990811
 20
158.989030197323
 30
0.0
 11
376.146316990811
 21
159.489030197323
 31
0.0
  0
LINE
  5
20E
330
1F
100
AcDbEntity
  8
1
  6
Continuous
 62
     4
100
AcDbLine
 10
375.771316990811
 20
157.989030197323
 30
0.0
 11
375.896316990811
 21
158.989030197323
 31
0.0
  0
LINE
  5
20F
330
1F
100
AcDbEntity
  8
1
  6
Continuous
 62
     4
100
AcDbLine
 10
375.771316990811
 20
157.489030197323
 30
0.0
 11
375.771316990811
 21
157.989030197323
 31
0.0
  0
LINE
  5
210
330
1F
100
AcDbEntity
  8
1
  6
Continuous
 62
     4
100
AcDbLine
 10
375.896316990811
 20
156.989030197323
 30
0.0
 11
375.771316990811
 21
157.489030197323
 31
0.0
  0
LINE
  5
211
330
1F
100
AcDbEntity
  8
1
  6
Continuous
 62
     4
100
AcDbLine
 10
376.146316990811
 20
156.614030197323
 30
0.0
 11
375.896316990811
 21
156.989030197323
 31
0.0
  0
LINE
  5
212
330
1F
100
AcDbEntity
  8
1
  6
Continuous
 62
     4
100
AcDbLine
 10
376.521316990811
 20
156.364030197323
 30
0.0
 11
376.146316990811
 21
156.614030197323
 31
0.0
  0
LINE
  5
213
330
1F
100
AcDbEntity
  8
1
  6
Continuous
 62
     4
100
AcDbLine
 10
376.896316990811
 20
156.239030197323
 30
0.0
 11
376.521316990811
 21
156.364030197323
 31
0.0
  0
LINE
  5
214
330
1F
100
AcDbEntity
  8
1
  6
Continuous
 62
     4
100
AcDbLine
 10
377.646316990811
 20
156.239030197323
 30
0.0
 11
376.896316990811
 21
156.239030197323
 31
0.0
  0
LINE
  5
215
330
1F
100
AcDbEntity
  8
1
  6
Continuous
 62
     4
100
AcDbLine
 10
378.021316990811
 20
156.364030197323
 30
0.0
 11
377.646316990811
 21
156.239030197323
 31
0.0
  0
LINE
  5
216
330
1F
100
AcDbEntity
  8
1
  6
Continuous
 62
     4
100
AcDbLine
 10
378.396316990811
 20
156.614030197323
 30
0.0
 11
378.021316990811
 21
156.364030197323
 31
0.0
  0
LINE
  5
217
330
1F
100
AcDbEntity
  8
1
  6
Continuous
 62
     4
100
AcDbLine
 10
378.646316990811
 20
156.989030197323
 30
0.0
 11
378.396316990811
 21
156.614030197323
 31
0.0
  0
LINE
  5
218
330
1F
100
AcDbEntity
  8
1
  6
Continuous
 62
     4
100
AcDbLine
 10
378.771316990811
 20
157.489030197323
 30
0.0
 11
378.646316990811
 21
156.989030197323
 31
0.0
  0
LINE
  5
219
330
1F
100
AcDbEntity
  8
1
  6
Continuous
 62
     4
100
AcDbLine
 10
378.771316990811
 20
157.989030197323
 30
0.0
 11
378.771316990811
 21
157.489030197323
 31
0.0
  0
LINE
  5
21A
330
1F
100
AcDbEntity
  8
1
  6
Continuous
 62
     4
100
AcDbLine
 10
378.646316990811
 20
158.489030197323
 30
0.0
 11
378.771316990811
 21
157.989030197323
 31
0.0
  0
LINE
  5
21B
330
1F
100
AcDbEntity
  8
1
  6
Continuous
 62
     4
100
AcDbLine
 10
378.396316990811
 20
158.864030197323
 30
0.0
 11
378.646316990811
 21
158.489030197323
 31
0.0
  0
LINE
  5
21C
330
1F
100
AcDbEntity
  8
1
  6
Continuous
 62
     4
100
AcDbLine
 10
378.021316990811
 20
159.114030197323
 30
0.0
 11
378.396316990811
 21
158.864030197323
 31
0.0
  0
LINE
  5
21D
330
1F
100
AcDbEntity
  8
1
  6
Continuous
 62
     4
100
AcDbLine
 10
377.646316990811
 20
159.239030197323
 30
0.0
 11
378.021316990811
 21
159.114030197323
 31
0.0
  0
LINE
  5
21E
330
1F
100
AcDbEntity
  8
1
  6
Continuous
 62
     4
100
AcDbLine
 10
376.896316990811
 20
159.239030197323
 30
0.0
 11
377.646316990811
 21
159.239030197323
 31
0.0
  0
LINE
  5
21F
330
1F
100
AcDbEntity
  8
1
  6
Continuous
 62
     4
100
AcDbLine
 10
376.521316990811
 20
159.114030197323
 30
0.0
 11
376.896316990811
 21
159.239030197323
 31
0.0
  0
LINE
  5
220
330
1F
100
AcDbEntity
  8
1
  6
Continuous
 62
     4
100
AcDbLine
 10
376.146316990811
 20
158.864030197323
 30
0.0
 11
376.521316990811
 21
159.114030197323
 31
0.0
  0
LINE
  5
221
330
1F
100
AcDbEntity
  8
1
  6
Continuous
 62
     4
100
AcDbLine
 10
375.896316990811
 20
158.489030197323
 30
0.0
 11
376.146316990811
 21
158.864030197323
 31
0.0
  0
LINE
  5
222
330
1F
100
AcDbEntity
  8
1
  6
Continuous
 62
     4
100
AcDbLine
 10
375.771316990811
 20
157.989030197323
 30
0.0
 11
375.896316990811
 21
158.489030197323
 31
0.0
  0
LINE
  5
223
330
1F
100
AcDbEntity
  8
1
  6
Continuous
 62
     4
100
AcDbLine
 10
374.396316990811
 20
156.489030197323
 30
0.0
 11
374.396316990811
 21
156.364030197323
 31
0.0
  0
LINE
  5
224
330
1F
100
AcDbEntity
  8
1
  6
Continuous
 62
     4
100
AcDbLine
 10
374.271316990811
 20
156.489030197323
 30
0.0
 11
374.396316990811
 21
156.489030197323
 31
0.0
  0
LINE
  5
225
330
1F
100
AcDbEntity
  8
1
  6
Continuous
 62
     4
100
AcDbLine
 10
374.271316990811
 20
156.364030197323
 30
0.0
 11
374.271316990811
 21
156.489030197323
 31
0.0
  0
LINE
  5
226
330
1F
100
AcDbEntity
  8
1
  6
Continuous
 62
     4
100
AcDbLine
 10
374.396316990811
 20
156.364030197323
 30
0.0
 11
374.271316990811
 21
156.364030197323
 31
0.0
  0
LINE
  5
227
330
1F
100
AcDbEntity
  8
1
  6
Continuous
 62
     4
100
AcDbLine
 10
374.521316990811
 20
156.614030197323
 30
0.0
 11
374.521316990811
 21
156.239030197323
 31
0.0
  0
LINE
  5
228
330
1F
100
AcDbEntity
  8
1
  6
Continuous
 62
     4
100
AcDbLine
 10
374.146316990811
 20
156.614030197323
 30
0.0
 11
374.521316990811
 21
156.614030197323
 31
0.0
  0
LINE
  5
229
330
1F
100
AcDbEntity
  8
1
  6
Continuous
 62
     4
100
AcDbLine
 10
374.146316990811
 20
156.239030197323
 30
0.0
 11
374.146316990811
 21
156.614030197323
 31
0.0
  0
LINE
  5
22A
330
1F
100
AcDbEntity
  8
1
  6
Continuous
 62
     4
100
AcDbLine
 10
374.521316990811
 20
156.239030197323
 30
0.0
 11
374.146316990811
 21
156.239030197323
 31
0.0
  0
LINE
  5
22B
330
1F
100
AcDbEntity
  8
1
  6
Continuous
 62
     4
100
AcDbLine
 10
372.646316990811
 20
159.364030197323
 30
0.0
 11
372.646316990811
 21
158.114030197323
 31
0.0
  0
LINE
  5
22C
330
1F
100
AcDbEntity
  8
1
  6
Continuous
 62
     4
100
AcDbLine
 10
372.521316990811
 20
160.114030197323
 30
0.0
 11
372.646316990811
 21
159.364030197323
 31
0.0
  0
LINE
  5
22D
330
1F
100
AcDbEntity
  8
1
  6
Continuous
 62
     4
100
AcDbLine
 10
372.271316990811
 20
160.614030197323
 30
0.0
 11
372.521316990811
 21
160.114030197323
 31
0.0
  0
LINE
  5
22E
330
1F
100
AcDbEntity
  8
1
  6
Continuous
 62
     4
100
AcDbLine
 10
372.021316990811
 20
160.864030197323
 30
0.0
 11
372.271316990811
 21
160.614030197323
 31
0.0
  0
LINE
  5
22F
330
1F
100
AcDbEntity
  8
1
  6
Continuous
 62
     4
100
AcDbLine
 10
371.646316990811
 20
161.114030197323
 30
0.0
 11
372.021316990811
 21
160.864030197323
 31
0.0
  0
LINE
  5
230
330
1F
100
AcDbEntity
  8
1
  6
Continuous
 62
     4
100
AcDbLine
 10
371.271316990811
 20
161.239030197323
 30
0.0
 11
371.646316990811
 21
161.114030197323
 31
0.0
  0
LINE
  5
231
330
1F
100
AcDbEntity
  8
1
  6
Continuous
 62
     4
100
AcDbLine
 10
371.021316990811
 20
161.239030197323
 30
0.0
 11
371.271316990811
 21
161.239030197323
 31
0.0
  0
LINE
  5
232
330
1F
100
AcDbEntity
  8
1
  6
Continuous
 62
     4
100
AcDbLine
 10
370.646316990811
 20
161.114030197323
 30
0.0
 11
371.021316990811
 21
161.239030197323
 31
0.0
  0
LINE
  5
233
330
1F
100
AcDbEntity
  8
1
  6
Continuous
 62
     4
100
AcDbLine
 10
370.271316990811
 20
160.864030197323
 30
0.0
 11
370.646316990811
 21
161.114030197323
 31
0.0
  0
LINE
  5
234
330
1F
100
AcDbEntity
  8
1
  6
Continuous
 62
     4
100
AcDbLine
 10
370.021316990811
 20
160.614030197323
 30
0.0
 11
370.271316990811
 21
160.864030197323
 31
0.0
  0
LINE
  5
235
330
1F
100
AcDbEntity
  8
1
  6
Continuous
 62
     4
100
AcDbLine
 10
369.771316990811
 20
160.114030197323
 30
0.0
 11
370.021316990811
 21
160.614030197323
 31
0.0
  0
LINE
  5
236
330
1F
100
AcDbEntity
  8
1
  6
Continuous
 62
     4
100
AcDbLine
 10
369.646316990811
 20
159.364030197323
 30
0.0
 11
369.771316990811
 21
160.114030197323
 31
0.0
  0
LINE
  5
237
330
1F
100
AcDbEntity
  8
1
  6
Continuous
 62
     4
100
AcDbLine
 10
369.646316990811
 20
158.114030197323
 30
0.0
 11
369.646316990811
 21
159.364030197323
 31
0.0
  0
LINE
  5
238
330
1F
100
AcDbEntity
  8
1
  6
Continuous
 62
     4
100
AcDbLine
 10
369.771316990811
 20
157.364030197323
 30
0.0
 11
369.646316990811
 21
158.114030197323
 31
0.0
  0
LINE
  5
239
330
1F
100
AcDbEntity
  8
1
  6
Continuous
 62
     4
100
AcDbLine
 10
370.021316990811
 20
156.864030197323
 30
0.0
 11
369.771316990811
 21
157.364030197323
 31
0.0
  0
LINE
  5
23A
330
1F
100
AcDbEntity
  8
1
  6
Continuous
 62
     4
100
AcDbLine
 10
370.271316990811
 20
156.614030197323
 30
0.0
 11
370.021316990811
 21
156.864030197323
 31
0.0
  0
LINE
  5
23B
330
1F
100
AcDbEntity
  8
1
  6
Continuous
 62
     4
100
AcDbLine
 10
370.646316990811
 20
156.364030197323
 30
0.0
 11
370.271316990811
 21
156.614030197323
 31
0.0
  0
LINE
  5
23C
330
1F
100
AcDbEntity
  8
1
  6
Continuous
 62
     4
100
AcDbLine
 10
371.021316990811
 20
156.239030197323
 30
0.0
 11
370.646316990811
 21
156.364030197323
 31
0.0
  0
LINE
  5
23D
330
1F
100
AcDbEntity
  8
1
  6
Continuous
 62
     4
100
AcDbLine
 10
371.271316990811
 20
156.239030197323
 30
0.0
 11
371.021316990811
 21
156.239030197323
 31
0.0
  0
LINE
  5
23E
330
1F
100
AcDbEntity
  8
1
  6
Continuous
 62
     4
100
AcDbLine
 10
371.646316990811
 20
156.364030197323
 30
0.0
 11
371.271316990811
 21
156.239030197323
 31
0.0
  0
LINE
  5
23F
330
1F
100
AcDbEntity
  8
1
  6
Continuous
 62
     4
100
AcDbLine
 10
372.021316990811
 20
156.614030197323
 30
0.0
 11
371.646316990811
 21
156.364030197323
 31
0.0
  0
LINE
  5
240
330
1F
100
AcDbEntity
  8
1
  6
Continuous
 62
     4
100
AcDbLine
 10
372.271316990811
 20
156.864030197323
 30
0.0
 11
372.021316990811
 21
156.614030197323
 31
0.0
  0
LINE
  5
241
330
1F
100
AcDbEntity
  8
1
  6
Continuous
 62
     4
100
AcDbLine
 10
372.521316990811
 20
157.364030197323
 30
0.0
 11
372.271316990811
 21
156.864030197323
 31
0.0
  0
LINE
  5
242
330
1F
100
AcDbEntity
  8
1
  6
Continuous
 62
     4
100
AcDbLine
 10
372.646316990811
 20
158.114030197323
 30
0.0
 11
372.521316990811
 21
157.364030197323
 31
0.0
  0
LINE
  5
243
330
1F
100
AcDbEntity
  8
1
  6
Continuous
 62
     4
100
AcDbLine
 10
405.771316990811
 20
165.069030197323
 30
0.0
 11
404.646316990811
 21
164.569030197323
 31
0.0
  0
LINE
  5
244
330
1F
100
AcDbEntity
  8
1
  6
Continuous
 62
     4
100
AcDbLine
 10
406.646316990811
 20
165.819030197323
 30
0.0
 11
405.771316990811
 21
165.069030197323
 31
0.0
  0
LINE
  5
245
330
1F
100
AcDbEntity
  8
1
  6
Continuous
 62
     4
100
AcDbLine
 10
407.021316990811
 20
166.319030197323
 30
0.0
 11
406.646316990811
 21
165.819030197323
 31
0.0
  0
LINE
  5
246
330
1F
100
AcDbEntity
  8
1
  6
Continuous
 62
     4
100
AcDbLine
 10
407.146316990811
 20
166.819030197323
 30
0.0
 11
407.021316990811
 21
166.319030197323
 31
0.0
  0
LINE
  5
247
330
1F
100
AcDbEntity
  8
1
  6
Continuous
 62
     4
100
AcDbLine
 10
407.271316990811
 20
167.444030197323
 30
0.0
 11
407.146316990811
 21
166.819030197323
 31
0.0
  0
LINE
  5
248
330
1F
100
AcDbEntity
  8
1
  6
Continuous
 62
     4
100
AcDbLine
 10
407.271316990811
 20
168.319030197323
 30
0.0
 11
407.271316990811
 21
167.444030197323
 31
0.0
  0
LINE
  5
249
330
1F
100
AcDbEntity
  8
1
  6
Continuous
 62
     4
100
AcDbLine
 10
407.146316990811
 20
168.819030197323
 30
0.0
 11
407.271316990811
 21
168.319030197323
 31
0.0
  0
LINE
  5
24A
330
1F
100
AcDbEntity
  8
1
  6
Continuous
 62
     4
100
AcDbLine
 10
406.896316990811
 20
169.194030197323
 30
0.0
 11
407.146316990811
 21
168.819030197323
 31
0.0
  0
LINE
  5
24B
330
1F
100
AcDbEntity
  8
1
  6
Continuous
 62
     4
100
AcDbLine
 10
406.521316990811
 20
169.444030197323
 30
0.0
 11
406.896316990811
 21
169.194030197323
 31
0.0
  0
LINE
  5
24C
330
1F
100
AcDbEntity
  8
1
  6
Continuous
 62
     4
100
AcDbLine
 10
406.146316990811
 20
169.569030197323
 30
0.0
 11
406.521316990811
 21
169.444030197323
 31
0.0
  0
LINE
  5
24D
330
1F
100
AcDbEntity
  8
1
  6
Continuous
 62
     4
100
AcDbLine
 10
405.396316990811
 20
169.569030197323
 30
0.0
 11
406.146316990811
 21
169.569030197323
 31
0.0
  0
LINE
  5
24E
330
1F
100
AcDbEntity
  8
1
  6
Continuous
 62
     4
100
AcDbLine
 10
405.021316990811
 20
169.444030197323
 30
0.0
 11
405.396316990811
 21
169.569030197323
 31
0.0
  0
LINE
  5
24F
330
1F
100
AcDbEntity
  8
1
  6
Continuous
 62
     4
100
AcDbLine
 10
404.646316990811
 20
169.194030197323
 30
0.0
 11
405.021316990811
 21
169.444030197323
 31
0.0
  0
LINE
  5
250
330
1F
100
AcDbEntity
  8
1
  6
Continuous
 62
     4
100
AcDbLine
 10
404.396316990811
 20
168.819030197323
 30
0.0
 11
404.646316990811
 21
169.194030197323
 31
0.0
  0
LINE
  5
251
330
1F
100
AcDbEntity
  8
1
  6
Continuous
 62
     4
100
AcDbLine
 10
404.271316990811
 20
168.319030197323
 30
0.0
 11
404.396316990811
 21
168.819030197323
 31
0.0
  0
LINE
  5
252
330
1F
100
AcDbEntity
  8
1
  6
Continuous
 62
     4
100
AcDbLine
 10
404.271316990811
 20
168.069030197323
 30
0.0
 11
404.271316990811
 21
168.319030197323
 31
0.0
  0
LINE
  5
253
330
1F
100
AcDbEntity
  8
1
  6
Continuous
 62
     4
100
AcDbLine
 10
404.396316990811
 20
167.569030197323
 30
0.0
 11
404.271316990811
 21
168.069030197323
 31
0.0
  0
LINE
  5
254
330
1F
100
AcDbEntity
  8
1
  6
Continuous
 62
     4
100
AcDbLine
 10
404.646316990811
 20
167.194030197323
 30
0.0
 11
404.396316990811
 21
167.569030197323
 31
0.0
  0
LINE
  5
255
330
1F
100
AcDbEntity
  8
1
  6
Continuous
 62
     4
100
AcDbLine
 10
405.021316990811
 20
166.944030197323
 30
0.0
 11
404.646316990811
 21
167.194030197323
 31
0.0
  0
LINE
  5
256
330
1F
100
AcDbEntity
  8
1
  6
Continuous
 62
     4
100
AcDbLine
 10
405.396316990811
 20
166.819030197323
 30
0.0
 11
405.021316990811
 21
166.944030197323
 31
0.0
  0
LINE
  5
257
330
1F
100
AcDbEntity
  8
1
  6
Continuous
 62
     4
100
AcDbLine
 10
407.146316990811
 20
166.819030197323
 30
0.0
 11
405.396316990811
 21
166.819030197323
 31
0.0
  0
LINE
  5
258
330
1F
100
AcDbEntity
  8
1
  6
Continuous
 62
     4
100
AcDbLine
 10
401.271316990811
 20
165.069030197323
 30
0.0
 11
400.146316990811
 21
164.569030197323
 31
0.0
  0
LINE
  5
259
330
1F
100
AcDbEntity
  8
1
  6
Continuous
 62
     4
100
AcDbLine
 10
402.146316990811
 20
165.819030197323
 30
0.0
 11
401.271316990811
 21
165.069030197323
 31
0.0
  0
LINE
  5
25A
330
1F
100
AcDbEntity
  8
1
  6
Continuous
 62
     4
100
AcDbLine
 10
402.521316990811
 20
166.319030197323
 30
0.0
 11
402.146316990811
 21
165.819030197323
 31
0.0
  0
LINE
  5
25B
330
1F
100
AcDbEntity
  8
1
  6
Continuous
 62
     4
100
AcDbLine
 10
402.646316990811
 20
166.819030197323
 30
0.0
 11
402.521316990811
 21
166.319030197323
 31
0.0
  0
LINE
  5
25C
330
1F
100
AcDbEntity
  8
1
  6
Continuous
 62
     4
100
AcDbLine
 10
402.771316990811
 20
167.444030197323
 30
0.0
 11
402.646316990811
 21
166.819030197323
 31
0.0
  0
LINE
  5
25D
330
1F
100
AcDbEntity
  8
1
  6
Continuous
 62
     4
100
AcDbLine
 10
402.771316990811
 20
168.319030197323
 30
0.0
 11
402.771316990811
 21
167.444030197323
 31
0.0
  0
LINE
  5
25E
330
1F
100
AcDbEntity
  8
1
  6
Continuous
 62
     4
100
AcDbLine
 10
402.646316990811
 20
168.819030197323
 30
0.0
 11
402.771316990811
 21
168.319030197323
 31
0.0
  0
LINE
  5
25F
330
1F
100
AcDbEntity
  8
1
  6
Continuous
 62
     4
100
AcDbLine
 10
402.396316990811
 20
169.194030197323
 30
0.0
 11
402.646316990811
 21
168.819030197323
 31
0.0
  0
LINE
  5
260
330
1F
100
AcDbEntity
  8
1
  6
Continuous
 62
     4
100
AcDbLine
 10
402.021316990811
 20
169.444030197323
 30
0.0
 11
402.396316990811
 21
169.194030197323
 31
0.0
  0
LINE
  5
261
330
1F
100
AcDbEntity
  8
1
  6
Continuous
 62
     4
100
AcDbLine
 10
401.646316990811
 20
169.569030197323
 30
0.0
 11
402.021316990811
 21
169.444030197323
 31
0.0
  0
LINE
  5
262
330
1F
100
AcDbEntity
  8
1
  6
Continuous
 62
     4
100
AcDbLine
 10
400.896316990811
 20
169.569030197323
 30
0.0
 11
401.646316990811
 21
169.569030197323
 31
0.0
  0
LINE
  5
263
330
1F
100
AcDbEntity
  8
1
  6
Continuous
 62
     4
100
AcDbLine
 10
400.521316990811
 20
169.444030197323
 30
0.0
 11
400.896316990811
 21
169.569030197323
 31
0.0
  0
LINE
  5
264
330
1F
100
AcDbEntity
  8
1
  6
Continuous
 62
     4
100
AcDbLine
 10
400.146316990811
 20
169.194030197323
 30
0.0
 11
400.521316990811
 21
169.444030197323
 31
0.0
  0
LINE
  5
265
330
1F
100
AcDbEntity
  8
1
  6
Continuous
 62
     4
100
AcDbLine
 10
399.896316990811
 20
168.819030197323
 30
0.0
 11
400.146316990811
 21
169.194030197323
 31
0.0
  0
LINE
  5
266
330
1F
100
AcDbEntity
  8
1
  6
Continuous
 62
     4
100
AcDbLine
 10
399.771316990811
 20
168.319030197323
 30
0.0
 11
399.896316990811
 21
168.819030197323
 31
0.0
  0
LINE
  5
267
330
1F
100
AcDbEntity
  8
1
  6
Continuous
 62
     4
100
AcDbLine
 10
399.771316990811
 20
168.069030197323
 30
0.0
 11
399.771316990811
 21
168.319030197323
 31
0.0
  0
LINE
  5
268
330
1F
100
AcDbEntity
  8
1
  6
Continuous
 62
     4
100
AcDbLine
 10
399.896316990811
 20
167.569030197323
 30
0.0
 11
399.771316990811
 21
168.069030197323
 31
0.0
  0
LINE
  5
269
330
1F
100
AcDbEntity
  8
1
  6
Continuous
 62
     4
100
AcDbLine
 10
400.146316990811
 20
167.194030197323
 30
0.0
 11
399.896316990811
 21
167.569030197323
 31
0.0
  0
LINE
  5
26A
330
1F
100
AcDbEntity
  8
1
  6
Continuous
 62
     4
100
AcDbLine
 10
400.521316990811
 20
166.944030197323
 30
0.0
 11
400.146316990811
 21
167.194030197323
 31
0.0
  0
LINE
  5
26B
330
1F
100
AcDbEntity
  8
1
  6
Continuous
 62
     4
100
AcDbLine
 10
400.896316990811
 20
166.819030197323
 30
0.0
 11
400.521316990811
 21
166.944030197323
 31
0.0
  0
LINE
  5
26C
330
1F
100
AcDbEntity
  8
1
  6
Continuous
 62
     4
100
AcDbLine
 10
402.646316990811
 20
166.819030197323
 30
0.0
 11
400.896316990811
 21
166.819030197323
 31
0.0
  0
LINE
  5
26D
330
1F
100
AcDbEntity
  8
1
  6
Continuous
 62
     4
100
AcDbLine
 10
397.146316990811
 20
164.569030197323
 30
0.0
 11
395.271316990811
 21
164.569030197323
 31
0.0
  0
LINE
  5
26E
330
1F
100
AcDbEntity
  8
1
  6
Continuous
 62
     4
100
AcDbLine
 10
397.521316990811
 20
164.694030197323
 30
0.0
 11
397.146316990811
 21
164.569030197323
 31
0.0
  0
LINE
  5
26F
330
1F
100
AcDbEntity
  8
1
  6
Continuous
 62
     4
100
AcDbLine
 10
397.896316990811
 20
164.944030197323
 30
0.0
 11
397.521316990811
 21
164.694030197323
 31
0.0
  0
LINE
  5
270
330
1F
100
AcDbEntity
  8
1
  6
Continuous
 62
     4
100
AcDbLine
 10
398.146316990811
 20
165.319030197323
 30
0.0
 11
397.896316990811
 21
164.944030197323
 31
0.0
  0
LINE
  5
271
330
1F
100
AcDbEntity
  8
1
  6
Continuous
 62
     4
100
AcDbLine
 10
398.271316990811
 20
165.819030197323
 30
0.0
 11
398.146316990811
 21
165.319030197323
 31
0.0
  0
LINE
  5
272
330
1F
100
AcDbEntity
  8
1
  6
Continuous
 62
     4
100
AcDbLine
 10
398.271316990811
 20
166.444030197323
 30
0.0
 11
398.271316990811
 21
165.819030197323
 31
0.0
  0
LINE
  5
273
330
1F
100
AcDbEntity
  8
1
  6
Continuous
 62
     4
100
AcDbLine
 10
398.146316990811
 20
166.944030197323
 30
0.0
 11
398.271316990811
 21
166.444030197323
 31
0.0
  0
LINE
  5
274
330
1F
100
AcDbEntity
  8
1
  6
Continuous
 62
     4
100
AcDbLine
 10
398.021316990811
 20
167.194030197323
 30
0.0
 11
398.146316990811
 21
166.944030197323
 31
0.0
  0
LINE
  5
275
330
1F
100
AcDbEntity
  8
1
  6
Continuous
 62
     4
100
AcDbLine
 10
397.771316990811
 20
167.444030197323
 30
0.0
 11
398.021316990811
 21
167.194030197323
 31
0.0
  0
LINE
  5
276
330
1F
100
AcDbEntity
  8
1
  6
Continuous
 62
     4
100
AcDbLine
 10
397.271316990811
 20
167.569030197323
 30
0.0
 11
397.771316990811
 21
167.444030197323
 31
0.0
  0
LINE
  5
277
330
1F
100
AcDbEntity
  8
1
  6
Continuous
 62
     4
100
AcDbLine
 10
397.646316990811
 20
167.694030197323
 30
0.0
 11
397.271316990811
 21
167.569030197323
 31
0.0
  0
LINE
  5
278
330
1F
100
AcDbEntity
  8
1
  6
Continuous
 62
     4
100
AcDbLine
 10
397.896316990811
 20
167.819030197323
 30
0.0
 11
397.646316990811
 21
167.694030197323
 31
0.0
  0
LINE
  5
279
330
1F
100
AcDbEntity
  8
1
  6
Continuous
 62
     4
100
AcDbLine
 10
398.146316990811
 20
168.069030197323
 30
0.0
 11
397.896316990811
 21
167.819030197323
 31
0.0
  0
LINE
  5
27A
330
1F
100
AcDbEntity
  8
1
  6
Continuous
 62
     4
100
AcDbLine
 10
398.271316990811
 20
168.444030197323
 30
0.0
 11
398.146316990811
 21
168.069030197323
 31
0.0
  0
LINE
  5
27B
330
1F
100
AcDbEntity
  8
1
  6
Continuous
 62
     4
100
AcDbLine
 10
398.271316990811
 20
168.819030197323
 30
0.0
 11
398.271316990811
 21
168.444030197323
 31
0.0
  0
LINE
  5
27C
330
1F
100
AcDbEntity
  8
1
  6
Continuous
 62
     4
100
AcDbLine
 10
398.146316990811
 20
169.194030197323
 30
0.0
 11
398.271316990811
 21
168.819030197323
 31
0.0
  0
LINE
  5
27D
330
1F
100
AcDbEntity
  8
1
  6
Continuous
 62
     4
100
AcDbLine
 10
397.771316990811
 20
169.444030197323
 30
0.0
 11
398.146316990811
 21
169.194030197323
 31
0.0
  0
LINE
  5
27E
330
1F
100
AcDbEntity
  8
1
  6
Continuous
 62
     4
100
AcDbLine
 10
397.146316990811
 20
169.569030197323
 30
0.0
 11
397.771316990811
 21
169.444030197323
 31
0.0
  0
LINE
  5
27F
330
1F
100
AcDbEntity
  8
1
  6
Continuous
 62
     4
100
AcDbLine
 10
395.271316990811
 20
169.569030197323
 30
0.0
 11
397.146316990811
 21
169.569030197323
 31
0.0
  0
LINE
  5
280
330
1F
100
AcDbEntity
  8
1
  6
Continuous
 62
     4
100
AcDbLine
 10
396.021316990811
 20
167.569030197323
 30
0.0
 11
397.271316990811
 21
167.569030197323
 31
0.0
  0
LINE
  5
281
330
1F
100
AcDbEntity
  8
1
  6
Continuous
 62
     4
100
AcDbLine
 10
378.021316990811
 20
166.569030197323
 30
0.0
 11
378.021316990811
 21
164.569030197323
 31
0.0
  0
LINE
  5
282
330
1F
100
AcDbEntity
  8
1
  6
Continuous
 62
     4
100
AcDbLine
 10
375.771316990811
 20
165.569030197323
 30
0.0
 11
378.771316990811
 21
165.569030197323
 31
0.0
  0
LINE
  5
283
330
1F
100
AcDbEntity
  8
1
  6
Continuous
 62
     4
100
AcDbLine
 10
378.021316990811
 20
169.569030197323
 30
0.0
 11
375.771316990811
 21
165.569030197323
 31
0.0
  0
LINE
  5
284
330
1F
100
AcDbEntity
  8
1
  6
Continuous
 62
     4
100
AcDbLine
 10
374.396316990811
 20
164.819030197323
 30
0.0
 11
374.396316990811
 21
164.694030197323
 31
0.0
  0
LINE
  5
285
330
1F
100
AcDbEntity
  8
1
  6
Continuous
 62
     4
100
AcDbLine
 10
374.271316990811
 20
164.819030197323
 30
0.0
 11
374.396316990811
 21
164.819030197323
 31
0.0
  0
LINE
  5
286
330
1F
100
AcDbEntity
  8
1
  6
Continuous
 62
     4
100
AcDbLine
 10
374.271316990811
 20
164.694030197323
 30
0.0
 11
374.271316990811
 21
164.819030197323
 31
0.0
  0
LINE
  5
287
330
1F
100
AcDbEntity
  8
1
  6
Continuous
 62
     4
100
AcDbLine
 10
374.396316990811
 20
164.694030197323
 30
0.0
 11
374.271316990811
 21
164.694030197323
 31
0.0
  0
LINE
  5
288
330
1F
100
AcDbEntity
  8
1
  6
Continuous
 62
     4
100
AcDbLine
 10
374.521316990811
 20
164.944030197323
 30
0.0
 11
374.521316990811
 21
164.569030197323
 31
0.0
  0
LINE
  5
289
330
1F
100
AcDbEntity
  8
1
  6
Continuous
 62
     4
100
AcDbLine
 10
374.146316990811
 20
164.944030197323
 30
0.0
 11
374.521316990811
 21
164.944030197323
 31
0.0
  0
LINE
  5
28A
330
1F
100
AcDbEntity
  8
1
  6
Continuous
 62
     4
100
AcDbLine
 10
374.146316990811
 20
164.569030197323
 30
0.0
 11
374.146316990811
 21
164.944030197323
 31
0.0
  0
LINE
  5
28B
330
1F
100
AcDbEntity
  8
1
  6
Continuous
 62
     4
100
AcDbLine
 10
374.521316990811
 20
164.569030197323
 30
0.0
 11
374.146316990811
 21
164.569030197323
 31
0.0
  0
LINE
  5
28C
330
1F
100
AcDbEntity
  8
1
  6
Continuous
 62
     4
100
AcDbLine
 10
372.646316990811
 20
167.694030197323
 30
0.0
 11
372.646316990811
 21
166.444030197323
 31
0.0
  0
LINE
  5
28D
330
1F
100
AcDbEntity
  8
1
  6
Continuous
 62
     4
100
AcDbLine
 10
372.521316990811
 20
168.444030197323
 30
0.0
 11
372.646316990811
 21
167.694030197323
 31
0.0
  0
LINE
  5
28E
330
1F
100
AcDbEntity
  8
1
  6
Continuous
 62
     4
100
AcDbLine
 10
372.271316990811
 20
168.944030197323
 30
0.0
 11
372.521316990811
 21
168.444030197323
 31
0.0
  0
LINE
  5
28F
330
1F
100
AcDbEntity
  8
1
  6
Continuous
 62
     4
100
AcDbLine
 10
372.021316990811
 20
169.194030197323
 30
0.0
 11
372.271316990811
 21
168.944030197323
 31
0.0
  0
LINE
  5
290
330
1F
100
AcDbEntity
  8
1
  6
Continuous
 62
     4
100
AcDbLine
 10
371.646316990811
 20
169.444030197323
 30
0.0
 11
372.021316990811
 21
169.194030197323
 31
0.0
  0
LINE
  5
291
330
1F
100
AcDbEntity
  8
1
  6
Continuous
 62
     4
100
AcDbLine
 10
371.271316990811
 20
169.569030197323
 30
0.0
 11
371.646316990811
 21
169.444030197323
 31
0.0
  0
LINE
  5
292
330
1F
100
AcDbEntity
  8
1
  6
Continuous
 62
     4
100
AcDbLine
 10
371.021316990811
 20
169.569030197323
 30
0.0
 11
371.271316990811
 21
169.569030197323
 31
0.0
  0
LINE
  5
293
330
1F
100
AcDbEntity
  8
1
  6
Continuous
 62
     4
100
AcDbLine
 10
370.646316990811
 20
169.444030197323
 30
0.0
 11
371.021316990811
 21
169.569030197323
 31
0.0
  0
LINE
  5
294
330
1F
100
AcDbEntity
  8
1
  6
Continuous
 62
     4
100
AcDbLine
 10
370.271316990811
 20
169.194030197323
 30
0.0
 11
370.646316990811
 21
169.444030197323
 31
0.0
  0
LINE
  5
295
330
1F
100
AcDbEntity
  8
1
  6
Continuous
 62
     4
100
AcDbLine
 10
370.021316990811
 20
168.944030197323
 30
0.0
 11
370.271316990811
 21
169.194030197323
 31
0.0
  0
LINE
  5
296
330
1F
100
AcDbEntity
  8
1
  6
Continuous
 62
     4
100
AcDbLine
 10
369.771316990811
 20
168.444030197323
 30
0.0
 11
370.021316990811
 21
168.944030197323
 31
0.0
  0
LINE
  5
297
330
1F
100
AcDbEntity
  8
1
  6
Continuous
 62
     4
100
AcDbLine
 10
369.646316990811
 20
167.694030197323
 30
0.0
 11
369.771316990811
 21
168.444030197323
 31
0.0
  0
LINE
  5
298
330
1F
100
AcDbEntity
  8
1
  6
Continuous
 62
     4
100
AcDbLine
 10
369.646316990811
 20
166.444030197323
 30
0.0
 11
369.646316990811
 21
167.694030197323
 31
0.0
  0
LINE
  5
299
330
1F
100
AcDbEntity
  8
1
  6
Continuous
 62
     4
100
AcDbLine
 10
369.771316990811
 20
165.694030197323
 30
0.0
 11
369.646316990811
 21
166.444030197323
 31
0.0
  0
LINE
  5
29A
330
1F
100
AcDbEntity
  8
1
  6
Continuous
 62
     4
100
AcDbLine
 10
370.021316990811
 20
165.194030197323
 30
0.0
 11
369.771316990811
 21
165.694030197323
 31
0.0
  0
LINE
  5
29B
330
1F
100
AcDbEntity
  8
1
  6
Continuous
 62
     4
100
AcDbLine
 10
370.271316990811
 20
164.944030197323
 30
0.0
 11
370.021316990811
 21
165.194030197323
 31
0.0
  0
LINE
  5
29C
330
1F
100
AcDbEntity
  8
1
  6
Continuous
 62
     4
100
AcDbLine
 10
370.646316990811
 20
164.694030197323
 30
0.0
 11
370.271316990811
 21
164.944030197323
 31
0.0
  0
LINE
  5
29D
330
1F
100
AcDbEntity
  8
1
  6
Continuous
 62
     4
100
AcDbLine
 10
371.021316990811
 20
164.569030197323
 30
0.0
 11
370.646316990811
 21
164.694030197323
 31
0.0
  0
LINE
  5
29E
330
1F
100
AcDbEntity
  8
1
  6
Continuous
 62
     4
100
AcDbLine
 10
371.271316990811
 20
164.569030197323
 30
0.0
 11
371.021316990811
 21
164.569030197323
 31
0.0
  0
LINE
  5
29F
330
1F
100
AcDbEntity
  8
1
  6
Continuous
 62
     4
100
AcDbLine
 10
371.646316990811
 20
164.694030197323
 30
0.0
 11
371.271316990811
 21
164.569030197323
 31
0.0
  0
LINE
  5
2A0
330
1F
100
AcDbEntity
  8
1
  6
Continuous
 62
     4
100
AcDbLine
 10
372.021316990811
 20
164.944030197323
 30
0.0
 11
371.646316990811
 21
164.694030197323
 31
0.0
  0
LINE
  5
2A1
330
1F
100
AcDbEntity
  8
1
  6
Continuous
 62
     4
100
AcDbLine
 10
372.271316990811
 20
165.194030197323
 30
0.0
 11
372.021316990811
 21
164.944030197323
 31
0.0
  0
LINE
  5
2A2
330
1F
100
AcDbEntity
  8
1
  6
Continuous
 62
     4
100
AcDbLine
 10
372.521316990811
 20
165.694030197323
 30
0.0
 11
372.271316990811
 21
165.194030197323
 31
0.0
  0
LINE
  5
2A3
330
1F
100
AcDbEntity
  8
1
  6
Continuous
 62
     4
100
AcDbLine
 10
372.646316990811
 20
166.444030197323
 30
0.0
 11
372.521316990811
 21
165.694030197323
 31
0.0
  0
LINE
  5
2A4
330
1F
100
AcDbEntity
  8
1
  6
Continuous
 62
     4
100
AcDbLine
 10
405.771316990811
 20
173.399030197323
 30
0.0
 11
404.646316990811
 21
172.899030197323
 31
0.0
  0
LINE
  5
2A5
330
1F
100
AcDbEntity
  8
1
  6
Continuous
 62
     4
100
AcDbLine
 10
406.646316990811
 20
174.149030197323
 30
0.0
 11
405.771316990811
 21
173.399030197323
 31
0.0
  0
LINE
  5
2A6
330
1F
100
AcDbEntity
  8
1
  6
Continuous
 62
     4
100
AcDbLine
 10
407.021316990811
 20
174.649030197323
 30
0.0
 11
406.646316990811
 21
174.149030197323
 31
0.0
  0
LINE
  5
2A7
330
1F
100
AcDbEntity
  8
1
  6
Continuous
 62
     4
100
AcDbLine
 10
407.146316990811
 20
175.149030197323
 30
0.0
 11
407.021316990811
 21
174.649030197323
 31
0.0
  0
LINE
  5
2A8
330
1F
100
AcDbEntity
  8
1
  6
Continuous
 62
     4
100
AcDbLine
 10
407.271316990811
 20
175.774030197323
 30
0.0
 11
407.146316990811
 21
175.149030197323
 31
0.0
  0
LINE
  5
2A9
330
1F
100
AcDbEntity
  8
1
  6
Continuous
 62
     4
100
AcDbLine
 10
407.271316990811
 20
176.649030197323
 30
0.0
 11
407.271316990811
 21
175.774030197323
 31
0.0
  0
LINE
  5
2AA
330
1F
100
AcDbEntity
  8
1
  6
Continuous
 62
     4
100
AcDbLine
 10
407.146316990811
 20
177.149030197323
 30
0.0
 11
407.271316990811
 21
176.649030197323
 31
0.0
  0
LINE
  5
2AB
330
1F
100
AcDbEntity
  8
1
  6
Continuous
 62
     4
100
AcDbLine
 10
406.896316990811
 20
177.524030197323
 30
0.0
 11
407.146316990811
 21
177.149030197323
 31
0.0
  0
LINE
  5
2AC
330
1F
100
AcDbEntity
  8
1
  6
Continuous
 62
     4
100
AcDbLine
 10
406.521316990811
 20
177.774030197323
 30
0.0
 11
406.896316990811
 21
177.524030197323
 31
0.0
  0
LINE
  5
2AD
330
1F
100
AcDbEntity
  8
1
  6
Continuous
 62
     4
100
AcDbLine
 10
406.146316990811
 20
177.899030197323
 30
0.0
 11
406.521316990811
 21
177.774030197323
 31
0.0
  0
LINE
  5
2AE
330
1F
100
AcDbEntity
  8
1
  6
Continuous
 62
     4
100
AcDbLine
 10
405.396316990811
 20
177.899030197323
 30
0.0
 11
406.146316990811
 21
177.899030197323
 31
0.0
  0
LINE
  5
2AF
330
1F
100
AcDbEntity
  8
1
  6
Continuous
 62
     4
100
AcDbLine
 10
405.021316990811
 20
177.774030197323
 30
0.0
 11
405.396316990811
 21
177.899030197323
 31
0.0
  0
LINE
  5
2B0
330
1F
100
AcDbEntity
  8
1
  6
Continuous
 62
     4
100
AcDbLine
 10
404.646316990811
 20
177.524030197323
 30
0.0
 11
405.021316990811
 21
177.774030197323
 31
0.0
  0
LINE
  5
2B1
330
1F
100
AcDbEntity
  8
1
  6
Continuous
 62
     4
100
AcDbLine
 10
404.396316990811
 20
177.149030197323
 30
0.0
 11
404.646316990811
 21
177.524030197323
 31
0.0
  0
LINE
  5
2B2
330
1F
100
AcDbEntity
  8
1
  6
Continuous
 62
     4
100
AcDbLine
 10
404.271316990811
 20
176.649030197323
 30
0.0
 11
404.396316990811
 21
177.149030197323
 31
0.0
  0
LINE
  5
2B3
330
1F
100
AcDbEntity
  8
1
  6
Continuous
 62
     4
100
AcDbLine
 10
404.271316990811
 20
176.399030197323
 30
0.0
 11
404.271316990811
 21
176.649030197323
 31
0.0
  0
LINE
  5
2B4
330
1F
100
AcDbEntity
  8
1
  6
Continuous
 62
     4
100
AcDbLine
 10
404.396316990811
 20
175.899030197323
 30
0.0
 11
404.271316990811
 21
176.399030197323
 31
0.0
  0
LINE
  5
2B5
330
1F
100
AcDbEntity
  8
1
  6
Continuous
 62
     4
100
AcDbLine
 10
404.646316990811
 20
175.524030197323
 30
0.0
 11
404.396316990811
 21
175.899030197323
 31
0.0
  0
LINE
  5
2B6
330
1F
100
AcDbEntity
  8
1
  6
Continuous
 62
     4
100
AcDbLine
 10
405.021316990811
 20
175.274030197323
 30
0.0
 11
404.646316990811
 21
175.524030197323
 31
0.0
  0
LINE
  5
2B7
330
1F
100
AcDbEntity
  8
1
  6
Continuous
 62
     4
100
AcDbLine
 10
405.396316990811
 20
175.149030197323
 30
0.0
 11
405.021316990811
 21
175.274030197323
 31
0.0
  0
LINE
  5
2B8
330
1F
100
AcDbEntity
  8
1
  6
Continuous
 62
     4
100
AcDbLine
 10
407.146316990811
 20
175.149030197323
 30
0.0
 11
405.396316990811
 21
175.149030197323
 31
0.0
  0
LINE
  5
2B9
330
1F
100
AcDbEntity
  8
1
  6
Continuous
 62
     4
100
AcDbLine
 10
401.271316990811
 20
173.399030197323
 30
0.0
 11
400.146316990811
 21
172.899030197323
 31
0.0
  0
LINE
  5
2BA
330
1F
100
AcDbEntity
  8
1
  6
Continuous
 62
     4
100
AcDbLine
 10
402.146316990811
 20
174.149030197323
 30
0.0
 11
401.271316990811
 21
173.399030197323
 31
0.0
  0
LINE
  5
2BB
330
1F
100
AcDbEntity
  8
1
  6
Continuous
 62
     4
100
AcDbLine
 10
402.521316990811
 20
174.649030197323
 30
0.0
 11
402.146316990811
 21
174.149030197323
 31
0.0
  0
LINE
  5
2BC
330
1F
100
AcDbEntity
  8
1
  6
Continuous
 62
     4
100
AcDbLine
 10
402.646316990811
 20
175.149030197323
 30
0.0
 11
402.521316990811
 21
174.649030197323
 31
0.0
  0
LINE
  5
2BD
330
1F
100
AcDbEntity
  8
1
  6
Continuous
 62
     4
100
AcDbLine
 10
402.771316990811
 20
175.774030197323
 30
0.0
 11
402.646316990811
 21
175.149030197323
 31
0.0
  0
LINE
  5
2BE
330
1F
100
AcDbEntity
  8
1
  6
Continuous
 62
     4
100
AcDbLine
 10
402.771316990811
 20
176.649030197323
 30
0.0
 11
402.771316990811
 21
175.774030197323
 31
0.0
  0
LINE
  5
2BF
330
1F
100
AcDbEntity
  8
1
  6
Continuous
 62
     4
100
AcDbLine
 10
402.646316990811
 20
177.149030197323
 30
0.0
 11
402.771316990811
 21
176.649030197323
 31
0.0
  0
LINE
  5
2C0
330
1F
100
AcDbEntity
  8
1
  6
Continuous
 62
     4
100
AcDbLine
 10
402.396316990811
 20
177.524030197323
 30
0.0
 11
402.646316990811
 21
177.149030197323
 31
0.0
  0
LINE
  5
2C1
330
1F
100
AcDbEntity
  8
1
  6
Continuous
 62
     4
100
AcDbLine
 10
402.021316990811
 20
177.774030197323
 30
0.0
 11
402.396316990811
 21
177.524030197323
 31
0.0
  0
LINE
  5
2C2
330
1F
100
AcDbEntity
  8
1
  6
Continuous
 62
     4
100
AcDbLine
 10
401.646316990811
 20
177.899030197323
 30
0.0
 11
402.021316990811
 21
177.774030197323
 31
0.0
  0
LINE
  5
2C3
330
1F
100
AcDbEntity
  8
1
  6
Continuous
 62
     4
100
AcDbLine
 10
400.896316990811
 20
177.899030197323
 30
0.0
 11
401.646316990811
 21
177.899030197323
 31
0.0
  0
LINE
  5
2C4
330
1F
100
AcDbEntity
  8
1
  6
Continuous
 62
     4
100
AcDbLine
 10
400.521316990811
 20
177.774030197323
 30
0.0
 11
400.896316990811
 21
177.899030197323
 31
0.0
  0
LINE
  5
2C5
330
1F
100
AcDbEntity
  8
1
  6
Continuous
 62
     4
100
AcDbLine
 10
400.146316990811
 20
177.524030197323
 30
0.0
 11
400.521316990811
 21
177.774030197323
 31
0.0
  0
LINE
  5
2C6
330
1F
100
AcDbEntity
  8
1
  6
Continuous
 62
     4
100
AcDbLine
 10
399.896316990811
 20
177.149030197323
 30
0.0
 11
400.146316990811
 21
177.524030197323
 31
0.0
  0
LINE
  5
2C7
330
1F
100
AcDbEntity
  8
1
  6
Continuous
 62
     4
100
AcDbLine
 10
399.771316990811
 20
176.649030197323
 30
0.0
 11
399.896316990811
 21
177.149030197323
 31
0.0
  0
LINE
  5
2C8
330
1F
100
AcDbEntity
  8
1
  6
Continuous
 62
     4
100
AcDbLine
 10
399.771316990811
 20
176.399030197323
 30
0.0
 11
399.771316990811
 21
176.649030197323
 31
0.0
  0
LINE
  5
2C9
330
1F
100
AcDbEntity
  8
1
  6
Continuous
 62
     4
100
AcDbLine
 10
399.896316990811
 20
175.899030197323
 30
0.0
 11
399.771316990811
 21
176.399030197323
 31
0.0
  0
LINE
  5
2CA
330
1F
100
AcDbEntity
  8
1
  6
Continuous
 62
     4
100
AcDbLine
 10
400.146316990811
 20
175.524030197323
 30
0.0
 11
399.896316990811
 21
175.899030197323
 31
0.0
  0
LINE
  5
2CB
330
1F
100
AcDbEntity
  8
1
  6
Continuous
 62
     4
100
AcDbLine
 10
400.521316990811
 20
175.274030197323
 30
0.0
 11
400.146316990811
 21
175.524030197323
 31
0.0
  0
LINE
  5
2CC
330
1F
100
AcDbEntity
  8
1
  6
Continuous
 62
     4
100
AcDbLine
 10
400.896316990811
 20
175.149030197323
 30
0.0
 11
400.521316990811
 21
175.274030197323
 31
0.0
  0
LINE
  5
2CD
330
1F
100
AcDbEntity
  8
1
  6
Continuous
 62
     4
100
AcDbLine
 10
402.646316990811
 20
175.149030197323
 30
0.0
 11
400.896316990811
 21
175.149030197323
 31
0.0
  0
LINE
  5
2CE
330
1F
100
AcDbEntity
  8
1
  6
Continuous
 62
     4
100
AcDbLine
 10
395.271316990811
 20
172.899030197323
 30
0.0
 11
398.271316990811
 21
172.899030197323
 31
0.0
  0
LINE
  5
2CF
330
1F
100
AcDbEntity
  8
1
  6
Continuous
 62
     4
100
AcDbLine
 10
398.021316990811
 20
176.149030197323
 30
0.0
 11
395.271316990811
 21
172.899030197323
 31
0.0
  0
LINE
  5
2D0
330
1F
100
AcDbEntity
  8
1
  6
Continuous
 62
     4
100
AcDbLine
 10
398.271316990811
 20
176.649030197323
 30
0.0
 11
398.021316990811
 21
176.149030197323
 31
0.0
  0
LINE
  5
2D1
330
1F
100
AcDbEntity
  8
1
  6
Continuous
 62
     4
100
AcDbLine
 10
398.271316990811
 20
177.149030197323
 30
0.0
 11
398.271316990811
 21
176.649030197323
 31
0.0
  0
LINE
  5
2D2
330
1F
100
AcDbEntity
  8
1
  6
Continuous
 62
     4
100
AcDbLine
 10
398.021316990811
 20
177.524030197323
 30
0.0
 11
398.271316990811
 21
177.149030197323
 31
0.0
  0
LINE
  5
2D3
330
1F
100
AcDbEntity
  8
1
  6
Continuous
 62
     4
100
AcDbLine
 10
397.646316990811
 20
177.774030197323
 30
0.0
 11
398.021316990811
 21
177.524030197323
 31
0.0
  0
LINE
  5
2D4
330
1F
100
AcDbEntity
  8
1
  6
Continuous
 62
     4
100
AcDbLine
 10
397.146316990811
 20
177.899030197323
 30
0.0
 11
397.646316990811
 21
177.774030197323
 31
0.0
  0
LINE
  5
2D5
330
1F
100
AcDbEntity
  8
1
  6
Continuous
 62
     4
100
AcDbLine
 10
396.396316990811
 20
177.899030197323
 30
0.0
 11
397.146316990811
 21
177.899030197323
 31
0.0
  0
LINE
  5
2D6
330
1F
100
AcDbEntity
  8
1
  6
Continuous
 62
     4
100
AcDbLine
 10
395.896316990811
 20
177.774030197323
 30
0.0
 11
396.396316990811
 21
177.899030197323
 31
0.0
  0
LINE
  5
2D7
330
1F
100
AcDbEntity
  8
1
  6
Continuous
 62
     4
100
AcDbLine
 10
395.521316990811
 20
177.524030197323
 30
0.0
 11
395.896316990811
 21
177.774030197323
 31
0.0
  0
LINE
  5
2D8
330
1F
100
AcDbEntity
  8
1
  6
Continuous
 62
     4
100
AcDbLine
 10
395.271316990811
 20
177.149030197323
 30
0.0
 11
395.521316990811
 21
177.524030197323
 31
0.0
  0
LINE
  5
2D9
330
1F
100
AcDbEntity
  8
1
  6
Continuous
 62
     4
100
AcDbLine
 10
377.646316990811
 20
172.899030197323
 30
0.0
 11
375.771316990811
 21
172.899030197323
 31
0.0
  0
LINE
  5
2DA
330
1F
100
AcDbEntity
  8
1
  6
Continuous
 62
     4
100
AcDbLine
 10
378.021316990811
 20
173.024030197323
 30
0.0
 11
377.646316990811
 21
172.899030197323
 31
0.0
  0
LINE
  5
2DB
330
1F
100
AcDbEntity
  8
1
  6
Continuous
 62
     4
100
AcDbLine
 10
378.396316990811
 20
173.274030197323
 30
0.0
 11
378.021316990811
 21
173.024030197323
 31
0.0
  0
LINE
  5
2DC
330
1F
100
AcDbEntity
  8
1
  6
Continuous
 62
     4
100
AcDbLine
 10
378.646316990811
 20
173.649030197323
 30
0.0
 11
378.396316990811
 21
173.274030197323
 31
0.0
  0
LINE
  5
2DD
330
1F
100
AcDbEntity
  8
1
  6
Continuous
 62
     4
100
AcDbLine
 10
378.771316990811
 20
174.149030197323
 30
0.0
 11
378.646316990811
 21
173.649030197323
 31
0.0
  0
LINE
  5
2DE
330
1F
100
AcDbEntity
  8
1
  6
Continuous
 62
     4
100
AcDbLine
 10
378.771316990811
 20
174.774030197323
 30
0.0
 11
378.771316990811
 21
174.149030197323
 31
0.0
  0
LINE
  5
2DF
330
1F
100
AcDbEntity
  8
1
  6
Continuous
 62
     4
100
AcDbLine
 10
378.646316990811
 20
175.274030197323
 30
0.0
 11
378.771316990811
 21
174.774030197323
 31
0.0
  0
LINE
  5
2E0
330
1F
100
AcDbEntity
  8
1
  6
Continuous
 62
     4
100
AcDbLine
 10
378.521316990811
 20
175.524030197323
 30
0.0
 11
378.646316990811
 21
175.274030197323
 31
0.0
  0
LINE
  5
2E1
330
1F
100
AcDbEntity
  8
1
  6
Continuous
 62
     4
100
AcDbLine
 10
378.271316990811
 20
175.774030197323
 30
0.0
 11
378.521316990811
 21
175.524030197323
 31
0.0
  0
LINE
  5
2E2
330
1F
100
AcDbEntity
  8
1
  6
Continuous
 62
     4
100
AcDbLine
 10
377.771316990811
 20
175.899030197323
 30
0.0
 11
378.271316990811
 21
175.774030197323
 31
0.0
  0
LINE
  5
2E3
330
1F
100
AcDbEntity
  8
1
  6
Continuous
 62
     4
100
AcDbLine
 10
378.146316990811
 20
176.024030197323
 30
0.0
 11
377.771316990811
 21
175.899030197323
 31
0.0
  0
LINE
  5
2E4
330
1F
100
AcDbEntity
  8
1
  6
Continuous
 62
     4
100
AcDbLine
 10
378.396316990811
 20
176.149030197323
 30
0.0
 11
378.146316990811
 21
176.024030197323
 31
0.0
  0
LINE
  5
2E5
330
1F
100
AcDbEntity
  8
1
  6
Continuous
 62
     4
100
AcDbLine
 10
378.646316990811
 20
176.399030197323
 30
0.0
 11
378.396316990811
 21
176.149030197323
 31
0.0
  0
LINE
  5
2E6
330
1F
100
AcDbEntity
  8
1
  6
Continuous
 62
     4
100
AcDbLine
 10
378.771316990811
 20
176.774030197323
 30
0.0
 11
378.646316990811
 21
176.399030197323
 31
0.0
  0
LINE
  5
2E7
330
1F
100
AcDbEntity
  8
1
  6
Continuous
 62
     4
100
AcDbLine
 10
378.771316990811
 20
177.149030197323
 30
0.0
 11
378.771316990811
 21
176.774030197323
 31
0.0
  0
LINE
  5
2E8
330
1F
100
AcDbEntity
  8
1
  6
Continuous
 62
     4
100
AcDbLine
 10
378.646316990811
 20
177.524030197323
 30
0.0
 11
378.771316990811
 21
177.149030197323
 31
0.0
  0
LINE
  5
2E9
330
1F
100
AcDbEntity
  8
1
  6
Continuous
 62
     4
100
AcDbLine
 10
378.271316990811
 20
177.774030197323
 30
0.0
 11
378.646316990811
 21
177.524030197323
 31
0.0
  0
LINE
  5
2EA
330
1F
100
AcDbEntity
  8
1
  6
Continuous
 62
     4
100
AcDbLine
 10
377.646316990811
 20
177.899030197323
 30
0.0
 11
378.271316990811
 21
177.774030197323
 31
0.0
  0
LINE
  5
2EB
330
1F
100
AcDbEntity
  8
1
  6
Continuous
 62
     4
100
AcDbLine
 10
375.771316990811
 20
177.899030197323
 30
0.0
 11
377.646316990811
 21
177.899030197323
 31
0.0
  0
LINE
  5
2EC
330
1F
100
AcDbEntity
  8
1
  6
Continuous
 62
     4
100
AcDbLine
 10
376.521316990811
 20
175.899030197323
 30
0.0
 11
377.771316990811
 21
175.899030197323
 31
0.0
  0
LINE
  5
2ED
330
1F
100
AcDbEntity
  8
1
  6
Continuous
 62
     4
100
AcDbLine
 10
374.396316990811
 20
173.149030197323
 30
0.0
 11
374.396316990811
 21
173.024030197323
 31
0.0
  0
LINE
  5
2EE
330
1F
100
AcDbEntity
  8
1
  6
Continuous
 62
     4
100
AcDbLine
 10
374.271316990811
 20
173.149030197323
 30
0.0
 11
374.396316990811
 21
173.149030197323
 31
0.0
  0
LINE
  5
2EF
330
1F
100
AcDbEntity
  8
1
  6
Continuous
 62
     4
100
AcDbLine
 10
374.271316990811
 20
173.024030197323
 30
0.0
 11
374.271316990811
 21
173.149030197323
 31
0.0
  0
LINE
  5
2F0
330
1F
100
AcDbEntity
  8
1
  6
Continuous
 62
     4
100
AcDbLine
 10
374.396316990811
 20
173.024030197323
 30
0.0
 11
374.271316990811
 21
173.024030197323
 31
0.0
  0
LINE
  5
2F1
330
1F
100
AcDbEntity
  8
1
  6
Continuous
 62
     4
100
AcDbLine
 10
374.521316990811
 20
173.274030197323
 30
0.0
 11
374.521316990811
 21
172.899030197323
 31
0.0
  0
LINE
  5
2F2
330
1F
100
AcDbEntity
  8
1
  6
Continuous
 62
     4
100
AcDbLine
 10
374.146316990811
 20
173.274030197323
 30
0.0
 11
374.521316990811
 21
173.274030197323
 31
0.0
  0
LINE
  5
2F3
330
1F
100
AcDbEntity
  8
1
  6
Continuous
 62
     4
100
AcDbLine
 10
374.146316990811
 20
172.899030197323
 30
0.0
 11
374.146316990811
 21
173.274030197323
 31
0.0
  0
LINE
  5
2F4
330
1F
100
AcDbEntity
  8
1
  6
Continuous
 62
     4
100
AcDbLine
 10
374.521316990811
 20
172.899030197323
 30
0.0
 11
374.146316990811
 21
172.899030197323
 31
0.0
  0
LINE
  5
2F5
330
1F
100
AcDbEntity
  8
1
  6
Continuous
 62
     4
100
AcDbLine
 10
372.646316990811
 20
176.024030197323
 30
0.0
 11
372.646316990811
 21
174.774030197323
 31
0.0
  0
LINE
  5
2F6
330
1F
100
AcDbEntity
  8
1
  6
Continuous
 62
     4
100
AcDbLine
 10
372.521316990811
 20
176.774030197323
 30
0.0
 11
372.646316990811
 21
176.024030197323
 31
0.0
  0
LINE
  5
2F7
330
1F
100
AcDbEntity
  8
1
  6
Continuous
 62
     4
100
AcDbLine
 10
372.271316990811
 20
177.274030197323
 30
0.0
 11
372.521316990811
 21
176.774030197323
 31
0.0
  0
LINE
  5
2F8
330
1F
100
AcDbEntity
  8
1
  6
Continuous
 62
     4
100
AcDbLine
 10
372.021316990811
 20
177.524030197323
 30
0.0
 11
372.271316990811
 21
177.274030197323
 31
0.0
  0
LINE
  5
2F9
330
1F
100
AcDbEntity
  8
1
  6
Continuous
 62
     4
100
AcDbLine
 10
371.646316990811
 20
177.774030197323
 30
0.0
 11
372.021316990811
 21
177.524030197323
 31
0.0
  0
LINE
  5
2FA
330
1F
100
AcDbEntity
  8
1
  6
Continuous
 62
     4
100
AcDbLine
 10
371.271316990811
 20
177.899030197323
 30
0.0
 11
371.646316990811
 21
177.774030197323
 31
0.0
  0
LINE
  5
2FB
330
1F
100
AcDbEntity
  8
1
  6
Continuous
 62
     4
100
AcDbLine
 10
371.021316990811
 20
177.899030197323
 30
0.0
 11
371.271316990811
 21
177.899030197323
 31
0.0
  0
LINE
  5
2FC
330
1F
100
AcDbEntity
  8
1
  6
Continuous
 62
     4
100
AcDbLine
 10
370.646316990811
 20
177.774030197323
 30
0.0
 11
371.021316990811
 21
177.899030197323
 31
0.0
  0
LINE
  5
2FD
330
1F
100
AcDbEntity
  8
1
  6
Continuous
 62
     4
100
AcDbLine
 10
370.271316990811
 20
177.524030197323
 30
0.0
 11
370.646316990811
 21
177.774030197323
 31
0.0
  0
LINE
  5
2FE
330
1F
100
AcDbEntity
  8
1
  6
Continuous
 62
     4
100
AcDbLine
 10
370.021316990811
 20
177.274030197323
 30
0.0
 11
370.271316990811
 21
177.524030197323
 31
0.0
  0
LINE
  5
2FF
330
1F
100
AcDbEntity
  8
1
  6
Continuous
 62
     4
100
AcDbLine
 10
369.771316990811
 20
176.774030197323
 30
0.0
 11
370.021316990811
 21
177.274030197323
 31
0.0
  0
LINE
  5
300
330
1F
100
AcDbEntity
  8
1
  6
Continuous
 62
     4
100
AcDbLine
 10
369.646316990811
 20
176.024030197323
 30
0.0
 11
369.771316990811
 21
176.774030197323
 31
0.0
  0
LINE
  5
301
330
1F
100
AcDbEntity
  8
1
  6
Continuous
 62
     4
100
AcDbLine
 10
369.646316990811
 20
174.774030197323
 30
0.0
 11
369.646316990811
 21
176.024030197323
 31
0.0
  0
LINE
  5
302
330
1F
100
AcDbEntity
  8
1
  6
Continuous
 62
     4
100
AcDbLine
 10
369.771316990811
 20
174.024030197323
 30
0.0
 11
369.646316990811
 21
174.774030197323
 31
0.0
  0
LINE
  5
303
330
1F
100
AcDbEntity
  8
1
  6
Continuous
 62
     4
100
AcDbLine
 10
370.021316990811
 20
173.524030197323
 30
0.0
 11
369.771316990811
 21
174.024030197323
 31
0.0
  0
LINE
  5
304
330
1F
100
AcDbEntity
  8
1
  6
Continuous
 62
     4
100
AcDbLine
 10
370.271316990811
 20
173.274030197323
 30
0.0
 11
370.021316990811
 21
173.524030197323
 31
0.0
  0
LINE
  5
305
330
1F
100
AcDbEntity
  8
1
  6
Continuous
 62
     4
100
AcDbLine
 10
370.646316990811
 20
173.024030197323
 30
0.0
 11
370.271316990811
 21
173.274030197323
 31
0.0
  0
LINE
  5
306
330
1F
100
AcDbEntity
  8
1
  6
Continuous
 62
     4
100
AcDbLine
 10
371.021316990811
 20
172.899030197323
 30
0.0
 11
370.646316990811
 21
173.024030197323
 31
0.0
  0
LINE
  5
307
330
1F
100
AcDbEntity
  8
1
  6
Continuous
 62
     4
100
AcDbLine
 10
371.271316990811
 20
172.899030197323
 30
0.0
 11
371.021316990811
 21
172.899030197323
 31
0.0
  0
LINE
  5
308
330
1F
100
AcDbEntity
  8
1
  6
Continuous
 62
     4
100
AcDbLine
 10
371.646316990811
 20
173.024030197323
 30
0.0
 11
371.271316990811
 21
172.899030197323
 31
0.0
  0
LINE
  5
309
330
1F
100
AcDbEntity
  8
1
  6
Continuous
 62
     4
100
AcDbLine
 10
372.021316990811
 20
173.274030197323
 30
0.0
 11
371.646316990811
 21
173.024030197323
 31
0.0
  0
LINE
  5
30A
330
1F
100
AcDbEntity
  8
1
  6
Continuous
 62
     4
100
AcDbLine
 10
372.271316990811
 20
173.524030197323
 30
0.0
 11
372.021316990811
 21
173.274030197323
 31
0.0
  0
LINE
  5
30B
330
1F
100
AcDbEntity
  8
1
  6
Continuous
 62
     4
100
AcDbLine
 10
372.521316990811
 20
174.024030197323
 30
0.0
 11
372.271316990811
 21
173.524030197323
 31
0.0
  0
LINE
  5
30C
330
1F
100
AcDbEntity
  8
1
  6
Continuous
 62
     4
100
AcDbLine
 10
372.646316990811
 20
174.774030197323
 30
0.0
 11
372.521316990811
 21
174.024030197323
 31
0.0
  0
LINE
  5
30D
330
1F
100
AcDbEntity
  8
1
  6
Continuous
 62
     4
100
AcDbLine
 10
399.146316990811
 20
181.229030197323
 30
0.0
 11
399.146316990811
 21
186.229030197323
 31
0.0
  0
LINE
  5
30E
330
1F
100
AcDbEntity
  8
1
  6
Continuous
 62
     4
100
AcDbLine
 10
402.146316990811
 20
181.229030197323
 30
0.0
 11
399.146316990811
 21
181.229030197323
 31
0.0
  0
LINE
  5
30F
330
1F
100
AcDbEntity
  8
1
  6
Continuous
 62
     4
100
AcDbLine
 10
387.396316990811
 20
182.229030197323
 30
0.0
 11
386.896316990811
 21
181.229030197323
 31
0.0
  0
LINE
  5
310
330
1F
100
AcDbEntity
  8
1
  6
Continuous
 62
     4
100
AcDbLine
 10
387.646316990811
 20
183.229030197323
 30
0.0
 11
387.396316990811
 21
182.229030197323
 31
0.0
  0
LINE
  5
311
330
1F
100
AcDbEntity
  8
1
  6
Continuous
 62
     4
100
AcDbLine
 10
387.646316990811
 20
184.229030197323
 30
0.0
 11
387.646316990811
 21
183.229030197323
 31
0.0
  0
LINE
  5
312
330
1F
100
AcDbEntity
  8
1
  6
Continuous
 62
     4
100
AcDbLine
 10
387.396316990811
 20
185.229030197323
 30
0.0
 11
387.646316990811
 21
184.229030197323
 31
0.0
  0
LINE
  5
313
330
1F
100
AcDbEntity
  8
1
  6
Continuous
 62
     4
100
AcDbLine
 10
386.896316990811
 20
186.229030197323
 30
0.0
 11
387.396316990811
 21
185.229030197323
 31
0.0
  0
LINE
  5
314
330
1F
100
AcDbEntity
  8
1
  6
Continuous
 62
     4
100
AcDbLine
 10
383.646316990811
 20
184.729030197323
 30
0.0
 11
384.646316990811
 21
184.729030197323
 31
0.0
  0
LINE
  5
315
330
1F
100
AcDbEntity
  8
1
  6
Continuous
 62
     4
100
AcDbLine
 10
383.646316990811
 20
184.729030197323
 30
0.0
 11
383.646316990811
 21
181.229030197323
 31
0.0
  0
LINE
  5
316
330
1F
100
AcDbEntity
  8
1
  6
Continuous
 62
     4
100
AcDbLine
 10
385.396316990811
 20
184.104030197323
 30
0.0
 11
385.396316990811
 21
181.229030197323
 31
0.0
  0
LINE
  5
317
330
1F
100
AcDbEntity
  8
1
  6
Continuous
 62
     4
100
AcDbLine
 10
385.271316990811
 20
184.354030197323
 30
0.0
 11
385.396316990811
 21
184.104030197323
 31
0.0
  0
LINE
  5
318
330
1F
100
AcDbEntity
  8
1
  6
Continuous
 62
     4
100
AcDbLine
 10
385.021316990811
 20
184.604030197323
 30
0.0
 11
385.271316990811
 21
184.354030197323
 31
0.0
  0
LINE
  5
319
330
1F
100
AcDbEntity
  8
1
  6
Continuous
 62
     4
100
AcDbLine
 10
384.646316990811
 20
184.729030197323
 30
0.0
 11
385.021316990811
 21
184.604030197323
 31
0.0
  0
LINE
  5
31A
330
1F
100
AcDbEntity
  8
1
  6
Continuous
 62
     4
100
AcDbLine
 10
381.896316990811
 20
184.729030197323
 30
0.0
 11
383.646316990811
 21
184.729030197323
 31
0.0
  0
LINE
  5
31B
330
1F
100
AcDbEntity
  8
1
  6
Continuous
 62
     4
100
AcDbLine
 10
381.896316990811
 20
181.229030197323
 30
0.0
 11
381.896316990811
 21
184.729030197323
 31
0.0
  0
LINE
  5
31C
330
1F
100
AcDbEntity
  8
1
  6
Continuous
 62
     4
100
AcDbLine
 10
379.896316990811
 20
182.229030197323
 30
0.0
 11
380.396316990811
 21
181.229030197323
 31
0.0
  0
LINE
  5
31D
330
1F
100
AcDbEntity
  8
1
  6
Continuous
 62
     4
100
AcDbLine
 10
379.646316990811
 20
183.229030197323
 30
0.0
 11
379.896316990811
 21
182.229030197323
 31
0.0
  0
LINE
  5
31E
330
1F
100
AcDbEntity
  8
1
  6
Continuous
 62
     4
100
AcDbLine
 10
379.646316990811
 20
184.229030197323
 30
0.0
 11
379.646316990811
 21
183.229030197323
 31
0.0
  0
LINE
  5
31F
330
1F
100
AcDbEntity
  8
1
  6
Continuous
 62
     4
100
AcDbLine
 10
379.896316990811
 20
185.229030197323
 30
0.0
 11
379.646316990811
 21
184.229030197323
 31
0.0
  0
LINE
  5
320
330
1F
100
AcDbEntity
  8
1
  6
Continuous
 62
     4
100
AcDbLine
 10
380.396316990811
 20
186.229030197323
 30
0.0
 11
379.896316990811
 21
185.229030197323
 31
0.0
  0
LINE
  5
321
330
1F
100
AcDbEntity
  8
1
  6
Continuous
 62
     4
100
AcDbLine
 10
376.708816990811
 20
181.854030197323
 30
0.0
 11
377.583816990811
 21
181.729030197323
 31
0.0
  0
LINE
  5
322
330
1F
100
AcDbEntity
  8
1
  6
Continuous
 62
     4
100
AcDbLine
 10
376.146316990811
 20
182.166530197323
 30
0.0
 11
376.708816990811
 21
181.854030197323
 31
0.0
  0
LINE
  5
323
330
1F
100
AcDbEntity
  8
1
  6
Continuous
 62
     4
100
AcDbLine
 10
375.896316990811
 20
182.666530197323
 30
0.0
 11
376.146316990811
 21
182.166530197323
 31
0.0
  0
LINE
  5
324
330
1F
100
AcDbEntity
  8
1
  6
Continuous
 62
     4
100
AcDbLine
 10
376.146316990811
 20
183.104030197323
 30
0.0
 11
375.896316990811
 21
182.666530197323
 31
0.0
  0
LINE
  5
325
330
1F
100
AcDbEntity
  8
1
  6
Continuous
 62
     4
100
AcDbLine
 10
377.021316990811
 20
183.416530197323
 30
0.0
 11
376.146316990811
 21
183.104030197323
 31
0.0
  0
LINE
  5
326
330
1F
100
AcDbEntity
  8
1
  6
Continuous
 62
     4
100
AcDbLine
 10
377.958816990811
 20
183.291530197323
 30
0.0
 11
377.021316990811
 21
183.416530197323
 31
0.0
  0
LINE
  5
327
330
1F
100
AcDbEntity
  8
1
  6
Continuous
 62
     4
100
AcDbLine
 10
377.396316990811
 20
184.354030197323
 30
0.0
 11
377.958816990811
 21
183.291530197323
 31
0.0
  0
LINE
  5
328
330
1F
100
AcDbEntity
  8
1
  6
Continuous
 62
     4
100
AcDbLine
 10
376.458816990811
 20
185.791530197323
 30
0.0
 11
377.396316990811
 21
184.354030197323
 31
0.0
  0
LINE
  5
329
330
1F
100
AcDbEntity
  8
1
  6
Continuous
 62
     4
100
AcDbLine
 10
376.896316990811
 20
184.854030197323
 30
0.0
 11
377.833816990811
 21
185.291530197323
 31
0.0
  0
LINE
  5
32A
330
1F
100
AcDbEntity
  8
1
  6
Continuous
 62
     4
100
AcDbLine
 10
375.771316990811
 20
184.541530197323
 30
0.0
 11
376.896316990811
 21
184.854030197323
 31
0.0
  0
LINE
  5
32B
330
1F
100
AcDbEntity
  8
1
  6
Continuous
 62
     4
100
AcDbLine
 10
370.896316990811
 20
185.291530197323
 30
0.0
 11
370.896316990811
 21
181.729030197323
 31
0.0
  0
LINE
  5
32C
330
1F
100
AcDbEntity
  8
1
  6
Continuous
 62
     4
100
AcDbLine
 10
372.833816990811
 20
181.854030197323
 30
0.0
 11
373.958816990811
 21
181.416530197323
 31
0.0
  0
LINE
  5
32D
330
1F
100
AcDbEntity
  8
1
  6
Continuous
 62
     4
100
AcDbLine
 10
372.271316990811
 20
182.479030197323
 30
0.0
 11
372.833816990811
 21
181.854030197323
 31
0.0
  0
LINE
  5
32E
330
1F
100
AcDbEntity
  8
1
  6
Continuous
 62
     4
100
AcDbLine
 10
371.708816990811
 20
183.416530197323
 30
0.0
 11
372.271316990811
 21
182.479030197323
 31
0.0
  0
LINE
  5
32F
330
1F
100
AcDbEntity
  8
1
  6
Continuous
 62
     4
100
AcDbLine
 10
370.896316990811
 20
186.104030197323
 30
0.0
 11
370.896316990811
 21
185.291530197323
 31
0.0
  0
LINE
  5
330
330
1F
100
AcDbEntity
  8
1
  6
Continuous
 62
     4
100
AcDbLine
 10
373.146316990811
 20
186.104030197323
 30
0.0
 11
370.896316990811
 21
186.104030197323
 31
0.0
  0
LINE
  5
331
330
1F
100
AcDbEntity
  8
1
  6
Continuous
 62
     4
100
AcDbLine
 10
372.958816990811
 20
185.291530197323
 30
0.0
 11
370.896316990811
 21
185.291530197323
 31
0.0
  0
LINE
  5
332
330
1F
100
AcDbEntity
  8
1
  6
Continuous
 62
     4
100
AcDbLine
 10
370.896316990811
 20
184.541530197323
 30
0.0
 11
372.958816990811
 21
184.541530197323
 31
0.0
  0
LINE
  5
333
330
1F
100
AcDbEntity
  8
1
  6
Continuous
 62
     4
100
AcDbLine
 10
373.958816990811
 20
183.729030197323
 30
0.0
 11
369.771316990811
 21
183.729030197323
 31
0.0
  0
LINE
  5
334
330
1F
100
AcDbEntity
  8
1
  6
Continuous
 62
     4
100
AcDbLine
 10
372.271316990811
 20
182.666530197323
 30
0.0
 11
373.271316990811
 21
183.291530197323
 31
0.0
  0
LINE
  5
335
330
1F
100
AcDbEntity
  8
1
  6
Continuous
 62
     4
100
AcDbLine
 10
370.083816990811
 20
181.416530197323
 30
0.0
 11
371.896316990811
 21
182.166530197323
 31
0.0
  0
LINE
  5
336
330
1F
100
AcDbEntity
  8
1
  6
Continuous
 62
     4
100
AcDbLine
 10
368.646316990811
 20
185.479030197323
 30
0.0
 11
369.083816990811
 21
184.979030197323
 31
0.0
  0
LINE
  5
337
330
1F
100
AcDbEntity
  8
1
  6
Continuous
 62
     4
100
AcDbLine
 10
368.271316990811
 20
185.166530197323
 30
0.0
 11
368.646316990811
 21
184.666530197323
 31
0.0
  0
LINE
  5
338
330
1F
100
AcDbEntity
  8
1
  6
Continuous
 62
     4
100
AcDbLine
 10
367.708816990811
 20
183.916530197323
 30
0.0
 11
368.271316990811
 21
182.666530197323
 31
0.0
  0
LINE
  5
339
330
1F
100
AcDbEntity
  8
1
  6
Continuous
 62
     4
100
AcDbLine
 10
367.583816990811
 20
184.979030197323
 30
0.0
 11
367.708816990811
 21
183.916530197323
 31
0.0
  0
LINE
  5
33A
330
1F
100
AcDbEntity
  8
1
  6
Continuous
 62
     4
100
AcDbLine
 10
367.583816990811
 20
184.041530197323
 30
0.0
 11
367.583816990811
 21
184.979030197323
 31
0.0
  0
LINE
  5
33B
330
1F
100
AcDbEntity
  8
1
  6
Continuous
 62
     4
100
AcDbLine
 10
367.396316990811
 20
183.104030197323
 30
0.0
 11
367.583816990811
 21
184.041530197323
 31
0.0
  0
LINE
  5
33C
330
1F
100
AcDbEntity
  8
1
  6
Continuous
 62
     4
100
AcDbLine
 10
367.021316990811
 20
182.166530197323
 30
0.0
 11
367.396316990811
 21
183.104030197323
 31
0.0
  0
LINE
  5
33D
330
1F
100
AcDbEntity
  8
1
  6
Continuous
 62
     4
100
AcDbLine
 10
366.458816990811
 20
181.729030197323
 30
0.0
 11
367.021316990811
 21
182.166530197323
 31
0.0
  0
LINE
  5
33E
330
1F
100
AcDbEntity
  8
1
  6
Continuous
 62
     4
100
AcDbLine
 10
365.896316990811
 20
181.541530197323
 30
0.0
 11
366.458816990811
 21
181.729030197323
 31
0.0
  0
LINE
  5
33F
330
1F
100
AcDbEntity
  8
1
  6
Continuous
 62
     4
100
AcDbLine
 10
365.333816990811
 20
181.729030197323
 30
0.0
 11
365.896316990811
 21
181.541530197323
 31
0.0
  0
LINE
  5
340
330
1F
100
AcDbEntity
  8
1
  6
Continuous
 62
     4
100
AcDbLine
 10
365.083816990811
 20
182.166530197323
 30
0.0
 11
365.333816990811
 21
181.729030197323
 31
0.0
  0
LINE
  5
341
330
1F
100
AcDbEntity
  8
1
  6
Continuous
 62
     4
100
AcDbLine
 10
365.083816990811
 20
182.791530197323
 30
0.0
 11
365.083816990811
 21
182.166530197323
 31
0.0
  0
LINE
  5
342
330
1F
100
AcDbEntity
  8
1
  6
Continuous
 62
     4
100
AcDbLine
 10
365.333816990811
 20
183.604030197323
 30
0.0
 11
365.083816990811
 21
182.791530197323
 31
0.0
  0
LINE
  5
343
330
1F
100
AcDbEntity
  8
1
  6
Continuous
 62
     4
100
AcDbLine
 10
365.771316990811
 20
184.229030197323
 30
0.0
 11
365.333816990811
 21
183.604030197323
 31
0.0
  0
LINE
  5
344
330
1F
100
AcDbEntity
  8
1
  6
Continuous
 62
     4
100
AcDbLine
 10
366.333816990811
 20
184.854030197323
 30
0.0
 11
365.771316990811
 21
184.229030197323
 31
0.0
  0
LINE
  5
345
330
1F
100
AcDbEntity
  8
1
  6
Continuous
 62
     4
100
AcDbLine
 10
365.771316990811
 20
184.666530197323
 30
0.0
 11
366.333816990811
 21
184.854030197323
 31
0.0
  0
LINE
  5
346
330
1F
100
AcDbEntity
  8
1
  6
Continuous
 62
     4
100
AcDbLine
 10
365.083816990811
 20
184.541530197323
 30
0.0
 11
365.771316990811
 21
184.666530197323
 31
0.0
  0
LINE
  5
347
330
1F
100
AcDbEntity
  8
1
  6
Continuous
 62
     4
100
AcDbLine
 10
362.708816990811
 20
181.416530197323
 30
0.0
 11
362.146316990811
 21
181.416530197323
 31
0.0
  0
LINE
  5
348
330
1F
100
AcDbEntity
  8
1
  6
Continuous
 62
     4
100
AcDbLine
 10
362.708816990811
 20
185.479030197323
 30
0.0
 11
362.708816990811
 21
181.416530197323
 31
0.0
  0
LINE
  5
349
330
1F
100
AcDbEntity
  8
1
  6
Continuous
 62
     4
100
AcDbLine
 10
361.583816990811
 20
184.979030197323
 30
0.0
 11
362.021316990811
 21
184.041530197323
 31
0.0
  0
LINE
  5
34A
330
1F
100
AcDbEntity
  8
1
  6
Continuous
 62
     4
100
AcDbLine
 10
362.396316990811
 20
185.791530197323
 30
0.0
 11
361.708816990811
 21
185.604030197323
 31
0.0
  0
LINE
  5
34B
330
1F
100
AcDbEntity
  8
1
  6
Continuous
 62
     4
100
AcDbLine
 10
363.396316990811
 20
186.104030197323
 30
0.0
 11
362.396316990811
 21
185.791530197323
 31
0.0
  0
LINE
  5
34C
330
1F
100
AcDbEntity
  8
1
  6
Continuous
 62
     4
100
AcDbLine
 10
363.271316990811
 20
184.041530197323
 30
0.0
 11
363.646316990811
 21
184.979030197323
 31
0.0
  0
LINE
  5
34D
330
1F
100
AcDbEntity
  8
1
  6
Continuous
 62
     4
100
AcDbLine
 10
361.333816990811
 20
183.416530197323
 30
0.0
 11
364.083816990811
 21
183.416530197323
 31
0.0
  0
LINE
  5
34E
330
1F
100
AcDbEntity
  8
1
  6
Continuous
 62
     4
100
AcDbLine
 10
359.896316990811
 20
185.479030197323
 30
0.0
 11
359.896316990811
 21
182.791530197323
 31
0.0
  0
LINE
  5
34F
330
1F
100
AcDbEntity
  8
1
  6
Continuous
 62
     4
100
AcDbLine
 10
360.896316990811
 20
185.479030197323
 30
0.0
 11
359.896316990811
 21
185.479030197323
 31
0.0
  0
LINE
  5
350
330
1F
100
AcDbEntity
  8
1
  6
Continuous
 62
     4
100
AcDbLine
 10
360.896316990811
 20
182.791530197323
 30
0.0
 11
360.896316990811
 21
185.479030197323
 31
0.0
  0
LINE
  5
351
330
1F
100
AcDbEntity
  8
1
  6
Continuous
 62
     4
100
AcDbLine
 10
359.896316990811
 20
182.791530197323
 30
0.0
 11
360.896316990811
 21
182.791530197323
 31
0.0
  0
LINE
  5
352
330
1F
100
AcDbEntity
  8
1
  6
Continuous
 62
     4
100
AcDbLine
 10
389.896316990811
 20
201.014030197323
 30
0.0
 11
389.896316990811
 21
199.764030197323
 31
0.0
  0
LINE
  5
353
330
1F
100
AcDbEntity
  8
1
  6
Continuous
 62
     4
100
AcDbLine
 10
389.771316990811
 20
201.764030197323
 30
0.0
 11
389.896316990811
 21
201.014030197323
 31
0.0
  0
LINE
  5
354
330
1F
100
AcDbEntity
  8
1
  6
Continuous
 62
     4
100
AcDbLine
 10
389.521316990811
 20
202.264030197323
 30
0.0
 11
389.771316990811
 21
201.764030197323
 31
0.0
  0
LINE
  5
355
330
1F
100
AcDbEntity
  8
1
  6
Continuous
 62
     4
100
AcDbLine
 10
389.271316990811
 20
202.514030197323
 30
0.0
 11
389.521316990811
 21
202.264030197323
 31
0.0
  0
LINE
  5
356
330
1F
100
AcDbEntity
  8
1
  6
Continuous
 62
     4
100
AcDbLine
 10
388.896316990811
 20
202.764030197323
 30
0.0
 11
389.271316990811
 21
202.514030197323
 31
0.0
  0
LINE
  5
357
330
1F
100
AcDbEntity
  8
1
  6
Continuous
 62
     4
100
AcDbLine
 10
388.521316990811
 20
202.889030197323
 30
0.0
 11
388.896316990811
 21
202.764030197323
 31
0.0
  0
LINE
  5
358
330
1F
100
AcDbEntity
  8
1
  6
Continuous
 62
     4
100
AcDbLine
 10
388.271316990811
 20
202.889030197323
 30
0.0
 11
388.521316990811
 21
202.889030197323
 31
0.0
  0
LINE
  5
359
330
1F
100
AcDbEntity
  8
1
  6
Continuous
 62
     4
100
AcDbLine
 10
387.896316990811
 20
202.764030197323
 30
0.0
 11
388.271316990811
 21
202.889030197323
 31
0.0
  0
LINE
  5
35A
330
1F
100
AcDbEntity
  8
1
  6
Continuous
 62
     4
100
AcDbLine
 10
387.521316990811
 20
202.514030197323
 30
0.0
 11
387.896316990811
 21
202.764030197323
 31
0.0
  0
LINE
  5
35B
330
1F
100
AcDbEntity
  8
1
  6
Continuous
 62
     4
100
AcDbLine
 10
387.271316990811
 20
202.264030197323
 30
0.0
 11
387.521316990811
 21
202.514030197323
 31
0.0
  0
LINE
  5
35C
330
1F
100
AcDbEntity
  8
1
  6
Continuous
 62
     4
100
AcDbLine
 10
387.021316990811
 20
201.764030197323
 30
0.0
 11
387.271316990811
 21
202.264030197323
 31
0.0
  0
LINE
  5
35D
330
1F
100
AcDbEntity
  8
1
  6
Continuous
 62
     4
100
AcDbLine
 10
386.896316990811
 20
201.014030197323
 30
0.0
 11
387.021316990811
 21
201.764030197323
 31
0.0
  0
LINE
  5
35E
330
1F
100
AcDbEntity
  8
1
  6
Continuous
 62
     4
100
AcDbLine
 10
386.896316990811
 20
199.764030197323
 30
0.0
 11
386.896316990811
 21
201.014030197323
 31
0.0
  0
LINE
  5
35F
330
1F
100
AcDbEntity
  8
1
  6
Continuous
 62
     4
100
AcDbLine
 10
387.021316990811
 20
199.014030197323
 30
0.0
 11
386.896316990811
 21
199.764030197323
 31
0.0
  0
LINE
  5
360
330
1F
100
AcDbEntity
  8
1
  6
Continuous
 62
     4
100
AcDbLine
 10
387.271316990811
 20
198.514030197323
 30
0.0
 11
387.021316990811
 21
199.014030197323
 31
0.0
  0
LINE
  5
361
330
1F
100
AcDbEntity
  8
1
  6
Continuous
 62
     4
100
AcDbLine
 10
387.521316990811
 20
198.264030197323
 30
0.0
 11
387.271316990811
 21
198.514030197323
 31
0.0
  0
LINE
  5
362
330
1F
100
AcDbEntity
  8
1
  6
Continuous
 62
     4
100
AcDbLine
 10
387.896316990811
 20
198.014030197323
 30
0.0
 11
387.521316990811
 21
198.264030197323
 31
0.0
  0
LINE
  5
363
330
1F
100
AcDbEntity
  8
1
  6
Continuous
 62
     4
100
AcDbLine
 10
388.271316990811
 20
197.889030197323
 30
0.0
 11
387.896316990811
 21
198.014030197323
 31
0.0
  0
LINE
  5
364
330
1F
100
AcDbEntity
  8
1
  6
Continuous
 62
     4
100
AcDbLine
 10
388.521316990811
 20
197.889030197323
 30
0.0
 11
388.271316990811
 21
197.889030197323
 31
0.0
  0
LINE
  5
365
330
1F
100
AcDbEntity
  8
1
  6
Continuous
 62
     4
100
AcDbLine
 10
388.896316990811
 20
198.014030197323
 30
0.0
 11
388.521316990811
 21
197.889030197323
 31
0.0
  0
LINE
  5
366
330
1F
100
AcDbEntity
  8
1
  6
Continuous
 62
     4
100
AcDbLine
 10
389.271316990811
 20
198.264030197323
 30
0.0
 11
388.896316990811
 21
198.014030197323
 31
0.0
  0
LINE
  5
367
330
1F
100
AcDbEntity
  8
1
  6
Continuous
 62
     4
100
AcDbLine
 10
389.521316990811
 20
198.514030197323
 30
0.0
 11
389.271316990811
 21
198.264030197323
 31
0.0
  0
LINE
  5
368
330
1F
100
AcDbEntity
  8
1
  6
Continuous
 62
     4
100
AcDbLine
 10
389.771316990811
 20
199.014030197323
 30
0.0
 11
389.521316990811
 21
198.514030197323
 31
0.0
  0
LINE
  5
369
330
1F
100
AcDbEntity
  8
1
  6
Continuous
 62
     4
100
AcDbLine
 10
389.896316990811
 20
199.764030197323
 30
0.0
 11
389.771316990811
 21
199.014030197323
 31
0.0
  0
LINE
  5
36A
330
1F
100
AcDbEntity
  8
1
  6
Continuous
 62
     4
100
AcDbLine
 10
384.271316990811
 20
197.889030197323
 30
0.0
 11
382.396316990811
 21
197.889030197323
 31
0.0
  0
LINE
  5
36B
330
1F
100
AcDbEntity
  8
1
  6
Continuous
 62
     4
100
AcDbLine
 10
384.646316990811
 20
198.014030197323
 30
0.0
 11
384.271316990811
 21
197.889030197323
 31
0.0
  0
LINE
  5
36C
330
1F
100
AcDbEntity
  8
1
  6
Continuous
 62
     4
100
AcDbLine
 10
385.021316990811
 20
198.264030197323
 30
0.0
 11
384.646316990811
 21
198.014030197323
 31
0.0
  0
LINE
  5
36D
330
1F
100
AcDbEntity
  8
1
  6
Continuous
 62
     4
100
AcDbLine
 10
385.271316990811
 20
198.639030197323
 30
0.0
 11
385.021316990811
 21
198.264030197323
 31
0.0
  0
LINE
  5
36E
330
1F
100
AcDbEntity
  8
1
  6
Continuous
 62
     4
100
AcDbLine
 10
385.396316990811
 20
199.139030197323
 30
0.0
 11
385.271316990811
 21
198.639030197323
 31
0.0
  0
LINE
  5
36F
330
1F
100
AcDbEntity
  8
1
  6
Continuous
 62
     4
100
AcDbLine
 10
385.396316990811
 20
199.889030197323
 30
0.0
 11
385.396316990811
 21
199.139030197323
 31
0.0
  0
LINE
  5
370
330
1F
100
AcDbEntity
  8
1
  6
Continuous
 62
     4
100
AcDbLine
 10
385.271316990811
 20
200.389030197323
 30
0.0
 11
385.396316990811
 21
199.889030197323
 31
0.0
  0
LINE
  5
371
330
1F
100
AcDbEntity
  8
1
  6
Continuous
 62
     4
100
AcDbLine
 10
384.896316990811
 20
200.764030197323
 30
0.0
 11
385.271316990811
 21
200.389030197323
 31
0.0
  0
LINE
  5
372
330
1F
100
AcDbEntity
  8
1
  6
Continuous
 62
     4
100
AcDbLine
 10
384.271316990811
 20
200.889030197323
 30
0.0
 11
384.896316990811
 21
200.764030197323
 31
0.0
  0
LINE
  5
373
330
1F
100
AcDbEntity
  8
1
  6
Continuous
 62
     4
100
AcDbLine
 10
382.396316990811
 20
200.889030197323
 30
0.0
 11
384.271316990811
 21
200.889030197323
 31
0.0
  0
LINE
  5
374
330
1F
100
AcDbEntity
  8
1
  6
Continuous
 62
     4
100
AcDbLine
 10
382.396316990811
 20
202.889030197323
 30
0.0
 11
382.396316990811
 21
200.889030197323
 31
0.0
  0
LINE
  5
375
330
1F
100
AcDbEntity
  8
1
  6
Continuous
 62
     4
100
AcDbLine
 10
385.146316990811
 20
202.889030197323
 30
0.0
 11
382.396316990811
 21
202.889030197323
 31
0.0
  0
LINE
  5
376
330
1F
100
AcDbEntity
  8
1
  6
Continuous
 62
     4
100
AcDbLine
 10
378.396316990811
 20
199.639030197323
 30
0.0
 11
380.896316990811
 21
199.639030197323
 31
0.0
  0
LINE
  5
377
330
1F
100
AcDbEntity
  8
1
  6
Continuous
 62
     4
100
AcDbLine
 10
373.646316990811
 20
198.264030197323
 30
0.0
 11
373.396316990811
 21
198.514030197323
 31
0.0
  0
LINE
  5
378
330
1F
100
AcDbEntity
  8
1
  6
Continuous
 62
     4
100
AcDbLine
 10
374.146316990811
 20
198.014030197323
 30
0.0
 11
373.646316990811
 21
198.264030197323
 31
0.0
  0
LINE
  5
379
330
1F
100
AcDbEntity
  8
1
  6
Continuous
 62
     4
100
AcDbLine
 10
374.771316990811
 20
197.889030197323
 30
0.0
 11
374.146316990811
 21
198.014030197323
 31
0.0
  0
LINE
  5
37A
330
1F
100
AcDbEntity
  8
1
  6
Continuous
 62
     4
100
AcDbLine
 10
375.521316990811
 20
197.889030197323
 30
0.0
 11
374.771316990811
 21
197.889030197323
 31
0.0
  0
LINE
  5
37B
330
1F
100
AcDbEntity
  8
1
  6
Continuous
 62
     4
100
AcDbLine
 10
376.146316990811
 20
198.014030197323
 30
0.0
 11
375.521316990811
 21
197.889030197323
 31
0.0
  0
LINE
  5
37C
330
1F
100
AcDbEntity
  8
1
  6
Continuous
 62
     4
100
AcDbLine
 10
376.521316990811
 20
198.264030197323
 30
0.0
 11
376.146316990811
 21
198.014030197323
 31
0.0
  0
LINE
  5
37D
330
1F
100
AcDbEntity
  8
1
  6
Continuous
 62
     4
100
AcDbLine
 10
376.771316990811
 20
198.639030197323
 30
0.0
 11
376.521316990811
 21
198.264030197323
 31
0.0
  0
LINE
  5
37E
330
1F
100
AcDbEntity
  8
1
  6
Continuous
 62
     4
100
AcDbLine
 10
376.896316990811
 20
199.014030197323
 30
0.0
 11
376.771316990811
 21
198.639030197323
 31
0.0
  0
LINE
  5
37F
330
1F
100
AcDbEntity
  8
1
  6
Continuous
 62
     4
100
AcDbLine
 10
376.896316990811
 20
199.264030197323
 30
0.0
 11
376.896316990811
 21
199.014030197323
 31
0.0
  0
LINE
  5
380
330
1F
100
AcDbEntity
  8
1
  6
Continuous
 62
     4
100
AcDbLine
 10
376.771316990811
 20
199.639030197323
 30
0.0
 11
376.896316990811
 21
199.264030197323
 31
0.0
  0
LINE
  5
381
330
1F
100
AcDbEntity
  8
1
  6
Continuous
 62
     4
100
AcDbLine
 10
376.521316990811
 20
200.014030197323
 30
0.0
 11
376.771316990811
 21
199.639030197323
 31
0.0
  0
LINE
  5
382
330
1F
100
AcDbEntity
  8
1
  6
Continuous
 62
     4
100
AcDbLine
 10
376.146316990811
 20
200.264030197323
 30
0.0
 11
376.521316990811
 21
200.014030197323
 31
0.0
  0
LINE
  5
383
330
1F
100
AcDbEntity
  8
1
  6
Continuous
 62
     4
100
AcDbLine
 10
374.021316990811
 20
201.139030197323
 30
0.0
 11
376.146316990811
 21
200.264030197323
 31
0.0
  0
LINE
  5
384
330
1F
100
AcDbEntity
  8
1
  6
Continuous
 62
     4
100
AcDbLine
 10
373.646316990811
 20
201.389030197323
 30
0.0
 11
374.021316990811
 21
201.139030197323
 31
0.0
  0
LINE
  5
385
330
1F
100
AcDbEntity
  8
1
  6
Continuous
 62
     4
100
AcDbLine
 10
373.521316990811
 20
201.764030197323
 30
0.0
 11
373.646316990811
 21
201.389030197323
 31
0.0
  0
LINE
  5
386
330
1F
100
AcDbEntity
  8
1
  6
Continuous
 62
     4
100
AcDbLine
 10
373.521316990811
 20
202.014030197323
 30
0.0
 11
373.521316990811
 21
201.764030197323
 31
0.0
  0
LINE
  5
387
330
1F
100
AcDbEntity
  8
1
  6
Continuous
 62
     4
100
AcDbLine
 10
373.646316990811
 20
202.389030197323
 30
0.0
 11
373.521316990811
 21
202.014030197323
 31
0.0
  0
LINE
  5
388
330
1F
100
AcDbEntity
  8
1
  6
Continuous
 62
     4
100
AcDbLine
 10
374.021316990811
 20
202.639030197323
 30
0.0
 11
373.646316990811
 21
202.389030197323
 31
0.0
  0
LINE
  5
389
330
1F
100
AcDbEntity
  8
1
  6
Continuous
 62
     4
100
AcDbLine
 10
374.396316990811
 20
202.764030197323
 30
0.0
 11
374.021316990811
 21
202.639030197323
 31
0.0
  0
LINE
  5
38A
330
1F
100
AcDbEntity
  8
1
  6
Continuous
 62
     4
100
AcDbLine
 10
374.896316990811
 20
202.889030197323
 30
0.0
 11
374.396316990811
 21
202.764030197323
 31
0.0
  0
LINE
  5
38B
330
1F
100
AcDbEntity
  8
1
  6
Continuous
 62
     4
100
AcDbLine
 10
375.396316990811
 20
202.889030197323
 30
0.0
 11
374.896316990811
 21
202.889030197323
 31
0.0
  0
LINE
  5
38C
330
1F
100
AcDbEntity
  8
1
  6
Continuous
 62
     4
100
AcDbLine
 10
376.021316990811
 20
202.764030197323
 30
0.0
 11
375.396316990811
 21
202.889030197323
 31
0.0
  0
LINE
  5
38D
330
1F
100
AcDbEntity
  8
1
  6
Continuous
 62
     4
100
AcDbLine
 10
376.396316990811
 20
202.639030197323
 30
0.0
 11
376.021316990811
 21
202.764030197323
 31
0.0
  0
LINE
  5
38E
330
1F
100
AcDbEntity
  8
1
  6
Continuous
 62
     4
100
AcDbLine
 10
376.771316990811
 20
202.389030197323
 30
0.0
 11
376.396316990811
 21
202.639030197323
 31
0.0
  0
LINE
  5
38F
330
1F
100
AcDbEntity
  8
1
  6
Continuous
 62
     4
100
AcDbLine
 10
369.396316990811
 20
199.639030197323
 30
0.0
 11
371.896316990811
 21
199.639030197323
 31
0.0
  0
LINE
  5
390
330
1F
100
AcDbEntity
  8
1
  6
Continuous
 62
     4
100
AcDbLine
 10
364.396316990811
 20
200.639030197323
 30
0.0
 11
364.396316990811
 21
200.389030197323
 31
0.0
  0
LINE
  5
391
330
1F
100
AcDbEntity
  8
1
  6
Continuous
 62
     4
100
AcDbLine
 10
367.896316990811
 20
200.639030197323
 30
0.0
 11
367.896316990811
 21
197.889030197323
 31
0.0
  0
LINE
  5
392
330
1F
100
AcDbEntity
  8
1
  6
Continuous
 62
     4
100
AcDbLine
 10
364.396316990811
 20
200.389030197323
 30
0.0
 11
364.396316990811
 21
197.889030197323
 31
0.0
  0
LINE
  5
393
330
1F
100
AcDbEntity
  8
1
  6
Continuous
 62
     4
100
AcDbLine
 10
364.396316990811
 20
202.889030197323
 30
0.0
 11
364.396316990811
 21
200.639030197323
 31
0.0
  0
LINE
  5
394
330
1F
100
AcDbEntity
  8
1
  6
Continuous
 62
     4
100
AcDbLine
 10
364.396316990811
 20
200.639030197323
 30
0.0
 11
367.896316990811
 21
200.639030197323
 31
0.0
  0
LINE
  5
395
330
1F
100
AcDbEntity
  8
1
  6
Continuous
 62
     4
100
AcDbLine
 10
367.896316990811
 20
202.889030197323
 30
0.0
 11
367.896316990811
 21
200.639030197323
 31
0.0
  0
LINE
  5
396
330
1F
100
AcDbEntity
  8
1
  6
Continuous
 62
     4
100
AcDbLine
 10
359.646316990811
 20
200.639030197323
 30
0.0
 11
359.646316990811
 21
202.889030197323
 31
0.0
  0
LINE
  5
397
330
1F
100
AcDbEntity
  8
1
  6
Continuous
 62
     4
100
AcDbLine
 10
362.021316990811
 20
200.764030197323
 30
0.0
 11
361.646316990811
 21
200.639030197323
 31
0.0
  0
LINE
  5
398
330
1F
100
AcDbEntity
  8
1
  6
Continuous
 62
     4
100
AcDbLine
 10
362.396316990811
 20
201.014030197323
 30
0.0
 11
362.021316990811
 21
200.764030197323
 31
0.0
  0
LINE
  5
399
330
1F
100
AcDbEntity
  8
1
  6
Continuous
 62
     4
100
AcDbLine
 10
362.646316990811
 20
201.514030197323
 30
0.0
 11
362.396316990811
 21
201.014030197323
 31
0.0
  0
LINE
  5
39A
330
1F
100
AcDbEntity
  8
1
  6
Continuous
 62
     4
100
AcDbLine
 10
362.646316990811
 20
201.889030197323
 30
0.0
 11
362.646316990811
 21
201.514030197323
 31
0.0
  0
LINE
  5
39B
330
1F
100
AcDbEntity
  8
1
  6
Continuous
 62
     4
100
AcDbLine
 10
362.521316990811
 20
202.389030197323
 30
0.0
 11
362.646316990811
 21
201.889030197323
 31
0.0
  0
LINE
  5
39C
330
1F
100
AcDbEntity
  8
1
  6
Continuous
 62
     4
100
AcDbLine
 10
362.146316990811
 20
202.764030197323
 30
0.0
 11
362.521316990811
 21
202.389030197323
 31
0.0
  0
LINE
  5
39D
330
1F
100
AcDbEntity
  8
1
  6
Continuous
 62
     4
100
AcDbLine
 10
361.521316990811
 20
202.889030197323
 30
0.0
 11
362.146316990811
 21
202.764030197323
 31
0.0
  0
LINE
  5
39E
330
1F
100
AcDbEntity
  8
1
  6
Continuous
 62
     4
100
AcDbLine
 10
359.646316990811
 20
202.889030197323
 30
0.0
 11
361.521316990811
 21
202.889030197323
 31
0.0
  0
LINE
  5
39F
330
1F
100
AcDbEntity
  8
1
  6
Continuous
 62
     4
100
AcDbLine
 10
359.646316990811
 20
197.889030197323
 30
0.0
 11
359.646316990811
 21
200.639030197323
 31
0.0
  0
LINE
  5
3A0
330
1F
100
AcDbEntity
  8
1
  6
Continuous
 62
     4
100
AcDbLine
 10
361.896316990811
 20
197.889030197323
 30
0.0
 11
359.646316990811
 21
197.889030197323
 31
0.0
  0
LINE
  5
3A1
330
1F
100
AcDbEntity
  8
1
  6
Continuous
 62
     4
100
AcDbLine
 10
362.396316990811
 20
198.139030197323
 30
0.0
 11
361.896316990811
 21
197.889030197323
 31
0.0
  0
LINE
  5
3A2
330
1F
100
AcDbEntity
  8
1
  6
Continuous
 62
     4
100
AcDbLine
 10
362.646316990811
 20
198.389030197323
 30
0.0
 11
362.396316990811
 21
198.139030197323
 31
0.0
  0
LINE
  5
3A3
330
1F
100
AcDbEntity
  8
1
  6
Continuous
 62
     4
100
AcDbLine
 10
362.896316990811
 20
198.889030197323
 30
0.0
 11
362.646316990811
 21
198.389030197323
 31
0.0
  0
LINE
  5
3A4
330
1F
100
AcDbEntity
  8
1
  6
Continuous
 62
     4
100
AcDbLine
 10
362.896316990811
 20
199.514030197323
 30
0.0
 11
362.896316990811
 21
198.889030197323
 31
0.0
  0
LINE
  5
3A5
330
1F
100
AcDbEntity
  8
1
  6
Continuous
 62
     4
100
AcDbLine
 10
362.646316990811
 20
200.139030197323
 30
0.0
 11
362.896316990811
 21
199.514030197323
 31
0.0
  0
LINE
  5
3A6
330
1F
100
AcDbEntity
  8
1
  6
Continuous
 62
     4
100
AcDbLine
 10
362.396316990811
 20
200.389030197323
 30
0.0
 11
362.646316990811
 21
200.139030197323
 31
0.0
  0
LINE
  5
3A7
330
1F
100
AcDbEntity
  8
1
  6
Continuous
 62
     4
100
AcDbLine
 10
361.896316990811
 20
200.639030197323
 30
0.0
 11
362.396316990811
 21
200.389030197323
 31
0.0
  0
LINE
  5
3A8
330
1F
100
AcDbEntity
  8
1
  6
Continuous
 62
     4
100
AcDbLine
 10
361.646316990811
 20
200.639030197323
 30
0.0
 11
361.896316990811
 21
200.639030197323
 31
0.0
  0
LINE
  5
3A9
330
1F
100
AcDbEntity
  8
1
  6
Continuous
 62
     4
100
AcDbLine
 10
359.646316990811
 20
200.639030197323
 30
0.0
 11
361.646316990811
 21
200.639030197323
 31
0.0
  0
LINE
  5
402
330
1F
100
AcDbEntity
  8
1
  6
Continuous
 62
     4
100
AcDbLine
 10
143.120025634766
 20
-29.8069972991943
 30
0.0
 11
143.990432931082
 21
-32.7883664588323
 31
0.0
  0
LINE
  5
403
330
1F
100
AcDbEntity
  8
1
  6
Continuous
 62
     4
100
AcDbLine
 10
143.120025634766
 20
-29.8069972991943
 30
0.0
 11
145.364505044834
 21
-31.9537350813423
 31
0.0
  0
LINE
  5
404
330
1F
100
AcDbEntity
  8
1
  6
Continuous
 62
     4
100
AcDbLine
 10
-143.120025634766
 20
-29.8069972991943
 30
0.0
 11
-145.552921143594
 21
-31.7375905682817
 31
0.0
  0
LINE
  5
405
330
1F
100
AcDbEntity
  8
1
  6
Continuous
 62
     4
100
AcDbLine
 10
-143.120025634766
 20
-29.8069972991943
 30
0.0
 11
-144.26167831562
 21
-32.6953878690132
 31
0.0
  0
LINE
  5
406
330
1F
100
AcDbEntity
  8
1
  6
Continuous
 62
     4
100
AcDbLine
 10
13.1
 20
-145.45856856135
 30
0.0
 11
14.5645554652924
 21
-148.197409231525
 31
0.0
  0
LINE
  5
407
330
1F
100
AcDbEntity
  8
1
  6
Continuous
 62
     4
100
AcDbLine
 10
13.1
 20
-145.45856856135
 30
0.0
 11
15.7377625732819
 21
-147.098196425993
 31
0.0
  0
LINE
  5
408
330
1F
100
AcDbEntity
  8
100
  6
Continuous
 62
     3
100
AcDbLine
 10
23.6713610367747
 20
220.0
 30
0.0
 11
15.0
 21
224.0
 31
0.0
  0
LINE
  5
409
330
1F
100
AcDbEntity
  8
100
  6
Continuous
 62
     3
100
AcDbLine
 10
15.0
 20
224.0
 30
0.0
 11
15.0
 21
244.0
 31
0.0
  0
LINE
  5
40A
330
1F
100
AcDbEntity
  8
100
  6
Continuous
 62
     3
100
AcDbLine
 10
15.0
 20
244.0
 30
0.0
 11
-15.0
 21
244.0
 31
0.0
  0
LINE
  5
40B
330
1F
100
AcDbEntity
  8
100
  6
Continuous
 62
     3
100
AcDbLine
 10
-15.0
 20
244.0
 30
0.0
 11
-15.0
 21
224.0
 31
0.0
  0
LINE
  5
40C
330
1F
100
AcDbEntity
  8
100
  6
Continuous
 62
     3
100
AcDbLine
 10
-15.0
 20
224.0
 30
0.0
 11
-23.6713610367747
 21
220.0
 31
0.0
  0
LINE
  5
40D
330
1F
100
AcDbEntity
  8
100
  6
Continuous
 62
     3
100
AcDbLine
 10
42.408
 20
35.0
 30
0.0
 11
43.5
 21
36.092
 31
0.0
  0
LINE
  5
40E
330
1F
100
AcDbEntity
  8
100
  6
Continuous
 62
     3
100
AcDbLine
 10
25.5
 20
69.5
 30
0.0
 11
25.5
 21
40.0
 31
0.0
  0
LINE
  5
40F
330
1F
100
AcDbEntity
  8
100
  6
Continuous
 62
     3
100
AcDbLine
 10
-34.0
 20
94.0
 30
0.0
 11
34.0
 21
94.0
 31
0.0
  0
LINE
  5
410
330
1F
100
AcDbEntity
  8
100
  6
Continuous
 62
     3
100
AcDbLine
 10
34.0
 20
94.0
 30
0.0
 11
34.0
 21
69.5
 31
0.0
  0
LINE
  5
411
330
1F
100
AcDbEntity
  8
100
  6
Continuous
 62
     3
100
AcDbLine
 10
-34.0
 20
69.5
 30
0.0
 11
34.0
 21
69.5
 31
0.0
  0
LINE
  5
412
330
1F
100
AcDbEntity
  8
100
  6
Continuous
 62
     3
100
AcDbLine
 10
-25.5
 20
40.0
 30
0.0
 11
25.5
 21
40.0
 31
0.0
  0
LINE
  5
413
330
1F
100
AcDbEntity
  8
100
  6
Continuous
 62
     3
100
AcDbLine
 10
-25.5
 20
69.5
 30
0.0
 11
-25.5
 21
40.0
 31
0.0
  0
LINE
  5
414
330
1F
100
AcDbEntity
  8
100
  6
Continuous
 62
     3
100
AcDbLine
 10
-34.0
 20
94.0
 30
0.0
 11
-34.0
 21
69.5
 31
0.0
  0
LINE
  5
415
330
1F
100
AcDbEntity
  8
2
  6
DOT_CENTER
 62
     1
100
AcDbLine
 10
270.0
 20
311.0
 30
0.0
 11
270.0
 21
-169.740616876996
 31
0.0
  0
LINE
  5
416
330
1F
100
AcDbEntity
  8
100
  6
Continuous
 62
     3
100
AcDbLine
 10
236.0
 20
94.0
 30
0.0
 11
304.0
 21
94.0
 31
0.0
  0
LINE
  5
417
330
1F
100
AcDbEntity
  8
100
  6
Continuous
 62
     3
100
AcDbLine
 10
236.0
 20
69.5
 30
0.0
 11
304.0
 21
69.5
 31
0.0
  0
LINE
  5
418
330
1F
100
AcDbEntity
  8
100
  6
Continuous
 62
     3
100
AcDbLine
 10
304.0
 20
94.0
 30
0.0
 11
304.0
 21
69.5
 31
0.0
  0
LINE
  5
419
330
1F
100
AcDbEntity
  8
100
  6
Continuous
 62
     3
100
AcDbLine
 10
244.5
 20
69.5
 30
0.0
 11
244.5
 21
40.0
 31
0.0
  0
LINE
  5
41A
330
1F
100
AcDbEntity
  8
100
  6
Continuous
 62
     3
100
AcDbLine
 10
236.0
 20
94.0
 30
0.0
 11
236.0
 21
69.5
 31
0.0
  0
LINE
  5
41B
330
1F
100
AcDbEntity
  8
100
  6
Continuous
 62
     3
100
AcDbLine
 10
295.5
 20
69.5
 30
0.0
 11
295.5
 21
40.0
 31
0.0
  0
LINE
  5
41C
330
1F
100
AcDbEntity
  8
100
  6
Continuous
 62
     3
100
AcDbLine
 10
241.5
 20
40.0
 30
0.0
 11
259.430379375061
 21
40.0
 31
0.0
  0
LINE
  5
41D
330
1F
100
AcDbEntity
  8
100
  6
Continuous
 62
     3
100
AcDbLine
 10
280.569620624939
 20
40.0
 30
0.0
 11
298.5
 21
40.0
 31
0.0
  0
LINE
  5
41E
330
1F
100
AcDbEntity
  8
100
  6
Continuous
 62
     3
100
AcDbLine
 10
-6.5
 20
244.0
 30
0.0
 11
-6.5
 21
279.000000346708
 31
0.0
  0
LINE
  5
41F
330
1F
100
AcDbEntity
  8
100
  6
Continuous
 62
     3
100
AcDbLine
 10
-12.7435344872925
 20
282.717672785335
 30
0.0
 11
12.7435344872925
 21
282.717672785335
 31
0.0
  0
LINE
  5
420
330
1F
100
AcDbEntity
  8
100
  6
Continuous
 62
     3
100
AcDbLine
 10
-11.9999999302253
 20
279.0
 30
0.0
 11
11.9999999302253
 21
279.0
 31
0.0
  0
LINE
  5
421
330
1F
100
AcDbEntity
  8
100
  6
Continuous
 62
     3
100
AcDbLine
 10
40.9999999302256
 20
298.999999999999
 30
0.0
 11
-40.9999999302253
 21
299.0
 31
0.0
  0
LINE
  5
422
330
1F
100
AcDbEntity
  8
100
  6
Continuous
 62
     3
100
AcDbLine
 10
-40.9999999302254
 20
285.0
 30
0.0
 11
40.9999999302253
 21
285.0
 31
0.0
  0
LINE
  5
423
330
1F
100
AcDbEntity
  8
100
  6
Continuous
 62
     3
100
AcDbLine
 10
-12.7435344872925
 20
282.717672785335
 30
0.0
 11
-16.8932203321371
 21
285.0
 31
0.0
  0
LINE
  5
424
330
1F
100
AcDbEntity
  8
100
  6
Continuous
 62
     3
100
AcDbLine
 10
-11.9999999302253
 20
279.0
 30
0.0
 11
-12.7435344872925
 21
282.717672785335
 31
0.0
  0
LINE
  5
425
330
1F
100
AcDbEntity
  8
100
  6
Continuous
 62
     3
100
AcDbLine
 10
6.5
 20
244.0
 30
0.0
 11
6.5
 21
279.000000346708
 31
0.0
  0
LINE
  5
426
330
1F
100
AcDbEntity
  8
100
  6
Continuous
 62
     3
100
AcDbLine
 10
11.9999999302253
 20
279.0
 30
0.0
 11
12.7435344872925
 21
282.717672785335
 31
0.0
  0
LINE
  5
427
330
1F
100
AcDbEntity
  8
100
  6
Continuous
 62
     3
100
AcDbLine
 10
12.7435344872925
 20
282.717672785335
 30
0.0
 11
16.8932203321371
 21
285.0
 31
0.0
  0
LINE
  5
428
330
1F
100
AcDbEntity
  8
100
  6
Continuous
 62
     3
100
AcDbLine
 10
34.0
 20
206.0
 30
0.0
 11
34.0
 21
200.0
 31
0.0
  0
LINE
  5
429
330
1F
100
AcDbEntity
  8
100
  6
Continuous
 62
     3
100
AcDbLine
 10
-34.0
 20
206.0
 30
0.0
 11
-34.0
 21
200.0
 31
0.0
  0
LINE
  5
42A
330
1F
100
AcDbEntity
  8
100
  6
Continuous
 62
     3
100
AcDbLine
 10
-34.0
 20
206.0
 30
0.0
 11
34.0
 21
206.0
 31
0.0
  0
LINE
  5
42B
330
1F
100
AcDbEntity
  8
100
  6
Continuous
 62
     3
100
AcDbLine
 10
-23.6713610367747
 20
206.0
 30
0.0
 11
-23.6713610367747
 21
220.0
 31
0.0
  0
LINE
  5
42C
330
1F
100
AcDbEntity
  8
100
  6
Continuous
 62
     3
100
AcDbLine
 10
23.6713610367747
 20
206.0
 30
0.0
 11
23.6713610367747
 21
220.0
 31
0.0
  0
LINE
  5
42D
330
1F
100
AcDbEntity
  8
100
  6
Continuous
 62
     3
100
AcDbLine
 10
281.999999961236
 20
279.0
 30
0.0
 11
258.000000038764
 21
279.0
 31
0.0
  0
LINE
  5
42E
330
1F
100
AcDbEntity
  8
100
  6
Continuous
 62
     3
100
AcDbLine
 10
282.743534518303
 20
282.717672785336
 30
0.0
 11
286.893220363148
 21
285.0
 31
0.0
  0
LINE
  5
42F
330
1F
100
AcDbEntity
  8
100
  6
Continuous
 62
     3
100
AcDbLine
 10
282.743534518303
 20
282.717672785336
 30
0.0
 11
281.999999961236
 21
279.0
 31
0.0
  0
LINE
  5
430
330
1F
100
AcDbEntity
  8
100
  6
Continuous
 62
     3
100
AcDbLine
 10
257.256465481697
 20
282.717672785336
 30
0.0
 11
282.743534518303
 21
282.717672785336
 31
0.0
  0
LINE
  5
431
330
1F
100
AcDbEntity
  8
100
  6
Continuous
 62
     3
100
AcDbLine
 10
233.651947384102
 20
299.0
 30
0.0
 11
306.348052615898
 21
299.0
 31
0.0
  0
LINE
  5
432
330
1F
100
AcDbEntity
  8
100
  6
Continuous
 62
     3
100
AcDbLine
 10
233.651947384102
 20
285.0
 30
0.0
 11
306.348052615898
 21
285.0
 31
0.0
  0
LINE
  5
433
330
1F
100
AcDbEntity
  8
100
  6
Continuous
 62
     3
100
AcDbLine
 10
276.5
 20
244.0
 30
0.0
 11
276.5
 21
279.000000346708
 31
0.0
  0
LINE
  5
434
330
1F
100
AcDbEntity
  8
100
  6
Continuous
 62
     3
100
AcDbLine
 10
257.256465481697
 20
282.717672785336
 30
0.0
 11
253.106779636852
 21
285.0
 31
0.0
  0
LINE
  5
435
330
1F
100
AcDbEntity
  8
100
  6
Continuous
 62
     3
100
AcDbLine
 10
257.256465481697
 20
282.717672785336
 30
0.0
 11
258.000000038764
 21
279.0
 31
0.0
  0
LINE
  5
436
330
1F
100
AcDbEntity
  8
100
  6
Continuous
 62
     3
100
AcDbLine
 10
263.5
 20
244.0
 30
0.0
 11
263.5
 21
279.000000346708
 31
0.0
  0
LINE
  5
437
330
1F
100
AcDbEntity
  8
100
  6
Continuous
 62
     3
100
AcDbLine
 10
285.0
 20
224.0
 30
0.0
 11
285.0
 21
244.0
 31
0.0
  0
LINE
  5
438
330
1F
100
AcDbEntity
  8
100
  6
Continuous
 62
     3
100
AcDbLine
 10
290.5
 20
221.4629126954
 30
0.0
 11
285.0
 21
224.0
 31
0.0
  0
LINE
  5
439
330
1F
100
AcDbEntity
  8
100
  6
Continuous
 62
     3
100
AcDbLine
 10
304.0
 20
206.0
 30
0.0
 11
304.0
 21
200.0
 31
0.0
  0
LINE
  5
43A
330
1F
100
AcDbEntity
  8
100
  6
Continuous
 62
     3
100
AcDbLine
 10
236.0
 20
206.0
 30
0.0
 11
304.0
 21
206.0
 31
0.0
  0
LINE
  5
43B
330
1F
100
AcDbEntity
  8
100
  6
Continuous
 62
     3
100
AcDbLine
 10
285.0
 20
244.0
 30
0.0
 11
255.0
 21
244.0
 31
0.0
  0
LINE
  5
43C
330
1F
100
AcDbEntity
  8
100
  6
Continuous
 62
     3
100
AcDbLine
 10
255.0
 20
244.0
 30
0.0
 11
255.0
 21
224.0
 31
0.0
  0
LINE
  5
43D
330
1F
100
AcDbEntity
  8
100
  6
Continuous
 62
     3
100
AcDbLine
 10
255.0
 20
224.0
 30
0.0
 11
249.5
 21
221.4629126954
 31
0.0
  0
LINE
  5
43E
330
1F
100
AcDbEntity
  8
100
  6
Continuous
 62
     3
100
AcDbLine
 10
236.0
 20
206.0
 30
0.0
 11
236.0
 21
200.0
 31
0.0
  0
LINE
  5
43F
330
1F
100
AcDbEntity
  8
100
  6
Continuous
 62
     3
100
AcDbLine
 10
249.5
 20
206.0
 30
0.0
 11
249.5
 21
221.4629126954
 31
0.0
  0
LINE
  5
440
330
1F
100
AcDbEntity
  8
100
  6
Continuous
 62
     3
100
AcDbLine
 10
290.5
 20
206.0
 30
0.0
 11
290.5
 21
221.4629126954
 31
0.0
  0
LINE
  5
441
330
1F
100
AcDbEntity
  8
100
  6
Continuous
 62
     3
100
AcDbLine
 10
40.4803666585749
 20
35.0
 30
0.0
 11
42.408
 21
35.0
 31
0.0
  0
LINE
  5
442
330
1F
100
AcDbEntity
  8
100
  6
Continuous
 62
     3
100
AcDbLine
 10
42.408
 20
-35.0
 30
0.0
 11
43.5
 21
-36.092
 31
0.0
  0
LINE
  5
443
330
1F
100
AcDbEntity
  8
100
  6
Continuous
 62
     3
100
AcDbLine
 10
40.4803666585748
 20
-35.0
 30
0.0
 11
42.408
 21
-35.0
 31
0.0
  0
LINE
  5
444
330
1F
100
AcDbEntity
  8
100
  6
Continuous
 62
     3
100
AcDbLine
 10
25.5
 20
-61.0
 30
0.0
 11
25.5
 21
-40.0
 31
0.0
  0
LINE
  5
445
330
1F
100
AcDbEntity
  8
100
  6
Continuous
 62
     3
100
AcDbLine
 10
-25.5
 20
-40.0
 30
0.0
 11
25.5
 21
-40.0
 31
0.0
  0
LINE
  5
446
330
1F
100
AcDbEntity
  8
100
  6
Continuous
 62
     3
100
AcDbLine
 10
-42.408
 20
35.0
 30
0.0
 11
-43.5
 21
36.092
 31
0.0
  0
LINE
  5
447
330
1F
100
AcDbEntity
  8
100
  6
Continuous
 62
     3
100
AcDbLine
 10
-40.4803666585749
 20
35.0
 30
0.0
 11
-42.408
 21
35.0
 31
0.0
  0
LINE
  5
448
330
1F
100
AcDbEntity
  8
100
  6
Continuous
 62
     3
100
AcDbLine
 10
-42.408
 20
-35.0
 30
0.0
 11
-43.5
 21
-36.092
 31
0.0
  0
LINE
  5
449
330
1F
100
AcDbEntity
  8
100
  6
Continuous
 62
     3
100
AcDbLine
 10
-40.4803666585749
 20
-35.0
 30
0.0
 11
-42.408
 21
-35.0
 31
0.0
  0
LINE
  5
44A
330
1F
100
AcDbEntity
  8
100
  6
Continuous
 62
     3
100
AcDbLine
 10
-25.5
 20
-61.0
 30
0.0
 11
-25.5
 21
-40.0
 31
0.0
  0
LINE
  5
44B
330
1F
100
AcDbEntity
  8
2
  6
DOT_CENTER
 62
     1
100
AcDbLine
 10
208.160909608353
 20
0.0
 30
0.0
 11
333.952100283601
 21
0.0
 31
0.0
  0
LINE
  5
44C
330
1F
100
AcDbEntity
  8
100
  6
Continuous
 62
     3
100
AcDbLine
 10
40.4803666585749
 20
32.3115965403641
 30
0.0
 11
40.4803666585749
 21
-31.9460144899681
 31
0.0
  0
LINE
  5
44D
330
1F
100
AcDbEntity
  8
100
  6
Continuous
 62
     3
100
AcDbLine
 10
-40.4803666585749
 20
32.3115965403641
 30
0.0
 11
-40.4803666585749
 21
-31.9460144899681
 31
0.0
  0
LINE
  5
44E
330
1F
100
AcDbEntity
  8
100
  6
Continuous
 62
     3
100
AcDbLine
 10
35.0
 20
-61.0
 30
0.0
 11
-35.0
 21
-61.0
 31
0.0
  0
LINE
  5
44F
330
1F
100
AcDbEntity
  8
100
  6
Continuous
 62
     3
100
AcDbLine
 10
35.0
 20
-61.0
 30
0.0
 11
35.0
 21
-83.0
 31
0.0
  0
LINE
  5
450
330
1F
100
AcDbEntity
  8
100
  6
Continuous
 62
     3
100
AcDbLine
 10
35.0
 20
-83.0
 30
0.0
 11
-35.0
 21
-83.0
 31
0.0
  0
LINE
  5
451
330
1F
100
AcDbEntity
  8
100
  6
Continuous
 62
     3
100
AcDbLine
 10
16.6245
 20
-83.0
 30
0.0
 11
16.6245
 21
-88.5
 31
0.0
  0
LINE
  5
452
330
1F
100
AcDbEntity
  8
100
  6
Continuous
 62
     3
100
AcDbLine
 10
-16.6245
 20
-83.0
 30
0.0
 11
-16.6245
 21
-88.5
 31
0.0
  0
LINE
  5
453
330
1F
100
AcDbEntity
  8
100
  6
Continuous
 62
     3
100
AcDbLine
 10
-35.0
 20
-61.0
 30
0.0
 11
-35.0
 21
-83.0
 31
0.0
  0
LINE
  5
454
330
1F
100
AcDbEntity
  8
100
  6
Continuous
 62
     3
100
AcDbLine
 10
295.5
 20
-61.0
 30
0.0
 11
295.5
 21
-40.0
 31
0.0
  0
LINE
  5
455
330
1F
100
AcDbEntity
  8
100
  6
Continuous
 62
     3
100
AcDbLine
 10
244.5
 20
-61.0
 30
0.0
 11
244.5
 21
-40.0
 31
0.0
  0
LINE
  5
456
330
1F
100
AcDbEntity
  8
100
  6
Continuous
 62
     3
100
AcDbLine
 10
302.5
 20
-61.0
 30
0.0
 11
237.5
 21
-61.0
 31
0.0
  0
LINE
  5
457
330
1F
100
AcDbEntity
  8
100
  6
Continuous
 62
     3
100
AcDbLine
 10
241.5
 20
-40.0
 30
0.0
 11
259.430379375061
 21
-40.0
 31
0.0
  0
LINE
  5
458
330
1F
100
AcDbEntity
  8
100
  6
Continuous
 62
     3
100
AcDbLine
 10
280.569620624939
 20
-40.0
 30
0.0
 11
298.5
 21
-40.0
 31
0.0
  0
LINE
  5
459
330
1F
100
AcDbEntity
  8
100
  6
Continuous
 62
     3
100
AcDbLine
 10
286.6245
 20
-83.0
 30
0.0
 11
286.6245
 21
-88.5
 31
0.0
  0
LINE
  5
45A
330
1F
100
AcDbEntity
  8
100
  6
Continuous
 62
     3
100
AcDbLine
 10
253.3755
 20
-83.0
 30
0.0
 11
253.3755
 21
-88.5
 31
0.0
  0
LINE
  5
45B
330
1F
100
AcDbEntity
  8
100
  6
Continuous
 62
     3
100
AcDbLine
 10
302.5
 20
-83.0
 30
0.0
 11
302.5
 21
-61.0
 31
0.0
  0
LINE
  5
45C
330
1F
100
AcDbEntity
  8
100
  6
Continuous
 62
     3
100
AcDbLine
 10
237.5
 20
-83.0
 30
0.0
 11
237.5
 21
-61.0
 31
0.0
  0
LINE
  5
45D
330
1F
100
AcDbEntity
  8
100
  6
Continuous
 62
     3
100
AcDbLine
 10
237.5
 20
-83.0
 30
0.0
 11
302.5
 21
-83.0
 31
0.0
  0
LINE
  5
45E
330
1F
100
AcDbEntity
  8
100
  6
Continuous
 62
     3
100
AcDbLine
 10
18.6315983261837
 20
-4.0
 30
0.0
 11
-14.4816503278682
 21
-4.0
 31
0.0
  0
LINE
  5
45F
330
1F
100
AcDbEntity
  8
100
  6
Continuous
 62
     3
100
AcDbLine
 10
-14.4816503278682
 20
-4.0
 30
0.0
 11
-17.3684016738163
 21
-9.0
 31
0.0
  0
LINE
  5
460
330
1F
100
AcDbEntity
  8
100
  6
Continuous
 62
     3
100
AcDbLine
 10
-17.3684016738163
 20
-9.0
 30
0.0
 11
-4.66669575164457
 21
-9.0
 31
0.0
  0
LINE
  5
461
330
1F
100
AcDbEntity
  8
100
  6
Continuous
 62
     3
100
AcDbLine
 10
-4.66669575164457
 20
-9.0
 30
0.0
 11
-2.64596980948085
 21
-5.5
 31
0.0
  0
LINE
  5
462
330
1F
100
AcDbEntity
  8
100
  6
Continuous
 62
     3
100
AcDbLine
 10
-2.64596980948085
 20
-5.5
 30
0.0
 11
11.992070230503
 21
-5.5
 31
0.0
  0
LINE
  5
463
330
1F
100
AcDbEntity
  8
100
  6
Continuous
 62
     3
100
AcDbLine
 10
11.992070230503
 20
-5.5
 30
0.0
 11
9.97134428833931
 21
-9.0
 31
0.0
  0
LINE
  5
464
330
1F
100
AcDbEntity
  8
100
  6
Continuous
 62
     3
100
AcDbLine
 10
9.97134428833931
 20
-9.0
 30
0.0
 11
18.6315983261837
 21
-4.0
 31
0.0
  0
LINE
  5
465
330
1F
100
AcDbEntity
  8
2
  6
DOT_CENTER
 62
     1
100
AcDbLine
 10
-171.520222513063
 20
0.0
 30
0.0
 11
-84.0427834774781
 21
0.0
 31
0.0
  0
LINE
  5
466
330
1F
100
AcDbEntity
  8
2
  6
DOT_CENTER
 62
     1
100
AcDbLine
 10
87.8992994443589
 20
0.0
 30
0.0
 11
166.0
 21
0.0
 31
0.0
  0
LINE
  5
467
330
1F
100
AcDbEntity
  8
2
  6
DOT_CENTER
 62
     1
100
AcDbLine
 10
0.0
 20
311.0
 30
0.0
 11
0.0
 21
18.0
 31
0.0
  0
LINE
  5
468
330
1F
100
AcDbEntity
  8
2
  6
DOT_CENTER
 62
     1
100
AcDbLine
 10
0.0
 20
-12.0
 30
0.0
 11
0.0
 21
-164.198964661588
 31
0.0
  0
LINE
  5
469
330
1F
100
AcDbEntity
  8
100
  6
Continuous
 62
     3
100
AcDbLine
 10
298.5
 20
40.0
 30
0.0
 11
298.5
 21
32.5729936843548
 31
0.0
  0
LINE
  5
46A
330
1F
100
AcDbEntity
  8
100
  6
Continuous
 62
     3
100
AcDbLine
 10
298.5
 20
-32.5729936843548
 30
0.0
 11
298.5
 21
-40.0
 31
0.0
  0
LINE
  5
46B
330
1F
100
AcDbEntity
  8
100
  6
Continuous
 62
     3
100
AcDbLine
 10
241.5
 20
40.0
 30
0.0
 11
241.5
 21
32.5729936843548
 31
0.0
  0
LINE
  5
46C
330
1F
100
AcDbEntity
  8
100
  6
Continuous
 62
     3
100
AcDbLine
 10
241.5
 20
-32.5729936843548
 30
0.0
 11
241.5
 21
-40.0
 31
0.0
  0
LINE
  5
46D
330
1F
100
AcDbEntity
  8
100
  6
Continuous
 62
     3
100
AcDbLine
 10
-35.0
 20
157.0
 30
0.0
 11
35.0
 21
157.0
 31
0.0
  0
LINE
  5
46E
330
1F
100
AcDbEntity
  8
100
  6
Continuous
 62
     3
100
AcDbLine
 10
-35.0
 20
200.0
 30
0.0
 11
-35.0
 21
157.0
 31
0.0
  0
LINE
  5
46F
330
1F
100
AcDbEntity
  8
100
  6
Continuous
 62
     3
100
AcDbLine
 10
35.0
 20
200.0
 30
0.0
 11
35.0
 21
157.0
 31
0.0
  0
LINE
  5
470
330
1F
100
AcDbEntity
  8
100
  6
Continuous
 62
     3
100
AcDbLine
 10
30.25
 20
157.0
 30
0.0
 11
30.25
 21
125.0
 31
0.0
  0
LINE
  5
471
330
1F
100
AcDbEntity
  8
100
  6
Continuous
 62
     3
100
AcDbLine
 10
30.25
 20
120.0
 30
0.0
 11
30.25
 21
94.0
 31
0.0
  0
LINE
  5
472
330
1F
100
AcDbEntity
  8
100
  6
Continuous
 62
     3
100
AcDbLine
 10
-30.25
 20
157.0
 30
0.0
 11
-30.25
 21
125.0
 31
0.0
  0
LINE
  5
473
330
1F
100
AcDbEntity
  8
100
  6
Continuous
 62
     3
100
AcDbLine
 10
-30.25
 20
120.0
 30
0.0
 11
-30.25
 21
94.0
 31
0.0
  0
LINE
  5
474
330
1F
100
AcDbEntity
  8
100
  6
Continuous
 62
     3
100
AcDbLine
 10
300.25
 20
157.0
 30
0.0
 11
300.25
 21
125.0
 31
0.0
  0
LINE
  5
475
330
1F
100
AcDbEntity
  8
100
  6
Continuous
 62
     3
100
AcDbLine
 10
300.25
 20
120.0
 30
0.0
 11
300.25
 21
94.0
 31
0.0
  0
LINE
  5
476
330
1F
100
AcDbEntity
  8
100
  6
Continuous
 62
     3
100
AcDbLine
 10
239.75
 20
157.0
 30
0.0
 11
239.75
 21
125.0
 31
0.0
  0
LINE
  5
477
330
1F
100
AcDbEntity
  8
100
  6
Continuous
 62
     3
100
AcDbLine
 10
239.75
 20
120.0
 30
0.0
 11
239.75
 21
94.0
 31
0.0
  0
LINE
  5
478
330
1F
100
AcDbEntity
  8
100
  6
Continuous
 62
     3
100
AcDbLine
 10
237.5
 20
157.0
 30
0.0
 11
302.5
 21
157.0
 31
0.0
  0
LINE
  5
479
330
1F
100
AcDbEntity
  8
100
  6
Continuous
 62
     3
100
AcDbLine
 10
302.5
 20
157.0
 30
0.0
 11
302.5
 21
200.0
 31
0.0
  0
LINE
  5
47A
330
1F
100
AcDbEntity
  8
100
  6
Continuous
 62
     3
100
AcDbLine
 10
237.5
 20
157.0
 30
0.0
 11
237.5
 21
200.0
 31
0.0
  0
LINE
  5
47B
330
1F
100
AcDbEntity
  8
2
  6
DOT_CENTER
 62
     1
100
AcDbLine
 10
0.0
 20
326.0
 30
0.0
 11
0.0
 21
421.0
 31
0.0
  0
LINE
  5
47C
330
1F
100
AcDbEntity
  8
2
  6
DOT_CENTER
 62
     1
100
AcDbLine
 10
167.564597933555
 20
376.0
 30
0.0
 11
-166.397062934284
 21
376.0
 31
0.0
  0
LINE
  5
47D
330
1F
100
AcDbEntity
  8
100
  6
Continuous
 62
     3
100
AcDbLine
 10
25.6904651573303
 20
372.0
 30
0.0
 11
12.734960912113
 21
371.519958642272
 31
0.0
  0
LINE
  5
47E
330
1F
100
AcDbEntity
  8
100
  6
Continuous
 62
     3
100
AcDbLine
 10
10.247310081854
 20
367.211221012772
 30
0.0
 11
16.3093341938029
 21
355.751404538713
 31
0.0
  0
LINE
  5
47F
330
1F
100
AcDbEntity
  8
100
  6
Continuous
 62
     3
100
AcDbLine
 10
9.38113096352736
 20
351.751404538713
 30
0.0
 11
2.48765083025902
 21
362.731179655044
 31
0.0
  0
LINE
  5
480
330
1F
100
AcDbEntity
  8
100
  6
Continuous
 62
     3
100
AcDbLine
 10
-2.48765083025902
 20
362.731179655044
 30
0.0
 11
-9.38113096352736
 21
351.751404538713
 31
0.0
  0
LINE
  5
481
330
1F
100
AcDbEntity
  8
100
  6
Continuous
 62
     3
100
AcDbLine
 10
-25.6904651573303
 20
372.0
 30
0.0
 11
-12.734960912113
 21
371.519958642272
 31
0.0
  0
LINE
  5
482
330
1F
100
AcDbEntity
  8
100
  6
Continuous
 62
     3
100
AcDbLine
 10
-10.2473100818539
 20
367.211221012772
 30
0.0
 11
-16.3093341938029
 21
355.751404538713
 31
0.0
  0
LINE
  5
483
330
1F
100
AcDbEntity
  8
100
  6
Continuous
 62
     3
100
AcDbLine
 10
-16.3093341938029
 20
396.248595461287
 30
0.0
 11
-10.2473100818539
 21
384.788778987227
 31
0.0
  0
LINE
  5
484
330
1F
100
AcDbEntity
  8
100
  6
Continuous
 62
     3
100
AcDbLine
 10
-12.734960912113
 20
380.480041357728
 30
0.0
 11
-25.6904651573303
 21
380.0
 31
0.0
  0
LINE
  5
485
330
1F
100
AcDbEntity
  8
100
  6
Continuous
 62
     3
100
AcDbLine
 10
-9.3811309635274
 20
400.248595461287
 30
0.0
 11
-2.48765083025894
 21
389.268820344956
 31
0.0
  0
LINE
  5
486
330
1F
100
AcDbEntity
  8
100
  6
Continuous
 62
     3
100
AcDbLine
 10
2.48765083025907
 20
389.268820344955
 30
0.0
 11
9.38113096352739
 21
400.248595461287
 31
0.0
  0
LINE
  5
487
330
1F
100
AcDbEntity
  8
100
  6
Continuous
 62
     3
100
AcDbLine
 10
25.6904651573303
 20
380.0
 30
0.0
 11
12.734960912113
 21
380.480041357728
 31
0.0
  0
LINE
  5
488
330
1F
100
AcDbEntity
  8
100
  6
Continuous
 62
     3
100
AcDbLine
 10
10.247310081854
 20
384.788778987227
 30
0.0
 11
16.3093341938029
 21
396.248595461287
 31
0.0
  0
LINE
  5
489
330
1F
100
AcDbEntity
  8
100
  6
Continuous
 62
     3
100
AcDbLine
 10
42.408
 20
411.0
 30
0.0
 11
43.5
 21
412.092
 31
0.0
  0
LINE
  5
48A
330
1F
100
AcDbEntity
  8
100
  6
Continuous
 62
     3
100
AcDbLine
 10
23.3952298687209
 20
411.0
 30
0.0
 11
42.408
 21
411.0
 31
0.0
  0
LINE
  5
48B
330
1F
100
AcDbEntity
  8
100
  6
Continuous
 62
     3
100
AcDbLine
 10
42.408
 20
341.0
 30
0.0
 11
43.5
 21
339.908
 31
0.0
  0
LINE
  5
48C
330
1F
100
AcDbEntity
  8
100
  6
Continuous
 62
     3
100
AcDbLine
 10
23.3952298687209
 20
341.0
 30
0.0
 11
42.408
 21
341.0
 31
0.0
  0
LINE
  5
48D
330
1F
100
AcDbEntity
  8
100
  6
Continuous
 62
     3
100
AcDbLine
 10
-42.408
 20
411.0
 30
0.0
 11
-43.5
 21
412.092
 31
0.0
  0
LINE
  5
48E
330
1F
100
AcDbEntity
  8
100
  6
Continuous
 62
     3
100
AcDbLine
 10
-23.3952298687209
 20
411.0
 30
0.0
 11
-42.408
 21
411.0
 31
0.0
  0
LINE
  5
48F
330
1F
100
AcDbEntity
  8
100
  6
Continuous
 62
     3
100
AcDbLine
 10
-42.408
 20
341.0
 30
0.0
 11
-43.5
 21
339.908
 31
0.0
  0
LINE
  5
490
330
1F
100
AcDbEntity
  8
100
  6
Continuous
 62
     3
100
AcDbLine
 10
-23.3952298687209
 20
341.0
 30
0.0
 11
-42.408
 21
341.0
 31
0.0
  0
LINE
  5
491
330
1F
100
AcDbEntity
  8
100
  6
Continuous
 62
     3
100
AcDbLine
 10
-35.0
 20
200.0
 30
0.0
 11
35.0
 21
200.0
 31
0.0
  0
LINE
  5
492
330
1F
100
AcDbEntity
  8
100
  6
Continuous
 62
     3
100
AcDbLine
 10
236.0
 20
200.0
 30
0.0
 11
304.0
 21
200.0
 31
0.0
  0
LINE
  5
493
330
1F
100
AcDbEntity
  8
2
  6
CENTER
 62
     6
100
AcDbLine
 10
40.9999999302253
 20
271.999999999999
 30
0.0
 11
-40.9999999302253
 21
272.0
 31
0.0
  0
LINE
  5
494
330
1F
100
AcDbEntity
  8
2
  6
CENTER
 62
     6
100
AcDbLine
 10
-40.9999999302254
 20
258.0
 30
0.0
 11
-16.8932203321371
 21
258.0
 31
0.0
  0
LINE
  5
495
330
1F
100
AcDbEntity
  8
2
  6
CENTER
 62
     6
100
AcDbLine
 10
16.8932203321371
 20
258.0
 30
0.0
 11
40.9999999302254
 21
258.0
 31
0.0
  0
LINE
  5
496
330
1F
100
AcDbEntity
  8
2
  6
CENTER
 62
     6
100
AcDbLine
 10
12.7435344872925
 20
255.717672785335
 30
0.0
 11
16.8932203321371
 21
258.0
 31
0.0
  0
LINE
  5
497
330
1F
100
AcDbEntity
  8
2
  6
CENTER
 62
     6
100
AcDbLine
 10
11.9999999302253
 20
252.0
 30
0.0
 11
12.7435344872925
 21
255.717672785335
 31
0.0
  0
LINE
  5
498
330
1F
100
AcDbEntity
  8
2
  6
CENTER
 62
     6
100
AcDbLine
 10
-11.9999999302253
 20
251.999999999999
 30
0.0
 11
11.9999999302253
 21
252.0
 31
0.0
  0
LINE
  5
499
330
1F
100
AcDbEntity
  8
2
  6
CENTER
 62
     6
100
AcDbLine
 10
-11.9999999302253
 20
251.999999999999
 30
0.0
 11
-12.7435344872925
 21
255.717672785335
 31
0.0
  0
LINE
  5
49A
330
1F
100
AcDbEntity
  8
2
  6
CENTER
 62
     6
100
AcDbLine
 10
-12.7435344872925
 20
255.717672785335
 30
0.0
 11
-16.8932203321371
 21
258.0
 31
0.0
  0
LINE
  5
49B
330
1F
100
AcDbEntity
  8
100
  6
Continuous
 62
     3
100
AcDbLine
 10
-15.0
 20
224.0
 30
0.0
 11
15.0
 21
224.0
 31
0.0
  0
LINE
  5
49C
330
1F
100
AcDbEntity
  8
100
  6
Continuous
 62
     3
100
AcDbLine
 10
285.0
 20
224.0
 30
0.0
 11
255.0
 21
224.0
 31
0.0
  0
LINE
  5
49D
330
1F
100
AcDbEntity
  8
100
  6
Continuous
 62
     3
100
AcDbLine
 10
314.378080211988
 20
0.0
 30
0.0
 11
301.380041453937
 21
31.3800414539374
 31
0.0
  0
LINE
  5
49E
330
1F
100
AcDbEntity
  8
100
  6
Continuous
 62
     3
100
AcDbLine
 10
301.380041453937
 20
31.3800414539374
 30
0.0
 11
270.0
 21
44.3780802119882
 31
0.0
  0
LINE
  5
49F
330
1F
100
AcDbEntity
  8
100
  6
Continuous
 62
     3
100
AcDbLine
 10
270.0
 20
44.3780802119882
 30
0.0
 11
238.619958546063
 21
31.3800414539374
 31
0.0
  0
LINE
  5
4A0
330
1F
100
AcDbEntity
  8
100
  6
Continuous
 62
     3
100
AcDbLine
 10
238.619958546063
 20
31.3800414539374
 30
0.0
 11
225.621919788012
 21
0.00000000000001
 31
0.0
  0
LINE
  5
4A1
330
1F
100
AcDbEntity
  8
100
  6
Continuous
 62
     3
100
AcDbLine
 10
225.621919788012
 20
0.00000000000001
 30
0.0
 11
238.619958546063
 21
-31.3800414539373
 31
0.0
  0
LINE
  5
4A2
330
1F
100
AcDbEntity
  8
100
  6
Continuous
 62
     3
100
AcDbLine
 10
238.619958546063
 20
-31.3800414539373
 30
0.0
 11
270.0
 21
-44.3780802119881
 31
0.0
  0
LINE
  5
4A3
330
1F
100
AcDbEntity
  8
100
  6
Continuous
 62
     3
100
AcDbLine
 10
270.0
 20
-44.3780802119881
 30
0.0
 11
301.380041453937
 21
-31.3800414539374
 31
0.0
  0
LINE
  5
4A4
330
1F
100
AcDbEntity
  8
100
  6
Continuous
 62
     3
100
AcDbLine
 10
301.380041453937
 20
-31.3800414539374
 30
0.0
 11
314.378080211988
 21
0.0
 31
0.0
  0
LINE
  5
4A5
330
1F
100
AcDbEntity
  8
100
  6
Continuous
 62
     3
100
AcDbLine
 10
12.9226875
 20
-156.0
 30
0.0
 11
-12.9226875
 21
-156.0
 31
0.0
  0
LINE
  5
4A6
330
1F
100
AcDbEntity
  8
100
  6
Continuous
 62
     3
100
AcDbLine
 10
-12.9226875
 20
-156.0
 30
0.0
 11
-13.1
 21
-150.326
 31
0.0
  0
LINE
  5
4A7
330
1F
100
AcDbEntity
  8
2
  6
Continuous
 62
     1
100
AcDbLine
 10
-12.3544375
 20
-137.0
 30
0.0
 11
-11.7606875
 21
-156.0
 31
0.0
  0
LINE
  5
4A8
330
1F
100
AcDbEntity
  8
100
  6
Continuous
 62
     3
100
AcDbLine
 10
12.9226875
 20
-156.0
 30
0.0
 11
13.1
 21
-150.326
 31
0.0
  0
LINE
  5
4A9
330
1F
100
AcDbEntity
  8
2
  6
Continuous
 62
     1
100
AcDbLine
 10
12.3544375
 20
-137.0
 30
0.0
 11
11.7606875
 21
-156.0
 31
0.0
  0
LINE
  5
4AA
330
1F
100
AcDbEntity
  8
100
  6
Continuous
 62
     3
100
AcDbLine
 10
13.1
 20
-137.0
 30
0.0
 11
-13.1
 21
-137.0
 31
0.0
  0
LINE
  5
4AB
330
1F
100
AcDbEntity
  8
2
  6
Continuous
 62
     3
100
AcDbLine
 10
-12.3544375
 20
-137.0
 30
0.0
 11
-13.1
 21
-135.708647869782
 31
0.0
  0
LINE
  5
4AC
330
1F
100
AcDbEntity
  8
2
  6
Continuous
 62
     3
100
AcDbLine
 10
12.3544375
 20
-137.0
 30
0.0
 11
13.1
 21
-135.708647869782
 31
0.0
  0
LINE
  5
4AD
330
1F
100
AcDbEntity
  8
100
  6
Continuous
 62
     3
100
AcDbLine
 10
21.9393102292058
 20
-110.5
 30
0.0
 11
-21.9393102292058
 21
-110.5
 31
0.0
  0
LINE
  5
4AE
330
1F
100
AcDbEntity
  8
100
  6
Continuous
 62
     3
100
AcDbLine
 10
-21.9393102292058
 20
-110.5
 30
0.0
 11
-21.9393102292058
 21
-88.5
 31
0.0
  0
LINE
  5
4AF
330
1F
100
AcDbEntity
  8
100
  6
Continuous
 62
     3
100
AcDbLine
 10
21.9393102292058
 20
-88.5
 30
0.0
 11
-21.9393102292058
 21
-88.5
 31
0.0
  0
LINE
  5
4B0
330
1F
100
AcDbEntity
  8
100
  6
Continuous
 62
     3
100
AcDbLine
 10
-10.9696551146029
 20
-110.5
 30
0.0
 11
-10.9696551146029
 21
-88.5
 31
0.0
  0
LINE
  5
4B1
330
1F
100
AcDbEntity
  8
100
  6
Continuous
 62
     3
100
AcDbLine
 10
10.9696551146029
 20
-110.5
 30
0.0
 11
10.9696551146029
 21
-88.5
 31
0.0
  0
LINE
  5
4B2
330
1F
100
AcDbEntity
  8
100
  6
Continuous
 62
     3
100
AcDbLine
 10
21.9393102292058
 20
-110.5
 30
0.0
 11
21.9393102292058
 21
-88.5
 31
0.0
  0
LINE
  5
4B3
330
1F
100
AcDbEntity
  8
100
  6
Continuous
 62
     3
100
AcDbLine
 10
-13.1
 20
-150.326
 30
0.0
 11
-13.1
 21
-110.5
 31
0.0
  0
LINE
  5
4B4
330
1F
100
AcDbEntity
  8
100
  6
Continuous
 62
     3
100
AcDbLine
 10
13.1
 20
-150.326
 30
0.0
 11
13.1
 21
-110.5
 31
0.0
  0
LINE
  5
4B5
330
1F
100
AcDbEntity
  8
2
  6
Continuous
 62
     3
100
AcDbLine
 10
257.6455625
 20
-137.0
 30
0.0
 11
256.9
 21
-135.708647869782
 31
0.0
  0
LINE
  5
4B6
330
1F
100
AcDbEntity
  8
100
  6
Continuous
 62
     3
100
AcDbLine
 10
283.1
 20
-137.0
 30
0.0
 11
256.9
 21
-137.0
 31
0.0
  0
LINE
  5
4B7
330
1F
100
AcDbEntity
  8
2
  6
Continuous
 62
     3
100
AcDbLine
 10
282.3544375
 20
-137.0
 30
0.0
 11
283.1
 21
-135.708647869782
 31
0.0
  0
LINE
  5
4B8
330
1F
100
AcDbEntity
  8
100
  6
Continuous
 62
     3
100
AcDbLine
 10
257.0773125
 20
-156.0
 30
0.0
 11
256.9
 21
-150.326
 31
0.0
  0
LINE
  5
4B9
330
1F
100
AcDbEntity
  8
100
  6
Continuous
 62
     3
100
AcDbLine
 10
282.9226875
 20
-156.0
 30
0.0
 11
257.0773125
 21
-156.0
 31
0.0
  0
LINE
  5
4BA
330
1F
100
AcDbEntity
  8
100
  6
Continuous
 62
     3
100
AcDbLine
 10
282.9226875
 20
-156.0
 30
0.0
 11
283.1
 21
-150.326
 31
0.0
  0
LINE
  5
4BB
330
1F
100
AcDbEntity
  8
2
  6
Continuous
 62
     1
100
AcDbLine
 10
282.3544375
 20
-137.0
 30
0.0
 11
281.7606875
 21
-156.0
 31
0.0
  0
LINE
  5
4BC
330
1F
100
AcDbEntity
  8
2
  6
Continuous
 62
     1
100
AcDbLine
 10
257.6455625
 20
-137.0
 30
0.0
 11
258.2393125
 21
-156.0
 31
0.0
  0
LINE
  5
4BD
330
1F
100
AcDbEntity
  8
100
  6
Continuous
 62
     3
100
AcDbLine
 10
289.0
 20
-110.5
 30
0.0
 11
251.0
 21
-110.5
 31
0.0
  0
LINE
  5
4BE
330
1F
100
AcDbEntity
  8
100
  6
Continuous
 62
     3
100
AcDbLine
 10
289.0
 20
-88.5
 30
0.0
 11
251.0
 21
-88.5
 31
0.0
  0
LINE
  5
4BF
330
1F
100
AcDbEntity
  8
100
  6
Continuous
 62
     3
100
AcDbLine
 10
256.9
 20
-150.326
 30
0.0
 11
256.9
 21
-110.5
 31
0.0
  0
LINE
  5
4C0
330
1F
100
AcDbEntity
  8
100
  6
Continuous
 62
     3
100
AcDbLine
 10
283.1
 20
-150.326
 30
0.0
 11
283.1
 21
-110.5
 31
0.0
  0
LINE
  5
4C1
330
1F
100
AcDbEntity
  8
100
  6
Continuous
 62
     3
100
AcDbLine
 10
289.0
 20
-110.5
 30
0.0
 11
289.0
 21
-88.5
 31
0.0
  0
LINE
  5
4C2
330
1F
100
AcDbEntity
  8
100
  6
Continuous
 62
     3
100
AcDbLine
 10
251.0
 20
-110.5
 30
0.0
 11
251.0
 21
-88.5
 31
0.0
  0
LINE
  5
4C3
330
1F
100
AcDbEntity
  8
100
  6
Continuous
 62
     3
100
AcDbLine
 10
270.0
 20
-110.5
 30
0.0
 11
270.0
 21
-88.5
 31
0.0
  0
LINE
  5
4C4
330
1F
100
AcDbEntity
  8
100
  6
Continuous
 62
     3
100
AcDbLine
 10
-127.0
 20
-30.0
 30
0.0
 11
-127.0
 21
30.0
 31
0.0
  0
LINE
  5
4C5
330
1F
100
AcDbEntity
  8
2
  6
Continuous
 62
     3
100
AcDbLine
 10
-127.0
 20
-28.83175
 30
0.0
 11
-124.976531644058
 21
-30.0
 31
0.0
  0
LINE
  5
4C6
330
1F
100
AcDbEntity
  8
2
  6
Continuous
 62
     3
100
AcDbLine
 10
-127.0
 20
28.83175
 30
0.0
 11
-124.976531644058
 21
30.0
 31
0.0
  0
LINE
  5
4C7
330
1F
100
AcDbEntity
  8
100
  6
Continuous
 62
     3
100
AcDbLine
 10
-136.944
 20
30.0
 30
0.0
 11
-80.0
 21
30.0
 31
0.0
  0
LINE
  5
4C8
330
1F
100
AcDbEntity
  8
100
  6
Continuous
 62
     3
100
AcDbLine
 10
-136.944
 20
-30.0
 30
0.0
 11
-80.0
 21
-30.0
 31
0.0
  0
LINE
  5
4C9
330
1F
100
AcDbEntity
  8
100
  6
Continuous
 62
     3
100
AcDbLine
 10
-159.0
 20
29.31075
 30
0.0
 11
-136.944
 21
30.0
 31
0.0
  0
LINE
  5
4CA
330
1F
100
AcDbEntity
  8
2
  6
Continuous
 62
     1
100
AcDbLine
 10
-127.0
 20
28.83175
 30
0.0
 11
-159.0
 21
27.83175
 31
0.0
  0
LINE
  5
4CB
330
1F
100
AcDbEntity
  8
100
  6
Continuous
 62
     3
100
AcDbLine
 10
-159.0
 20
-29.31075
 30
0.0
 11
-136.944
 21
-30.0
 31
0.0
  0
LINE
  5
4CC
330
1F
100
AcDbEntity
  8
2
  6
Continuous
 62
     1
100
AcDbLine
 10
-127.0
 20
-28.83175
 30
0.0
 11
-159.0
 21
-27.83175
 31
0.0
  0
LINE
  5
4CD
330
1F
100
AcDbEntity
  8
100
  6
Continuous
 62
     3
100
AcDbLine
 10
-159.0
 20
-29.31075
 30
0.0
 11
-159.0
 21
29.31075
 31
0.0
  0
LINE
  5
4CE
330
1F
100
AcDbEntity
  8
100
  6
Continuous
 62
     3
100
AcDbLine
 10
-80.0
 20
44.3780802119882
 30
0.0
 11
-43.5
 21
44.3780802119882
 31
0.0
  0
LINE
  5
4CF
330
1F
100
AcDbEntity
  8
100
  6
Continuous
 62
     3
100
AcDbLine
 10
-80.0
 20
31.3800414539374
 30
0.0
 11
-43.5
 21
31.3800414539374
 31
0.0
  0
LINE
  5
4D0
330
1F
100
AcDbEntity
  8
100
  6
Continuous
 62
     3
100
AcDbLine
 10
-80.0
 20
-44.3780802119882
 30
0.0
 11
-43.5
 21
-44.3780802119882
 31
0.0
  0
LINE
  5
4D1
330
1F
100
AcDbEntity
  8
100
  6
Continuous
 62
     3
100
AcDbLine
 10
-80.0
 20
-31.3800414539374
 30
0.0
 11
-43.5
 21
-31.3800414539374
 31
0.0
  0
LINE
  5
4D2
330
1F
100
AcDbEntity
  8
100
  6
Continuous
 62
     3
100
AcDbLine
 10
-80.0
 20
0.00000000000003
 30
0.0
 11
-43.5
 21
0.0
 31
0.0
  0
LINE
  5
4D3
330
1F
100
AcDbEntity
  8
100
  6
Continuous
 62
     3
100
AcDbLine
 10
-80.0
 20
-44.3780802119882
 30
0.0
 11
-80.0
 21
44.3780802119882
 31
0.0
  0
LINE
  5
4D4
330
1F
100
AcDbEntity
  8
100
  6
Continuous
 62
     3
100
AcDbLine
 10
-43.5
 20
-44.3780802119882
 30
0.0
 11
-43.5
 21
44.3780802119882
 31
0.0
  0
LINE
  5
4D5
330
1F
100
AcDbEntity
  8
100
  6
Continuous
 62
     3
100
AcDbLine
 10
-127.0
 20
346.0
 30
0.0
 11
-127.0
 21
406.0
 31
0.0
  0
LINE
  5
4D6
330
1F
100
AcDbEntity
  8
2
  6
Continuous
 62
     3
100
AcDbLine
 10
-127.0
 20
347.16825
 30
0.0
 11
-124.976531644058
 21
346.0
 31
0.0
  0
LINE
  5
4D7
330
1F
100
AcDbEntity
  8
2
  6
Continuous
 62
     3
100
AcDbLine
 10
-127.0
 20
404.83175
 30
0.0
 11
-124.976531644058
 21
406.0
 31
0.0
  0
LINE
  5
4D8
330
1F
100
AcDbEntity
  8
100
  6
Continuous
 62
     3
100
AcDbLine
 10
-136.944
 20
406.0
 30
0.0
 11
-80.0
 21
406.0
 31
0.0
  0
LINE
  5
4D9
330
1F
100
AcDbEntity
  8
100
  6
Continuous
 62
     3
100
AcDbLine
 10
-136.944
 20
346.0
 30
0.0
 11
-80.0
 21
346.0
 31
0.0
  0
LINE
  5
4DA
330
1F
100
AcDbEntity
  8
100
  6
Continuous
 62
     3
100
AcDbLine
 10
-159.0
 20
405.31075
 30
0.0
 11
-136.944
 21
406.0
 31
0.0
  0
LINE
  5
4DB
330
1F
100
AcDbEntity
  8
2
  6
Continuous
 62
     1
100
AcDbLine
 10
-127.0
 20
404.83175
 30
0.0
 11
-159.0
 21
403.83175
 31
0.0
  0
LINE
  5
4DC
330
1F
100
AcDbEntity
  8
100
  6
Continuous
 62
     3
100
AcDbLine
 10
-159.0
 20
346.68925
 30
0.0
 11
-136.944
 21
346.0
 31
0.0
  0
LINE
  5
4DD
330
1F
100
AcDbEntity
  8
2
  6
Continuous
 62
     1
100
AcDbLine
 10
-127.0
 20
347.16825
 30
0.0
 11
-159.0
 21
348.16825
 31
0.0
  0
LINE
  5
4DE
330
1F
100
AcDbEntity
  8
100
  6
Continuous
 62
     3
100
AcDbLine
 10
-159.0
 20
346.68925
 30
0.0
 11
-159.0
 21
405.31075
 31
0.0
  0
LINE
  5
4DF
330
1F
100
AcDbEntity
  8
100
  6
Continuous
 62
     3
100
AcDbLine
 10
-80.0
 20
420.378080211988
 30
0.0
 11
-43.5
 21
420.378080211988
 31
0.0
  0
LINE
  5
4E0
330
1F
100
AcDbEntity
  8
100
  6
Continuous
 62
     3
100
AcDbLine
 10
-80.0
 20
407.380041453937
 30
0.0
 11
-43.5
 21
407.380041453937
 31
0.0
  0
LINE
  5
4E1
330
1F
100
AcDbEntity
  8
100
  6
Continuous
 62
     3
100
AcDbLine
 10
-80.0
 20
331.621919788012
 30
0.0
 11
-43.5
 21
331.621919788012
 31
0.0
  0
LINE
  5
4E2
330
1F
100
AcDbEntity
  8
100
  6
Continuous
 62
     3
100
AcDbLine
 10
-80.0
 20
344.619958546062
 30
0.0
 11
-43.5
 21
344.619958546062
 31
0.0
  0
LINE
  5
4E3
330
1F
100
AcDbEntity
  8
100
  6
Continuous
 62
     3
100
AcDbLine
 10
-80.0
 20
376.0
 30
0.0
 11
-43.5
 21
376.0
 31
0.0
  0
LINE
  5
4E4
330
1F
100
AcDbEntity
  8
100
  6
Continuous
 62
     3
100
AcDbLine
 10
-80.0
 20
331.621919788012
 30
0.0
 11
-80.0
 21
420.378080211988
 31
0.0
  0
LINE
  5
4E5
330
1F
100
AcDbEntity
  8
100
  6
Continuous
 62
     3
100
AcDbLine
 10
-43.5
 20
331.621919788012
 30
0.0
 11
-43.5
 21
420.378080211988
 31
0.0
  0
LINE
  5
4E6
330
1F
100
AcDbEntity
  8
100
  6
Continuous
 62
     3
100
AcDbLine
 10
127.0
 20
-30.0
 30
0.0
 11
127.0
 21
30.0
 31
0.0
  0
LINE
  5
4E7
330
1F
100
AcDbEntity
  8
2
  6
Continuous
 62
     3
100
AcDbLine
 10
127.0
 20
-28.83175
 30
0.0
 11
124.976531644058
 21
-30.0
 31
0.0
  0
LINE
  5
4E8
330
1F
100
AcDbEntity
  8
2
  6
Continuous
 62
     3
100
AcDbLine
 10
127.0
 20
28.83175
 30
0.0
 11
124.976531644058
 21
30.0
 31
0.0
  0
LINE
  5
4E9
330
1F
100
AcDbEntity
  8
100
  6
Continuous
 62
     3
100
AcDbLine
 10
136.944
 20
30.0
 30
0.0
 11
80.0
 21
30.0
 31
0.0
  0
LINE
  5
4EA
330
1F
100
AcDbEntity
  8
100
  6
Continuous
 62
     3
100
AcDbLine
 10
136.944
 20
-30.0
 30
0.0
 11
80.0
 21
-30.0
 31
0.0
  0
LINE
  5
4EB
330
1F
100
AcDbEntity
  8
100
  6
Continuous
 62
     3
100
AcDbLine
 10
159.0
 20
29.31075
 30
0.0
 11
136.944
 21
30.0
 31
0.0
  0
LINE
  5
4EC
330
1F
100
AcDbEntity
  8
2
  6
Continuous
 62
     1
100
AcDbLine
 10
127.0
 20
28.83175
 30
0.0
 11
159.0
 21
27.83175
 31
0.0
  0
LINE
  5
4ED
330
1F
100
AcDbEntity
  8
100
  6
Continuous
 62
     3
100
AcDbLine
 10
159.0
 20
-29.31075
 30
0.0
 11
136.944
 21
-30.0
 31
0.0
  0
LINE
  5
4EE
330
1F
100
AcDbEntity
  8
2
  6
Continuous
 62
     1
100
AcDbLine
 10
127.0
 20
-28.83175
 30
0.0
 11
159.0
 21
-27.83175
 31
0.0
  0
LINE
  5
4EF
330
1F
100
AcDbEntity
  8
100
  6
Continuous
 62
     3
100
AcDbLine
 10
159.0
 20
-29.31075
 30
0.0
 11
159.0
 21
29.31075
 31
0.0
  0
LINE
  5
4F0
330
1F
100
AcDbEntity
  8
100
  6
Continuous
 62
     3
100
AcDbLine
 10
80.0
 20
44.3780802119882
 30
0.0
 11
43.5
 21
44.3780802119882
 31
0.0
  0
LINE
  5
4F1
330
1F
100
AcDbEntity
  8
100
  6
Continuous
 62
     3
100
AcDbLine
 10
80.0
 20
31.3800414539374
 30
0.0
 11
43.5
 21
31.3800414539374
 31
0.0
  0
LINE
  5
4F2
330
1F
100
AcDbEntity
  8
100
  6
Continuous
 62
     3
100
AcDbLine
 10
80.0
 20
-44.3780802119882
 30
0.0
 11
43.5
 21
-44.3780802119882
 31
0.0
  0
LINE
  5
4F3
330
1F
100
AcDbEntity
  8
100
  6
Continuous
 62
     3
100
AcDbLine
 10
80.0
 20
-31.3800414539374
 30
0.0
 11
43.5
 21
-31.3800414539374
 31
0.0
  0
LINE
  5
4F4
330
1F
100
AcDbEntity
  8
100
  6
Continuous
 62
     3
100
AcDbLine
 10
80.0
 20
0.00000000000006
 30
0.0
 11
43.5
 21
0.0
 31
0.0
  0
LINE
  5
4F5
330
1F
100
AcDbEntity
  8
100
  6
Continuous
 62
     3
100
AcDbLine
 10
80.0
 20
-44.3780802119882
 30
0.0
 11
80.0
 21
44.3780802119882
 31
0.0
  0
LINE
  5
4F6
330
1F
100
AcDbEntity
  8
100
  6
Continuous
 62
     3
100
AcDbLine
 10
43.5
 20
-44.3780802119882
 30
0.0
 11
43.5
 21
44.3780802119882
 31
0.0
  0
LINE
  5
4F7
330
1F
100
AcDbEntity
  8
100
  6
Continuous
 62
     3
100
AcDbLine
 10
127.0
 20
346.0
 30
0.0
 11
127.0
 21
406.0
 31
0.0
  0
LINE
  5
4F8
330
1F
100
AcDbEntity
  8
2
  6
Continuous
 62
     3
100
AcDbLine
 10
127.0
 20
347.16825
 30
0.0
 11
124.976531644058
 21
346.0
 31
0.0
  0
LINE
  5
4F9
330
1F
100
AcDbEntity
  8
2
  6
Continuous
 62
     3
100
AcDbLine
 10
127.0
 20
404.83175
 30
0.0
 11
124.976531644058
 21
406.0
 31
0.0
  0
LINE
  5
4FA
330
1F
100
AcDbEntity
  8
100
  6
Continuous
 62
     3
100
AcDbLine
 10
136.944
 20
406.0
 30
0.0
 11
80.0
 21
406.0
 31
0.0
  0
LINE
  5
4FB
330
1F
100
AcDbEntity
  8
100
  6
Continuous
 62
     3
100
AcDbLine
 10
136.944
 20
346.0
 30
0.0
 11
80.0
 21
346.0
 31
0.0
  0
LINE
  5
4FC
330
1F
100
AcDbEntity
  8
100
  6
Continuous
 62
     3
100
AcDbLine
 10
159.0
 20
405.31075
 30
0.0
 11
136.944
 21
406.0
 31
0.0
  0
LINE
  5
4FD
330
1F
100
AcDbEntity
  8
2
  6
Continuous
 62
     1
100
AcDbLine
 10
127.0
 20
404.83175
 30
0.0
 11
159.0
 21
403.83175
 31
0.0
  0
LINE
  5
4FE
330
1F
100
AcDbEntity
  8
100
  6
Continuous
 62
     3
100
AcDbLine
 10
159.0
 20
346.68925
 30
0.0
 11
136.944
 21
346.0
 31
0.0
  0
LINE
  5
4FF
330
1F
100
AcDbEntity
  8
2
  6
Continuous
 62
     1
100
AcDbLine
 10
127.0
 20
347.16825
 30
0.0
 11
159.0
 21
348.16825
 31
0.0
  0
LINE
  5
500
330
1F
100
AcDbEntity
  8
100
  6
Continuous
 62
     3
100
AcDbLine
 10
159.0
 20
346.68925
 30
0.0
 11
159.0
 21
405.31075
 31
0.0
  0
LINE
  5
501
330
1F
100
AcDbEntity
  8
100
  6
Continuous
 62
     3
100
AcDbLine
 10
80.0
 20
420.378080211988
 30
0.0
 11
43.5
 21
420.378080211988
 31
0.0
  0
LINE
  5
502
330
1F
100
AcDbEntity
  8
100
  6
Continuous
 62
     3
100
AcDbLine
 10
80.0
 20
407.380041453937
 30
0.0
 11
43.5
 21
407.380041453937
 31
0.0
  0
LINE
  5
503
330
1F
100
AcDbEntity
  8
100
  6
Continuous
 62
     3
100
AcDbLine
 10
80.0
 20
331.621919788012
 30
0.0
 11
43.5
 21
331.621919788012
 31
0.0
  0
LINE
  5
504
330
1F
100
AcDbEntity
  8
100
  6
Continuous
 62
     3
100
AcDbLine
 10
80.0
 20
344.619958546062
 30
0.0
 11
43.5
 21
344.619958546062
 31
0.0
  0
LINE
  5
505
330
1F
100
AcDbEntity
  8
100
  6
Continuous
 62
     3
100
AcDbLine
 10
80.0
 20
376.0
 30
0.0
 11
43.5
 21
376.0
 31
0.0
  0
LINE
  5
506
330
1F
100
AcDbEntity
  8
100
  6
Continuous
 62
     3
100
AcDbLine
 10
80.0
 20
331.621919788012
 30
0.0
 11
80.0
 21
420.378080211988
 31
0.0
  0
LINE
  5
507
330
1F
100
AcDbEntity
  8
100
  6
Continuous
 62
     3
100
AcDbLine
 10
43.5
 20
331.621919788012
 30
0.0
 11
43.5
 21
420.378080211988
 31
0.0
  0
LINE
  5
508
330
1F
100
AcDbEntity
  8
2
  6
Continuous
 62
     2
100
AcDbLine
 10
175.0
 20
299.0
 30
0.0
 11
175.0
 21
155.609375
 31
0.0
  0
LINE
  5
509
330
1F
100
AcDbEntity
  8
2
  6
Continuous
 62
     2
100
AcDbLine
 10
175.0
 20
0.00000000000003
 30
0.0
 11
175.0
 21
155.609375
 31
0.0
  0
LINE
  5
50A
330
1F
100
AcDbEntity
  8
2
  6
Continuous
 62
     2
100
AcDbLine
 10
42.7612075805664
 20
299.0
 30
0.0
 11
176.0
 21
299.0
 31
0.0
  0
LINE
  5
50B
330
1F
100
AcDbEntity
  8
2
  6
Continuous
 62
     2
100
AcDbLine
 10
167.0
 20
0.0
 30
0.0
 11
176.0
 21
0.00000000000003
 31
0.0
  0
ARC
  5
50C
330
1F
100
AcDbEntity
  8
100
  6
Continuous
 62
     3
100
AcDbCircle
 10
0.0
 20
-61.3410084812659
 30
0.0
 40
104.5000000000001
100
AcDbArc
 50
67.2089282811039
 51
75.87612470313452
  0
ARC
  5
50D
330
1F
100
AcDbEntity
  8
100
  6
Continuous
 62
     3
100
AcDbCircle
 10
0.0
 20
-61.3410084812659
 30
0.0
 40
104.5
100
AcDbArc
 50
104.1238752968655
 51
112.7910717188961
  0
ARC
  5
50E
330
1F
100
AcDbEntity
  8
100
  6
Continuous
 62
     3
100
AcDbCircle
 10
-8.4999999302253
 20
292.0
 30
0.0
 40
16.77982419454984
100
AcDbArc
 50
155.3441012559184
 51
204.6558987440816
  0
ARC
  5
50F
330
1F
100
AcDbEntity
  8
100
  6
Continuous
 62
     3
100
AcDbCircle
 10
8.4999999302253
 20
292.0
 30
0.0
 40
16.77982419454992
100
AcDbArc
 50
335.3441012559185
 51
24.65589874407758
  0
ARC
  5
510
330
1F
100
AcDbEntity
  8
100
  6
Continuous
 62
     3
100
AcDbCircle
 10
25.7499999302253
 20
292.0
 30
0.0
 40
16.77982419454984
100
AcDbArc
 50
335.3441012559184
 51
24.65589874407801
  0
ARC
  5
511
330
1F
100
AcDbEntity
  8
100
  6
Continuous
 62
     3
100
AcDbCircle
 10
291.098052615898
 20
292.0
 30
0.0
 40
16.77982419454984
100
AcDbArc
 50
335.3441012559184
 51
24.65589874408161
  0
ARC
  5
512
330
1F
100
AcDbEntity
  8
100
  6
Continuous
 62
     3
100
AcDbCircle
 10
259.106690606792
 20
292.0
 30
0.0
 40
16.77982419454984
100
AcDbArc
 50
335.3441012559184
 51
24.65589874408161
  0
ARC
  5
513
330
1F
100
AcDbEntity
  8
100
  6
Continuous
 62
     3
100
AcDbCircle
 10
248.901947384102
 20
292.0
 30
0.0
 40
16.77982419454984
100
AcDbArc
 50
155.3441012559184
 51
204.6558987440816
  0
ARC
  5
514
330
1F
100
AcDbEntity
  8
100
  6
Continuous
 62
     3
100
AcDbCircle
 10
280.893309393208
 20
292.0
 30
0.0
 40
16.77982419454984
100
AcDbArc
 50
155.3441012559184
 51
204.6558987440816
  0
ARC
  5
515
330
1F
100
AcDbEntity
  8
100
  6
Continuous
 62
     3
100
AcDbCircle
 10
0.0
 20
61.3410084812659
 30
0.0
 40
104.5
100
AcDbArc
 50
284.1238752968655
 51
292.7910717188961
  0
ARC
  5
516
330
1F
100
AcDbEntity
  8
100
  6
Continuous
 62
     3
100
AcDbCircle
 10
0.0
 20
61.3410084812659
 30
0.0
 40
104.5000000000001
100
AcDbArc
 50
247.2089282811039
 51
255.8761247031345
  0
ARC
  5
517
330
1F
100
AcDbEntity
  8
100
  6
Continuous
 62
     3
100
AcDbCircle
 10
-25.7499999302253
 20
292.0
 30
0.0
 40
16.77982419454984
100
AcDbArc
 50
155.3441012559184
 51
204.6558987440814
  0
ARC
  5
518
330
1F
100
AcDbEntity
  8
100
  6
Continuous
 62
     3
100
AcDbCircle
 10
17.25
 20
405.877876430563
 30
0.0
 40
8.00000000000004
100
AcDbArc
 50
12.69766443063874
 51
107.30233556936
  0
ARC
  5
519
330
1F
100
AcDbEntity
  8
100
  6
Continuous
 62
     3
100
AcDbCircle
 10
-17.25
 20
405.877876430563
 30
0.0
 40
7.999999999999877
100
AcDbArc
 50
72.69765606540022
 51
167.3023355693603
  0
ARC
  5
51A
330
1F
100
AcDbEntity
  8
100
  6
Continuous
 62
     3
100
AcDbCircle
 10
0.00000000000011
 20
461.25329967951
 30
0.0
 40
50.00000000000001
100
AcDbArc
 50
252.6976644306397
 51
287.3023355693601
  0
ARC
  5
51B
330
1F
100
AcDbEntity
  8
100
  6
Continuous
 62
     3
100
AcDbCircle
 10
-73.8315232789033
 20
418.626649839755
 30
0.0
 40
50.00000000000051
100
AcDbArc
 50
312.6976644306392
 51
347.3023355693601
  0
ARC
  5
51C
330
1F
100
AcDbEntity
  8
100
  6
Continuous
 62
     3
100
AcDbCircle
 10
73.8315232789034
 20
418.626649839755
 30
0.0
 40
50.00000000000003
100
AcDbArc
 50
192.69766443064
 51
227.3023355693602
  0
ARC
  5
51D
330
1F
100
AcDbEntity
  8
100
  6
Continuous
 62
     3
100
AcDbCircle
 10
34.5
 20
376.0
 30
0.0
 40
8.000000000000227
100
AcDbArc
 50
312.6976644306387
 51
47.30233556936073
  0
ARC
  5
51E
330
1F
100
AcDbEntity
  8
100
  6
Continuous
 62
     3
100
AcDbCircle
 10
17.25
 20
346.122123189552
 30
0.0
 40
7.999999999999185
100
AcDbArc
 50
252.6816453787277
 51
347.3100220912318
  0
ARC
  5
51F
330
1F
100
AcDbEntity
  8
100
  6
Continuous
 62
     3
100
AcDbCircle
 10
0.0
 20
290.74670032049
 30
0.0
 40
50.0
100
AcDbArc
 50
72.69766443063973
 51
107.3023355693604
  0
ARC
  5
520
330
1F
100
AcDbEntity
  8
100
  6
Continuous
 62
     3
100
AcDbCircle
 10
-17.25
 20
346.122123189552
 30
0.0
 40
7.999999999999901
100
AcDbArc
 50
192.6899779042156
 51
287.3183546212701
  0
ARC
  5
521
330
1F
100
AcDbEntity
  8
100
  6
Continuous
 62
     3
100
AcDbCircle
 10
-73.8315232789033
 20
333.373350160245
 30
0.0
 40
50.00000000000003
100
AcDbArc
 50
12.69766443064002
 51
47.30233556936051
  0
ARC
  5
522
330
1F
100
AcDbEntity
  8
100
  6
Continuous
 62
     3
100
AcDbCircle
 10
73.8315232789034
 20
333.373350160245
 30
0.0
 40
49.9999999999998
100
AcDbArc
 50
132.6976644306399
 51
167.3023355693599
  0
ARC
  5
523
330
1F
100
AcDbEntity
  8
100
  6
Continuous
 62
     3
100
AcDbCircle
 10
-34.5
 20
376.0
 30
0.0
 40
7.999999999999449
100
AcDbArc
 50
132.6976644306429
 51
227.3023355693591
  0
ARC
  5
524
330
1F
100
AcDbEntity
  8
2
  6
CENTER
 62
     6
100
AcDbCircle
 10
25.7499999302253
 20
265.0
 30
0.0
 40
16.77982419454992
100
AcDbArc
 50
335.3441012559185
 51
24.65589874407844
  0
ARC
  5
525
330
1F
100
AcDbEntity
  8
2
  6
CENTER
 62
     6
100
AcDbCircle
 10
-25.7499999302253
 20
265.0
 30
0.0
 40
16.77982419454984
100
AcDbArc
 50
155.3441012559184
 51
204.6558987440814
  0
CIRCLE
  5
526
330
1F
100
AcDbEntity
  8
100
  6
Continuous
 62
     3
100
AcDbCircle
 10
0.0
 20
376.0
 30
0.0
 40
13.5
  0
CIRCLE
  5
527
330
1F
100
AcDbEntity
  8
100
  6
Continuous
 62
     3
100
AcDbCircle
 10
0.0
 20
376.0
 30
0.0
 40
26.0
  0
CIRCLE
  5
528
330
1F
100
AcDbEntity
  8
100
  6
Continuous
 62
     3
100
AcDbCircle
 10
270.0
 20
0.0
 30
0.0
 40
29.80700000000002
  0
CIRCLE
  5
529
330
1F
100
AcDbEntity
  8
2
  6
Continuous
 62
     3
100
AcDbCircle
 10
270.0
 20
0.0
 30
0.0
 40
28.32799999999997
  0
CIRCLE
  5
52A
330
1F
100
AcDbEntity
  8
100
  6
Continuous
 62
     3
100
AcDbCircle
 10
270.0
 20
0.0
 30
0.0
 40
24.0
  0
LWPOLYLINE
  5
52B
330
1F
100
AcDbEntity
  8
100
  6
Continuous
 62
     3
100
AcDbPolyline
 90
       20
 70
     1
 43
0.0
 10
1.65526008605957
 20
0.81962895393372
 10
1.65526008605957
 20
0.81962895393372
 10
1.65526008605957
 20
9.56962871551514
 10
1.93314575491473
 20
10.5889038601345
 10
2.56476976619252
 20
11.4380669168521
 10
3.46137348190449
 20
11.999598370341
 10
4.49901008605957
 20
12.1946287155151
 10
5.53664669021465
 20
11.999598370341
 10
6.43325040592662
 20
11.4380669168521
 10
7.06487441720441
 20
10.5889038601345
 10
7.34276008605957
 20
9.56962871551514
 10
7.34276008605957
 20
0.81962895393372
 10
7.06487441720441
 20
-0.19964619068565
 10
6.43325040592662
 20
-1.04880924740323
 10
5.53664669021465
 20
-1.61034070089215
 10
4.49901008605957
 20
-1.80537104606628
 10
3.46137348190449
 20
-1.61034070089215
 10
2.56476976619252
 20
-1.04880924740323
 10
1.93314575491473
 20
-0.19964619068565
 10
1.65526008605957
 20
0.81962895393372
  0
LWPOLYLINE
  5
52C
330
1F
100
AcDbEntity
  8
100
  6
Continuous
 62
     3
100
AcDbPolyline
 90
       10
 70
     0
 43
0.0
 10
-1.84473991394043
 20
11.7571287155151
 10
-7.53223991394043
 20
11.7571287155151
 10
-8.40723991394043
 20
5.63212871551514
 10
-6.21973991394043
 20
6.50712871551514
 10
-3.59473991394043
 20
6.50712871551514
 10
-1.40723991394043
 20
4.75712871551514
 10
-1.40723991394043
 20
0.38212895393372
 10
-3.59473991394043
 20
-1.80537104606628
 10
-6.21973991394043
 20
-1.80537104606628
 10
-8.40723991394043
 20
0.38212895393372
  0
LWPOLYLINE
  5
52D
330
1F
100
AcDbEntity
  8
2
  6
Continuous
 62
     1
100
AcDbPolyline
 90
       13
 70
     0
 43
0.0
 10
-30.25
 20
120.0
 10
-25.073871674776
 20
121.477113179148
 10
-20.3987519274387
 20
122.384986031595
 10
-15.8622132705497
 20
122.795386315295
 10
-11.5218775071391
 20
122.693611709032
 10
-6.15026684187846
 20
121.89005222455
 10
1.37525713365033
 20
120.087092590151
 10
8.26043239785956
 20
118.421724706096
 10
13.0805318235801
 20
117.64856068172
 10
17.1700352603047
 20
117.491720692456
 10
21.3658268681466
 20
117.827316555969
 10
25.6160558028367
 20
118.641912853353
 10
30.25
 20
120.0
  0
LWPOLYLINE
  5
52E
330
1F
100
AcDbEntity
  8
2
  6
Continuous
 62
     1
100
AcDbPolyline
 90
       13
 70
     0
 43
0.0
 10
-30.25
 20
125.0
 10
-25.073871674776
 20
126.477113179148
 10
-20.3987519274387
 20
127.384986031595
 10
-15.8622132705497
 20
127.795386315295
 10
-11.5218775071391
 20
127.693611709032
 10
-6.15026684187846
 20
126.89005222455
 10
1.37525713365033
 20
125.087092590151
 10
8.26043239785956
 20
123.421724706096
 10
13.0805318235801
 20
122.64856068172
 10
17.1700352603047
 20
122.491720692456
 10
21.3658268681466
 20
122.827316555969
 10
25.6160558028367
 20
123.641912853353
 10
30.25
 20
125.0
  0
LWPOLYLINE
  5
52F
330
1F
100
AcDbEntity
  8
2
  6
Continuous
 62
     1
100
AcDbPolyline
 90
       13
 70
     0
 43
0.0
 10
239.75
 20
120.0
 10
244.926128325224
 20
121.477113179148
 10
249.601248072561
 20
122.384986031595
 10
254.13778672945
 20
122.795386315295
 10
258.478122492861
 20
122.693611709032
 10
263.849733158122
 20
121.89005222455
 10
271.37525713365
 20
120.087092590151
 10
278.26043239786
 20
118.421724706096
 10
283.08053182358
 20
117.64856068172
 10
287.170035260305
 20
117.491720692456
 10
291.365826868147
 20
117.827316555969
 10
295.616055802837
 20
118.641912853352
 10
300.25
 20
120.0
  0
LWPOLYLINE
  5
530
330
1F
100
AcDbEntity
  8
2
  6
Continuous
 62
     1
100
AcDbPolyline
 90
       13
 70
     0
 43
0.0
 10
239.75
 20
125.0
 10
244.926128325224
 20
126.477113179148
 10
249.601248072561
 20
127.384986031595
 10
254.13778672945
 20
127.795386315295
 10
258.478122492861
 20
127.693611709032
 10
263.849733158122
 20
126.89005222455
 10
271.37525713365
 20
125.087092590151
 10
278.26043239786
 20
123.421724706096
 10
283.08053182358
 20
122.64856068172
 10
287.170035260305
 20
122.491720692456
 10
291.365826868147
 20
122.827316555969
 10
295.616055802837
 20
123.641912853352
 10
300.25
 20
125.0
  0
LWPOLYLINE
  5
531
330
1F
100
AcDbEntity
  8
100
  6
Continuous
 62
     3
100
AcDbPolyline
 90
        2
 70
     0
 43
0.0
 10
7.02763391406541
 20
396.5
 10
-7.02763391406537
 20
396.5
  0
LWPOLYLINE
  5
532
330
1F
100
AcDbEntity
  8
100
  6
Continuous
 62
     3
100
AcDbPolyline
 90
        2
 70
     0
 43
0.0
 10
-14.2397038205483
 20
392.336109498077
 10
-21.2673377346137
 20
380.163890501922
  0
LWPOLYLINE
  5
533
330
1F
100
AcDbEntity
  8
100
  6
Continuous
 62
     3
100
AcDbPolyline
 90
        2
 70
     0
 43
0.0
 10
-21.2673377346137
 20
371.836109498077
 10
-14.2397038205483
 20
359.663890501922
  0
LWPOLYLINE
  5
534
330
1F
100
AcDbEntity
  8
100
  6
Continuous
 62
     3
100
AcDbPolyline
 90
        2
 70
     0
 43
0.0
 10
21.2673377346137
 20
380.163890501922
 10
14.2397038205483
 20
392.336109498077
  0
LWPOLYLINE
  5
535
330
1F
100
AcDbEntity
  8
100
  6
Continuous
 62
     3
100
AcDbPolyline
 90
        2
 70
     0
 43
0.0
 10
14.2397038205483
 20
359.663890501922
 10
21.2673377346137
 20
371.836109498077
  0
LWPOLYLINE
  5
536
330
1F
100
AcDbEntity
  8
100
  6
Continuous
 62
     3
100
AcDbPolyline
 90
        2
 70
     0
 43
0.0
 10
-7.02763391406541
 20
355.5
 10
7.02763391406537
 20
355.5
  0
LWPOLYLINE
  5
537
330
1F
100
AcDbEntity
  8
2
  6
Continuous
 62
     2
100
AcDbPolyline
 90
        3
 70
     0
 43
0.0
 10
174.25
 20
296.0
 10
175.0
 20
299.0
 10
175.75
 20
296.0
  0
LWPOLYLINE
  5
538
330
1F
100
AcDbEntity
  8
2
  6
Continuous
 62
     2
100
AcDbPolyline
 90
        3
 70
     0
 43
0.0
 10
175.75
 20
3.0
 10
175.0
 20
0.00000000000003
 10
174.25
 20
3.0
  0
LWPOLYLINE
  5
539
330
1F
100
AcDbEntity
  8
2
  6
Continuous
 62
     2
100
AcDbPolyline
 90
        3
 70
     0
 43
0.0
 10
161.508010864258
 20
152.947631835938
 10
172.155014038086
 20
152.947631835938
 10
172.155014038086
 20
158.271118164063
  0
LEADER
  5
53A
330
1F
100
AcDbEntity
  8
1
  6
Continuous
 62
     4
100
AcDbLeader
  3
Standard
 71
     0
 76
     3
 10
143.120025634766
 20
-29.8069972991943
 30
0.0
 10
159.717214671708
 20
-57.1313170377083
 30
0.0
 10
184.896589496854
 20
-57.1313170377083
 30
0.0
  0
LEADER
  5
53B
330
1F
100
AcDbEntity
  8
1
  6
Continuous
 62
     4
100
AcDbLeader
  3
Standard
 71
     0
 76
     3
 10
-143.120025634766
 20
-29.8069972991943
 30
0.0
 10
-163.269271372457
 20
-56.9709588472173
 30
0.0
 10
-184.416882273803
 20
-56.9709588472173
 30
0.0
  0
LEADER
  5
53C
330
1F
100
AcDbEntity
  8
1
  6
Continuous
 62
     4
100
AcDbLeader
  3
Standard
 71
     0
 76
     3
 10
13.1
 20
-145.45856856135
 30
0.0
 10
37.7728624761417
 20
-171.792302562435
 30
0.0
 10
74.8735911673252
 20
-171.792302562435
 30
0.0
  0
ENDSEC
  0
SECTION
  2
OBJECTS
  0
DICTIONARY
  5
C
330
0
100
AcDbDictionary
281
     1
  3
ACAD_GROUP
350
D
  3
ACAD_LAYOUT
350
1A
  3
ACAD_MATERIAL
350
3B
  3
ACAD_MLEADERSTYLE
350
53F
  3
ACAD_MLINESTYLE
350
17
  3
ACAD_PLOTSETTINGS
350
19
  3
ACAD_PLOTSTYLENAME
350
E
  3
ACAD_VISUALSTYLE
350
2A
  3
AcDbVariableDictionary
350
53D
  0
DICTIONARY
  5
D
102
{ACAD_REACTORS
330
C
102
}
330
C
100
AcDbDictionary
281
     1
  0
DICTIONARY
  5
1A
102
{ACAD_REACTORS
330
C
102
}
330
C
100
AcDbDictionary
281
     1
  3
Layout1
350
1E
  3
Layout2
350
26
  3
Model
350
22
  0
DICTIONARY
  5
3B
102
{ACAD_REACTORS
330
C
102
}
330
C
100
AcDbDictionary
281
     1
  3
ByBlock
350
3D
  3
ByLayer
350
3C
  3
Global
350
3E
  0
DICTIONARY
  5
53F
102
{ACAD_REACTORS
330
C
102
}
330
C
100
AcDbDictionary
281
     1
  0
DICTIONARY
  5
17
102
{ACAD_REACTORS
330
C
102
}
330
C
100
AcDbDictionary
281
     1
  3
Standard
350
18
  0
DICTIONARY
  5
19
102
{ACAD_REACTORS
330
C
102
}
330
C
100
AcDbDictionary
281
     1
  0
ACDBDICTIONARYWDFLT
  5
E
102
{ACAD_REACTORS
330
C
102
}
330
C
100
AcDbDictionary
281
     1
  3
Normal
350
F
100
AcDbDictionaryWithDefault
340
F
  0
DICTIONARY
  5
2A
102
{ACAD_REACTORS
330
C
102
}
330
C
100
AcDbDictionary
281
     1
  3
2dWireframe
350
2F
  3
3D Hidden
350
31
  3
3dWireframe
350
30
  3
Basic
350
32
  3
Brighten
350
36
  3
ColorChange
350
3A
  3
Conceptual
350
34
  3
Dim
350
35
  3
Facepattern
350
39
  3
Flat
350
2B
  3
FlatWithEdges
350
2C
  3
Gouraud
350
2D
  3
GouraudWithEdges
350
2E
  3
Linepattern
350
38
  3
Realistic
350
33
  3
Thicken
350
37
  0
DICTIONARY
  5
53D
102
{ACAD_REACTORS
330
C
102
}
330
C
100
AcDbDictionary
281
     1
  3
DIMASSOC
350
540
  3
HIDETEXT
350
541
  0
LAYOUT
  5
1E
102
{ACAD_REACTORS
330
1A
102
}
330
1A
100
AcDbPlotSettings
  1

  2
none_device
  4

  6

 40
0.0
 41
0.0
 42
0.0
 43
0.0
 44
0.0
 45
0.0
 46
0.0
 47
0.0
 48
0.0
 49
0.0
140
0.0
141
0.0
142
1.0
143
1.0
 70
   688
 72
     0
 73
     0
 74
     5
  7

 75
    16
147
1.0
148
0.0
149
0.0
100
AcDbLayout
  1
Layout1
 70
     1
 71
     1
 10
0.0
 20
0.0
 11
12.0
 21
9.0
 12
0.0
 22
0.0
 32
0.0
 14
1.00000000000000E+20
 24
1.00000000000000E+20
 34
1.00000000000000E+20
 15
-1.00000000000000E+20
 25
-1.00000000000000E+20
 35
-1.00000000000000E+20
146
0.0
 13
0.0
 23
0.0
 33
0.0
 16
1.0
 26
0.0
 36
0.0
 17
0.0
 27
1.0
 37
0.0
 76
     0
330
1B
  0
LAYOUT
  5
26
102
{ACAD_REACTORS
330
1A
102
}
330
1A
100
AcDbPlotSettings
  1

  2
none_device
  4

  6

 40
0.0
 41
0.0
 42
0.0
 43
0.0
 44
0.0
 45
0.0
 46
0.0
 47
0.0
 48
0.0
 49
0.0
140
0.0
141
0.0
142
1.0
143
1.0
 70
   688
 72
     0
 73
     0
 74
     5
  7

 75
    16
147
1.0
148
0.0
149
0.0
100
AcDbLayout
  1
Layout2
 70
     1
 71
     2
 10
0.0
 20
0.0
 11
0.0
 21
0.0
 12
0.0
 22
0.0
 32
0.0
 14
0.0
 24
0.0
 34
0.0
 15
0.0
 25
0.0
 35
0.0
146
0.0
 13
0.0
 23
0.0
 33
0.0
 16
1.0
 26
0.0
 36
0.0
 17
0.0
 27
1.0
 37
0.0
 76
     0
330
23
  0
LAYOUT
  5
22
102
{ACAD_REACTORS
330
1A
102
}
330
1A
100
AcDbPlotSettings
  1

  2
none_device
  4

  6

 40
0.0
 41
0.0
 42
0.0
 43
0.0
 44
0.0
 45
0.0
 46
0.0
 47
0.0
 48
0.0
 49
0.0
140
0.0
141
0.0
142
1.0
143
1.0
 70
  1712
 72
     0
 73
     0
 74
     0
  7

 75
     0
147
1.0
148
0.0
149
0.0
100
AcDbLayout
  1
Model
 70
     1
 71
     0
 10
0.0
 20
0.0
 11
12.0
 21
9.0
 12
0.0
 22
0.0
 32
0.0
 14
-184.416882273803
 24
-189.000470259671
 34
0.0
 15
407.271316990811
 25
421.0
 35
0.0
146
0.0
 13
0.0
 23
0.0
 33
0.0
 16
1.0
 26
0.0
 36
0.0
 17
0.0
 27
1.0
 37
0.0
 76
     0
330
1F
331
29
  0
MATERIAL
  5
3D
102
{ACAD_REACTORS
330
3B
102
}
102
{ACAD_XDICTIONARY
360
564
102
}
330
3B
100
AcDbMaterial
  1
ByBlock
  0
MATERIAL
  5
3C
102
{ACAD_REACTORS
330
3B
102
}
102
{ACAD_XDICTIONARY
360
562
102
}
330
3B
100
AcDbMaterial
  1
ByLayer
  0
MATERIAL
  5
3E
102
{ACAD_REACTORS
330
3B
102
}
102
{ACAD_XDICTIONARY
360
566
102
}
330
3B
100
AcDbMaterial
  1
Global
  0
MLINESTYLE
  5
18
102
{ACAD_REACTORS
330
17
102
}
330
17
100
AcDbMlineStyle
  2
Standard
 70
     0
  3

 62
   256
 51
90.0
 52
90.0
 71
     2
 49
0.5
 62
   256
  6
BYLAYER
 49
-0.5
 62
   256
  6
BYLAYER
  0
ACDBPLACEHOLDER
  5
F
102
{ACAD_REACTORS
330
E
102
}
330
E
  0
VISUALSTYLE
  5
2F
102
{ACAD_REACTORS
330
2A
102
}
102
{ACAD_XDICTIONARY
360
54A
102
}
330
2A
100
AcDbVisualStyle
  2
2dWireframe
 70
     4
 71
     0
 72
     2
 73
     0
 90
        0
 40
-0.6
 41
-30.0
 62
     5
 63
     7
 74
     1
 91
        4
 64
     7
 65
   257
 75
     1
175
     1
 42
1.0
 92
        0
 66
   257
 43
1.0
 76
     1
 77
     6
 78
     2
 67
     7
 79
     5
170
     0
171
     0
290
     0
174
     0
 93
        1
 44
0.0
173
     0
291
     0
 45
0.0
1001
ACAD
1000
AcDbSavedByObjectVersion
1070
     0
  0
VISUALSTYLE
  5
31
102
{ACAD_REACTORS
330
2A
102
}
102
{ACAD_XDICTIONARY
360
54E
102
}
330
2A
100
AcDbVisualStyle
  2
3D Hidden
 70
     6
 71
     1
 72
     2
 73
     2
 90
        0
 40
-0.6
 41
-30.0
 62
     5
 63
     7
 74
     2
 91
        2
 64
     7
 65
   257
 75
     2
175
     1
 42
40.0
 92
        0
 66
   257
 43
1.0
 76
     1
 77
     6
 78
     2
 67
     7
 79
     3
170
     0
171
     0
290
     0
174
     0
 93
        1
 44
0.0
173
     0
291
     0
 45
0.0
1001
ACAD
1000
AcDbSavedByObjectVersion
1070
     0
  0
VISUALSTYLE
  5
30
102
{ACAD_REACTORS
330
2A
102
}
102
{ACAD_XDICTIONARY
360
54C
102
}
330
2A
100
AcDbVisualStyle
  2
3dWireframe
 70
     5
 71
     0
 72
     2
 73
     0
 90
        0
 40
-0.6
 41
-30.0
 62
     5
 63
     7
 74
     1
 91
        4
 64
     7
 65
   257
 75
     1
175
     1
 42
1.0
 92
        0
 66
   257
 43
1.0
 76
     1
 77
     6
 78
     2
 67
     7
 79
     5
170
     0
171
     0
290
     0
174
     0
 93
        1
 44
0.0
173
     0
291
     0
 45
0.0
1001
ACAD
1000
AcDbSavedByObjectVersion
1070
     0
  0
VISUALSTYLE
  5
32
102
{ACAD_REACTORS
330
2A
102
}
102
{ACAD_XDICTIONARY
360
550
102
}
330
2A
100
AcDbVisualStyle
  2
Basic
 70
     7
 71
     1
 72
     0
 73
     1
 90
        0
 40
-0.6
 41
-30.0
 62
     5
 63
     7
 74
     0
 91
        4
 64
     7
 65
   257
 75
     1
175
     1
 42
1.0
 92
        8
 66
     7
 43
1.0
 76
     1
 77
     6
 78
     2
 67
     7
 79
     5
170
     0
171
     0
290
     0
174
     0
 93
        1
 44
0.0
173
     0
291
     1
 45
0.0
1001
ACAD
1000
AcDbSavedByObjectVersion
1070
     0
  0
VISUALSTYLE
  5
36
102
{ACAD_REACTORS
330
2A
102
}
102
{ACAD_XDICTIONARY
360
558
102
}
330
2A
100
AcDbVisualStyle
  2
Brighten
 70
    12
 71
     2
 72
     2
 73
     0
 90
        0
 40
-0.6
 41
-30.0
 62
     5
 63
     7
 74
     1
 91
        4
 64
     7
 65
   257
 75
     1
175
     1
 42
1.0
 92
        8
 66
     7
 43
1.0
 76
     1
 77
     6
 78
     2
 67
     7
 79
     5
170
     0
171
     0
290
     0
174
     0
 93
        1
 44
50.0
173
     0
291
     1
 45
0.0
1001
ACAD
1000
AcDbSavedByObjectVersion
1070
     0
  0
VISUALSTYLE
  5
3A
102
{ACAD_REACTORS
330
2A
102
}
102
{ACAD_XDICTIONARY
360
560
102
}
330
2A
100
AcDbVisualStyle
  2
ColorChange
 70
    16
 71
     2
 72
     2
 73
     3
 90
        0
 40
-0.6
 41
-30.0
 62
     5
 63
     8
 74
     1
 91
        4
 64
     7
 65
   257
 75
     1
175
     1
 42
1.0
 92
        8
 66
     8
 43
1.0
 76
     1
 77
     6
 78
     2
 67
     7
 79
     5
170
     0
171
     0
290
     0
174
     0
 93
        1
 44
0.0
173
     0
291
     1
 45
0.0
1001
ACAD
1000
AcDbSavedByObjectVersion
1070
     0
  0
VISUALSTYLE
  5
34
102
{ACAD_REACTORS
330
2A
102
}
102
{ACAD_XDICTIONARY
360
554
102
}
330
2A
100
AcDbVisualStyle
  2
Conceptual
 70
     9
 71
     3
 72
     2
 73
     0
 90
        0
 40
-0.6
 41
-30.0
 62
     5
 63
     7
 74
     2
 91
        2
 64
     7
 65
   257
 75
     1
175
     1
 42
40.0
 92
        8
 66
     7
 43
1.0
 76
     1
 77
     6
 78
     2
 67
     7
 79
     3
170
     0
171
     0
290
     0
174
     0
 93
        1
 44
0.0
173
     0
291
     0
 45
0.0
1001
ACAD
1000
AcDbSavedByObjectVersion
1070
     0
  0
VISUALSTYLE
  5
35
102
{ACAD_REACTORS
330
2A
102
}
102
{ACAD_XDICTIONARY
360
556
102
}
330
2A
100
AcDbVisualStyle
  2
Dim
 70
    11
 71
     2
 72
     2
 73
     0
 90
        0
 40
-0.6
 41
-30.0
 62
     5
 63
     7
 74
     1
 91
        4
 64
     7
 65
   257
 75
     1
175
     1
 42
1.0
 92
        8
 66
     7
 43
1.0
 76
     1
 77
     6
 78
     2
 67
     7
 79
     5
170
     0
171
     0
290
     0
174
     0
 93
        1
 44
-50.0
173
     0
291
     1
 45
0.0
1001
ACAD
1000
AcDbSavedByObjectVersion
1070
     0
  0
VISUALSTYLE
  5
39
102
{ACAD_REACTORS
330
2A
102
}
102
{ACAD_XDICTIONARY
360
55E
102
}
330
2A
100
AcDbVisualStyle
  2
Facepattern
 70
    15
 71
     2
 72
     2
 73
     0
 90
        0
 40
-0.6
 41
-30.0
 62
     5
 63
     7
 74
     1
 91
        4
 64
     7
 65
   257
 75
     1
175
     1
 42
1.0
 92
        8
 66
     7
 43
1.0
 76
     1
 77
     6
 78
     2
 67
     7
 79
     5
170
     0
171
     0
290
     0
174
     0
 93
        1
 44
0.0
173
     0
291
     1
 45
0.0
1001
ACAD
1000
AcDbSavedByObjectVersion
1070
     0
  0
VISUALSTYLE
  5
2B
102
{ACAD_REACTORS
330
2A
102
}
102
{ACAD_XDICTIONARY
360
542
102
}
330
2A
100
AcDbVisualStyle
  2
Flat
 70
     0
 71
     2
 72
     1
 73
     1
 90
        2
 40
-0.6
 41
30.0
 62
     5
 63
     7
 74
     0
 91
        4
 64
     7
 65
   257
 75
     1
175
     1
 42
1.0
 92
        8
 66
     7
 43
1.0
 76
     1
 77
     6
 78
     2
 67
     7
 79
     5
170
     0
171
     0
290
     0
174
     0
 93
       13
 44
0.0
173
     0
291
     1
 45
0.0
1001
ACAD
1000
AcDbSavedByObjectVersion
1070
     0
  0
VISUALSTYLE
  5
2C
102
{ACAD_REACTORS
330
2A
102
}
102
{ACAD_XDICTIONARY
360
544
102
}
330
2A
100
AcDbVisualStyle
  2
FlatWithEdges
 70
     1
 71
     2
 72
     1
 73
     1
 90
        2
 40
-0.6
 41
30.0
 62
     5
 63
     7
 74
     1
 91
        4
 64
     7
 65
   257
 75
     1
175
     1
 42
1.0
 92
        0
 66
   257
 43
1.0
 76
     1
 77
     6
 78
     2
 67
     7
 79
     5
170
     0
171
     0
290
     0
174
     0
 93
       13
 44
0.0
173
     0
291
     1
 45
0.0
1001
ACAD
1000
AcDbSavedByObjectVersion
1070
     0
  0
VISUALSTYLE
  5
2D
102
{ACAD_REACTORS
330
2A
102
}
102
{ACAD_XDICTIONARY
360
546
102
}
330
2A
100
AcDbVisualStyle
  2
Gouraud
 70
     2
 71
     2
 72
     2
 73
     1
 90
        2
 40
-0.6
 41
30.0
 62
     5
 63
     7
 74
     0
 91
        4
 64
     7
 65
   257
 75
     1
175
     1
 42
1.0
 92
        0
 66
     7
 43
1.0
 76
     1
 77
     6
 78
     2
 67
     7
 79
     5
170
     0
171
     0
290
     0
174
     0
 93
       13
 44
0.0
173
     0
291
     1
 45
0.0
1001
ACAD
1000
AcDbSavedByObjectVersion
1070
     0
  0
VISUALSTYLE
  5
2E
102
{ACAD_REACTORS
330
2A
102
}
102
{ACAD_XDICTIONARY
360
548
102
}
330
2A
100
AcDbVisualStyle
  2
GouraudWithEdges
 70
     3
 71
     2
 72
     2
 73
     1
 90
        2
 40
-0.6
 41
30.0
 62
     5
 63
     7
 74
     1
 91
        4
 64
     7
 65
   257
 75
     1
175
     1
 42
1.0
 92
        0
 66
   257
 43
1.0
 76
     1
 77
     6
 78
     2
 67
     7
 79
     5
170
     0
171
     0
290
     0
174
     0
 93
       13
 44
0.0
173
     0
291
     1
 45
0.0
1001
ACAD
1000
AcDbSavedByObjectVersion
1070
     0
  0
VISUALSTYLE
  5
38
102
{ACAD_REACTORS
330
2A
102
}
102
{ACAD_XDICTIONARY
360
55C
102
}
330
2A
100
AcDbVisualStyle
  2
Linepattern
 70
    14
 71
     2
 72
     2
 73
     0
 90
        0
 40
-0.6
 41
-30.0
 62
     5
 63
     7
 74
     1
 91
        4
 64
     7
 65
   257
 75
     7
175
     7
 42
1.0
 92
        8
 66
     7
 43
1.0
 76
     1
 77
     6
 78
     2
 67
     7
 79
     5
170
     0
171
     0
290
     0
174
     0
 93
        1
 44
0.0
173
     0
291
     1
 45
0.0
1001
ACAD
1000
AcDbSavedByObjectVersion
1070
     0
  0
VISUALSTYLE
  5
33
102
{ACAD_REACTORS
330
2A
102
}
102
{ACAD_XDICTIONARY
360
552
102
}
330
2A
100
AcDbVisualStyle
  2
Realistic
 70
     8
 71
     2
 72
     2
 73
     0
 90
        0
 40
-0.6
 41
-30.0
 62
     5
 63
     7
 74
     1
 91
        0
 64
     7
 65
   257
 75
     1
175
     1
 42
1.0
 92
        8
 66
     8
 43
1.0
 76
     1
 77
     6
 78
     2
 67
     7
 79
     5
170
     0
171
     0
290
     0
174
     0
 93
       13
 44
0.0
173
     0
291
     0
 45
0.0
1001
ACAD
1000
AcDbSavedByObjectVersion
1070
     0
  0
VISUALSTYLE
  5
37
102
{ACAD_REACTORS
330
2A
102
}
102
{ACAD_XDICTIONARY
360
55A
102
}
330
2A
100
AcDbVisualStyle
  2
Thicken
 70
    13
 71
     2
 72
     2
 73
     0
 90
        0
 40
-0.6
 41
-30.0
 62
     5
 63
     7
 74
     1
 91
        4
 64
     7
 65
   257
 75
     1
175
     1
 42
1.0
 92
       12
 66
     7
 43
1.0
 76
     1
 77
     6
 78
     2
 67
     7
 79
     5
170
     0
171
     0
290
     0
174
     0
 93
        1
 44
0.0
173
     0
291
     1
 45
0.0
1001
ACAD
1000
AcDbSavedByObjectVersion
1070
     0
  0
DICTIONARYVAR
  5
540
102
{ACAD_REACTORS
330
53D
102
}
330
53D
100
DictionaryVariables
280
     0
  1
2
  0
DICTIONARYVAR
  5
541
102
{ACAD_REACTORS
330
53D
102
}
330
53D
100
DictionaryVariables
280
     0
  1
1
  0
DICTIONARY
  5
564
330
3D
100
AcDbDictionary
280
     1
281
     1
  3
ACAD_XREC_ROUNDTRIP
360
565
  0
DICTIONARY
  5
562
330
3C
100
AcDbDictionary
280
     1
281
     1
  3
ACAD_XREC_ROUNDTRIP
360
563
  0
DICTIONARY
  5
566
330
3E
100
AcDbDictionary
280
     1
281
     1
  3
ACAD_XREC_ROUNDTRIP
360
567
  0
DICTIONARY
  5
54A
330
2F
100
AcDbDictionary
280
     1
281
     1
  3
ACAD_XREC_ROUNDTRIP
360
54B
  0
DICTIONARY
  5
54E
330
31
100
AcDbDictionary
280
     1
281
     1
  3
ACAD_XREC_ROUNDTRIP
360
54F
  0
DICTIONARY
  5
54C
330
30
100
AcDbDictionary
280
     1
281
     1
  3
ACAD_XREC_ROUNDTRIP
360
54D
  0
DICTIONARY
  5
550
330
32
100
AcDbDictionary
280
     1
281
     1
  3
ACAD_XREC_ROUNDTRIP
360
551
  0
DICTIONARY
  5
558
330
36
100
AcDbDictionary
280
     1
281
     1
  3
ACAD_XREC_ROUNDTRIP
360
559
  0
DICTIONARY
  5
560
330
3A
100
AcDbDictionary
280
     1
281
     1
  3
ACAD_XREC_ROUNDTRIP
360
561
  0
DICTIONARY
  5
554
330
34
100
AcDbDictionary
280
     1
281
     1
  3
ACAD_XREC_ROUNDTRIP
360
555
  0
DICTIONARY
  5
556
330
35
100
AcDbDictionary
280
     1
281
     1
  3
ACAD_XREC_ROUNDTRIP
360
557
  0
DICTIONARY
  5
55E
330
39
100
AcDbDictionary
280
     1
281
     1
  3
ACAD_XREC_ROUNDTRIP
360
55F
  0
DICTIONARY
  5
542
330
2B
100
AcDbDictionary
280
     1
281
     1
  3
ACAD_XREC_ROUNDTRIP
360
543
  0
DICTIONARY
  5
544
330
2C
100
AcDbDictionary
280
     1
281
     1
  3
ACAD_XREC_ROUNDTRIP
360
545
  0
DICTIONARY
  5
546
330
2D
100
AcDbDictionary
280
     1
281
     1
  3
ACAD_XREC_ROUNDTRIP
360
547
  0
DICTIONARY
  5
548
330
2E
100
AcDbDictionary
280
     1
281
     1
  3
ACAD_XREC_ROUNDTRIP
360
549
  0
DICTIONARY
  5
55C
330
38
100
AcDbDictionary
280
     1
281
     1
  3
ACAD_XREC_ROUNDTRIP
360
55D
  0
DICTIONARY
  5
552
330
33
100
AcDbDictionary
280
     1
281
     1
  3
ACAD_XREC_ROUNDTRIP
360
553
  0
DICTIONARY
  5
55A
330
37
100
AcDbDictionary
280
     1
281
     1
  3
ACAD_XREC_ROUNDTRIP
360
55B
  0
XRECORD
  5
565
102
{ACAD_REACTORS
330
564
102
}
330
564
100
AcDbXrecord
280
     1
102
MATERIAL
148
0.0
149
0.0
149
0.0
 93
        0
 94
      127
282
     0
 72
     1
 77
     1
171
     1
175
     1
179
     1
273
     0
  0
XRECORD
  5
563
102
{ACAD_REACTORS
330
562
102
}
330
562
100
AcDbXrecord
280
     1
102
MATERIAL
148
0.0
149
0.0
149
0.0
 93
        0
 94
      127
282
     0
 72
     1
 77
     1
171
     1
175
     1
179
     1
273
     0
  0
XRECORD
  5
567
102
{ACAD_REACTORS
330
566
102
}
330
566
100
AcDbXrecord
280
     1
102
MATERIAL
148
0.0
149
0.0
149
0.0
 93
        0
 94
      127
282
     0
 72
     1
 77
     1
171
     1
175
     1
179
     1
273
     0
  0
XRECORD
  5
54B
102
{ACAD_REACTORS
330
54A
102
}
330
54A
100
AcDbXrecord
280
     1
102
RTVSPropertyOp0
 70
     1
102
RTVSPropertyOp1
 70
     1
102
RTVSPropertyOp2
 70
     1
102
RTVSPropertyOp3
 70
     1
102
RTVSPropertyOp4
 70
     1
102
RTVSPropertyOp5
 70
     1
102
RTVSPropertyOp6
 70
     1
102
RTVSPropertyOp7
 70
     1
102
RTVSPropertyOp8
 70
     1
102
RTVSPropertyOp9
 70
     1
102
RTVSPropertyOp10
 70
     1
102
RTVSPropertyOp11
 70
     1
102
RTVSPropertyOp12
 70
     1
102
RTVSPropertyOp13
 70
     1
102
RTVSPropertyOp14
 70
     1
102
RTVSPropertyOp15
 70
     1
102
RTVSPropertyOp16
 70
     1
102
RTVSPropertyOp17
 70
     1
102
RTVSPropertyOp18
 70
     1
102
RTVSPropertyOp19
 70
     1
102
RTVSPropertyOp20
 70
     1
102
RTVSPropertyOp21
 70
     1
102
RTVSPropertyOp22
 70
     1
102
RTVSPropertyOp23
 70
     1
102
RTVSPropertyOp24
 70
     1
102
RTVSPropertyOp25
 70
     1
102
RTVSPropertyOp26
 70
     1
102
RTVSPropertyOp27
 70
     1
  0
XRECORD
  5
54F
102
{ACAD_REACTORS
330
54E
102
}
330
54E
100
AcDbXrecord
280
     1
102
RTVSPropertyOp0
 70
     1
102
RTVSPropertyOp1
 70
     1
102
RTVSPropertyOp2
 70
     1
102
RTVSPropertyOp3
 70
     1
102
RTVSPropertyOp4
 70
     1
102
RTVSPropertyOp5
 70
     1
102
RTVSPropertyOp6
 70
     1
102
RTVSPropertyOp7
 70
     1
102
RTVSPropertyOp8
 70
     1
102
RTVSPropertyOp9
 70
     1
102
RTVSPropertyOp10
 70
     1
102
RTVSPropertyOp11
 70
     1
102
RTVSPropertyOp12
 70
     1
102
RTVSPropertyOp13
 70
     1
102
RTVSPropertyOp14
 70
     1
102
RTVSPropertyOp15
 70
     1
102
RTVSPropertyOp16
 70
     1
102
RTVSPropertyOp17
 70
     1
102
RTVSPropertyOp18
 70
     1
102
RTVSPropertyOp19
 70
     1
102
RTVSPropertyOp20
 70
     1
102
RTVSPropertyOp21
 70
     1
102
RTVSPropertyOp22
 70
     1
102
RTVSPropertyOp23
 70
     1
102
RTVSPropertyOp24
 70
     1
102
RTVSPropertyOp25
 70
     1
102
RTVSPropertyOp26
 70
     1
102
RTVSPropertyOp27
 70
     1
  0
XRECORD
  5
54D
102
{ACAD_REACTORS
330
54C
102
}
330
54C
100
AcDbXrecord
280
     1
102
RTVSPropertyOp0
 70
     1
102
RTVSPropertyOp1
 70
     1
102
RTVSPropertyOp2
 70
     1
102
RTVSPropertyOp3
 70
     1
102
RTVSPropertyOp4
 70
     1
102
RTVSPropertyOp5
 70
     1
102
RTVSPropertyOp6
 70
     1
102
RTVSPropertyOp7
 70
     1
102
RTVSPropertyOp8
 70
     1
102
RTVSPropertyOp9
 70
     1
102
RTVSPropertyOp10
 70
     1
102
RTVSPropertyOp11
 70
     1
102
RTVSPropertyOp12
 70
     1
102
RTVSPropertyOp13
 70
     1
102
RTVSPropertyOp14
 70
     1
102
RTVSPropertyOp15
 70
     1
102
RTVSPropertyOp16
 70
     1
102
RTVSPropertyOp17
 70
     1
102
RTVSPropertyOp18
 70
     1
102
RTVSPropertyOp19
 70
     1
102
RTVSPropertyOp20
 70
     1
102
RTVSPropertyOp21
 70
     1
102
RTVSPropertyOp22
 70
     1
102
RTVSPropertyOp23
 70
     1
102
RTVSPropertyOp24
 70
     1
102
RTVSPropertyOp25
 70
     1
102
RTVSPropertyOp26
 70
     1
102
RTVSPropertyOp27
 70
     1
  0
XRECORD
  5
551
102
{ACAD_REACTORS
330
550
102
}
330
550
100
AcDbXrecord
280
     1
102
RTVSPropertyOp0
 70
     1
102
RTVSPropertyOp1
 70
     1
102
RTVSPropertyOp2
 70
     1
102
RTVSPropertyOp3
 70
     1
102
RTVSPropertyOp4
 70
     1
102
RTVSPropertyOp5
 70
     1
102
RTVSPropertyOp6
 70
     1
102
RTVSPropertyOp7
 70
     1
102
RTVSPropertyOp8
 70
     1
102
RTVSPropertyOp9
 70
     1
102
RTVSPropertyOp10
 70
     1
102
RTVSPropertyOp11
 70
     1
102
RTVSPropertyOp12
 70
     1
102
RTVSPropertyOp13
 70
     1
102
RTVSPropertyOp14
 70
     1
102
RTVSPropertyOp15
 70
     1
102
RTVSPropertyOp16
 70
     1
102
RTVSPropertyOp17
 70
     1
102
RTVSPropertyOp18
 70
     1
102
RTVSPropertyOp19
 70
     1
102
RTVSPropertyOp20
 70
     1
102
RTVSPropertyOp21
 70
     1
102
RTVSPropertyOp22
 70
     1
102
RTVSPropertyOp23
 70
     1
102
RTVSPropertyOp24
 70
     1
102
RTVSPropertyOp25
 70
     1
102
RTVSPropertyOp26
 70
     1
102
RTVSPropertyOp27
 70
     1
  0
XRECORD
  5
559
102
{ACAD_REACTORS
330
558
102
}
330
558
100
AcDbXrecord
280
     1
102
RTVSPropertyOp0
 70
     1
102
RTVSPropertyOp1
 70
     1
102
RTVSPropertyOp2
 70
     1
102
RTVSPropertyOp3
 70
     1
102
RTVSPropertyOp4
 70
     1
102
RTVSPropertyOp5
 70
     1
102
RTVSPropertyOp6
 70
     1
102
RTVSPropertyOp7
 70
     1
102
RTVSPropertyOp8
 70
     1
102
RTVSPropertyOp9
 70
     1
102
RTVSPropertyOp10
 70
     1
102
RTVSPropertyOp11
 70
     1
102
RTVSPropertyOp12
 70
     1
102
RTVSPropertyOp13
 70
     1
102
RTVSPropertyOp14
 70
     1
102
RTVSPropertyOp15
 70
     1
102
RTVSPropertyOp16
 70
     1
102
RTVSPropertyOp17
 70
     1
102
RTVSPropertyOp18
 70
     1
102
RTVSPropertyOp19
 70
     1
102
RTVSPropertyOp20
 70
     1
102
RTVSPropertyOp21
 70
     1
102
RTVSPropertyOp22
 70
     1
102
RTVSPropertyOp23
 70
     1
102
RTVSPropertyOp24
 70
     1
102
RTVSPropertyOp25
 70
     1
102
RTVSPropertyOp26
 70
     1
102
RTVSPropertyOp27
 70
     1
  0
XRECORD
  5
561
102
{ACAD_REACTORS
330
560
102
}
330
560
100
AcDbXrecord
280
     1
102
RTVSPropertyOp0
 70
     1
102
RTVSPropertyOp1
 70
     1
102
RTVSPropertyOp2
 70
     1
102
RTVSPropertyOp3
 70
     1
102
RTVSPropertyOp4
 70
     1
102
RTVSPropertyOp5
 70
     1
102
RTVSPropertyOp6
 70
     1
102
RTVSPropertyOp7
 70
     1
102
RTVSPropertyOp8
 70
     1
102
RTVSPropertyOp9
 70
     1
102
RTVSPropertyOp10
 70
     1
102
RTVSPropertyOp11
 70
     1
102
RTVSPropertyOp12
 70
     1
102
RTVSPropertyOp13
 70
     1
102
RTVSPropertyOp14
 70
     1
102
RTVSPropertyOp15
 70
     1
102
RTVSPropertyOp16
 70
     1
102
RTVSPropertyOp17
 70
     1
102
RTVSPropertyOp18
 70
     1
102
RTVSPropertyOp19
 70
     1
102
RTVSPropertyOp20
 70
     1
102
RTVSPropertyOp21
 70
     1
102
RTVSPropertyOp22
 70
     1
102
RTVSPropertyOp23
 70
     1
102
RTVSPropertyOp24
 70
     1
102
RTVSPropertyOp25
 70
     1
102
RTVSPropertyOp26
 70
     1
102
RTVSPropertyOp27
 70
     1
  0
XRECORD
  5
555
102
{ACAD_REACTORS
330
554
102
}
330
554
100
AcDbXrecord
280
     1
102
RTVSPropertyOp0
 70
     1
102
RTVSPropertyOp1
 70
     1
102
RTVSPropertyOp2
 70
     1
102
RTVSPropertyOp3
 70
     1
102
RTVSPropertyOp4
 70
     1
102
RTVSPropertyOp5
 70
     1
102
RTVSPropertyOp6
 70
     1
102
RTVSPropertyOp7
 70
     1
102
RTVSPropertyOp8
 70
     1
102
RTVSPropertyOp9
 70
     1
102
RTVSPropertyOp10
 70
     1
102
RTVSPropertyOp11
 70
     1
102
RTVSPropertyOp12
 70
     1
102
RTVSPropertyOp13
 70
     1
102
RTVSPropertyOp14
 70
     1
102
RTVSPropertyOp15
 70
     1
102
RTVSPropertyOp16
 70
     1
102
RTVSPropertyOp17
 70
     1
102
RTVSPropertyOp18
 70
     1
102
RTVSPropertyOp19
 70
     1
102
RTVSPropertyOp20
 70
     1
102
RTVSPropertyOp21
 70
     1
102
RTVSPropertyOp22
 70
     1
102
RTVSPropertyOp23
 70
     1
102
RTVSPropertyOp24
 70
     1
102
RTVSPropertyOp25
 70
     1
102
RTVSPropertyOp26
 70
     1
102
RTVSPropertyOp27
 70
     1
  0
XRECORD
  5
557
102
{ACAD_REACTORS
330
556
102
}
330
556
100
AcDbXrecord
280
     1
102
RTVSPropertyOp0
 70
     1
102
RTVSPropertyOp1
 70
     1
102
RTVSPropertyOp2
 70
     1
102
RTVSPropertyOp3
 70
     1
102
RTVSPropertyOp4
 70
     1
102
RTVSPropertyOp5
 70
     1
102
RTVSPropertyOp6
 70
     1
102
RTVSPropertyOp7
 70
     1
102
RTVSPropertyOp8
 70
     1
102
RTVSPropertyOp9
 70
     1
102
RTVSPropertyOp10
 70
     1
102
RTVSPropertyOp11
 70
     1
102
RTVSPropertyOp12
 70
     1
102
RTVSPropertyOp13
 70
     1
102
RTVSPropertyOp14
 70
     1
102
RTVSPropertyOp15
 70
     1
102
RTVSPropertyOp16
 70
     1
102
RTVSPropertyOp17
 70
     1
102
RTVSPropertyOp18
 70
     1
102
RTVSPropertyOp19
 70
     1
102
RTVSPropertyOp20
 70
     1
102
RTVSPropertyOp21
 70
     1
102
RTVSPropertyOp22
 70
     1
102
RTVSPropertyOp23
 70
     1
102
RTVSPropertyOp24
 70
     1
102
RTVSPropertyOp25
 70
     1
102
RTVSPropertyOp26
 70
     1
102
RTVSPropertyOp27
 70
     1
  0
XRECORD
  5
55F
102
{ACAD_REACTORS
330
55E
102
}
330
55E
100
AcDbXrecord
280
     1
102
RTVSPropertyOp0
 70
     1
102
RTVSPropertyOp1
 70
     1
102
RTVSPropertyOp2
 70
     1
102
RTVSPropertyOp3
 70
     1
102
RTVSPropertyOp4
 70
     1
102
RTVSPropertyOp5
 70
     1
102
RTVSPropertyOp6
 70
     1
102
RTVSPropertyOp7
 70
     1
102
RTVSPropertyOp8
 70
     1
102
RTVSPropertyOp9
 70
     1
102
RTVSPropertyOp10
 70
     1
102
RTVSPropertyOp11
 70
     1
102
RTVSPropertyOp12
 70
     1
102
RTVSPropertyOp13
 70
     1
102
RTVSPropertyOp14
 70
     1
102
RTVSPropertyOp15
 70
     1
102
RTVSPropertyOp16
 70
     1
102
RTVSPropertyOp17
 70
     1
102
RTVSPropertyOp18
 70
     1
102
RTVSPropertyOp19
 70
     1
102
RTVSPropertyOp20
 70
     1
102
RTVSPropertyOp21
 70
     1
102
RTVSPropertyOp22
 70
     1
102
RTVSPropertyOp23
 70
     1
102
RTVSPropertyOp24
 70
     1
102
RTVSPropertyOp25
 70
     1
102
RTVSPropertyOp26
 70
     1
102
RTVSPropertyOp27
 70
     1
  0
XRECORD
  5
543
102
{ACAD_REACTORS
330
542
102
}
330
542
100
AcDbXrecord
280
     1
102
RTVSPropertyOp0
 70
     1
102
RTVSPropertyOp1
 70
     1
102
RTVSPropertyOp2
 70
     1
102
RTVSPropertyOp3
 70
     1
102
RTVSPropertyOp4
 70
     1
102
RTVSPropertyOp5
 70
     1
102
RTVSPropertyOp6
 70
     1
102
RTVSPropertyOp7
 70
     1
102
RTVSPropertyOp8
 70
     1
102
RTVSPropertyOp9
 70
     1
102
RTVSPropertyOp10
 70
     1
102
RTVSPropertyOp11
 70
     1
102
RTVSPropertyOp12
 70
     1
102
RTVSPropertyOp13
 70
     1
102
RTVSPropertyOp14
 70
     1
102
RTVSPropertyOp15
 70
     1
102
RTVSPropertyOp16
 70
     1
102
RTVSPropertyOp17
 70
     1
102
RTVSPropertyOp18
 70
     1
102
RTVSPropertyOp19
 70
     1
102
RTVSPropertyOp20
 70
     1
102
RTVSPropertyOp21
 70
     1
102
RTVSPropertyOp22
 70
     1
102
RTVSPropertyOp23
 70
     1
102
RTVSPropertyOp24
 70
     1
102
RTVSPropertyOp25
 70
     1
102
RTVSPropertyOp26
 70
     1
102
RTVSPropertyOp27
 70
     1
  0
XRECORD
  5
545
102
{ACAD_REACTORS
330
544
102
}
330
544
100
AcDbXrecord
280
     1
102
RTVSPropertyOp0
 70
     1
102
RTVSPropertyOp1
 70
     1
102
RTVSPropertyOp2
 70
     1
102
RTVSPropertyOp3
 70
     1
102
RTVSPropertyOp4
 70
     1
102
RTVSPropertyOp5
 70
     1
102
RTVSPropertyOp6
 70
     1
102
RTVSPropertyOp7
 70
     1
102
RTVSPropertyOp8
 70
     1
102
RTVSPropertyOp9
 70
     1
102
RTVSPropertyOp10
 70
     1
102
RTVSPropertyOp11
 70
     1
102
RTVSPropertyOp12
 70
     1
102
RTVSPropertyOp13
 70
     1
102
RTVSPropertyOp14
 70
     1
102
RTVSPropertyOp15
 70
     1
102
RTVSPropertyOp16
 70
     1
102
RTVSPropertyOp17
 70
     1
102
RTVSPropertyOp18
 70
     1
102
RTVSPropertyOp19
 70
     1
102
RTVSPropertyOp20
 70
     1
102
RTVSPropertyOp21
 70
     1
102
RTVSPropertyOp22
 70
     1
102
RTVSPropertyOp23
 70
     1
102
RTVSPropertyOp24
 70
     1
102
RTVSPropertyOp25
 70
     1
102
RTVSPropertyOp26
 70
     1
102
RTVSPropertyOp27
 70
     1
  0
XRECORD
  5
547
102
{ACAD_REACTORS
330
546
102
}
330
546
100
AcDbXrecord
280
     1
102
RTVSPropertyOp0
 70
     1
102
RTVSPropertyOp1
 70
     1
102
RTVSPropertyOp2
 70
     1
102
RTVSPropertyOp3
 70
     1
102
RTVSPropertyOp4
 70
     1
102
RTVSPropertyOp5
 70
     1
102
RTVSPropertyOp6
 70
     1
102
RTVSPropertyOp7
 70
     1
102
RTVSPropertyOp8
 70
     1
102
RTVSPropertyOp9
 70
     1
102
RTVSPropertyOp10
 70
     1
102
RTVSPropertyOp11
 70
     1
102
RTVSPropertyOp12
 70
     1
102
RTVSPropertyOp13
 70
     1
102
RTVSPropertyOp14
 70
     1
102
RTVSPropertyOp15
 70
     1
102
RTVSPropertyOp16
 70
     1
102
RTVSPropertyOp17
 70
     1
102
RTVSPropertyOp18
 70
     1
102
RTVSPropertyOp19
 70
     1
102
RTVSPropertyOp20
 70
     1
102
RTVSPropertyOp21
 70
     1
102
RTVSPropertyOp22
 70
     1
102
RTVSPropertyOp23
 70
     1
102
RTVSPropertyOp24
 70
     1
102
RTVSPropertyOp25
 70
     1
102
RTVSPropertyOp26
 70
     1
102
RTVSPropertyOp27
 70
     1
  0
XRECORD
  5
549
102
{ACAD_REACTORS
330
548
102
}
330
548
100
AcDbXrecord
280
     1
102
RTVSPropertyOp0
 70
     1
102
RTVSPropertyOp1
 70
     1
102
RTVSPropertyOp2
 70
     1
102
RTVSPropertyOp3
 70
     1
102
RTVSPropertyOp4
 70
     1
102
RTVSPropertyOp5
 70
     1
102
RTVSPropertyOp6
 70
     1
102
RTVSPropertyOp7
 70
     1
102
RTVSPropertyOp8
 70
     1
102
RTVSPropertyOp9
 70
     1
102
RTVSPropertyOp10
 70
     1
102
RTVSPropertyOp11
 70
     1
102
RTVSPropertyOp12
 70
     1
102
RTVSPropertyOp13
 70
     1
102
RTVSPropertyOp14
 70
     1
102
RTVSPropertyOp15
 70
     1
102
RTVSPropertyOp16
 70
     1
102
RTVSPropertyOp17
 70
     1
102
RTVSPropertyOp18
 70
     1
102
RTVSPropertyOp19
 70
     1
102
RTVSPropertyOp20
 70
     1
102
RTVSPropertyOp21
 70
     1
102
RTVSPropertyOp22
 70
     1
102
RTVSPropertyOp23
 70
     1
102
RTVSPropertyOp24
 70
     1
102
RTVSPropertyOp25
 70
     1
102
RTVSPropertyOp26
 70
     1
102
RTVSPropertyOp27
 70
     1
  0
XRECORD
  5
55D
102
{ACAD_REACTORS
330
55C
102
}
330
55C
100
AcDbXrecord
280
     1
102
RTVSPropertyOp0
 70
     1
102
RTVSPropertyOp1
 70
     1
102
RTVSPropertyOp2
 70
     1
102
RTVSPropertyOp3
 70
     1
102
RTVSPropertyOp4
 70
     1
102
RTVSPropertyOp5
 70
     1
102
RTVSPropertyOp6
 70
     1
102
RTVSPropertyOp7
 70
     1
102
RTVSPropertyOp8
 70
     1
102
RTVSPropertyOp9
 70
     1
102
RTVSPropertyOp10
 70
     1
102
RTVSPropertyOp11
 70
     1
102
RTVSPropertyOp12
 70
     1
102
RTVSPropertyOp13
 70
     1
102
RTVSPropertyOp14
 70
     1
102
RTVSPropertyOp15
 70
     1
102
RTVSPropertyOp16
 70
     1
102
RTVSPropertyOp17
 70
     1
102
RTVSPropertyOp18
 70
     1
102
RTVSPropertyOp19
 70
     1
102
RTVSPropertyOp20
 70
     1
102
RTVSPropertyOp21
 70
     1
102
RTVSPropertyOp22
 70
     1
102
RTVSPropertyOp23
 70
     1
102
RTVSPropertyOp24
 70
     1
102
RTVSPropertyOp25
 70
     1
102
RTVSPropertyOp26
 70
     1
102
RTVSPropertyOp27
 70
     1
  0
XRECORD
  5
553
102
{ACAD_REACTORS
330
552
102
}
330
552
100
AcDbXrecord
280
     1
102
RTVSPropertyOp0
 70
     1
102
RTVSPropertyOp1
 70
     1
102
RTVSPropertyOp2
 70
     1
102
RTVSPropertyOp3
 70
     1
102
RTVSPropertyOp4
 70
     1
102
RTVSPropertyOp5
 70
     1
102
RTVSPropertyOp6
 70
     1
102
RTVSPropertyOp7
 70
     1
102
RTVSPropertyOp8
 70
     1
102
RTVSPropertyOp9
 70
     1
102
RTVSPropertyOp10
 70
     1
102
RTVSPropertyOp11
 70
     1
102
RTVSPropertyOp12
 70
     1
102
RTVSPropertyOp13
 70
     1
102
RTVSPropertyOp14
 70
     1
102
RTVSPropertyOp15
 70
     1
102
RTVSPropertyOp16
 70
     1
102
RTVSPropertyOp17
 70
     1
102
RTVSPropertyOp18
 70
     1
102
RTVSPropertyOp19
 70
     1
102
RTVSPropertyOp20
 70
     1
102
RTVSPropertyOp21
 70
     1
102
RTVSPropertyOp22
 70
     1
102
RTVSPropertyOp23
 70
     1
102
RTVSPropertyOp24
 70
     1
102
RTVSPropertyOp25
 70
     1
102
RTVSPropertyOp26
 70
     1
102
RTVSPropertyOp27
 70
     1
  0
XRECORD
  5
55B
102
{ACAD_REACTORS
330
55A
102
}
330
55A
100
AcDbXrecord
280
     1
102
RTVSPropertyOp0
 70
     1
102
RTVSPropertyOp1
 70
     1
102
RTVSPropertyOp2
 70
     1
102
RTVSPropertyOp3
 70
     1
102
RTVSPropertyOp4
 70
     1
102
RTVSPropertyOp5
 70
     1
102
RTVSPropertyOp6
 70
     1
102
RTVSPropertyOp7
 70
     1
102
RTVSPropertyOp8
 70
     1
102
RTVSPropertyOp9
 70
     1
102
RTVSPropertyOp10
 70
     1
102
RTVSPropertyOp11
 70
     1
102
RTVSPropertyOp12
 70
     1
102
RTVSPropertyOp13
 70
     1
102
RTVSPropertyOp14
 70
     1
102
RTVSPropertyOp15
 70
     1
102
RTVSPropertyOp16
 70
     1
102
RTVSPropertyOp17
 70
     1
102
RTVSPropertyOp18
 70
     1
102
RTVSPropertyOp19
 70
     1
102
RTVSPropertyOp20
 70
     1
102
RTVSPropertyOp21
 70
     1
102
RTVSPropertyOp22
 70
     1
102
RTVSPropertyOp23
 70
     1
102
RTVSPropertyOp24
 70
     1
102
RTVSPropertyOp25
 70
     1
102
RTVSPropertyOp26
 70
     1
102
RTVSPropertyOp27
 70
     1
  0
ENDSEC
  0
EOF
