  0
SECTION
  2
HEADER
  9
$ACADVER
  1
AC1015
  9
$ACADMAINTVER
 70
     6
  9
$DWGCODEPAGE
  3
ANSI_932
  9
$INSBASE
 10
0.0
 20
0.0
 30
0.0
  9
$EXTMIN
 10
-181.017151005176
 20
-171.623797965156
 30
0.0
  9
$EXTMAX
 10
437.412239757886
 20
421.782835875437
 30
0.0
  9
$LIMMIN
 10
0.0
 20
0.0
  9
$LIMMAX
 10
12.0
 20
9.0
  9
$ORTHOMODE
 70
     0
  9
$REGENMODE
 70
     1
  9
$FILLMODE
 70
     1
  9
$QTEXTMODE
 70
     0
  9
$MIRRTEXT
 70
     1
  9
$LTSCALE
 40
1.0
  9
$ATTMODE
 70
     1
  9
$TEXTSIZE
 40
0.2
  9
$TRACEWID
 40
0.05
  9
$TEXTSTYLE
  7
Standard
  9
$CLAYER
  8
0
  9
$CELTYPE
  6
ByLayer
  9
$CECOLOR
 62
   256
  9
$CELTSCALE
 40
1.0
  9
$DISPSILH
 70
     0
  9
$DIMSCALE
 40
1.0
  9
$DIMASZ
 40
0.18
  9
$DIMEXO
 40
0.0625
  9
$DIMDLI
 40
0.38
  9
$DIMRND
 40
0.0
  9
$DIMDLE
 40
0.0
  9
$DIMEXE
 40
0.18
  9
$DIMTP
 40
0.0
  9
$DIMTM
 40
0.0
  9
$DIMTXT
 40
0.18
  9
$DIMCEN
 40
0.09
  9
$DIMTSZ
 40
0.0
  9
$DIMTOL
 70
     0
  9
$DIMLIM
 70
     0
  9
$DIMTIH
 70
     1
  9
$DIMTOH
 70
     1
  9
$DIMSE1
 70
     0
  9
$DIMSE2
 70
     0
  9
$DIMTAD
 70
     0
  9
$DIMZIN
 70
     0
  9
$DIMBLK
  1

  9
$DIMASO
 70
     1
  9
$DIMSHO
 70
     1
  9
$DIMPOST
  1

  9
$DIMAPOST
  1

  9
$DIMALT
 70
     0
  9
$DIMALTD
 70
     2
  9
$DIMALTF
 40
25.4
  9
$DIMLFAC
 40
1.0
  9
$DIMTOFL
 70
     0
  9
$DIMTVP
 40
0.0
  9
$DIMTIX
 70
     0
  9
$DIMSOXD
 70
     0
  9
$DIMSAH
 70
     0
  9
$DIMBLK1
  1

  9
$DIMBLK2
  1

  9
$DIMSTYLE
  2
Standard
  9
$DIMCLRD
 70
     0
  9
$DIMCLRE
 70
     0
  9
$DIMCLRT
 70
     0
  9
$DIMTFAC
 40
1.0
  9
$DIMGAP
 40
0.09
  9
$DIMJUST
 70
     0
  9
$DIMSD1
 70
     0
  9
$DIMSD2
 70
     0
  9
$DIMTOLJ
 70
     1
  9
$DIMTZIN
 70
     0
  9
$DIMALTZ
 70
     0
  9
$DIMALTTZ
 70
     0
  9
$DIMUPT
 70
     0
  9
$DIMDEC
 70
     4
  9
$DIMTDEC
 70
     4
  9
$DIMALTU
 70
     2
  9
$DIMALTTD
 70
     2
  9
$DIMTXSTY
  7
Standard
  9
$DIMAUNIT
 70
     0
  9
$DIMADEC
 70
     0
  9
$DIMALTRND
 40
0.0
  9
$DIMAZIN
 70
     0
  9
$DIMDSEP
 70
    46
  9
$DIMATFIT
 70
     3
  9
$DIMFRAC
 70
     0
  9
$DIMLDRBLK
  1

  9
$DIMLUNIT
 70
     2
  9
$DIMLWD
 70
    -2
  9
$DIMLWE
 70
    -2
  9
$DIMTMOVE
 70
     0
  9
$LUNITS
 70
     2
  9
$LUPREC
 70
     4
  9
$SKETCHINC
 40
0.1
  9
$FILLETRAD
 40
0.5
  9
$AUNITS
 70
     0
  9
$AUPREC
 70
     0
  9
$MENU
  1
.
  9
$ELEVATION
 40
0.0
  9
$PELEVATION
 40
0.0
  9
$THICKNESS
 40
0.0
  9
$LIMCHECK
 70
     0
  9
$CHAMFERA
 40
0.5
  9
$CHAMFERB
 40
0.5
  9
$CHAMFERC
 40
1.0
  9
$CHAMFERD
 40
0.0
  9
$SKPOLY
 70
     0
  9
$TDCREATE
 40
2457624.701407315
  9
$TDUCREATE
 40
2457624.326407315
  9
$TDUPDATE
 40
2457624.701407326
  9
$TDUUPDATE
 40
2457624.326407326
  9
$TDINDWG
 40
0.0000000116
  9
$TDUSRTIMER
 40
0.0000000116
  9
$USRTIMER
 70
     1
  9
$ANGBASE
 50
0.0
  9
$ANGDIR
 70
     0
  9
$PDMODE
 70
     0
  9
$PDSIZE
 40
0.0
  9
$PLINEWID
 40
0.0
  9
$SPLFRAME
 70
     0
  9
$SPLINETYPE
 70
     6
  9
$SPLINESEGS
 70
     8
  9
$HANDSEED
  5
5A6
  9
$SURFTAB1
 70
     6
  9
$SURFTAB2
 70
     6
  9
$SURFTYPE
 70
     6
  9
$SURFU
 70
     6
  9
$SURFV
 70
     6
  9
$UCSBASE
  2

  9
$UCSNAME
  2

  9
$UCSORG
 10
0.0
 20
0.0
 30
0.0
  9
$UCSXDIR
 10
1.0
 20
0.0
 30
0.0
  9
$UCSYDIR
 10
0.0
 20
1.0
 30
0.0
  9
$UCSORTHOREF
  2

  9
$UCSORTHOVIEW
 70
     0
  9
$UCSORGTOP
 10
0.0
 20
0.0
 30
0.0
  9
$UCSORGBOTTOM
 10
0.0
 20
0.0
 30
0.0
  9
$UCSORGLEFT
 10
0.0
 20
0.0
 30
0.0
  9
$UCSORGRIGHT
 10
0.0
 20
0.0
 30
0.0
  9
$UCSORGFRONT
 10
0.0
 20
0.0
 30
0.0
  9
$UCSORGBACK
 10
0.0
 20
0.0
 30
0.0
  9
$PUCSBASE
  2

  9
$PUCSNAME
  2

  9
$PUCSORG
 10
0.0
 20
0.0
 30
0.0
  9
$PUCSXDIR
 10
1.0
 20
0.0
 30
0.0
  9
$PUCSYDIR
 10
0.0
 20
1.0
 30
0.0
  9
$PUCSORTHOREF
  2

  9
$PUCSORTHOVIEW
 70
     0
  9
$PUCSORGTOP
 10
0.0
 20
0.0
 30
0.0
  9
$PUCSORGBOTTOM
 10
0.0
 20
0.0
 30
0.0
  9
$PUCSORGLEFT
 10
0.0
 20
0.0
 30
0.0
  9
$PUCSORGRIGHT
 10
0.0
 20
0.0
 30
0.0
  9
$PUCSORGFRONT
 10
0.0
 20
0.0
 30
0.0
  9
$PUCSORGBACK
 10
0.0
 20
0.0
 30
0.0
  9
$USERI1
 70
     0
  9
$USERI2
 70
     0
  9
$USERI3
 70
     0
  9
$USERI4
 70
     0
  9
$USERI5
 70
     0
  9
$USERR1
 40
18.0
  9
$USERR2
 40
0.0
  9
$USERR3
 40
0.0
  9
$USERR4
 40
0.0
  9
$USERR5
 40
0.0
  9
$WORLDVIEW
 70
     1
  9
$SHADEDGE
 70
     3
  9
$SHADEDIF
 70
    70
  9
$TILEMODE
 70
     1
  9
$MAXACTVP
 70
    64
  9
$PINSBASE
 10
0.0
 20
0.0
 30
0.0
  9
$PLIMCHECK
 70
     0
  9
$PEXTMIN
 10
1.00000000000000E+20
 20
1.00000000000000E+20
 30
1.00000000000000E+20
  9
$PEXTMAX
 10
-1.00000000000000E+20
 20
-1.00000000000000E+20
 30
-1.00000000000000E+20
  9
$PLIMMIN
 10
0.0
 20
0.0
  9
$PLIMMAX
 10
12.0
 20
9.0
  9
$UNITMODE
 70
     0
  9
$VISRETAIN
 70
     1
  9
$PLINEGEN
 70
     0
  9
$PSLTSCALE
 70
     1
  9
$TREEDEPTH
 70
  3020
  9
$CMLSTYLE
  2
Standard
  9
$CMLJUST
 70
     0
  9
$CMLSCALE
 40
1.0
  9
$PROXYGRAPHICS
 70
     1
  9
$MEASUREMENT
 70
     1
  9
$CELWEIGHT
370
    -1
  9
$ENDCAPS
280
     0
  9
$JOINSTYLE
280
     0
  9
$LWDISPLAY
290
     0
  9
$INSUNITS
 70
     1
  9
$HYPERLINKBASE
  1

  9
$STYLESHEET
  1

  9
$XEDIT
290
     1
  9
$CEPSNTYPE
380
     0
  9
$PSTYLEMODE
290
     1
  9
$FINGERPRINTGUID
  2
{9D7B903A-E8DE-4CCD-AF85-574EC9C5A90C}
  9
$VERSIONGUID
  2
{FAEB1C32-E019-11D5-929B-00C0DF256EC4}
  9
$EXTNAMES
290
     1
  9
$PSVPSCALE
 40
0.0
  9
$OLESTARTUP
290
     0
  0
ENDSEC
  0
SECTION
  2
CLASSES
  0
CLASS
  1
ACDBDICTIONARYWDFLT
  2
AcDbDictionaryWithDefault
  3
ObjectDBX Classes
 90
        0
280
     0
281
     0
  0
CLASS
  1
VISUALSTYLE
  2
AcDbVisualStyle
  3
ObjectDBX Classes
 90
     4095
280
     0
281
     0
  0
CLASS
  1
MATERIAL
  2
AcDbMaterial
  3
ObjectDBX Classes
 90
     1153
280
     0
281
     0
  0
CLASS
  1

  2
exOdDbCircle
  3

 90
        0
280
     0
281
     1
  0
CLASS
  1

  2
exOdDbPolyline
  3

 90
        0
280
     0
281
     1
  0
CLASS
  1
DICTIONARYVAR
  2
AcDbDictionaryVar
  3
ObjectDBX Classes
 90
        0
280
     0
281
     0
  0
CLASS
  1
ACDBPLACEHOLDER
  2
AcDbPlaceHolder
  3
ObjectDBX Classes
 90
        0
280
     0
281
     0
  0
CLASS
  1
LAYOUT
  2
AcDbLayout
  3
ObjectDBX Classes
 90
        0
280
     0
281
     0
  0
ENDSEC
  0
SECTION
  2
TABLES
  0
TABLE
  2
VPORT
  5
8
330
0
100
AcDbSymbolTable
 70
     1
  0
VPORT
  5
29
330
8
100
AcDbSymbolTableRecord
100
AcDbViewportTableRecord
  2
*Active
 70
     0
 10
0.0
 20
0.0
 11
1.0
 21
1.0
 12
128.197544376355
 22
125.0795189551405
 13
0.0
 23
0.0
 14
0.5
 24
0.5
 15
0.5
 25
0.5
 16
0.0
 26
0.0
 36
1.0
 17
0.0
 27
0.0
 37
0.0
 40
652.7472972246524
 41
1.60267857142857
 42
50.0
 43
0.0
 44
0.0
 50
0.0
 51
0.0
 71
     0
 72
   100
 73
     1
 74
     3
 75
     0
 76
     0
 77
     0
 78
     0
281
     0
 65
     1
110
0.0
120
0.0
130
0.0
111
1.0
121
0.0
131
0.0
112
0.0
122
1.0
132
0.0
 79
     0
146
0.0
  0
ENDTAB
  0
TABLE
  2
LTYPE
  5
5
330
0
100
AcDbSymbolTable
 70
     9
  0
LTYPE
  5
14
330
5
100
AcDbSymbolTableRecord
100
AcDbLinetypeTableRecord
  2
ByBlock
 70
     0
  3

 72
    65
 73
     0
 40
0.0
  0
LTYPE
  5
15
330
5
100
AcDbSymbolTableRecord
100
AcDbLinetypeTableRecord
  2
ByLayer
 70
     0
  3

 72
    65
 73
     0
 40
0.0
  0
LTYPE
  5
16
330
5
100
AcDbSymbolTableRecord
100
AcDbLinetypeTableRecord
  2
Continuous
 70
     0
  3
Solid line
 72
    65
 73
     0
 40
0.0
  0
LTYPE
  5
3F
330
5
100
AcDbSymbolTableRecord
100
AcDbLinetypeTableRecord
  2
DASHED
 70
     0
  3
Dashed
 72
    65
 73
     2
 40
15.0
 49
7.0
 74
     0
 49
-8.0
 74
     0
  0
LTYPE
  5
40
330
5
100
AcDbSymbolTableRecord
100
AcDbLinetypeTableRecord
  2
DOTTED
 70
     0
  3
Dotted
 72
    65
 73
     2
 40
1.0
 49
0.0
 74
     0
 49
-1.0
 74
     0
  0
LTYPE
  5
41
330
5
100
AcDbSymbolTableRecord
100
AcDbLinetypeTableRecord
  2
DOT_CENTER
 70
     0
  3
Dot_Center
 72
    65
 73
     4
 40
14.0
 49
12.0
 74
     0
 49
-1.0
 74
     0
 49
0.0
 74
     0
 49
-1.0
 74
     0
  0
LTYPE
  5
42
330
5
100
AcDbSymbolTableRecord
100
AcDbLinetypeTableRecord
  2
LONG_DASHED
 70
     0
  3
Long_Dashed
 72
    65
 73
     2
 40
15.0
 49
10.0
 74
     0
 49
-5.0
 74
     0
  0
LTYPE
  5
43
330
5
100
AcDbSymbolTableRecord
100
AcDbLinetypeTableRecord
  2
DASH_CENTER
 70
     0
  3
Dash_Center
 72
    65
 73
     4
 40
14.0
 49
11.0
 74
     0
 49
-1.0
 74
     0
 49
1.0
 74
     0
 49
-1.0
 74
     0
  0
LTYPE
  5
44
330
5
100
AcDbSymbolTableRecord
100
AcDbLinetypeTableRecord
  2
PHANTOM
 70
     0
  3
Phantom
 72
    65
 73
     6
 40
13.0
 49
10.0
 74
     0
 49
-1.0
 74
     0
 49
0.0
 74
     0
 49
-1.0
 74
     0
 49
0.0
 74
     0
 49
-1.0
 74
     0
  0
LTYPE
  5
45
330
5
100
AcDbSymbolTableRecord
100
AcDbLinetypeTableRecord
  2
CENTER_DASH_DASH
 70
     0
  3
Center_Dash_Dash
 72
    65
 73
     6
 40
14.0
 49
9.0
 74
     0
 49
-1.0
 74
     0
 49
1.0
 74
     0
 49
-1.0
 74
     0
 49
1.0
 74
     0
 49
-1.0
 74
     0
  0
LTYPE
  5
46
330
5
100
AcDbSymbolTableRecord
100
AcDbLinetypeTableRecord
  2
CENTER
 70
     0
  3
CENTER
 72
    65
 73
     4
 40
6.0
 49
3.0
 74
     0
 49
-1.0
 74
     0
 49
1.0
 74
     0
 49
-1.0
 74
     0
  0
ENDTAB
  0
TABLE
  2
LAYER
  5
2
330
0
100
AcDbSymbolTable
 70
     4
  0
LAYER
  5
10
330
2
100
AcDbSymbolTableRecord
100
AcDbLayerTableRecord
  2
0
 70
     0
 62
     7
  6
Continuous
370
    -3
390
F
  0
LAYER
  5
47
330
2
100
AcDbSymbolTableRecord
100
AcDbLayerTableRecord
  2
1
 70
     0
 62
     7
  6
Continuous
370
    -3
390
F
  0
LAYER
  5
48
330
2
100
AcDbSymbolTableRecord
100
AcDbLayerTableRecord
  2
100
 70
     0
 62
     7
  6
Continuous
370
    -3
390
F
  0
LAYER
  5
49
330
2
100
AcDbSymbolTableRecord
100
AcDbLayerTableRecord
  2
2
 70
     0
 62
     7
  6
Continuous
370
    -3
390
F
  0
ENDTAB
  0
TABLE
  2
STYLE
  5
3
330
0
100
AcDbSymbolTable
 70
     1
  0
STYLE
  5
11
330
3
100
AcDbSymbolTableRecord
100
AcDbTextStyleTableRecord
  2
Standard
 70
     0
 40
0.0
 41
1.0
 50
0.0
 71
     0
 42
0.2
  3
txt
  4

  0
ENDTAB
  0
TABLE
  2
VIEW
  5
6
330
0
100
AcDbSymbolTable
 70
     0
  0
ENDTAB
  0
TABLE
  2
UCS
  5
7
330
0
100
AcDbSymbolTable
 70
     0
  0
ENDTAB
  0
TABLE
  2
APPID
  5
9
330
0
100
AcDbSymbolTable
 70
     1
  0
APPID
  5
12
330
9
100
AcDbSymbolTableRecord
100
AcDbRegAppTableRecord
  2
ACAD
 70
     0
  0
ENDTAB
  0
TABLE
  2
DIMSTYLE
  5
A
330
0
100
AcDbSymbolTable
 70
     1
100
AcDbDimStyleTable
  0
DIMSTYLE
105
27
330
A
100
AcDbSymbolTableRecord
100
AcDbDimStyleTableRecord
  2
Standard
 70
     0
340
11
  0
ENDTAB
  0
TABLE
  2
BLOCK_RECORD
  5
1
330
0
100
AcDbSymbolTable
 70
     1
  0
BLOCK_RECORD
  5
1F
330
1
100
AcDbSymbolTableRecord
100
AcDbBlockTableRecord
  2
*Model_Space
340
22
  0
BLOCK_RECORD
  5
1B
330
1
100
AcDbSymbolTableRecord
100
AcDbBlockTableRecord
  2
*Paper_Space
340
1E
  0
BLOCK_RECORD
  5
23
330
1
100
AcDbSymbolTableRecord
100
AcDbBlockTableRecord
  2
*Paper_Space0
340
26
  0
ENDTAB
  0
ENDSEC
  0
SECTION
  2
BLOCKS
  0
BLOCK
  5
20
330
1F
100
AcDbEntity
  8
0
100
AcDbBlockBegin
  2
*Model_Space
 70
     0
 10
0.0
 20
0.0
 30
0.0
  3
*Model_Space
  1

  0
ENDBLK
  5
21
330
1F
100
AcDbEntity
  8
0
100
AcDbBlockEnd
  0
BLOCK
  5
1C
330
1B
100
AcDbEntity
 67
     1
  8
0
100
AcDbBlockBegin
  2
*Paper_Space
 70
     0
 10
0.0
 20
0.0
 30
0.0
  3
*Paper_Space
  1

  0
ENDBLK
  5
1D
330
1B
100
AcDbEntity
 67
     1
  8
0
100
AcDbBlockEnd
  0
BLOCK
  5
24
330
23
100
AcDbEntity
  8
0
100
AcDbBlockBegin
  2
*Paper_Space0
 70
     0
 10
0.0
 20
0.0
 30
0.0
  3
*Paper_Space0
  1

  0
ENDBLK
  5
25
330
23
100
AcDbEntity
  8
0
100
AcDbBlockEnd
  0
ENDSEC
  0
SECTION
  2
ENTITIES
  0
LINE
  5
4A
330
1F
100
AcDbEntity
  8
1
  6
Continuous
 62
     4
100
AcDbLine
 10
437.412239757886
 20
123.432157229768
 30
0.0
 11
437.412239757886
 21
120.932157229768
 31
0.0
  0
LINE
  5
4B
330
1F
100
AcDbEntity
  8
1
  6
Continuous
 62
     4
100
AcDbLine
 10
437.162239757886
 20
124.932157229768
 30
0.0
 11
437.412239757886
 21
123.432157229768
 31
0.0
  0
LINE
  5
4C
330
1F
100
AcDbEntity
  8
1
  6
Continuous
 62
     4
100
AcDbLine
 10
436.662239757886
 20
125.932157229768
 30
0.0
 11
437.162239757886
 21
124.932157229768
 31
0.0
  0
LINE
  5
4D
330
1F
100
AcDbEntity
  8
1
  6
Continuous
 62
     4
100
AcDbLine
 10
436.162239757886
 20
126.432157229768
 30
0.0
 11
436.662239757886
 21
125.932157229768
 31
0.0
  0
LINE
  5
4E
330
1F
100
AcDbEntity
  8
1
  6
Continuous
 62
     4
100
AcDbLine
 10
435.412239757886
 20
126.932157229768
 30
0.0
 11
436.162239757886
 21
126.432157229768
 31
0.0
  0
LINE
  5
4F
330
1F
100
AcDbEntity
  8
1
  6
Continuous
 62
     4
100
AcDbLine
 10
434.662239757886
 20
127.182157229768
 30
0.0
 11
435.412239757886
 21
126.932157229768
 31
0.0
  0
LINE
  5
50
330
1F
100
AcDbEntity
  8
1
  6
Continuous
 62
     4
100
AcDbLine
 10
434.162239757886
 20
127.182157229768
 30
0.0
 11
434.662239757886
 21
127.182157229768
 31
0.0
  0
LINE
  5
51
330
1F
100
AcDbEntity
  8
1
  6
Continuous
 62
     4
100
AcDbLine
 10
433.412239757886
 20
126.932157229768
 30
0.0
 11
434.162239757886
 21
127.182157229768
 31
0.0
  0
LINE
  5
52
330
1F
100
AcDbEntity
  8
1
  6
Continuous
 62
     4
100
AcDbLine
 10
432.662239757886
 20
126.432157229768
 30
0.0
 11
433.412239757886
 21
126.932157229768
 31
0.0
  0
LINE
  5
53
330
1F
100
AcDbEntity
  8
1
  6
Continuous
 62
     4
100
AcDbLine
 10
432.162239757886
 20
125.932157229768
 30
0.0
 11
432.662239757886
 21
126.432157229768
 31
0.0
  0
LINE
  5
54
330
1F
100
AcDbEntity
  8
1
  6
Continuous
 62
     4
100
AcDbLine
 10
431.662239757886
 20
124.932157229768
 30
0.0
 11
432.162239757886
 21
125.932157229768
 31
0.0
  0
LINE
  5
55
330
1F
100
AcDbEntity
  8
1
  6
Continuous
 62
     4
100
AcDbLine
 10
431.412239757886
 20
123.432157229768
 30
0.0
 11
431.662239757886
 21
124.932157229768
 31
0.0
  0
LINE
  5
56
330
1F
100
AcDbEntity
  8
1
  6
Continuous
 62
     4
100
AcDbLine
 10
431.412239757886
 20
120.932157229768
 30
0.0
 11
431.412239757886
 21
123.432157229768
 31
0.0
  0
LINE
  5
57
330
1F
100
AcDbEntity
  8
1
  6
Continuous
 62
     4
100
AcDbLine
 10
431.662239757886
 20
119.432157229768
 30
0.0
 11
431.412239757886
 21
120.932157229768
 31
0.0
  0
LINE
  5
58
330
1F
100
AcDbEntity
  8
1
  6
Continuous
 62
     4
100
AcDbLine
 10
432.162239757886
 20
118.432157229768
 30
0.0
 11
431.662239757886
 21
119.432157229768
 31
0.0
  0
LINE
  5
59
330
1F
100
AcDbEntity
  8
1
  6
Continuous
 62
     4
100
AcDbLine
 10
432.662239757886
 20
117.932157229768
 30
0.0
 11
432.162239757886
 21
118.432157229768
 31
0.0
  0
LINE
  5
5A
330
1F
100
AcDbEntity
  8
1
  6
Continuous
 62
     4
100
AcDbLine
 10
433.412239757886
 20
117.432157229768
 30
0.0
 11
432.662239757886
 21
117.932157229768
 31
0.0
  0
LINE
  5
5B
330
1F
100
AcDbEntity
  8
1
  6
Continuous
 62
     4
100
AcDbLine
 10
434.162239757886
 20
117.182157229768
 30
0.0
 11
433.412239757886
 21
117.432157229768
 31
0.0
  0
LINE
  5
5C
330
1F
100
AcDbEntity
  8
1
  6
Continuous
 62
     4
100
AcDbLine
 10
434.662239757886
 20
117.182157229768
 30
0.0
 11
434.162239757886
 21
117.182157229768
 31
0.0
  0
LINE
  5
5D
330
1F
100
AcDbEntity
  8
1
  6
Continuous
 62
     4
100
AcDbLine
 10
435.412239757886
 20
117.432157229768
 30
0.0
 11
434.662239757886
 21
117.182157229768
 31
0.0
  0
LINE
  5
5E
330
1F
100
AcDbEntity
  8
1
  6
Continuous
 62
     4
100
AcDbLine
 10
436.162239757886
 20
117.932157229768
 30
0.0
 11
435.412239757886
 21
117.432157229768
 31
0.0
  0
LINE
  5
5F
330
1F
100
AcDbEntity
  8
1
  6
Continuous
 62
     4
100
AcDbLine
 10
436.662239757886
 20
118.432157229768
 30
0.0
 11
436.162239757886
 21
117.932157229768
 31
0.0
  0
LINE
  5
60
330
1F
100
AcDbEntity
  8
1
  6
Continuous
 62
     4
100
AcDbLine
 10
437.162239757886
 20
119.432157229768
 30
0.0
 11
436.662239757886
 21
118.432157229768
 31
0.0
  0
LINE
  5
61
330
1F
100
AcDbEntity
  8
1
  6
Continuous
 62
     4
100
AcDbLine
 10
437.412239757886
 20
120.932157229768
 30
0.0
 11
437.162239757886
 21
119.432157229768
 31
0.0
  0
LINE
  5
62
330
1F
100
AcDbEntity
  8
1
  6
Continuous
 62
     4
100
AcDbLine
 10
428.412239757886
 20
123.432157229768
 30
0.0
 11
428.412239757886
 21
120.932157229768
 31
0.0
  0
LINE
  5
63
330
1F
100
AcDbEntity
  8
1
  6
Continuous
 62
     4
100
AcDbLine
 10
428.162239757886
 20
124.932157229768
 30
0.0
 11
428.412239757886
 21
123.432157229768
 31
0.0
  0
LINE
  5
64
330
1F
100
AcDbEntity
  8
1
  6
Continuous
 62
     4
100
AcDbLine
 10
427.662239757886
 20
125.932157229768
 30
0.0
 11
428.162239757886
 21
124.932157229768
 31
0.0
  0
LINE
  5
65
330
1F
100
AcDbEntity
  8
1
  6
Continuous
 62
     4
100
AcDbLine
 10
427.162239757886
 20
126.432157229768
 30
0.0
 11
427.662239757886
 21
125.932157229768
 31
0.0
  0
LINE
  5
66
330
1F
100
AcDbEntity
  8
1
  6
Continuous
 62
     4
100
AcDbLine
 10
426.412239757886
 20
126.932157229768
 30
0.0
 11
427.162239757886
 21
126.432157229768
 31
0.0
  0
LINE
  5
67
330
1F
100
AcDbEntity
  8
1
  6
Continuous
 62
     4
100
AcDbLine
 10
425.662239757886
 20
127.182157229768
 30
0.0
 11
426.412239757886
 21
126.932157229768
 31
0.0
  0
LINE
  5
68
330
1F
100
AcDbEntity
  8
1
  6
Continuous
 62
     4
100
AcDbLine
 10
425.162239757886
 20
127.182157229768
 30
0.0
 11
425.662239757886
 21
127.182157229768
 31
0.0
  0
LINE
  5
69
330
1F
100
AcDbEntity
  8
1
  6
Continuous
 62
     4
100
AcDbLine
 10
424.412239757886
 20
126.932157229768
 30
0.0
 11
425.162239757886
 21
127.182157229768
 31
0.0
  0
LINE
  5
6A
330
1F
100
AcDbEntity
  8
1
  6
Continuous
 62
     4
100
AcDbLine
 10
423.662239757886
 20
126.432157229768
 30
0.0
 11
424.412239757886
 21
126.932157229768
 31
0.0
  0
LINE
  5
6B
330
1F
100
AcDbEntity
  8
1
  6
Continuous
 62
     4
100
AcDbLine
 10
423.162239757886
 20
125.932157229768
 30
0.0
 11
423.662239757886
 21
126.432157229768
 31
0.0
  0
LINE
  5
6C
330
1F
100
AcDbEntity
  8
1
  6
Continuous
 62
     4
100
AcDbLine
 10
422.662239757886
 20
124.932157229768
 30
0.0
 11
423.162239757886
 21
125.932157229768
 31
0.0
  0
LINE
  5
6D
330
1F
100
AcDbEntity
  8
1
  6
Continuous
 62
     4
100
AcDbLine
 10
422.412239757886
 20
123.432157229768
 30
0.0
 11
422.662239757886
 21
124.932157229768
 31
0.0
  0
LINE
  5
6E
330
1F
100
AcDbEntity
  8
1
  6
Continuous
 62
     4
100
AcDbLine
 10
422.412239757886
 20
120.932157229768
 30
0.0
 11
422.412239757886
 21
123.432157229768
 31
0.0
  0
LINE
  5
6F
330
1F
100
AcDbEntity
  8
1
  6
Continuous
 62
     4
100
AcDbLine
 10
422.662239757886
 20
119.432157229768
 30
0.0
 11
422.412239757886
 21
120.932157229768
 31
0.0
  0
LINE
  5
70
330
1F
100
AcDbEntity
  8
1
  6
Continuous
 62
     4
100
AcDbLine
 10
423.162239757886
 20
118.432157229768
 30
0.0
 11
422.662239757886
 21
119.432157229768
 31
0.0
  0
LINE
  5
71
330
1F
100
AcDbEntity
  8
1
  6
Continuous
 62
     4
100
AcDbLine
 10
423.662239757886
 20
117.932157229768
 30
0.0
 11
423.162239757886
 21
118.432157229768
 31
0.0
  0
LINE
  5
72
330
1F
100
AcDbEntity
  8
1
  6
Continuous
 62
     4
100
AcDbLine
 10
424.412239757886
 20
117.432157229768
 30
0.0
 11
423.662239757886
 21
117.932157229768
 31
0.0
  0
LINE
  5
73
330
1F
100
AcDbEntity
  8
1
  6
Continuous
 62
     4
100
AcDbLine
 10
425.162239757886
 20
117.182157229768
 30
0.0
 11
424.412239757886
 21
117.432157229768
 31
0.0
  0
LINE
  5
74
330
1F
100
AcDbEntity
  8
1
  6
Continuous
 62
     4
100
AcDbLine
 10
425.662239757886
 20
117.182157229768
 30
0.0
 11
425.162239757886
 21
117.182157229768
 31
0.0
  0
LINE
  5
75
330
1F
100
AcDbEntity
  8
1
  6
Continuous
 62
     4
100
AcDbLine
 10
426.412239757886
 20
117.432157229768
 30
0.0
 11
425.662239757886
 21
117.182157229768
 31
0.0
  0
LINE
  5
76
330
1F
100
AcDbEntity
  8
1
  6
Continuous
 62
     4
100
AcDbLine
 10
427.162239757886
 20
117.932157229768
 30
0.0
 11
426.412239757886
 21
117.432157229768
 31
0.0
  0
LINE
  5
77
330
1F
100
AcDbEntity
  8
1
  6
Continuous
 62
     4
100
AcDbLine
 10
427.662239757886
 20
118.432157229768
 30
0.0
 11
427.162239757886
 21
117.932157229768
 31
0.0
  0
LINE
  5
78
330
1F
100
AcDbEntity
  8
1
  6
Continuous
 62
     4
100
AcDbLine
 10
428.162239757886
 20
119.432157229768
 30
0.0
 11
427.662239757886
 21
118.432157229768
 31
0.0
  0
LINE
  5
79
330
1F
100
AcDbEntity
  8
1
  6
Continuous
 62
     4
100
AcDbLine
 10
428.412239757886
 20
120.932157229768
 30
0.0
 11
428.162239757886
 21
119.432157229768
 31
0.0
  0
LINE
  5
7A
330
1F
100
AcDbEntity
  8
1
  6
Continuous
 62
     4
100
AcDbLine
 10
419.412239757886
 20
123.432157229768
 30
0.0
 11
419.412239757886
 21
120.932157229768
 31
0.0
  0
LINE
  5
7B
330
1F
100
AcDbEntity
  8
1
  6
Continuous
 62
     4
100
AcDbLine
 10
419.162239757886
 20
124.932157229768
 30
0.0
 11
419.412239757886
 21
123.432157229768
 31
0.0
  0
LINE
  5
7C
330
1F
100
AcDbEntity
  8
1
  6
Continuous
 62
     4
100
AcDbLine
 10
418.662239757886
 20
125.932157229768
 30
0.0
 11
419.162239757886
 21
124.932157229768
 31
0.0
  0
LINE
  5
7D
330
1F
100
AcDbEntity
  8
1
  6
Continuous
 62
     4
100
AcDbLine
 10
418.162239757886
 20
126.432157229768
 30
0.0
 11
418.662239757886
 21
125.932157229768
 31
0.0
  0
LINE
  5
7E
330
1F
100
AcDbEntity
  8
1
  6
Continuous
 62
     4
100
AcDbLine
 10
417.412239757886
 20
126.932157229768
 30
0.0
 11
418.162239757886
 21
126.432157229768
 31
0.0
  0
LINE
  5
7F
330
1F
100
AcDbEntity
  8
1
  6
Continuous
 62
     4
100
AcDbLine
 10
416.662239757886
 20
127.182157229768
 30
0.0
 11
417.412239757886
 21
126.932157229768
 31
0.0
  0
LINE
  5
80
330
1F
100
AcDbEntity
  8
1
  6
Continuous
 62
     4
100
AcDbLine
 10
416.162239757886
 20
127.182157229768
 30
0.0
 11
416.662239757886
 21
127.182157229768
 31
0.0
  0
LINE
  5
81
330
1F
100
AcDbEntity
  8
1
  6
Continuous
 62
     4
100
AcDbLine
 10
415.412239757886
 20
126.932157229768
 30
0.0
 11
416.162239757886
 21
127.182157229768
 31
0.0
  0
LINE
  5
82
330
1F
100
AcDbEntity
  8
1
  6
Continuous
 62
     4
100
AcDbLine
 10
414.662239757886
 20
126.432157229768
 30
0.0
 11
415.412239757886
 21
126.932157229768
 31
0.0
  0
LINE
  5
83
330
1F
100
AcDbEntity
  8
1
  6
Continuous
 62
     4
100
AcDbLine
 10
414.162239757886
 20
125.932157229768
 30
0.0
 11
414.662239757886
 21
126.432157229768
 31
0.0
  0
LINE
  5
84
330
1F
100
AcDbEntity
  8
1
  6
Continuous
 62
     4
100
AcDbLine
 10
413.662239757886
 20
124.932157229768
 30
0.0
 11
414.162239757886
 21
125.932157229768
 31
0.0
  0
LINE
  5
85
330
1F
100
AcDbEntity
  8
1
  6
Continuous
 62
     4
100
AcDbLine
 10
413.412239757886
 20
123.432157229768
 30
0.0
 11
413.662239757886
 21
124.932157229768
 31
0.0
  0
LINE
  5
86
330
1F
100
AcDbEntity
  8
1
  6
Continuous
 62
     4
100
AcDbLine
 10
413.412239757886
 20
120.932157229768
 30
0.0
 11
413.412239757886
 21
123.432157229768
 31
0.0
  0
LINE
  5
87
330
1F
100
AcDbEntity
  8
1
  6
Continuous
 62
     4
100
AcDbLine
 10
413.662239757886
 20
119.432157229768
 30
0.0
 11
413.412239757886
 21
120.932157229768
 31
0.0
  0
LINE
  5
88
330
1F
100
AcDbEntity
  8
1
  6
Continuous
 62
     4
100
AcDbLine
 10
414.162239757886
 20
118.432157229768
 30
0.0
 11
413.662239757886
 21
119.432157229768
 31
0.0
  0
LINE
  5
89
330
1F
100
AcDbEntity
  8
1
  6
Continuous
 62
     4
100
AcDbLine
 10
414.662239757886
 20
117.932157229768
 30
0.0
 11
414.162239757886
 21
118.432157229768
 31
0.0
  0
LINE
  5
8A
330
1F
100
AcDbEntity
  8
1
  6
Continuous
 62
     4
100
AcDbLine
 10
415.412239757886
 20
117.432157229768
 30
0.0
 11
414.662239757886
 21
117.932157229768
 31
0.0
  0
LINE
  5
8B
330
1F
100
AcDbEntity
  8
1
  6
Continuous
 62
     4
100
AcDbLine
 10
416.162239757886
 20
117.182157229768
 30
0.0
 11
415.412239757886
 21
117.432157229768
 31
0.0
  0
LINE
  5
8C
330
1F
100
AcDbEntity
  8
1
  6
Continuous
 62
     4
100
AcDbLine
 10
416.662239757886
 20
117.182157229768
 30
0.0
 11
416.162239757886
 21
117.182157229768
 31
0.0
  0
LINE
  5
8D
330
1F
100
AcDbEntity
  8
1
  6
Continuous
 62
     4
100
AcDbLine
 10
417.412239757886
 20
117.432157229768
 30
0.0
 11
416.662239757886
 21
117.182157229768
 31
0.0
  0
LINE
  5
8E
330
1F
100
AcDbEntity
  8
1
  6
Continuous
 62
     4
100
AcDbLine
 10
418.162239757886
 20
117.932157229768
 30
0.0
 11
417.412239757886
 21
117.432157229768
 31
0.0
  0
LINE
  5
8F
330
1F
100
AcDbEntity
  8
1
  6
Continuous
 62
     4
100
AcDbLine
 10
418.662239757886
 20
118.432157229768
 30
0.0
 11
418.162239757886
 21
117.932157229768
 31
0.0
  0
LINE
  5
90
330
1F
100
AcDbEntity
  8
1
  6
Continuous
 62
     4
100
AcDbLine
 10
419.162239757886
 20
119.432157229768
 30
0.0
 11
418.662239757886
 21
118.432157229768
 31
0.0
  0
LINE
  5
91
330
1F
100
AcDbEntity
  8
1
  6
Continuous
 62
     4
100
AcDbLine
 10
419.412239757886
 20
120.932157229768
 30
0.0
 11
419.162239757886
 21
119.432157229768
 31
0.0
  0
LINE
  5
92
330
1F
100
AcDbEntity
  8
1
  6
Continuous
 62
     4
100
AcDbLine
 10
410.412239757886
 20
127.182157229768
 30
0.0
 11
410.412239757886
 21
117.182157229768
 31
0.0
  0
LINE
  5
93
330
1F
100
AcDbEntity
  8
1
  6
Continuous
 62
     4
100
AcDbLine
 10
407.412239757886
 20
124.182157229768
 30
0.0
 11
410.412239757886
 21
127.182157229768
 31
0.0
  0
LINE
  5
94
330
1F
100
AcDbEntity
  8
1
  6
Continuous
 62
     4
100
AcDbLine
 10
374.412239757886
 20
123.432157229768
 30
0.0
 11
374.412239757886
 21
120.932157229768
 31
0.0
  0
LINE
  5
95
330
1F
100
AcDbEntity
  8
1
  6
Continuous
 62
     4
100
AcDbLine
 10
374.162239757886
 20
124.932157229768
 30
0.0
 11
374.412239757886
 21
123.432157229768
 31
0.0
  0
LINE
  5
96
330
1F
100
AcDbEntity
  8
1
  6
Continuous
 62
     4
100
AcDbLine
 10
373.662239757886
 20
125.932157229768
 30
0.0
 11
374.162239757886
 21
124.932157229768
 31
0.0
  0
LINE
  5
97
330
1F
100
AcDbEntity
  8
1
  6
Continuous
 62
     4
100
AcDbLine
 10
373.162239757886
 20
126.432157229768
 30
0.0
 11
373.662239757886
 21
125.932157229768
 31
0.0
  0
LINE
  5
98
330
1F
100
AcDbEntity
  8
1
  6
Continuous
 62
     4
100
AcDbLine
 10
372.412239757886
 20
126.932157229768
 30
0.0
 11
373.162239757886
 21
126.432157229768
 31
0.0
  0
LINE
  5
99
330
1F
100
AcDbEntity
  8
1
  6
Continuous
 62
     4
100
AcDbLine
 10
371.662239757886
 20
127.182157229768
 30
0.0
 11
372.412239757886
 21
126.932157229768
 31
0.0
  0
LINE
  5
9A
330
1F
100
AcDbEntity
  8
1
  6
Continuous
 62
     4
100
AcDbLine
 10
371.162239757886
 20
127.182157229768
 30
0.0
 11
371.662239757886
 21
127.182157229768
 31
0.0
  0
LINE
  5
9B
330
1F
100
AcDbEntity
  8
1
  6
Continuous
 62
     4
100
AcDbLine
 10
370.412239757886
 20
126.932157229768
 30
0.0
 11
371.162239757886
 21
127.182157229768
 31
0.0
  0
LINE
  5
9C
330
1F
100
AcDbEntity
  8
1
  6
Continuous
 62
     4
100
AcDbLine
 10
369.662239757886
 20
126.432157229768
 30
0.0
 11
370.412239757886
 21
126.932157229768
 31
0.0
  0
LINE
  5
9D
330
1F
100
AcDbEntity
  8
1
  6
Continuous
 62
     4
100
AcDbLine
 10
369.162239757886
 20
125.932157229768
 30
0.0
 11
369.662239757886
 21
126.432157229768
 31
0.0
  0
LINE
  5
9E
330
1F
100
AcDbEntity
  8
1
  6
Continuous
 62
     4
100
AcDbLine
 10
368.662239757886
 20
124.932157229768
 30
0.0
 11
369.162239757886
 21
125.932157229768
 31
0.0
  0
LINE
  5
9F
330
1F
100
AcDbEntity
  8
1
  6
Continuous
 62
     4
100
AcDbLine
 10
368.412239757886
 20
123.432157229768
 30
0.0
 11
368.662239757886
 21
124.932157229768
 31
0.0
  0
LINE
  5
A0
330
1F
100
AcDbEntity
  8
1
  6
Continuous
 62
     4
100
AcDbLine
 10
368.412239757886
 20
120.932157229768
 30
0.0
 11
368.412239757886
 21
123.432157229768
 31
0.0
  0
LINE
  5
A1
330
1F
100
AcDbEntity
  8
1
  6
Continuous
 62
     4
100
AcDbLine
 10
368.662239757886
 20
119.432157229768
 30
0.0
 11
368.412239757886
 21
120.932157229768
 31
0.0
  0
LINE
  5
A2
330
1F
100
AcDbEntity
  8
1
  6
Continuous
 62
     4
100
AcDbLine
 10
369.162239757886
 20
118.432157229768
 30
0.0
 11
368.662239757886
 21
119.432157229768
 31
0.0
  0
LINE
  5
A3
330
1F
100
AcDbEntity
  8
1
  6
Continuous
 62
     4
100
AcDbLine
 10
369.662239757886
 20
117.932157229768
 30
0.0
 11
369.162239757886
 21
118.432157229768
 31
0.0
  0
LINE
  5
A4
330
1F
100
AcDbEntity
  8
1
  6
Continuous
 62
     4
100
AcDbLine
 10
370.412239757886
 20
117.432157229768
 30
0.0
 11
369.662239757886
 21
117.932157229768
 31
0.0
  0
LINE
  5
A5
330
1F
100
AcDbEntity
  8
1
  6
Continuous
 62
     4
100
AcDbLine
 10
371.162239757886
 20
117.182157229768
 30
0.0
 11
370.412239757886
 21
117.432157229768
 31
0.0
  0
LINE
  5
A6
330
1F
100
AcDbEntity
  8
1
  6
Continuous
 62
     4
100
AcDbLine
 10
371.662239757886
 20
117.182157229768
 30
0.0
 11
371.162239757886
 21
117.182157229768
 31
0.0
  0
LINE
  5
A7
330
1F
100
AcDbEntity
  8
1
  6
Continuous
 62
     4
100
AcDbLine
 10
372.412239757886
 20
117.432157229768
 30
0.0
 11
371.662239757886
 21
117.182157229768
 31
0.0
  0
LINE
  5
A8
330
1F
100
AcDbEntity
  8
1
  6
Continuous
 62
     4
100
AcDbLine
 10
373.162239757886
 20
117.932157229768
 30
0.0
 11
372.412239757886
 21
117.432157229768
 31
0.0
  0
LINE
  5
A9
330
1F
100
AcDbEntity
  8
1
  6
Continuous
 62
     4
100
AcDbLine
 10
373.662239757886
 20
118.432157229768
 30
0.0
 11
373.162239757886
 21
117.932157229768
 31
0.0
  0
LINE
  5
AA
330
1F
100
AcDbEntity
  8
1
  6
Continuous
 62
     4
100
AcDbLine
 10
374.162239757886
 20
119.432157229768
 30
0.0
 11
373.662239757886
 21
118.432157229768
 31
0.0
  0
LINE
  5
AB
330
1F
100
AcDbEntity
  8
1
  6
Continuous
 62
     4
100
AcDbLine
 10
374.412239757886
 20
120.932157229768
 30
0.0
 11
374.162239757886
 21
119.432157229768
 31
0.0
  0
LINE
  5
AC
330
1F
100
AcDbEntity
  8
1
  6
Continuous
 62
     4
100
AcDbLine
 10
365.662239757886
 20
117.682157229768
 30
0.0
 11
365.662239757886
 21
117.432157229768
 31
0.0
  0
LINE
  5
AD
330
1F
100
AcDbEntity
  8
1
  6
Continuous
 62
     4
100
AcDbLine
 10
365.412239757886
 20
117.682157229768
 30
0.0
 11
365.662239757886
 21
117.682157229768
 31
0.0
  0
LINE
  5
AE
330
1F
100
AcDbEntity
  8
1
  6
Continuous
 62
     4
100
AcDbLine
 10
365.412239757886
 20
117.432157229768
 30
0.0
 11
365.412239757886
 21
117.682157229768
 31
0.0
  0
LINE
  5
AF
330
1F
100
AcDbEntity
  8
1
  6
Continuous
 62
     4
100
AcDbLine
 10
365.662239757886
 20
117.432157229768
 30
0.0
 11
365.412239757886
 21
117.432157229768
 31
0.0
  0
LINE
  5
B0
330
1F
100
AcDbEntity
  8
1
  6
Continuous
 62
     4
100
AcDbLine
 10
365.912239757886
 20
117.932157229768
 30
0.0
 11
365.912239757886
 21
117.182157229768
 31
0.0
  0
LINE
  5
B1
330
1F
100
AcDbEntity
  8
1
  6
Continuous
 62
     4
100
AcDbLine
 10
365.162239757886
 20
117.932157229768
 30
0.0
 11
365.912239757886
 21
117.932157229768
 31
0.0
  0
LINE
  5
B2
330
1F
100
AcDbEntity
  8
1
  6
Continuous
 62
     4
100
AcDbLine
 10
365.162239757886
 20
117.182157229768
 30
0.0
 11
365.162239757886
 21
117.932157229768
 31
0.0
  0
LINE
  5
B3
330
1F
100
AcDbEntity
  8
1
  6
Continuous
 62
     4
100
AcDbLine
 10
365.912239757886
 20
117.182157229768
 30
0.0
 11
365.162239757886
 21
117.182157229768
 31
0.0
  0
LINE
  5
B4
330
1F
100
AcDbEntity
  8
1
  6
Continuous
 62
     4
100
AcDbLine
 10
362.162239757886
 20
127.182157229768
 30
0.0
 11
362.162239757886
 21
117.182157229768
 31
0.0
  0
LINE
  5
B5
330
1F
100
AcDbEntity
  8
1
  6
Continuous
 62
     4
100
AcDbLine
 10
359.162239757886
 20
124.182157229768
 30
0.0
 11
362.162239757886
 21
127.182157229768
 31
0.0
  0
LINE
  5
B6
330
1F
100
AcDbEntity
  8
1
  6
Continuous
 62
     4
100
AcDbLine
 10
434.412239757886
 20
140.092157229768
 30
0.0
 11
434.412239757886
 21
137.592157229768
 31
0.0
  0
LINE
  5
B7
330
1F
100
AcDbEntity
  8
1
  6
Continuous
 62
     4
100
AcDbLine
 10
434.162239757886
 20
141.592157229768
 30
0.0
 11
434.412239757886
 21
140.092157229768
 31
0.0
  0
LINE
  5
B8
330
1F
100
AcDbEntity
  8
1
  6
Continuous
 62
     4
100
AcDbLine
 10
433.662239757886
 20
142.592157229768
 30
0.0
 11
434.162239757886
 21
141.592157229768
 31
0.0
  0
LINE
  5
B9
330
1F
100
AcDbEntity
  8
1
  6
Continuous
 62
     4
100
AcDbLine
 10
433.162239757886
 20
143.092157229768
 30
0.0
 11
433.662239757886
 21
142.592157229768
 31
0.0
  0
LINE
  5
BA
330
1F
100
AcDbEntity
  8
1
  6
Continuous
 62
     4
100
AcDbLine
 10
432.412239757886
 20
143.592157229768
 30
0.0
 11
433.162239757886
 21
143.092157229768
 31
0.0
  0
LINE
  5
BB
330
1F
100
AcDbEntity
  8
1
  6
Continuous
 62
     4
100
AcDbLine
 10
431.662239757886
 20
143.842157229768
 30
0.0
 11
432.412239757886
 21
143.592157229768
 31
0.0
  0
LINE
  5
BC
330
1F
100
AcDbEntity
  8
1
  6
Continuous
 62
     4
100
AcDbLine
 10
431.162239757886
 20
143.842157229768
 30
0.0
 11
431.662239757886
 21
143.842157229768
 31
0.0
  0
LINE
  5
BD
330
1F
100
AcDbEntity
  8
1
  6
Continuous
 62
     4
100
AcDbLine
 10
430.412239757886
 20
143.592157229768
 30
0.0
 11
431.162239757886
 21
143.842157229768
 31
0.0
  0
LINE
  5
BE
330
1F
100
AcDbEntity
  8
1
  6
Continuous
 62
     4
100
AcDbLine
 10
429.662239757886
 20
143.092157229768
 30
0.0
 11
430.412239757886
 21
143.592157229768
 31
0.0
  0
LINE
  5
BF
330
1F
100
AcDbEntity
  8
1
  6
Continuous
 62
     4
100
AcDbLine
 10
429.162239757886
 20
142.592157229768
 30
0.0
 11
429.662239757886
 21
143.092157229768
 31
0.0
  0
LINE
  5
C0
330
1F
100
AcDbEntity
  8
1
  6
Continuous
 62
     4
100
AcDbLine
 10
428.662239757886
 20
141.592157229768
 30
0.0
 11
429.162239757886
 21
142.592157229768
 31
0.0
  0
LINE
  5
C1
330
1F
100
AcDbEntity
  8
1
  6
Continuous
 62
     4
100
AcDbLine
 10
428.412239757886
 20
140.092157229768
 30
0.0
 11
428.662239757886
 21
141.592157229768
 31
0.0
  0
LINE
  5
C2
330
1F
100
AcDbEntity
  8
1
  6
Continuous
 62
     4
100
AcDbLine
 10
428.412239757886
 20
137.592157229768
 30
0.0
 11
428.412239757886
 21
140.092157229768
 31
0.0
  0
LINE
  5
C3
330
1F
100
AcDbEntity
  8
1
  6
Continuous
 62
     4
100
AcDbLine
 10
428.662239757886
 20
136.092157229768
 30
0.0
 11
428.412239757886
 21
137.592157229768
 31
0.0
  0
LINE
  5
C4
330
1F
100
AcDbEntity
  8
1
  6
Continuous
 62
     4
100
AcDbLine
 10
429.162239757886
 20
135.092157229768
 30
0.0
 11
428.662239757886
 21
136.092157229768
 31
0.0
  0
LINE
  5
C5
330
1F
100
AcDbEntity
  8
1
  6
Continuous
 62
     4
100
AcDbLine
 10
429.662239757886
 20
134.592157229768
 30
0.0
 11
429.162239757886
 21
135.092157229768
 31
0.0
  0
LINE
  5
C6
330
1F
100
AcDbEntity
  8
1
  6
Continuous
 62
     4
100
AcDbLine
 10
430.412239757886
 20
134.092157229768
 30
0.0
 11
429.662239757886
 21
134.592157229768
 31
0.0
  0
LINE
  5
C7
330
1F
100
AcDbEntity
  8
1
  6
Continuous
 62
     4
100
AcDbLine
 10
431.162239757886
 20
133.842157229768
 30
0.0
 11
430.412239757886
 21
134.092157229768
 31
0.0
  0
LINE
  5
C8
330
1F
100
AcDbEntity
  8
1
  6
Continuous
 62
     4
100
AcDbLine
 10
431.662239757886
 20
133.842157229768
 30
0.0
 11
431.162239757886
 21
133.842157229768
 31
0.0
  0
LINE
  5
C9
330
1F
100
AcDbEntity
  8
1
  6
Continuous
 62
     4
100
AcDbLine
 10
432.412239757886
 20
134.092157229768
 30
0.0
 11
431.662239757886
 21
133.842157229768
 31
0.0
  0
LINE
  5
CA
330
1F
100
AcDbEntity
  8
1
  6
Continuous
 62
     4
100
AcDbLine
 10
433.162239757886
 20
134.592157229768
 30
0.0
 11
432.412239757886
 21
134.092157229768
 31
0.0
  0
LINE
  5
CB
330
1F
100
AcDbEntity
  8
1
  6
Continuous
 62
     4
100
AcDbLine
 10
433.662239757886
 20
135.092157229768
 30
0.0
 11
433.162239757886
 21
134.592157229768
 31
0.0
  0
LINE
  5
CC
330
1F
100
AcDbEntity
  8
1
  6
Continuous
 62
     4
100
AcDbLine
 10
434.162239757886
 20
136.092157229768
 30
0.0
 11
433.662239757886
 21
135.092157229768
 31
0.0
  0
LINE
  5
CD
330
1F
100
AcDbEntity
  8
1
  6
Continuous
 62
     4
100
AcDbLine
 10
434.412239757886
 20
137.592157229768
 30
0.0
 11
434.162239757886
 21
136.092157229768
 31
0.0
  0
LINE
  5
CE
330
1F
100
AcDbEntity
  8
1
  6
Continuous
 62
     4
100
AcDbLine
 10
425.412239757886
 20
140.092157229768
 30
0.0
 11
425.412239757886
 21
137.592157229768
 31
0.0
  0
LINE
  5
CF
330
1F
100
AcDbEntity
  8
1
  6
Continuous
 62
     4
100
AcDbLine
 10
425.162239757886
 20
141.592157229768
 30
0.0
 11
425.412239757886
 21
140.092157229768
 31
0.0
  0
LINE
  5
D0
330
1F
100
AcDbEntity
  8
1
  6
Continuous
 62
     4
100
AcDbLine
 10
424.662239757886
 20
142.592157229768
 30
0.0
 11
425.162239757886
 21
141.592157229768
 31
0.0
  0
LINE
  5
D1
330
1F
100
AcDbEntity
  8
1
  6
Continuous
 62
     4
100
AcDbLine
 10
424.162239757886
 20
143.092157229768
 30
0.0
 11
424.662239757886
 21
142.592157229768
 31
0.0
  0
LINE
  5
D2
330
1F
100
AcDbEntity
  8
1
  6
Continuous
 62
     4
100
AcDbLine
 10
423.412239757886
 20
143.592157229768
 30
0.0
 11
424.162239757886
 21
143.092157229768
 31
0.0
  0
LINE
  5
D3
330
1F
100
AcDbEntity
  8
1
  6
Continuous
 62
     4
100
AcDbLine
 10
422.662239757886
 20
143.842157229768
 30
0.0
 11
423.412239757886
 21
143.592157229768
 31
0.0
  0
LINE
  5
D4
330
1F
100
AcDbEntity
  8
1
  6
Continuous
 62
     4
100
AcDbLine
 10
422.162239757886
 20
143.842157229768
 30
0.0
 11
422.662239757886
 21
143.842157229768
 31
0.0
  0
LINE
  5
D5
330
1F
100
AcDbEntity
  8
1
  6
Continuous
 62
     4
100
AcDbLine
 10
421.412239757886
 20
143.592157229768
 30
0.0
 11
422.162239757886
 21
143.842157229768
 31
0.0
  0
LINE
  5
D6
330
1F
100
AcDbEntity
  8
1
  6
Continuous
 62
     4
100
AcDbLine
 10
420.662239757886
 20
143.092157229768
 30
0.0
 11
421.412239757886
 21
143.592157229768
 31
0.0
  0
LINE
  5
D7
330
1F
100
AcDbEntity
  8
1
  6
Continuous
 62
     4
100
AcDbLine
 10
420.162239757886
 20
142.592157229768
 30
0.0
 11
420.662239757886
 21
143.092157229768
 31
0.0
  0
LINE
  5
D8
330
1F
100
AcDbEntity
  8
1
  6
Continuous
 62
     4
100
AcDbLine
 10
419.662239757886
 20
141.592157229768
 30
0.0
 11
420.162239757886
 21
142.592157229768
 31
0.0
  0
LINE
  5
D9
330
1F
100
AcDbEntity
  8
1
  6
Continuous
 62
     4
100
AcDbLine
 10
419.412239757886
 20
140.092157229768
 30
0.0
 11
419.662239757886
 21
141.592157229768
 31
0.0
  0
LINE
  5
DA
330
1F
100
AcDbEntity
  8
1
  6
Continuous
 62
     4
100
AcDbLine
 10
419.412239757886
 20
137.592157229768
 30
0.0
 11
419.412239757886
 21
140.092157229768
 31
0.0
  0
LINE
  5
DB
330
1F
100
AcDbEntity
  8
1
  6
Continuous
 62
     4
100
AcDbLine
 10
419.662239757886
 20
136.092157229768
 30
0.0
 11
419.412239757886
 21
137.592157229768
 31
0.0
  0
LINE
  5
DC
330
1F
100
AcDbEntity
  8
1
  6
Continuous
 62
     4
100
AcDbLine
 10
420.162239757886
 20
135.092157229768
 30
0.0
 11
419.662239757886
 21
136.092157229768
 31
0.0
  0
LINE
  5
DD
330
1F
100
AcDbEntity
  8
1
  6
Continuous
 62
     4
100
AcDbLine
 10
420.662239757886
 20
134.592157229768
 30
0.0
 11
420.162239757886
 21
135.092157229768
 31
0.0
  0
LINE
  5
DE
330
1F
100
AcDbEntity
  8
1
  6
Continuous
 62
     4
100
AcDbLine
 10
421.412239757886
 20
134.092157229768
 30
0.0
 11
420.662239757886
 21
134.592157229768
 31
0.0
  0
LINE
  5
DF
330
1F
100
AcDbEntity
  8
1
  6
Continuous
 62
     4
100
AcDbLine
 10
422.162239757886
 20
133.842157229768
 30
0.0
 11
421.412239757886
 21
134.092157229768
 31
0.0
  0
LINE
  5
E0
330
1F
100
AcDbEntity
  8
1
  6
Continuous
 62
     4
100
AcDbLine
 10
422.662239757886
 20
133.842157229768
 30
0.0
 11
422.162239757886
 21
133.842157229768
 31
0.0
  0
LINE
  5
E1
330
1F
100
AcDbEntity
  8
1
  6
Continuous
 62
     4
100
AcDbLine
 10
423.412239757886
 20
134.092157229768
 30
0.0
 11
422.662239757886
 21
133.842157229768
 31
0.0
  0
LINE
  5
E2
330
1F
100
AcDbEntity
  8
1
  6
Continuous
 62
     4
100
AcDbLine
 10
424.162239757886
 20
134.592157229768
 30
0.0
 11
423.412239757886
 21
134.092157229768
 31
0.0
  0
LINE
  5
E3
330
1F
100
AcDbEntity
  8
1
  6
Continuous
 62
     4
100
AcDbLine
 10
424.662239757886
 20
135.092157229768
 30
0.0
 11
424.162239757886
 21
134.592157229768
 31
0.0
  0
LINE
  5
E4
330
1F
100
AcDbEntity
  8
1
  6
Continuous
 62
     4
100
AcDbLine
 10
425.162239757886
 20
136.092157229768
 30
0.0
 11
424.662239757886
 21
135.092157229768
 31
0.0
  0
LINE
  5
E5
330
1F
100
AcDbEntity
  8
1
  6
Continuous
 62
     4
100
AcDbLine
 10
425.412239757886
 20
137.592157229768
 30
0.0
 11
425.162239757886
 21
136.092157229768
 31
0.0
  0
LINE
  5
E6
330
1F
100
AcDbEntity
  8
1
  6
Continuous
 62
     4
100
AcDbLine
 10
411.412239757886
 20
143.092157229768
 30
0.0
 11
412.162239757886
 21
143.592157229768
 31
0.0
  0
LINE
  5
E7
330
1F
100
AcDbEntity
  8
1
  6
Continuous
 62
     4
100
AcDbLine
 10
410.912239757886
 20
142.342157229768
 30
0.0
 11
411.412239757886
 21
143.092157229768
 31
0.0
  0
LINE
  5
E8
330
1F
100
AcDbEntity
  8
1
  6
Continuous
 62
     4
100
AcDbLine
 10
410.912239757886
 20
141.342157229768
 30
0.0
 11
410.912239757886
 21
142.342157229768
 31
0.0
  0
LINE
  5
E9
330
1F
100
AcDbEntity
  8
1
  6
Continuous
 62
     4
100
AcDbLine
 10
411.412239757886
 20
140.592157229768
 30
0.0
 11
410.912239757886
 21
141.342157229768
 31
0.0
  0
LINE
  5
EA
330
1F
100
AcDbEntity
  8
1
  6
Continuous
 62
     4
100
AcDbLine
 10
412.162239757886
 20
140.092157229768
 30
0.0
 11
411.412239757886
 21
140.592157229768
 31
0.0
  0
LINE
  5
EB
330
1F
100
AcDbEntity
  8
1
  6
Continuous
 62
     4
100
AcDbLine
 10
412.912239757886
 20
139.842157229768
 30
0.0
 11
412.162239757886
 21
140.092157229768
 31
0.0
  0
LINE
  5
EC
330
1F
100
AcDbEntity
  8
1
  6
Continuous
 62
     4
100
AcDbLine
 10
413.912239757886
 20
139.842157229768
 30
0.0
 11
412.912239757886
 21
139.842157229768
 31
0.0
  0
LINE
  5
ED
330
1F
100
AcDbEntity
  8
1
  6
Continuous
 62
     4
100
AcDbLine
 10
414.662239757886
 20
140.092157229768
 30
0.0
 11
413.912239757886
 21
139.842157229768
 31
0.0
  0
LINE
  5
EE
330
1F
100
AcDbEntity
  8
1
  6
Continuous
 62
     4
100
AcDbLine
 10
415.412239757886
 20
140.592157229768
 30
0.0
 11
414.662239757886
 21
140.092157229768
 31
0.0
  0
LINE
  5
EF
330
1F
100
AcDbEntity
  8
1
  6
Continuous
 62
     4
100
AcDbLine
 10
415.912239757886
 20
141.342157229768
 30
0.0
 11
415.412239757886
 21
140.592157229768
 31
0.0
  0
LINE
  5
F0
330
1F
100
AcDbEntity
  8
1
  6
Continuous
 62
     4
100
AcDbLine
 10
415.912239757886
 20
142.342157229768
 30
0.0
 11
415.912239757886
 21
141.342157229768
 31
0.0
  0
LINE
  5
F1
330
1F
100
AcDbEntity
  8
1
  6
Continuous
 62
     4
100
AcDbLine
 10
415.412239757886
 20
143.092157229768
 30
0.0
 11
415.912239757886
 21
142.342157229768
 31
0.0
  0
LINE
  5
F2
330
1F
100
AcDbEntity
  8
1
  6
Continuous
 62
     4
100
AcDbLine
 10
414.662239757886
 20
143.592157229768
 30
0.0
 11
415.412239757886
 21
143.092157229768
 31
0.0
  0
LINE
  5
F3
330
1F
100
AcDbEntity
  8
1
  6
Continuous
 62
     4
100
AcDbLine
 10
413.912239757886
 20
143.842157229768
 30
0.0
 11
414.662239757886
 21
143.592157229768
 31
0.0
  0
LINE
  5
F4
330
1F
100
AcDbEntity
  8
1
  6
Continuous
 62
     4
100
AcDbLine
 10
412.912239757886
 20
143.842157229768
 30
0.0
 11
413.912239757886
 21
143.842157229768
 31
0.0
  0
LINE
  5
F5
330
1F
100
AcDbEntity
  8
1
  6
Continuous
 62
     4
100
AcDbLine
 10
412.162239757886
 20
143.592157229768
 30
0.0
 11
412.912239757886
 21
143.842157229768
 31
0.0
  0
LINE
  5
F6
330
1F
100
AcDbEntity
  8
1
  6
Continuous
 62
     4
100
AcDbLine
 10
415.162239757886
 20
139.342157229768
 30
0.0
 11
413.912239757886
 21
139.842157229768
 31
0.0
  0
LINE
  5
F7
330
1F
100
AcDbEntity
  8
1
  6
Continuous
 62
     4
100
AcDbLine
 10
415.912239757886
 20
138.592157229768
 30
0.0
 11
415.162239757886
 21
139.342157229768
 31
0.0
  0
LINE
  5
F8
330
1F
100
AcDbEntity
  8
1
  6
Continuous
 62
     4
100
AcDbLine
 10
416.412239757886
 20
137.592157229768
 30
0.0
 11
415.912239757886
 21
138.592157229768
 31
0.0
  0
LINE
  5
F9
330
1F
100
AcDbEntity
  8
1
  6
Continuous
 62
     4
100
AcDbLine
 10
416.412239757886
 20
136.092157229768
 30
0.0
 11
416.412239757886
 21
137.592157229768
 31
0.0
  0
LINE
  5
FA
330
1F
100
AcDbEntity
  8
1
  6
Continuous
 62
     4
100
AcDbLine
 10
415.912239757886
 20
135.092157229768
 30
0.0
 11
416.412239757886
 21
136.092157229768
 31
0.0
  0
LINE
  5
FB
330
1F
100
AcDbEntity
  8
1
  6
Continuous
 62
     4
100
AcDbLine
 10
415.162239757886
 20
134.342157229768
 30
0.0
 11
415.912239757886
 21
135.092157229768
 31
0.0
  0
LINE
  5
FC
330
1F
100
AcDbEntity
  8
1
  6
Continuous
 62
     4
100
AcDbLine
 10
414.162239757886
 20
133.842157229768
 30
0.0
 11
415.162239757886
 21
134.342157229768
 31
0.0
  0
LINE
  5
FD
330
1F
100
AcDbEntity
  8
1
  6
Continuous
 62
     4
100
AcDbLine
 10
412.662239757886
 20
133.842157229768
 30
0.0
 11
414.162239757886
 21
133.842157229768
 31
0.0
  0
LINE
  5
FE
330
1F
100
AcDbEntity
  8
1
  6
Continuous
 62
     4
100
AcDbLine
 10
411.662239757886
 20
134.342157229768
 30
0.0
 11
412.662239757886
 21
133.842157229768
 31
0.0
  0
LINE
  5
FF
330
1F
100
AcDbEntity
  8
1
  6
Continuous
 62
     4
100
AcDbLine
 10
410.912239757886
 20
135.092157229768
 30
0.0
 11
411.662239757886
 21
134.342157229768
 31
0.0
  0
LINE
  5
100
330
1F
100
AcDbEntity
  8
1
  6
Continuous
 62
     4
100
AcDbLine
 10
410.412239757886
 20
136.092157229768
 30
0.0
 11
410.912239757886
 21
135.092157229768
 31
0.0
  0
LINE
  5
101
330
1F
100
AcDbEntity
  8
1
  6
Continuous
 62
     4
100
AcDbLine
 10
410.412239757886
 20
137.592157229768
 30
0.0
 11
410.412239757886
 21
136.092157229768
 31
0.0
  0
LINE
  5
102
330
1F
100
AcDbEntity
  8
1
  6
Continuous
 62
     4
100
AcDbLine
 10
410.912239757886
 20
138.592157229768
 30
0.0
 11
410.412239757886
 21
137.592157229768
 31
0.0
  0
LINE
  5
103
330
1F
100
AcDbEntity
  8
1
  6
Continuous
 62
     4
100
AcDbLine
 10
411.662239757886
 20
139.342157229768
 30
0.0
 11
410.912239757886
 21
138.592157229768
 31
0.0
  0
LINE
  5
104
330
1F
100
AcDbEntity
  8
1
  6
Continuous
 62
     4
100
AcDbLine
 10
412.912239757886
 20
139.842157229768
 30
0.0
 11
411.662239757886
 21
139.342157229768
 31
0.0
  0
LINE
  5
105
330
1F
100
AcDbEntity
  8
1
  6
Continuous
 62
     4
100
AcDbLine
 10
372.412239757886
 20
143.092157229768
 30
0.0
 11
373.162239757886
 21
143.592157229768
 31
0.0
  0
LINE
  5
106
330
1F
100
AcDbEntity
  8
1
  6
Continuous
 62
     4
100
AcDbLine
 10
371.912239757886
 20
142.342157229768
 30
0.0
 11
372.412239757886
 21
143.092157229768
 31
0.0
  0
LINE
  5
107
330
1F
100
AcDbEntity
  8
1
  6
Continuous
 62
     4
100
AcDbLine
 10
371.912239757886
 20
141.342157229768
 30
0.0
 11
371.912239757886
 21
142.342157229768
 31
0.0
  0
LINE
  5
108
330
1F
100
AcDbEntity
  8
1
  6
Continuous
 62
     4
100
AcDbLine
 10
372.412239757886
 20
140.592157229768
 30
0.0
 11
371.912239757886
 21
141.342157229768
 31
0.0
  0
LINE
  5
109
330
1F
100
AcDbEntity
  8
1
  6
Continuous
 62
     4
100
AcDbLine
 10
373.162239757886
 20
140.092157229768
 30
0.0
 11
372.412239757886
 21
140.592157229768
 31
0.0
  0
LINE
  5
10A
330
1F
100
AcDbEntity
  8
1
  6
Continuous
 62
     4
100
AcDbLine
 10
373.912239757886
 20
139.842157229768
 30
0.0
 11
373.162239757886
 21
140.092157229768
 31
0.0
  0
LINE
  5
10B
330
1F
100
AcDbEntity
  8
1
  6
Continuous
 62
     4
100
AcDbLine
 10
374.912239757886
 20
139.842157229768
 30
0.0
 11
373.912239757886
 21
139.842157229768
 31
0.0
  0
LINE
  5
10C
330
1F
100
AcDbEntity
  8
1
  6
Continuous
 62
     4
100
AcDbLine
 10
375.662239757886
 20
140.092157229768
 30
0.0
 11
374.912239757886
 21
139.842157229768
 31
0.0
  0
LINE
  5
10D
330
1F
100
AcDbEntity
  8
1
  6
Continuous
 62
     4
100
AcDbLine
 10
376.412239757886
 20
140.592157229768
 30
0.0
 11
375.662239757886
 21
140.092157229768
 31
0.0
  0
LINE
  5
10E
330
1F
100
AcDbEntity
  8
1
  6
Continuous
 62
     4
100
AcDbLine
 10
376.912239757886
 20
141.342157229768
 30
0.0
 11
376.412239757886
 21
140.592157229768
 31
0.0
  0
LINE
  5
10F
330
1F
100
AcDbEntity
  8
1
  6
Continuous
 62
     4
100
AcDbLine
 10
376.912239757886
 20
142.342157229768
 30
0.0
 11
376.912239757886
 21
141.342157229768
 31
0.0
  0
LINE
  5
110
330
1F
100
AcDbEntity
  8
1
  6
Continuous
 62
     4
100
AcDbLine
 10
376.412239757886
 20
143.092157229768
 30
0.0
 11
376.912239757886
 21
142.342157229768
 31
0.0
  0
LINE
  5
111
330
1F
100
AcDbEntity
  8
1
  6
Continuous
 62
     4
100
AcDbLine
 10
375.662239757886
 20
143.592157229768
 30
0.0
 11
376.412239757886
 21
143.092157229768
 31
0.0
  0
LINE
  5
112
330
1F
100
AcDbEntity
  8
1
  6
Continuous
 62
     4
100
AcDbLine
 10
374.912239757886
 20
143.842157229768
 30
0.0
 11
375.662239757886
 21
143.592157229768
 31
0.0
  0
LINE
  5
113
330
1F
100
AcDbEntity
  8
1
  6
Continuous
 62
     4
100
AcDbLine
 10
373.912239757886
 20
143.842157229768
 30
0.0
 11
374.912239757886
 21
143.842157229768
 31
0.0
  0
LINE
  5
114
330
1F
100
AcDbEntity
  8
1
  6
Continuous
 62
     4
100
AcDbLine
 10
373.162239757886
 20
143.592157229768
 30
0.0
 11
373.912239757886
 21
143.842157229768
 31
0.0
  0
LINE
  5
115
330
1F
100
AcDbEntity
  8
1
  6
Continuous
 62
     4
100
AcDbLine
 10
376.162239757886
 20
139.342157229768
 30
0.0
 11
374.912239757886
 21
139.842157229768
 31
0.0
  0
LINE
  5
116
330
1F
100
AcDbEntity
  8
1
  6
Continuous
 62
     4
100
AcDbLine
 10
376.912239757886
 20
138.592157229768
 30
0.0
 11
376.162239757886
 21
139.342157229768
 31
0.0
  0
LINE
  5
117
330
1F
100
AcDbEntity
  8
1
  6
Continuous
 62
     4
100
AcDbLine
 10
377.412239757886
 20
137.592157229768
 30
0.0
 11
376.912239757886
 21
138.592157229768
 31
0.0
  0
LINE
  5
118
330
1F
100
AcDbEntity
  8
1
  6
Continuous
 62
     4
100
AcDbLine
 10
377.412239757886
 20
136.092157229768
 30
0.0
 11
377.412239757886
 21
137.592157229768
 31
0.0
  0
LINE
  5
119
330
1F
100
AcDbEntity
  8
1
  6
Continuous
 62
     4
100
AcDbLine
 10
376.912239757886
 20
135.092157229768
 30
0.0
 11
377.412239757886
 21
136.092157229768
 31
0.0
  0
LINE
  5
11A
330
1F
100
AcDbEntity
  8
1
  6
Continuous
 62
     4
100
AcDbLine
 10
376.162239757886
 20
134.342157229768
 30
0.0
 11
376.912239757886
 21
135.092157229768
 31
0.0
  0
LINE
  5
11B
330
1F
100
AcDbEntity
  8
1
  6
Continuous
 62
     4
100
AcDbLine
 10
375.162239757886
 20
133.842157229768
 30
0.0
 11
376.162239757886
 21
134.342157229768
 31
0.0
  0
LINE
  5
11C
330
1F
100
AcDbEntity
  8
1
  6
Continuous
 62
     4
100
AcDbLine
 10
373.662239757886
 20
133.842157229768
 30
0.0
 11
375.162239757886
 21
133.842157229768
 31
0.0
  0
LINE
  5
11D
330
1F
100
AcDbEntity
  8
1
  6
Continuous
 62
     4
100
AcDbLine
 10
372.662239757886
 20
134.342157229768
 30
0.0
 11
373.662239757886
 21
133.842157229768
 31
0.0
  0
LINE
  5
11E
330
1F
100
AcDbEntity
  8
1
  6
Continuous
 62
     4
100
AcDbLine
 10
371.912239757886
 20
135.092157229768
 30
0.0
 11
372.662239757886
 21
134.342157229768
 31
0.0
  0
LINE
  5
11F
330
1F
100
AcDbEntity
  8
1
  6
Continuous
 62
     4
100
AcDbLine
 10
371.412239757886
 20
136.092157229768
 30
0.0
 11
371.912239757886
 21
135.092157229768
 31
0.0
  0
LINE
  5
120
330
1F
100
AcDbEntity
  8
1
  6
Continuous
 62
     4
100
AcDbLine
 10
371.412239757886
 20
137.592157229768
 30
0.0
 11
371.412239757886
 21
136.092157229768
 31
0.0
  0
LINE
  5
121
330
1F
100
AcDbEntity
  8
1
  6
Continuous
 62
     4
100
AcDbLine
 10
371.912239757886
 20
138.592157229768
 30
0.0
 11
371.412239757886
 21
137.592157229768
 31
0.0
  0
LINE
  5
122
330
1F
100
AcDbEntity
  8
1
  6
Continuous
 62
     4
100
AcDbLine
 10
372.662239757886
 20
139.342157229768
 30
0.0
 11
371.912239757886
 21
138.592157229768
 31
0.0
  0
LINE
  5
123
330
1F
100
AcDbEntity
  8
1
  6
Continuous
 62
     4
100
AcDbLine
 10
373.912239757886
 20
139.842157229768
 30
0.0
 11
372.662239757886
 21
139.342157229768
 31
0.0
  0
LINE
  5
124
330
1F
100
AcDbEntity
  8
1
  6
Continuous
 62
     4
100
AcDbLine
 10
368.662239757886
 20
134.342157229768
 30
0.0
 11
368.662239757886
 21
134.092157229768
 31
0.0
  0
LINE
  5
125
330
1F
100
AcDbEntity
  8
1
  6
Continuous
 62
     4
100
AcDbLine
 10
368.412239757886
 20
134.342157229768
 30
0.0
 11
368.662239757886
 21
134.342157229768
 31
0.0
  0
LINE
  5
126
330
1F
100
AcDbEntity
  8
1
  6
Continuous
 62
     4
100
AcDbLine
 10
368.412239757886
 20
134.092157229768
 30
0.0
 11
368.412239757886
 21
134.342157229768
 31
0.0
  0
LINE
  5
127
330
1F
100
AcDbEntity
  8
1
  6
Continuous
 62
     4
100
AcDbLine
 10
368.662239757886
 20
134.092157229768
 30
0.0
 11
368.412239757886
 21
134.092157229768
 31
0.0
  0
LINE
  5
128
330
1F
100
AcDbEntity
  8
1
  6
Continuous
 62
     4
100
AcDbLine
 10
368.912239757886
 20
134.592157229768
 30
0.0
 11
368.912239757886
 21
133.842157229768
 31
0.0
  0
LINE
  5
129
330
1F
100
AcDbEntity
  8
1
  6
Continuous
 62
     4
100
AcDbLine
 10
368.162239757886
 20
134.592157229768
 30
0.0
 11
368.912239757886
 21
134.592157229768
 31
0.0
  0
LINE
  5
12A
330
1F
100
AcDbEntity
  8
1
  6
Continuous
 62
     4
100
AcDbLine
 10
368.162239757886
 20
133.842157229768
 30
0.0
 11
368.162239757886
 21
134.592157229768
 31
0.0
  0
LINE
  5
12B
330
1F
100
AcDbEntity
  8
1
  6
Continuous
 62
     4
100
AcDbLine
 10
368.912239757886
 20
133.842157229768
 30
0.0
 11
368.162239757886
 21
133.842157229768
 31
0.0
  0
LINE
  5
12C
330
1F
100
AcDbEntity
  8
1
  6
Continuous
 62
     4
100
AcDbLine
 10
365.162239757886
 20
140.092157229768
 30
0.0
 11
365.162239757886
 21
137.592157229768
 31
0.0
  0
LINE
  5
12D
330
1F
100
AcDbEntity
  8
1
  6
Continuous
 62
     4
100
AcDbLine
 10
364.912239757886
 20
141.592157229768
 30
0.0
 11
365.162239757886
 21
140.092157229768
 31
0.0
  0
LINE
  5
12E
330
1F
100
AcDbEntity
  8
1
  6
Continuous
 62
     4
100
AcDbLine
 10
364.412239757886
 20
142.592157229768
 30
0.0
 11
364.912239757886
 21
141.592157229768
 31
0.0
  0
LINE
  5
12F
330
1F
100
AcDbEntity
  8
1
  6
Continuous
 62
     4
100
AcDbLine
 10
363.912239757886
 20
143.092157229768
 30
0.0
 11
364.412239757886
 21
142.592157229768
 31
0.0
  0
LINE
  5
130
330
1F
100
AcDbEntity
  8
1
  6
Continuous
 62
     4
100
AcDbLine
 10
363.162239757886
 20
143.592157229768
 30
0.0
 11
363.912239757886
 21
143.092157229768
 31
0.0
  0
LINE
  5
131
330
1F
100
AcDbEntity
  8
1
  6
Continuous
 62
     4
100
AcDbLine
 10
362.412239757886
 20
143.842157229768
 30
0.0
 11
363.162239757886
 21
143.592157229768
 31
0.0
  0
LINE
  5
132
330
1F
100
AcDbEntity
  8
1
  6
Continuous
 62
     4
100
AcDbLine
 10
361.912239757886
 20
143.842157229768
 30
0.0
 11
362.412239757886
 21
143.842157229768
 31
0.0
  0
LINE
  5
133
330
1F
100
AcDbEntity
  8
1
  6
Continuous
 62
     4
100
AcDbLine
 10
361.162239757886
 20
143.592157229768
 30
0.0
 11
361.912239757886
 21
143.842157229768
 31
0.0
  0
LINE
  5
134
330
1F
100
AcDbEntity
  8
1
  6
Continuous
 62
     4
100
AcDbLine
 10
360.412239757886
 20
143.092157229768
 30
0.0
 11
361.162239757886
 21
143.592157229768
 31
0.0
  0
LINE
  5
135
330
1F
100
AcDbEntity
  8
1
  6
Continuous
 62
     4
100
AcDbLine
 10
359.912239757886
 20
142.592157229768
 30
0.0
 11
360.412239757886
 21
143.092157229768
 31
0.0
  0
LINE
  5
136
330
1F
100
AcDbEntity
  8
1
  6
Continuous
 62
     4
100
AcDbLine
 10
359.412239757886
 20
141.592157229768
 30
0.0
 11
359.912239757886
 21
142.592157229768
 31
0.0
  0
LINE
  5
137
330
1F
100
AcDbEntity
  8
1
  6
Continuous
 62
     4
100
AcDbLine
 10
359.162239757886
 20
140.092157229768
 30
0.0
 11
359.412239757886
 21
141.592157229768
 31
0.0
  0
LINE
  5
138
330
1F
100
AcDbEntity
  8
1
  6
Continuous
 62
     4
100
AcDbLine
 10
359.162239757886
 20
137.592157229768
 30
0.0
 11
359.162239757886
 21
140.092157229768
 31
0.0
  0
LINE
  5
139
330
1F
100
AcDbEntity
  8
1
  6
Continuous
 62
     4
100
AcDbLine
 10
359.412239757886
 20
136.092157229768
 30
0.0
 11
359.162239757886
 21
137.592157229768
 31
0.0
  0
LINE
  5
13A
330
1F
100
AcDbEntity
  8
1
  6
Continuous
 62
     4
100
AcDbLine
 10
359.912239757886
 20
135.092157229768
 30
0.0
 11
359.412239757886
 21
136.092157229768
 31
0.0
  0
LINE
  5
13B
330
1F
100
AcDbEntity
  8
1
  6
Continuous
 62
     4
100
AcDbLine
 10
360.412239757886
 20
134.592157229768
 30
0.0
 11
359.912239757886
 21
135.092157229768
 31
0.0
  0
LINE
  5
13C
330
1F
100
AcDbEntity
  8
1
  6
Continuous
 62
     4
100
AcDbLine
 10
361.162239757886
 20
134.092157229768
 30
0.0
 11
360.412239757886
 21
134.592157229768
 31
0.0
  0
LINE
  5
13D
330
1F
100
AcDbEntity
  8
1
  6
Continuous
 62
     4
100
AcDbLine
 10
361.912239757886
 20
133.842157229768
 30
0.0
 11
361.162239757886
 21
134.092157229768
 31
0.0
  0
LINE
  5
13E
330
1F
100
AcDbEntity
  8
1
  6
Continuous
 62
     4
100
AcDbLine
 10
362.412239757886
 20
133.842157229768
 30
0.0
 11
361.912239757886
 21
133.842157229768
 31
0.0
  0
LINE
  5
13F
330
1F
100
AcDbEntity
  8
1
  6
Continuous
 62
     4
100
AcDbLine
 10
363.162239757886
 20
134.092157229768
 30
0.0
 11
362.412239757886
 21
133.842157229768
 31
0.0
  0
LINE
  5
140
330
1F
100
AcDbEntity
  8
1
  6
Continuous
 62
     4
100
AcDbLine
 10
363.912239757886
 20
134.592157229768
 30
0.0
 11
363.162239757886
 21
134.092157229768
 31
0.0
  0
LINE
  5
141
330
1F
100
AcDbEntity
  8
1
  6
Continuous
 62
     4
100
AcDbLine
 10
364.412239757886
 20
135.092157229768
 30
0.0
 11
363.912239757886
 21
134.592157229768
 31
0.0
  0
LINE
  5
142
330
1F
100
AcDbEntity
  8
1
  6
Continuous
 62
     4
100
AcDbLine
 10
364.912239757886
 20
136.092157229768
 30
0.0
 11
364.412239757886
 21
135.092157229768
 31
0.0
  0
LINE
  5
143
330
1F
100
AcDbEntity
  8
1
  6
Continuous
 62
     4
100
AcDbLine
 10
365.162239757886
 20
137.592157229768
 30
0.0
 11
364.912239757886
 21
136.092157229768
 31
0.0
  0
LINE
  5
144
330
1F
100
AcDbEntity
  8
1
  6
Continuous
 62
     4
100
AcDbLine
 10
434.412239757886
 20
156.752157229768
 30
0.0
 11
434.412239757886
 21
154.252157229768
 31
0.0
  0
LINE
  5
145
330
1F
100
AcDbEntity
  8
1
  6
Continuous
 62
     4
100
AcDbLine
 10
434.162239757886
 20
158.252157229768
 30
0.0
 11
434.412239757886
 21
156.752157229768
 31
0.0
  0
LINE
  5
146
330
1F
100
AcDbEntity
  8
1
  6
Continuous
 62
     4
100
AcDbLine
 10
433.662239757886
 20
159.252157229768
 30
0.0
 11
434.162239757886
 21
158.252157229768
 31
0.0
  0
LINE
  5
147
330
1F
100
AcDbEntity
  8
1
  6
Continuous
 62
     4
100
AcDbLine
 10
433.162239757886
 20
159.752157229768
 30
0.0
 11
433.662239757886
 21
159.252157229768
 31
0.0
  0
LINE
  5
148
330
1F
100
AcDbEntity
  8
1
  6
Continuous
 62
     4
100
AcDbLine
 10
432.412239757886
 20
160.252157229768
 30
0.0
 11
433.162239757886
 21
159.752157229768
 31
0.0
  0
LINE
  5
149
330
1F
100
AcDbEntity
  8
1
  6
Continuous
 62
     4
100
AcDbLine
 10
431.662239757886
 20
160.502157229768
 30
0.0
 11
432.412239757886
 21
160.252157229768
 31
0.0
  0
LINE
  5
14A
330
1F
100
AcDbEntity
  8
1
  6
Continuous
 62
     4
100
AcDbLine
 10
431.162239757886
 20
160.502157229768
 30
0.0
 11
431.662239757886
 21
160.502157229768
 31
0.0
  0
LINE
  5
14B
330
1F
100
AcDbEntity
  8
1
  6
Continuous
 62
     4
100
AcDbLine
 10
430.412239757886
 20
160.252157229768
 30
0.0
 11
431.162239757886
 21
160.502157229768
 31
0.0
  0
LINE
  5
14C
330
1F
100
AcDbEntity
  8
1
  6
Continuous
 62
     4
100
AcDbLine
 10
429.662239757886
 20
159.752157229768
 30
0.0
 11
430.412239757886
 21
160.252157229768
 31
0.0
  0
LINE
  5
14D
330
1F
100
AcDbEntity
  8
1
  6
Continuous
 62
     4
100
AcDbLine
 10
429.162239757886
 20
159.252157229768
 30
0.0
 11
429.662239757886
 21
159.752157229768
 31
0.0
  0
LINE
  5
14E
330
1F
100
AcDbEntity
  8
1
  6
Continuous
 62
     4
100
AcDbLine
 10
428.662239757886
 20
158.252157229768
 30
0.0
 11
429.162239757886
 21
159.252157229768
 31
0.0
  0
LINE
  5
14F
330
1F
100
AcDbEntity
  8
1
  6
Continuous
 62
     4
100
AcDbLine
 10
428.412239757886
 20
156.752157229768
 30
0.0
 11
428.662239757886
 21
158.252157229768
 31
0.0
  0
LINE
  5
150
330
1F
100
AcDbEntity
  8
1
  6
Continuous
 62
     4
100
AcDbLine
 10
428.412239757886
 20
154.252157229768
 30
0.0
 11
428.412239757886
 21
156.752157229768
 31
0.0
  0
LINE
  5
151
330
1F
100
AcDbEntity
  8
1
  6
Continuous
 62
     4
100
AcDbLine
 10
428.662239757886
 20
152.752157229768
 30
0.0
 11
428.412239757886
 21
154.252157229768
 31
0.0
  0
LINE
  5
152
330
1F
100
AcDbEntity
  8
1
  6
Continuous
 62
     4
100
AcDbLine
 10
429.162239757886
 20
151.752157229768
 30
0.0
 11
428.662239757886
 21
152.752157229768
 31
0.0
  0
LINE
  5
153
330
1F
100
AcDbEntity
  8
1
  6
Continuous
 62
     4
100
AcDbLine
 10
429.662239757886
 20
151.252157229768
 30
0.0
 11
429.162239757886
 21
151.752157229768
 31
0.0
  0
LINE
  5
154
330
1F
100
AcDbEntity
  8
1
  6
Continuous
 62
     4
100
AcDbLine
 10
430.412239757886
 20
150.752157229768
 30
0.0
 11
429.662239757886
 21
151.252157229768
 31
0.0
  0
LINE
  5
155
330
1F
100
AcDbEntity
  8
1
  6
Continuous
 62
     4
100
AcDbLine
 10
431.162239757886
 20
150.502157229768
 30
0.0
 11
430.412239757886
 21
150.752157229768
 31
0.0
  0
LINE
  5
156
330
1F
100
AcDbEntity
  8
1
  6
Continuous
 62
     4
100
AcDbLine
 10
431.662239757886
 20
150.502157229768
 30
0.0
 11
431.162239757886
 21
150.502157229768
 31
0.0
  0
LINE
  5
157
330
1F
100
AcDbEntity
  8
1
  6
Continuous
 62
     4
100
AcDbLine
 10
432.412239757886
 20
150.752157229768
 30
0.0
 11
431.662239757886
 21
150.502157229768
 31
0.0
  0
LINE
  5
158
330
1F
100
AcDbEntity
  8
1
  6
Continuous
 62
     4
100
AcDbLine
 10
433.162239757886
 20
151.252157229768
 30
0.0
 11
432.412239757886
 21
150.752157229768
 31
0.0
  0
LINE
  5
159
330
1F
100
AcDbEntity
  8
1
  6
Continuous
 62
     4
100
AcDbLine
 10
433.662239757886
 20
151.752157229768
 30
0.0
 11
433.162239757886
 21
151.252157229768
 31
0.0
  0
LINE
  5
15A
330
1F
100
AcDbEntity
  8
1
  6
Continuous
 62
     4
100
AcDbLine
 10
434.162239757886
 20
152.752157229768
 30
0.0
 11
433.662239757886
 21
151.752157229768
 31
0.0
  0
LINE
  5
15B
330
1F
100
AcDbEntity
  8
1
  6
Continuous
 62
     4
100
AcDbLine
 10
434.412239757886
 20
154.252157229768
 30
0.0
 11
434.162239757886
 21
152.752157229768
 31
0.0
  0
LINE
  5
15C
330
1F
100
AcDbEntity
  8
1
  6
Continuous
 62
     4
100
AcDbLine
 10
425.412239757886
 20
156.752157229768
 30
0.0
 11
425.412239757886
 21
154.252157229768
 31
0.0
  0
LINE
  5
15D
330
1F
100
AcDbEntity
  8
1
  6
Continuous
 62
     4
100
AcDbLine
 10
425.162239757886
 20
158.252157229768
 30
0.0
 11
425.412239757886
 21
156.752157229768
 31
0.0
  0
LINE
  5
15E
330
1F
100
AcDbEntity
  8
1
  6
Continuous
 62
     4
100
AcDbLine
 10
424.662239757886
 20
159.252157229768
 30
0.0
 11
425.162239757886
 21
158.252157229768
 31
0.0
  0
LINE
  5
15F
330
1F
100
AcDbEntity
  8
1
  6
Continuous
 62
     4
100
AcDbLine
 10
424.162239757886
 20
159.752157229768
 30
0.0
 11
424.662239757886
 21
159.252157229768
 31
0.0
  0
LINE
  5
160
330
1F
100
AcDbEntity
  8
1
  6
Continuous
 62
     4
100
AcDbLine
 10
423.412239757886
 20
160.252157229768
 30
0.0
 11
424.162239757886
 21
159.752157229768
 31
0.0
  0
LINE
  5
161
330
1F
100
AcDbEntity
  8
1
  6
Continuous
 62
     4
100
AcDbLine
 10
422.662239757886
 20
160.502157229768
 30
0.0
 11
423.412239757886
 21
160.252157229768
 31
0.0
  0
LINE
  5
162
330
1F
100
AcDbEntity
  8
1
  6
Continuous
 62
     4
100
AcDbLine
 10
422.162239757886
 20
160.502157229768
 30
0.0
 11
422.662239757886
 21
160.502157229768
 31
0.0
  0
LINE
  5
163
330
1F
100
AcDbEntity
  8
1
  6
Continuous
 62
     4
100
AcDbLine
 10
421.412239757886
 20
160.252157229768
 30
0.0
 11
422.162239757886
 21
160.502157229768
 31
0.0
  0
LINE
  5
164
330
1F
100
AcDbEntity
  8
1
  6
Continuous
 62
     4
100
AcDbLine
 10
420.662239757886
 20
159.752157229768
 30
0.0
 11
421.412239757886
 21
160.252157229768
 31
0.0
  0
LINE
  5
165
330
1F
100
AcDbEntity
  8
1
  6
Continuous
 62
     4
100
AcDbLine
 10
420.162239757886
 20
159.252157229768
 30
0.0
 11
420.662239757886
 21
159.752157229768
 31
0.0
  0
LINE
  5
166
330
1F
100
AcDbEntity
  8
1
  6
Continuous
 62
     4
100
AcDbLine
 10
419.662239757886
 20
158.252157229768
 30
0.0
 11
420.162239757886
 21
159.252157229768
 31
0.0
  0
LINE
  5
167
330
1F
100
AcDbEntity
  8
1
  6
Continuous
 62
     4
100
AcDbLine
 10
419.412239757886
 20
156.752157229768
 30
0.0
 11
419.662239757886
 21
158.252157229768
 31
0.0
  0
LINE
  5
168
330
1F
100
AcDbEntity
  8
1
  6
Continuous
 62
     4
100
AcDbLine
 10
419.412239757886
 20
154.252157229768
 30
0.0
 11
419.412239757886
 21
156.752157229768
 31
0.0
  0
LINE
  5
169
330
1F
100
AcDbEntity
  8
1
  6
Continuous
 62
     4
100
AcDbLine
 10
419.662239757886
 20
152.752157229768
 30
0.0
 11
419.412239757886
 21
154.252157229768
 31
0.0
  0
LINE
  5
16A
330
1F
100
AcDbEntity
  8
1
  6
Continuous
 62
     4
100
AcDbLine
 10
420.162239757886
 20
151.752157229768
 30
0.0
 11
419.662239757886
 21
152.752157229768
 31
0.0
  0
LINE
  5
16B
330
1F
100
AcDbEntity
  8
1
  6
Continuous
 62
     4
100
AcDbLine
 10
420.662239757886
 20
151.252157229768
 30
0.0
 11
420.162239757886
 21
151.752157229768
 31
0.0
  0
LINE
  5
16C
330
1F
100
AcDbEntity
  8
1
  6
Continuous
 62
     4
100
AcDbLine
 10
421.412239757886
 20
150.752157229768
 30
0.0
 11
420.662239757886
 21
151.252157229768
 31
0.0
  0
LINE
  5
16D
330
1F
100
AcDbEntity
  8
1
  6
Continuous
 62
     4
100
AcDbLine
 10
422.162239757886
 20
150.502157229768
 30
0.0
 11
421.412239757886
 21
150.752157229768
 31
0.0
  0
LINE
  5
16E
330
1F
100
AcDbEntity
  8
1
  6
Continuous
 62
     4
100
AcDbLine
 10
422.662239757886
 20
150.502157229768
 30
0.0
 11
422.162239757886
 21
150.502157229768
 31
0.0
  0
LINE
  5
16F
330
1F
100
AcDbEntity
  8
1
  6
Continuous
 62
     4
100
AcDbLine
 10
423.412239757886
 20
150.752157229768
 30
0.0
 11
422.662239757886
 21
150.502157229768
 31
0.0
  0
LINE
  5
170
330
1F
100
AcDbEntity
  8
1
  6
Continuous
 62
     4
100
AcDbLine
 10
424.162239757886
 20
151.252157229768
 30
0.0
 11
423.412239757886
 21
150.752157229768
 31
0.0
  0
LINE
  5
171
330
1F
100
AcDbEntity
  8
1
  6
Continuous
 62
     4
100
AcDbLine
 10
424.662239757886
 20
151.752157229768
 30
0.0
 11
424.162239757886
 21
151.252157229768
 31
0.0
  0
LINE
  5
172
330
1F
100
AcDbEntity
  8
1
  6
Continuous
 62
     4
100
AcDbLine
 10
425.162239757886
 20
152.752157229768
 30
0.0
 11
424.662239757886
 21
151.752157229768
 31
0.0
  0
LINE
  5
173
330
1F
100
AcDbEntity
  8
1
  6
Continuous
 62
     4
100
AcDbLine
 10
425.412239757886
 20
154.252157229768
 30
0.0
 11
425.162239757886
 21
152.752157229768
 31
0.0
  0
LINE
  5
174
330
1F
100
AcDbEntity
  8
1
  6
Continuous
 62
     4
100
AcDbLine
 10
412.162239757886
 20
158.252157229768
 30
0.0
 11
414.912239757886
 21
160.502157229768
 31
0.0
  0
LINE
  5
175
330
1F
100
AcDbEntity
  8
1
  6
Continuous
 62
     4
100
AcDbLine
 10
411.162239757886
 20
157.002157229768
 30
0.0
 11
412.162239757886
 21
158.252157229768
 31
0.0
  0
LINE
  5
176
330
1F
100
AcDbEntity
  8
1
  6
Continuous
 62
     4
100
AcDbLine
 10
410.662239757886
 20
156.002157229768
 30
0.0
 11
411.162239757886
 21
157.002157229768
 31
0.0
  0
LINE
  5
177
330
1F
100
AcDbEntity
  8
1
  6
Continuous
 62
     4
100
AcDbLine
 10
410.412239757886
 20
154.002157229768
 30
0.0
 11
410.662239757886
 21
156.002157229768
 31
0.0
  0
LINE
  5
178
330
1F
100
AcDbEntity
  8
1
  6
Continuous
 62
     4
100
AcDbLine
 10
410.412239757886
 20
153.002157229768
 30
0.0
 11
410.412239757886
 21
154.002157229768
 31
0.0
  0
LINE
  5
179
330
1F
100
AcDbEntity
  8
1
  6
Continuous
 62
     4
100
AcDbLine
 10
410.662239757886
 20
152.002157229768
 30
0.0
 11
410.412239757886
 21
153.002157229768
 31
0.0
  0
LINE
  5
17A
330
1F
100
AcDbEntity
  8
1
  6
Continuous
 62
     4
100
AcDbLine
 10
411.162239757886
 20
151.252157229768
 30
0.0
 11
410.662239757886
 21
152.002157229768
 31
0.0
  0
LINE
  5
17B
330
1F
100
AcDbEntity
  8
1
  6
Continuous
 62
     4
100
AcDbLine
 10
411.912239757886
 20
150.752157229768
 30
0.0
 11
411.162239757886
 21
151.252157229768
 31
0.0
  0
LINE
  5
17C
330
1F
100
AcDbEntity
  8
1
  6
Continuous
 62
     4
100
AcDbLine
 10
412.662239757886
 20
150.502157229768
 30
0.0
 11
411.912239757886
 21
150.752157229768
 31
0.0
  0
LINE
  5
17D
330
1F
100
AcDbEntity
  8
1
  6
Continuous
 62
     4
100
AcDbLine
 10
414.162239757886
 20
150.502157229768
 30
0.0
 11
412.662239757886
 21
150.502157229768
 31
0.0
  0
LINE
  5
17E
330
1F
100
AcDbEntity
  8
1
  6
Continuous
 62
     4
100
AcDbLine
 10
414.912239757886
 20
150.752157229768
 30
0.0
 11
414.162239757886
 21
150.502157229768
 31
0.0
  0
LINE
  5
17F
330
1F
100
AcDbEntity
  8
1
  6
Continuous
 62
     4
100
AcDbLine
 10
415.662239757886
 20
151.252157229768
 30
0.0
 11
414.912239757886
 21
150.752157229768
 31
0.0
  0
LINE
  5
180
330
1F
100
AcDbEntity
  8
1
  6
Continuous
 62
     4
100
AcDbLine
 10
416.162239757886
 20
152.002157229768
 30
0.0
 11
415.662239757886
 21
151.252157229768
 31
0.0
  0
LINE
  5
181
330
1F
100
AcDbEntity
  8
1
  6
Continuous
 62
     4
100
AcDbLine
 10
416.412239757886
 20
153.002157229768
 30
0.0
 11
416.162239757886
 21
152.002157229768
 31
0.0
  0
LINE
  5
182
330
1F
100
AcDbEntity
  8
1
  6
Continuous
 62
     4
100
AcDbLine
 10
416.412239757886
 20
154.002157229768
 30
0.0
 11
416.412239757886
 21
153.002157229768
 31
0.0
  0
LINE
  5
183
330
1F
100
AcDbEntity
  8
1
  6
Continuous
 62
     4
100
AcDbLine
 10
416.162239757886
 20
155.002157229768
 30
0.0
 11
416.412239757886
 21
154.002157229768
 31
0.0
  0
LINE
  5
184
330
1F
100
AcDbEntity
  8
1
  6
Continuous
 62
     4
100
AcDbLine
 10
415.662239757886
 20
155.752157229768
 30
0.0
 11
416.162239757886
 21
155.002157229768
 31
0.0
  0
LINE
  5
185
330
1F
100
AcDbEntity
  8
1
  6
Continuous
 62
     4
100
AcDbLine
 10
414.912239757886
 20
156.252157229768
 30
0.0
 11
415.662239757886
 21
155.752157229768
 31
0.0
  0
LINE
  5
186
330
1F
100
AcDbEntity
  8
1
  6
Continuous
 62
     4
100
AcDbLine
 10
414.162239757886
 20
156.502157229768
 30
0.0
 11
414.912239757886
 21
156.252157229768
 31
0.0
  0
LINE
  5
187
330
1F
100
AcDbEntity
  8
1
  6
Continuous
 62
     4
100
AcDbLine
 10
412.662239757886
 20
156.502157229768
 30
0.0
 11
414.162239757886
 21
156.502157229768
 31
0.0
  0
LINE
  5
188
330
1F
100
AcDbEntity
  8
1
  6
Continuous
 62
     4
100
AcDbLine
 10
411.912239757886
 20
156.252157229768
 30
0.0
 11
412.662239757886
 21
156.502157229768
 31
0.0
  0
LINE
  5
189
330
1F
100
AcDbEntity
  8
1
  6
Continuous
 62
     4
100
AcDbLine
 10
411.162239757886
 20
155.752157229768
 30
0.0
 11
411.912239757886
 21
156.252157229768
 31
0.0
  0
LINE
  5
18A
330
1F
100
AcDbEntity
  8
1
  6
Continuous
 62
     4
100
AcDbLine
 10
410.662239757886
 20
155.002157229768
 30
0.0
 11
411.162239757886
 21
155.752157229768
 31
0.0
  0
LINE
  5
18B
330
1F
100
AcDbEntity
  8
1
  6
Continuous
 62
     4
100
AcDbLine
 10
410.412239757886
 20
154.002157229768
 30
0.0
 11
410.662239757886
 21
155.002157229768
 31
0.0
  0
LINE
  5
18C
330
1F
100
AcDbEntity
  8
1
  6
Continuous
 62
     4
100
AcDbLine
 10
373.162239757886
 20
158.252157229768
 30
0.0
 11
375.912239757886
 21
160.502157229768
 31
0.0
  0
LINE
  5
18D
330
1F
100
AcDbEntity
  8
1
  6
Continuous
 62
     4
100
AcDbLine
 10
372.162239757886
 20
157.002157229768
 30
0.0
 11
373.162239757886
 21
158.252157229768
 31
0.0
  0
LINE
  5
18E
330
1F
100
AcDbEntity
  8
1
  6
Continuous
 62
     4
100
AcDbLine
 10
371.662239757886
 20
156.002157229768
 30
0.0
 11
372.162239757886
 21
157.002157229768
 31
0.0
  0
LINE
  5
18F
330
1F
100
AcDbEntity
  8
1
  6
Continuous
 62
     4
100
AcDbLine
 10
371.412239757886
 20
154.002157229768
 30
0.0
 11
371.662239757886
 21
156.002157229768
 31
0.0
  0
LINE
  5
190
330
1F
100
AcDbEntity
  8
1
  6
Continuous
 62
     4
100
AcDbLine
 10
371.412239757886
 20
153.002157229768
 30
0.0
 11
371.412239757886
 21
154.002157229768
 31
0.0
  0
LINE
  5
191
330
1F
100
AcDbEntity
  8
1
  6
Continuous
 62
     4
100
AcDbLine
 10
371.662239757886
 20
152.002157229768
 30
0.0
 11
371.412239757886
 21
153.002157229768
 31
0.0
  0
LINE
  5
192
330
1F
100
AcDbEntity
  8
1
  6
Continuous
 62
     4
100
AcDbLine
 10
372.162239757886
 20
151.252157229768
 30
0.0
 11
371.662239757886
 21
152.002157229768
 31
0.0
  0
LINE
  5
193
330
1F
100
AcDbEntity
  8
1
  6
Continuous
 62
     4
100
AcDbLine
 10
372.912239757886
 20
150.752157229768
 30
0.0
 11
372.162239757886
 21
151.252157229768
 31
0.0
  0
LINE
  5
194
330
1F
100
AcDbEntity
  8
1
  6
Continuous
 62
     4
100
AcDbLine
 10
373.662239757886
 20
150.502157229768
 30
0.0
 11
372.912239757886
 21
150.752157229768
 31
0.0
  0
LINE
  5
195
330
1F
100
AcDbEntity
  8
1
  6
Continuous
 62
     4
100
AcDbLine
 10
375.162239757886
 20
150.502157229768
 30
0.0
 11
373.662239757886
 21
150.502157229768
 31
0.0
  0
LINE
  5
196
330
1F
100
AcDbEntity
  8
1
  6
Continuous
 62
     4
100
AcDbLine
 10
375.912239757886
 20
150.752157229768
 30
0.0
 11
375.162239757886
 21
150.502157229768
 31
0.0
  0
LINE
  5
197
330
1F
100
AcDbEntity
  8
1
  6
Continuous
 62
     4
100
AcDbLine
 10
376.662239757886
 20
151.252157229768
 30
0.0
 11
375.912239757886
 21
150.752157229768
 31
0.0
  0
LINE
  5
198
330
1F
100
AcDbEntity
  8
1
  6
Continuous
 62
     4
100
AcDbLine
 10
377.162239757886
 20
152.002157229768
 30
0.0
 11
376.662239757886
 21
151.252157229768
 31
0.0
  0
LINE
  5
199
330
1F
100
AcDbEntity
  8
1
  6
Continuous
 62
     4
100
AcDbLine
 10
377.412239757886
 20
153.002157229768
 30
0.0
 11
377.162239757886
 21
152.002157229768
 31
0.0
  0
LINE
  5
19A
330
1F
100
AcDbEntity
  8
1
  6
Continuous
 62
     4
100
AcDbLine
 10
377.412239757886
 20
154.002157229768
 30
0.0
 11
377.412239757886
 21
153.002157229768
 31
0.0
  0
LINE
  5
19B
330
1F
100
AcDbEntity
  8
1
  6
Continuous
 62
     4
100
AcDbLine
 10
377.162239757886
 20
155.002157229768
 30
0.0
 11
377.412239757886
 21
154.002157229768
 31
0.0
  0
LINE
  5
19C
330
1F
100
AcDbEntity
  8
1
  6
Continuous
 62
     4
100
AcDbLine
 10
376.662239757886
 20
155.752157229768
 30
0.0
 11
377.162239757886
 21
155.002157229768
 31
0.0
  0
LINE
  5
19D
330
1F
100
AcDbEntity
  8
1
  6
Continuous
 62
     4
100
AcDbLine
 10
375.912239757886
 20
156.252157229768
 30
0.0
 11
376.662239757886
 21
155.752157229768
 31
0.0
  0
LINE
  5
19E
330
1F
100
AcDbEntity
  8
1
  6
Continuous
 62
     4
100
AcDbLine
 10
375.162239757886
 20
156.502157229768
 30
0.0
 11
375.912239757886
 21
156.252157229768
 31
0.0
  0
LINE
  5
19F
330
1F
100
AcDbEntity
  8
1
  6
Continuous
 62
     4
100
AcDbLine
 10
373.662239757886
 20
156.502157229768
 30
0.0
 11
375.162239757886
 21
156.502157229768
 31
0.0
  0
LINE
  5
1A0
330
1F
100
AcDbEntity
  8
1
  6
Continuous
 62
     4
100
AcDbLine
 10
372.912239757886
 20
156.252157229768
 30
0.0
 11
373.662239757886
 21
156.502157229768
 31
0.0
  0
LINE
  5
1A1
330
1F
100
AcDbEntity
  8
1
  6
Continuous
 62
     4
100
AcDbLine
 10
372.162239757886
 20
155.752157229768
 30
0.0
 11
372.912239757886
 21
156.252157229768
 31
0.0
  0
LINE
  5
1A2
330
1F
100
AcDbEntity
  8
1
  6
Continuous
 62
     4
100
AcDbLine
 10
371.662239757886
 20
155.002157229768
 30
0.0
 11
372.162239757886
 21
155.752157229768
 31
0.0
  0
LINE
  5
1A3
330
1F
100
AcDbEntity
  8
1
  6
Continuous
 62
     4
100
AcDbLine
 10
371.412239757886
 20
154.002157229768
 30
0.0
 11
371.662239757886
 21
155.002157229768
 31
0.0
  0
LINE
  5
1A4
330
1F
100
AcDbEntity
  8
1
  6
Continuous
 62
     4
100
AcDbLine
 10
368.662239757886
 20
151.002157229768
 30
0.0
 11
368.662239757886
 21
150.752157229768
 31
0.0
  0
LINE
  5
1A5
330
1F
100
AcDbEntity
  8
1
  6
Continuous
 62
     4
100
AcDbLine
 10
368.412239757886
 20
151.002157229768
 30
0.0
 11
368.662239757886
 21
151.002157229768
 31
0.0
  0
LINE
  5
1A6
330
1F
100
AcDbEntity
  8
1
  6
Continuous
 62
     4
100
AcDbLine
 10
368.412239757886
 20
150.752157229768
 30
0.0
 11
368.412239757886
 21
151.002157229768
 31
0.0
  0
LINE
  5
1A7
330
1F
100
AcDbEntity
  8
1
  6
Continuous
 62
     4
100
AcDbLine
 10
368.662239757886
 20
150.752157229768
 30
0.0
 11
368.412239757886
 21
150.752157229768
 31
0.0
  0
LINE
  5
1A8
330
1F
100
AcDbEntity
  8
1
  6
Continuous
 62
     4
100
AcDbLine
 10
368.912239757886
 20
151.252157229768
 30
0.0
 11
368.912239757886
 21
150.502157229768
 31
0.0
  0
LINE
  5
1A9
330
1F
100
AcDbEntity
  8
1
  6
Continuous
 62
     4
100
AcDbLine
 10
368.162239757886
 20
151.252157229768
 30
0.0
 11
368.912239757886
 21
151.252157229768
 31
0.0
  0
LINE
  5
1AA
330
1F
100
AcDbEntity
  8
1
  6
Continuous
 62
     4
100
AcDbLine
 10
368.162239757886
 20
150.502157229768
 30
0.0
 11
368.162239757886
 21
151.252157229768
 31
0.0
  0
LINE
  5
1AB
330
1F
100
AcDbEntity
  8
1
  6
Continuous
 62
     4
100
AcDbLine
 10
368.912239757886
 20
150.502157229768
 30
0.0
 11
368.162239757886
 21
150.502157229768
 31
0.0
  0
LINE
  5
1AC
330
1F
100
AcDbEntity
  8
1
  6
Continuous
 62
     4
100
AcDbLine
 10
365.162239757886
 20
156.752157229768
 30
0.0
 11
365.162239757886
 21
154.252157229768
 31
0.0
  0
LINE
  5
1AD
330
1F
100
AcDbEntity
  8
1
  6
Continuous
 62
     4
100
AcDbLine
 10
364.912239757886
 20
158.252157229768
 30
0.0
 11
365.162239757886
 21
156.752157229768
 31
0.0
  0
LINE
  5
1AE
330
1F
100
AcDbEntity
  8
1
  6
Continuous
 62
     4
100
AcDbLine
 10
364.412239757886
 20
159.252157229768
 30
0.0
 11
364.912239757886
 21
158.252157229768
 31
0.0
  0
LINE
  5
1AF
330
1F
100
AcDbEntity
  8
1
  6
Continuous
 62
     4
100
AcDbLine
 10
363.912239757886
 20
159.752157229768
 30
0.0
 11
364.412239757886
 21
159.252157229768
 31
0.0
  0
LINE
  5
1B0
330
1F
100
AcDbEntity
  8
1
  6
Continuous
 62
     4
100
AcDbLine
 10
363.162239757886
 20
160.252157229768
 30
0.0
 11
363.912239757886
 21
159.752157229768
 31
0.0
  0
LINE
  5
1B1
330
1F
100
AcDbEntity
  8
1
  6
Continuous
 62
     4
100
AcDbLine
 10
362.412239757886
 20
160.502157229768
 30
0.0
 11
363.162239757886
 21
160.252157229768
 31
0.0
  0
LINE
  5
1B2
330
1F
100
AcDbEntity
  8
1
  6
Continuous
 62
     4
100
AcDbLine
 10
361.912239757886
 20
160.502157229768
 30
0.0
 11
362.412239757886
 21
160.502157229768
 31
0.0
  0
LINE
  5
1B3
330
1F
100
AcDbEntity
  8
1
  6
Continuous
 62
     4
100
AcDbLine
 10
361.162239757886
 20
160.252157229768
 30
0.0
 11
361.912239757886
 21
160.502157229768
 31
0.0
  0
LINE
  5
1B4
330
1F
100
AcDbEntity
  8
1
  6
Continuous
 62
     4
100
AcDbLine
 10
360.412239757886
 20
159.752157229768
 30
0.0
 11
361.162239757886
 21
160.252157229768
 31
0.0
  0
LINE
  5
1B5
330
1F
100
AcDbEntity
  8
1
  6
Continuous
 62
     4
100
AcDbLine
 10
359.912239757886
 20
159.252157229768
 30
0.0
 11
360.412239757886
 21
159.752157229768
 31
0.0
  0
LINE
  5
1B6
330
1F
100
AcDbEntity
  8
1
  6
Continuous
 62
     4
100
AcDbLine
 10
359.412239757886
 20
158.252157229768
 30
0.0
 11
359.912239757886
 21
159.252157229768
 31
0.0
  0
LINE
  5
1B7
330
1F
100
AcDbEntity
  8
1
  6
Continuous
 62
     4
100
AcDbLine
 10
359.162239757886
 20
156.752157229768
 30
0.0
 11
359.412239757886
 21
158.252157229768
 31
0.0
  0
LINE
  5
1B8
330
1F
100
AcDbEntity
  8
1
  6
Continuous
 62
     4
100
AcDbLine
 10
359.162239757886
 20
154.252157229768
 30
0.0
 11
359.162239757886
 21
156.752157229768
 31
0.0
  0
LINE
  5
1B9
330
1F
100
AcDbEntity
  8
1
  6
Continuous
 62
     4
100
AcDbLine
 10
359.412239757886
 20
152.752157229768
 30
0.0
 11
359.162239757886
 21
154.252157229768
 31
0.0
  0
LINE
  5
1BA
330
1F
100
AcDbEntity
  8
1
  6
Continuous
 62
     4
100
AcDbLine
 10
359.912239757886
 20
151.752157229768
 30
0.0
 11
359.412239757886
 21
152.752157229768
 31
0.0
  0
LINE
  5
1BB
330
1F
100
AcDbEntity
  8
1
  6
Continuous
 62
     4
100
AcDbLine
 10
360.412239757886
 20
151.252157229768
 30
0.0
 11
359.912239757886
 21
151.752157229768
 31
0.0
  0
LINE
  5
1BC
330
1F
100
AcDbEntity
  8
1
  6
Continuous
 62
     4
100
AcDbLine
 10
361.162239757886
 20
150.752157229768
 30
0.0
 11
360.412239757886
 21
151.252157229768
 31
0.0
  0
LINE
  5
1BD
330
1F
100
AcDbEntity
  8
1
  6
Continuous
 62
     4
100
AcDbLine
 10
361.912239757886
 20
150.502157229768
 30
0.0
 11
361.162239757886
 21
150.752157229768
 31
0.0
  0
LINE
  5
1BE
330
1F
100
AcDbEntity
  8
1
  6
Continuous
 62
     4
100
AcDbLine
 10
362.412239757886
 20
150.502157229768
 30
0.0
 11
361.912239757886
 21
150.502157229768
 31
0.0
  0
LINE
  5
1BF
330
1F
100
AcDbEntity
  8
1
  6
Continuous
 62
     4
100
AcDbLine
 10
363.162239757886
 20
150.752157229768
 30
0.0
 11
362.412239757886
 21
150.502157229768
 31
0.0
  0
LINE
  5
1C0
330
1F
100
AcDbEntity
  8
1
  6
Continuous
 62
     4
100
AcDbLine
 10
363.912239757886
 20
151.252157229768
 30
0.0
 11
363.162239757886
 21
150.752157229768
 31
0.0
  0
LINE
  5
1C1
330
1F
100
AcDbEntity
  8
1
  6
Continuous
 62
     4
100
AcDbLine
 10
364.412239757886
 20
151.752157229768
 30
0.0
 11
363.912239757886
 21
151.252157229768
 31
0.0
  0
LINE
  5
1C2
330
1F
100
AcDbEntity
  8
1
  6
Continuous
 62
     4
100
AcDbLine
 10
364.912239757886
 20
152.752157229768
 30
0.0
 11
364.412239757886
 21
151.752157229768
 31
0.0
  0
LINE
  5
1C3
330
1F
100
AcDbEntity
  8
1
  6
Continuous
 62
     4
100
AcDbLine
 10
365.162239757886
 20
154.252157229768
 30
0.0
 11
364.912239757886
 21
152.752157229768
 31
0.0
  0
LINE
  5
1C4
330
1F
100
AcDbEntity
  8
1
  6
Continuous
 62
     4
100
AcDbLine
 10
434.412239757886
 20
173.412157229768
 30
0.0
 11
434.412239757886
 21
170.912157229768
 31
0.0
  0
LINE
  5
1C5
330
1F
100
AcDbEntity
  8
1
  6
Continuous
 62
     4
100
AcDbLine
 10
434.162239757886
 20
174.912157229768
 30
0.0
 11
434.412239757886
 21
173.412157229768
 31
0.0
  0
LINE
  5
1C6
330
1F
100
AcDbEntity
  8
1
  6
Continuous
 62
     4
100
AcDbLine
 10
433.662239757886
 20
175.912157229768
 30
0.0
 11
434.162239757886
 21
174.912157229768
 31
0.0
  0
LINE
  5
1C7
330
1F
100
AcDbEntity
  8
1
  6
Continuous
 62
     4
100
AcDbLine
 10
433.162239757886
 20
176.412157229768
 30
0.0
 11
433.662239757886
 21
175.912157229768
 31
0.0
  0
LINE
  5
1C8
330
1F
100
AcDbEntity
  8
1
  6
Continuous
 62
     4
100
AcDbLine
 10
432.412239757886
 20
176.912157229768
 30
0.0
 11
433.162239757886
 21
176.412157229768
 31
0.0
  0
LINE
  5
1C9
330
1F
100
AcDbEntity
  8
1
  6
Continuous
 62
     4
100
AcDbLine
 10
431.662239757886
 20
177.162157229768
 30
0.0
 11
432.412239757886
 21
176.912157229768
 31
0.0
  0
LINE
  5
1CA
330
1F
100
AcDbEntity
  8
1
  6
Continuous
 62
     4
100
AcDbLine
 10
431.162239757886
 20
177.162157229768
 30
0.0
 11
431.662239757886
 21
177.162157229768
 31
0.0
  0
LINE
  5
1CB
330
1F
100
AcDbEntity
  8
1
  6
Continuous
 62
     4
100
AcDbLine
 10
430.412239757886
 20
176.912157229768
 30
0.0
 11
431.162239757886
 21
177.162157229768
 31
0.0
  0
LINE
  5
1CC
330
1F
100
AcDbEntity
  8
1
  6
Continuous
 62
     4
100
AcDbLine
 10
429.662239757886
 20
176.412157229768
 30
0.0
 11
430.412239757886
 21
176.912157229768
 31
0.0
  0
LINE
  5
1CD
330
1F
100
AcDbEntity
  8
1
  6
Continuous
 62
     4
100
AcDbLine
 10
429.162239757886
 20
175.912157229768
 30
0.0
 11
429.662239757886
 21
176.412157229768
 31
0.0
  0
LINE
  5
1CE
330
1F
100
AcDbEntity
  8
1
  6
Continuous
 62
     4
100
AcDbLine
 10
428.662239757886
 20
174.912157229768
 30
0.0
 11
429.162239757886
 21
175.912157229768
 31
0.0
  0
LINE
  5
1CF
330
1F
100
AcDbEntity
  8
1
  6
Continuous
 62
     4
100
AcDbLine
 10
428.412239757886
 20
173.412157229768
 30
0.0
 11
428.662239757886
 21
174.912157229768
 31
0.0
  0
LINE
  5
1D0
330
1F
100
AcDbEntity
  8
1
  6
Continuous
 62
     4
100
AcDbLine
 10
428.412239757886
 20
170.912157229768
 30
0.0
 11
428.412239757886
 21
173.412157229768
 31
0.0
  0
LINE
  5
1D1
330
1F
100
AcDbEntity
  8
1
  6
Continuous
 62
     4
100
AcDbLine
 10
428.662239757886
 20
169.412157229768
 30
0.0
 11
428.412239757886
 21
170.912157229768
 31
0.0
  0
LINE
  5
1D2
330
1F
100
AcDbEntity
  8
1
  6
Continuous
 62
     4
100
AcDbLine
 10
429.162239757886
 20
168.412157229768
 30
0.0
 11
428.662239757886
 21
169.412157229768
 31
0.0
  0
LINE
  5
1D3
330
1F
100
AcDbEntity
  8
1
  6
Continuous
 62
     4
100
AcDbLine
 10
429.662239757886
 20
167.912157229768
 30
0.0
 11
429.162239757886
 21
168.412157229768
 31
0.0
  0
LINE
  5
1D4
330
1F
100
AcDbEntity
  8
1
  6
Continuous
 62
     4
100
AcDbLine
 10
430.412239757886
 20
167.412157229768
 30
0.0
 11
429.662239757886
 21
167.912157229768
 31
0.0
  0
LINE
  5
1D5
330
1F
100
AcDbEntity
  8
1
  6
Continuous
 62
     4
100
AcDbLine
 10
431.162239757886
 20
167.162157229768
 30
0.0
 11
430.412239757886
 21
167.412157229768
 31
0.0
  0
LINE
  5
1D6
330
1F
100
AcDbEntity
  8
1
  6
Continuous
 62
     4
100
AcDbLine
 10
431.662239757886
 20
167.162157229768
 30
0.0
 11
431.162239757886
 21
167.162157229768
 31
0.0
  0
LINE
  5
1D7
330
1F
100
AcDbEntity
  8
1
  6
Continuous
 62
     4
100
AcDbLine
 10
432.412239757886
 20
167.412157229768
 30
0.0
 11
431.662239757886
 21
167.162157229768
 31
0.0
  0
LINE
  5
1D8
330
1F
100
AcDbEntity
  8
1
  6
Continuous
 62
     4
100
AcDbLine
 10
433.162239757886
 20
167.912157229768
 30
0.0
 11
432.412239757886
 21
167.412157229768
 31
0.0
  0
LINE
  5
1D9
330
1F
100
AcDbEntity
  8
1
  6
Continuous
 62
     4
100
AcDbLine
 10
433.662239757886
 20
168.412157229768
 30
0.0
 11
433.162239757886
 21
167.912157229768
 31
0.0
  0
LINE
  5
1DA
330
1F
100
AcDbEntity
  8
1
  6
Continuous
 62
     4
100
AcDbLine
 10
434.162239757886
 20
169.412157229768
 30
0.0
 11
433.662239757886
 21
168.412157229768
 31
0.0
  0
LINE
  5
1DB
330
1F
100
AcDbEntity
  8
1
  6
Continuous
 62
     4
100
AcDbLine
 10
434.412239757886
 20
170.912157229768
 30
0.0
 11
434.162239757886
 21
169.412157229768
 31
0.0
  0
LINE
  5
1DC
330
1F
100
AcDbEntity
  8
1
  6
Continuous
 62
     4
100
AcDbLine
 10
425.412239757886
 20
173.412157229768
 30
0.0
 11
425.412239757886
 21
170.912157229768
 31
0.0
  0
LINE
  5
1DD
330
1F
100
AcDbEntity
  8
1
  6
Continuous
 62
     4
100
AcDbLine
 10
425.162239757886
 20
174.912157229768
 30
0.0
 11
425.412239757886
 21
173.412157229768
 31
0.0
  0
LINE
  5
1DE
330
1F
100
AcDbEntity
  8
1
  6
Continuous
 62
     4
100
AcDbLine
 10
424.662239757886
 20
175.912157229768
 30
0.0
 11
425.162239757886
 21
174.912157229768
 31
0.0
  0
LINE
  5
1DF
330
1F
100
AcDbEntity
  8
1
  6
Continuous
 62
     4
100
AcDbLine
 10
424.162239757886
 20
176.412157229768
 30
0.0
 11
424.662239757886
 21
175.912157229768
 31
0.0
  0
LINE
  5
1E0
330
1F
100
AcDbEntity
  8
1
  6
Continuous
 62
     4
100
AcDbLine
 10
423.412239757886
 20
176.912157229768
 30
0.0
 11
424.162239757886
 21
176.412157229768
 31
0.0
  0
LINE
  5
1E1
330
1F
100
AcDbEntity
  8
1
  6
Continuous
 62
     4
100
AcDbLine
 10
422.662239757886
 20
177.162157229768
 30
0.0
 11
423.412239757886
 21
176.912157229768
 31
0.0
  0
LINE
  5
1E2
330
1F
100
AcDbEntity
  8
1
  6
Continuous
 62
     4
100
AcDbLine
 10
422.162239757886
 20
177.162157229768
 30
0.0
 11
422.662239757886
 21
177.162157229768
 31
0.0
  0
LINE
  5
1E3
330
1F
100
AcDbEntity
  8
1
  6
Continuous
 62
     4
100
AcDbLine
 10
421.412239757886
 20
176.912157229768
 30
0.0
 11
422.162239757886
 21
177.162157229768
 31
0.0
  0
LINE
  5
1E4
330
1F
100
AcDbEntity
  8
1
  6
Continuous
 62
     4
100
AcDbLine
 10
420.662239757886
 20
176.412157229768
 30
0.0
 11
421.412239757886
 21
176.912157229768
 31
0.0
  0
LINE
  5
1E5
330
1F
100
AcDbEntity
  8
1
  6
Continuous
 62
     4
100
AcDbLine
 10
420.162239757886
 20
175.912157229768
 30
0.0
 11
420.662239757886
 21
176.412157229768
 31
0.0
  0
LINE
  5
1E6
330
1F
100
AcDbEntity
  8
1
  6
Continuous
 62
     4
100
AcDbLine
 10
419.662239757886
 20
174.912157229768
 30
0.0
 11
420.162239757886
 21
175.912157229768
 31
0.0
  0
LINE
  5
1E7
330
1F
100
AcDbEntity
  8
1
  6
Continuous
 62
     4
100
AcDbLine
 10
419.412239757886
 20
173.412157229768
 30
0.0
 11
419.662239757886
 21
174.912157229768
 31
0.0
  0
LINE
  5
1E8
330
1F
100
AcDbEntity
  8
1
  6
Continuous
 62
     4
100
AcDbLine
 10
419.412239757886
 20
170.912157229768
 30
0.0
 11
419.412239757886
 21
173.412157229768
 31
0.0
  0
LINE
  5
1E9
330
1F
100
AcDbEntity
  8
1
  6
Continuous
 62
     4
100
AcDbLine
 10
419.662239757886
 20
169.412157229768
 30
0.0
 11
419.412239757886
 21
170.912157229768
 31
0.0
  0
LINE
  5
1EA
330
1F
100
AcDbEntity
  8
1
  6
Continuous
 62
     4
100
AcDbLine
 10
420.162239757886
 20
168.412157229768
 30
0.0
 11
419.662239757886
 21
169.412157229768
 31
0.0
  0
LINE
  5
1EB
330
1F
100
AcDbEntity
  8
1
  6
Continuous
 62
     4
100
AcDbLine
 10
420.662239757886
 20
167.912157229768
 30
0.0
 11
420.162239757886
 21
168.412157229768
 31
0.0
  0
LINE
  5
1EC
330
1F
100
AcDbEntity
  8
1
  6
Continuous
 62
     4
100
AcDbLine
 10
421.412239757886
 20
167.412157229768
 30
0.0
 11
420.662239757886
 21
167.912157229768
 31
0.0
  0
LINE
  5
1ED
330
1F
100
AcDbEntity
  8
1
  6
Continuous
 62
     4
100
AcDbLine
 10
422.162239757886
 20
167.162157229768
 30
0.0
 11
421.412239757886
 21
167.412157229768
 31
0.0
  0
LINE
  5
1EE
330
1F
100
AcDbEntity
  8
1
  6
Continuous
 62
     4
100
AcDbLine
 10
422.662239757886
 20
167.162157229768
 30
0.0
 11
422.162239757886
 21
167.162157229768
 31
0.0
  0
LINE
  5
1EF
330
1F
100
AcDbEntity
  8
1
  6
Continuous
 62
     4
100
AcDbLine
 10
423.412239757886
 20
167.412157229768
 30
0.0
 11
422.662239757886
 21
167.162157229768
 31
0.0
  0
LINE
  5
1F0
330
1F
100
AcDbEntity
  8
1
  6
Continuous
 62
     4
100
AcDbLine
 10
424.162239757886
 20
167.912157229768
 30
0.0
 11
423.412239757886
 21
167.412157229768
 31
0.0
  0
LINE
  5
1F1
330
1F
100
AcDbEntity
  8
1
  6
Continuous
 62
     4
100
AcDbLine
 10
424.662239757886
 20
168.412157229768
 30
0.0
 11
424.162239757886
 21
167.912157229768
 31
0.0
  0
LINE
  5
1F2
330
1F
100
AcDbEntity
  8
1
  6
Continuous
 62
     4
100
AcDbLine
 10
425.162239757886
 20
169.412157229768
 30
0.0
 11
424.662239757886
 21
168.412157229768
 31
0.0
  0
LINE
  5
1F3
330
1F
100
AcDbEntity
  8
1
  6
Continuous
 62
     4
100
AcDbLine
 10
425.412239757886
 20
170.912157229768
 30
0.0
 11
425.162239757886
 21
169.412157229768
 31
0.0
  0
LINE
  5
1F4
330
1F
100
AcDbEntity
  8
1
  6
Continuous
 62
     4
100
AcDbLine
 10
414.912239757886
 20
171.162157229768
 30
0.0
 11
414.912239757886
 21
167.162157229768
 31
0.0
  0
LINE
  5
1F5
330
1F
100
AcDbEntity
  8
1
  6
Continuous
 62
     4
100
AcDbLine
 10
410.412239757886
 20
169.162157229768
 30
0.0
 11
416.412239757886
 21
169.162157229768
 31
0.0
  0
LINE
  5
1F6
330
1F
100
AcDbEntity
  8
1
  6
Continuous
 62
     4
100
AcDbLine
 10
414.912239757886
 20
177.162157229768
 30
0.0
 11
410.412239757886
 21
169.162157229768
 31
0.0
  0
LINE
  5
1F7
330
1F
100
AcDbEntity
  8
1
  6
Continuous
 62
     4
100
AcDbLine
 10
375.912239757886
 20
171.162157229768
 30
0.0
 11
375.912239757886
 21
167.162157229768
 31
0.0
  0
LINE
  5
1F8
330
1F
100
AcDbEntity
  8
1
  6
Continuous
 62
     4
100
AcDbLine
 10
371.412239757886
 20
169.162157229768
 30
0.0
 11
377.412239757886
 21
169.162157229768
 31
0.0
  0
LINE
  5
1F9
330
1F
100
AcDbEntity
  8
1
  6
Continuous
 62
     4
100
AcDbLine
 10
375.912239757886
 20
177.162157229768
 30
0.0
 11
371.412239757886
 21
169.162157229768
 31
0.0
  0
LINE
  5
1FA
330
1F
100
AcDbEntity
  8
1
  6
Continuous
 62
     4
100
AcDbLine
 10
368.662239757886
 20
167.662157229768
 30
0.0
 11
368.662239757886
 21
167.412157229768
 31
0.0
  0
LINE
  5
1FB
330
1F
100
AcDbEntity
  8
1
  6
Continuous
 62
     4
100
AcDbLine
 10
368.412239757886
 20
167.662157229768
 30
0.0
 11
368.662239757886
 21
167.662157229768
 31
0.0
  0
LINE
  5
1FC
330
1F
100
AcDbEntity
  8
1
  6
Continuous
 62
     4
100
AcDbLine
 10
368.412239757886
 20
167.412157229768
 30
0.0
 11
368.412239757886
 21
167.662157229768
 31
0.0
  0
LINE
  5
1FD
330
1F
100
AcDbEntity
  8
1
  6
Continuous
 62
     4
100
AcDbLine
 10
368.662239757886
 20
167.412157229768
 30
0.0
 11
368.412239757886
 21
167.412157229768
 31
0.0
  0
LINE
  5
1FE
330
1F
100
AcDbEntity
  8
1
  6
Continuous
 62
     4
100
AcDbLine
 10
368.912239757886
 20
167.912157229768
 30
0.0
 11
368.912239757886
 21
167.162157229768
 31
0.0
  0
LINE
  5
1FF
330
1F
100
AcDbEntity
  8
1
  6
Continuous
 62
     4
100
AcDbLine
 10
368.162239757886
 20
167.912157229768
 30
0.0
 11
368.912239757886
 21
167.912157229768
 31
0.0
  0
LINE
  5
200
330
1F
100
AcDbEntity
  8
1
  6
Continuous
 62
     4
100
AcDbLine
 10
368.162239757886
 20
167.162157229768
 30
0.0
 11
368.162239757886
 21
167.912157229768
 31
0.0
  0
LINE
  5
201
330
1F
100
AcDbEntity
  8
1
  6
Continuous
 62
     4
100
AcDbLine
 10
368.912239757886
 20
167.162157229768
 30
0.0
 11
368.162239757886
 21
167.162157229768
 31
0.0
  0
LINE
  5
202
330
1F
100
AcDbEntity
  8
1
  6
Continuous
 62
     4
100
AcDbLine
 10
365.162239757886
 20
173.412157229768
 30
0.0
 11
365.162239757886
 21
170.912157229768
 31
0.0
  0
LINE
  5
203
330
1F
100
AcDbEntity
  8
1
  6
Continuous
 62
     4
100
AcDbLine
 10
364.912239757886
 20
174.912157229768
 30
0.0
 11
365.162239757886
 21
173.412157229768
 31
0.0
  0
LINE
  5
204
330
1F
100
AcDbEntity
  8
1
  6
Continuous
 62
     4
100
AcDbLine
 10
364.412239757886
 20
175.912157229768
 30
0.0
 11
364.912239757886
 21
174.912157229768
 31
0.0
  0
LINE
  5
205
330
1F
100
AcDbEntity
  8
1
  6
Continuous
 62
     4
100
AcDbLine
 10
363.912239757886
 20
176.412157229768
 30
0.0
 11
364.412239757886
 21
175.912157229768
 31
0.0
  0
LINE
  5
206
330
1F
100
AcDbEntity
  8
1
  6
Continuous
 62
     4
100
AcDbLine
 10
363.162239757886
 20
176.912157229768
 30
0.0
 11
363.912239757886
 21
176.412157229768
 31
0.0
  0
LINE
  5
207
330
1F
100
AcDbEntity
  8
1
  6
Continuous
 62
     4
100
AcDbLine
 10
362.412239757886
 20
177.162157229768
 30
0.0
 11
363.162239757886
 21
176.912157229768
 31
0.0
  0
LINE
  5
208
330
1F
100
AcDbEntity
  8
1
  6
Continuous
 62
     4
100
AcDbLine
 10
361.912239757886
 20
177.162157229768
 30
0.0
 11
362.412239757886
 21
177.162157229768
 31
0.0
  0
LINE
  5
209
330
1F
100
AcDbEntity
  8
1
  6
Continuous
 62
     4
100
AcDbLine
 10
361.162239757886
 20
176.912157229768
 30
0.0
 11
361.912239757886
 21
177.162157229768
 31
0.0
  0
LINE
  5
20A
330
1F
100
AcDbEntity
  8
1
  6
Continuous
 62
     4
100
AcDbLine
 10
360.412239757886
 20
176.412157229768
 30
0.0
 11
361.162239757886
 21
176.912157229768
 31
0.0
  0
LINE
  5
20B
330
1F
100
AcDbEntity
  8
1
  6
Continuous
 62
     4
100
AcDbLine
 10
359.912239757886
 20
175.912157229768
 30
0.0
 11
360.412239757886
 21
176.412157229768
 31
0.0
  0
LINE
  5
20C
330
1F
100
AcDbEntity
  8
1
  6
Continuous
 62
     4
100
AcDbLine
 10
359.412239757886
 20
174.912157229768
 30
0.0
 11
359.912239757886
 21
175.912157229768
 31
0.0
  0
LINE
  5
20D
330
1F
100
AcDbEntity
  8
1
  6
Continuous
 62
     4
100
AcDbLine
 10
359.162239757886
 20
173.412157229768
 30
0.0
 11
359.412239757886
 21
174.912157229768
 31
0.0
  0
LINE
  5
20E
330
1F
100
AcDbEntity
  8
1
  6
Continuous
 62
     4
100
AcDbLine
 10
359.162239757886
 20
170.912157229768
 30
0.0
 11
359.162239757886
 21
173.412157229768
 31
0.0
  0
LINE
  5
20F
330
1F
100
AcDbEntity
  8
1
  6
Continuous
 62
     4
100
AcDbLine
 10
359.412239757886
 20
169.412157229768
 30
0.0
 11
359.162239757886
 21
170.912157229768
 31
0.0
  0
LINE
  5
210
330
1F
100
AcDbEntity
  8
1
  6
Continuous
 62
     4
100
AcDbLine
 10
359.912239757886
 20
168.412157229768
 30
0.0
 11
359.412239757886
 21
169.412157229768
 31
0.0
  0
LINE
  5
211
330
1F
100
AcDbEntity
  8
1
  6
Continuous
 62
     4
100
AcDbLine
 10
360.412239757886
 20
167.912157229768
 30
0.0
 11
359.912239757886
 21
168.412157229768
 31
0.0
  0
LINE
  5
212
330
1F
100
AcDbEntity
  8
1
  6
Continuous
 62
     4
100
AcDbLine
 10
361.162239757886
 20
167.412157229768
 30
0.0
 11
360.412239757886
 21
167.912157229768
 31
0.0
  0
LINE
  5
213
330
1F
100
AcDbEntity
  8
1
  6
Continuous
 62
     4
100
AcDbLine
 10
361.912239757886
 20
167.162157229768
 30
0.0
 11
361.162239757886
 21
167.412157229768
 31
0.0
  0
LINE
  5
214
330
1F
100
AcDbEntity
  8
1
  6
Continuous
 62
     4
100
AcDbLine
 10
362.412239757886
 20
167.162157229768
 30
0.0
 11
361.912239757886
 21
167.162157229768
 31
0.0
  0
LINE
  5
215
330
1F
100
AcDbEntity
  8
1
  6
Continuous
 62
     4
100
AcDbLine
 10
363.162239757886
 20
167.412157229768
 30
0.0
 11
362.412239757886
 21
167.162157229768
 31
0.0
  0
LINE
  5
216
330
1F
100
AcDbEntity
  8
1
  6
Continuous
 62
     4
100
AcDbLine
 10
363.912239757886
 20
167.912157229768
 30
0.0
 11
363.162239757886
 21
167.412157229768
 31
0.0
  0
LINE
  5
217
330
1F
100
AcDbEntity
  8
1
  6
Continuous
 62
     4
100
AcDbLine
 10
364.412239757886
 20
168.412157229768
 30
0.0
 11
363.912239757886
 21
167.912157229768
 31
0.0
  0
LINE
  5
218
330
1F
100
AcDbEntity
  8
1
  6
Continuous
 62
     4
100
AcDbLine
 10
364.912239757886
 20
169.412157229768
 30
0.0
 11
364.412239757886
 21
168.412157229768
 31
0.0
  0
LINE
  5
219
330
1F
100
AcDbEntity
  8
1
  6
Continuous
 62
     4
100
AcDbLine
 10
365.162239757886
 20
170.912157229768
 30
0.0
 11
364.912239757886
 21
169.412157229768
 31
0.0
  0
LINE
  5
21A
330
1F
100
AcDbEntity
  8
1
  6
Continuous
 62
     4
100
AcDbLine
 10
434.412239757886
 20
190.072157229768
 30
0.0
 11
434.412239757886
 21
187.572157229768
 31
0.0
  0
LINE
  5
21B
330
1F
100
AcDbEntity
  8
1
  6
Continuous
 62
     4
100
AcDbLine
 10
434.162239757886
 20
191.572157229768
 30
0.0
 11
434.412239757886
 21
190.072157229768
 31
0.0
  0
LINE
  5
21C
330
1F
100
AcDbEntity
  8
1
  6
Continuous
 62
     4
100
AcDbLine
 10
433.662239757886
 20
192.572157229768
 30
0.0
 11
434.162239757886
 21
191.572157229768
 31
0.0
  0
LINE
  5
21D
330
1F
100
AcDbEntity
  8
1
  6
Continuous
 62
     4
100
AcDbLine
 10
433.162239757886
 20
193.072157229768
 30
0.0
 11
433.662239757886
 21
192.572157229768
 31
0.0
  0
LINE
  5
21E
330
1F
100
AcDbEntity
  8
1
  6
Continuous
 62
     4
100
AcDbLine
 10
432.412239757886
 20
193.572157229768
 30
0.0
 11
433.162239757886
 21
193.072157229768
 31
0.0
  0
LINE
  5
21F
330
1F
100
AcDbEntity
  8
1
  6
Continuous
 62
     4
100
AcDbLine
 10
431.662239757886
 20
193.822157229768
 30
0.0
 11
432.412239757886
 21
193.572157229768
 31
0.0
  0
LINE
  5
220
330
1F
100
AcDbEntity
  8
1
  6
Continuous
 62
     4
100
AcDbLine
 10
431.162239757886
 20
193.822157229768
 30
0.0
 11
431.662239757886
 21
193.822157229768
 31
0.0
  0
LINE
  5
221
330
1F
100
AcDbEntity
  8
1
  6
Continuous
 62
     4
100
AcDbLine
 10
430.412239757886
 20
193.572157229768
 30
0.0
 11
431.162239757886
 21
193.822157229768
 31
0.0
  0
LINE
  5
222
330
1F
100
AcDbEntity
  8
1
  6
Continuous
 62
     4
100
AcDbLine
 10
429.662239757886
 20
193.072157229768
 30
0.0
 11
430.412239757886
 21
193.572157229768
 31
0.0
  0
LINE
  5
223
330
1F
100
AcDbEntity
  8
1
  6
Continuous
 62
     4
100
AcDbLine
 10
429.162239757886
 20
192.572157229768
 30
0.0
 11
429.662239757886
 21
193.072157229768
 31
0.0
  0
LINE
  5
224
330
1F
100
AcDbEntity
  8
1
  6
Continuous
 62
     4
100
AcDbLine
 10
428.662239757886
 20
191.572157229768
 30
0.0
 11
429.162239757886
 21
192.572157229768
 31
0.0
  0
LINE
  5
225
330
1F
100
AcDbEntity
  8
1
  6
Continuous
 62
     4
100
AcDbLine
 10
428.412239757886
 20
190.072157229768
 30
0.0
 11
428.662239757886
 21
191.572157229768
 31
0.0
  0
LINE
  5
226
330
1F
100
AcDbEntity
  8
1
  6
Continuous
 62
     4
100
AcDbLine
 10
428.412239757886
 20
187.572157229768
 30
0.0
 11
428.412239757886
 21
190.072157229768
 31
0.0
  0
LINE
  5
227
330
1F
100
AcDbEntity
  8
1
  6
Continuous
 62
     4
100
AcDbLine
 10
428.662239757886
 20
186.072157229768
 30
0.0
 11
428.412239757886
 21
187.572157229768
 31
0.0
  0
LINE
  5
228
330
1F
100
AcDbEntity
  8
1
  6
Continuous
 62
     4
100
AcDbLine
 10
429.162239757886
 20
185.072157229768
 30
0.0
 11
428.662239757886
 21
186.072157229768
 31
0.0
  0
LINE
  5
229
330
1F
100
AcDbEntity
  8
1
  6
Continuous
 62
     4
100
AcDbLine
 10
429.662239757886
 20
184.572157229768
 30
0.0
 11
429.162239757886
 21
185.072157229768
 31
0.0
  0
LINE
  5
22A
330
1F
100
AcDbEntity
  8
1
  6
Continuous
 62
     4
100
AcDbLine
 10
430.412239757886
 20
184.072157229768
 30
0.0
 11
429.662239757886
 21
184.572157229768
 31
0.0
  0
LINE
  5
22B
330
1F
100
AcDbEntity
  8
1
  6
Continuous
 62
     4
100
AcDbLine
 10
431.162239757886
 20
183.822157229768
 30
0.0
 11
430.412239757886
 21
184.072157229768
 31
0.0
  0
LINE
  5
22C
330
1F
100
AcDbEntity
  8
1
  6
Continuous
 62
     4
100
AcDbLine
 10
431.662239757886
 20
183.822157229768
 30
0.0
 11
431.162239757886
 21
183.822157229768
 31
0.0
  0
LINE
  5
22D
330
1F
100
AcDbEntity
  8
1
  6
Continuous
 62
     4
100
AcDbLine
 10
432.412239757886
 20
184.072157229768
 30
0.0
 11
431.662239757886
 21
183.822157229768
 31
0.0
  0
LINE
  5
22E
330
1F
100
AcDbEntity
  8
1
  6
Continuous
 62
     4
100
AcDbLine
 10
433.162239757886
 20
184.572157229768
 30
0.0
 11
432.412239757886
 21
184.072157229768
 31
0.0
  0
LINE
  5
22F
330
1F
100
AcDbEntity
  8
1
  6
Continuous
 62
     4
100
AcDbLine
 10
433.662239757886
 20
185.072157229768
 30
0.0
 11
433.162239757886
 21
184.572157229768
 31
0.0
  0
LINE
  5
230
330
1F
100
AcDbEntity
  8
1
  6
Continuous
 62
     4
100
AcDbLine
 10
434.162239757886
 20
186.072157229768
 30
0.0
 11
433.662239757886
 21
185.072157229768
 31
0.0
  0
LINE
  5
231
330
1F
100
AcDbEntity
  8
1
  6
Continuous
 62
     4
100
AcDbLine
 10
434.412239757886
 20
187.572157229768
 30
0.0
 11
434.162239757886
 21
186.072157229768
 31
0.0
  0
LINE
  5
232
330
1F
100
AcDbEntity
  8
1
  6
Continuous
 62
     4
100
AcDbLine
 10
425.412239757886
 20
190.072157229768
 30
0.0
 11
425.412239757886
 21
187.572157229768
 31
0.0
  0
LINE
  5
233
330
1F
100
AcDbEntity
  8
1
  6
Continuous
 62
     4
100
AcDbLine
 10
425.162239757886
 20
191.572157229768
 30
0.0
 11
425.412239757886
 21
190.072157229768
 31
0.0
  0
LINE
  5
234
330
1F
100
AcDbEntity
  8
1
  6
Continuous
 62
     4
100
AcDbLine
 10
424.662239757886
 20
192.572157229768
 30
0.0
 11
425.162239757886
 21
191.572157229768
 31
0.0
  0
LINE
  5
235
330
1F
100
AcDbEntity
  8
1
  6
Continuous
 62
     4
100
AcDbLine
 10
424.162239757886
 20
193.072157229768
 30
0.0
 11
424.662239757886
 21
192.572157229768
 31
0.0
  0
LINE
  5
236
330
1F
100
AcDbEntity
  8
1
  6
Continuous
 62
     4
100
AcDbLine
 10
423.412239757886
 20
193.572157229768
 30
0.0
 11
424.162239757886
 21
193.072157229768
 31
0.0
  0
LINE
  5
237
330
1F
100
AcDbEntity
  8
1
  6
Continuous
 62
     4
100
AcDbLine
 10
422.662239757886
 20
193.822157229768
 30
0.0
 11
423.412239757886
 21
193.572157229768
 31
0.0
  0
LINE
  5
238
330
1F
100
AcDbEntity
  8
1
  6
Continuous
 62
     4
100
AcDbLine
 10
422.162239757886
 20
193.822157229768
 30
0.0
 11
422.662239757886
 21
193.822157229768
 31
0.0
  0
LINE
  5
239
330
1F
100
AcDbEntity
  8
1
  6
Continuous
 62
     4
100
AcDbLine
 10
421.412239757886
 20
193.572157229768
 30
0.0
 11
422.162239757886
 21
193.822157229768
 31
0.0
  0
LINE
  5
23A
330
1F
100
AcDbEntity
  8
1
  6
Continuous
 62
     4
100
AcDbLine
 10
420.662239757886
 20
193.072157229768
 30
0.0
 11
421.412239757886
 21
193.572157229768
 31
0.0
  0
LINE
  5
23B
330
1F
100
AcDbEntity
  8
1
  6
Continuous
 62
     4
100
AcDbLine
 10
420.162239757886
 20
192.572157229768
 30
0.0
 11
420.662239757886
 21
193.072157229768
 31
0.0
  0
LINE
  5
23C
330
1F
100
AcDbEntity
  8
1
  6
Continuous
 62
     4
100
AcDbLine
 10
419.662239757886
 20
191.572157229768
 30
0.0
 11
420.162239757886
 21
192.572157229768
 31
0.0
  0
LINE
  5
23D
330
1F
100
AcDbEntity
  8
1
  6
Continuous
 62
     4
100
AcDbLine
 10
419.412239757886
 20
190.072157229768
 30
0.0
 11
419.662239757886
 21
191.572157229768
 31
0.0
  0
LINE
  5
23E
330
1F
100
AcDbEntity
  8
1
  6
Continuous
 62
     4
100
AcDbLine
 10
419.412239757886
 20
187.572157229768
 30
0.0
 11
419.412239757886
 21
190.072157229768
 31
0.0
  0
LINE
  5
23F
330
1F
100
AcDbEntity
  8
1
  6
Continuous
 62
     4
100
AcDbLine
 10
419.662239757886
 20
186.072157229768
 30
0.0
 11
419.412239757886
 21
187.572157229768
 31
0.0
  0
LINE
  5
240
330
1F
100
AcDbEntity
  8
1
  6
Continuous
 62
     4
100
AcDbLine
 10
420.162239757886
 20
185.072157229768
 30
0.0
 11
419.662239757886
 21
186.072157229768
 31
0.0
  0
LINE
  5
241
330
1F
100
AcDbEntity
  8
1
  6
Continuous
 62
     4
100
AcDbLine
 10
420.662239757886
 20
184.572157229768
 30
0.0
 11
420.162239757886
 21
185.072157229768
 31
0.0
  0
LINE
  5
242
330
1F
100
AcDbEntity
  8
1
  6
Continuous
 62
     4
100
AcDbLine
 10
421.412239757886
 20
184.072157229768
 30
0.0
 11
420.662239757886
 21
184.572157229768
 31
0.0
  0
LINE
  5
243
330
1F
100
AcDbEntity
  8
1
  6
Continuous
 62
     4
100
AcDbLine
 10
422.162239757886
 20
183.822157229768
 30
0.0
 11
421.412239757886
 21
184.072157229768
 31
0.0
  0
LINE
  5
244
330
1F
100
AcDbEntity
  8
1
  6
Continuous
 62
     4
100
AcDbLine
 10
422.662239757886
 20
183.822157229768
 30
0.0
 11
422.162239757886
 21
183.822157229768
 31
0.0
  0
LINE
  5
245
330
1F
100
AcDbEntity
  8
1
  6
Continuous
 62
     4
100
AcDbLine
 10
423.412239757886
 20
184.072157229768
 30
0.0
 11
422.662239757886
 21
183.822157229768
 31
0.0
  0
LINE
  5
246
330
1F
100
AcDbEntity
  8
1
  6
Continuous
 62
     4
100
AcDbLine
 10
424.162239757886
 20
184.572157229768
 30
0.0
 11
423.412239757886
 21
184.072157229768
 31
0.0
  0
LINE
  5
247
330
1F
100
AcDbEntity
  8
1
  6
Continuous
 62
     4
100
AcDbLine
 10
424.662239757886
 20
185.072157229768
 30
0.0
 11
424.162239757886
 21
184.572157229768
 31
0.0
  0
LINE
  5
248
330
1F
100
AcDbEntity
  8
1
  6
Continuous
 62
     4
100
AcDbLine
 10
425.162239757886
 20
186.072157229768
 30
0.0
 11
424.662239757886
 21
185.072157229768
 31
0.0
  0
LINE
  5
249
330
1F
100
AcDbEntity
  8
1
  6
Continuous
 62
     4
100
AcDbLine
 10
425.412239757886
 20
187.572157229768
 30
0.0
 11
425.162239757886
 21
186.072157229768
 31
0.0
  0
LINE
  5
24A
330
1F
100
AcDbEntity
  8
1
  6
Continuous
 62
     4
100
AcDbLine
 10
414.162239757886
 20
183.822157229768
 30
0.0
 11
410.412239757886
 21
183.822157229768
 31
0.0
  0
LINE
  5
24B
330
1F
100
AcDbEntity
  8
1
  6
Continuous
 62
     4
100
AcDbLine
 10
414.912239757886
 20
184.072157229768
 30
0.0
 11
414.162239757886
 21
183.822157229768
 31
0.0
  0
LINE
  5
24C
330
1F
100
AcDbEntity
  8
1
  6
Continuous
 62
     4
100
AcDbLine
 10
415.662239757886
 20
184.572157229768
 30
0.0
 11
414.912239757886
 21
184.072157229768
 31
0.0
  0
LINE
  5
24D
330
1F
100
AcDbEntity
  8
1
  6
Continuous
 62
     4
100
AcDbLine
 10
416.162239757886
 20
185.322157229768
 30
0.0
 11
415.662239757886
 21
184.572157229768
 31
0.0
  0
LINE
  5
24E
330
1F
100
AcDbEntity
  8
1
  6
Continuous
 62
     4
100
AcDbLine
 10
416.412239757886
 20
186.322157229768
 30
0.0
 11
416.162239757886
 21
185.322157229768
 31
0.0
  0
LINE
  5
24F
330
1F
100
AcDbEntity
  8
1
  6
Continuous
 62
     4
100
AcDbLine
 10
416.412239757886
 20
187.572157229768
 30
0.0
 11
416.412239757886
 21
186.322157229768
 31
0.0
  0
LINE
  5
250
330
1F
100
AcDbEntity
  8
1
  6
Continuous
 62
     4
100
AcDbLine
 10
416.162239757886
 20
188.572157229768
 30
0.0
 11
416.412239757886
 21
187.572157229768
 31
0.0
  0
LINE
  5
251
330
1F
100
AcDbEntity
  8
1
  6
Continuous
 62
     4
100
AcDbLine
 10
415.912239757886
 20
189.072157229768
 30
0.0
 11
416.162239757886
 21
188.572157229768
 31
0.0
  0
LINE
  5
252
330
1F
100
AcDbEntity
  8
1
  6
Continuous
 62
     4
100
AcDbLine
 10
415.412239757886
 20
189.572157229768
 30
0.0
 11
415.912239757886
 21
189.072157229768
 31
0.0
  0
LINE
  5
253
330
1F
100
AcDbEntity
  8
1
  6
Continuous
 62
     4
100
AcDbLine
 10
414.412239757886
 20
189.822157229768
 30
0.0
 11
415.412239757886
 21
189.572157229768
 31
0.0
  0
LINE
  5
254
330
1F
100
AcDbEntity
  8
1
  6
Continuous
 62
     4
100
AcDbLine
 10
415.162239757886
 20
190.072157229768
 30
0.0
 11
414.412239757886
 21
189.822157229768
 31
0.0
  0
LINE
  5
255
330
1F
100
AcDbEntity
  8
1
  6
Continuous
 62
     4
100
AcDbLine
 10
415.662239757886
 20
190.322157229768
 30
0.0
 11
415.162239757886
 21
190.072157229768
 31
0.0
  0
LINE
  5
256
330
1F
100
AcDbEntity
  8
1
  6
Continuous
 62
     4
100
AcDbLine
 10
416.162239757886
 20
190.822157229768
 30
0.0
 11
415.662239757886
 21
190.322157229768
 31
0.0
  0
LINE
  5
257
330
1F
100
AcDbEntity
  8
1
  6
Continuous
 62
     4
100
AcDbLine
 10
416.412239757886
 20
191.572157229768
 30
0.0
 11
416.162239757886
 21
190.822157229768
 31
0.0
  0
LINE
  5
258
330
1F
100
AcDbEntity
  8
1
  6
Continuous
 62
     4
100
AcDbLine
 10
416.412239757886
 20
192.322157229768
 30
0.0
 11
416.412239757886
 21
191.572157229768
 31
0.0
  0
LINE
  5
259
330
1F
100
AcDbEntity
  8
1
  6
Continuous
 62
     4
100
AcDbLine
 10
416.162239757886
 20
193.072157229768
 30
0.0
 11
416.412239757886
 21
192.322157229768
 31
0.0
  0
LINE
  5
25A
330
1F
100
AcDbEntity
  8
1
  6
Continuous
 62
     4
100
AcDbLine
 10
415.412239757886
 20
193.572157229768
 30
0.0
 11
416.162239757886
 21
193.072157229768
 31
0.0
  0
LINE
  5
25B
330
1F
100
AcDbEntity
  8
1
  6
Continuous
 62
     4
100
AcDbLine
 10
414.162239757886
 20
193.822157229768
 30
0.0
 11
415.412239757886
 21
193.572157229768
 31
0.0
  0
LINE
  5
25C
330
1F
100
AcDbEntity
  8
1
  6
Continuous
 62
     4
100
AcDbLine
 10
410.412239757886
 20
193.822157229768
 30
0.0
 11
414.162239757886
 21
193.822157229768
 31
0.0
  0
LINE
  5
25D
330
1F
100
AcDbEntity
  8
1
  6
Continuous
 62
     4
100
AcDbLine
 10
411.912239757886
 20
189.822157229768
 30
0.0
 11
414.412239757886
 21
189.822157229768
 31
0.0
  0
LINE
  5
25E
330
1F
100
AcDbEntity
  8
1
  6
Continuous
 62
     4
100
AcDbLine
 10
375.162239757886
 20
183.822157229768
 30
0.0
 11
371.412239757886
 21
183.822157229768
 31
0.0
  0
LINE
  5
25F
330
1F
100
AcDbEntity
  8
1
  6
Continuous
 62
     4
100
AcDbLine
 10
375.912239757886
 20
184.072157229768
 30
0.0
 11
375.162239757886
 21
183.822157229768
 31
0.0
  0
LINE
  5
260
330
1F
100
AcDbEntity
  8
1
  6
Continuous
 62
     4
100
AcDbLine
 10
376.662239757886
 20
184.572157229768
 30
0.0
 11
375.912239757886
 21
184.072157229768
 31
0.0
  0
LINE
  5
261
330
1F
100
AcDbEntity
  8
1
  6
Continuous
 62
     4
100
AcDbLine
 10
377.162239757886
 20
185.322157229768
 30
0.0
 11
376.662239757886
 21
184.572157229768
 31
0.0
  0
LINE
  5
262
330
1F
100
AcDbEntity
  8
1
  6
Continuous
 62
     4
100
AcDbLine
 10
377.412239757886
 20
186.322157229768
 30
0.0
 11
377.162239757886
 21
185.322157229768
 31
0.0
  0
LINE
  5
263
330
1F
100
AcDbEntity
  8
1
  6
Continuous
 62
     4
100
AcDbLine
 10
377.412239757886
 20
187.572157229768
 30
0.0
 11
377.412239757886
 21
186.322157229768
 31
0.0
  0
LINE
  5
264
330
1F
100
AcDbEntity
  8
1
  6
Continuous
 62
     4
100
AcDbLine
 10
377.162239757886
 20
188.572157229768
 30
0.0
 11
377.412239757886
 21
187.572157229768
 31
0.0
  0
LINE
  5
265
330
1F
100
AcDbEntity
  8
1
  6
Continuous
 62
     4
100
AcDbLine
 10
376.912239757886
 20
189.072157229768
 30
0.0
 11
377.162239757886
 21
188.572157229768
 31
0.0
  0
LINE
  5
266
330
1F
100
AcDbEntity
  8
1
  6
Continuous
 62
     4
100
AcDbLine
 10
376.412239757886
 20
189.572157229768
 30
0.0
 11
376.912239757886
 21
189.072157229768
 31
0.0
  0
LINE
  5
267
330
1F
100
AcDbEntity
  8
1
  6
Continuous
 62
     4
100
AcDbLine
 10
375.412239757886
 20
189.822157229768
 30
0.0
 11
376.412239757886
 21
189.572157229768
 31
0.0
  0
LINE
  5
268
330
1F
100
AcDbEntity
  8
1
  6
Continuous
 62
     4
100
AcDbLine
 10
376.162239757886
 20
190.072157229768
 30
0.0
 11
375.412239757886
 21
189.822157229768
 31
0.0
  0
LINE
  5
269
330
1F
100
AcDbEntity
  8
1
  6
Continuous
 62
     4
100
AcDbLine
 10
376.662239757886
 20
190.322157229768
 30
0.0
 11
376.162239757886
 21
190.072157229768
 31
0.0
  0
LINE
  5
26A
330
1F
100
AcDbEntity
  8
1
  6
Continuous
 62
     4
100
AcDbLine
 10
377.162239757886
 20
190.822157229768
 30
0.0
 11
376.662239757886
 21
190.322157229768
 31
0.0
  0
LINE
  5
26B
330
1F
100
AcDbEntity
  8
1
  6
Continuous
 62
     4
100
AcDbLine
 10
377.412239757886
 20
191.572157229768
 30
0.0
 11
377.162239757886
 21
190.822157229768
 31
0.0
  0
LINE
  5
26C
330
1F
100
AcDbEntity
  8
1
  6
Continuous
 62
     4
100
AcDbLine
 10
377.412239757886
 20
192.322157229768
 30
0.0
 11
377.412239757886
 21
191.572157229768
 31
0.0
  0
LINE
  5
26D
330
1F
100
AcDbEntity
  8
1
  6
Continuous
 62
     4
100
AcDbLine
 10
377.162239757886
 20
193.072157229768
 30
0.0
 11
377.412239757886
 21
192.322157229768
 31
0.0
  0
LINE
  5
26E
330
1F
100
AcDbEntity
  8
1
  6
Continuous
 62
     4
100
AcDbLine
 10
376.412239757886
 20
193.572157229768
 30
0.0
 11
377.162239757886
 21
193.072157229768
 31
0.0
  0
LINE
  5
26F
330
1F
100
AcDbEntity
  8
1
  6
Continuous
 62
     4
100
AcDbLine
 10
375.162239757886
 20
193.822157229768
 30
0.0
 11
376.412239757886
 21
193.572157229768
 31
0.0
  0
LINE
  5
270
330
1F
100
AcDbEntity
  8
1
  6
Continuous
 62
     4
100
AcDbLine
 10
371.412239757886
 20
193.822157229768
 30
0.0
 11
375.162239757886
 21
193.822157229768
 31
0.0
  0
LINE
  5
271
330
1F
100
AcDbEntity
  8
1
  6
Continuous
 62
     4
100
AcDbLine
 10
372.912239757886
 20
189.822157229768
 30
0.0
 11
375.412239757886
 21
189.822157229768
 31
0.0
  0
LINE
  5
272
330
1F
100
AcDbEntity
  8
1
  6
Continuous
 62
     4
100
AcDbLine
 10
368.662239757886
 20
184.322157229768
 30
0.0
 11
368.662239757886
 21
184.072157229768
 31
0.0
  0
LINE
  5
273
330
1F
100
AcDbEntity
  8
1
  6
Continuous
 62
     4
100
AcDbLine
 10
368.412239757886
 20
184.322157229768
 30
0.0
 11
368.662239757886
 21
184.322157229768
 31
0.0
  0
LINE
  5
274
330
1F
100
AcDbEntity
  8
1
  6
Continuous
 62
     4
100
AcDbLine
 10
368.412239757886
 20
184.072157229768
 30
0.0
 11
368.412239757886
 21
184.322157229768
 31
0.0
  0
LINE
  5
275
330
1F
100
AcDbEntity
  8
1
  6
Continuous
 62
     4
100
AcDbLine
 10
368.662239757886
 20
184.072157229768
 30
0.0
 11
368.412239757886
 21
184.072157229768
 31
0.0
  0
LINE
  5
276
330
1F
100
AcDbEntity
  8
1
  6
Continuous
 62
     4
100
AcDbLine
 10
368.912239757886
 20
184.572157229768
 30
0.0
 11
368.912239757886
 21
183.822157229768
 31
0.0
  0
LINE
  5
277
330
1F
100
AcDbEntity
  8
1
  6
Continuous
 62
     4
100
AcDbLine
 10
368.162239757886
 20
184.572157229768
 30
0.0
 11
368.912239757886
 21
184.572157229768
 31
0.0
  0
LINE
  5
278
330
1F
100
AcDbEntity
  8
1
  6
Continuous
 62
     4
100
AcDbLine
 10
368.162239757886
 20
183.822157229768
 30
0.0
 11
368.162239757886
 21
184.572157229768
 31
0.0
  0
LINE
  5
279
330
1F
100
AcDbEntity
  8
1
  6
Continuous
 62
     4
100
AcDbLine
 10
368.912239757886
 20
183.822157229768
 30
0.0
 11
368.162239757886
 21
183.822157229768
 31
0.0
  0
LINE
  5
27A
330
1F
100
AcDbEntity
  8
1
  6
Continuous
 62
     4
100
AcDbLine
 10
365.162239757886
 20
190.072157229768
 30
0.0
 11
365.162239757886
 21
187.572157229768
 31
0.0
  0
LINE
  5
27B
330
1F
100
AcDbEntity
  8
1
  6
Continuous
 62
     4
100
AcDbLine
 10
364.912239757886
 20
191.572157229768
 30
0.0
 11
365.162239757886
 21
190.072157229768
 31
0.0
  0
LINE
  5
27C
330
1F
100
AcDbEntity
  8
1
  6
Continuous
 62
     4
100
AcDbLine
 10
364.412239757886
 20
192.572157229768
 30
0.0
 11
364.912239757886
 21
191.572157229768
 31
0.0
  0
LINE
  5
27D
330
1F
100
AcDbEntity
  8
1
  6
Continuous
 62
     4
100
AcDbLine
 10
363.912239757886
 20
193.072157229768
 30
0.0
 11
364.412239757886
 21
192.572157229768
 31
0.0
  0
LINE
  5
27E
330
1F
100
AcDbEntity
  8
1
  6
Continuous
 62
     4
100
AcDbLine
 10
363.162239757886
 20
193.572157229768
 30
0.0
 11
363.912239757886
 21
193.072157229768
 31
0.0
  0
LINE
  5
27F
330
1F
100
AcDbEntity
  8
1
  6
Continuous
 62
     4
100
AcDbLine
 10
362.412239757886
 20
193.822157229768
 30
0.0
 11
363.162239757886
 21
193.572157229768
 31
0.0
  0
LINE
  5
280
330
1F
100
AcDbEntity
  8
1
  6
Continuous
 62
     4
100
AcDbLine
 10
361.912239757886
 20
193.822157229768
 30
0.0
 11
362.412239757886
 21
193.822157229768
 31
0.0
  0
LINE
  5
281
330
1F
100
AcDbEntity
  8
1
  6
Continuous
 62
     4
100
AcDbLine
 10
361.162239757886
 20
193.572157229768
 30
0.0
 11
361.912239757886
 21
193.822157229768
 31
0.0
  0
LINE
  5
282
330
1F
100
AcDbEntity
  8
1
  6
Continuous
 62
     4
100
AcDbLine
 10
360.412239757886
 20
193.072157229768
 30
0.0
 11
361.162239757886
 21
193.572157229768
 31
0.0
  0
LINE
  5
283
330
1F
100
AcDbEntity
  8
1
  6
Continuous
 62
     4
100
AcDbLine
 10
359.912239757886
 20
192.572157229768
 30
0.0
 11
360.412239757886
 21
193.072157229768
 31
0.0
  0
LINE
  5
284
330
1F
100
AcDbEntity
  8
1
  6
Continuous
 62
     4
100
AcDbLine
 10
359.412239757886
 20
191.572157229768
 30
0.0
 11
359.912239757886
 21
192.572157229768
 31
0.0
  0
LINE
  5
285
330
1F
100
AcDbEntity
  8
1
  6
Continuous
 62
     4
100
AcDbLine
 10
359.162239757886
 20
190.072157229768
 30
0.0
 11
359.412239757886
 21
191.572157229768
 31
0.0
  0
LINE
  5
286
330
1F
100
AcDbEntity
  8
1
  6
Continuous
 62
     4
100
AcDbLine
 10
359.162239757886
 20
187.572157229768
 30
0.0
 11
359.162239757886
 21
190.072157229768
 31
0.0
  0
LINE
  5
287
330
1F
100
AcDbEntity
  8
1
  6
Continuous
 62
     4
100
AcDbLine
 10
359.412239757886
 20
186.072157229768
 30
0.0
 11
359.162239757886
 21
187.572157229768
 31
0.0
  0
LINE
  5
288
330
1F
100
AcDbEntity
  8
1
  6
Continuous
 62
     4
100
AcDbLine
 10
359.912239757886
 20
185.072157229768
 30
0.0
 11
359.412239757886
 21
186.072157229768
 31
0.0
  0
LINE
  5
289
330
1F
100
AcDbEntity
  8
1
  6
Continuous
 62
     4
100
AcDbLine
 10
360.412239757886
 20
184.572157229768
 30
0.0
 11
359.912239757886
 21
185.072157229768
 31
0.0
  0
LINE
  5
28A
330
1F
100
AcDbEntity
  8
1
  6
Continuous
 62
     4
100
AcDbLine
 10
361.162239757886
 20
184.072157229768
 30
0.0
 11
360.412239757886
 21
184.572157229768
 31
0.0
  0
LINE
  5
28B
330
1F
100
AcDbEntity
  8
1
  6
Continuous
 62
     4
100
AcDbLine
 10
361.912239757886
 20
183.822157229768
 30
0.0
 11
361.162239757886
 21
184.072157229768
 31
0.0
  0
LINE
  5
28C
330
1F
100
AcDbEntity
  8
1
  6
Continuous
 62
     4
100
AcDbLine
 10
362.412239757886
 20
183.822157229768
 30
0.0
 11
361.912239757886
 21
183.822157229768
 31
0.0
  0
LINE
  5
28D
330
1F
100
AcDbEntity
  8
1
  6
Continuous
 62
     4
100
AcDbLine
 10
363.162239757886
 20
184.072157229768
 30
0.0
 11
362.412239757886
 21
183.822157229768
 31
0.0
  0
LINE
  5
28E
330
1F
100
AcDbEntity
  8
1
  6
Continuous
 62
     4
100
AcDbLine
 10
363.912239757886
 20
184.572157229768
 30
0.0
 11
363.162239757886
 21
184.072157229768
 31
0.0
  0
LINE
  5
28F
330
1F
100
AcDbEntity
  8
1
  6
Continuous
 62
     4
100
AcDbLine
 10
364.412239757886
 20
185.072157229768
 30
0.0
 11
363.912239757886
 21
184.572157229768
 31
0.0
  0
LINE
  5
290
330
1F
100
AcDbEntity
  8
1
  6
Continuous
 62
     4
100
AcDbLine
 10
364.912239757886
 20
186.072157229768
 30
0.0
 11
364.412239757886
 21
185.072157229768
 31
0.0
  0
LINE
  5
291
330
1F
100
AcDbEntity
  8
1
  6
Continuous
 62
     4
100
AcDbLine
 10
365.162239757886
 20
187.572157229768
 30
0.0
 11
364.912239757886
 21
186.072157229768
 31
0.0
  0
LINE
  5
292
330
1F
100
AcDbEntity
  8
1
  6
Continuous
 62
     4
100
AcDbLine
 10
418.162239757886
 20
200.482157229768
 30
0.0
 11
418.162239757886
 21
210.482157229768
 31
0.0
  0
LINE
  5
293
330
1F
100
AcDbEntity
  8
1
  6
Continuous
 62
     4
100
AcDbLine
 10
424.162239757886
 20
200.482157229768
 30
0.0
 11
418.162239757886
 21
200.482157229768
 31
0.0
  0
LINE
  5
294
330
1F
100
AcDbEntity
  8
1
  6
Continuous
 62
     4
100
AcDbLine
 10
394.662239757886
 20
202.482157229768
 30
0.0
 11
393.662239757886
 21
200.482157229768
 31
0.0
  0
LINE
  5
295
330
1F
100
AcDbEntity
  8
1
  6
Continuous
 62
     4
100
AcDbLine
 10
395.162239757886
 20
204.482157229768
 30
0.0
 11
394.662239757886
 21
202.482157229768
 31
0.0
  0
LINE
  5
296
330
1F
100
AcDbEntity
  8
1
  6
Continuous
 62
     4
100
AcDbLine
 10
395.162239757886
 20
206.482157229768
 30
0.0
 11
395.162239757886
 21
204.482157229768
 31
0.0
  0
LINE
  5
297
330
1F
100
AcDbEntity
  8
1
  6
Continuous
 62
     4
100
AcDbLine
 10
394.662239757886
 20
208.482157229768
 30
0.0
 11
395.162239757886
 21
206.482157229768
 31
0.0
  0
LINE
  5
298
330
1F
100
AcDbEntity
  8
1
  6
Continuous
 62
     4
100
AcDbLine
 10
393.662239757886
 20
210.482157229768
 30
0.0
 11
394.662239757886
 21
208.482157229768
 31
0.0
  0
LINE
  5
299
330
1F
100
AcDbEntity
  8
1
  6
Continuous
 62
     4
100
AcDbLine
 10
387.162239757886
 20
207.482157229768
 30
0.0
 11
389.162239757886
 21
207.482157229768
 31
0.0
  0
LINE
  5
29A
330
1F
100
AcDbEntity
  8
1
  6
Continuous
 62
     4
100
AcDbLine
 10
387.162239757886
 20
207.482157229768
 30
0.0
 11
387.162239757886
 21
200.482157229768
 31
0.0
  0
LINE
  5
29B
330
1F
100
AcDbEntity
  8
1
  6
Continuous
 62
     4
100
AcDbLine
 10
390.662239757886
 20
206.232157229768
 30
0.0
 11
390.662239757886
 21
200.482157229768
 31
0.0
  0
LINE
  5
29C
330
1F
100
AcDbEntity
  8
1
  6
Continuous
 62
     4
100
AcDbLine
 10
390.412239757886
 20
206.732157229768
 30
0.0
 11
390.662239757886
 21
206.232157229768
 31
0.0
  0
LINE
  5
29D
330
1F
100
AcDbEntity
  8
1
  6
Continuous
 62
     4
100
AcDbLine
 10
389.912239757886
 20
207.232157229768
 30
0.0
 11
390.412239757886
 21
206.732157229768
 31
0.0
  0
LINE
  5
29E
330
1F
100
AcDbEntity
  8
1
  6
Continuous
 62
     4
100
AcDbLine
 10
389.162239757886
 20
207.482157229768
 30
0.0
 11
389.912239757886
 21
207.232157229768
 31
0.0
  0
LINE
  5
29F
330
1F
100
AcDbEntity
  8
1
  6
Continuous
 62
     4
100
AcDbLine
 10
383.662239757886
 20
207.482157229768
 30
0.0
 11
387.162239757886
 21
207.482157229768
 31
0.0
  0
LINE
  5
2A0
330
1F
100
AcDbEntity
  8
1
  6
Continuous
 62
     4
100
AcDbLine
 10
383.662239757886
 20
200.482157229768
 30
0.0
 11
383.662239757886
 21
207.482157229768
 31
0.0
  0
LINE
  5
2A1
330
1F
100
AcDbEntity
  8
1
  6
Continuous
 62
     4
100
AcDbLine
 10
379.662239757886
 20
202.482157229768
 30
0.0
 11
380.662239757886
 21
200.482157229768
 31
0.0
  0
LINE
  5
2A2
330
1F
100
AcDbEntity
  8
1
  6
Continuous
 62
     4
100
AcDbLine
 10
379.162239757886
 20
204.482157229768
 30
0.0
 11
379.662239757886
 21
202.482157229768
 31
0.0
  0
LINE
  5
2A3
330
1F
100
AcDbEntity
  8
1
  6
Continuous
 62
     4
100
AcDbLine
 10
379.162239757886
 20
206.482157229768
 30
0.0
 11
379.162239757886
 21
204.482157229768
 31
0.0
  0
LINE
  5
2A4
330
1F
100
AcDbEntity
  8
1
  6
Continuous
 62
     4
100
AcDbLine
 10
379.662239757886
 20
208.482157229768
 30
0.0
 11
379.162239757886
 21
206.482157229768
 31
0.0
  0
LINE
  5
2A5
330
1F
100
AcDbEntity
  8
1
  6
Continuous
 62
     4
100
AcDbLine
 10
380.662239757886
 20
210.482157229768
 30
0.0
 11
379.662239757886
 21
208.482157229768
 31
0.0
  0
LINE
  5
2A6
330
1F
100
AcDbEntity
  8
1
  6
Continuous
 62
     4
100
AcDbLine
 10
373.287239757886
 20
201.732157229768
 30
0.0
 11
375.037239757886
 21
201.482157229768
 31
0.0
  0
LINE
  5
2A7
330
1F
100
AcDbEntity
  8
1
  6
Continuous
 62
     4
100
AcDbLine
 10
372.162239757886
 20
202.357157229768
 30
0.0
 11
373.287239757886
 21
201.732157229768
 31
0.0
  0
LINE
  5
2A8
330
1F
100
AcDbEntity
  8
1
  6
Continuous
 62
     4
100
AcDbLine
 10
371.662239757886
 20
203.357157229768
 30
0.0
 11
372.162239757886
 21
202.357157229768
 31
0.0
  0
LINE
  5
2A9
330
1F
100
AcDbEntity
  8
1
  6
Continuous
 62
     4
100
AcDbLine
 10
372.162239757886
 20
204.232157229768
 30
0.0
 11
371.662239757886
 21
203.357157229768
 31
0.0
  0
LINE
  5
2AA
330
1F
100
AcDbEntity
  8
1
  6
Continuous
 62
     4
100
AcDbLine
 10
373.912239757886
 20
204.857157229768
 30
0.0
 11
372.162239757886
 21
204.232157229768
 31
0.0
  0
LINE
  5
2AB
330
1F
100
AcDbEntity
  8
1
  6
Continuous
 62
     4
100
AcDbLine
 10
375.787239757886
 20
204.607157229768
 30
0.0
 11
373.912239757886
 21
204.857157229768
 31
0.0
  0
LINE
  5
2AC
330
1F
100
AcDbEntity
  8
1
  6
Continuous
 62
     4
100
AcDbLine
 10
374.662239757886
 20
206.732157229768
 30
0.0
 11
375.787239757886
 21
204.607157229768
 31
0.0
  0
LINE
  5
2AD
330
1F
100
AcDbEntity
  8
1
  6
Continuous
 62
     4
100
AcDbLine
 10
372.787239757886
 20
209.607157229768
 30
0.0
 11
374.662239757886
 21
206.732157229768
 31
0.0
  0
LINE
  5
2AE
330
1F
100
AcDbEntity
  8
1
  6
Continuous
 62
     4
100
AcDbLine
 10
373.662239757886
 20
207.732157229768
 30
0.0
 11
375.537239757886
 21
208.607157229768
 31
0.0
  0
LINE
  5
2AF
330
1F
100
AcDbEntity
  8
1
  6
Continuous
 62
     4
100
AcDbLine
 10
371.412239757886
 20
207.107157229768
 30
0.0
 11
373.662239757886
 21
207.732157229768
 31
0.0
  0
LINE
  5
2B0
330
1F
100
AcDbEntity
  8
1
  6
Continuous
 62
     4
100
AcDbLine
 10
361.662239757886
 20
208.607157229768
 30
0.0
 11
361.662239757886
 21
201.482157229768
 31
0.0
  0
LINE
  5
2B1
330
1F
100
AcDbEntity
  8
1
  6
Continuous
 62
     4
100
AcDbLine
 10
365.537239757886
 20
201.732157229768
 30
0.0
 11
367.787239757886
 21
200.857157229768
 31
0.0
  0
LINE
  5
2B2
330
1F
100
AcDbEntity
  8
1
  6
Continuous
 62
     4
100
AcDbLine
 10
364.412239757886
 20
202.982157229768
 30
0.0
 11
365.537239757886
 21
201.732157229768
 31
0.0
  0
LINE
  5
2B3
330
1F
100
AcDbEntity
  8
1
  6
Continuous
 62
     4
100
AcDbLine
 10
363.287239757886
 20
204.857157229768
 30
0.0
 11
364.412239757886
 21
202.982157229768
 31
0.0
  0
LINE
  5
2B4
330
1F
100
AcDbEntity
  8
1
  6
Continuous
 62
     4
100
AcDbLine
 10
361.662239757886
 20
210.232157229768
 30
0.0
 11
361.662239757886
 21
208.607157229768
 31
0.0
  0
LINE
  5
2B5
330
1F
100
AcDbEntity
  8
1
  6
Continuous
 62
     4
100
AcDbLine
 10
366.162239757886
 20
210.232157229768
 30
0.0
 11
361.662239757886
 21
210.232157229768
 31
0.0
  0
LINE
  5
2B6
330
1F
100
AcDbEntity
  8
1
  6
Continuous
 62
     4
100
AcDbLine
 10
365.787239757886
 20
208.607157229768
 30
0.0
 11
361.662239757886
 21
208.607157229768
 31
0.0
  0
LINE
  5
2B7
330
1F
100
AcDbEntity
  8
1
  6
Continuous
 62
     4
100
AcDbLine
 10
361.662239757886
 20
207.107157229768
 30
0.0
 11
365.787239757886
 21
207.107157229768
 31
0.0
  0
LINE
  5
2B8
330
1F
100
AcDbEntity
  8
1
  6
Continuous
 62
     4
100
AcDbLine
 10
367.787239757886
 20
205.482157229768
 30
0.0
 11
359.412239757886
 21
205.482157229768
 31
0.0
  0
LINE
  5
2B9
330
1F
100
AcDbEntity
  8
1
  6
Continuous
 62
     4
100
AcDbLine
 10
364.412239757886
 20
203.357157229768
 30
0.0
 11
366.412239757886
 21
204.607157229768
 31
0.0
  0
LINE
  5
2BA
330
1F
100
AcDbEntity
  8
1
  6
Continuous
 62
     4
100
AcDbLine
 10
360.037239757886
 20
200.857157229768
 30
0.0
 11
363.662239757886
 21
202.357157229768
 31
0.0
  0
LINE
  5
2BB
330
1F
100
AcDbEntity
  8
1
  6
Continuous
 62
     4
100
AcDbLine
 10
357.162239757886
 20
208.982157229768
 30
0.0
 11
358.037239757886
 21
207.982157229768
 31
0.0
  0
LINE
  5
2BC
330
1F
100
AcDbEntity
  8
1
  6
Continuous
 62
     4
100
AcDbLine
 10
356.412239757886
 20
208.357157229768
 30
0.0
 11
357.162239757886
 21
207.357157229768
 31
0.0
  0
LINE
  5
2BD
330
1F
100
AcDbEntity
  8
1
  6
Continuous
 62
     4
100
AcDbLine
 10
355.287239757886
 20
205.857157229768
 30
0.0
 11
356.412239757886
 21
203.357157229768
 31
0.0
  0
LINE
  5
2BE
330
1F
100
AcDbEntity
  8
1
  6
Continuous
 62
     4
100
AcDbLine
 10
355.037239757886
 20
207.982157229768
 30
0.0
 11
355.287239757886
 21
205.857157229768
 31
0.0
  0
LINE
  5
2BF
330
1F
100
AcDbEntity
  8
1
  6
Continuous
 62
     4
100
AcDbLine
 10
355.037239757886
 20
206.107157229768
 30
0.0
 11
355.037239757886
 21
207.982157229768
 31
0.0
  0
LINE
  5
2C0
330
1F
100
AcDbEntity
  8
1
  6
Continuous
 62
     4
100
AcDbLine
 10
354.662239757886
 20
204.232157229768
 30
0.0
 11
355.037239757886
 21
206.107157229768
 31
0.0
  0
LINE
  5
2C1
330
1F
100
AcDbEntity
  8
1
  6
Continuous
 62
     4
100
AcDbLine
 10
353.912239757886
 20
202.357157229768
 30
0.0
 11
354.662239757886
 21
204.232157229768
 31
0.0
  0
LINE
  5
2C2
330
1F
100
AcDbEntity
  8
1
  6
Continuous
 62
     4
100
AcDbLine
 10
352.787239757886
 20
201.482157229768
 30
0.0
 11
353.912239757886
 21
202.357157229768
 31
0.0
  0
LINE
  5
2C3
330
1F
100
AcDbEntity
  8
1
  6
Continuous
 62
     4
100
AcDbLine
 10
351.662239757886
 20
201.107157229768
 30
0.0
 11
352.787239757886
 21
201.482157229768
 31
0.0
  0
LINE
  5
2C4
330
1F
100
AcDbEntity
  8
1
  6
Continuous
 62
     4
100
AcDbLine
 10
350.537239757886
 20
201.482157229768
 30
0.0
 11
351.662239757886
 21
201.107157229768
 31
0.0
  0
LINE
  5
2C5
330
1F
100
AcDbEntity
  8
1
  6
Continuous
 62
     4
100
AcDbLine
 10
350.037239757886
 20
202.357157229768
 30
0.0
 11
350.537239757886
 21
201.482157229768
 31
0.0
  0
LINE
  5
2C6
330
1F
100
AcDbEntity
  8
1
  6
Continuous
 62
     4
100
AcDbLine
 10
350.037239757886
 20
203.607157229768
 30
0.0
 11
350.037239757886
 21
202.357157229768
 31
0.0
  0
LINE
  5
2C7
330
1F
100
AcDbEntity
  8
1
  6
Continuous
 62
     4
100
AcDbLine
 10
350.537239757886
 20
205.232157229768
 30
0.0
 11
350.037239757886
 21
203.607157229768
 31
0.0
  0
LINE
  5
2C8
330
1F
100
AcDbEntity
  8
1
  6
Continuous
 62
     4
100
AcDbLine
 10
351.412239757886
 20
206.482157229768
 30
0.0
 11
350.537239757886
 21
205.232157229768
 31
0.0
  0
LINE
  5
2C9
330
1F
100
AcDbEntity
  8
1
  6
Continuous
 62
     4
100
AcDbLine
 10
352.537239757886
 20
207.732157229768
 30
0.0
 11
351.412239757886
 21
206.482157229768
 31
0.0
  0
LINE
  5
2CA
330
1F
100
AcDbEntity
  8
1
  6
Continuous
 62
     4
100
AcDbLine
 10
351.412239757886
 20
207.357157229768
 30
0.0
 11
352.537239757886
 21
207.732157229768
 31
0.0
  0
LINE
  5
2CB
330
1F
100
AcDbEntity
  8
1
  6
Continuous
 62
     4
100
AcDbLine
 10
350.037239757886
 20
207.107157229768
 30
0.0
 11
351.412239757886
 21
207.357157229768
 31
0.0
  0
LINE
  5
2CC
330
1F
100
AcDbEntity
  8
1
  6
Continuous
 62
     4
100
AcDbLine
 10
345.287239757886
 20
200.857157229768
 30
0.0
 11
344.162239757886
 21
200.857157229768
 31
0.0
  0
LINE
  5
2CD
330
1F
100
AcDbEntity
  8
1
  6
Continuous
 62
     4
100
AcDbLine
 10
345.287239757886
 20
208.982157229768
 30
0.0
 11
345.287239757886
 21
200.857157229768
 31
0.0
  0
LINE
  5
2CE
330
1F
100
AcDbEntity
  8
1
  6
Continuous
 62
     4
100
AcDbLine
 10
343.037239757886
 20
207.982157229768
 30
0.0
 11
343.912239757886
 21
206.107157229768
 31
0.0
  0
LINE
  5
2CF
330
1F
100
AcDbEntity
  8
1
  6
Continuous
 62
     4
100
AcDbLine
 10
344.662239757886
 20
209.607157229768
 30
0.0
 11
343.287239757886
 21
209.232157229768
 31
0.0
  0
LINE
  5
2D0
330
1F
100
AcDbEntity
  8
1
  6
Continuous
 62
     4
100
AcDbLine
 10
346.662239757886
 20
210.232157229768
 30
0.0
 11
344.662239757886
 21
209.607157229768
 31
0.0
  0
LINE
  5
2D1
330
1F
100
AcDbEntity
  8
1
  6
Continuous
 62
     4
100
AcDbLine
 10
346.412239757886
 20
206.107157229768
 30
0.0
 11
347.162239757886
 21
207.982157229768
 31
0.0
  0
LINE
  5
2D2
330
1F
100
AcDbEntity
  8
1
  6
Continuous
 62
     4
100
AcDbLine
 10
342.537239757886
 20
204.857157229768
 30
0.0
 11
348.037239757886
 21
204.857157229768
 31
0.0
  0
LINE
  5
2D3
330
1F
100
AcDbEntity
  8
1
  6
Continuous
 62
     4
100
AcDbLine
 10
339.662239757886
 20
208.982157229768
 30
0.0
 11
339.662239757886
 21
203.607157229768
 31
0.0
  0
LINE
  5
2D4
330
1F
100
AcDbEntity
  8
1
  6
Continuous
 62
     4
100
AcDbLine
 10
341.662239757886
 20
208.982157229768
 30
0.0
 11
339.662239757886
 21
208.982157229768
 31
0.0
  0
LINE
  5
2D5
330
1F
100
AcDbEntity
  8
1
  6
Continuous
 62
     4
100
AcDbLine
 10
341.662239757886
 20
203.607157229768
 30
0.0
 11
341.662239757886
 21
208.982157229768
 31
0.0
  0
LINE
  5
2D6
330
1F
100
AcDbEntity
  8
1
  6
Continuous
 62
     4
100
AcDbLine
 10
339.662239757886
 20
203.607157229768
 30
0.0
 11
341.662239757886
 21
203.607157229768
 31
0.0
  0
LINE
  5
2D7
330
1F
100
AcDbEntity
  8
1
  6
Continuous
 62
     4
100
AcDbLine
 10
399.662239757886
 20
240.052157229768
 30
0.0
 11
399.662239757886
 21
237.552157229768
 31
0.0
  0
LINE
  5
2D8
330
1F
100
AcDbEntity
  8
1
  6
Continuous
 62
     4
100
AcDbLine
 10
399.412239757886
 20
241.552157229768
 30
0.0
 11
399.662239757886
 21
240.052157229768
 31
0.0
  0
LINE
  5
2D9
330
1F
100
AcDbEntity
  8
1
  6
Continuous
 62
     4
100
AcDbLine
 10
398.912239757886
 20
242.552157229768
 30
0.0
 11
399.412239757886
 21
241.552157229768
 31
0.0
  0
LINE
  5
2DA
330
1F
100
AcDbEntity
  8
1
  6
Continuous
 62
     4
100
AcDbLine
 10
398.412239757886
 20
243.052157229768
 30
0.0
 11
398.912239757886
 21
242.552157229768
 31
0.0
  0
LINE
  5
2DB
330
1F
100
AcDbEntity
  8
1
  6
Continuous
 62
     4
100
AcDbLine
 10
397.662239757886
 20
243.552157229768
 30
0.0
 11
398.412239757886
 21
243.052157229768
 31
0.0
  0
LINE
  5
2DC
330
1F
100
AcDbEntity
  8
1
  6
Continuous
 62
     4
100
AcDbLine
 10
396.912239757886
 20
243.802157229768
 30
0.0
 11
397.662239757886
 21
243.552157229768
 31
0.0
  0
LINE
  5
2DD
330
1F
100
AcDbEntity
  8
1
  6
Continuous
 62
     4
100
AcDbLine
 10
396.412239757886
 20
243.802157229768
 30
0.0
 11
396.912239757886
 21
243.802157229768
 31
0.0
  0
LINE
  5
2DE
330
1F
100
AcDbEntity
  8
1
  6
Continuous
 62
     4
100
AcDbLine
 10
395.662239757886
 20
243.552157229768
 30
0.0
 11
396.412239757886
 21
243.802157229768
 31
0.0
  0
LINE
  5
2DF
330
1F
100
AcDbEntity
  8
1
  6
Continuous
 62
     4
100
AcDbLine
 10
394.912239757886
 20
243.052157229768
 30
0.0
 11
395.662239757886
 21
243.552157229768
 31
0.0
  0
LINE
  5
2E0
330
1F
100
AcDbEntity
  8
1
  6
Continuous
 62
     4
100
AcDbLine
 10
394.412239757886
 20
242.552157229768
 30
0.0
 11
394.912239757886
 21
243.052157229768
 31
0.0
  0
LINE
  5
2E1
330
1F
100
AcDbEntity
  8
1
  6
Continuous
 62
     4
100
AcDbLine
 10
393.912239757886
 20
241.552157229768
 30
0.0
 11
394.412239757886
 21
242.552157229768
 31
0.0
  0
LINE
  5
2E2
330
1F
100
AcDbEntity
  8
1
  6
Continuous
 62
     4
100
AcDbLine
 10
393.662239757886
 20
240.052157229768
 30
0.0
 11
393.912239757886
 21
241.552157229768
 31
0.0
  0
LINE
  5
2E3
330
1F
100
AcDbEntity
  8
1
  6
Continuous
 62
     4
100
AcDbLine
 10
393.662239757886
 20
237.552157229768
 30
0.0
 11
393.662239757886
 21
240.052157229768
 31
0.0
  0
LINE
  5
2E4
330
1F
100
AcDbEntity
  8
1
  6
Continuous
 62
     4
100
AcDbLine
 10
393.912239757886
 20
236.052157229768
 30
0.0
 11
393.662239757886
 21
237.552157229768
 31
0.0
  0
LINE
  5
2E5
330
1F
100
AcDbEntity
  8
1
  6
Continuous
 62
     4
100
AcDbLine
 10
394.412239757886
 20
235.052157229768
 30
0.0
 11
393.912239757886
 21
236.052157229768
 31
0.0
  0
LINE
  5
2E6
330
1F
100
AcDbEntity
  8
1
  6
Continuous
 62
     4
100
AcDbLine
 10
394.912239757886
 20
234.552157229768
 30
0.0
 11
394.412239757886
 21
235.052157229768
 31
0.0
  0
LINE
  5
2E7
330
1F
100
AcDbEntity
  8
1
  6
Continuous
 62
     4
100
AcDbLine
 10
395.662239757886
 20
234.052157229768
 30
0.0
 11
394.912239757886
 21
234.552157229768
 31
0.0
  0
LINE
  5
2E8
330
1F
100
AcDbEntity
  8
1
  6
Continuous
 62
     4
100
AcDbLine
 10
396.412239757886
 20
233.802157229768
 30
0.0
 11
395.662239757886
 21
234.052157229768
 31
0.0
  0
LINE
  5
2E9
330
1F
100
AcDbEntity
  8
1
  6
Continuous
 62
     4
100
AcDbLine
 10
396.912239757886
 20
233.802157229768
 30
0.0
 11
396.412239757886
 21
233.802157229768
 31
0.0
  0
LINE
  5
2EA
330
1F
100
AcDbEntity
  8
1
  6
Continuous
 62
     4
100
AcDbLine
 10
397.662239757886
 20
234.052157229768
 30
0.0
 11
396.912239757886
 21
233.802157229768
 31
0.0
  0
LINE
  5
2EB
330
1F
100
AcDbEntity
  8
1
  6
Continuous
 62
     4
100
AcDbLine
 10
398.412239757886
 20
234.552157229768
 30
0.0
 11
397.662239757886
 21
234.052157229768
 31
0.0
  0
LINE
  5
2EC
330
1F
100
AcDbEntity
  8
1
  6
Continuous
 62
     4
100
AcDbLine
 10
398.912239757886
 20
235.052157229768
 30
0.0
 11
398.412239757886
 21
234.552157229768
 31
0.0
  0
LINE
  5
2ED
330
1F
100
AcDbEntity
  8
1
  6
Continuous
 62
     4
100
AcDbLine
 10
399.412239757886
 20
236.052157229768
 30
0.0
 11
398.912239757886
 21
235.052157229768
 31
0.0
  0
LINE
  5
2EE
330
1F
100
AcDbEntity
  8
1
  6
Continuous
 62
     4
100
AcDbLine
 10
399.662239757886
 20
237.552157229768
 30
0.0
 11
399.412239757886
 21
236.052157229768
 31
0.0
  0
LINE
  5
2EF
330
1F
100
AcDbEntity
  8
1
  6
Continuous
 62
     4
100
AcDbLine
 10
389.162239757886
 20
237.802157229768
 30
0.0
 11
389.162239757886
 21
233.802157229768
 31
0.0
  0
LINE
  5
2F0
330
1F
100
AcDbEntity
  8
1
  6
Continuous
 62
     4
100
AcDbLine
 10
384.662239757886
 20
235.802157229768
 30
0.0
 11
390.662239757886
 21
235.802157229768
 31
0.0
  0
LINE
  5
2F1
330
1F
100
AcDbEntity
  8
1
  6
Continuous
 62
     4
100
AcDbLine
 10
389.162239757886
 20
243.802157229768
 30
0.0
 11
384.662239757886
 21
235.802157229768
 31
0.0
  0
LINE
  5
2F2
330
1F
100
AcDbEntity
  8
1
  6
Continuous
 62
     4
100
AcDbLine
 10
376.662239757886
 20
237.302157229768
 30
0.0
 11
381.662239757886
 21
237.302157229768
 31
0.0
  0
LINE
  5
2F3
330
1F
100
AcDbEntity
  8
1
  6
Continuous
 62
     4
100
AcDbLine
 10
367.162239757886
 20
234.552157229768
 30
0.0
 11
366.662239757886
 21
235.052157229768
 31
0.0
  0
LINE
  5
2F4
330
1F
100
AcDbEntity
  8
1
  6
Continuous
 62
     4
100
AcDbLine
 10
368.162239757886
 20
234.052157229768
 30
0.0
 11
367.162239757886
 21
234.552157229768
 31
0.0
  0
LINE
  5
2F5
330
1F
100
AcDbEntity
  8
1
  6
Continuous
 62
     4
100
AcDbLine
 10
369.412239757886
 20
233.802157229768
 30
0.0
 11
368.162239757886
 21
234.052157229768
 31
0.0
  0
LINE
  5
2F6
330
1F
100
AcDbEntity
  8
1
  6
Continuous
 62
     4
100
AcDbLine
 10
370.912239757886
 20
233.802157229768
 30
0.0
 11
369.412239757886
 21
233.802157229768
 31
0.0
  0
LINE
  5
2F7
330
1F
100
AcDbEntity
  8
1
  6
Continuous
 62
     4
100
AcDbLine
 10
372.162239757886
 20
234.052157229768
 30
0.0
 11
370.912239757886
 21
233.802157229768
 31
0.0
  0
LINE
  5
2F8
330
1F
100
AcDbEntity
  8
1
  6
Continuous
 62
     4
100
AcDbLine
 10
372.912239757886
 20
234.552157229768
 30
0.0
 11
372.162239757886
 21
234.052157229768
 31
0.0
  0
LINE
  5
2F9
330
1F
100
AcDbEntity
  8
1
  6
Continuous
 62
     4
100
AcDbLine
 10
373.412239757886
 20
235.302157229768
 30
0.0
 11
372.912239757886
 21
234.552157229768
 31
0.0
  0
LINE
  5
2FA
330
1F
100
AcDbEntity
  8
1
  6
Continuous
 62
     4
100
AcDbLine
 10
373.662239757886
 20
236.052157229768
 30
0.0
 11
373.412239757886
 21
235.302157229768
 31
0.0
  0
LINE
  5
2FB
330
1F
100
AcDbEntity
  8
1
  6
Continuous
 62
     4
100
AcDbLine
 10
373.662239757886
 20
236.552157229768
 30
0.0
 11
373.662239757886
 21
236.052157229768
 31
0.0
  0
LINE
  5
2FC
330
1F
100
AcDbEntity
  8
1
  6
Continuous
 62
     4
100
AcDbLine
 10
373.412239757886
 20
237.302157229768
 30
0.0
 11
373.662239757886
 21
236.552157229768
 31
0.0
  0
LINE
  5
2FD
330
1F
100
AcDbEntity
  8
1
  6
Continuous
 62
     4
100
AcDbLine
 10
372.912239757886
 20
238.052157229768
 30
0.0
 11
373.412239757886
 21
237.302157229768
 31
0.0
  0
LINE
  5
2FE
330
1F
100
AcDbEntity
  8
1
  6
Continuous
 62
     4
100
AcDbLine
 10
372.162239757886
 20
238.552157229768
 30
0.0
 11
372.912239757886
 21
238.052157229768
 31
0.0
  0
LINE
  5
2FF
330
1F
100
AcDbEntity
  8
1
  6
Continuous
 62
     4
100
AcDbLine
 10
367.912239757886
 20
240.302157229768
 30
0.0
 11
372.162239757886
 21
238.552157229768
 31
0.0
  0
LINE
  5
300
330
1F
100
AcDbEntity
  8
1
  6
Continuous
 62
     4
100
AcDbLine
 10
367.162239757886
 20
240.802157229768
 30
0.0
 11
367.912239757886
 21
240.302157229768
 31
0.0
  0
LINE
  5
301
330
1F
100
AcDbEntity
  8
1
  6
Continuous
 62
     4
100
AcDbLine
 10
366.912239757886
 20
241.552157229768
 30
0.0
 11
367.162239757886
 21
240.802157229768
 31
0.0
  0
LINE
  5
302
330
1F
100
AcDbEntity
  8
1
  6
Continuous
 62
     4
100
AcDbLine
 10
366.912239757886
 20
242.052157229768
 30
0.0
 11
366.912239757886
 21
241.552157229768
 31
0.0
  0
LINE
  5
303
330
1F
100
AcDbEntity
  8
1
  6
Continuous
 62
     4
100
AcDbLine
 10
367.162239757886
 20
242.802157229768
 30
0.0
 11
366.912239757886
 21
242.052157229768
 31
0.0
  0
LINE
  5
304
330
1F
100
AcDbEntity
  8
1
  6
Continuous
 62
     4
100
AcDbLine
 10
367.912239757886
 20
243.302157229768
 30
0.0
 11
367.162239757886
 21
242.802157229768
 31
0.0
  0
LINE
  5
305
330
1F
100
AcDbEntity
  8
1
  6
Continuous
 62
     4
100
AcDbLine
 10
368.662239757886
 20
243.552157229768
 30
0.0
 11
367.912239757886
 21
243.302157229768
 31
0.0
  0
LINE
  5
306
330
1F
100
AcDbEntity
  8
1
  6
Continuous
 62
     4
100
AcDbLine
 10
369.662239757886
 20
243.802157229768
 30
0.0
 11
368.662239757886
 21
243.552157229768
 31
0.0
  0
LINE
  5
307
330
1F
100
AcDbEntity
  8
1
  6
Continuous
 62
     4
100
AcDbLine
 10
370.662239757886
 20
243.802157229768
 30
0.0
 11
369.662239757886
 21
243.802157229768
 31
0.0
  0
LINE
  5
308
330
1F
100
AcDbEntity
  8
1
  6
Continuous
 62
     4
100
AcDbLine
 10
371.912239757886
 20
243.552157229768
 30
0.0
 11
370.662239757886
 21
243.802157229768
 31
0.0
  0
LINE
  5
309
330
1F
100
AcDbEntity
  8
1
  6
Continuous
 62
     4
100
AcDbLine
 10
372.662239757886
 20
243.302157229768
 30
0.0
 11
371.912239757886
 21
243.552157229768
 31
0.0
  0
LINE
  5
30A
330
1F
100
AcDbEntity
  8
1
  6
Continuous
 62
     4
100
AcDbLine
 10
373.412239757886
 20
242.802157229768
 30
0.0
 11
372.662239757886
 21
243.302157229768
 31
0.0
  0
LINE
  5
30B
330
1F
100
AcDbEntity
  8
1
  6
Continuous
 62
     4
100
AcDbLine
 10
358.662239757886
 20
237.302157229768
 30
0.0
 11
363.662239757886
 21
237.302157229768
 31
0.0
  0
LINE
  5
30C
330
1F
100
AcDbEntity
  8
1
  6
Continuous
 62
     4
100
AcDbLine
 10
348.662239757886
 20
239.302157229768
 30
0.0
 11
348.662239757886
 21
238.802157229768
 31
0.0
  0
LINE
  5
30D
330
1F
100
AcDbEntity
  8
1
  6
Continuous
 62
     4
100
AcDbLine
 10
355.662239757886
 20
239.302157229768
 30
0.0
 11
355.662239757886
 21
233.802157229768
 31
0.0
  0
LINE
  5
30E
330
1F
100
AcDbEntity
  8
1
  6
Continuous
 62
     4
100
AcDbLine
 10
348.662239757886
 20
238.802157229768
 30
0.0
 11
348.662239757886
 21
233.802157229768
 31
0.0
  0
LINE
  5
30F
330
1F
100
AcDbEntity
  8
1
  6
Continuous
 62
     4
100
AcDbLine
 10
348.662239757886
 20
243.802157229768
 30
0.0
 11
348.662239757886
 21
239.302157229768
 31
0.0
  0
LINE
  5
310
330
1F
100
AcDbEntity
  8
1
  6
Continuous
 62
     4
100
AcDbLine
 10
348.662239757886
 20
239.302157229768
 30
0.0
 11
355.662239757886
 21
239.302157229768
 31
0.0
  0
LINE
  5
311
330
1F
100
AcDbEntity
  8
1
  6
Continuous
 62
     4
100
AcDbLine
 10
355.662239757886
 20
243.802157229768
 30
0.0
 11
355.662239757886
 21
239.302157229768
 31
0.0
  0
LINE
  5
312
330
1F
100
AcDbEntity
  8
1
  6
Continuous
 62
     4
100
AcDbLine
 10
339.162239757886
 20
239.302157229768
 30
0.0
 11
339.162239757886
 21
243.802157229768
 31
0.0
  0
LINE
  5
313
330
1F
100
AcDbEntity
  8
1
  6
Continuous
 62
     4
100
AcDbLine
 10
343.912239757886
 20
239.552157229768
 30
0.0
 11
343.162239757886
 21
239.302157229768
 31
0.0
  0
LINE
  5
314
330
1F
100
AcDbEntity
  8
1
  6
Continuous
 62
     4
100
AcDbLine
 10
344.662239757886
 20
240.052157229768
 30
0.0
 11
343.912239757886
 21
239.552157229768
 31
0.0
  0
LINE
  5
315
330
1F
100
AcDbEntity
  8
1
  6
Continuous
 62
     4
100
AcDbLine
 10
345.162239757886
 20
241.052157229768
 30
0.0
 11
344.662239757886
 21
240.052157229768
 31
0.0
  0
LINE
  5
316
330
1F
100
AcDbEntity
  8
1
  6
Continuous
 62
     4
100
AcDbLine
 10
345.162239757886
 20
241.802157229768
 30
0.0
 11
345.162239757886
 21
241.052157229768
 31
0.0
  0
LINE
  5
317
330
1F
100
AcDbEntity
  8
1
  6
Continuous
 62
     4
100
AcDbLine
 10
344.912239757886
 20
242.802157229768
 30
0.0
 11
345.162239757886
 21
241.802157229768
 31
0.0
  0
LINE
  5
318
330
1F
100
AcDbEntity
  8
1
  6
Continuous
 62
     4
100
AcDbLine
 10
344.162239757886
 20
243.552157229768
 30
0.0
 11
344.912239757886
 21
242.802157229768
 31
0.0
  0
LINE
  5
319
330
1F
100
AcDbEntity
  8
1
  6
Continuous
 62
     4
100
AcDbLine
 10
342.912239757886
 20
243.802157229768
 30
0.0
 11
344.162239757886
 21
243.552157229768
 31
0.0
  0
LINE
  5
31A
330
1F
100
AcDbEntity
  8
1
  6
Continuous
 62
     4
100
AcDbLine
 10
339.162239757886
 20
243.802157229768
 30
0.0
 11
342.912239757886
 21
243.802157229768
 31
0.0
  0
LINE
  5
31B
330
1F
100
AcDbEntity
  8
1
  6
Continuous
 62
     4
100
AcDbLine
 10
339.162239757886
 20
233.802157229768
 30
0.0
 11
339.162239757886
 21
239.302157229768
 31
0.0
  0
LINE
  5
31C
330
1F
100
AcDbEntity
  8
1
  6
Continuous
 62
     4
100
AcDbLine
 10
343.662239757886
 20
233.802157229768
 30
0.0
 11
339.162239757886
 21
233.802157229768
 31
0.0
  0
LINE
  5
31D
330
1F
100
AcDbEntity
  8
1
  6
Continuous
 62
     4
100
AcDbLine
 10
344.662239757886
 20
234.302157229768
 30
0.0
 11
343.662239757886
 21
233.802157229768
 31
0.0
  0
LINE
  5
31E
330
1F
100
AcDbEntity
  8
1
  6
Continuous
 62
     4
100
AcDbLine
 10
345.162239757886
 20
234.802157229768
 30
0.0
 11
344.662239757886
 21
234.302157229768
 31
0.0
  0
LINE
  5
31F
330
1F
100
AcDbEntity
  8
1
  6
Continuous
 62
     4
100
AcDbLine
 10
345.662239757886
 20
235.802157229768
 30
0.0
 11
345.162239757886
 21
234.802157229768
 31
0.0
  0
LINE
  5
320
330
1F
100
AcDbEntity
  8
1
  6
Continuous
 62
     4
100
AcDbLine
 10
345.662239757886
 20
237.052157229768
 30
0.0
 11
345.662239757886
 21
235.802157229768
 31
0.0
  0
LINE
  5
321
330
1F
100
AcDbEntity
  8
1
  6
Continuous
 62
     4
100
AcDbLine
 10
345.162239757886
 20
238.302157229768
 30
0.0
 11
345.662239757886
 21
237.052157229768
 31
0.0
  0
LINE
  5
322
330
1F
100
AcDbEntity
  8
1
  6
Continuous
 62
     4
100
AcDbLine
 10
344.662239757886
 20
238.802157229768
 30
0.0
 11
345.162239757886
 21
238.302157229768
 31
0.0
  0
LINE
  5
323
330
1F
100
AcDbEntity
  8
1
  6
Continuous
 62
     4
100
AcDbLine
 10
343.662239757886
 20
239.302157229768
 30
0.0
 11
344.662239757886
 21
238.802157229768
 31
0.0
  0
LINE
  5
324
330
1F
100
AcDbEntity
  8
1
  6
Continuous
 62
     4
100
AcDbLine
 10
343.162239757886
 20
239.302157229768
 30
0.0
 11
343.662239757886
 21
239.302157229768
 31
0.0
  0
LINE
  5
325
330
1F
100
AcDbEntity
  8
1
  6
Continuous
 62
     4
100
AcDbLine
 10
339.162239757886
 20
239.302157229768
 30
0.0
 11
343.162239757886
 21
239.302157229768
 31
0.0
  0
LINE
  5
326
330
1F
100
AcDbEntity
  8
1
  6
Continuous
 62
     4
100
AcDbLine
 10
-149.375
 20
-44.5
 30
0.0
 11
-148.375
 21
-45.125
 31
0.0
  0
LINE
  5
327
330
1F
100
AcDbEntity
  8
1
  6
Continuous
 62
     4
100
AcDbLine
 10
-148.0
 20
-44.1875
 30
0.0
 11
-148.8125
 21
-43.5625
 31
0.0
  0
LINE
  5
328
330
1F
100
AcDbEntity
  8
1
  6
Continuous
 62
     4
100
AcDbLine
 10
-147.3125
 20
-43.4375
 30
0.0
 11
-146.875
 21
-43.875
 31
0.0
  0
LINE
  5
329
330
1F
100
AcDbEntity
  8
1
  6
Continuous
 62
     4
100
AcDbLine
 10
-146.5625
 20
-43.5625
 30
0.0
 11
-147.0
 21
-43.125
 31
0.0
  0
LINE
  5
32A
330
1F
100
AcDbEntity
  8
1
  6
Continuous
 62
     4
100
AcDbLine
 10
-146.875
 20
-45.4375
 30
0.0
 11
-146.1875
 21
-44.5
 31
0.0
  0
LINE
  5
32B
330
1F
100
AcDbEntity
  8
1
  6
Continuous
 62
     4
100
AcDbLine
 10
-148.0
 20
-46.375
 30
0.0
 11
-146.875
 21
-45.4375
 31
0.0
  0
LINE
  5
32C
330
1F
100
AcDbEntity
  8
1
  6
Continuous
 62
     4
100
AcDbLine
 10
-149.0625
 20
-47.0
 30
0.0
 11
-148.0
 21
-46.375
 31
0.0
  0
LINE
  5
32D
330
1F
100
AcDbEntity
  8
1
  6
Continuous
 62
     4
100
AcDbLine
 10
-151.75
 20
-45.625
 30
0.0
 11
-151.3125
 21
-46.25
 31
0.0
  0
LINE
  5
32E
330
1F
100
AcDbEntity
  8
1
  6
Continuous
 62
     4
100
AcDbLine
 10
-152.3125
 20
-45.125
 30
0.0
 11
-151.75
 21
-45.625
 31
0.0
  0
LINE
  5
32F
330
1F
100
AcDbEntity
  8
1
  6
Continuous
 62
     4
100
AcDbLine
 10
-152.6875
 20
-43.125
 30
0.0
 11
-152.4375
 21
-43.4375
 31
0.0
  0
LINE
  5
330
330
1F
100
AcDbEntity
  8
1
  6
Continuous
 62
     4
100
AcDbLine
 10
-153.25
 20
-42.8125
 30
0.0
 11
-152.6875
 21
-43.125
 31
0.0
  0
LINE
  5
331
330
1F
100
AcDbEntity
  8
1
  6
Continuous
 62
     4
100
AcDbLine
 10
-152.0
 20
-44.0625
 30
0.0
 11
-153.9375
 21
-44.0625
 31
0.0
  0
LINE
  5
332
330
1F
100
AcDbEntity
  8
1
  6
Continuous
 62
     4
100
AcDbLine
 10
-153.0
 20
-45.125
 30
0.0
 11
-152.0
 21
-44.0625
 31
0.0
  0
LINE
  5
333
330
1F
100
AcDbEntity
  8
1
  6
Continuous
 62
     4
100
AcDbLine
 10
-154.375
 20
-46.0625
 30
0.0
 11
-153.0
 21
-45.125
 31
0.0
  0
LINE
  5
334
330
1F
100
AcDbEntity
  8
1
  6
Continuous
 62
     4
100
AcDbLine
 10
-152.8125
 20
-47.0
 30
0.0
 11
-152.8125
 21
-45.0
 31
0.0
  0
LINE
  5
335
330
1F
100
AcDbEntity
  8
1
  6
Continuous
 62
     4
100
AcDbLine
 10
-159.5625
 20
-47.5
 30
0.0
 11
-156.5625
 21
-47.5
 31
0.0
  0
LINE
  5
336
330
1F
100
AcDbEntity
  8
1
  6
Continuous
 62
     4
100
AcDbLine
 10
-156.8125
 20
-44.25
 30
0.0
 11
-159.5625
 21
-47.5
 31
0.0
  0
LINE
  5
337
330
1F
100
AcDbEntity
  8
1
  6
Continuous
 62
     4
100
AcDbLine
 10
-156.5625
 20
-43.75
 30
0.0
 11
-156.8125
 21
-44.25
 31
0.0
  0
LINE
  5
338
330
1F
100
AcDbEntity
  8
1
  6
Continuous
 62
     4
100
AcDbLine
 10
-156.5625
 20
-43.25
 30
0.0
 11
-156.5625
 21
-43.75
 31
0.0
  0
LINE
  5
339
330
1F
100
AcDbEntity
  8
1
  6
Continuous
 62
     4
100
AcDbLine
 10
-156.8125
 20
-42.875
 30
0.0
 11
-156.5625
 21
-43.25
 31
0.0
  0
LINE
  5
33A
330
1F
100
AcDbEntity
  8
1
  6
Continuous
 62
     4
100
AcDbLine
 10
-157.1875
 20
-42.625
 30
0.0
 11
-156.8125
 21
-42.875
 31
0.0
  0
LINE
  5
33B
330
1F
100
AcDbEntity
  8
1
  6
Continuous
 62
     4
100
AcDbLine
 10
-157.6875
 20
-42.5
 30
0.0
 11
-157.1875
 21
-42.625
 31
0.0
  0
LINE
  5
33C
330
1F
100
AcDbEntity
  8
1
  6
Continuous
 62
     4
100
AcDbLine
 10
-158.4375
 20
-42.5
 30
0.0
 11
-157.6875
 21
-42.5
 31
0.0
  0
LINE
  5
33D
330
1F
100
AcDbEntity
  8
1
  6
Continuous
 62
     4
100
AcDbLine
 10
-158.9375
 20
-42.625
 30
0.0
 11
-158.4375
 21
-42.5
 31
0.0
  0
LINE
  5
33E
330
1F
100
AcDbEntity
  8
1
  6
Continuous
 62
     4
100
AcDbLine
 10
-159.3125
 20
-42.875
 30
0.0
 11
-158.9375
 21
-42.625
 31
0.0
  0
LINE
  5
33F
330
1F
100
AcDbEntity
  8
1
  6
Continuous
 62
     4
100
AcDbLine
 10
-159.5625
 20
-43.25
 30
0.0
 11
-159.3125
 21
-42.875
 31
0.0
  0
LINE
  5
340
330
1F
100
AcDbEntity
  8
1
  6
Continuous
 62
     4
100
AcDbLine
 10
-163.0625
 20
-47.5
 30
0.0
 11
-161.0625
 21
-42.5
 31
0.0
  0
LINE
  5
341
330
1F
100
AcDbEntity
  8
1
  6
Continuous
 62
     4
100
AcDbLine
 10
-164.5625
 20
-42.5
 30
0.0
 11
-164.5625
 21
-47.5
 31
0.0
  0
LINE
  5
342
330
1F
100
AcDbEntity
  8
1
  6
Continuous
 62
     4
100
AcDbLine
 10
-166.0625
 20
-44.0
 30
0.0
 11
-164.5625
 21
-42.5
 31
0.0
  0
LINE
  5
343
330
1F
100
AcDbEntity
  8
1
  6
Continuous
 62
     4
100
AcDbLine
 10
-171.5625
 20
-42.5
 30
0.0
 11
-171.5625
 21
-47.5
 31
0.0
  0
LINE
  5
344
330
1F
100
AcDbEntity
  8
1
  6
Continuous
 62
     4
100
AcDbLine
 10
-173.0625
 20
-44.0
 30
0.0
 11
-171.5625
 21
-42.5
 31
0.0
  0
LINE
  5
345
330
1F
100
AcDbEntity
  8
1
  6
Continuous
 62
     4
100
AcDbLine
 10
-178.0625
 20
-47.5
 30
0.0
 11
-178.0625
 21
-45.0
 31
0.0
  0
LINE
  5
346
330
1F
100
AcDbEntity
  8
1
  6
Continuous
 62
     4
100
AcDbLine
 10
-176.0625
 20
-45.0
 30
0.0
 11
-174.5625
 21
-47.5
 31
0.0
  0
LINE
  5
347
330
1F
100
AcDbEntity
  8
1
  6
Continuous
 62
     4
100
AcDbLine
 10
-175.6875
 20
-45.0
 30
0.0
 11
-176.0625
 21
-45.0
 31
0.0
  0
LINE
  5
348
330
1F
100
AcDbEntity
  8
1
  6
Continuous
 62
     4
100
AcDbLine
 10
-175.1875
 20
-44.875
 30
0.0
 11
-175.6875
 21
-45.0
 31
0.0
  0
LINE
  5
349
330
1F
100
AcDbEntity
  8
1
  6
Continuous
 62
     4
100
AcDbLine
 10
-174.8125
 20
-44.625
 30
0.0
 11
-175.1875
 21
-44.875
 31
0.0
  0
LINE
  5
34A
330
1F
100
AcDbEntity
  8
1
  6
Continuous
 62
     4
100
AcDbLine
 10
-174.6875
 20
-44.375
 30
0.0
 11
-174.8125
 21
-44.625
 31
0.0
  0
LINE
  5
34B
330
1F
100
AcDbEntity
  8
1
  6
Continuous
 62
     4
100
AcDbLine
 10
-174.5625
 20
-44.0
 30
0.0
 11
-174.6875
 21
-44.375
 31
0.0
  0
LINE
  5
34C
330
1F
100
AcDbEntity
  8
1
  6
Continuous
 62
     4
100
AcDbLine
 10
-174.5625
 20
-43.5
 30
0.0
 11
-174.5625
 21
-44.0
 31
0.0
  0
LINE
  5
34D
330
1F
100
AcDbEntity
  8
1
  6
Continuous
 62
     4
100
AcDbLine
 10
-174.6875
 20
-43.125
 30
0.0
 11
-174.5625
 21
-43.5
 31
0.0
  0
LINE
  5
34E
330
1F
100
AcDbEntity
  8
1
  6
Continuous
 62
     4
100
AcDbLine
 10
-174.8125
 20
-42.875
 30
0.0
 11
-174.6875
 21
-43.125
 31
0.0
  0
LINE
  5
34F
330
1F
100
AcDbEntity
  8
1
  6
Continuous
 62
     4
100
AcDbLine
 10
-175.1875
 20
-42.625
 30
0.0
 11
-174.8125
 21
-42.875
 31
0.0
  0
LINE
  5
350
330
1F
100
AcDbEntity
  8
1
  6
Continuous
 62
     4
100
AcDbLine
 10
-175.6875
 20
-42.5
 30
0.0
 11
-175.1875
 21
-42.625
 31
0.0
  0
LINE
  5
351
330
1F
100
AcDbEntity
  8
1
  6
Continuous
 62
     4
100
AcDbLine
 10
-178.0625
 20
-42.5
 30
0.0
 11
-175.6875
 21
-42.5
 31
0.0
  0
LINE
  5
352
330
1F
100
AcDbEntity
  8
1
  6
Continuous
 62
     4
100
AcDbLine
 10
-178.0625
 20
-45.0
 30
0.0
 11
-178.0625
 21
-42.5
 31
0.0
  0
LINE
  5
353
330
1F
100
AcDbEntity
  8
1
  6
Continuous
 62
     4
100
AcDbLine
 10
-176.0625
 20
-45.0
 30
0.0
 11
-178.0625
 21
-45.0
 31
0.0
  0
LINE
  5
354
330
1F
100
AcDbEntity
  8
1
  6
Continuous
 62
     4
100
AcDbLine
 10
62.9704246520996
 20
-155.695053100586
 30
0.0
 11
63.9704246520996
 21
-156.320053100586
 31
0.0
  0
LINE
  5
355
330
1F
100
AcDbEntity
  8
1
  6
Continuous
 62
     4
100
AcDbLine
 10
64.34542465209961
 20
-155.382553100586
 30
0.0
 11
63.5329246520996
 21
-154.757553100586
 31
0.0
  0
LINE
  5
356
330
1F
100
AcDbEntity
  8
1
  6
Continuous
 62
     4
100
AcDbLine
 10
65.03292465209961
 20
-154.632553100586
 30
0.0
 11
65.47042465209961
 21
-155.070053100586
 31
0.0
  0
LINE
  5
357
330
1F
100
AcDbEntity
  8
1
  6
Continuous
 62
     4
100
AcDbLine
 10
65.78292465209961
 20
-154.757553100586
 30
0.0
 11
65.34542465209961
 21
-154.320053100586
 31
0.0
  0
LINE
  5
358
330
1F
100
AcDbEntity
  8
1
  6
Continuous
 62
     4
100
AcDbLine
 10
65.47042465209961
 20
-156.632553100586
 30
0.0
 11
66.15792465209961
 21
-155.695053100586
 31
0.0
  0
LINE
  5
359
330
1F
100
AcDbEntity
  8
1
  6
Continuous
 62
     4
100
AcDbLine
 10
64.34542465209961
 20
-157.570053100586
 30
0.0
 11
65.47042465209961
 21
-156.632553100586
 31
0.0
  0
LINE
  5
35A
330
1F
100
AcDbEntity
  8
1
  6
Continuous
 62
     4
100
AcDbLine
 10
63.2829246520996
 20
-158.195053100586
 30
0.0
 11
64.34542465209961
 21
-157.570053100586
 31
0.0
  0
LINE
  5
35B
330
1F
100
AcDbEntity
  8
1
  6
Continuous
 62
     4
100
AcDbLine
 10
60.5954246520996
 20
-156.820053100586
 30
0.0
 11
61.0329246520996
 21
-157.445053100586
 31
0.0
  0
LINE
  5
35C
330
1F
100
AcDbEntity
  8
1
  6
Continuous
 62
     4
100
AcDbLine
 10
60.0329246520996
 20
-156.320053100586
 30
0.0
 11
60.5954246520996
 21
-156.820053100586
 31
0.0
  0
LINE
  5
35D
330
1F
100
AcDbEntity
  8
1
  6
Continuous
 62
     4
100
AcDbLine
 10
59.6579246520996
 20
-154.320053100586
 30
0.0
 11
59.9079246520996
 21
-154.632553100586
 31
0.0
  0
LINE
  5
35E
330
1F
100
AcDbEntity
  8
1
  6
Continuous
 62
     4
100
AcDbLine
 10
59.0954246520996
 20
-154.007553100586
 30
0.0
 11
59.6579246520996
 21
-154.320053100586
 31
0.0
  0
LINE
  5
35F
330
1F
100
AcDbEntity
  8
1
  6
Continuous
 62
     4
100
AcDbLine
 10
60.3454246520996
 20
-155.257553100586
 30
0.0
 11
58.4079246520996
 21
-155.257553100586
 31
0.0
  0
LINE
  5
360
330
1F
100
AcDbEntity
  8
1
  6
Continuous
 62
     4
100
AcDbLine
 10
59.3454246520996
 20
-156.320053100586
 30
0.0
 11
60.3454246520996
 21
-155.257553100586
 31
0.0
  0
LINE
  5
361
330
1F
100
AcDbEntity
  8
1
  6
Continuous
 62
     4
100
AcDbLine
 10
57.9704246520996
 20
-157.257553100586
 30
0.0
 11
59.3454246520996
 21
-156.320053100586
 31
0.0
  0
LINE
  5
362
330
1F
100
AcDbEntity
  8
1
  6
Continuous
 62
     4
100
AcDbLine
 10
59.5329246520996
 20
-158.195053100586
 30
0.0
 11
59.5329246520996
 21
-156.195053100586
 31
0.0
  0
LINE
  5
363
330
1F
100
AcDbEntity
  8
1
  6
Continuous
 62
     4
100
AcDbLine
 10
55.0329246520996
 20
-156.695053100586
 30
0.0
 11
55.0329246520996
 21
-158.695053100586
 31
0.0
  0
LINE
  5
364
330
1F
100
AcDbEntity
  8
1
  6
Continuous
 62
     4
100
AcDbLine
 10
52.7829246520996
 20
-157.695053100586
 30
0.0
 11
55.7829246520996
 21
-157.695053100586
 31
0.0
  0
LINE
  5
365
330
1F
100
AcDbEntity
  8
1
  6
Continuous
 62
     4
100
AcDbLine
 10
55.0329246520996
 20
-153.695053100586
 30
0.0
 11
52.7829246520996
 21
-157.695053100586
 31
0.0
  0
LINE
  5
366
330
1F
100
AcDbEntity
  8
1
  6
Continuous
 62
     4
100
AcDbLine
 10
49.2829246520996
 20
-158.695053100586
 30
0.0
 11
51.2829246520996
 21
-153.695053100586
 31
0.0
  0
LINE
  5
367
330
1F
100
AcDbEntity
  8
1
  6
Continuous
 62
     4
100
AcDbLine
 10
46.6579246520996
 20
-158.695053100586
 30
0.0
 11
44.7829246520996
 21
-158.695053100586
 31
0.0
  0
LINE
  5
368
330
1F
100
AcDbEntity
  8
1
  6
Continuous
 62
     4
100
AcDbLine
 10
47.0329246520996
 20
-158.570053100586
 30
0.0
 11
46.6579246520996
 21
-158.695053100586
 31
0.0
  0
LINE
  5
369
330
1F
100
AcDbEntity
  8
1
  6
Continuous
 62
     4
100
AcDbLine
 10
47.4079246520996
 20
-158.320053100586
 30
0.0
 11
47.0329246520996
 21
-158.570053100586
 31
0.0
  0
LINE
  5
36A
330
1F
100
AcDbEntity
  8
1
  6
Continuous
 62
     4
100
AcDbLine
 10
47.6579246520996
 20
-157.945053100586
 30
0.0
 11
47.4079246520996
 21
-158.320053100586
 31
0.0
  0
LINE
  5
36B
330
1F
100
AcDbEntity
  8
1
  6
Continuous
 62
     4
100
AcDbLine
 10
47.7829246520996
 20
-157.445053100586
 30
0.0
 11
47.6579246520996
 21
-157.945053100586
 31
0.0
  0
LINE
  5
36C
330
1F
100
AcDbEntity
  8
1
  6
Continuous
 62
     4
100
AcDbLine
 10
47.7829246520996
 20
-156.820053100586
 30
0.0
 11
47.7829246520996
 21
-157.445053100586
 31
0.0
  0
LINE
  5
36D
330
1F
100
AcDbEntity
  8
1
  6
Continuous
 62
     4
100
AcDbLine
 10
47.6579246520996
 20
-156.320053100586
 30
0.0
 11
47.7829246520996
 21
-156.820053100586
 31
0.0
  0
LINE
  5
36E
330
1F
100
AcDbEntity
  8
1
  6
Continuous
 62
     4
100
AcDbLine
 10
47.5329246520996
 20
-156.070053100586
 30
0.0
 11
47.6579246520996
 21
-156.320053100586
 31
0.0
  0
LINE
  5
36F
330
1F
100
AcDbEntity
  8
1
  6
Continuous
 62
     4
100
AcDbLine
 10
47.2829246520996
 20
-155.820053100586
 30
0.0
 11
47.5329246520996
 21
-156.070053100586
 31
0.0
  0
LINE
  5
370
330
1F
100
AcDbEntity
  8
1
  6
Continuous
 62
     4
100
AcDbLine
 10
46.7829246520996
 20
-155.695053100586
 30
0.0
 11
47.2829246520996
 21
-155.820053100586
 31
0.0
  0
LINE
  5
371
330
1F
100
AcDbEntity
  8
1
  6
Continuous
 62
     4
100
AcDbLine
 10
47.1579246520996
 20
-155.570053100586
 30
0.0
 11
46.7829246520996
 21
-155.695053100586
 31
0.0
  0
LINE
  5
372
330
1F
100
AcDbEntity
  8
1
  6
Continuous
 62
     4
100
AcDbLine
 10
47.4079246520996
 20
-155.445053100586
 30
0.0
 11
47.1579246520996
 21
-155.570053100586
 31
0.0
  0
LINE
  5
373
330
1F
100
AcDbEntity
  8
1
  6
Continuous
 62
     4
100
AcDbLine
 10
47.6579246520996
 20
-155.195053100586
 30
0.0
 11
47.4079246520996
 21
-155.445053100586
 31
0.0
  0
LINE
  5
374
330
1F
100
AcDbEntity
  8
1
  6
Continuous
 62
     4
100
AcDbLine
 10
47.7829246520996
 20
-154.820053100586
 30
0.0
 11
47.6579246520996
 21
-155.195053100586
 31
0.0
  0
LINE
  5
375
330
1F
100
AcDbEntity
  8
1
  6
Continuous
 62
     4
100
AcDbLine
 10
47.7829246520996
 20
-154.445053100586
 30
0.0
 11
47.7829246520996
 21
-154.820053100586
 31
0.0
  0
LINE
  5
376
330
1F
100
AcDbEntity
  8
1
  6
Continuous
 62
     4
100
AcDbLine
 10
47.6579246520996
 20
-154.070053100586
 30
0.0
 11
47.7829246520996
 21
-154.445053100586
 31
0.0
  0
LINE
  5
377
330
1F
100
AcDbEntity
  8
1
  6
Continuous
 62
     4
100
AcDbLine
 10
47.2829246520996
 20
-153.820053100586
 30
0.0
 11
47.6579246520996
 21
-154.070053100586
 31
0.0
  0
LINE
  5
378
330
1F
100
AcDbEntity
  8
1
  6
Continuous
 62
     4
100
AcDbLine
 10
46.6579246520996
 20
-153.695053100586
 30
0.0
 11
47.2829246520996
 21
-153.820053100586
 31
0.0
  0
LINE
  5
379
330
1F
100
AcDbEntity
  8
1
  6
Continuous
 62
     4
100
AcDbLine
 10
44.7829246520996
 20
-153.695053100586
 30
0.0
 11
46.6579246520996
 21
-153.695053100586
 31
0.0
  0
LINE
  5
37A
330
1F
100
AcDbEntity
  8
1
  6
Continuous
 62
     4
100
AcDbLine
 10
45.5329246520996
 20
-155.695053100586
 30
0.0
 11
46.7829246520996
 21
-155.695053100586
 31
0.0
  0
LINE
  5
37B
330
1F
100
AcDbEntity
  8
1
  6
Continuous
 62
     4
100
AcDbLine
 10
39.7829246520996
 20
-158.695053100586
 30
0.0
 11
39.7829246520996
 21
-156.195053100586
 31
0.0
  0
LINE
  5
37C
330
1F
100
AcDbEntity
  8
1
  6
Continuous
 62
     4
100
AcDbLine
 10
41.7829246520996
 20
-156.195053100586
 30
0.0
 11
43.2829246520996
 21
-158.695053100586
 31
0.0
  0
LINE
  5
37D
330
1F
100
AcDbEntity
  8
1
  6
Continuous
 62
     4
100
AcDbLine
 10
42.1579246520996
 20
-156.195053100586
 30
0.0
 11
41.7829246520996
 21
-156.195053100586
 31
0.0
  0
LINE
  5
37E
330
1F
100
AcDbEntity
  8
1
  6
Continuous
 62
     4
100
AcDbLine
 10
42.6579246520996
 20
-156.070053100586
 30
0.0
 11
42.1579246520996
 21
-156.195053100586
 31
0.0
  0
LINE
  5
37F
330
1F
100
AcDbEntity
  8
1
  6
Continuous
 62
     4
100
AcDbLine
 10
43.0329246520996
 20
-155.820053100586
 30
0.0
 11
42.6579246520996
 21
-156.070053100586
 31
0.0
  0
LINE
  5
380
330
1F
100
AcDbEntity
  8
1
  6
Continuous
 62
     4
100
AcDbLine
 10
43.1579246520996
 20
-155.570053100586
 30
0.0
 11
43.0329246520996
 21
-155.820053100586
 31
0.0
  0
LINE
  5
381
330
1F
100
AcDbEntity
  8
1
  6
Continuous
 62
     4
100
AcDbLine
 10
43.2829246520996
 20
-155.195053100586
 30
0.0
 11
43.1579246520996
 21
-155.570053100586
 31
0.0
  0
LINE
  5
382
330
1F
100
AcDbEntity
  8
1
  6
Continuous
 62
     4
100
AcDbLine
 10
43.2829246520996
 20
-154.695053100586
 30
0.0
 11
43.2829246520996
 21
-155.195053100586
 31
0.0
  0
LINE
  5
383
330
1F
100
AcDbEntity
  8
1
  6
Continuous
 62
     4
100
AcDbLine
 10
43.1579246520996
 20
-154.320053100586
 30
0.0
 11
43.2829246520996
 21
-154.695053100586
 31
0.0
  0
LINE
  5
384
330
1F
100
AcDbEntity
  8
1
  6
Continuous
 62
     4
100
AcDbLine
 10
43.0329246520996
 20
-154.070053100586
 30
0.0
 11
43.1579246520996
 21
-154.320053100586
 31
0.0
  0
LINE
  5
385
330
1F
100
AcDbEntity
  8
1
  6
Continuous
 62
     4
100
AcDbLine
 10
42.6579246520996
 20
-153.820053100586
 30
0.0
 11
43.0329246520996
 21
-154.070053100586
 31
0.0
  0
LINE
  5
386
330
1F
100
AcDbEntity
  8
1
  6
Continuous
 62
     4
100
AcDbLine
 10
42.1579246520996
 20
-153.695053100586
 30
0.0
 11
42.6579246520996
 21
-153.820053100586
 31
0.0
  0
LINE
  5
387
330
1F
100
AcDbEntity
  8
1
  6
Continuous
 62
     4
100
AcDbLine
 10
39.7829246520996
 20
-153.695053100586
 30
0.0
 11
42.1579246520996
 21
-153.695053100586
 31
0.0
  0
LINE
  5
388
330
1F
100
AcDbEntity
  8
1
  6
Continuous
 62
     4
100
AcDbLine
 10
39.7829246520996
 20
-156.195053100586
 30
0.0
 11
39.7829246520996
 21
-153.695053100586
 31
0.0
  0
LINE
  5
389
330
1F
100
AcDbEntity
  8
1
  6
Continuous
 62
     4
100
AcDbLine
 10
41.7829246520996
 20
-156.195053100586
 30
0.0
 11
39.7829246520996
 21
-156.195053100586
 31
0.0
  0
LINE
  5
38A
330
1F
100
AcDbEntity
  8
1
  6
Continuous
 62
     4
100
AcDbLine
 10
173.802597045898
 20
-48.1469116210938
 30
0.0
 11
174.802597045898
 21
-48.7719116210938
 31
0.0
  0
LINE
  5
38B
330
1F
100
AcDbEntity
  8
1
  6
Continuous
 62
     4
100
AcDbLine
 10
175.177597045898
 20
-47.8344116210938
 30
0.0
 11
174.365097045898
 21
-47.2094116210938
 31
0.0
  0
LINE
  5
38C
330
1F
100
AcDbEntity
  8
1
  6
Continuous
 62
     4
100
AcDbLine
 10
175.865097045898
 20
-47.0844116210938
 30
0.0
 11
176.302597045898
 21
-47.5219116210938
 31
0.0
  0
LINE
  5
38D
330
1F
100
AcDbEntity
  8
1
  6
Continuous
 62
     4
100
AcDbLine
 10
176.615097045898
 20
-47.2094116210938
 30
0.0
 11
176.177597045898
 21
-46.7719116210938
 31
0.0
  0
LINE
  5
38E
330
1F
100
AcDbEntity
  8
1
  6
Continuous
 62
     4
100
AcDbLine
 10
176.302597045898
 20
-49.0844116210938
 30
0.0
 11
176.990097045898
 21
-48.1469116210938
 31
0.0
  0
LINE
  5
38F
330
1F
100
AcDbEntity
  8
1
  6
Continuous
 62
     4
100
AcDbLine
 10
175.177597045898
 20
-50.0219116210938
 30
0.0
 11
176.302597045898
 21
-49.0844116210938
 31
0.0
  0
LINE
  5
390
330
1F
100
AcDbEntity
  8
1
  6
Continuous
 62
     4
100
AcDbLine
 10
174.115097045898
 20
-50.6469116210938
 30
0.0
 11
175.177597045898
 21
-50.0219116210938
 31
0.0
  0
LINE
  5
391
330
1F
100
AcDbEntity
  8
1
  6
Continuous
 62
     4
100
AcDbLine
 10
171.427597045898
 20
-49.2719116210938
 30
0.0
 11
171.865097045898
 21
-49.8969116210938
 31
0.0
  0
LINE
  5
392
330
1F
100
AcDbEntity
  8
1
  6
Continuous
 62
     4
100
AcDbLine
 10
170.865097045898
 20
-48.7719116210938
 30
0.0
 11
171.427597045898
 21
-49.2719116210938
 31
0.0
  0
LINE
  5
393
330
1F
100
AcDbEntity
  8
1
  6
Continuous
 62
     4
100
AcDbLine
 10
170.490097045898
 20
-46.7719116210938
 30
0.0
 11
170.740097045898
 21
-47.0844116210938
 31
0.0
  0
LINE
  5
394
330
1F
100
AcDbEntity
  8
1
  6
Continuous
 62
     4
100
AcDbLine
 10
169.927597045898
 20
-46.4594116210938
 30
0.0
 11
170.490097045898
 21
-46.7719116210938
 31
0.0
  0
LINE
  5
395
330
1F
100
AcDbEntity
  8
1
  6
Continuous
 62
     4
100
AcDbLine
 10
171.177597045898
 20
-47.7094116210938
 30
0.0
 11
169.240097045898
 21
-47.7094116210938
 31
0.0
  0
LINE
  5
396
330
1F
100
AcDbEntity
  8
1
  6
Continuous
 62
     4
100
AcDbLine
 10
170.177597045898
 20
-48.7719116210938
 30
0.0
 11
171.177597045898
 21
-47.7094116210938
 31
0.0
  0
LINE
  5
397
330
1F
100
AcDbEntity
  8
1
  6
Continuous
 62
     4
100
AcDbLine
 10
168.802597045898
 20
-49.7094116210938
 30
0.0
 11
170.177597045898
 21
-48.7719116210938
 31
0.0
  0
LINE
  5
398
330
1F
100
AcDbEntity
  8
1
  6
Continuous
 62
     4
100
AcDbLine
 10
170.365097045898
 20
-50.6469116210938
 30
0.0
 11
170.365097045898
 21
-48.6469116210938
 31
0.0
  0
LINE
  5
399
330
1F
100
AcDbEntity
  8
1
  6
Continuous
 62
     4
100
AcDbLine
 10
163.615097045898
 20
-51.1469116210938
 30
0.0
 11
166.615097045898
 21
-51.1469116210938
 31
0.0
  0
LINE
  5
39A
330
1F
100
AcDbEntity
  8
1
  6
Continuous
 62
     4
100
AcDbLine
 10
166.365097045898
 20
-47.8969116210938
 30
0.0
 11
163.615097045898
 21
-51.1469116210938
 31
0.0
  0
LINE
  5
39B
330
1F
100
AcDbEntity
  8
1
  6
Continuous
 62
     4
100
AcDbLine
 10
166.615097045898
 20
-47.3969116210938
 30
0.0
 11
166.365097045898
 21
-47.8969116210938
 31
0.0
  0
LINE
  5
39C
330
1F
100
AcDbEntity
  8
1
  6
Continuous
 62
     4
100
AcDbLine
 10
166.615097045898
 20
-46.8969116210938
 30
0.0
 11
166.615097045898
 21
-47.3969116210938
 31
0.0
  0
LINE
  5
39D
330
1F
100
AcDbEntity
  8
1
  6
Continuous
 62
     4
100
AcDbLine
 10
166.365097045898
 20
-46.5219116210938
 30
0.0
 11
166.615097045898
 21
-46.8969116210938
 31
0.0
  0
LINE
  5
39E
330
1F
100
AcDbEntity
  8
1
  6
Continuous
 62
     4
100
AcDbLine
 10
165.990097045898
 20
-46.2719116210938
 30
0.0
 11
166.365097045898
 21
-46.5219116210938
 31
0.0
  0
LINE
  5
39F
330
1F
100
AcDbEntity
  8
1
  6
Continuous
 62
     4
100
AcDbLine
 10
165.490097045898
 20
-46.1469116210938
 30
0.0
 11
165.990097045898
 21
-46.2719116210938
 31
0.0
  0
LINE
  5
3A0
330
1F
100
AcDbEntity
  8
1
  6
Continuous
 62
     4
100
AcDbLine
 10
164.740097045898
 20
-46.1469116210938
 30
0.0
 11
165.490097045898
 21
-46.1469116210938
 31
0.0
  0
LINE
  5
3A1
330
1F
100
AcDbEntity
  8
1
  6
Continuous
 62
     4
100
AcDbLine
 10
164.240097045898
 20
-46.2719116210938
 30
0.0
 11
164.740097045898
 21
-46.1469116210938
 31
0.0
  0
LINE
  5
3A2
330
1F
100
AcDbEntity
  8
1
  6
Continuous
 62
     4
100
AcDbLine
 10
163.865097045898
 20
-46.5219116210938
 30
0.0
 11
164.240097045898
 21
-46.2719116210938
 31
0.0
  0
LINE
  5
3A3
330
1F
100
AcDbEntity
  8
1
  6
Continuous
 62
     4
100
AcDbLine
 10
163.615097045898
 20
-46.8969116210938
 30
0.0
 11
163.865097045898
 21
-46.5219116210938
 31
0.0
  0
LINE
  5
3A4
330
1F
100
AcDbEntity
  8
1
  6
Continuous
 62
     4
100
AcDbLine
 10
160.115097045898
 20
-51.1469116210938
 30
0.0
 11
162.115097045898
 21
-46.1469116210938
 31
0.0
  0
LINE
  5
3A5
330
1F
100
AcDbEntity
  8
1
  6
Continuous
 62
     4
100
AcDbLine
 10
158.615097045898
 20
-46.1469116210938
 30
0.0
 11
158.615097045898
 21
-51.1469116210938
 31
0.0
  0
LINE
  5
3A6
330
1F
100
AcDbEntity
  8
1
  6
Continuous
 62
     4
100
AcDbLine
 10
157.115097045898
 20
-47.6469116210938
 30
0.0
 11
158.615097045898
 21
-46.1469116210938
 31
0.0
  0
LINE
  5
3A7
330
1F
100
AcDbEntity
  8
1
  6
Continuous
 62
     4
100
AcDbLine
 10
151.615097045898
 20
-46.1469116210938
 30
0.0
 11
151.615097045898
 21
-51.1469116210938
 31
0.0
  0
LINE
  5
3A8
330
1F
100
AcDbEntity
  8
1
  6
Continuous
 62
     4
100
AcDbLine
 10
150.115097045898
 20
-47.6469116210938
 30
0.0
 11
151.615097045898
 21
-46.1469116210938
 31
0.0
  0
LINE
  5
3A9
330
1F
100
AcDbEntity
  8
1
  6
Continuous
 62
     4
100
AcDbLine
 10
145.115097045898
 20
-51.1469116210938
 30
0.0
 11
145.115097045898
 21
-48.6469116210938
 31
0.0
  0
LINE
  5
3AA
330
1F
100
AcDbEntity
  8
1
  6
Continuous
 62
     4
100
AcDbLine
 10
147.115097045898
 20
-48.6469116210938
 30
0.0
 11
148.615097045898
 21
-51.1469116210938
 31
0.0
  0
LINE
  5
3AB
330
1F
100
AcDbEntity
  8
1
  6
Continuous
 62
     4
100
AcDbLine
 10
147.490097045898
 20
-48.6469116210938
 30
0.0
 11
147.115097045898
 21
-48.6469116210938
 31
0.0
  0
LINE
  5
3AC
330
1F
100
AcDbEntity
  8
1
  6
Continuous
 62
     4
100
AcDbLine
 10
147.990097045898
 20
-48.5219116210938
 30
0.0
 11
147.490097045898
 21
-48.6469116210938
 31
0.0
  0
LINE
  5
3AD
330
1F
100
AcDbEntity
  8
1
  6
Continuous
 62
     4
100
AcDbLine
 10
148.365097045898
 20
-48.2719116210938
 30
0.0
 11
147.990097045898
 21
-48.5219116210938
 31
0.0
  0
LINE
  5
3AE
330
1F
100
AcDbEntity
  8
1
  6
Continuous
 62
     4
100
AcDbLine
 10
148.490097045898
 20
-48.0219116210938
 30
0.0
 11
148.365097045898
 21
-48.2719116210938
 31
0.0
  0
LINE
  5
3AF
330
1F
100
AcDbEntity
  8
1
  6
Continuous
 62
     4
100
AcDbLine
 10
148.615097045898
 20
-47.6469116210938
 30
0.0
 11
148.490097045898
 21
-48.0219116210938
 31
0.0
  0
LINE
  5
3B0
330
1F
100
AcDbEntity
  8
1
  6
Continuous
 62
     4
100
AcDbLine
 10
148.615097045898
 20
-47.1469116210938
 30
0.0
 11
148.615097045898
 21
-47.6469116210938
 31
0.0
  0
LINE
  5
3B1
330
1F
100
AcDbEntity
  8
1
  6
Continuous
 62
     4
100
AcDbLine
 10
148.490097045898
 20
-46.7719116210938
 30
0.0
 11
148.615097045898
 21
-47.1469116210938
 31
0.0
  0
LINE
  5
3B2
330
1F
100
AcDbEntity
  8
1
  6
Continuous
 62
     4
100
AcDbLine
 10
148.365097045898
 20
-46.5219116210938
 30
0.0
 11
148.490097045898
 21
-46.7719116210938
 31
0.0
  0
LINE
  5
3B3
330
1F
100
AcDbEntity
  8
1
  6
Continuous
 62
     4
100
AcDbLine
 10
147.990097045898
 20
-46.2719116210938
 30
0.0
 11
148.365097045898
 21
-46.5219116210938
 31
0.0
  0
LINE
  5
3B4
330
1F
100
AcDbEntity
  8
1
  6
Continuous
 62
     4
100
AcDbLine
 10
147.490097045898
 20
-46.1469116210938
 30
0.0
 11
147.990097045898
 21
-46.2719116210938
 31
0.0
  0
LINE
  5
3B5
330
1F
100
AcDbEntity
  8
1
  6
Continuous
 62
     4
100
AcDbLine
 10
145.115097045898
 20
-46.1469116210938
 30
0.0
 11
147.490097045898
 21
-46.1469116210938
 31
0.0
  0
LINE
  5
3B6
330
1F
100
AcDbEntity
  8
1
  6
Continuous
 62
     4
100
AcDbLine
 10
145.115097045898
 20
-48.6469116210938
 30
0.0
 11
145.115097045898
 21
-46.1469116210938
 31
0.0
  0
LINE
  5
3B7
330
1F
100
AcDbEntity
  8
1
  6
Continuous
 62
     4
100
AcDbLine
 10
147.115097045898
 20
-48.6469116210938
 30
0.0
 11
145.115097045898
 21
-48.6469116210938
 31
0.0
  0
LINE
  5
3B8
330
1F
100
AcDbEntity
  8
1
  6
Continuous
 62
     4
100
AcDbLine
 10
-2.9552711670215
 20
-169.123797965156
 30
0.0
 11
-3.4552711670215
 21
-169.748797965156
 31
0.0
  0
LINE
  5
3B9
330
1F
100
AcDbEntity
  8
1
  6
Continuous
 62
     4
100
AcDbLine
 10
-3.4552711670215
 20
-168.498797965156
 30
0.0
 11
-2.9552711670215
 21
-169.123797965156
 31
0.0
  0
LINE
  5
3BA
330
1F
100
AcDbEntity
  8
1
  6
Continuous
 62
     4
100
AcDbLine
 10
-6.7052711670215
 20
-169.123797965156
 30
0.0
 11
-2.9552711670215
 21
-169.123797965156
 31
0.0
  0
LINE
  5
3BB
330
1F
100
AcDbEntity
  8
1
  6
Continuous
 62
     4
100
AcDbLine
 10
-10.8302711670215
 20
-167.686297965156
 30
0.0
 11
-7.9552711670215
 21
-167.686297965156
 31
0.0
  0
LINE
  5
3BC
330
1F
100
AcDbEntity
  8
1
  6
Continuous
 62
     4
100
AcDbLine
 10
-10.8302711670215
 20
-167.686297965156
 30
0.0
 11
-10.1427711670215
 21
-166.748797965156
 31
0.0
  0
LINE
  5
3BD
330
1F
100
AcDbEntity
  8
1
  6
Continuous
 62
     4
100
AcDbLine
 10
-9.2052711670215
 20
-170.061297965156
 30
0.0
 11
-10.2677711670215
 21
-170.061297965156
 31
0.0
  0
LINE
  5
3BE
330
1F
100
AcDbEntity
  8
1
  6
Continuous
 62
     4
100
AcDbLine
 10
-9.2052711670215
 20
-168.811297965156
 30
0.0
 11
-9.2052711670215
 21
-170.061297965156
 31
0.0
  0
LINE
  5
3BF
330
1F
100
AcDbEntity
  8
1
  6
Continuous
 62
     4
100
AcDbLine
 10
-10.2677711670215
 20
-168.811297965156
 30
0.0
 11
-9.2052711670215
 21
-168.811297965156
 31
0.0
  0
LINE
  5
3C0
330
1F
100
AcDbEntity
  8
1
  6
Continuous
 62
     4
100
AcDbLine
 10
-10.2677711670215
 20
-170.061297965156
 30
0.0
 11
-10.2677711670215
 21
-168.811297965156
 31
0.0
  0
LINE
  5
3C1
330
1F
100
AcDbEntity
  8
1
  6
Continuous
 62
     4
100
AcDbLine
 10
-7.9552711670215
 20
-171.436297965156
 30
0.0
 11
-8.6427711670215
 21
-171.436297965156
 31
0.0
  0
LINE
  5
3C2
330
1F
100
AcDbEntity
  8
1
  6
Continuous
 62
     4
100
AcDbLine
 10
-7.9552711670215
 20
-167.686297965156
 30
0.0
 11
-7.9552711670215
 21
-171.436297965156
 31
0.0
  0
LINE
  5
3C3
330
1F
100
AcDbEntity
  8
1
  6
Continuous
 62
     4
100
AcDbLine
 10
-11.5177711670215
 20
-167.686297965156
 30
0.0
 11
-10.8302711670215
 21
-167.686297965156
 31
0.0
  0
LINE
  5
3C4
330
1F
100
AcDbEntity
  8
1
  6
Continuous
 62
     4
100
AcDbLine
 10
-11.5177711670215
 20
-171.436297965156
 30
0.0
 11
-11.5177711670215
 21
-167.686297965156
 31
0.0
  0
LINE
  5
3C5
330
1F
100
AcDbEntity
  8
1
  6
Continuous
 62
     4
100
AcDbLine
 10
-14.2052711670215
 20
-171.623797965156
 30
0.0
 11
-14.7052711670215
 21
-171.311297965156
 31
0.0
  0
LINE
  5
3C6
330
1F
100
AcDbEntity
  8
1
  6
Continuous
 62
     4
100
AcDbLine
 10
-13.8927711670215
 20
-171.123797965156
 30
0.0
 11
-14.2052711670215
 21
-171.623797965156
 31
0.0
  0
LINE
  5
3C7
330
1F
100
AcDbEntity
  8
1
  6
Continuous
 62
     4
100
AcDbLine
 10
-13.6427711670215
 20
-170.373797965156
 30
0.0
 11
-13.8927711670215
 21
-171.123797965156
 31
0.0
  0
LINE
  5
3C8
330
1F
100
AcDbEntity
  8
1
  6
Continuous
 62
     4
100
AcDbLine
 10
-13.3302711670215
 20
-169.248797965156
 30
0.0
 11
-13.6427711670215
 21
-170.373797965156
 31
0.0
  0
LINE
  5
3C9
330
1F
100
AcDbEntity
  8
1
  6
Continuous
 62
     4
100
AcDbLine
 10
-13.3302711670215
 20
-168.811297965156
 30
0.0
 11
-13.3302711670215
 21
-169.248797965156
 31
0.0
  0
LINE
  5
3CA
330
1F
100
AcDbEntity
  8
1
  6
Continuous
 62
     4
100
AcDbLine
 10
-15.1427711670215
 20
-168.811297965156
 30
0.0
 11
-13.3302711670215
 21
-168.811297965156
 31
0.0
  0
LINE
  5
3CB
330
1F
100
AcDbEntity
  8
1
  6
Continuous
 62
     4
100
AcDbLine
 10
-16.8302711670215
 20
-167.561297965156
 30
0.0
 11
-12.6427711670215
 21
-167.561297965156
 31
0.0
  0
LINE
  5
3CC
330
1F
100
AcDbEntity
  8
1
  6
Continuous
 62
     4
100
AcDbLine
 10
-15.0177711670215
 20
-167.998797965156
 30
0.0
 11
-14.8927711670215
 21
-166.748797965156
 31
0.0
  0
LINE
  5
3CD
330
1F
100
AcDbEntity
  8
1
  6
Continuous
 62
     4
100
AcDbLine
 10
-15.2677711670215
 20
-169.248797965156
 30
0.0
 11
-15.0177711670215
 21
-167.998797965156
 31
0.0
  0
LINE
  5
3CE
330
1F
100
AcDbEntity
  8
1
  6
Continuous
 62
     4
100
AcDbLine
 10
-15.5802711670215
 20
-170.061297965156
 30
0.0
 11
-15.2677711670215
 21
-169.248797965156
 31
0.0
  0
LINE
  5
3CF
330
1F
100
AcDbEntity
  8
1
  6
Continuous
 62
     4
100
AcDbLine
 10
-15.9552711670215
 20
-170.811297965156
 30
0.0
 11
-15.5802711670215
 21
-170.061297965156
 31
0.0
  0
LINE
  5
3D0
330
1F
100
AcDbEntity
  8
1
  6
Continuous
 62
     4
100
AcDbLine
 10
-16.5177711670215
 20
-171.436297965156
 30
0.0
 11
-15.9552711670215
 21
-170.811297965156
 31
0.0
  0
LINE
  5
3D1
330
1F
100
AcDbEntity
  8
1
  6
Continuous
 62
     4
100
AcDbLine
 10
-18.2052711670215
 20
-170.061297965156
 30
0.0
 11
-17.5177711670215
 21
-170.811297965156
 31
0.0
  0
LINE
  5
3D2
330
1F
100
AcDbEntity
  8
1
  6
Continuous
 62
     4
100
AcDbLine
 10
-18.7677711670215
 20
-169.123797965156
 30
0.0
 11
-18.2052711670215
 21
-170.061297965156
 31
0.0
  0
LINE
  5
3D3
330
1F
100
AcDbEntity
  8
1
  6
Continuous
 62
     4
100
AcDbLine
 10
-19.2052711670215
 20
-167.998797965156
 30
0.0
 11
-18.7677711670215
 21
-169.123797965156
 31
0.0
  0
LINE
  5
3D4
330
1F
100
AcDbEntity
  8
1
  6
Continuous
 62
     4
100
AcDbLine
 10
-17.9552711670215
 20
-167.873797965156
 30
0.0
 11
-18.8927711670215
 21
-168.623797965156
 31
0.0
  0
LINE
  5
3D5
330
1F
100
AcDbEntity
  8
1
  6
Continuous
 62
     4
100
AcDbLine
 10
-19.5802711670215
 20
-171.623797965156
 30
0.0
 11
-20.0177711670215
 21
-171.436297965156
 31
0.0
  0
LINE
  5
3D6
330
1F
100
AcDbEntity
  8
1
  6
Continuous
 62
     4
100
AcDbLine
 10
-19.5802711670215
 20
-166.748797965156
 30
0.0
 11
-19.5802711670215
 21
-171.623797965156
 31
0.0
  0
LINE
  5
3D7
330
1F
100
AcDbEntity
  8
1
  6
Continuous
 62
     4
100
AcDbLine
 10
-20.2677711670215
 20
-168.311297965156
 30
0.0
 11
-21.7052711670215
 21
-168.311297965156
 31
0.0
  0
LINE
  5
3D8
330
1F
100
AcDbEntity
  8
1
  6
Continuous
 62
     4
100
AcDbLine
 10
-20.5802711670215
 20
-169.248797965156
 30
0.0
 11
-20.2677711670215
 21
-168.311297965156
 31
0.0
  0
LINE
  5
3D9
330
1F
100
AcDbEntity
  8
1
  6
Continuous
 62
     4
100
AcDbLine
 10
-21.1427711670215
 20
-170.186297965156
 30
0.0
 11
-20.5802711670215
 21
-169.248797965156
 31
0.0
  0
LINE
  5
3DA
330
1F
100
AcDbEntity
  8
1
  6
Continuous
 62
     4
100
AcDbLine
 10
-21.7052711670215
 20
-170.811297965156
 30
0.0
 11
-21.1427711670215
 21
-170.186297965156
 31
0.0
  0
LINE
  5
3DB
330
1F
100
AcDbEntity
  8
1
  6
Continuous
 62
     4
100
AcDbLine
 10
-24.4552711670215
 20
-167.373797965156
 30
0.0
 11
-22.7677711670215
 21
-167.373797965156
 31
0.0
  0
LINE
  5
3DC
330
1F
100
AcDbEntity
  8
1
  6
Continuous
 62
     4
100
AcDbLine
 10
-22.5177711670215
 20
-171.123797965156
 30
0.0
 11
-22.5177711670215
 21
-170.811297965156
 31
0.0
  0
LINE
  5
3DD
330
1F
100
AcDbEntity
  8
1
  6
Continuous
 62
     4
100
AcDbLine
 10
-22.7677711670215
 20
-171.436297965156
 30
0.0
 11
-22.5177711670215
 21
-171.123797965156
 31
0.0
  0
LINE
  5
3DE
330
1F
100
AcDbEntity
  8
1
  6
Continuous
 62
     4
100
AcDbLine
 10
-23.3302711670215
 20
-171.436297965156
 30
0.0
 11
-22.7677711670215
 21
-171.436297965156
 31
0.0
  0
LINE
  5
3DF
330
1F
100
AcDbEntity
  8
1
  6
Continuous
 62
     4
100
AcDbLine
 10
-23.6427711670215
 20
-170.998797965156
 30
0.0
 11
-23.3302711670215
 21
-171.436297965156
 31
0.0
  0
LINE
  5
3E0
330
1F
100
AcDbEntity
  8
1
  6
Continuous
 62
     4
100
AcDbLine
 10
-23.6427711670215
 20
-169.436297965156
 30
0.0
 11
-23.6427711670215
 21
-170.998797965156
 31
0.0
  0
LINE
  5
3E1
330
1F
100
AcDbEntity
  8
1
  6
Continuous
 62
     4
100
AcDbLine
 10
-24.4552711670215
 20
-171.436297965156
 30
0.0
 11
-24.4552711670215
 21
-169.436297965156
 31
0.0
  0
LINE
  5
3E2
330
1F
100
AcDbEntity
  8
1
  6
Continuous
 62
     4
100
AcDbLine
 10
-25.7052711670215
 20
-171.311297965156
 30
0.0
 11
-26.1427711670215
 21
-171.623797965156
 31
0.0
  0
LINE
  5
3E3
330
1F
100
AcDbEntity
  8
1
  6
Continuous
 62
     4
100
AcDbLine
 10
-25.4552711670215
 20
-170.998797965156
 30
0.0
 11
-25.7052711670215
 21
-171.311297965156
 31
0.0
  0
LINE
  5
3E4
330
1F
100
AcDbEntity
  8
1
  6
Continuous
 62
     4
100
AcDbLine
 10
-25.2677711670215
 20
-170.498797965156
 30
0.0
 11
-25.4552711670215
 21
-170.998797965156
 31
0.0
  0
LINE
  5
3E5
330
1F
100
AcDbEntity
  8
1
  6
Continuous
 62
     4
100
AcDbLine
 10
-25.1427711670215
 20
-169.436297965156
 30
0.0
 11
-25.2677711670215
 21
-170.498797965156
 31
0.0
  0
LINE
  5
3E6
330
1F
100
AcDbEntity
  8
1
  6
Continuous
 62
     4
100
AcDbLine
 10
-23.7677711670215
 20
-167.873797965156
 30
0.0
 11
-23.2052711670215
 21
-168.936297965156
 31
0.0
  0
LINE
  5
3E7
330
1F
100
AcDbEntity
  8
1
  6
Continuous
 62
     4
100
AcDbLine
 10
-25.5802711670215
 20
-168.623797965156
 30
0.0
 11
-23.4552711670215
 21
-168.498797965156
 31
0.0
  0
LINE
  5
3E8
330
1F
100
AcDbEntity
  8
1
  6
Continuous
 62
     4
100
AcDbLine
 10
-24.4552711670215
 20
-167.373797965156
 30
0.0
 11
-25.0177711670215
 21
-168.623797965156
 31
0.0
  0
LINE
  5
3E9
330
1F
100
AcDbEntity
  8
1
  6
Continuous
 62
     4
100
AcDbLine
 10
-24.3302711670215
 20
-166.623797965156
 30
0.0
 11
-24.3302711670215
 21
-167.373797965156
 31
0.0
  0
LINE
  5
3EA
330
1F
100
AcDbEntity
  8
1
  6
Continuous
 62
     4
100
AcDbLine
 10
-25.8302711670215
 20
-167.373797965156
 30
0.0
 11
-24.4552711670215
 21
-167.373797965156
 31
0.0
  0
LINE
  5
3EB
330
1F
100
AcDbEntity
  8
1
  6
Continuous
 62
     4
100
AcDbLine
 10
-26.8302711670215
 20
-171.436297965156
 30
0.0
 11
-26.2677711670215
 21
-169.436297965156
 31
0.0
  0
LINE
  5
3EC
330
1F
100
AcDbEntity
  8
1
  6
Continuous
 62
     4
100
AcDbLine
 10
-26.9552711670215
 20
-168.186297965156
 30
0.0
 11
-26.5177711670215
 21
-168.623797965156
 31
0.0
  0
LINE
  5
3ED
330
1F
100
AcDbEntity
  8
1
  6
Continuous
 62
     4
100
AcDbLine
 10
-26.5177711670215
 20
-166.748797965156
 30
0.0
 11
-26.2677711670215
 21
-167.248797965156
 31
0.0
  0
LINE
  5
43A
330
1F
100
AcDbEntity
  8
100
  6
Continuous
 62
     3
100
AcDbLine
 10
39.0
 20
29.65
 30
0.0
 11
38.0
 21
29.65
 31
0.0
  0
LINE
  5
43B
330
1F
100
AcDbEntity
  8
100
  6
Continuous
 62
     3
100
AcDbLine
 10
-28.0
 20
-52.0
 30
0.0
 11
28.0
 21
-52.0
 31
0.0
  0
LINE
  5
43C
330
1F
100
AcDbEntity
  8
100
  6
Continuous
 62
     3
100
AcDbLine
 10
28.0
 20
-72.0
 30
0.0
 11
-28.0
 21
-72.0
 31
0.0
  0
LINE
  5
43D
330
1F
100
AcDbEntity
  8
100
  6
Continuous
 62
     3
100
AcDbLine
 10
-28.0
 20
-72.0
 30
0.0
 11
-28.0
 21
-52.0
 31
0.0
  0
LINE
  5
43E
330
1F
100
AcDbEntity
  8
100
  6
Continuous
 62
     3
100
AcDbLine
 10
-16.45
 20
-77.5
 30
0.0
 11
-16.45
 21
-72.0
 31
0.0
  0
LINE
  5
43F
330
1F
100
AcDbEntity
  8
100
  6
Continuous
 62
     3
100
AcDbLine
 10
28.0
 20
-52.0
 30
0.0
 11
28.0
 21
-72.0
 31
0.0
  0
LINE
  5
440
330
1F
100
AcDbEntity
  8
100
  6
Continuous
 62
     3
100
AcDbLine
 10
16.45
 20
-72.0
 30
0.0
 11
16.45
 21
-77.5
 31
0.0
  0
LINE
  5
441
330
1F
100
AcDbEntity
  8
2
  6
DOT_CENTER
 62
     1
100
AcDbLine
 10
-70.8057966125119
 20
0.0
 30
0.0
 11
-153.972259309379
 21
0.0
 31
0.0
  0
LINE
  5
442
330
1F
100
AcDbEntity
  8
2
  6
DOT_CENTER
 62
     1
100
AcDbLine
 10
165.0
 20
0.0
 30
0.0
 11
70.6479137690593
 21
0.0
 31
0.0
  0
LINE
  5
443
330
1F
100
AcDbEntity
  8
2
  6
DOT_CENTER
 62
     1
100
AcDbLine
 10
0.0
 20
310.225292085252
 30
0.0
 11
0.0
 21
-152.341465260584
 31
0.0
  0
LINE
  5
444
330
1F
100
AcDbEntity
  8
100
  6
Continuous
 62
     3
100
AcDbLine
 10
17.9425740626351
 20
-5.0
 30
0.0
 11
-15.1706745914169
 21
-5.0
 31
0.0
  0
LINE
  5
445
330
1F
100
AcDbEntity
  8
100
  6
Continuous
 62
     3
100
AcDbLine
 10
-15.1706745914169
 20
-5.0
 30
0.0
 11
-18.0574259373649
 21
-10.0
 31
0.0
  0
LINE
  5
446
330
1F
100
AcDbEntity
  8
100
  6
Continuous
 62
     3
100
AcDbLine
 10
-18.0574259373649
 20
-10.0
 30
0.0
 11
-5.35572001519319
 21
-10.0
 31
0.0
  0
LINE
  5
447
330
1F
100
AcDbEntity
  8
100
  6
Continuous
 62
     3
100
AcDbLine
 10
-5.35572001519319
 20
-10.0
 30
0.0
 11
-2.46896866924509
 21
-5.0
 31
0.0
  0
LINE
  5
448
330
1F
100
AcDbEntity
  8
100
  6
Continuous
 62
     3
100
AcDbLine
 10
9.28232002479064
 20
-10.0
 30
0.0
 11
17.9425740626351
 21
-5.0
 31
0.0
  0
LINE
  5
449
330
1F
100
AcDbEntity
  8
100
  6
Continuous
 62
     3
100
AcDbLine
 10
36.4700217866475
 20
-27.0
 30
0.0
 11
38.0
 21
-29.65
 31
0.0
  0
LINE
  5
44A
330
1F
100
AcDbEntity
  8
100
  6
Continuous
 62
     3
100
AcDbLine
 10
36.4700217866475
 20
-27.0
 30
0.0
 11
35.0617527043865
 21
-27.0
 31
0.0
  0
LINE
  5
44B
330
1F
100
AcDbEntity
  8
100
  6
Continuous
 62
     3
100
AcDbLine
 10
36.4700217866475
 20
27.0
 30
0.0
 11
35.0617527043865
 21
27.0
 31
0.0
  0
LINE
  5
44C
330
1F
100
AcDbEntity
  8
100
  6
Continuous
 62
     3
100
AcDbLine
 10
36.4700217866475
 20
27.0
 30
0.0
 11
38.0
 21
29.65
 31
0.0
  0
LINE
  5
44D
330
1F
100
AcDbEntity
  8
100
  6
Continuous
 62
     3
100
AcDbLine
 10
-21.0
 20
32.0
 30
0.0
 11
21.0
 21
32.0
 31
0.0
  0
LINE
  5
44E
330
1F
100
AcDbEntity
  8
100
  6
Continuous
 62
     3
100
AcDbLine
 10
-21.0
 20
32.0
 30
0.0
 11
-21.0
 21
58.0
 31
0.0
  0
LINE
  5
44F
330
1F
100
AcDbEntity
  8
100
  6
Continuous
 62
     3
100
AcDbLine
 10
-39.0
 20
29.65
 30
0.0
 11
-38.0
 21
29.65
 31
0.0
  0
LINE
  5
450
330
1F
100
AcDbEntity
  8
100
  6
Continuous
 62
     3
100
AcDbLine
 10
-36.4700217866475
 20
27.0
 30
0.0
 11
-35.0617527043865
 21
27.0
 31
0.0
  0
LINE
  5
451
330
1F
100
AcDbEntity
  8
100
  6
Continuous
 62
     3
100
AcDbLine
 10
-36.4700217866475
 20
27.0
 30
0.0
 11
-38.0
 21
29.65
 31
0.0
  0
LINE
  5
452
330
1F
100
AcDbEntity
  8
100
  6
Continuous
 62
     3
100
AcDbLine
 10
-38.0
 20
-29.65
 30
0.0
 11
-39.0
 21
-29.65
 31
0.0
  0
LINE
  5
453
330
1F
100
AcDbEntity
  8
100
  6
Continuous
 62
     3
100
AcDbLine
 10
-36.4700217866475
 20
-27.0
 30
0.0
 11
-38.0
 21
-29.65
 31
0.0
  0
LINE
  5
454
330
1F
100
AcDbEntity
  8
100
  6
Continuous
 62
     3
100
AcDbLine
 10
-36.4700217866475
 20
-27.0
 30
0.0
 11
-35.0617527043865
 21
-27.0
 31
0.0
  0
LINE
  5
455
330
1F
100
AcDbEntity
  8
100
  6
Continuous
 62
     3
100
AcDbLine
 10
-21.0
 20
-52.0
 30
0.0
 11
-21.0
 21
-32.0
 31
0.0
  0
LINE
  5
456
330
1F
100
AcDbEntity
  8
100
  6
Continuous
 62
     3
100
AcDbLine
 10
-35.0617527043865
 20
-25.2430980220838
 30
0.0
 11
-35.0617527043865
 21
25.3068573630056
 31
0.0
  0
LINE
  5
457
330
1F
100
AcDbEntity
  8
100
  6
Continuous
 62
     3
100
AcDbLine
 10
35.0617527043865
 20
-25.2430980220838
 30
0.0
 11
35.0617527043865
 21
25.3068573630056
 31
0.0
  0
LINE
  5
458
330
1F
100
AcDbEntity
  8
100
  6
Continuous
 62
     3
100
AcDbLine
 10
-21.0
 20
-32.0
 30
0.0
 11
21.0
 21
-32.0
 31
0.0
  0
LINE
  5
459
330
1F
100
AcDbEntity
  8
100
  6
Continuous
 62
     3
100
AcDbLine
 10
-24.3
 20
115.0
 30
0.0
 11
-24.3
 21
80.0
 31
0.0
  0
LINE
  5
45A
330
1F
100
AcDbEntity
  8
100
  6
Continuous
 62
     3
100
AcDbLine
 10
24.3
 20
117.692113659989
 30
0.0
 11
24.3
 21
80.0
 31
0.0
  0
LINE
  5
45B
330
1F
100
AcDbEntity
  8
100
  6
Continuous
 62
     3
100
AcDbLine
 10
6.5
 20
247.0
 30
0.0
 11
6.5
 21
280.0
 31
0.0
  0
LINE
  5
45C
330
1F
100
AcDbEntity
  8
100
  6
Continuous
 62
     3
100
AcDbLine
 10
-6.5
 20
247.0
 30
0.0
 11
-6.5
 21
280.0
 31
0.0
  0
LINE
  5
45D
330
1F
100
AcDbEntity
  8
100
  6
Continuous
 62
     3
100
AcDbLine
 10
-14.0
 20
247.0
 30
0.0
 11
-14.0
 21
231.0
 31
0.0
  0
LINE
  5
45E
330
1F
100
AcDbEntity
  8
100
  6
Continuous
 62
     3
100
AcDbLine
 10
-14.0
 20
231.0
 30
0.0
 11
-23.6713610367747
 21
228.0
 31
0.0
  0
LINE
  5
45F
330
1F
100
AcDbEntity
  8
100
  6
Continuous
 62
     3
100
AcDbLine
 10
-23.6713610367747
 20
228.0
 30
0.0
 11
-23.6713610367747
 21
215.0
 31
0.0
  0
LINE
  5
460
330
1F
100
AcDbEntity
  8
100
  6
Continuous
 62
     3
100
AcDbLine
 10
-28.0
 20
215.0
 30
0.0
 11
28.0
 21
215.0
 31
0.0
  0
LINE
  5
461
330
1F
100
AcDbEntity
  8
100
  6
Continuous
 62
     3
100
AcDbLine
 10
14.0
 20
247.0
 30
0.0
 11
-14.0
 21
247.0
 31
0.0
  0
LINE
  5
462
330
1F
100
AcDbEntity
  8
100
  6
Continuous
 62
     3
100
AcDbLine
 10
23.6713610367747
 20
215.0
 30
0.0
 11
23.6713610367747
 21
228.0
 31
0.0
  0
LINE
  5
463
330
1F
100
AcDbEntity
  8
100
  6
Continuous
 62
     3
100
AcDbLine
 10
23.6713610367747
 20
228.0
 30
0.0
 11
14.0
 21
231.0
 31
0.0
  0
LINE
  5
464
330
1F
100
AcDbEntity
  8
100
  6
Continuous
 62
     3
100
AcDbLine
 10
14.0
 20
231.0
 30
0.0
 11
14.0
 21
247.0
 31
0.0
  0
LINE
  5
465
330
1F
100
AcDbEntity
  8
100
  6
Continuous
 62
     3
100
AcDbLine
 10
-12.7435344872925
 20
283.717672785335
 30
0.0
 11
12.7435344872925
 21
283.717672785335
 31
0.0
  0
LINE
  5
466
330
1F
100
AcDbEntity
  8
100
  6
Continuous
 62
     3
100
AcDbLine
 10
-11.9999999302253
 20
280.0
 30
0.0
 11
11.9999999302253
 21
280.0
 31
0.0
  0
LINE
  5
467
330
1F
100
AcDbEntity
  8
100
  6
Continuous
 62
     3
100
AcDbLine
 10
40.9999999302254
 20
300.0
 30
0.0
 11
-40.9999999302253
 21
300.0
 31
0.0
  0
LINE
  5
468
330
1F
100
AcDbEntity
  8
100
  6
Continuous
 62
     3
100
AcDbLine
 10
-40.9999999302254
 20
286.0
 30
0.0
 11
40.9999999302253
 21
286.0
 31
0.0
  0
LINE
  5
469
330
1F
100
AcDbEntity
  8
100
  6
Continuous
 62
     3
100
AcDbLine
 10
-12.7435344872925
 20
283.717672785335
 30
0.0
 11
-16.8932203321371
 21
286.0
 31
0.0
  0
LINE
  5
46A
330
1F
100
AcDbEntity
  8
100
  6
Continuous
 62
     3
100
AcDbLine
 10
-11.9999999302253
 20
280.0
 30
0.0
 11
-12.7435344872925
 21
283.717672785335
 31
0.0
  0
LINE
  5
46B
330
1F
100
AcDbEntity
  8
100
  6
Continuous
 62
     3
100
AcDbLine
 10
11.9999999302253
 20
280.0
 30
0.0
 11
12.7435344872925
 21
283.717672785335
 31
0.0
  0
LINE
  5
46C
330
1F
100
AcDbEntity
  8
100
  6
Continuous
 62
     3
100
AcDbLine
 10
12.7435344872925
 20
283.717672785335
 30
0.0
 11
16.8932203321371
 21
286.0
 31
0.0
  0
LINE
  5
46D
330
1F
100
AcDbEntity
  8
100
  6
Continuous
 62
     3
100
AcDbLine
 10
-25.6904651573303
 20
365.999999999999
 30
0.0
 11
-12.734960912113
 21
365.519958642271
 31
0.0
  0
LINE
  5
46E
330
1F
100
AcDbEntity
  8
100
  6
Continuous
 62
     3
100
AcDbLine
 10
-10.2473100818539
 20
361.211221012772
 30
0.0
 11
-16.3093341938029
 21
349.751404538713
 31
0.0
  0
LINE
  5
46F
330
1F
100
AcDbEntity
  8
100
  6
Continuous
 62
     3
100
AcDbLine
 10
-16.3093341938029
 20
390.248595461287
 30
0.0
 11
-10.2473100818539
 21
378.788778987227
 31
0.0
  0
LINE
  5
470
330
1F
100
AcDbEntity
  8
100
  6
Continuous
 62
     3
100
AcDbLine
 10
-12.734960912113
 20
374.480041357728
 30
0.0
 11
-25.6904651573303
 21
373.999999999999
 31
0.0
  0
LINE
  5
471
330
1F
100
AcDbEntity
  8
100
  6
Continuous
 62
     3
100
AcDbLine
 10
-9.3811309635274
 20
394.248595461287
 30
0.0
 11
-2.48765083025894
 21
383.268820344955
 31
0.0
  0
LINE
  5
472
330
1F
100
AcDbEntity
  8
100
  6
Continuous
 62
     3
100
AcDbLine
 10
2.48765083025905
 20
383.268820344955
 30
0.0
 11
9.38113096352739
 21
394.248595461287
 31
0.0
  0
LINE
  5
473
330
1F
100
AcDbEntity
  8
100
  6
Continuous
 62
     3
100
AcDbLine
 10
25.6904651573303
 20
374.0
 30
0.0
 11
12.734960912113
 21
374.480041357728
 31
0.0
  0
LINE
  5
474
330
1F
100
AcDbEntity
  8
100
  6
Continuous
 62
     3
100
AcDbLine
 10
10.247310081854
 20
378.788778987227
 30
0.0
 11
16.3093341938029
 21
390.248595461287
 31
0.0
  0
LINE
  5
475
330
1F
100
AcDbEntity
  8
100
  6
Continuous
 62
     3
100
AcDbLine
 10
21.2673377346137
 20
374.163890501922
 30
0.0
 11
14.2397038205483
 21
386.336109498077
 31
0.0
  0
LINE
  5
476
330
1F
100
AcDbEntity
  8
100
  6
Continuous
 62
     3
100
AcDbLine
 10
7.0276339140654
 20
390.5
 30
0.0
 11
-7.02763391406538
 21
390.5
 31
0.0
  0
LINE
  5
477
330
1F
100
AcDbEntity
  8
100
  6
Continuous
 62
     3
100
AcDbLine
 10
-14.2397038205483
 20
386.336109498077
 30
0.0
 11
-21.2673377346137
 21
374.163890501922
 31
0.0
  0
LINE
  5
478
330
1F
100
AcDbEntity
  8
100
  6
Continuous
 62
     3
100
AcDbLine
 10
-21.2673377346136
 20
365.836109498077
 30
0.0
 11
-14.2397038205483
 21
353.663890501922
 31
0.0
  0
LINE
  5
479
330
1F
100
AcDbEntity
  8
100
  6
Continuous
 62
     3
100
AcDbLine
 10
-7.02763391406538
 20
349.5
 30
0.0
 11
7.02763391406538
 21
349.5
 31
0.0
  0
LINE
  5
47A
330
1F
100
AcDbEntity
  8
100
  6
Continuous
 62
     3
100
AcDbLine
 10
14.2397038205483
 20
353.663890501922
 30
0.0
 11
21.2673377346136
 21
365.836109498077
 31
0.0
  0
LINE
  5
47B
330
1F
100
AcDbEntity
  8
100
  6
Continuous
 62
     3
100
AcDbLine
 10
38.0
 20
399.65
 30
0.0
 11
36.4700217866475
 21
397.0
 31
0.0
  0
LINE
  5
47C
330
1F
100
AcDbEntity
  8
100
  6
Continuous
 62
     3
100
AcDbLine
 10
39.0
 20
399.65
 30
0.0
 11
38.0
 21
399.65
 31
0.0
  0
LINE
  5
47D
330
1F
100
AcDbEntity
  8
100
  6
Continuous
 62
     3
100
AcDbLine
 10
38.0
 20
340.35
 30
0.0
 11
39.0
 21
340.35
 31
0.0
  0
LINE
  5
47E
330
1F
100
AcDbEntity
  8
100
  6
Continuous
 62
     3
100
AcDbLine
 10
36.4700217866475
 20
343.0
 30
0.0
 11
38.0
 21
340.35
 31
0.0
  0
LINE
  5
47F
330
1F
100
AcDbEntity
  8
100
  6
Continuous
 62
     3
100
AcDbLine
 10
-38.0
 20
340.35
 30
0.0
 11
-39.0
 21
340.35
 31
0.0
  0
LINE
  5
480
330
1F
100
AcDbEntity
  8
100
  6
Continuous
 62
     3
100
AcDbLine
 10
-36.4700217866475
 20
343.0
 30
0.0
 11
-38.0
 21
340.35
 31
0.0
  0
LINE
  5
481
330
1F
100
AcDbEntity
  8
100
  6
Continuous
 62
     3
100
AcDbLine
 10
-39.0
 20
399.65
 30
0.0
 11
-38.0
 21
399.65
 31
0.0
  0
LINE
  5
482
330
1F
100
AcDbEntity
  8
100
  6
Continuous
 62
     3
100
AcDbLine
 10
-38.0
 20
399.65
 30
0.0
 11
-36.4700217866475
 21
397.0
 31
0.0
  0
LINE
  5
483
330
1F
100
AcDbEntity
  8
100
  6
Continuous
 62
     3
100
AcDbLine
 10
36.4700217866475
 20
343.0
 30
0.0
 11
26.3361780881831
 21
343.0
 31
0.0
  0
LINE
  5
484
330
1F
100
AcDbEntity
  8
100
  6
Continuous
 62
     3
100
AcDbLine
 10
-26.3361780881829
 20
343.0
 30
0.0
 11
-36.4700217866475
 21
343.0
 31
0.0
  0
LINE
  5
485
330
1F
100
AcDbEntity
  8
100
  6
Continuous
 62
     3
100
AcDbLine
 10
36.4700217866475
 20
397.0
 30
0.0
 11
26.336178088183
 21
397.0
 31
0.0
  0
LINE
  5
486
330
1F
100
AcDbEntity
  8
100
  6
Continuous
 62
     3
100
AcDbLine
 10
-26.3361780881829
 20
397.0
 30
0.0
 11
-36.4700217866475
 21
397.0
 31
0.0
  0
LINE
  5
487
330
1F
100
AcDbEntity
  8
100
  6
Continuous
 62
     3
100
AcDbLine
 10
-28.0
 20
210.0
 30
0.0
 11
28.0
 21
210.0
 31
0.0
  0
LINE
  5
488
330
1F
100
AcDbEntity
  8
100
  6
Continuous
 62
     3
100
AcDbLine
 10
24.3
 20
171.0
 30
0.0
 11
24.3
 21
122.692113659989
 31
0.0
  0
LINE
  5
489
330
1F
100
AcDbEntity
  8
100
  6
Continuous
 62
     3
100
AcDbLine
 10
-24.3
 20
171.0
 30
0.0
 11
-24.3
 21
120.0
 31
0.0
  0
LINE
  5
48A
330
1F
100
AcDbEntity
  8
100
  6
Continuous
 62
     3
100
AcDbLine
 10
-28.0
 20
215.0
 30
0.0
 11
-28.0
 21
171.0
 31
0.0
  0
LINE
  5
48B
330
1F
100
AcDbEntity
  8
100
  6
Continuous
 62
     3
100
AcDbLine
 10
28.0
 20
215.0
 30
0.0
 11
28.0
 21
171.0
 31
0.0
  0
LINE
  5
48C
330
1F
100
AcDbEntity
  8
100
  6
Continuous
 62
     3
100
AcDbLine
 10
-28.0
 20
171.0
 30
0.0
 11
28.0
 21
171.0
 31
0.0
  0
LINE
  5
48D
330
1F
100
AcDbEntity
  8
100
  6
Continuous
 62
     3
100
AcDbLine
 10
271.0
 20
-52.0
 30
0.0
 11
271.0
 21
-32.0
 31
0.0
  0
LINE
  5
48E
330
1F
100
AcDbEntity
  8
100
  6
Continuous
 62
     3
100
AcDbLine
 10
229.0
 20
-52.0
 30
0.0
 11
229.0
 21
-32.0
 31
0.0
  0
LINE
  5
48F
330
1F
100
AcDbEntity
  8
100
  6
Continuous
 62
     3
100
AcDbLine
 10
278.0
 20
80.0
 30
0.0
 11
222.0
 21
80.0
 31
0.0
  0
LINE
  5
490
330
1F
100
AcDbEntity
  8
100
  6
Continuous
 62
     3
100
AcDbLine
 10
278.0
 20
58.0
 30
0.0
 11
278.0
 21
80.0
 31
0.0
  0
LINE
  5
491
330
1F
100
AcDbEntity
  8
100
  6
Continuous
 62
     3
100
AcDbLine
 10
271.0
 20
32.0
 30
0.0
 11
271.0
 21
58.0
 31
0.0
  0
LINE
  5
492
330
1F
100
AcDbEntity
  8
100
  6
Continuous
 62
     3
100
AcDbLine
 10
222.0
 20
58.0
 30
0.0
 11
222.0
 21
80.0
 31
0.0
  0
LINE
  5
493
330
1F
100
AcDbEntity
  8
100
  6
Continuous
 62
     3
100
AcDbLine
 10
278.0
 20
58.0
 30
0.0
 11
222.0
 21
58.0
 31
0.0
  0
LINE
  5
494
330
1F
100
AcDbEntity
  8
100
  6
Continuous
 62
     3
100
AcDbLine
 10
229.0
 20
32.0
 30
0.0
 11
229.0
 21
58.0
 31
0.0
  0
LINE
  5
495
330
1F
100
AcDbEntity
  8
2
  6
DOT_CENTER
 62
     1
100
AcDbLine
 10
297.710131582091
 20
0.0
 30
0.0
 11
202.590800341217
 21
0.0
 31
0.0
  0
LINE
  5
496
330
1F
100
AcDbEntity
  8
2
  6
DOT_CENTER
 62
     1
100
AcDbLine
 10
250.0
 20
310.225292085252
 30
0.0
 11
250.0
 21
-155.601470833472
 31
0.0
  0
LINE
  5
497
330
1F
100
AcDbEntity
  8
100
  6
Continuous
 62
     3
100
AcDbLine
 10
276.0
 20
-72.0
 30
0.0
 11
224.0
 21
-72.0
 31
0.0
  0
LINE
  5
498
330
1F
100
AcDbEntity
  8
100
  6
Continuous
 62
     3
100
AcDbLine
 10
266.45
 20
-72.0
 30
0.0
 11
266.45
 21
-77.5
 31
0.0
  0
LINE
  5
499
330
1F
100
AcDbEntity
  8
100
  6
Continuous
 62
     3
100
AcDbLine
 10
276.0
 20
-52.0
 30
0.0
 11
276.0
 21
-72.0
 31
0.0
  0
LINE
  5
49A
330
1F
100
AcDbEntity
  8
100
  6
Continuous
 62
     3
100
AcDbLine
 10
224.0
 20
-52.0
 30
0.0
 11
276.0
 21
-52.0
 31
0.0
  0
LINE
  5
49B
330
1F
100
AcDbEntity
  8
100
  6
Continuous
 62
     3
100
AcDbLine
 10
233.55
 20
-77.5
 30
0.0
 11
233.55
 21
-72.0
 31
0.0
  0
LINE
  5
49C
330
1F
100
AcDbEntity
  8
100
  6
Continuous
 62
     3
100
AcDbLine
 10
224.0
 20
-52.0
 30
0.0
 11
224.0
 21
-72.0
 31
0.0
  0
LINE
  5
49D
330
1F
100
AcDbEntity
  8
100
  6
Continuous
 62
     3
100
AcDbLine
 10
278.0
 20
210.0
 30
0.0
 11
278.0
 21
215.0
 31
0.0
  0
LINE
  5
49E
330
1F
100
AcDbEntity
  8
100
  6
Continuous
 62
     3
100
AcDbLine
 10
270.5
 20
228.983737767016
 30
0.0
 11
264.0
 21
231.0
 31
0.0
  0
LINE
  5
49F
330
1F
100
AcDbEntity
  8
100
  6
Continuous
 62
     3
100
AcDbLine
 10
264.0
 20
231.0
 30
0.0
 11
264.0
 21
247.0
 31
0.0
  0
LINE
  5
4A0
330
1F
100
AcDbEntity
  8
100
  6
Continuous
 62
     3
100
AcDbLine
 10
222.0
 20
215.0
 30
0.0
 11
278.0
 21
215.0
 31
0.0
  0
LINE
  5
4A1
330
1F
100
AcDbEntity
  8
100
  6
Continuous
 62
     3
100
AcDbLine
 10
264.0
 20
247.0
 30
0.0
 11
236.0
 21
247.0
 31
0.0
  0
LINE
  5
4A2
330
1F
100
AcDbEntity
  8
100
  6
Continuous
 62
     3
100
AcDbLine
 10
256.5
 20
247.0
 30
0.0
 11
256.5
 21
280.000000346708
 31
0.0
  0
LINE
  5
4A3
330
1F
100
AcDbEntity
  8
100
  6
Continuous
 62
     3
100
AcDbLine
 10
270.5
 20
228.983737767016
 30
0.0
 11
270.5
 21
215.0
 31
0.0
  0
LINE
  5
4A4
330
1F
100
AcDbEntity
  8
100
  6
Continuous
 62
     3
100
AcDbLine
 10
236.0
 20
231.0
 30
0.0
 11
229.5
 21
228.983737767016
 31
0.0
  0
LINE
  5
4A5
330
1F
100
AcDbEntity
  8
100
  6
Continuous
 62
     3
100
AcDbLine
 10
222.0
 20
215.0
 30
0.0
 11
222.0
 21
210.0
 31
0.0
  0
LINE
  5
4A6
330
1F
100
AcDbEntity
  8
100
  6
Continuous
 62
     3
100
AcDbLine
 10
236.0
 20
247.0
 30
0.0
 11
236.0
 21
231.0
 31
0.0
  0
LINE
  5
4A7
330
1F
100
AcDbEntity
  8
100
  6
Continuous
 62
     3
100
AcDbLine
 10
243.5
 20
247.0
 30
0.0
 11
243.5
 21
280.000000346708
 31
0.0
  0
LINE
  5
4A8
330
1F
100
AcDbEntity
  8
100
  6
Continuous
 62
     3
100
AcDbLine
 10
229.5
 20
228.983737767016
 30
0.0
 11
229.5
 21
215.0
 31
0.0
  0
LINE
  5
4A9
330
1F
100
AcDbEntity
  8
100
  6
Continuous
 62
     3
100
AcDbLine
 10
237.256465481697
 20
283.717672785336
 30
0.0
 11
233.106779636852
 21
286.0
 31
0.0
  0
LINE
  5
4AA
330
1F
100
AcDbEntity
  8
100
  6
Continuous
 62
     3
100
AcDbLine
 10
237.256465481697
 20
283.717672785336
 30
0.0
 11
238.000000038764
 21
280.0
 31
0.0
  0
LINE
  5
4AB
330
1F
100
AcDbEntity
  8
100
  6
Continuous
 62
     3
100
AcDbLine
 10
262.743534518303
 20
283.717672785336
 30
0.0
 11
266.893220363148
 21
286.0
 31
0.0
  0
LINE
  5
4AC
330
1F
100
AcDbEntity
  8
100
  6
Continuous
 62
     3
100
AcDbLine
 10
262.743534518303
 20
283.717672785336
 30
0.0
 11
261.999999961236
 21
280.0
 31
0.0
  0
LINE
  5
4AD
330
1F
100
AcDbEntity
  8
100
  6
Continuous
 62
     3
100
AcDbLine
 10
213.651947384102
 20
300.0
 30
0.0
 11
286.348052615898
 21
300.0
 31
0.0
  0
LINE
  5
4AE
330
1F
100
AcDbEntity
  8
100
  6
Continuous
 62
     3
100
AcDbLine
 10
213.651947384102
 20
286.0
 30
0.0
 11
286.348052615898
 21
286.0
 31
0.0
  0
LINE
  5
4AF
330
1F
100
AcDbEntity
  8
100
  6
Continuous
 62
     3
100
AcDbLine
 10
274.0
 20
-32.0
 30
0.0
 11
274.0
 21
-26.3190132128409
 31
0.0
  0
LINE
  5
4B0
330
1F
100
AcDbEntity
  8
100
  6
Continuous
 62
     3
100
AcDbLine
 10
274.0
 20
26.3190132128409
 30
0.0
 11
274.0
 21
32.0
 31
0.0
  0
LINE
  5
4B1
330
1F
100
AcDbEntity
  8
100
  6
Continuous
 62
     3
100
AcDbLine
 10
226.0
 20
-32.0
 30
0.0
 11
226.0
 21
-26.3190132128409
 31
0.0
  0
LINE
  5
4B2
330
1F
100
AcDbEntity
  8
100
  6
Continuous
 62
     3
100
AcDbLine
 10
226.0
 20
26.3190132128409
 30
0.0
 11
226.0
 21
32.0
 31
0.0
  0
LINE
  5
4B3
330
1F
100
AcDbEntity
  8
100
  6
Continuous
 62
     3
100
AcDbLine
 10
226.0
 20
32.0
 30
0.0
 11
239.715115349222
 21
32.0
 31
0.0
  0
LINE
  5
4B4
330
1F
100
AcDbEntity
  8
100
  6
Continuous
 62
     3
100
AcDbLine
 10
260.284884650778
 20
32.0
 30
0.0
 11
274.0
 21
32.0
 31
0.0
  0
LINE
  5
4B5
330
1F
100
AcDbEntity
  8
100
  6
Continuous
 62
     3
100
AcDbLine
 10
226.0
 20
-32.0
 30
0.0
 11
239.715115349222
 21
-32.0
 31
0.0
  0
LINE
  5
4B6
330
1F
100
AcDbEntity
  8
100
  6
Continuous
 62
     3
100
AcDbLine
 10
260.284884650778
 20
-32.0
 30
0.0
 11
274.0
 21
-32.0
 31
0.0
  0
LINE
  5
4B7
330
1F
100
AcDbEntity
  8
100
  6
Continuous
 62
     3
100
AcDbLine
 10
278.0
 20
210.0
 30
0.0
 11
222.0
 21
210.0
 31
0.0
  0
LINE
  5
4B8
330
1F
100
AcDbEntity
  8
100
  6
Continuous
 62
     3
100
AcDbLine
 10
225.7
 20
115.0
 30
0.0
 11
225.7
 21
80.0
 31
0.0
  0
LINE
  5
4B9
330
1F
100
AcDbEntity
  8
100
  6
Continuous
 62
     3
100
AcDbLine
 10
274.3
 20
117.692113659989
 30
0.0
 11
274.3
 21
80.0
 31
0.0
  0
LINE
  5
4BA
330
1F
100
AcDbEntity
  8
100
  6
Continuous
 62
     3
100
AcDbLine
 10
274.3
 20
171.0
 30
0.0
 11
274.3
 21
122.692113659989
 31
0.0
  0
LINE
  5
4BB
330
1F
100
AcDbEntity
  8
100
  6
Continuous
 62
     3
100
AcDbLine
 10
225.7
 20
171.0
 30
0.0
 11
225.7
 21
120.0
 31
0.0
  0
LINE
  5
4BC
330
1F
100
AcDbEntity
  8
100
  6
Continuous
 62
     3
100
AcDbLine
 10
224.0
 20
171.0
 30
0.0
 11
224.0
 21
210.0
 31
0.0
  0
LINE
  5
4BD
330
1F
100
AcDbEntity
  8
100
  6
Continuous
 62
     3
100
AcDbLine
 10
276.0
 20
171.0
 30
0.0
 11
276.0
 21
210.0
 31
0.0
  0
LINE
  5
4BE
330
1F
100
AcDbEntity
  8
100
  6
Continuous
 62
     3
100
AcDbLine
 10
224.0
 20
171.0
 30
0.0
 11
276.0
 21
171.0
 31
0.0
  0
LINE
  5
4BF
330
1F
100
AcDbEntity
  8
2
  6
DOT_CENTER
 62
     1
100
AcDbLine
 10
0.0
 20
320.428610314234
 30
0.0
 11
0.0
 21
421.782835875437
 31
0.0
  0
LINE
  5
4C0
330
1F
100
AcDbEntity
  8
2
  6
DOT_CENTER
 62
     1
100
AcDbLine
 10
148.240022627477
 20
370.0
 30
0.0
 11
-147.649056437483
 21
370.0
 31
0.0
  0
LINE
  5
4C1
330
1F
100
AcDbEntity
  8
100
  6
Continuous
 62
     3
100
AcDbLine
 10
25.6904651573303
 20
365.999999999999
 30
0.0
 11
12.734960912113
 21
365.519958642271
 31
0.0
  0
LINE
  5
4C2
330
1F
100
AcDbEntity
  8
100
  6
Continuous
 62
     3
100
AcDbLine
 10
10.247310081854
 20
361.211221012772
 30
0.0
 11
16.3093341938029
 21
349.751404538713
 31
0.0
  0
LINE
  5
4C3
330
1F
100
AcDbEntity
  8
100
  6
Continuous
 62
     3
100
AcDbLine
 10
9.38113096352736
 20
345.751404538713
 30
0.0
 11
2.48765083025902
 21
356.731179655044
 31
0.0
  0
LINE
  5
4C4
330
1F
100
AcDbEntity
  8
100
  6
Continuous
 62
     3
100
AcDbLine
 10
-2.487650830259
 20
356.731179655044
 30
0.0
 11
-9.38113096352736
 21
345.751404538713
 31
0.0
  0
LINE
  5
4C5
330
1F
100
AcDbEntity
  8
100
  6
Continuous
 62
     3
100
AcDbLine
 10
-28.0
 20
80.0
 30
0.0
 11
28.0
 21
80.0
 31
0.0
  0
LINE
  5
4C6
330
1F
100
AcDbEntity
  8
100
  6
Continuous
 62
     3
100
AcDbLine
 10
21.0
 20
-52.0
 30
0.0
 11
21.0
 21
-32.0
 31
0.0
  0
LINE
  5
4C7
330
1F
100
AcDbEntity
  8
100
  6
Continuous
 62
     3
100
AcDbLine
 10
38.0
 20
-29.65
 30
0.0
 11
39.0
 21
-29.65
 31
0.0
  0
LINE
  5
4C8
330
1F
100
AcDbEntity
  8
100
  6
Continuous
 62
     3
100
AcDbLine
 10
21.0
 20
32.0
 30
0.0
 11
21.0
 21
58.0
 31
0.0
  0
LINE
  5
4C9
330
1F
100
AcDbEntity
  8
100
  6
Continuous
 62
     3
100
AcDbLine
 10
-28.0
 20
58.0
 30
0.0
 11
28.0
 21
58.0
 31
0.0
  0
LINE
  5
4CA
330
1F
100
AcDbEntity
  8
100
  6
Continuous
 62
     3
100
AcDbLine
 10
28.0
 20
58.0
 30
0.0
 11
28.0
 21
80.0
 31
0.0
  0
LINE
  5
4CB
330
1F
100
AcDbEntity
  8
100
  6
Continuous
 62
     3
100
AcDbLine
 10
-28.0
 20
58.0
 30
0.0
 11
-28.0
 21
80.0
 31
0.0
  0
LINE
  5
4CC
330
1F
100
AcDbEntity
  8
100
  6
Continuous
 62
     3
100
AcDbLine
 10
-14.0
 20
231.0
 30
0.0
 11
14.0
 21
231.0
 31
0.0
  0
LINE
  5
4CD
330
1F
100
AcDbEntity
  8
100
  6
Continuous
 62
     3
100
AcDbLine
 10
236.0
 20
231.0
 30
0.0
 11
264.0
 21
231.0
 31
0.0
  0
LINE
  5
4CE
330
1F
100
AcDbEntity
  8
100
  6
Continuous
 62
     3
100
AcDbLine
 10
261.999999961236
 20
280.0
 30
0.0
 11
238.000000038764
 21
280.0
 31
0.0
  0
LINE
  5
4CF
330
1F
100
AcDbEntity
  8
100
  6
Continuous
 62
     3
100
AcDbLine
 10
237.256465481697
 20
283.717672785336
 30
0.0
 11
262.743534518303
 21
283.717672785336
 31
0.0
  0
LINE
  5
4D0
330
1F
100
AcDbEntity
  8
100
  6
Continuous
 62
     3
100
AcDbLine
 10
-109.0
 20
-24.0
 30
0.0
 11
-109.0
 21
24.0
 31
0.0
  0
LINE
  5
4D1
330
1F
100
AcDbEntity
  8
100
  6
Continuous
 62
     3
100
AcDbLine
 10
-122.148
 20
24.0
 30
0.0
 11
-67.9999999999999
 21
24.0
 31
0.0
  0
LINE
  5
4D2
330
1F
100
AcDbEntity
  8
100
  6
Continuous
 62
     3
100
AcDbLine
 10
-122.148
 20
-24.0
 30
0.0
 11
-67.9999999999999
 21
-24.0
 31
0.0
  0
LINE
  5
4D3
330
1F
100
AcDbEntity
  8
2
  6
Continuous
 62
     3
100
AcDbLine
 10
-109.0
 20
22.931875
 30
0.0
 11
-107.149953231166
 21
24.0
 31
0.0
  0
LINE
  5
4D4
330
1F
100
AcDbEntity
  8
2
  6
Continuous
 62
     3
100
AcDbLine
 10
-109.0
 20
-22.931875
 30
0.0
 11
-107.149953231166
 21
-24.0
 31
0.0
  0
LINE
  5
4D5
330
1F
100
AcDbEntity
  8
100
  6
Continuous
 62
     3
100
AcDbLine
 10
-67.9999999999999
 20
36.2601387097952
 30
0.0
 11
-39.0
 21
36.2601387097952
 31
0.0
  0
LINE
  5
4D6
330
1F
100
AcDbEntity
  8
100
  6
Continuous
 62
     3
100
AcDbLine
 10
-67.9999999999999
 20
25.639789968461
 30
0.0
 11
-39.0
 21
25.639789968461
 31
0.0
  0
LINE
  5
4D7
330
1F
100
AcDbEntity
  8
100
  6
Continuous
 62
     3
100
AcDbLine
 10
-67.9999999999999
 20
-36.2601387097952
 30
0.0
 11
-39.0
 21
-36.2601387097952
 31
0.0
  0
LINE
  5
4D8
330
1F
100
AcDbEntity
  8
100
  6
Continuous
 62
     3
100
AcDbLine
 10
-67.9999999999999
 20
0.0
 30
0.0
 11
-39.0
 21
0.0
 31
0.0
  0
LINE
  5
4D9
330
1F
100
AcDbEntity
  8
100
  6
Continuous
 62
     3
100
AcDbLine
 10
-67.9999999999999
 20
-25.639789968461
 30
0.0
 11
-39.0
 21
-25.639789968461
 31
0.0
  0
LINE
  5
4DA
330
1F
100
AcDbEntity
  8
100
  6
Continuous
 62
     3
100
AcDbLine
 10
-67.9999999999999
 20
-36.2601387097952
 30
0.0
 11
-67.9999999999999
 21
36.2601387097952
 31
0.0
  0
LINE
  5
4DB
330
1F
100
AcDbEntity
  8
100
  6
Continuous
 62
     3
100
AcDbLine
 10
-39.0
 20
-36.2601387097952
 30
0.0
 11
-39.0
 21
36.2601387097952
 31
0.0
  0
LINE
  5
4DC
330
1F
100
AcDbEntity
  8
100
  6
Continuous
 62
     3
100
AcDbLine
 10
-138.0
 20
-23.504625
 30
0.0
 11
-122.148
 21
-24.0
 31
0.0
  0
LINE
  5
4DD
330
1F
100
AcDbEntity
  8
2
  6
Continuous
 62
     1
100
AcDbLine
 10
-109.0
 20
-22.931875
 30
0.0
 11
-138.0
 21
-22.025625
 31
0.0
  0
LINE
  5
4DE
330
1F
100
AcDbEntity
  8
100
  6
Continuous
 62
     3
100
AcDbLine
 10
-138.0
 20
23.504625
 30
0.0
 11
-122.148
 21
24.0
 31
0.0
  0
LINE
  5
4DF
330
1F
100
AcDbEntity
  8
2
  6
Continuous
 62
     1
100
AcDbLine
 10
-109.0
 20
22.931875
 30
0.0
 11
-138.0
 21
22.025625
 31
0.0
  0
LINE
  5
4E0
330
1F
100
AcDbEntity
  8
100
  6
Continuous
 62
     3
100
AcDbLine
 10
-138.0
 20
-23.504625
 30
0.0
 11
-138.0
 21
23.504625
 31
0.0
  0
LINE
  5
4E1
330
1F
100
AcDbEntity
  8
100
  6
Continuous
 62
     3
100
AcDbLine
 10
-109.0
 20
346.0
 30
0.0
 11
-109.0
 21
394.0
 31
0.0
  0
LINE
  5
4E2
330
1F
100
AcDbEntity
  8
100
  6
Continuous
 62
     3
100
AcDbLine
 10
-122.148
 20
394.0
 30
0.0
 11
-67.9999999999999
 21
394.0
 31
0.0
  0
LINE
  5
4E3
330
1F
100
AcDbEntity
  8
100
  6
Continuous
 62
     3
100
AcDbLine
 10
-122.148
 20
346.0
 30
0.0
 11
-67.9999999999999
 21
346.0
 31
0.0
  0
LINE
  5
4E4
330
1F
100
AcDbEntity
  8
2
  6
Continuous
 62
     3
100
AcDbLine
 10
-109.0
 20
392.931875
 30
0.0
 11
-107.149953231166
 21
394.0
 31
0.0
  0
LINE
  5
4E5
330
1F
100
AcDbEntity
  8
2
  6
Continuous
 62
     3
100
AcDbLine
 10
-109.0
 20
347.068125
 30
0.0
 11
-107.149953231166
 21
346.0
 31
0.0
  0
LINE
  5
4E6
330
1F
100
AcDbEntity
  8
100
  6
Continuous
 62
     3
100
AcDbLine
 10
-67.9999999999999
 20
406.260138709795
 30
0.0
 11
-39.0
 21
406.260138709795
 31
0.0
  0
LINE
  5
4E7
330
1F
100
AcDbEntity
  8
100
  6
Continuous
 62
     3
100
AcDbLine
 10
-67.9999999999999
 20
395.639789968461
 30
0.0
 11
-39.0
 21
395.639789968461
 31
0.0
  0
LINE
  5
4E8
330
1F
100
AcDbEntity
  8
100
  6
Continuous
 62
     3
100
AcDbLine
 10
-67.9999999999999
 20
333.739861290204
 30
0.0
 11
-39.0
 21
333.739861290204
 31
0.0
  0
LINE
  5
4E9
330
1F
100
AcDbEntity
  8
100
  6
Continuous
 62
     3
100
AcDbLine
 10
-67.9999999999999
 20
370.0
 30
0.0
 11
-42.5
 21
370.0
 31
0.0
  0
LINE
  5
4EA
330
1F
100
AcDbEntity
  8
100
  6
Continuous
 62
     3
100
AcDbLine
 10
-67.9999999999999
 20
344.360210031539
 30
0.0
 11
-39.0
 21
344.360210031539
 31
0.0
  0
LINE
  5
4EB
330
1F
100
AcDbEntity
  8
100
  6
Continuous
 62
     3
100
AcDbLine
 10
-67.9999999999999
 20
333.739861290204
 30
0.0
 11
-67.9999999999999
 21
406.260138709795
 31
0.0
  0
LINE
  5
4EC
330
1F
100
AcDbEntity
  8
100
  6
Continuous
 62
     3
100
AcDbLine
 10
-39.0
 20
333.739861290204
 30
0.0
 11
-39.0
 21
363.244856764668
 31
0.0
  0
LINE
  5
4ED
330
1F
100
AcDbEntity
  8
100
  6
Continuous
 62
     3
100
AcDbLine
 10
-39.0
 20
376.755143235331
 30
0.0
 11
-39.0
 21
406.260138709795
 31
0.0
  0
LINE
  5
4EE
330
1F
100
AcDbEntity
  8
100
  6
Continuous
 62
     3
100
AcDbLine
 10
-138.0
 20
346.495375
 30
0.0
 11
-122.148
 21
346.0
 31
0.0
  0
LINE
  5
4EF
330
1F
100
AcDbEntity
  8
2
  6
Continuous
 62
     1
100
AcDbLine
 10
-109.0
 20
347.068125
 30
0.0
 11
-138.0
 21
347.974375
 31
0.0
  0
LINE
  5
4F0
330
1F
100
AcDbEntity
  8
100
  6
Continuous
 62
     3
100
AcDbLine
 10
-138.0
 20
393.504625
 30
0.0
 11
-122.148
 21
394.0
 31
0.0
  0
LINE
  5
4F1
330
1F
100
AcDbEntity
  8
2
  6
Continuous
 62
     1
100
AcDbLine
 10
-109.0
 20
392.931875
 30
0.0
 11
-138.0
 21
392.025625
 31
0.0
  0
LINE
  5
4F2
330
1F
100
AcDbEntity
  8
100
  6
Continuous
 62
     3
100
AcDbLine
 10
-138.0
 20
346.495375
 30
0.0
 11
-138.0
 21
393.504625
 31
0.0
  0
LINE
  5
4F3
330
1F
100
AcDbEntity
  8
100
  6
Continuous
 62
     3
100
AcDbLine
 10
109.0
 20
-24.0
 30
0.0
 11
109.0
 21
24.0
 31
0.0
  0
LINE
  5
4F4
330
1F
100
AcDbEntity
  8
100
  6
Continuous
 62
     3
100
AcDbLine
 10
122.148
 20
24.0
 30
0.0
 11
67.9999999999999
 21
24.0
 31
0.0
  0
LINE
  5
4F5
330
1F
100
AcDbEntity
  8
100
  6
Continuous
 62
     3
100
AcDbLine
 10
122.148
 20
-24.0
 30
0.0
 11
67.9999999999999
 21
-24.0
 31
0.0
  0
LINE
  5
4F6
330
1F
100
AcDbEntity
  8
2
  6
Continuous
 62
     3
100
AcDbLine
 10
109.0
 20
22.931875
 30
0.0
 11
107.149953231166
 21
24.0
 31
0.0
  0
LINE
  5
4F7
330
1F
100
AcDbEntity
  8
2
  6
Continuous
 62
     3
100
AcDbLine
 10
109.0
 20
-22.931875
 30
0.0
 11
107.149953231166
 21
-24.0
 31
0.0
  0
LINE
  5
4F8
330
1F
100
AcDbEntity
  8
100
  6
Continuous
 62
     3
100
AcDbLine
 10
67.9999999999999
 20
36.2601387097952
 30
0.0
 11
39.0
 21
36.2601387097952
 31
0.0
  0
LINE
  5
4F9
330
1F
100
AcDbEntity
  8
100
  6
Continuous
 62
     3
100
AcDbLine
 10
67.9999999999999
 20
25.639789968461
 30
0.0
 11
39.0
 21
25.639789968461
 31
0.0
  0
LINE
  5
4FA
330
1F
100
AcDbEntity
  8
100
  6
Continuous
 62
     3
100
AcDbLine
 10
67.9999999999999
 20
-36.2601387097952
 30
0.0
 11
39.0
 21
-36.2601387097952
 31
0.0
  0
LINE
  5
4FB
330
1F
100
AcDbEntity
  8
100
  6
Continuous
 62
     3
100
AcDbLine
 10
67.9999999999999
 20
0.0
 30
0.0
 11
39.0
 21
0.0
 31
0.0
  0
LINE
  5
4FC
330
1F
100
AcDbEntity
  8
100
  6
Continuous
 62
     3
100
AcDbLine
 10
67.9999999999999
 20
-25.639789968461
 30
0.0
 11
39.0
 21
-25.639789968461
 31
0.0
  0
LINE
  5
4FD
330
1F
100
AcDbEntity
  8
100
  6
Continuous
 62
     3
100
AcDbLine
 10
67.9999999999999
 20
-36.2601387097952
 30
0.0
 11
67.9999999999999
 21
36.2601387097952
 31
0.0
  0
LINE
  5
4FE
330
1F
100
AcDbEntity
  8
100
  6
Continuous
 62
     3
100
AcDbLine
 10
39.0
 20
-36.2601387097952
 30
0.0
 11
39.0
 21
36.2601387097952
 31
0.0
  0
LINE
  5
4FF
330
1F
100
AcDbEntity
  8
100
  6
Continuous
 62
     3
100
AcDbLine
 10
138.0
 20
-23.504625
 30
0.0
 11
122.148
 21
-24.0
 31
0.0
  0
LINE
  5
500
330
1F
100
AcDbEntity
  8
2
  6
Continuous
 62
     1
100
AcDbLine
 10
109.0
 20
-22.931875
 30
0.0
 11
138.0
 21
-22.025625
 31
0.0
  0
LINE
  5
501
330
1F
100
AcDbEntity
  8
100
  6
Continuous
 62
     3
100
AcDbLine
 10
138.0
 20
23.504625
 30
0.0
 11
122.148
 21
24.0
 31
0.0
  0
LINE
  5
502
330
1F
100
AcDbEntity
  8
2
  6
Continuous
 62
     1
100
AcDbLine
 10
109.0
 20
22.931875
 30
0.0
 11
138.0
 21
22.025625
 31
0.0
  0
LINE
  5
503
330
1F
100
AcDbEntity
  8
100
  6
Continuous
 62
     3
100
AcDbLine
 10
138.0
 20
-23.504625
 30
0.0
 11
138.0
 21
23.504625
 31
0.0
  0
LINE
  5
504
330
1F
100
AcDbEntity
  8
100
  6
Continuous
 62
     3
100
AcDbLine
 10
109.0
 20
346.0
 30
0.0
 11
109.0
 21
394.0
 31
0.0
  0
LINE
  5
505
330
1F
100
AcDbEntity
  8
100
  6
Continuous
 62
     3
100
AcDbLine
 10
122.148
 20
394.0
 30
0.0
 11
67.9999999999999
 21
394.0
 31
0.0
  0
LINE
  5
506
330
1F
100
AcDbEntity
  8
100
  6
Continuous
 62
     3
100
AcDbLine
 10
122.148
 20
346.0
 30
0.0
 11
67.9999999999999
 21
346.0
 31
0.0
  0
LINE
  5
507
330
1F
100
AcDbEntity
  8
2
  6
Continuous
 62
     3
100
AcDbLine
 10
109.0
 20
392.931875
 30
0.0
 11
107.149953231166
 21
394.0
 31
0.0
  0
LINE
  5
508
330
1F
100
AcDbEntity
  8
2
  6
Continuous
 62
     3
100
AcDbLine
 10
109.0
 20
347.068125
 30
0.0
 11
107.149953231166
 21
346.0
 31
0.0
  0
LINE
  5
509
330
1F
100
AcDbEntity
  8
100
  6
Continuous
 62
     3
100
AcDbLine
 10
67.9999999999999
 20
406.260138709795
 30
0.0
 11
39.0
 21
406.260138709795
 31
0.0
  0
LINE
  5
50A
330
1F
100
AcDbEntity
  8
100
  6
Continuous
 62
     3
100
AcDbLine
 10
67.9999999999999
 20
395.639789968461
 30
0.0
 11
39.0
 21
395.639789968461
 31
0.0
  0
LINE
  5
50B
330
1F
100
AcDbEntity
  8
100
  6
Continuous
 62
     3
100
AcDbLine
 10
67.9999999999999
 20
333.739861290204
 30
0.0
 11
39.0
 21
333.739861290204
 31
0.0
  0
LINE
  5
50C
330
1F
100
AcDbEntity
  8
100
  6
Continuous
 62
     3
100
AcDbLine
 10
67.9999999999999
 20
370.0
 30
0.0
 11
42.5
 21
370.0
 31
0.0
  0
LINE
  5
50D
330
1F
100
AcDbEntity
  8
100
  6
Continuous
 62
     3
100
AcDbLine
 10
67.9999999999999
 20
344.360210031539
 30
0.0
 11
39.0
 21
344.360210031539
 31
0.0
  0
LINE
  5
50E
330
1F
100
AcDbEntity
  8
100
  6
Continuous
 62
     3
100
AcDbLine
 10
67.9999999999999
 20
333.739861290204
 30
0.0
 11
67.9999999999999
 21
406.260138709795
 31
0.0
  0
LINE
  5
50F
330
1F
100
AcDbEntity
  8
100
  6
Continuous
 62
     3
100
AcDbLine
 10
39.0
 20
333.739861290204
 30
0.0
 11
39.0
 21
363.244856764668
 31
0.0
  0
LINE
  5
510
330
1F
100
AcDbEntity
  8
100
  6
Continuous
 62
     3
100
AcDbLine
 10
39.0
 20
376.755143235331
 30
0.0
 11
39.0
 21
406.260138709795
 31
0.0
  0
LINE
  5
511
330
1F
100
AcDbEntity
  8
100
  6
Continuous
 62
     3
100
AcDbLine
 10
138.0
 20
346.495375
 30
0.0
 11
122.148
 21
346.0
 31
0.0
  0
LINE
  5
512
330
1F
100
AcDbEntity
  8
2
  6
Continuous
 62
     1
100
AcDbLine
 10
109.0
 20
347.068125
 30
0.0
 11
138.0
 21
347.974375
 31
0.0
  0
LINE
  5
513
330
1F
100
AcDbEntity
  8
100
  6
Continuous
 62
     3
100
AcDbLine
 10
138.0
 20
393.504625
 30
0.0
 11
122.148
 21
394.0
 31
0.0
  0
LINE
  5
514
330
1F
100
AcDbEntity
  8
2
  6
Continuous
 62
     1
100
AcDbLine
 10
109.0
 20
392.931875
 30
0.0
 11
138.0
 21
392.025625
 31
0.0
  0
LINE
  5
515
330
1F
100
AcDbEntity
  8
100
  6
Continuous
 62
     3
100
AcDbLine
 10
138.0
 20
346.495375
 30
0.0
 11
138.0
 21
393.504625
 31
0.0
  0
LINE
  5
516
330
1F
100
AcDbEntity
  8
100
  6
Continuous
 62
     3
100
AcDbLine
 10
286.260138709795
 20
0.0
 30
0.0
 11
275.639789968461
 21
25.639789968461
 31
0.0
  0
LINE
  5
517
330
1F
100
AcDbEntity
  8
100
  6
Continuous
 62
     3
100
AcDbLine
 10
275.639789968461
 20
25.639789968461
 30
0.0
 11
250.0
 21
36.2601387097952
 31
0.0
  0
LINE
  5
518
330
1F
100
AcDbEntity
  8
100
  6
Continuous
 62
     3
100
AcDbLine
 10
250.0
 20
36.2601387097952
 30
0.0
 11
224.360210031539
 21
25.639789968461
 31
0.0
  0
LINE
  5
519
330
1F
100
AcDbEntity
  8
100
  6
Continuous
 62
     3
100
AcDbLine
 10
224.360210031539
 20
25.639789968461
 30
0.0
 11
213.739861290205
 21
0.00000000000001
 31
0.0
  0
LINE
  5
51A
330
1F
100
AcDbEntity
  8
100
  6
Continuous
 62
     3
100
AcDbLine
 10
213.739861290205
 20
0.00000000000001
 30
0.0
 11
224.360210031539
 21
-25.639789968461
 31
0.0
  0
LINE
  5
51B
330
1F
100
AcDbEntity
  8
100
  6
Continuous
 62
     3
100
AcDbLine
 10
224.360210031539
 20
-25.639789968461
 30
0.0
 11
250.0
 21
-36.2601387097952
 31
0.0
  0
LINE
  5
51C
330
1F
100
AcDbEntity
  8
100
  6
Continuous
 62
     3
100
AcDbLine
 10
250.0
 20
-36.2601387097952
 30
0.0
 11
275.639789968461
 21
-25.639789968461
 31
0.0
  0
LINE
  5
51D
330
1F
100
AcDbEntity
  8
100
  6
Continuous
 62
     3
100
AcDbLine
 10
275.639789968461
 20
-25.639789968461
 30
0.0
 11
286.260138709795
 21
0.0
 31
0.0
  0
LINE
  5
51E
330
1F
100
AcDbEntity
  8
100
  6
Continuous
 62
     3
100
AcDbLine
 10
13.1
 20
-126.0
 30
0.0
 11
-13.1
 21
-126.0
 31
0.0
  0
LINE
  5
51F
330
1F
100
AcDbEntity
  8
2
  6
Continuous
 62
     3
100
AcDbLine
 10
-12.3544375
 20
-126.0
 30
0.0
 11
-13.1
 21
-124.708647869782
 31
0.0
  0
LINE
  5
520
330
1F
100
AcDbEntity
  8
2
  6
Continuous
 62
     3
100
AcDbLine
 10
12.3544375
 20
-126.0
 30
0.0
 11
13.1
 21
-124.708647869782
 31
0.0
  0
LINE
  5
521
330
1F
100
AcDbEntity
  8
100
  6
Continuous
 62
     3
100
AcDbLine
 10
-13.1
 20
-139.326
 30
0.0
 11
-13.1
 21
-99.5
 31
0.0
  0
LINE
  5
522
330
1F
100
AcDbEntity
  8
100
  6
Continuous
 62
     3
100
AcDbLine
 10
13.1
 20
-139.326
 30
0.0
 11
13.1
 21
-99.5
 31
0.0
  0
LINE
  5
523
330
1F
100
AcDbEntity
  8
100
  6
Continuous
 62
     3
100
AcDbLine
 10
21.9393102292058
 20
-99.5
 30
0.0
 11
-21.9393102292058
 21
-99.5
 31
0.0
  0
LINE
  5
524
330
1F
100
AcDbEntity
  8
100
  6
Continuous
 62
     3
100
AcDbLine
 10
21.9393102292058
 20
-77.5
 30
0.0
 11
-21.9393102292058
 21
-77.5
 31
0.0
  0
LINE
  5
525
330
1F
100
AcDbEntity
  8
100
  6
Continuous
 62
     3
100
AcDbLine
 10
-21.9393102292058
 20
-99.5
 30
0.0
 11
-21.9393102292058
 21
-77.5
 31
0.0
  0
LINE
  5
526
330
1F
100
AcDbEntity
  8
100
  6
Continuous
 62
     3
100
AcDbLine
 10
-10.9696551146029
 20
-99.5
 30
0.0
 11
-10.9696551146029
 21
-77.5
 31
0.0
  0
LINE
  5
527
330
1F
100
AcDbEntity
  8
100
  6
Continuous
 62
     3
100
AcDbLine
 10
10.9696551146029
 20
-99.5
 30
0.0
 11
10.9696551146029
 21
-77.5
 31
0.0
  0
LINE
  5
528
330
1F
100
AcDbEntity
  8
100
  6
Continuous
 62
     3
100
AcDbLine
 10
21.9393102292058
 20
-99.5
 30
0.0
 11
21.9393102292058
 21
-77.5
 31
0.0
  0
LINE
  5
529
330
1F
100
AcDbEntity
  8
100
  6
Continuous
 62
     3
100
AcDbLine
 10
-12.9226875
 20
-145.0
 30
0.0
 11
-13.1
 21
-139.326
 31
0.0
  0
LINE
  5
52A
330
1F
100
AcDbEntity
  8
2
  6
Continuous
 62
     1
100
AcDbLine
 10
-12.3544375
 20
-126.0
 30
0.0
 11
-11.7606875
 21
-145.0
 31
0.0
  0
LINE
  5
52B
330
1F
100
AcDbEntity
  8
100
  6
Continuous
 62
     3
100
AcDbLine
 10
12.9226875
 20
-145.0
 30
0.0
 11
13.1
 21
-139.326
 31
0.0
  0
LINE
  5
52C
330
1F
100
AcDbEntity
  8
2
  6
Continuous
 62
     1
100
AcDbLine
 10
12.3544375
 20
-126.0
 30
0.0
 11
11.7606875
 21
-145.0
 31
0.0
  0
LINE
  5
52D
330
1F
100
AcDbEntity
  8
100
  6
Continuous
 62
     3
100
AcDbLine
 10
12.9226875
 20
-145.0
 30
0.0
 11
-12.9226875
 21
-145.0
 31
0.0
  0
LINE
  5
52E
330
1F
100
AcDbEntity
  8
2
  6
Continuous
 62
     3
100
AcDbLine
 10
237.6455625
 20
-126.0
 30
0.0
 11
236.9
 21
-124.708647869782
 31
0.0
  0
LINE
  5
52F
330
1F
100
AcDbEntity
  8
100
  6
Continuous
 62
     3
100
AcDbLine
 10
263.1
 20
-126.0
 30
0.0
 11
236.9
 21
-126.0
 31
0.0
  0
LINE
  5
530
330
1F
100
AcDbEntity
  8
2
  6
Continuous
 62
     3
100
AcDbLine
 10
262.3544375
 20
-126.0
 30
0.0
 11
263.1
 21
-124.708647869782
 31
0.0
  0
LINE
  5
531
330
1F
100
AcDbEntity
  8
100
  6
Continuous
 62
     3
100
AcDbLine
 10
269.0
 20
-99.5
 30
0.0
 11
231.0
 21
-99.5
 31
0.0
  0
LINE
  5
532
330
1F
100
AcDbEntity
  8
100
  6
Continuous
 62
     3
100
AcDbLine
 10
269.0
 20
-77.5
 30
0.0
 11
231.0
 21
-77.5
 31
0.0
  0
LINE
  5
533
330
1F
100
AcDbEntity
  8
100
  6
Continuous
 62
     3
100
AcDbLine
 10
236.9
 20
-139.326
 30
0.0
 11
236.9
 21
-99.5
 31
0.0
  0
LINE
  5
534
330
1F
100
AcDbEntity
  8
100
  6
Continuous
 62
     3
100
AcDbLine
 10
263.1
 20
-139.326
 30
0.0
 11
263.1
 21
-99.5
 31
0.0
  0
LINE
  5
535
330
1F
100
AcDbEntity
  8
100
  6
Continuous
 62
     3
100
AcDbLine
 10
269.0
 20
-99.5
 30
0.0
 11
269.0
 21
-77.5
 31
0.0
  0
LINE
  5
536
330
1F
100
AcDbEntity
  8
100
  6
Continuous
 62
     3
100
AcDbLine
 10
231.0
 20
-99.5
 30
0.0
 11
231.0
 21
-77.5
 31
0.0
  0
LINE
  5
537
330
1F
100
AcDbEntity
  8
100
  6
Continuous
 62
     3
100
AcDbLine
 10
250.0
 20
-99.5
 30
0.0
 11
250.0
 21
-77.5
 31
0.0
  0
LINE
  5
538
330
1F
100
AcDbEntity
  8
100
  6
Continuous
 62
     3
100
AcDbLine
 10
237.0773125
 20
-145.0
 30
0.0
 11
236.9
 21
-139.326
 31
0.0
  0
LINE
  5
539
330
1F
100
AcDbEntity
  8
100
  6
Continuous
 62
     3
100
AcDbLine
 10
262.9226875
 20
-145.0
 30
0.0
 11
263.1
 21
-139.326
 31
0.0
  0
LINE
  5
53A
330
1F
100
AcDbEntity
  8
2
  6
Continuous
 62
     1
100
AcDbLine
 10
262.3544375
 20
-126.0
 30
0.0
 11
261.7606875
 21
-145.0
 31
0.0
  0
LINE
  5
53B
330
1F
100
AcDbEntity
  8
2
  6
Continuous
 62
     1
100
AcDbLine
 10
237.6455625
 20
-126.0
 30
0.0
 11
238.2393125
 21
-145.0
 31
0.0
  0
LINE
  5
53C
330
1F
100
AcDbEntity
  8
100
  6
Continuous
 62
     3
100
AcDbLine
 10
262.9226875
 20
-145.0
 30
0.0
 11
237.0773125
 21
-145.0
 31
0.0
  0
LINE
  5
53D
330
1F
100
AcDbEntity
  8
2
  6
Continuous
 62
     2
100
AcDbLine
 10
175.0
 20
300.0
 30
0.0
 11
175.0
 21
166.109375
 31
0.0
  0
LINE
  5
53E
330
1F
100
AcDbEntity
  8
2
  6
Continuous
 62
     2
100
AcDbLine
 10
175.0
 20
0.0
 30
0.0
 11
175.0
 21
166.109375
 31
0.0
  0
LINE
  5
53F
330
1F
100
AcDbEntity
  8
2
  6
Continuous
 62
     2
100
AcDbLine
 10
43.1696853637695
 20
300.0
 30
0.0
 11
176.0
 21
300.0
 31
0.0
  0
LINE
  5
540
330
1F
100
AcDbEntity
  8
2
  6
Continuous
 62
     2
100
AcDbLine
 10
166.0
 20
0.0
 30
0.0
 11
176.0
 21
0.0
 31
0.0
  0
LINE
  5
541
330
1F
100
AcDbEntity
  8
2
  6
CENTER
 62
     6
100
AcDbLine
 10
-12.7435344872926
 20
259.217672785336
 30
0.0
 11
-16.8932203321359
 21
261.5
 31
0.0
  0
LINE
  5
542
330
1F
100
AcDbEntity
  8
2
  6
CENTER
 62
     6
100
AcDbLine
 10
-11.9999999302253
 20
255.5
 30
0.0
 11
-12.7435344872926
 21
259.217672785336
 31
0.0
  0
LINE
  5
543
330
1F
100
AcDbEntity
  8
2
  6
CENTER
 62
     6
100
AcDbLine
 10
-11.9999999302253
 20
255.5
 30
0.0
 11
11.9999999302253
 21
255.5
 31
0.0
  0
LINE
  5
544
330
1F
100
AcDbEntity
  8
2
  6
CENTER
 62
     6
100
AcDbLine
 10
11.9999999302253
 20
255.5
 30
0.0
 11
12.7435344872926
 21
259.217672785336
 31
0.0
  0
LINE
  5
545
330
1F
100
AcDbEntity
  8
2
  6
CENTER
 62
     6
100
AcDbLine
 10
12.7435344872926
 20
259.217672785336
 30
0.0
 11
16.8932203321367
 21
261.5
 31
0.0
  0
LINE
  5
546
330
1F
100
AcDbEntity
  8
2
  6
CENTER
 62
     6
100
AcDbLine
 10
-16.8932203321359
 20
261.5
 30
0.0
 11
-40.9999999302249
 21
261.499999999999
 31
0.0
  0
LINE
  5
547
330
1F
100
AcDbEntity
  8
2
  6
CENTER
 62
     6
100
AcDbLine
 10
40.9999999302254
 20
261.5
 30
0.0
 11
16.8932203321367
 21
261.5
 31
0.0
  0
LINE
  5
548
330
1F
100
AcDbEntity
  8
2
  6
CENTER
 62
     6
100
AcDbLine
 10
-40.9999999302255
 20
275.5
 30
0.0
 11
40.9999999302253
 21
275.5
 31
0.0
  0
LINE
  5
549
330
1F
100
AcDbEntity
  8
1
  6
Continuous
 62
     4
100
AcDbLine
 10
-122.148
 20
-24.0
 30
0.0
 11
-122.650981287983
 21
-27.0648296447697
 31
0.0
  0
LINE
  5
54A
330
1F
100
AcDbEntity
  8
1
  6
Continuous
 62
     4
100
AcDbLine
 10
-122.148
 20
-24.0
 30
0.0
 11
-124.116009395406
 21
-26.4027296866508
 31
0.0
  0
LINE
  5
54B
330
1F
100
AcDbEntity
  8
1
  6
Continuous
 62
     4
100
AcDbLine
 10
13.100004196167
 20
-136.469985961914
 30
0.0
 11
15.8579790000918
 21
-137.898182695014
 31
0.0
  0
LINE
  5
54C
330
1F
100
AcDbEntity
  8
1
  6
Continuous
 62
     4
100
AcDbLine
 10
13.100004196167
 20
-136.469985961914
 30
0.0
 11
14.7743820728136
 21
-139.085828016343
 31
0.0
  0
LINE
  5
54D
330
1F
100
AcDbEntity
  8
1
  6
Continuous
 62
     4
100
AcDbLine
 10
122.148
 20
-24.0
 30
0.0
 11
124.544597516301
 21
-25.9754724175199
 31
0.0
  0
LINE
  5
54E
330
1F
100
AcDbEntity
  8
1
  6
Continuous
 62
     4
100
AcDbLine
 10
122.148
 20
-24.0
 30
0.0
 11
123.235778123003
 21
-26.909108056198
 31
0.0
  0
ARC
  5
54F
330
1F
100
AcDbEntity
  8
100
  6
Continuous
 62
     3
100
AcDbCircle
 10
0.0
 20
49.3326502703558
 30
0.0
 40
84.00000000000004
100
AcDbArc
 50
284.4775121859299
 51
294.6706617264675
  0
ARC
  5
550
330
1F
100
AcDbEntity
  8
100
  6
Continuous
 62
     3
100
AcDbCircle
 10
0.0
 20
-49.3326502703558
 30
0.0
 40
84.00000000000003
100
AcDbArc
 50
65.32933827353247
 51
75.52248781407009
  0
ARC
  5
551
330
1F
100
AcDbEntity
  8
100
  6
Continuous
 62
     3
100
AcDbCircle
 10
0.0
 20
-49.3326502703558
 30
0.0
 40
84.00000000000004
100
AcDbArc
 50
104.4775121859299
 51
114.6706617264675
  0
ARC
  5
552
330
1F
100
AcDbEntity
  8
100
  6
Continuous
 62
     3
100
AcDbCircle
 10
0.0
 20
49.3326502703558
 30
0.0
 40
84.00000000000003
100
AcDbArc
 50
245.3293382735325
 51
255.52248781407
  0
ARC
  5
553
330
1F
100
AcDbEntity
  8
100
  6
Continuous
 62
     3
100
AcDbCircle
 10
-8.4999999302253
 20
293.0
 30
0.0
 40
16.77982419454974
100
AcDbArc
 50
155.3441012559182
 51
204.6558987440817
  0
ARC
  5
554
330
1F
100
AcDbEntity
  8
100
  6
Continuous
 62
     3
100
AcDbCircle
 10
-25.7499999302253
 20
293.0
 30
0.0
 40
16.77982419454984
100
AcDbArc
 50
155.3441012559184
 51
204.6558987440814
  0
ARC
  5
555
330
1F
100
AcDbEntity
  8
100
  6
Continuous
 62
     3
100
AcDbCircle
 10
8.4999999302253
 20
293.0
 30
0.0
 40
16.77982419454992
100
AcDbArc
 50
335.3441012559185
 51
24.65589874408147
  0
ARC
  5
556
330
1F
100
AcDbEntity
  8
100
  6
Continuous
 62
     3
100
AcDbCircle
 10
25.7499999302253
 20
293.0
 30
0.0
 40
16.77982419454984
100
AcDbArc
 50
335.3441012559184
 51
24.65589874408147
  0
ARC
  5
557
330
1F
100
AcDbEntity
  8
100
  6
Continuous
 62
     3
100
AcDbCircle
 10
228.901947384102
 20
293.0
 30
0.0
 40
16.77982419454984
100
AcDbArc
 50
155.3441012559184
 51
204.6558987440816
  0
ARC
  5
558
330
1F
100
AcDbEntity
  8
100
  6
Continuous
 62
     3
100
AcDbCircle
 10
271.098052615898
 20
293.0
 30
0.0
 40
16.77982419454984
100
AcDbArc
 50
335.3441012559184
 51
24.65589874408161
  0
ARC
  5
559
330
1F
100
AcDbEntity
  8
100
  6
Continuous
 62
     3
100
AcDbCircle
 10
260.893309393208
 20
293.0
 30
0.0
 40
16.77982419454986
100
AcDbArc
 50
155.3441012559184
 51
204.6558987440816
  0
ARC
  5
55A
330
1F
100
AcDbEntity
  8
100
  6
Continuous
 62
     3
100
AcDbCircle
 10
239.106690606792
 20
293.0
 30
0.0
 40
16.77982419454984
100
AcDbArc
 50
335.3441012559184
 51
24.65589874408161
  0
ARC
  5
55B
330
1F
100
AcDbEntity
  8
100
  6
Continuous
 62
     3
100
AcDbCircle
 10
17.25
 20
399.877876430563
 30
0.0
 40
8.00000000000004
100
AcDbArc
 50
12.69766443063874
 51
107.30233556936
  0
ARC
  5
55C
330
1F
100
AcDbEntity
  8
100
  6
Continuous
 62
     3
100
AcDbCircle
 10
-17.25
 20
399.877876430563
 30
0.0
 40
7.999999999999877
100
AcDbArc
 50
72.69765606540022
 51
167.3023355693603
  0
ARC
  5
55D
330
1F
100
AcDbEntity
  8
100
  6
Continuous
 62
     3
100
AcDbCircle
 10
0.00000000000011
 20
455.25329967951
 30
0.0
 40
50.00000000000001
100
AcDbArc
 50
252.6976644306397
 51
287.3023355693601
  0
ARC
  5
55E
330
1F
100
AcDbEntity
  8
100
  6
Continuous
 62
     3
100
AcDbCircle
 10
-73.8315232789033
 20
412.626649839755
 30
0.0
 40
50.00000000000051
100
AcDbArc
 50
312.6976644306392
 51
347.3023355693601
  0
ARC
  5
55F
330
1F
100
AcDbEntity
  8
100
  6
Continuous
 62
     3
100
AcDbCircle
 10
73.8315232789034
 20
412.626649839754
 30
0.0
 40
49.99999999999982
100
AcDbArc
 50
192.6976644306389
 51
227.3023355693606
  0
ARC
  5
560
330
1F
100
AcDbEntity
  8
100
  6
Continuous
 62
     3
100
AcDbCircle
 10
34.5
 20
369.999999999999
 30
0.0
 40
7.999999999999475
100
AcDbArc
 50
312.6976644306437
 51
47.30233556935865
  0
ARC
  5
561
330
1F
100
AcDbEntity
  8
100
  6
Continuous
 62
     3
100
AcDbCircle
 10
17.25
 20
340.122123569436
 30
0.0
 40
7.99999999999921
100
AcDbArc
 50
252.6976644306378
 51
347.3023355693612
  0
ARC
  5
562
330
1F
100
AcDbEntity
  8
100
  6
Continuous
 62
     3
100
AcDbCircle
 10
0.0
 20
284.74670032049
 30
0.0
 40
50.0
100
AcDbArc
 50
72.69766443063973
 51
107.3023355693604
  0
ARC
  5
563
330
1F
100
AcDbEntity
  8
100
  6
Continuous
 62
     3
100
AcDbCircle
 10
-17.25
 20
340.122123189552
 30
0.0
 40
7.999999999999827
100
AcDbArc
 50
192.7053502248701
 51
287.318354621268
  0
ARC
  5
564
330
1F
100
AcDbEntity
  8
100
  6
Continuous
 62
     3
100
AcDbCircle
 10
-73.8315232789033
 20
327.373350160245
 30
0.0
 40
49.9999999999998
100
AcDbArc
 50
12.69766443063888
 51
47.30233556936051
  0
ARC
  5
565
330
1F
100
AcDbEntity
  8
100
  6
Continuous
 62
     3
100
AcDbCircle
 10
73.8315232789034
 20
327.373350160245
 30
0.0
 40
49.9999999999998
100
AcDbArc
 50
132.6976644306399
 51
167.3023355693611
  0
ARC
  5
566
330
1F
100
AcDbEntity
  8
100
  6
Continuous
 62
     3
100
AcDbCircle
 10
-34.5
 20
370.0
 30
0.0
 40
7.999999999999449
100
AcDbArc
 50
132.6976644306429
 51
227.3023355693591
  0
ARC
  5
567
330
1F
100
AcDbEntity
  8
2
  6
CENTER
 62
     6
100
AcDbCircle
 10
-25.7499999302253
 20
268.5
 30
0.0
 40
16.77982419455002
100
AcDbArc
 50
155.3441012559187
 51
204.6558987440854
  0
ARC
  5
568
330
1F
100
AcDbEntity
  8
2
  6
CENTER
 62
     6
100
AcDbCircle
 10
25.7499999302253
 20
268.5
 30
0.0
 40
16.77982419454992
100
AcDbArc
 50
335.3441012559185
 51
24.65589874408161
  0
CIRCLE
  5
569
330
1F
100
AcDbEntity
  8
100
  6
Continuous
 62
     3
100
AcDbCircle
 10
0.0
 20
370.0
 30
0.0
 40
13.5
  0
CIRCLE
  5
56A
330
1F
100
AcDbEntity
  8
100
  6
Continuous
 62
     3
100
AcDbCircle
 10
0.0
 20
370.0
 30
0.0
 40
26.0
  0
CIRCLE
  5
56B
330
1F
100
AcDbEntity
  8
2
  6
Continuous
 62
     3
100
AcDbCircle
 10
250.0
 20
0.0
 30
0.0
 40
22.42250000000001
  0
CIRCLE
  5
56C
330
1F
100
AcDbEntity
  8
100
  6
Continuous
 62
     3
100
AcDbCircle
 10
250.0
 20
0.0
 30
0.0
 40
23.9015
  0
CIRCLE
  5
56D
330
1F
100
AcDbEntity
  8
100
  6
Continuous
 62
     3
100
AcDbCircle
 10
250.0
 20
0.0
 30
0.0
 40
18.0
  0
LWPOLYLINE
  5
56E
330
1F
100
AcDbEntity
  8
100
  6
Continuous
 62
     3
100
AcDbPolyline
 90
       20
 70
     1
 43
0.0
 10
2.09030342102051
 20
-1.01114177703857
 10
2.09030342102051
 20
-1.01114177703857
 10
2.09030342102051
 20
7.73885822296143
 10
2.36818908987567
 20
8.75813336758079
 10
2.99981310115346
 20
9.60729642429837
 10
3.89641681686543
 20
10.1688278777873
 10
4.93405342102051
 20
10.3638582229614
 10
5.97169002517559
 20
10.1688278777873
 10
6.86829374088756
 20
9.60729642429837
 10
7.49991775216535
 20
8.75813336758079
 10
7.77780342102051
 20
7.73885822296143
 10
7.77780342102051
 20
-1.01114177703857
 10
7.49991775216535
 20
-2.03041692165794
 10
6.86829374088756
 20
-2.87957997837552
 10
5.97169002517559
 20
-3.44111143186444
 10
4.93405342102051
 20
-3.63614177703857
 10
3.89641681686543
 20
-3.44111143186444
 10
2.99981310115346
 20
-2.87957997837552
 10
2.36818908987567
 20
-2.03041692165794
 10
2.09030342102051
 20
-1.01114177703857
  0
LWPOLYLINE
  5
56F
330
1F
100
AcDbEntity
  8
100
  6
Continuous
 62
     3
100
AcDbPolyline
 90
        2
 70
     0
 43
0.0
 10
-3.15969657897949
 20
-3.63614177703857
 10
-3.15969657897949
 20
5.55135822296143
  0
LWPOLYLINE
  5
570
330
1F
100
AcDbEntity
  8
100
  6
Continuous
 62
     3
100
AcDbPolyline
 90
        3
 70
     0
 43
0.0
 10
-4.47219657897949
 20
10.3638582229614
 10
-7.97219657897949
 20
0.73885822296143
 10
-0.97219657897949
 20
0.73885822296143
  0
LWPOLYLINE
  5
571
330
1F
100
AcDbEntity
  8
2
  6
Continuous
 62
     1
100
AcDbPolyline
 90
       13
 70
     0
 43
0.0
 10
-24.3
 20
115.0
 10
-19.6413345915164
 20
116.54345965113
 10
-15.5172574727788
 20
117.527981677865
 10
-11.6077871680506
 20
118.031221460254
 10
-7.96444320752411
 20
118.037669776728
 10
-3.69301353938603
 20
117.418038878668
 10
2.12993234251885
 20
115.936198488631
 10
7.55278492150286
 20
114.552510048163
 10
11.3175881065274
 20
114.029218822553
 10
14.4213145727439
 20
114.1362838409
 10
17.5977331563104
 20
114.776207936276
 10
20.8077394345583
 20
115.931166974817
 10
24.3
 20
117.692113659989
  0
LWPOLYLINE
  5
572
330
1F
100
AcDbEntity
  8
2
  6
Continuous
 62
     1
100
AcDbPolyline
 90
       13
 70
     0
 43
0.0
 10
-24.3
 20
120.0
 10
-19.6413345915164
 20
121.54345965113
 10
-15.5172574727788
 20
122.527981677865
 10
-11.6077871680506
 20
123.031221460254
 10
-7.96444320752411
 20
123.037669776728
 10
-3.69301353938603
 20
122.418038878668
 10
2.12993234251885
 20
120.936198488631
 10
7.55278492150286
 20
119.552510048163
 10
11.3175881065274
 20
119.029218822553
 10
14.4213145727439
 20
119.1362838409
 10
17.5977331563104
 20
119.776207936276
 10
20.8077394345583
 20
120.931166974817
 10
24.3
 20
122.692113659989
  0
LWPOLYLINE
  5
573
330
1F
100
AcDbEntity
  8
2
  6
Continuous
 62
     1
100
AcDbPolyline
 90
       13
 70
     0
 43
0.0
 10
225.7
 20
115.0
 10
230.358665408484
 20
116.54345965113
 10
234.482742527221
 20
117.527981677865
 10
238.392212831949
 20
118.031221460254
 10
242.035556792476
 20
118.037669776728
 10
246.306986460614
 20
117.418038878668
 10
252.129932342519
 20
115.936198488631
 10
257.552784921503
 20
114.552510048163
 10
261.317588106527
 20
114.029218822553
 10
264.421314572744
 20
114.1362838409
 10
267.59773315631
 20
114.776207936276
 10
270.807739434558
 20
115.931166974817
 10
274.3
 20
117.692113659989
  0
LWPOLYLINE
  5
574
330
1F
100
AcDbEntity
  8
2
  6
Continuous
 62
     1
100
AcDbPolyline
 90
       13
 70
     0
 43
0.0
 10
225.7
 20
120.0
 10
230.358665408484
 20
121.54345965113
 10
234.482742527221
 20
122.527981677865
 10
238.392212831949
 20
123.031221460254
 10
242.035556792476
 20
123.037669776728
 10
246.306986460614
 20
122.418038878668
 10
252.129932342519
 20
120.936198488631
 10
257.552784921503
 20
119.552510048163
 10
261.317588106527
 20
119.029218822553
 10
264.421314572744
 20
119.1362838409
 10
267.59773315631
 20
119.776207936276
 10
270.807739434558
 20
120.931166974817
 10
274.3
 20
122.692113659989
  0
LWPOLYLINE
  5
575
330
1F
100
AcDbEntity
  8
2
  6
Continuous
 62
     2
100
AcDbPolyline
 90
        3
 70
     0
 43
0.0
 10
174.25
 20
297.0
 10
175.0
 20
300.0
 10
175.75
 20
297.0
  0
LWPOLYLINE
  5
576
330
1F
100
AcDbEntity
  8
2
  6
Continuous
 62
     2
100
AcDbPolyline
 90
        3
 70
     0
 43
0.0
 10
175.75
 20
3.0
 10
175.0
 20
0.0
 10
174.25
 20
3.0
  0
LWPOLYLINE
  5
577
330
1F
100
AcDbEntity
  8
2
  6
Continuous
 62
     2
100
AcDbPolyline
 90
        3
 70
     0
 43
0.0
 10
163.207992553711
 20
163.841369628906
 10
172.279998779297
 20
163.841369628906
 10
172.279998779297
 20
168.377380371094
  0
LEADER
  5
578
330
1F
100
AcDbEntity
  8
1
  6
Continuous
 62
     4
100
AcDbLeader
  3
Standard
 71
     0
 76
     3
 10
122.148
 20
-24.0
 30
0.0
 10
142.474963916372
 20
-52.4954038582703
 30
0.0
 10
188.712925676717
 20
-52.4954038582703
 30
0.0
  0
LEADER
  5
579
330
1F
100
AcDbEntity
  8
1
  6
Continuous
 62
     4
100
AcDbLeader
  3
Standard
 71
     0
 76
     3
 10
13.100004196167
 20
-136.469985961914
 30
0.0
 10
38.6579246520996
 20
-159.788803100586
 30
0.0
 10
76.6550102030568
 20
-159.788803100586
 30
0.0
  0
LEADER
  5
57A
330
1F
100
AcDbEntity
  8
1
  6
Continuous
 62
     4
100
AcDbLeader
  3
Standard
 71
     0
 76
     3
 10
-122.148
 20
-24.0
 30
0.0
 10
-133.364334168077
 20
-48.818374653231
 30
0.0
 10
-181.017151005176
 20
-48.818374653231
 30
0.0
  0
ENDSEC
  0
SECTION
  2
OBJECTS
  0
DICTIONARY
  5
C
330
0
100
AcDbDictionary
281
     1
  3
ACAD_GROUP
350
D
  3
ACAD_LAYOUT
350
1A
  3
ACAD_MATERIAL
350
3B
  3
ACAD_MLEADERSTYLE
350
57D
  3
ACAD_MLINESTYLE
350
17
  3
ACAD_PLOTSETTINGS
350
19
  3
ACAD_PLOTSTYLENAME
350
E
  3
ACAD_VISUALSTYLE
350
2A
  3
AcDbVariableDictionary
350
57B
  0
DICTIONARY
  5
D
102
{ACAD_REACTORS
330
C
102
}
330
C
100
AcDbDictionary
281
     1
  0
DICTIONARY
  5
1A
102
{ACAD_REACTORS
330
C
102
}
330
C
100
AcDbDictionary
281
     1
  3
Layout1
350
1E
  3
Layout2
350
26
  3
Model
350
22
  0
DICTIONARY
  5
3B
102
{ACAD_REACTORS
330
C
102
}
330
C
100
AcDbDictionary
281
     1
  3
ByBlock
350
3D
  3
ByLayer
350
3C
  3
Global
350
3E
  0
DICTIONARY
  5
57D
102
{ACAD_REACTORS
330
C
102
}
330
C
100
AcDbDictionary
281
     1
  0
DICTIONARY
  5
17
102
{ACAD_REACTORS
330
C
102
}
330
C
100
AcDbDictionary
281
     1
  3
Standard
350
18
  0
DICTIONARY
  5
19
102
{ACAD_REACTORS
330
C
102
}
330
C
100
AcDbDictionary
281
     1
  0
ACDBDICTIONARYWDFLT
  5
E
102
{ACAD_REACTORS
330
C
102
}
330
C
100
AcDbDictionary
281
     1
  3
Normal
350
F
100
AcDbDictionaryWithDefault
340
F
  0
DICTIONARY
  5
2A
102
{ACAD_REACTORS
330
C
102
}
330
C
100
AcDbDictionary
281
     1
  3
2dWireframe
350
2F
  3
3D Hidden
350
31
  3
3dWireframe
350
30
  3
Basic
350
32
  3
Brighten
350
36
  3
ColorChange
350
3A
  3
Conceptual
350
34
  3
Dim
350
35
  3
Facepattern
350
39
  3
Flat
350
2B
  3
FlatWithEdges
350
2C
  3
Gouraud
350
2D
  3
GouraudWithEdges
350
2E
  3
Linepattern
350
38
  3
Realistic
350
33
  3
Thicken
350
37
  0
DICTIONARY
  5
57B
102
{ACAD_REACTORS
330
C
102
}
330
C
100
AcDbDictionary
281
     1
  3
DIMASSOC
350
57E
  3
HIDETEXT
350
57F
  0
LAYOUT
  5
1E
102
{ACAD_REACTORS
330
1A
102
}
330
1A
100
AcDbPlotSettings
  1

  2
none_device
  4

  6

 40
0.0
 41
0.0
 42
0.0
 43
0.0
 44
0.0
 45
0.0
 46
0.0
 47
0.0
 48
0.0
 49
0.0
140
0.0
141
0.0
142
1.0
143
1.0
 70
   688
 72
     0
 73
     0
 74
     5
  7

 75
    16
147
1.0
148
0.0
149
0.0
100
AcDbLayout
  1
Layout1
 70
     1
 71
     1
 10
0.0
 20
0.0
 11
12.0
 21
9.0
 12
0.0
 22
0.0
 32
0.0
 14
1.00000000000000E+20
 24
1.00000000000000E+20
 34
1.00000000000000E+20
 15
-1.00000000000000E+20
 25
-1.00000000000000E+20
 35
-1.00000000000000E+20
146
0.0
 13
0.0
 23
0.0
 33
0.0
 16
1.0
 26
0.0
 36
0.0
 17
0.0
 27
1.0
 37
0.0
 76
     0
330
1B
  0
LAYOUT
  5
26
102
{ACAD_REACTORS
330
1A
102
}
330
1A
100
AcDbPlotSettings
  1

  2
none_device
  4

  6

 40
0.0
 41
0.0
 42
0.0
 43
0.0
 44
0.0
 45
0.0
 46
0.0
 47
0.0
 48
0.0
 49
0.0
140
0.0
141
0.0
142
1.0
143
1.0
 70
   688
 72
     0
 73
     0
 74
     5
  7

 75
    16
147
1.0
148
0.0
149
0.0
100
AcDbLayout
  1
Layout2
 70
     1
 71
     2
 10
0.0
 20
0.0
 11
0.0
 21
0.0
 12
0.0
 22
0.0
 32
0.0
 14
0.0
 24
0.0
 34
0.0
 15
0.0
 25
0.0
 35
0.0
146
0.0
 13
0.0
 23
0.0
 33
0.0
 16
1.0
 26
0.0
 36
0.0
 17
0.0
 27
1.0
 37
0.0
 76
     0
330
23
  0
LAYOUT
  5
22
102
{ACAD_REACTORS
330
1A
102
}
330
1A
100
AcDbPlotSettings
  1

  2
none_device
  4

  6

 40
0.0
 41
0.0
 42
0.0
 43
0.0
 44
0.0
 45
0.0
 46
0.0
 47
0.0
 48
0.0
 49
0.0
140
0.0
141
0.0
142
1.0
143
1.0
 70
  1712
 72
     0
 73
     0
 74
     0
  7

 75
     0
147
1.0
148
0.0
149
0.0
100
AcDbLayout
  1
Model
 70
     1
 71
     0
 10
0.0
 20
0.0
 11
12.0
 21
9.0
 12
0.0
 22
0.0
 32
0.0
 14
-181.017151005176
 24
-171.623797965156
 34
0.0
 15
437.412239757886
 25
421.782835875437
 35
0.0
146
0.0
 13
0.0
 23
0.0
 33
0.0
 16
1.0
 26
0.0
 36
0.0
 17
0.0
 27
1.0
 37
0.0
 76
     0
330
1F
331
29
  0
MATERIAL
  5
3D
102
{ACAD_REACTORS
330
3B
102
}
102
{ACAD_XDICTIONARY
360
5A2
102
}
330
3B
100
AcDbMaterial
  1
ByBlock
  0
MATERIAL
  5
3C
102
{ACAD_REACTORS
330
3B
102
}
102
{ACAD_XDICTIONARY
360
5A0
102
}
330
3B
100
AcDbMaterial
  1
ByLayer
  0
MATERIAL
  5
3E
102
{ACAD_REACTORS
330
3B
102
}
102
{ACAD_XDICTIONARY
360
5A4
102
}
330
3B
100
AcDbMaterial
  1
Global
  0
MLINESTYLE
  5
18
102
{ACAD_REACTORS
330
17
102
}
330
17
100
AcDbMlineStyle
  2
Standard
 70
     0
  3

 62
   256
 51
90.0
 52
90.0
 71
     2
 49
0.5
 62
   256
  6
BYLAYER
 49
-0.5
 62
   256
  6
BYLAYER
  0
ACDBPLACEHOLDER
  5
F
102
{ACAD_REACTORS
330
E
102
}
330
E
  0
VISUALSTYLE
  5
2F
102
{ACAD_REACTORS
330
2A
102
}
102
{ACAD_XDICTIONARY
360
588
102
}
330
2A
100
AcDbVisualStyle
  2
2dWireframe
 70
     4
 71
     0
 72
     2
 73
     0
 90
        0
 40
-0.6
 41
-30.0
 62
     5
 63
     7
 74
     1
 91
        4
 64
     7
 65
   257
 75
     1
175
     1
 42
1.0
 92
        0
 66
   257
 43
1.0
 76
     1
 77
     6
 78
     2
 67
     7
 79
     5
170
     0
171
     0
290
     0
174
     0
 93
        1
 44
0.0
173
     0
291
     0
 45
0.0
1001
ACAD
1000
AcDbSavedByObjectVersion
1070
     0
  0
VISUALSTYLE
  5
31
102
{ACAD_REACTORS
330
2A
102
}
102
{ACAD_XDICTIONARY
360
58C
102
}
330
2A
100
AcDbVisualStyle
  2
3D Hidden
 70
     6
 71
     1
 72
     2
 73
     2
 90
        0
 40
-0.6
 41
-30.0
 62
     5
 63
     7
 74
     2
 91
        2
 64
     7
 65
   257
 75
     2
175
     1
 42
40.0
 92
        0
 66
   257
 43
1.0
 76
     1
 77
     6
 78
     2
 67
     7
 79
     3
170
     0
171
     0
290
     0
174
     0
 93
        1
 44
0.0
173
     0
291
     0
 45
0.0
1001
ACAD
1000
AcDbSavedByObjectVersion
1070
     0
  0
VISUALSTYLE
  5
30
102
{ACAD_REACTORS
330
2A
102
}
102
{ACAD_XDICTIONARY
360
58A
102
}
330
2A
100
AcDbVisualStyle
  2
3dWireframe
 70
     5
 71
     0
 72
     2
 73
     0
 90
        0
 40
-0.6
 41
-30.0
 62
     5
 63
     7
 74
     1
 91
        4
 64
     7
 65
   257
 75
     1
175
     1
 42
1.0
 92
        0
 66
   257
 43
1.0
 76
     1
 77
     6
 78
     2
 67
     7
 79
     5
170
     0
171
     0
290
     0
174
     0
 93
        1
 44
0.0
173
     0
291
     0
 45
0.0
1001
ACAD
1000
AcDbSavedByObjectVersion
1070
     0
  0
VISUALSTYLE
  5
32
102
{ACAD_REACTORS
330
2A
102
}
102
{ACAD_XDICTIONARY
360
58E
102
}
330
2A
100
AcDbVisualStyle
  2
Basic
 70
     7
 71
     1
 72
     0
 73
     1
 90
        0
 40
-0.6
 41
-30.0
 62
     5
 63
     7
 74
     0
 91
        4
 64
     7
 65
   257
 75
     1
175
     1
 42
1.0
 92
        8
 66
     7
 43
1.0
 76
     1
 77
     6
 78
     2
 67
     7
 79
     5
170
     0
171
     0
290
     0
174
     0
 93
        1
 44
0.0
173
     0
291
     1
 45
0.0
1001
ACAD
1000
AcDbSavedByObjectVersion
1070
     0
  0
VISUALSTYLE
  5
36
102
{ACAD_REACTORS
330
2A
102
}
102
{ACAD_XDICTIONARY
360
596
102
}
330
2A
100
AcDbVisualStyle
  2
Brighten
 70
    12
 71
     2
 72
     2
 73
     0
 90
        0
 40
-0.6
 41
-30.0
 62
     5
 63
     7
 74
     1
 91
        4
 64
     7
 65
   257
 75
     1
175
     1
 42
1.0
 92
        8
 66
     7
 43
1.0
 76
     1
 77
     6
 78
     2
 67
     7
 79
     5
170
     0
171
     0
290
     0
174
     0
 93
        1
 44
50.0
173
     0
291
     1
 45
0.0
1001
ACAD
1000
AcDbSavedByObjectVersion
1070
     0
  0
VISUALSTYLE
  5
3A
102
{ACAD_REACTORS
330
2A
102
}
102
{ACAD_XDICTIONARY
360
59E
102
}
330
2A
100
AcDbVisualStyle
  2
ColorChange
 70
    16
 71
     2
 72
     2
 73
     3
 90
        0
 40
-0.6
 41
-30.0
 62
     5
 63
     8
 74
     1
 91
        4
 64
     7
 65
   257
 75
     1
175
     1
 42
1.0
 92
        8
 66
     8
 43
1.0
 76
     1
 77
     6
 78
     2
 67
     7
 79
     5
170
     0
171
     0
290
     0
174
     0
 93
        1
 44
0.0
173
     0
291
     1
 45
0.0
1001
ACAD
1000
AcDbSavedByObjectVersion
1070
     0
  0
VISUALSTYLE
  5
34
102
{ACAD_REACTORS
330
2A
102
}
102
{ACAD_XDICTIONARY
360
592
102
}
330
2A
100
AcDbVisualStyle
  2
Conceptual
 70
     9
 71
     3
 72
     2
 73
     0
 90
        0
 40
-0.6
 41
-30.0
 62
     5
 63
     7
 74
     2
 91
        2
 64
     7
 65
   257
 75
     1
175
     1
 42
40.0
 92
        8
 66
     7
 43
1.0
 76
     1
 77
     6
 78
     2
 67
     7
 79
     3
170
     0
171
     0
290
     0
174
     0
 93
        1
 44
0.0
173
     0
291
     0
 45
0.0
1001
ACAD
1000
AcDbSavedByObjectVersion
1070
     0
  0
VISUALSTYLE
  5
35
102
{ACAD_REACTORS
330
2A
102
}
102
{ACAD_XDICTIONARY
360
594
102
}
330
2A
100
AcDbVisualStyle
  2
Dim
 70
    11
 71
     2
 72
     2
 73
     0
 90
        0
 40
-0.6
 41
-30.0
 62
     5
 63
     7
 74
     1
 91
        4
 64
     7
 65
   257
 75
     1
175
     1
 42
1.0
 92
        8
 66
     7
 43
1.0
 76
     1
 77
     6
 78
     2
 67
     7
 79
     5
170
     0
171
     0
290
     0
174
     0
 93
        1
 44
-50.0
173
     0
291
     1
 45
0.0
1001
ACAD
1000
AcDbSavedByObjectVersion
1070
     0
  0
VISUALSTYLE
  5
39
102
{ACAD_REACTORS
330
2A
102
}
102
{ACAD_XDICTIONARY
360
59C
102
}
330
2A
100
AcDbVisualStyle
  2
Facepattern
 70
    15
 71
     2
 72
     2
 73
     0
 90
        0
 40
-0.6
 41
-30.0
 62
     5
 63
     7
 74
     1
 91
        4
 64
     7
 65
   257
 75
     1
175
     1
 42
1.0
 92
        8
 66
     7
 43
1.0
 76
     1
 77
     6
 78
     2
 67
     7
 79
     5
170
     0
171
     0
290
     0
174
     0
 93
        1
 44
0.0
173
     0
291
     1
 45
0.0
1001
ACAD
1000
AcDbSavedByObjectVersion
1070
     0
  0
VISUALSTYLE
  5
2B
102
{ACAD_REACTORS
330
2A
102
}
102
{ACAD_XDICTIONARY
360
580
102
}
330
2A
100
AcDbVisualStyle
  2
Flat
 70
     0
 71
     2
 72
     1
 73
     1
 90
        2
 40
-0.6
 41
30.0
 62
     5
 63
     7
 74
     0
 91
        4
 64
     7
 65
   257
 75
     1
175
     1
 42
1.0
 92
        8
 66
     7
 43
1.0
 76
     1
 77
     6
 78
     2
 67
     7
 79
     5
170
     0
171
     0
290
     0
174
     0
 93
       13
 44
0.0
173
     0
291
     1
 45
0.0
1001
ACAD
1000
AcDbSavedByObjectVersion
1070
     0
  0
VISUALSTYLE
  5
2C
102
{ACAD_REACTORS
330
2A
102
}
102
{ACAD_XDICTIONARY
360
582
102
}
330
2A
100
AcDbVisualStyle
  2
FlatWithEdges
 70
     1
 71
     2
 72
     1
 73
     1
 90
        2
 40
-0.6
 41
30.0
 62
     5
 63
     7
 74
     1
 91
        4
 64
     7
 65
   257
 75
     1
175
     1
 42
1.0
 92
        0
 66
   257
 43
1.0
 76
     1
 77
     6
 78
     2
 67
     7
 79
     5
170
     0
171
     0
290
     0
174
     0
 93
       13
 44
0.0
173
     0
291
     1
 45
0.0
1001
ACAD
1000
AcDbSavedByObjectVersion
1070
     0
  0
VISUALSTYLE
  5
2D
102
{ACAD_REACTORS
330
2A
102
}
102
{ACAD_XDICTIONARY
360
584
102
}
330
2A
100
AcDbVisualStyle
  2
Gouraud
 70
     2
 71
     2
 72
     2
 73
     1
 90
        2
 40
-0.6
 41
30.0
 62
     5
 63
     7
 74
     0
 91
        4
 64
     7
 65
   257
 75
     1
175
     1
 42
1.0
 92
        0
 66
     7
 43
1.0
 76
     1
 77
     6
 78
     2
 67
     7
 79
     5
170
     0
171
     0
290
     0
174
     0
 93
       13
 44
0.0
173
     0
291
     1
 45
0.0
1001
ACAD
1000
AcDbSavedByObjectVersion
1070
     0
  0
VISUALSTYLE
  5
2E
102
{ACAD_REACTORS
330
2A
102
}
102
{ACAD_XDICTIONARY
360
586
102
}
330
2A
100
AcDbVisualStyle
  2
GouraudWithEdges
 70
     3
 71
     2
 72
     2
 73
     1
 90
        2
 40
-0.6
 41
30.0
 62
     5
 63
     7
 74
     1
 91
        4
 64
     7
 65
   257
 75
     1
175
     1
 42
1.0
 92
        0
 66
   257
 43
1.0
 76
     1
 77
     6
 78
     2
 67
     7
 79
     5
170
     0
171
     0
290
     0
174
     0
 93
       13
 44
0.0
173
     0
291
     1
 45
0.0
1001
ACAD
1000
AcDbSavedByObjectVersion
1070
     0
  0
VISUALSTYLE
  5
38
102
{ACAD_REACTORS
330
2A
102
}
102
{ACAD_XDICTIONARY
360
59A
102
}
330
2A
100
AcDbVisualStyle
  2
Linepattern
 70
    14
 71
     2
 72
     2
 73
     0
 90
        0
 40
-0.6
 41
-30.0
 62
     5
 63
     7
 74
     1
 91
        4
 64
     7
 65
   257
 75
     7
175
     7
 42
1.0
 92
        8
 66
     7
 43
1.0
 76
     1
 77
     6
 78
     2
 67
     7
 79
     5
170
     0
171
     0
290
     0
174
     0
 93
        1
 44
0.0
173
     0
291
     1
 45
0.0
1001
ACAD
1000
AcDbSavedByObjectVersion
1070
     0
  0
VISUALSTYLE
  5
33
102
{ACAD_REACTORS
330
2A
102
}
102
{ACAD_XDICTIONARY
360
590
102
}
330
2A
100
AcDbVisualStyle
  2
Realistic
 70
     8
 71
     2
 72
     2
 73
     0
 90
        0
 40
-0.6
 41
-30.0
 62
     5
 63
     7
 74
     1
 91
        0
 64
     7
 65
   257
 75
     1
175
     1
 42
1.0
 92
        8
 66
     8
 43
1.0
 76
     1
 77
     6
 78
     2
 67
     7
 79
     5
170
     0
171
     0
290
     0
174
     0
 93
       13
 44
0.0
173
     0
291
     0
 45
0.0
1001
ACAD
1000
AcDbSavedByObjectVersion
1070
     0
  0
VISUALSTYLE
  5
37
102
{ACAD_REACTORS
330
2A
102
}
102
{ACAD_XDICTIONARY
360
598
102
}
330
2A
100
AcDbVisualStyle
  2
Thicken
 70
    13
 71
     2
 72
     2
 73
     0
 90
        0
 40
-0.6
 41
-30.0
 62
     5
 63
     7
 74
     1
 91
        4
 64
     7
 65
   257
 75
     1
175
     1
 42
1.0
 92
       12
 66
     7
 43
1.0
 76
     1
 77
     6
 78
     2
 67
     7
 79
     5
170
     0
171
     0
290
     0
174
     0
 93
        1
 44
0.0
173
     0
291
     1
 45
0.0
1001
ACAD
1000
AcDbSavedByObjectVersion
1070
     0
  0
DICTIONARYVAR
  5
57E
102
{ACAD_REACTORS
330
57B
102
}
330
57B
100
DictionaryVariables
280
     0
  1
2
  0
DICTIONARYVAR
  5
57F
102
{ACAD_REACTORS
330
57B
102
}
330
57B
100
DictionaryVariables
280
     0
  1
1
  0
DICTIONARY
  5
5A2
330
3D
100
AcDbDictionary
280
     1
281
     1
  3
ACAD_XREC_ROUNDTRIP
360
5A3
  0
DICTIONARY
  5
5A0
330
3C
100
AcDbDictionary
280
     1
281
     1
  3
ACAD_XREC_ROUNDTRIP
360
5A1
  0
DICTIONARY
  5
5A4
330
3E
100
AcDbDictionary
280
     1
281
     1
  3
ACAD_XREC_ROUNDTRIP
360
5A5
  0
DICTIONARY
  5
588
330
2F
100
AcDbDictionary
280
     1
281
     1
  3
ACAD_XREC_ROUNDTRIP
360
589
  0
DICTIONARY
  5
58C
330
31
100
AcDbDictionary
280
     1
281
     1
  3
ACAD_XREC_ROUNDTRIP
360
58D
  0
DICTIONARY
  5
58A
330
30
100
AcDbDictionary
280
     1
281
     1
  3
ACAD_XREC_ROUNDTRIP
360
58B
  0
DICTIONARY
  5
58E
330
32
100
AcDbDictionary
280
     1
281
     1
  3
ACAD_XREC_ROUNDTRIP
360
58F
  0
DICTIONARY
  5
596
330
36
100
AcDbDictionary
280
     1
281
     1
  3
ACAD_XREC_ROUNDTRIP
360
597
  0
DICTIONARY
  5
59E
330
3A
100
AcDbDictionary
280
     1
281
     1
  3
ACAD_XREC_ROUNDTRIP
360
59F
  0
DICTIONARY
  5
592
330
34
100
AcDbDictionary
280
     1
281
     1
  3
ACAD_XREC_ROUNDTRIP
360
593
  0
DICTIONARY
  5
594
330
35
100
AcDbDictionary
280
     1
281
     1
  3
ACAD_XREC_ROUNDTRIP
360
595
  0
DICTIONARY
  5
59C
330
39
100
AcDbDictionary
280
     1
281
     1
  3
ACAD_XREC_ROUNDTRIP
360
59D
  0
DICTIONARY
  5
580
330
2B
100
AcDbDictionary
280
     1
281
     1
  3
ACAD_XREC_ROUNDTRIP
360
581
  0
DICTIONARY
  5
582
330
2C
100
AcDbDictionary
280
     1
281
     1
  3
ACAD_XREC_ROUNDTRIP
360
583
  0
DICTIONARY
  5
584
330
2D
100
AcDbDictionary
280
     1
281
     1
  3
ACAD_XREC_ROUNDTRIP
360
585
  0
DICTIONARY
  5
586
330
2E
100
AcDbDictionary
280
     1
281
     1
  3
ACAD_XREC_ROUNDTRIP
360
587
  0
DICTIONARY
  5
59A
330
38
100
AcDbDictionary
280
     1
281
     1
  3
ACAD_XREC_ROUNDTRIP
360
59B
  0
DICTIONARY
  5
590
330
33
100
AcDbDictionary
280
     1
281
     1
  3
ACAD_XREC_ROUNDTRIP
360
591
  0
DICTIONARY
  5
598
330
37
100
AcDbDictionary
280
     1
281
     1
  3
ACAD_XREC_ROUNDTRIP
360
599
  0
XRECORD
  5
5A3
102
{ACAD_REACTORS
330
5A2
102
}
330
5A2
100
AcDbXrecord
280
     1
102
MATERIAL
148
0.0
149
0.0
149
0.0
 93
        0
 94
      127
282
     0
 72
     1
 77
     1
171
     1
175
     1
179
     1
273
     0
  0
XRECORD
  5
5A1
102
{ACAD_REACTORS
330
5A0
102
}
330
5A0
100
AcDbXrecord
280
     1
102
MATERIAL
148
0.0
149
0.0
149
0.0
 93
        0
 94
      127
282
     0
 72
     1
 77
     1
171
     1
175
     1
179
     1
273
     0
  0
XRECORD
  5
5A5
102
{ACAD_REACTORS
330
5A4
102
}
330
5A4
100
AcDbXrecord
280
     1
102
MATERIAL
148
0.0
149
0.0
149
0.0
 93
        0
 94
      127
282
     0
 72
     1
 77
     1
171
     1
175
     1
179
     1
273
     0
  0
XRECORD
  5
589
102
{ACAD_REACTORS
330
588
102
}
330
588
100
AcDbXrecord
280
     1
102
RTVSPropertyOp0
 70
     1
102
RTVSPropertyOp1
 70
     1
102
RTVSPropertyOp2
 70
     1
102
RTVSPropertyOp3
 70
     1
102
RTVSPropertyOp4
 70
     1
102
RTVSPropertyOp5
 70
     1
102
RTVSPropertyOp6
 70
     1
102
RTVSPropertyOp7
 70
     1
102
RTVSPropertyOp8
 70
     1
102
RTVSPropertyOp9
 70
     1
102
RTVSPropertyOp10
 70
     1
102
RTVSPropertyOp11
 70
     1
102
RTVSPropertyOp12
 70
     1
102
RTVSPropertyOp13
 70
     1
102
RTVSPropertyOp14
 70
     1
102
RTVSPropertyOp15
 70
     1
102
RTVSPropertyOp16
 70
     1
102
RTVSPropertyOp17
 70
     1
102
RTVSPropertyOp18
 70
     1
102
RTVSPropertyOp19
 70
     1
102
RTVSPropertyOp20
 70
     1
102
RTVSPropertyOp21
 70
     1
102
RTVSPropertyOp22
 70
     1
102
RTVSPropertyOp23
 70
     1
102
RTVSPropertyOp24
 70
     1
102
RTVSPropertyOp25
 70
     1
102
RTVSPropertyOp26
 70
     1
102
RTVSPropertyOp27
 70
     1
  0
XRECORD
  5
58D
102
{ACAD_REACTORS
330
58C
102
}
330
58C
100
AcDbXrecord
280
     1
102
RTVSPropertyOp0
 70
     1
102
RTVSPropertyOp1
 70
     1
102
RTVSPropertyOp2
 70
     1
102
RTVSPropertyOp3
 70
     1
102
RTVSPropertyOp4
 70
     1
102
RTVSPropertyOp5
 70
     1
102
RTVSPropertyOp6
 70
     1
102
RTVSPropertyOp7
 70
     1
102
RTVSPropertyOp8
 70
     1
102
RTVSPropertyOp9
 70
     1
102
RTVSPropertyOp10
 70
     1
102
RTVSPropertyOp11
 70
     1
102
RTVSPropertyOp12
 70
     1
102
RTVSPropertyOp13
 70
     1
102
RTVSPropertyOp14
 70
     1
102
RTVSPropertyOp15
 70
     1
102
RTVSPropertyOp16
 70
     1
102
RTVSPropertyOp17
 70
     1
102
RTVSPropertyOp18
 70
     1
102
RTVSPropertyOp19
 70
     1
102
RTVSPropertyOp20
 70
     1
102
RTVSPropertyOp21
 70
     1
102
RTVSPropertyOp22
 70
     1
102
RTVSPropertyOp23
 70
     1
102
RTVSPropertyOp24
 70
     1
102
RTVSPropertyOp25
 70
     1
102
RTVSPropertyOp26
 70
     1
102
RTVSPropertyOp27
 70
     1
  0
XRECORD
  5
58B
102
{ACAD_REACTORS
330
58A
102
}
330
58A
100
AcDbXrecord
280
     1
102
RTVSPropertyOp0
 70
     1
102
RTVSPropertyOp1
 70
     1
102
RTVSPropertyOp2
 70
     1
102
RTVSPropertyOp3
 70
     1
102
RTVSPropertyOp4
 70
     1
102
RTVSPropertyOp5
 70
     1
102
RTVSPropertyOp6
 70
     1
102
RTVSPropertyOp7
 70
     1
102
RTVSPropertyOp8
 70
     1
102
RTVSPropertyOp9
 70
     1
102
RTVSPropertyOp10
 70
     1
102
RTVSPropertyOp11
 70
     1
102
RTVSPropertyOp12
 70
     1
102
RTVSPropertyOp13
 70
     1
102
RTVSPropertyOp14
 70
     1
102
RTVSPropertyOp15
 70
     1
102
RTVSPropertyOp16
 70
     1
102
RTVSPropertyOp17
 70
     1
102
RTVSPropertyOp18
 70
     1
102
RTVSPropertyOp19
 70
     1
102
RTVSPropertyOp20
 70
     1
102
RTVSPropertyOp21
 70
     1
102
RTVSPropertyOp22
 70
     1
102
RTVSPropertyOp23
 70
     1
102
RTVSPropertyOp24
 70
     1
102
RTVSPropertyOp25
 70
     1
102
RTVSPropertyOp26
 70
     1
102
RTVSPropertyOp27
 70
     1
  0
XRECORD
  5
58F
102
{ACAD_REACTORS
330
58E
102
}
330
58E
100
AcDbXrecord
280
     1
102
RTVSPropertyOp0
 70
     1
102
RTVSPropertyOp1
 70
     1
102
RTVSPropertyOp2
 70
     1
102
RTVSPropertyOp3
 70
     1
102
RTVSPropertyOp4
 70
     1
102
RTVSPropertyOp5
 70
     1
102
RTVSPropertyOp6
 70
     1
102
RTVSPropertyOp7
 70
     1
102
RTVSPropertyOp8
 70
     1
102
RTVSPropertyOp9
 70
     1
102
RTVSPropertyOp10
 70
     1
102
RTVSPropertyOp11
 70
     1
102
RTVSPropertyOp12
 70
     1
102
RTVSPropertyOp13
 70
     1
102
RTVSPropertyOp14
 70
     1
102
RTVSPropertyOp15
 70
     1
102
RTVSPropertyOp16
 70
     1
102
RTVSPropertyOp17
 70
     1
102
RTVSPropertyOp18
 70
     1
102
RTVSPropertyOp19
 70
     1
102
RTVSPropertyOp20
 70
     1
102
RTVSPropertyOp21
 70
     1
102
RTVSPropertyOp22
 70
     1
102
RTVSPropertyOp23
 70
     1
102
RTVSPropertyOp24
 70
     1
102
RTVSPropertyOp25
 70
     1
102
RTVSPropertyOp26
 70
     1
102
RTVSPropertyOp27
 70
     1
  0
XRECORD
  5
597
102
{ACAD_REACTORS
330
596
102
}
330
596
100
AcDbXrecord
280
     1
102
RTVSPropertyOp0
 70
     1
102
RTVSPropertyOp1
 70
     1
102
RTVSPropertyOp2
 70
     1
102
RTVSPropertyOp3
 70
     1
102
RTVSPropertyOp4
 70
     1
102
RTVSPropertyOp5
 70
     1
102
RTVSPropertyOp6
 70
     1
102
RTVSPropertyOp7
 70
     1
102
RTVSPropertyOp8
 70
     1
102
RTVSPropertyOp9
 70
     1
102
RTVSPropertyOp10
 70
     1
102
RTVSPropertyOp11
 70
     1
102
RTVSPropertyOp12
 70
     1
102
RTVSPropertyOp13
 70
     1
102
RTVSPropertyOp14
 70
     1
102
RTVSPropertyOp15
 70
     1
102
RTVSPropertyOp16
 70
     1
102
RTVSPropertyOp17
 70
     1
102
RTVSPropertyOp18
 70
     1
102
RTVSPropertyOp19
 70
     1
102
RTVSPropertyOp20
 70
     1
102
RTVSPropertyOp21
 70
     1
102
RTVSPropertyOp22
 70
     1
102
RTVSPropertyOp23
 70
     1
102
RTVSPropertyOp24
 70
     1
102
RTVSPropertyOp25
 70
     1
102
RTVSPropertyOp26
 70
     1
102
RTVSPropertyOp27
 70
     1
  0
XRECORD
  5
59F
102
{ACAD_REACTORS
330
59E
102
}
330
59E
100
AcDbXrecord
280
     1
102
RTVSPropertyOp0
 70
     1
102
RTVSPropertyOp1
 70
     1
102
RTVSPropertyOp2
 70
     1
102
RTVSPropertyOp3
 70
     1
102
RTVSPropertyOp4
 70
     1
102
RTVSPropertyOp5
 70
     1
102
RTVSPropertyOp6
 70
     1
102
RTVSPropertyOp7
 70
     1
102
RTVSPropertyOp8
 70
     1
102
RTVSPropertyOp9
 70
     1
102
RTVSPropertyOp10
 70
     1
102
RTVSPropertyOp11
 70
     1
102
RTVSPropertyOp12
 70
     1
102
RTVSPropertyOp13
 70
     1
102
RTVSPropertyOp14
 70
     1
102
RTVSPropertyOp15
 70
     1
102
RTVSPropertyOp16
 70
     1
102
RTVSPropertyOp17
 70
     1
102
RTVSPropertyOp18
 70
     1
102
RTVSPropertyOp19
 70
     1
102
RTVSPropertyOp20
 70
     1
102
RTVSPropertyOp21
 70
     1
102
RTVSPropertyOp22
 70
     1
102
RTVSPropertyOp23
 70
     1
102
RTVSPropertyOp24
 70
     1
102
RTVSPropertyOp25
 70
     1
102
RTVSPropertyOp26
 70
     1
102
RTVSPropertyOp27
 70
     1
  0
XRECORD
  5
593
102
{ACAD_REACTORS
330
592
102
}
330
592
100
AcDbXrecord
280
     1
102
RTVSPropertyOp0
 70
     1
102
RTVSPropertyOp1
 70
     1
102
RTVSPropertyOp2
 70
     1
102
RTVSPropertyOp3
 70
     1
102
RTVSPropertyOp4
 70
     1
102
RTVSPropertyOp5
 70
     1
102
RTVSPropertyOp6
 70
     1
102
RTVSPropertyOp7
 70
     1
102
RTVSPropertyOp8
 70
     1
102
RTVSPropertyOp9
 70
     1
102
RTVSPropertyOp10
 70
     1
102
RTVSPropertyOp11
 70
     1
102
RTVSPropertyOp12
 70
     1
102
RTVSPropertyOp13
 70
     1
102
RTVSPropertyOp14
 70
     1
102
RTVSPropertyOp15
 70
     1
102
RTVSPropertyOp16
 70
     1
102
RTVSPropertyOp17
 70
     1
102
RTVSPropertyOp18
 70
     1
102
RTVSPropertyOp19
 70
     1
102
RTVSPropertyOp20
 70
     1
102
RTVSPropertyOp21
 70
     1
102
RTVSPropertyOp22
 70
     1
102
RTVSPropertyOp23
 70
     1
102
RTVSPropertyOp24
 70
     1
102
RTVSPropertyOp25
 70
     1
102
RTVSPropertyOp26
 70
     1
102
RTVSPropertyOp27
 70
     1
  0
XRECORD
  5
595
102
{ACAD_REACTORS
330
594
102
}
330
594
100
AcDbXrecord
280
     1
102
RTVSPropertyOp0
 70
     1
102
RTVSPropertyOp1
 70
     1
102
RTVSPropertyOp2
 70
     1
102
RTVSPropertyOp3
 70
     1
102
RTVSPropertyOp4
 70
     1
102
RTVSPropertyOp5
 70
     1
102
RTVSPropertyOp6
 70
     1
102
RTVSPropertyOp7
 70
     1
102
RTVSPropertyOp8
 70
     1
102
RTVSPropertyOp9
 70
     1
102
RTVSPropertyOp10
 70
     1
102
RTVSPropertyOp11
 70
     1
102
RTVSPropertyOp12
 70
     1
102
RTVSPropertyOp13
 70
     1
102
RTVSPropertyOp14
 70
     1
102
RTVSPropertyOp15
 70
     1
102
RTVSPropertyOp16
 70
     1
102
RTVSPropertyOp17
 70
     1
102
RTVSPropertyOp18
 70
     1
102
RTVSPropertyOp19
 70
     1
102
RTVSPropertyOp20
 70
     1
102
RTVSPropertyOp21
 70
     1
102
RTVSPropertyOp22
 70
     1
102
RTVSPropertyOp23
 70
     1
102
RTVSPropertyOp24
 70
     1
102
RTVSPropertyOp25
 70
     1
102
RTVSPropertyOp26
 70
     1
102
RTVSPropertyOp27
 70
     1
  0
XRECORD
  5
59D
102
{ACAD_REACTORS
330
59C
102
}
330
59C
100
AcDbXrecord
280
     1
102
RTVSPropertyOp0
 70
     1
102
RTVSPropertyOp1
 70
     1
102
RTVSPropertyOp2
 70
     1
102
RTVSPropertyOp3
 70
     1
102
RTVSPropertyOp4
 70
     1
102
RTVSPropertyOp5
 70
     1
102
RTVSPropertyOp6
 70
     1
102
RTVSPropertyOp7
 70
     1
102
RTVSPropertyOp8
 70
     1
102
RTVSPropertyOp9
 70
     1
102
RTVSPropertyOp10
 70
     1
102
RTVSPropertyOp11
 70
     1
102
RTVSPropertyOp12
 70
     1
102
RTVSPropertyOp13
 70
     1
102
RTVSPropertyOp14
 70
     1
102
RTVSPropertyOp15
 70
     1
102
RTVSPropertyOp16
 70
     1
102
RTVSPropertyOp17
 70
     1
102
RTVSPropertyOp18
 70
     1
102
RTVSPropertyOp19
 70
     1
102
RTVSPropertyOp20
 70
     1
102
RTVSPropertyOp21
 70
     1
102
RTVSPropertyOp22
 70
     1
102
RTVSPropertyOp23
 70
     1
102
RTVSPropertyOp24
 70
     1
102
RTVSPropertyOp25
 70
     1
102
RTVSPropertyOp26
 70
     1
102
RTVSPropertyOp27
 70
     1
  0
XRECORD
  5
581
102
{ACAD_REACTORS
330
580
102
}
330
580
100
AcDbXrecord
280
     1
102
RTVSPropertyOp0
 70
     1
102
RTVSPropertyOp1
 70
     1
102
RTVSPropertyOp2
 70
     1
102
RTVSPropertyOp3
 70
     1
102
RTVSPropertyOp4
 70
     1
102
RTVSPropertyOp5
 70
     1
102
RTVSPropertyOp6
 70
     1
102
RTVSPropertyOp7
 70
     1
102
RTVSPropertyOp8
 70
     1
102
RTVSPropertyOp9
 70
     1
102
RTVSPropertyOp10
 70
     1
102
RTVSPropertyOp11
 70
     1
102
RTVSPropertyOp12
 70
     1
102
RTVSPropertyOp13
 70
     1
102
RTVSPropertyOp14
 70
     1
102
RTVSPropertyOp15
 70
     1
102
RTVSPropertyOp16
 70
     1
102
RTVSPropertyOp17
 70
     1
102
RTVSPropertyOp18
 70
     1
102
RTVSPropertyOp19
 70
     1
102
RTVSPropertyOp20
 70
     1
102
RTVSPropertyOp21
 70
     1
102
RTVSPropertyOp22
 70
     1
102
RTVSPropertyOp23
 70
     1
102
RTVSPropertyOp24
 70
     1
102
RTVSPropertyOp25
 70
     1
102
RTVSPropertyOp26
 70
     1
102
RTVSPropertyOp27
 70
     1
  0
XRECORD
  5
583
102
{ACAD_REACTORS
330
582
102
}
330
582
100
AcDbXrecord
280
     1
102
RTVSPropertyOp0
 70
     1
102
RTVSPropertyOp1
 70
     1
102
RTVSPropertyOp2
 70
     1
102
RTVSPropertyOp3
 70
     1
102
RTVSPropertyOp4
 70
     1
102
RTVSPropertyOp5
 70
     1
102
RTVSPropertyOp6
 70
     1
102
RTVSPropertyOp7
 70
     1
102
RTVSPropertyOp8
 70
     1
102
RTVSPropertyOp9
 70
     1
102
RTVSPropertyOp10
 70
     1
102
RTVSPropertyOp11
 70
     1
102
RTVSPropertyOp12
 70
     1
102
RTVSPropertyOp13
 70
     1
102
RTVSPropertyOp14
 70
     1
102
RTVSPropertyOp15
 70
     1
102
RTVSPropertyOp16
 70
     1
102
RTVSPropertyOp17
 70
     1
102
RTVSPropertyOp18
 70
     1
102
RTVSPropertyOp19
 70
     1
102
RTVSPropertyOp20
 70
     1
102
RTVSPropertyOp21
 70
     1
102
RTVSPropertyOp22
 70
     1
102
RTVSPropertyOp23
 70
     1
102
RTVSPropertyOp24
 70
     1
102
RTVSPropertyOp25
 70
     1
102
RTVSPropertyOp26
 70
     1
102
RTVSPropertyOp27
 70
     1
  0
XRECORD
  5
585
102
{ACAD_REACTORS
330
584
102
}
330
584
100
AcDbXrecord
280
     1
102
RTVSPropertyOp0
 70
     1
102
RTVSPropertyOp1
 70
     1
102
RTVSPropertyOp2
 70
     1
102
RTVSPropertyOp3
 70
     1
102
RTVSPropertyOp4
 70
     1
102
RTVSPropertyOp5
 70
     1
102
RTVSPropertyOp6
 70
     1
102
RTVSPropertyOp7
 70
     1
102
RTVSPropertyOp8
 70
     1
102
RTVSPropertyOp9
 70
     1
102
RTVSPropertyOp10
 70
     1
102
RTVSPropertyOp11
 70
     1
102
RTVSPropertyOp12
 70
     1
102
RTVSPropertyOp13
 70
     1
102
RTVSPropertyOp14
 70
     1
102
RTVSPropertyOp15
 70
     1
102
RTVSPropertyOp16
 70
     1
102
RTVSPropertyOp17
 70
     1
102
RTVSPropertyOp18
 70
     1
102
RTVSPropertyOp19
 70
     1
102
RTVSPropertyOp20
 70
     1
102
RTVSPropertyOp21
 70
     1
102
RTVSPropertyOp22
 70
     1
102
RTVSPropertyOp23
 70
     1
102
RTVSPropertyOp24
 70
     1
102
RTVSPropertyOp25
 70
     1
102
RTVSPropertyOp26
 70
     1
102
RTVSPropertyOp27
 70
     1
  0
XRECORD
  5
587
102
{ACAD_REACTORS
330
586
102
}
330
586
100
AcDbXrecord
280
     1
102
RTVSPropertyOp0
 70
     1
102
RTVSPropertyOp1
 70
     1
102
RTVSPropertyOp2
 70
     1
102
RTVSPropertyOp3
 70
     1
102
RTVSPropertyOp4
 70
     1
102
RTVSPropertyOp5
 70
     1
102
RTVSPropertyOp6
 70
     1
102
RTVSPropertyOp7
 70
     1
102
RTVSPropertyOp8
 70
     1
102
RTVSPropertyOp9
 70
     1
102
RTVSPropertyOp10
 70
     1
102
RTVSPropertyOp11
 70
     1
102
RTVSPropertyOp12
 70
     1
102
RTVSPropertyOp13
 70
     1
102
RTVSPropertyOp14
 70
     1
102
RTVSPropertyOp15
 70
     1
102
RTVSPropertyOp16
 70
     1
102
RTVSPropertyOp17
 70
     1
102
RTVSPropertyOp18
 70
     1
102
RTVSPropertyOp19
 70
     1
102
RTVSPropertyOp20
 70
     1
102
RTVSPropertyOp21
 70
     1
102
RTVSPropertyOp22
 70
     1
102
RTVSPropertyOp23
 70
     1
102
RTVSPropertyOp24
 70
     1
102
RTVSPropertyOp25
 70
     1
102
RTVSPropertyOp26
 70
     1
102
RTVSPropertyOp27
 70
     1
  0
XRECORD
  5
59B
102
{ACAD_REACTORS
330
59A
102
}
330
59A
100
AcDbXrecord
280
     1
102
RTVSPropertyOp0
 70
     1
102
RTVSPropertyOp1
 70
     1
102
RTVSPropertyOp2
 70
     1
102
RTVSPropertyOp3
 70
     1
102
RTVSPropertyOp4
 70
     1
102
RTVSPropertyOp5
 70
     1
102
RTVSPropertyOp6
 70
     1
102
RTVSPropertyOp7
 70
     1
102
RTVSPropertyOp8
 70
     1
102
RTVSPropertyOp9
 70
     1
102
RTVSPropertyOp10
 70
     1
102
RTVSPropertyOp11
 70
     1
102
RTVSPropertyOp12
 70
     1
102
RTVSPropertyOp13
 70
     1
102
RTVSPropertyOp14
 70
     1
102
RTVSPropertyOp15
 70
     1
102
RTVSPropertyOp16
 70
     1
102
RTVSPropertyOp17
 70
     1
102
RTVSPropertyOp18
 70
     1
102
RTVSPropertyOp19
 70
     1
102
RTVSPropertyOp20
 70
     1
102
RTVSPropertyOp21
 70
     1
102
RTVSPropertyOp22
 70
     1
102
RTVSPropertyOp23
 70
     1
102
RTVSPropertyOp24
 70
     1
102
RTVSPropertyOp25
 70
     1
102
RTVSPropertyOp26
 70
     1
102
RTVSPropertyOp27
 70
     1
  0
XRECORD
  5
591
102
{ACAD_REACTORS
330
590
102
}
330
590
100
AcDbXrecord
280
     1
102
RTVSPropertyOp0
 70
     1
102
RTVSPropertyOp1
 70
     1
102
RTVSPropertyOp2
 70
     1
102
RTVSPropertyOp3
 70
     1
102
RTVSPropertyOp4
 70
     1
102
RTVSPropertyOp5
 70
     1
102
RTVSPropertyOp6
 70
     1
102
RTVSPropertyOp7
 70
     1
102
RTVSPropertyOp8
 70
     1
102
RTVSPropertyOp9
 70
     1
102
RTVSPropertyOp10
 70
     1
102
RTVSPropertyOp11
 70
     1
102
RTVSPropertyOp12
 70
     1
102
RTVSPropertyOp13
 70
     1
102
RTVSPropertyOp14
 70
     1
102
RTVSPropertyOp15
 70
     1
102
RTVSPropertyOp16
 70
     1
102
RTVSPropertyOp17
 70
     1
102
RTVSPropertyOp18
 70
     1
102
RTVSPropertyOp19
 70
     1
102
RTVSPropertyOp20
 70
     1
102
RTVSPropertyOp21
 70
     1
102
RTVSPropertyOp22
 70
     1
102
RTVSPropertyOp23
 70
     1
102
RTVSPropertyOp24
 70
     1
102
RTVSPropertyOp25
 70
     1
102
RTVSPropertyOp26
 70
     1
102
RTVSPropertyOp27
 70
     1
  0
XRECORD
  5
599
102
{ACAD_REACTORS
330
598
102
}
330
598
100
AcDbXrecord
280
     1
102
RTVSPropertyOp0
 70
     1
102
RTVSPropertyOp1
 70
     1
102
RTVSPropertyOp2
 70
     1
102
RTVSPropertyOp3
 70
     1
102
RTVSPropertyOp4
 70
     1
102
RTVSPropertyOp5
 70
     1
102
RTVSPropertyOp6
 70
     1
102
RTVSPropertyOp7
 70
     1
102
RTVSPropertyOp8
 70
     1
102
RTVSPropertyOp9
 70
     1
102
RTVSPropertyOp10
 70
     1
102
RTVSPropertyOp11
 70
     1
102
RTVSPropertyOp12
 70
     1
102
RTVSPropertyOp13
 70
     1
102
RTVSPropertyOp14
 70
     1
102
RTVSPropertyOp15
 70
     1
102
RTVSPropertyOp16
 70
     1
102
RTVSPropertyOp17
 70
     1
102
RTVSPropertyOp18
 70
     1
102
RTVSPropertyOp19
 70
     1
102
RTVSPropertyOp20
 70
     1
102
RTVSPropertyOp21
 70
     1
102
RTVSPropertyOp22
 70
     1
102
RTVSPropertyOp23
 70
     1
102
RTVSPropertyOp24
 70
     1
102
RTVSPropertyOp25
 70
     1
102
RTVSPropertyOp26
 70
     1
102
RTVSPropertyOp27
 70
     1
  0
ENDSEC
  0
EOF
