  0
SECTION
  2
HEADER
  9
$ACADVER
  1
AC1015
  9
$ACADMAINTVER
 70
     6
  9
$DWGCODEPAGE
  3
ANSI_932
  9
$INSBASE
 10
0.0
 20
0.0
 30
0.0
  9
$EXTMIN
 10
-129.07919025692
 20
-163.076806798159
 30
0.0
  9
$EXTMAX
 10
401.67623237903
 20
395.0
 30
0.0
  9
$LIMMIN
 10
0.0
 20
0.0
  9
$LIMMAX
 10
12.0
 20
9.0
  9
$ORTHOMODE
 70
     0
  9
$REGENMODE
 70
     1
  9
$FILLMODE
 70
     1
  9
$QTEXTMODE
 70
     0
  9
$MIRRTEXT
 70
     1
  9
$LTSCALE
 40
1.0
  9
$ATTMODE
 70
     1
  9
$TEXTSIZE
 40
0.2
  9
$TRACEWID
 40
0.05
  9
$TEXTSTYLE
  7
Standard
  9
$CLAYER
  8
0
  9
$CELTYPE
  6
ByLayer
  9
$CECOLOR
 62
   256
  9
$CELTSCALE
 40
1.0
  9
$DISPSILH
 70
     0
  9
$DIMSCALE
 40
1.0
  9
$DIMASZ
 40
0.18
  9
$DIMEXO
 40
0.0625
  9
$DIMDLI
 40
0.38
  9
$DIMRND
 40
0.0
  9
$DIMDLE
 40
0.0
  9
$DIMEXE
 40
0.18
  9
$DIMTP
 40
0.0
  9
$DIMTM
 40
0.0
  9
$DIMTXT
 40
0.18
  9
$DIMCEN
 40
0.09
  9
$DIMTSZ
 40
0.0
  9
$DIMTOL
 70
     0
  9
$DIMLIM
 70
     0
  9
$DIMTIH
 70
     1
  9
$DIMTOH
 70
     1
  9
$DIMSE1
 70
     0
  9
$DIMSE2
 70
     0
  9
$DIMTAD
 70
     0
  9
$DIMZIN
 70
     0
  9
$DIMBLK
  1

  9
$DIMASO
 70
     1
  9
$DIMSHO
 70
     1
  9
$DIMPOST
  1

  9
$DIMAPOST
  1

  9
$DIMALT
 70
     0
  9
$DIMALTD
 70
     2
  9
$DIMALTF
 40
25.4
  9
$DIMLFAC
 40
1.0
  9
$DIMTOFL
 70
     0
  9
$DIMTVP
 40
0.0
  9
$DIMTIX
 70
     0
  9
$DIMSOXD
 70
     0
  9
$DIMSAH
 70
     0
  9
$DIMBLK1
  1

  9
$DIMBLK2
  1

  9
$DIMSTYLE
  2
Standard
  9
$DIMCLRD
 70
     0
  9
$DIMCLRE
 70
     0
  9
$DIMCLRT
 70
     0
  9
$DIMTFAC
 40
1.0
  9
$DIMGAP
 40
0.09
  9
$DIMJUST
 70
     0
  9
$DIMSD1
 70
     0
  9
$DIMSD2
 70
     0
  9
$DIMTOLJ
 70
     1
  9
$DIMTZIN
 70
     0
  9
$DIMALTZ
 70
     0
  9
$DIMALTTZ
 70
     0
  9
$DIMUPT
 70
     0
  9
$DIMDEC
 70
     4
  9
$DIMTDEC
 70
     4
  9
$DIMALTU
 70
     2
  9
$DIMALTTD
 70
     2
  9
$DIMTXSTY
  7
Standard
  9
$DIMAUNIT
 70
     0
  9
$DIMADEC
 70
     0
  9
$DIMALTRND
 40
0.0
  9
$DIMAZIN
 70
     0
  9
$DIMDSEP
 70
    46
  9
$DIMATFIT
 70
     3
  9
$DIMFRAC
 70
     0
  9
$DIMLDRBLK
  1

  9
$DIMLUNIT
 70
     2
  9
$DIMLWD
 70
    -2
  9
$DIMLWE
 70
    -2
  9
$DIMTMOVE
 70
     0
  9
$LUNITS
 70
     2
  9
$LUPREC
 70
     4
  9
$SKETCHINC
 40
0.1
  9
$FILLETRAD
 40
0.5
  9
$AUNITS
 70
     0
  9
$AUPREC
 70
     0
  9
$MENU
  1
.
  9
$ELEVATION
 40
0.0
  9
$PELEVATION
 40
0.0
  9
$THICKNESS
 40
0.0
  9
$LIMCHECK
 70
     0
  9
$CHAMFERA
 40
0.5
  9
$CHAMFERB
 40
0.5
  9
$CHAMFERC
 40
1.0
  9
$CHAMFERD
 40
0.0
  9
$SKPOLY
 70
     0
  9
$TDCREATE
 40
2457624.700155324
  9
$TDUCREATE
 40
2457624.325155324
  9
$TDUPDATE
 40
2457624.700155335
  9
$TDUUPDATE
 40
2457624.325155335
  9
$TDINDWG
 40
0.0000000116
  9
$TDUSRTIMER
 40
0.0000000116
  9
$USRTIMER
 70
     1
  9
$ANGBASE
 50
0.0
  9
$ANGDIR
 70
     0
  9
$PDMODE
 70
     0
  9
$PDSIZE
 40
0.0
  9
$PLINEWID
 40
0.0
  9
$SPLFRAME
 70
     0
  9
$SPLINETYPE
 70
     6
  9
$SPLINESEGS
 70
     8
  9
$HANDSEED
  5
6B2
  9
$SURFTAB1
 70
     6
  9
$SURFTAB2
 70
     6
  9
$SURFTYPE
 70
     6
  9
$SURFU
 70
     6
  9
$SURFV
 70
     6
  9
$UCSBASE
  2

  9
$UCSNAME
  2

  9
$UCSORG
 10
0.0
 20
0.0
 30
0.0
  9
$UCSXDIR
 10
1.0
 20
0.0
 30
0.0
  9
$UCSYDIR
 10
0.0
 20
1.0
 30
0.0
  9
$UCSORTHOREF
  2

  9
$UCSORTHOVIEW
 70
     0
  9
$UCSORGTOP
 10
0.0
 20
0.0
 30
0.0
  9
$UCSORGBOTTOM
 10
0.0
 20
0.0
 30
0.0
  9
$UCSORGLEFT
 10
0.0
 20
0.0
 30
0.0
  9
$UCSORGRIGHT
 10
0.0
 20
0.0
 30
0.0
  9
$UCSORGFRONT
 10
0.0
 20
0.0
 30
0.0
  9
$UCSORGBACK
 10
0.0
 20
0.0
 30
0.0
  9
$PUCSBASE
  2

  9
$PUCSNAME
  2

  9
$PUCSORG
 10
0.0
 20
0.0
 30
0.0
  9
$PUCSXDIR
 10
1.0
 20
0.0
 30
0.0
  9
$PUCSYDIR
 10
0.0
 20
1.0
 30
0.0
  9
$PUCSORTHOREF
  2

  9
$PUCSORTHOVIEW
 70
     0
  9
$PUCSORGTOP
 10
0.0
 20
0.0
 30
0.0
  9
$PUCSORGBOTTOM
 10
0.0
 20
0.0
 30
0.0
  9
$PUCSORGLEFT
 10
0.0
 20
0.0
 30
0.0
  9
$PUCSORGRIGHT
 10
0.0
 20
0.0
 30
0.0
  9
$PUCSORGFRONT
 10
0.0
 20
0.0
 30
0.0
  9
$PUCSORGBACK
 10
0.0
 20
0.0
 30
0.0
  9
$USERI1
 70
     0
  9
$USERI2
 70
     0
  9
$USERI3
 70
     0
  9
$USERI4
 70
     0
  9
$USERI5
 70
     0
  9
$USERR1
 40
18.0
  9
$USERR2
 40
0.0
  9
$USERR3
 40
0.0
  9
$USERR4
 40
0.0
  9
$USERR5
 40
0.0
  9
$WORLDVIEW
 70
     1
  9
$SHADEDGE
 70
     3
  9
$SHADEDIF
 70
    70
  9
$TILEMODE
 70
     1
  9
$MAXACTVP
 70
    64
  9
$PINSBASE
 10
0.0
 20
0.0
 30
0.0
  9
$PLIMCHECK
 70
     0
  9
$PEXTMIN
 10
1.00000000000000E+20
 20
1.00000000000000E+20
 30
1.00000000000000E+20
  9
$PEXTMAX
 10
-1.00000000000000E+20
 20
-1.00000000000000E+20
 30
-1.00000000000000E+20
  9
$PLIMMIN
 10
0.0
 20
0.0
  9
$PLIMMAX
 10
12.0
 20
9.0
  9
$UNITMODE
 70
     0
  9
$VISRETAIN
 70
     1
  9
$PLINEGEN
 70
     0
  9
$PSLTSCALE
 70
     1
  9
$TREEDEPTH
 70
  3020
  9
$CMLSTYLE
  2
Standard
  9
$CMLJUST
 70
     0
  9
$CMLSCALE
 40
1.0
  9
$PROXYGRAPHICS
 70
     1
  9
$MEASUREMENT
 70
     1
  9
$CELWEIGHT
370
    -1
  9
$ENDCAPS
280
     0
  9
$JOINSTYLE
280
     0
  9
$LWDISPLAY
290
     0
  9
$INSUNITS
 70
     1
  9
$HYPERLINKBASE
  1

  9
$STYLESHEET
  1

  9
$XEDIT
290
     1
  9
$CEPSNTYPE
380
     0
  9
$PSTYLEMODE
290
     1
  9
$FINGERPRINTGUID
  2
{A486216B-D548-496A-BCEE-6A77A1BC44A6}
  9
$VERSIONGUID
  2
{FAEB1C32-E019-11D5-929B-00C0DF256EC4}
  9
$EXTNAMES
290
     1
  9
$PSVPSCALE
 40
0.0
  9
$OLESTARTUP
290
     0
  0
ENDSEC
  0
SECTION
  2
CLASSES
  0
CLASS
  1
ACDBDICTIONARYWDFLT
  2
AcDbDictionaryWithDefault
  3
ObjectDBX Classes
 90
        0
280
     0
281
     0
  0
CLASS
  1
VISUALSTYLE
  2
AcDbVisualStyle
  3
ObjectDBX Classes
 90
     4095
280
     0
281
     0
  0
CLASS
  1
MATERIAL
  2
AcDbMaterial
  3
ObjectDBX Classes
 90
     1153
280
     0
281
     0
  0
CLASS
  1

  2
exOdDbCircle
  3

 90
        0
280
     0
281
     1
  0
CLASS
  1

  2
exOdDbPolyline
  3

 90
        0
280
     0
281
     1
  0
CLASS
  1
DICTIONARYVAR
  2
AcDbDictionaryVar
  3
ObjectDBX Classes
 90
        0
280
     0
281
     0
  0
CLASS
  1
ACDBPLACEHOLDER
  2
AcDbPlaceHolder
  3
ObjectDBX Classes
 90
        0
280
     0
281
     0
  0
CLASS
  1
LAYOUT
  2
AcDbLayout
  3
ObjectDBX Classes
 90
        0
280
     0
281
     0
  0
ENDSEC
  0
SECTION
  2
TABLES
  0
TABLE
  2
VPORT
  5
8
330
0
100
AcDbSymbolTable
 70
     1
  0
VPORT
  5
29
330
8
100
AcDbSymbolTableRecord
100
AcDbViewportTableRecord
  2
*Active
 70
     0
 10
0.0
 20
0.0
 11
1.0
 21
1.0
 12
136.298521061055
 22
115.9615966009205
 13
0.0
 23
0.0
 14
0.5
 24
0.5
 15
0.5
 25
0.5
 16
0.0
 26
0.0
 36
1.0
 17
0.0
 27
0.0
 37
0.0
 40
613.8844874779749
 41
1.60267857142857
 42
50.0
 43
0.0
 44
0.0
 50
0.0
 51
0.0
 71
     0
 72
   100
 73
     1
 74
     3
 75
     0
 76
     0
 77
     0
 78
     0
281
     0
 65
     1
110
0.0
120
0.0
130
0.0
111
1.0
121
0.0
131
0.0
112
0.0
122
1.0
132
0.0
 79
     0
146
0.0
  0
ENDTAB
  0
TABLE
  2
LTYPE
  5
5
330
0
100
AcDbSymbolTable
 70
     9
  0
LTYPE
  5
14
330
5
100
AcDbSymbolTableRecord
100
AcDbLinetypeTableRecord
  2
ByBlock
 70
     0
  3

 72
    65
 73
     0
 40
0.0
  0
LTYPE
  5
15
330
5
100
AcDbSymbolTableRecord
100
AcDbLinetypeTableRecord
  2
ByLayer
 70
     0
  3

 72
    65
 73
     0
 40
0.0
  0
LTYPE
  5
16
330
5
100
AcDbSymbolTableRecord
100
AcDbLinetypeTableRecord
  2
Continuous
 70
     0
  3
Solid line
 72
    65
 73
     0
 40
0.0
  0
LTYPE
  5
3F
330
5
100
AcDbSymbolTableRecord
100
AcDbLinetypeTableRecord
  2
DASHED
 70
     0
  3
Dashed
 72
    65
 73
     2
 40
15.0
 49
7.0
 74
     0
 49
-8.0
 74
     0
  0
LTYPE
  5
40
330
5
100
AcDbSymbolTableRecord
100
AcDbLinetypeTableRecord
  2
DOTTED
 70
     0
  3
Dotted
 72
    65
 73
     2
 40
1.0
 49
0.0
 74
     0
 49
-1.0
 74
     0
  0
LTYPE
  5
41
330
5
100
AcDbSymbolTableRecord
100
AcDbLinetypeTableRecord
  2
DOT_CENTER
 70
     0
  3
Dot_Center
 72
    65
 73
     4
 40
14.0
 49
12.0
 74
     0
 49
-1.0
 74
     0
 49
0.0
 74
     0
 49
-1.0
 74
     0
  0
LTYPE
  5
42
330
5
100
AcDbSymbolTableRecord
100
AcDbLinetypeTableRecord
  2
LONG_DASHED
 70
     0
  3
Long_Dashed
 72
    65
 73
     2
 40
15.0
 49
10.0
 74
     0
 49
-5.0
 74
     0
  0
LTYPE
  5
43
330
5
100
AcDbSymbolTableRecord
100
AcDbLinetypeTableRecord
  2
DASH_CENTER
 70
     0
  3
Dash_Center
 72
    65
 73
     4
 40
14.0
 49
11.0
 74
     0
 49
-1.0
 74
     0
 49
1.0
 74
     0
 49
-1.0
 74
     0
  0
LTYPE
  5
44
330
5
100
AcDbSymbolTableRecord
100
AcDbLinetypeTableRecord
  2
PHANTOM
 70
     0
  3
Phantom
 72
    65
 73
     6
 40
13.0
 49
10.0
 74
     0
 49
-1.0
 74
     0
 49
0.0
 74
     0
 49
-1.0
 74
     0
 49
0.0
 74
     0
 49
-1.0
 74
     0
  0
LTYPE
  5
45
330
5
100
AcDbSymbolTableRecord
100
AcDbLinetypeTableRecord
  2
CENTER_DASH_DASH
 70
     0
  3
Center_Dash_Dash
 72
    65
 73
     6
 40
14.0
 49
9.0
 74
     0
 49
-1.0
 74
     0
 49
1.0
 74
     0
 49
-1.0
 74
     0
 49
1.0
 74
     0
 49
-1.0
 74
     0
  0
LTYPE
  5
46
330
5
100
AcDbSymbolTableRecord
100
AcDbLinetypeTableRecord
  2
CENTER
 70
     0
  3
CENTER
 72
    65
 73
     4
 40
6.0
 49
3.0
 74
     0
 49
-1.0
 74
     0
 49
1.0
 74
     0
 49
-1.0
 74
     0
  0
ENDTAB
  0
TABLE
  2
LAYER
  5
2
330
0
100
AcDbSymbolTable
 70
     4
  0
LAYER
  5
10
330
2
100
AcDbSymbolTableRecord
100
AcDbLayerTableRecord
  2
0
 70
     0
 62
     7
  6
Continuous
370
    -3
390
F
  0
LAYER
  5
47
330
2
100
AcDbSymbolTableRecord
100
AcDbLayerTableRecord
  2
1
 70
     0
 62
     7
  6
Continuous
370
    -3
390
F
  0
LAYER
  5
48
330
2
100
AcDbSymbolTableRecord
100
AcDbLayerTableRecord
  2
100
 70
     0
 62
     7
  6
Continuous
370
    -3
390
F
  0
LAYER
  5
49
330
2
100
AcDbSymbolTableRecord
100
AcDbLayerTableRecord
  2
2
 70
     0
 62
     7
  6
Continuous
370
    -3
390
F
  0
ENDTAB
  0
TABLE
  2
STYLE
  5
3
330
0
100
AcDbSymbolTable
 70
     1
  0
STYLE
  5
11
330
3
100
AcDbSymbolTableRecord
100
AcDbTextStyleTableRecord
  2
Standard
 70
     0
 40
0.0
 41
1.0
 50
0.0
 71
     0
 42
0.2
  3
txt
  4

  0
ENDTAB
  0
TABLE
  2
VIEW
  5
6
330
0
100
AcDbSymbolTable
 70
     0
  0
ENDTAB
  0
TABLE
  2
UCS
  5
7
330
0
100
AcDbSymbolTable
 70
     0
  0
ENDTAB
  0
TABLE
  2
APPID
  5
9
330
0
100
AcDbSymbolTable
 70
     1
  0
APPID
  5
12
330
9
100
AcDbSymbolTableRecord
100
AcDbRegAppTableRecord
  2
ACAD
 70
     0
  0
ENDTAB
  0
TABLE
  2
DIMSTYLE
  5
A
330
0
100
AcDbSymbolTable
 70
     1
100
AcDbDimStyleTable
  0
DIMSTYLE
105
27
330
A
100
AcDbSymbolTableRecord
100
AcDbDimStyleTableRecord
  2
Standard
 70
     0
340
11
  0
ENDTAB
  0
TABLE
  2
BLOCK_RECORD
  5
1
330
0
100
AcDbSymbolTable
 70
     1
  0
BLOCK_RECORD
  5
1F
330
1
100
AcDbSymbolTableRecord
100
AcDbBlockTableRecord
  2
*Model_Space
340
22
  0
BLOCK_RECORD
  5
1B
330
1
100
AcDbSymbolTableRecord
100
AcDbBlockTableRecord
  2
*Paper_Space
340
1E
  0
BLOCK_RECORD
  5
23
330
1
100
AcDbSymbolTableRecord
100
AcDbBlockTableRecord
  2
*Paper_Space0
340
26
  0
ENDTAB
  0
ENDSEC
  0
SECTION
  2
BLOCKS
  0
BLOCK
  5
20
330
1F
100
AcDbEntity
  8
0
100
AcDbBlockBegin
  2
*Model_Space
 70
     0
 10
0.0
 20
0.0
 30
0.0
  3
*Model_Space
  1

  0
ENDBLK
  5
21
330
1F
100
AcDbEntity
  8
0
100
AcDbBlockEnd
  0
BLOCK
  5
1C
330
1B
100
AcDbEntity
 67
     1
  8
0
100
AcDbBlockBegin
  2
*Paper_Space
 70
     0
 10
0.0
 20
0.0
 30
0.0
  3
*Paper_Space
  1

  0
ENDBLK
  5
1D
330
1B
100
AcDbEntity
 67
     1
  8
0
100
AcDbBlockEnd
  0
BLOCK
  5
24
330
23
100
AcDbEntity
  8
0
100
AcDbBlockBegin
  2
*Paper_Space0
 70
     0
 10
0.0
 20
0.0
 30
0.0
  3
*Paper_Space0
  1

  0
ENDBLK
  5
25
330
23
100
AcDbEntity
  8
0
100
AcDbBlockEnd
  0
ENDSEC
  0
SECTION
  2
ENTITIES
  0
LINE
  5
4A
330
1F
100
AcDbEntity
  8
1
  6
Continuous
 62
     4
100
AcDbLine
 10
-1.0240868754297
 20
-160.576806798159
 30
0.0
 11
-1.5240868754297
 21
-161.201806798159
 31
0.0
  0
LINE
  5
4B
330
1F
100
AcDbEntity
  8
1
  6
Continuous
 62
     4
100
AcDbLine
 10
-1.5240868754297
 20
-159.951806798159
 30
0.0
 11
-1.0240868754297
 21
-160.576806798159
 31
0.0
  0
LINE
  5
4C
330
1F
100
AcDbEntity
  8
1
  6
Continuous
 62
     4
100
AcDbLine
 10
-4.7740868754297
 20
-160.576806798159
 30
0.0
 11
-1.0240868754297
 21
-160.576806798159
 31
0.0
  0
LINE
  5
4D
330
1F
100
AcDbEntity
  8
1
  6
Continuous
 62
     4
100
AcDbLine
 10
-8.8990868754297
 20
-159.139306798159
 30
0.0
 11
-6.0240868754297
 21
-159.139306798159
 31
0.0
  0
LINE
  5
4E
330
1F
100
AcDbEntity
  8
1
  6
Continuous
 62
     4
100
AcDbLine
 10
-8.8990868754297
 20
-159.139306798159
 30
0.0
 11
-8.2115868754297
 21
-158.201806798159
 31
0.0
  0
LINE
  5
4F
330
1F
100
AcDbEntity
  8
1
  6
Continuous
 62
     4
100
AcDbLine
 10
-7.2740868754297
 20
-161.514306798159
 30
0.0
 11
-8.3365868754297
 21
-161.514306798159
 31
0.0
  0
LINE
  5
50
330
1F
100
AcDbEntity
  8
1
  6
Continuous
 62
     4
100
AcDbLine
 10
-7.2740868754297
 20
-160.264306798159
 30
0.0
 11
-7.2740868754297
 21
-161.514306798159
 31
0.0
  0
LINE
  5
51
330
1F
100
AcDbEntity
  8
1
  6
Continuous
 62
     4
100
AcDbLine
 10
-8.3365868754297
 20
-160.264306798159
 30
0.0
 11
-7.2740868754297
 21
-160.264306798159
 31
0.0
  0
LINE
  5
52
330
1F
100
AcDbEntity
  8
1
  6
Continuous
 62
     4
100
AcDbLine
 10
-8.3365868754297
 20
-161.514306798159
 30
0.0
 11
-8.3365868754297
 21
-160.264306798159
 31
0.0
  0
LINE
  5
53
330
1F
100
AcDbEntity
  8
1
  6
Continuous
 62
     4
100
AcDbLine
 10
-6.0240868754297
 20
-162.889306798159
 30
0.0
 11
-6.7115868754297
 21
-162.889306798159
 31
0.0
  0
LINE
  5
54
330
1F
100
AcDbEntity
  8
1
  6
Continuous
 62
     4
100
AcDbLine
 10
-6.0240868754297
 20
-159.139306798159
 30
0.0
 11
-6.0240868754297
 21
-162.889306798159
 31
0.0
  0
LINE
  5
55
330
1F
100
AcDbEntity
  8
1
  6
Continuous
 62
     4
100
AcDbLine
 10
-9.5865868754297
 20
-159.139306798159
 30
0.0
 11
-8.8990868754297
 21
-159.139306798159
 31
0.0
  0
LINE
  5
56
330
1F
100
AcDbEntity
  8
1
  6
Continuous
 62
     4
100
AcDbLine
 10
-9.5865868754297
 20
-162.889306798159
 30
0.0
 11
-9.5865868754297
 21
-159.139306798159
 31
0.0
  0
LINE
  5
57
330
1F
100
AcDbEntity
  8
1
  6
Continuous
 62
     4
100
AcDbLine
 10
-12.2740868754297
 20
-163.076806798159
 30
0.0
 11
-12.7740868754297
 21
-162.764306798159
 31
0.0
  0
LINE
  5
58
330
1F
100
AcDbEntity
  8
1
  6
Continuous
 62
     4
100
AcDbLine
 10
-11.9615868754297
 20
-162.576806798159
 30
0.0
 11
-12.2740868754297
 21
-163.076806798159
 31
0.0
  0
LINE
  5
59
330
1F
100
AcDbEntity
  8
1
  6
Continuous
 62
     4
100
AcDbLine
 10
-11.7115868754297
 20
-161.826806798159
 30
0.0
 11
-11.9615868754297
 21
-162.576806798159
 31
0.0
  0
LINE
  5
5A
330
1F
100
AcDbEntity
  8
1
  6
Continuous
 62
     4
100
AcDbLine
 10
-11.3990868754297
 20
-160.701806798159
 30
0.0
 11
-11.7115868754297
 21
-161.826806798159
 31
0.0
  0
LINE
  5
5B
330
1F
100
AcDbEntity
  8
1
  6
Continuous
 62
     4
100
AcDbLine
 10
-11.3990868754297
 20
-160.264306798159
 30
0.0
 11
-11.3990868754297
 21
-160.701806798159
 31
0.0
  0
LINE
  5
5C
330
1F
100
AcDbEntity
  8
1
  6
Continuous
 62
     4
100
AcDbLine
 10
-13.2115868754297
 20
-160.264306798159
 30
0.0
 11
-11.3990868754297
 21
-160.264306798159
 31
0.0
  0
LINE
  5
5D
330
1F
100
AcDbEntity
  8
1
  6
Continuous
 62
     4
100
AcDbLine
 10
-14.8990868754297
 20
-159.014306798159
 30
0.0
 11
-10.7115868754297
 21
-159.014306798159
 31
0.0
  0
LINE
  5
5E
330
1F
100
AcDbEntity
  8
1
  6
Continuous
 62
     4
100
AcDbLine
 10
-13.0865868754297
 20
-159.451806798159
 30
0.0
 11
-12.9615868754297
 21
-158.201806798159
 31
0.0
  0
LINE
  5
5F
330
1F
100
AcDbEntity
  8
1
  6
Continuous
 62
     4
100
AcDbLine
 10
-13.3365868754297
 20
-160.701806798159
 30
0.0
 11
-13.0865868754297
 21
-159.451806798159
 31
0.0
  0
LINE
  5
60
330
1F
100
AcDbEntity
  8
1
  6
Continuous
 62
     4
100
AcDbLine
 10
-13.6490868754297
 20
-161.514306798159
 30
0.0
 11
-13.3365868754297
 21
-160.701806798159
 31
0.0
  0
LINE
  5
61
330
1F
100
AcDbEntity
  8
1
  6
Continuous
 62
     4
100
AcDbLine
 10
-14.0240868754297
 20
-162.264306798159
 30
0.0
 11
-13.6490868754297
 21
-161.514306798159
 31
0.0
  0
LINE
  5
62
330
1F
100
AcDbEntity
  8
1
  6
Continuous
 62
     4
100
AcDbLine
 10
-14.5865868754297
 20
-162.889306798159
 30
0.0
 11
-14.0240868754297
 21
-162.264306798159
 31
0.0
  0
LINE
  5
63
330
1F
100
AcDbEntity
  8
1
  6
Continuous
 62
     4
100
AcDbLine
 10
-16.2740868754297
 20
-161.514306798159
 30
0.0
 11
-15.5865868754297
 21
-162.264306798159
 31
0.0
  0
LINE
  5
64
330
1F
100
AcDbEntity
  8
1
  6
Continuous
 62
     4
100
AcDbLine
 10
-16.8365868754297
 20
-160.576806798159
 30
0.0
 11
-16.2740868754297
 21
-161.514306798159
 31
0.0
  0
LINE
  5
65
330
1F
100
AcDbEntity
  8
1
  6
Continuous
 62
     4
100
AcDbLine
 10
-17.2740868754297
 20
-159.451806798159
 30
0.0
 11
-16.8365868754297
 21
-160.576806798159
 31
0.0
  0
LINE
  5
66
330
1F
100
AcDbEntity
  8
1
  6
Continuous
 62
     4
100
AcDbLine
 10
-16.0240868754297
 20
-159.326806798159
 30
0.0
 11
-16.9615868754297
 21
-160.076806798159
 31
0.0
  0
LINE
  5
67
330
1F
100
AcDbEntity
  8
1
  6
Continuous
 62
     4
100
AcDbLine
 10
-17.6490868754297
 20
-163.076806798159
 30
0.0
 11
-18.0865868754297
 21
-162.889306798159
 31
0.0
  0
LINE
  5
68
330
1F
100
AcDbEntity
  8
1
  6
Continuous
 62
     4
100
AcDbLine
 10
-17.6490868754297
 20
-158.201806798159
 30
0.0
 11
-17.6490868754297
 21
-163.076806798159
 31
0.0
  0
LINE
  5
69
330
1F
100
AcDbEntity
  8
1
  6
Continuous
 62
     4
100
AcDbLine
 10
-18.3365868754297
 20
-159.764306798159
 30
0.0
 11
-19.7740868754297
 21
-159.764306798159
 31
0.0
  0
LINE
  5
6A
330
1F
100
AcDbEntity
  8
1
  6
Continuous
 62
     4
100
AcDbLine
 10
-18.6490868754297
 20
-160.701806798159
 30
0.0
 11
-18.3365868754297
 21
-159.764306798159
 31
0.0
  0
LINE
  5
6B
330
1F
100
AcDbEntity
  8
1
  6
Continuous
 62
     4
100
AcDbLine
 10
-19.2115868754297
 20
-161.639306798159
 30
0.0
 11
-18.6490868754297
 21
-160.701806798159
 31
0.0
  0
LINE
  5
6C
330
1F
100
AcDbEntity
  8
1
  6
Continuous
 62
     4
100
AcDbLine
 10
-19.7740868754297
 20
-162.264306798159
 30
0.0
 11
-19.2115868754297
 21
-161.639306798159
 31
0.0
  0
LINE
  5
6D
330
1F
100
AcDbEntity
  8
1
  6
Continuous
 62
     4
100
AcDbLine
 10
-22.5240868754297
 20
-158.826806798159
 30
0.0
 11
-20.8365868754297
 21
-158.826806798159
 31
0.0
  0
LINE
  5
6E
330
1F
100
AcDbEntity
  8
1
  6
Continuous
 62
     4
100
AcDbLine
 10
-20.5865868754297
 20
-162.576806798159
 30
0.0
 11
-20.5865868754297
 21
-162.264306798159
 31
0.0
  0
LINE
  5
6F
330
1F
100
AcDbEntity
  8
1
  6
Continuous
 62
     4
100
AcDbLine
 10
-20.8365868754297
 20
-162.889306798159
 30
0.0
 11
-20.5865868754297
 21
-162.576806798159
 31
0.0
  0
LINE
  5
70
330
1F
100
AcDbEntity
  8
1
  6
Continuous
 62
     4
100
AcDbLine
 10
-21.3990868754297
 20
-162.889306798159
 30
0.0
 11
-20.8365868754297
 21
-162.889306798159
 31
0.0
  0
LINE
  5
71
330
1F
100
AcDbEntity
  8
1
  6
Continuous
 62
     4
100
AcDbLine
 10
-21.7115868754297
 20
-162.451806798159
 30
0.0
 11
-21.3990868754297
 21
-162.889306798159
 31
0.0
  0
LINE
  5
72
330
1F
100
AcDbEntity
  8
1
  6
Continuous
 62
     4
100
AcDbLine
 10
-21.7115868754297
 20
-160.889306798159
 30
0.0
 11
-21.7115868754297
 21
-162.451806798159
 31
0.0
  0
LINE
  5
73
330
1F
100
AcDbEntity
  8
1
  6
Continuous
 62
     4
100
AcDbLine
 10
-22.5240868754297
 20
-162.889306798159
 30
0.0
 11
-22.5240868754297
 21
-160.889306798159
 31
0.0
  0
LINE
  5
74
330
1F
100
AcDbEntity
  8
1
  6
Continuous
 62
     4
100
AcDbLine
 10
-23.7740868754297
 20
-162.764306798159
 30
0.0
 11
-24.2115868754297
 21
-163.076806798159
 31
0.0
  0
LINE
  5
75
330
1F
100
AcDbEntity
  8
1
  6
Continuous
 62
     4
100
AcDbLine
 10
-23.5240868754297
 20
-162.451806798159
 30
0.0
 11
-23.7740868754297
 21
-162.764306798159
 31
0.0
  0
LINE
  5
76
330
1F
100
AcDbEntity
  8
1
  6
Continuous
 62
     4
100
AcDbLine
 10
-23.3365868754297
 20
-161.951806798159
 30
0.0
 11
-23.5240868754297
 21
-162.451806798159
 31
0.0
  0
LINE
  5
77
330
1F
100
AcDbEntity
  8
1
  6
Continuous
 62
     4
100
AcDbLine
 10
-23.2115868754297
 20
-160.889306798159
 30
0.0
 11
-23.3365868754297
 21
-161.951806798159
 31
0.0
  0
LINE
  5
78
330
1F
100
AcDbEntity
  8
1
  6
Continuous
 62
     4
100
AcDbLine
 10
-21.8365868754297
 20
-159.326806798159
 30
0.0
 11
-21.2740868754297
 21
-160.389306798159
 31
0.0
  0
LINE
  5
79
330
1F
100
AcDbEntity
  8
1
  6
Continuous
 62
     4
100
AcDbLine
 10
-23.6490868754297
 20
-160.076806798159
 30
0.0
 11
-21.5240868754297
 21
-159.951806798159
 31
0.0
  0
LINE
  5
7A
330
1F
100
AcDbEntity
  8
1
  6
Continuous
 62
     4
100
AcDbLine
 10
-22.5240868754297
 20
-158.826806798159
 30
0.0
 11
-23.0865868754297
 21
-160.076806798159
 31
0.0
  0
LINE
  5
7B
330
1F
100
AcDbEntity
  8
1
  6
Continuous
 62
     4
100
AcDbLine
 10
-22.3990868754297
 20
-158.076806798159
 30
0.0
 11
-22.3990868754297
 21
-158.826806798159
 31
0.0
  0
LINE
  5
7C
330
1F
100
AcDbEntity
  8
1
  6
Continuous
 62
     4
100
AcDbLine
 10
-23.8990868754297
 20
-158.826806798159
 30
0.0
 11
-22.5240868754297
 21
-158.826806798159
 31
0.0
  0
LINE
  5
7D
330
1F
100
AcDbEntity
  8
1
  6
Continuous
 62
     4
100
AcDbLine
 10
-24.8990868754297
 20
-162.889306798159
 30
0.0
 11
-24.3365868754297
 21
-160.889306798159
 31
0.0
  0
LINE
  5
7E
330
1F
100
AcDbEntity
  8
1
  6
Continuous
 62
     4
100
AcDbLine
 10
-25.0240868754297
 20
-159.639306798159
 30
0.0
 11
-24.5865868754297
 21
-160.076806798159
 31
0.0
  0
LINE
  5
7F
330
1F
100
AcDbEntity
  8
1
  6
Continuous
 62
     4
100
AcDbLine
 10
-24.5865868754297
 20
-158.201806798159
 30
0.0
 11
-24.3365868754297
 21
-158.701806798159
 31
0.0
  0
LINE
  5
80
330
1F
100
AcDbEntity
  8
1
  6
Continuous
 62
     4
100
AcDbLine
 10
398.30980737903
 20
132.252693658835
 30
0.0
 11
400.48808237903
 21
134.502693658835
 31
0.0
  0
LINE
  5
81
330
1F
100
AcDbEntity
  8
1
  6
Continuous
 62
     4
100
AcDbLine
 10
397.51770737903
 20
131.002693658835
 30
0.0
 11
398.30980737903
 21
132.252693658835
 31
0.0
  0
LINE
  5
82
330
1F
100
AcDbEntity
  8
1
  6
Continuous
 62
     4
100
AcDbLine
 10
397.12165737903
 20
130.002693658835
 30
0.0
 11
397.51770737903
 21
131.002693658835
 31
0.0
  0
LINE
  5
83
330
1F
100
AcDbEntity
  8
1
  6
Continuous
 62
     4
100
AcDbLine
 10
396.92363237903
 20
128.002693658835
 30
0.0
 11
397.12165737903
 21
130.002693658835
 31
0.0
  0
LINE
  5
84
330
1F
100
AcDbEntity
  8
1
  6
Continuous
 62
     4
100
AcDbLine
 10
396.92363237903
 20
127.002693658835
 30
0.0
 11
396.92363237903
 21
128.002693658835
 31
0.0
  0
LINE
  5
85
330
1F
100
AcDbEntity
  8
1
  6
Continuous
 62
     4
100
AcDbLine
 10
397.12165737903
 20
126.002693658835
 30
0.0
 11
396.92363237903
 21
127.002693658835
 31
0.0
  0
LINE
  5
86
330
1F
100
AcDbEntity
  8
1
  6
Continuous
 62
     4
100
AcDbLine
 10
397.51770737903
 20
125.252693658835
 30
0.0
 11
397.12165737903
 21
126.002693658835
 31
0.0
  0
LINE
  5
87
330
1F
100
AcDbEntity
  8
1
  6
Continuous
 62
     4
100
AcDbLine
 10
398.11178237903
 20
124.752693658835
 30
0.0
 11
397.51770737903
 21
125.252693658835
 31
0.0
  0
LINE
  5
88
330
1F
100
AcDbEntity
  8
1
  6
Continuous
 62
     4
100
AcDbLine
 10
398.70585737903
 20
124.502693658835
 30
0.0
 11
398.11178237903
 21
124.752693658835
 31
0.0
  0
LINE
  5
89
330
1F
100
AcDbEntity
  8
1
  6
Continuous
 62
     4
100
AcDbLine
 10
399.89400737903
 20
124.502693658835
 30
0.0
 11
398.70585737903
 21
124.502693658835
 31
0.0
  0
LINE
  5
8A
330
1F
100
AcDbEntity
  8
1
  6
Continuous
 62
     4
100
AcDbLine
 10
400.48808237903
 20
124.752693658835
 30
0.0
 11
399.89400737903
 21
124.502693658835
 31
0.0
  0
LINE
  5
8B
330
1F
100
AcDbEntity
  8
1
  6
Continuous
 62
     4
100
AcDbLine
 10
401.08215737903
 20
125.252693658835
 30
0.0
 11
400.48808237903
 21
124.752693658835
 31
0.0
  0
LINE
  5
8C
330
1F
100
AcDbEntity
  8
1
  6
Continuous
 62
     4
100
AcDbLine
 10
401.47820737903
 20
126.002693658835
 30
0.0
 11
401.08215737903
 21
125.252693658835
 31
0.0
  0
LINE
  5
8D
330
1F
100
AcDbEntity
  8
1
  6
Continuous
 62
     4
100
AcDbLine
 10
401.67623237903
 20
127.002693658835
 30
0.0
 11
401.47820737903
 21
126.002693658835
 31
0.0
  0
LINE
  5
8E
330
1F
100
AcDbEntity
  8
1
  6
Continuous
 62
     4
100
AcDbLine
 10
401.67623237903
 20
128.002693658835
 30
0.0
 11
401.67623237903
 21
127.002693658835
 31
0.0
  0
LINE
  5
8F
330
1F
100
AcDbEntity
  8
1
  6
Continuous
 62
     4
100
AcDbLine
 10
401.47820737903
 20
129.002693658835
 30
0.0
 11
401.67623237903
 21
128.002693658835
 31
0.0
  0
LINE
  5
90
330
1F
100
AcDbEntity
  8
1
  6
Continuous
 62
     4
100
AcDbLine
 10
401.08215737903
 20
129.752693658835
 30
0.0
 11
401.47820737903
 21
129.002693658835
 31
0.0
  0
LINE
  5
91
330
1F
100
AcDbEntity
  8
1
  6
Continuous
 62
     4
100
AcDbLine
 10
400.48808237903
 20
130.252693658835
 30
0.0
 11
401.08215737903
 21
129.752693658835
 31
0.0
  0
LINE
  5
92
330
1F
100
AcDbEntity
  8
1
  6
Continuous
 62
     4
100
AcDbLine
 10
399.89400737903
 20
130.502693658835
 30
0.0
 11
400.48808237903
 21
130.252693658835
 31
0.0
  0
LINE
  5
93
330
1F
100
AcDbEntity
  8
1
  6
Continuous
 62
     4
100
AcDbLine
 10
398.70585737903
 20
130.502693658835
 30
0.0
 11
399.89400737903
 21
130.502693658835
 31
0.0
  0
LINE
  5
94
330
1F
100
AcDbEntity
  8
1
  6
Continuous
 62
     4
100
AcDbLine
 10
398.11178237903
 20
130.252693658835
 30
0.0
 11
398.70585737903
 21
130.502693658835
 31
0.0
  0
LINE
  5
95
330
1F
100
AcDbEntity
  8
1
  6
Continuous
 62
     4
100
AcDbLine
 10
397.51770737903
 20
129.752693658835
 30
0.0
 11
398.11178237903
 21
130.252693658835
 31
0.0
  0
LINE
  5
96
330
1F
100
AcDbEntity
  8
1
  6
Continuous
 62
     4
100
AcDbLine
 10
397.12165737903
 20
129.002693658835
 30
0.0
 11
397.51770737903
 21
129.752693658835
 31
0.0
  0
LINE
  5
97
330
1F
100
AcDbEntity
  8
1
  6
Continuous
 62
     4
100
AcDbLine
 10
396.92363237903
 20
128.002693658835
 30
0.0
 11
397.12165737903
 21
129.002693658835
 31
0.0
  0
LINE
  5
98
330
1F
100
AcDbEntity
  8
1
  6
Continuous
 62
     4
100
AcDbLine
 10
392.17103237903
 20
125.502693658835
 30
0.0
 11
390.38880737903
 21
124.502693658835
 31
0.0
  0
LINE
  5
99
330
1F
100
AcDbEntity
  8
1
  6
Continuous
 62
     4
100
AcDbLine
 10
393.55720737903
 20
127.002693658835
 30
0.0
 11
392.17103237903
 21
125.502693658835
 31
0.0
  0
LINE
  5
9A
330
1F
100
AcDbEntity
  8
1
  6
Continuous
 62
     4
100
AcDbLine
 10
394.15128237903
 20
128.002693658835
 30
0.0
 11
393.55720737903
 21
127.002693658835
 31
0.0
  0
LINE
  5
9B
330
1F
100
AcDbEntity
  8
1
  6
Continuous
 62
     4
100
AcDbLine
 10
394.34930737903
 20
129.002693658835
 30
0.0
 11
394.15128237903
 21
128.002693658835
 31
0.0
  0
LINE
  5
9C
330
1F
100
AcDbEntity
  8
1
  6
Continuous
 62
     4
100
AcDbLine
 10
394.54733237903
 20
130.252693658835
 30
0.0
 11
394.34930737903
 21
129.002693658835
 31
0.0
  0
LINE
  5
9D
330
1F
100
AcDbEntity
  8
1
  6
Continuous
 62
     4
100
AcDbLine
 10
394.54733237903
 20
132.002693658835
 30
0.0
 11
394.54733237903
 21
130.252693658835
 31
0.0
  0
LINE
  5
9E
330
1F
100
AcDbEntity
  8
1
  6
Continuous
 62
     4
100
AcDbLine
 10
394.34930737903
 20
133.002693658835
 30
0.0
 11
394.54733237903
 21
132.002693658835
 31
0.0
  0
LINE
  5
9F
330
1F
100
AcDbEntity
  8
1
  6
Continuous
 62
     4
100
AcDbLine
 10
393.95325737903
 20
133.752693658835
 30
0.0
 11
394.34930737903
 21
133.002693658835
 31
0.0
  0
LINE
  5
A0
330
1F
100
AcDbEntity
  8
1
  6
Continuous
 62
     4
100
AcDbLine
 10
393.35918237903
 20
134.252693658835
 30
0.0
 11
393.95325737903
 21
133.752693658835
 31
0.0
  0
LINE
  5
A1
330
1F
100
AcDbEntity
  8
1
  6
Continuous
 62
     4
100
AcDbLine
 10
392.76510737903
 20
134.502693658835
 30
0.0
 11
393.35918237903
 21
134.252693658835
 31
0.0
  0
LINE
  5
A2
330
1F
100
AcDbEntity
  8
1
  6
Continuous
 62
     4
100
AcDbLine
 10
391.57695737903
 20
134.502693658835
 30
0.0
 11
392.76510737903
 21
134.502693658835
 31
0.0
  0
LINE
  5
A3
330
1F
100
AcDbEntity
  8
1
  6
Continuous
 62
     4
100
AcDbLine
 10
390.98288237903
 20
134.252693658835
 30
0.0
 11
391.57695737903
 21
134.502693658835
 31
0.0
  0
LINE
  5
A4
330
1F
100
AcDbEntity
  8
1
  6
Continuous
 62
     4
100
AcDbLine
 10
390.38880737903
 20
133.752693658835
 30
0.0
 11
390.98288237903
 21
134.252693658835
 31
0.0
  0
LINE
  5
A5
330
1F
100
AcDbEntity
  8
1
  6
Continuous
 62
     4
100
AcDbLine
 10
389.99275737903
 20
133.002693658835
 30
0.0
 11
390.38880737903
 21
133.752693658835
 31
0.0
  0
LINE
  5
A6
330
1F
100
AcDbEntity
  8
1
  6
Continuous
 62
     4
100
AcDbLine
 10
389.79473237903
 20
132.002693658835
 30
0.0
 11
389.99275737903
 21
133.002693658835
 31
0.0
  0
LINE
  5
A7
330
1F
100
AcDbEntity
  8
1
  6
Continuous
 62
     4
100
AcDbLine
 10
389.79473237903
 20
131.502693658835
 30
0.0
 11
389.79473237903
 21
132.002693658835
 31
0.0
  0
LINE
  5
A8
330
1F
100
AcDbEntity
  8
1
  6
Continuous
 62
     4
100
AcDbLine
 10
389.99275737903
 20
130.502693658835
 30
0.0
 11
389.79473237903
 21
131.502693658835
 31
0.0
  0
LINE
  5
A9
330
1F
100
AcDbEntity
  8
1
  6
Continuous
 62
     4
100
AcDbLine
 10
390.38880737903
 20
129.752693658835
 30
0.0
 11
389.99275737903
 21
130.502693658835
 31
0.0
  0
LINE
  5
AA
330
1F
100
AcDbEntity
  8
1
  6
Continuous
 62
     4
100
AcDbLine
 10
390.98288237903
 20
129.252693658835
 30
0.0
 11
390.38880737903
 21
129.752693658835
 31
0.0
  0
LINE
  5
AB
330
1F
100
AcDbEntity
  8
1
  6
Continuous
 62
     4
100
AcDbLine
 10
391.57695737903
 20
129.002693658835
 30
0.0
 11
390.98288237903
 21
129.252693658835
 31
0.0
  0
LINE
  5
AC
330
1F
100
AcDbEntity
  8
1
  6
Continuous
 62
     4
100
AcDbLine
 10
394.34930737903
 20
129.002693658835
 30
0.0
 11
391.57695737903
 21
129.002693658835
 31
0.0
  0
LINE
  5
AD
330
1F
100
AcDbEntity
  8
1
  6
Continuous
 62
     4
100
AcDbLine
 10
386.23028237903
 20
128.502693658835
 30
0.0
 11
386.23028237903
 21
124.502693658835
 31
0.0
  0
LINE
  5
AE
330
1F
100
AcDbEntity
  8
1
  6
Continuous
 62
     4
100
AcDbLine
 10
382.66583237903
 20
126.502693658835
 30
0.0
 11
387.41843237903
 21
126.502693658835
 31
0.0
  0
LINE
  5
AF
330
1F
100
AcDbEntity
  8
1
  6
Continuous
 62
     4
100
AcDbLine
 10
386.23028237903
 20
134.502693658835
 30
0.0
 11
382.66583237903
 21
126.502693658835
 31
0.0
  0
LINE
  5
B0
330
1F
100
AcDbEntity
  8
1
  6
Continuous
 62
     4
100
AcDbLine
 10
380.2895323790301
 20
134.502693658835
 30
0.0
 11
380.2895323790301
 21
124.502693658835
 31
0.0
  0
LINE
  5
B1
330
1F
100
AcDbEntity
  8
1
  6
Continuous
 62
     4
100
AcDbLine
 10
377.91323237903
 20
131.502693658835
 30
0.0
 11
380.2895323790301
 21
134.502693658835
 31
0.0
  0
LINE
  5
B2
330
1F
100
AcDbEntity
  8
1
  6
Continuous
 62
     4
100
AcDbLine
 10
349.99170737903
 20
124.502693658835
 30
0.0
 11
347.02133237903
 21
124.502693658835
 31
0.0
  0
LINE
  5
B3
330
1F
100
AcDbEntity
  8
1
  6
Continuous
 62
     4
100
AcDbLine
 10
350.58578237903
 20
124.752693658835
 30
0.0
 11
349.99170737903
 21
124.502693658835
 31
0.0
  0
LINE
  5
B4
330
1F
100
AcDbEntity
  8
1
  6
Continuous
 62
     4
100
AcDbLine
 10
351.17985737903
 20
125.252693658835
 30
0.0
 11
350.58578237903
 21
124.752693658835
 31
0.0
  0
LINE
  5
B5
330
1F
100
AcDbEntity
  8
1
  6
Continuous
 62
     4
100
AcDbLine
 10
351.57590737903
 20
126.002693658835
 30
0.0
 11
351.17985737903
 21
125.252693658835
 31
0.0
  0
LINE
  5
B6
330
1F
100
AcDbEntity
  8
1
  6
Continuous
 62
     4
100
AcDbLine
 10
351.77393237903
 20
127.002693658835
 30
0.0
 11
351.57590737903
 21
126.002693658835
 31
0.0
  0
LINE
  5
B7
330
1F
100
AcDbEntity
  8
1
  6
Continuous
 62
     4
100
AcDbLine
 10
351.77393237903
 20
128.502693658835
 30
0.0
 11
351.77393237903
 21
127.002693658835
 31
0.0
  0
LINE
  5
B8
330
1F
100
AcDbEntity
  8
1
  6
Continuous
 62
     4
100
AcDbLine
 10
351.57590737903
 20
129.502693658835
 30
0.0
 11
351.77393237903
 21
128.502693658835
 31
0.0
  0
LINE
  5
B9
330
1F
100
AcDbEntity
  8
1
  6
Continuous
 62
     4
100
AcDbLine
 10
350.98183237903
 20
130.252693658835
 30
0.0
 11
351.57590737903
 21
129.502693658835
 31
0.0
  0
LINE
  5
BA
330
1F
100
AcDbEntity
  8
1
  6
Continuous
 62
     4
100
AcDbLine
 10
349.99170737903
 20
130.502693658835
 30
0.0
 11
350.98183237903
 21
130.252693658835
 31
0.0
  0
LINE
  5
BB
330
1F
100
AcDbEntity
  8
1
  6
Continuous
 62
     4
100
AcDbLine
 10
347.02133237903
 20
130.502693658835
 30
0.0
 11
349.99170737903
 21
130.502693658835
 31
0.0
  0
LINE
  5
BC
330
1F
100
AcDbEntity
  8
1
  6
Continuous
 62
     4
100
AcDbLine
 10
347.02133237903
 20
134.502693658835
 30
0.0
 11
347.02133237903
 21
130.502693658835
 31
0.0
  0
LINE
  5
BD
330
1F
100
AcDbEntity
  8
1
  6
Continuous
 62
     4
100
AcDbLine
 10
351.37788237903
 20
134.502693658835
 30
0.0
 11
347.02133237903
 21
134.502693658835
 31
0.0
  0
LINE
  5
BE
330
1F
100
AcDbEntity
  8
1
  6
Continuous
 62
     4
100
AcDbLine
 10
344.84305737903
 20
125.002693658835
 30
0.0
 11
344.84305737903
 21
124.752693658835
 31
0.0
  0
LINE
  5
BF
330
1F
100
AcDbEntity
  8
1
  6
Continuous
 62
     4
100
AcDbLine
 10
344.64503237903
 20
125.002693658835
 30
0.0
 11
344.84305737903
 21
125.002693658835
 31
0.0
  0
LINE
  5
C0
330
1F
100
AcDbEntity
  8
1
  6
Continuous
 62
     4
100
AcDbLine
 10
344.64503237903
 20
124.752693658835
 30
0.0
 11
344.64503237903
 21
125.002693658835
 31
0.0
  0
LINE
  5
C1
330
1F
100
AcDbEntity
  8
1
  6
Continuous
 62
     4
100
AcDbLine
 10
344.84305737903
 20
124.752693658835
 30
0.0
 11
344.64503237903
 21
124.752693658835
 31
0.0
  0
LINE
  5
C2
330
1F
100
AcDbEntity
  8
1
  6
Continuous
 62
     4
100
AcDbLine
 10
345.04108237903
 20
125.252693658835
 30
0.0
 11
345.04108237903
 21
124.502693658835
 31
0.0
  0
LINE
  5
C3
330
1F
100
AcDbEntity
  8
1
  6
Continuous
 62
     4
100
AcDbLine
 10
344.44700737903
 20
125.252693658835
 30
0.0
 11
345.04108237903
 21
125.252693658835
 31
0.0
  0
LINE
  5
C4
330
1F
100
AcDbEntity
  8
1
  6
Continuous
 62
     4
100
AcDbLine
 10
344.44700737903
 20
124.502693658835
 30
0.0
 11
344.44700737903
 21
125.252693658835
 31
0.0
  0
LINE
  5
C5
330
1F
100
AcDbEntity
  8
1
  6
Continuous
 62
     4
100
AcDbLine
 10
345.04108237903
 20
124.502693658835
 30
0.0
 11
344.44700737903
 21
124.502693658835
 31
0.0
  0
LINE
  5
C6
330
1F
100
AcDbEntity
  8
1
  6
Continuous
 62
     4
100
AcDbLine
 10
342.07070737903
 20
134.502693658835
 30
0.0
 11
342.07070737903
 21
124.502693658835
 31
0.0
  0
LINE
  5
C7
330
1F
100
AcDbEntity
  8
1
  6
Continuous
 62
     4
100
AcDbLine
 10
339.69440737903
 20
131.502693658835
 30
0.0
 11
342.07070737903
 21
134.502693658835
 31
0.0
  0
LINE
  5
C8
330
1F
100
AcDbEntity
  8
1
  6
Continuous
 62
     4
100
AcDbLine
 10
395.93350737903
 20
148.912693658835
 30
0.0
 11
398.1117823790301
 21
151.162693658835
 31
0.0
  0
LINE
  5
C9
330
1F
100
AcDbEntity
  8
1
  6
Continuous
 62
     4
100
AcDbLine
 10
395.14140737903
 20
147.662693658835
 30
0.0
 11
395.93350737903
 21
148.912693658835
 31
0.0
  0
LINE
  5
CA
330
1F
100
AcDbEntity
  8
1
  6
Continuous
 62
     4
100
AcDbLine
 10
394.74535737903
 20
146.662693658835
 30
0.0
 11
395.14140737903
 21
147.662693658835
 31
0.0
  0
LINE
  5
CB
330
1F
100
AcDbEntity
  8
1
  6
Continuous
 62
     4
100
AcDbLine
 10
394.54733237903
 20
144.662693658835
 30
0.0
 11
394.74535737903
 21
146.662693658835
 31
0.0
  0
LINE
  5
CC
330
1F
100
AcDbEntity
  8
1
  6
Continuous
 62
     4
100
AcDbLine
 10
394.54733237903
 20
143.662693658835
 30
0.0
 11
394.54733237903
 21
144.662693658835
 31
0.0
  0
LINE
  5
CD
330
1F
100
AcDbEntity
  8
1
  6
Continuous
 62
     4
100
AcDbLine
 10
394.74535737903
 20
142.662693658835
 30
0.0
 11
394.54733237903
 21
143.662693658835
 31
0.0
  0
LINE
  5
CE
330
1F
100
AcDbEntity
  8
1
  6
Continuous
 62
     4
100
AcDbLine
 10
395.14140737903
 20
141.912693658835
 30
0.0
 11
394.74535737903
 21
142.662693658835
 31
0.0
  0
LINE
  5
CF
330
1F
100
AcDbEntity
  8
1
  6
Continuous
 62
     4
100
AcDbLine
 10
395.73548237903
 20
141.412693658835
 30
0.0
 11
395.14140737903
 21
141.912693658835
 31
0.0
  0
LINE
  5
D0
330
1F
100
AcDbEntity
  8
1
  6
Continuous
 62
     4
100
AcDbLine
 10
396.32955737903
 20
141.162693658835
 30
0.0
 11
395.73548237903
 21
141.412693658835
 31
0.0
  0
LINE
  5
D1
330
1F
100
AcDbEntity
  8
1
  6
Continuous
 62
     4
100
AcDbLine
 10
397.51770737903
 20
141.162693658835
 30
0.0
 11
396.32955737903
 21
141.162693658835
 31
0.0
  0
LINE
  5
D2
330
1F
100
AcDbEntity
  8
1
  6
Continuous
 62
     4
100
AcDbLine
 10
398.1117823790301
 20
141.412693658835
 30
0.0
 11
397.51770737903
 21
141.162693658835
 31
0.0
  0
LINE
  5
D3
330
1F
100
AcDbEntity
  8
1
  6
Continuous
 62
     4
100
AcDbLine
 10
398.70585737903
 20
141.912693658835
 30
0.0
 11
398.1117823790301
 21
141.412693658835
 31
0.0
  0
LINE
  5
D4
330
1F
100
AcDbEntity
  8
1
  6
Continuous
 62
     4
100
AcDbLine
 10
399.10190737903
 20
142.662693658835
 30
0.0
 11
398.70585737903
 21
141.912693658835
 31
0.0
  0
LINE
  5
D5
330
1F
100
AcDbEntity
  8
1
  6
Continuous
 62
     4
100
AcDbLine
 10
399.29993237903
 20
143.662693658835
 30
0.0
 11
399.10190737903
 21
142.662693658835
 31
0.0
  0
LINE
  5
D6
330
1F
100
AcDbEntity
  8
1
  6
Continuous
 62
     4
100
AcDbLine
 10
399.29993237903
 20
144.662693658835
 30
0.0
 11
399.29993237903
 21
143.662693658835
 31
0.0
  0
LINE
  5
D7
330
1F
100
AcDbEntity
  8
1
  6
Continuous
 62
     4
100
AcDbLine
 10
399.10190737903
 20
145.662693658835
 30
0.0
 11
399.29993237903
 21
144.662693658835
 31
0.0
  0
LINE
  5
D8
330
1F
100
AcDbEntity
  8
1
  6
Continuous
 62
     4
100
AcDbLine
 10
398.70585737903
 20
146.412693658835
 30
0.0
 11
399.10190737903
 21
145.662693658835
 31
0.0
  0
LINE
  5
D9
330
1F
100
AcDbEntity
  8
1
  6
Continuous
 62
     4
100
AcDbLine
 10
398.1117823790301
 20
146.912693658835
 30
0.0
 11
398.70585737903
 21
146.412693658835
 31
0.0
  0
LINE
  5
DA
330
1F
100
AcDbEntity
  8
1
  6
Continuous
 62
     4
100
AcDbLine
 10
397.51770737903
 20
147.162693658835
 30
0.0
 11
398.1117823790301
 21
146.912693658835
 31
0.0
  0
LINE
  5
DB
330
1F
100
AcDbEntity
  8
1
  6
Continuous
 62
     4
100
AcDbLine
 10
396.32955737903
 20
147.162693658835
 30
0.0
 11
397.51770737903
 21
147.162693658835
 31
0.0
  0
LINE
  5
DC
330
1F
100
AcDbEntity
  8
1
  6
Continuous
 62
     4
100
AcDbLine
 10
395.73548237903
 20
146.912693658835
 30
0.0
 11
396.32955737903
 21
147.162693658835
 31
0.0
  0
LINE
  5
DD
330
1F
100
AcDbEntity
  8
1
  6
Continuous
 62
     4
100
AcDbLine
 10
395.14140737903
 20
146.412693658835
 30
0.0
 11
395.73548237903
 21
146.912693658835
 31
0.0
  0
LINE
  5
DE
330
1F
100
AcDbEntity
  8
1
  6
Continuous
 62
     4
100
AcDbLine
 10
394.74535737903
 20
145.662693658835
 30
0.0
 11
395.14140737903
 21
146.412693658835
 31
0.0
  0
LINE
  5
DF
330
1F
100
AcDbEntity
  8
1
  6
Continuous
 62
     4
100
AcDbLine
 10
394.54733237903
 20
144.662693658835
 30
0.0
 11
394.74535737903
 21
145.662693658835
 31
0.0
  0
LINE
  5
E0
330
1F
100
AcDbEntity
  8
1
  6
Continuous
 62
     4
100
AcDbLine
 10
389.7947323790301
 20
142.162693658835
 30
0.0
 11
388.01250737903
 21
141.162693658835
 31
0.0
  0
LINE
  5
E1
330
1F
100
AcDbEntity
  8
1
  6
Continuous
 62
     4
100
AcDbLine
 10
391.18090737903
 20
143.662693658835
 30
0.0
 11
389.7947323790301
 21
142.162693658835
 31
0.0
  0
LINE
  5
E2
330
1F
100
AcDbEntity
  8
1
  6
Continuous
 62
     4
100
AcDbLine
 10
391.7749823790301
 20
144.662693658835
 30
0.0
 11
391.18090737903
 21
143.662693658835
 31
0.0
  0
LINE
  5
E3
330
1F
100
AcDbEntity
  8
1
  6
Continuous
 62
     4
100
AcDbLine
 10
391.97300737903
 20
145.662693658835
 30
0.0
 11
391.7749823790301
 21
144.662693658835
 31
0.0
  0
LINE
  5
E4
330
1F
100
AcDbEntity
  8
1
  6
Continuous
 62
     4
100
AcDbLine
 10
392.17103237903
 20
146.912693658835
 30
0.0
 11
391.97300737903
 21
145.662693658835
 31
0.0
  0
LINE
  5
E5
330
1F
100
AcDbEntity
  8
1
  6
Continuous
 62
     4
100
AcDbLine
 10
392.17103237903
 20
148.662693658835
 30
0.0
 11
392.17103237903
 21
146.912693658835
 31
0.0
  0
LINE
  5
E6
330
1F
100
AcDbEntity
  8
1
  6
Continuous
 62
     4
100
AcDbLine
 10
391.97300737903
 20
149.662693658835
 30
0.0
 11
392.17103237903
 21
148.662693658835
 31
0.0
  0
LINE
  5
E7
330
1F
100
AcDbEntity
  8
1
  6
Continuous
 62
     4
100
AcDbLine
 10
391.57695737903
 20
150.412693658835
 30
0.0
 11
391.97300737903
 21
149.662693658835
 31
0.0
  0
LINE
  5
E8
330
1F
100
AcDbEntity
  8
1
  6
Continuous
 62
     4
100
AcDbLine
 10
390.9828823790301
 20
150.912693658835
 30
0.0
 11
391.57695737903
 21
150.412693658835
 31
0.0
  0
LINE
  5
E9
330
1F
100
AcDbEntity
  8
1
  6
Continuous
 62
     4
100
AcDbLine
 10
390.38880737903
 20
151.162693658835
 30
0.0
 11
390.9828823790301
 21
150.912693658835
 31
0.0
  0
LINE
  5
EA
330
1F
100
AcDbEntity
  8
1
  6
Continuous
 62
     4
100
AcDbLine
 10
389.20065737903
 20
151.162693658835
 30
0.0
 11
390.38880737903
 21
151.162693658835
 31
0.0
  0
LINE
  5
EB
330
1F
100
AcDbEntity
  8
1
  6
Continuous
 62
     4
100
AcDbLine
 10
388.60658237903
 20
150.912693658835
 30
0.0
 11
389.20065737903
 21
151.162693658835
 31
0.0
  0
LINE
  5
EC
330
1F
100
AcDbEntity
  8
1
  6
Continuous
 62
     4
100
AcDbLine
 10
388.01250737903
 20
150.412693658835
 30
0.0
 11
388.60658237903
 21
150.912693658835
 31
0.0
  0
LINE
  5
ED
330
1F
100
AcDbEntity
  8
1
  6
Continuous
 62
     4
100
AcDbLine
 10
387.61645737903
 20
149.662693658835
 30
0.0
 11
388.01250737903
 21
150.412693658835
 31
0.0
  0
LINE
  5
EE
330
1F
100
AcDbEntity
  8
1
  6
Continuous
 62
     4
100
AcDbLine
 10
387.41843237903
 20
148.662693658835
 30
0.0
 11
387.61645737903
 21
149.662693658835
 31
0.0
  0
LINE
  5
EF
330
1F
100
AcDbEntity
  8
1
  6
Continuous
 62
     4
100
AcDbLine
 10
387.41843237903
 20
148.162693658835
 30
0.0
 11
387.41843237903
 21
148.662693658835
 31
0.0
  0
LINE
  5
F0
330
1F
100
AcDbEntity
  8
1
  6
Continuous
 62
     4
100
AcDbLine
 10
387.61645737903
 20
147.162693658835
 30
0.0
 11
387.41843237903
 21
148.162693658835
 31
0.0
  0
LINE
  5
F1
330
1F
100
AcDbEntity
  8
1
  6
Continuous
 62
     4
100
AcDbLine
 10
388.01250737903
 20
146.412693658835
 30
0.0
 11
387.61645737903
 21
147.162693658835
 31
0.0
  0
LINE
  5
F2
330
1F
100
AcDbEntity
  8
1
  6
Continuous
 62
     4
100
AcDbLine
 10
388.60658237903
 20
145.912693658835
 30
0.0
 11
388.01250737903
 21
146.412693658835
 31
0.0
  0
LINE
  5
F3
330
1F
100
AcDbEntity
  8
1
  6
Continuous
 62
     4
100
AcDbLine
 10
389.20065737903
 20
145.662693658835
 30
0.0
 11
388.60658237903
 21
145.912693658835
 31
0.0
  0
LINE
  5
F4
330
1F
100
AcDbEntity
  8
1
  6
Continuous
 62
     4
100
AcDbLine
 10
391.97300737903
 20
145.662693658835
 30
0.0
 11
389.20065737903
 21
145.662693658835
 31
0.0
  0
LINE
  5
F5
330
1F
100
AcDbEntity
  8
1
  6
Continuous
 62
     4
100
AcDbLine
 10
385.04213237903
 20
151.162693658835
 30
0.0
 11
385.04213237903
 21
141.162693658835
 31
0.0
  0
LINE
  5
F6
330
1F
100
AcDbEntity
  8
1
  6
Continuous
 62
     4
100
AcDbLine
 10
382.66583237903
 20
148.162693658835
 30
0.0
 11
385.04213237903
 21
151.162693658835
 31
0.0
  0
LINE
  5
F7
330
1F
100
AcDbEntity
  8
1
  6
Continuous
 62
     4
100
AcDbLine
 10
380.2895323790301
 20
151.162693658835
 30
0.0
 11
380.2895323790301
 21
141.162693658835
 31
0.0
  0
LINE
  5
F8
330
1F
100
AcDbEntity
  8
1
  6
Continuous
 62
     4
100
AcDbLine
 10
377.91323237903
 20
148.162693658835
 30
0.0
 11
380.2895323790301
 21
151.162693658835
 31
0.0
  0
LINE
  5
F9
330
1F
100
AcDbEntity
  8
1
  6
Continuous
 62
     4
100
AcDbLine
 10
347.02133237903
 20
141.162693658835
 30
0.0
 11
351.77393237903
 21
141.162693658835
 31
0.0
  0
LINE
  5
FA
330
1F
100
AcDbEntity
  8
1
  6
Continuous
 62
     4
100
AcDbLine
 10
351.37788237903
 20
147.662693658835
 30
0.0
 11
347.02133237903
 21
141.162693658835
 31
0.0
  0
LINE
  5
FB
330
1F
100
AcDbEntity
  8
1
  6
Continuous
 62
     4
100
AcDbLine
 10
351.77393237903
 20
148.662693658835
 30
0.0
 11
351.37788237903
 21
147.662693658835
 31
0.0
  0
LINE
  5
FC
330
1F
100
AcDbEntity
  8
1
  6
Continuous
 62
     4
100
AcDbLine
 10
351.77393237903
 20
149.662693658835
 30
0.0
 11
351.77393237903
 21
148.662693658835
 31
0.0
  0
LINE
  5
FD
330
1F
100
AcDbEntity
  8
1
  6
Continuous
 62
     4
100
AcDbLine
 10
351.37788237903
 20
150.412693658835
 30
0.0
 11
351.77393237903
 21
149.662693658835
 31
0.0
  0
LINE
  5
FE
330
1F
100
AcDbEntity
  8
1
  6
Continuous
 62
     4
100
AcDbLine
 10
350.78380737903
 20
150.912693658835
 30
0.0
 11
351.37788237903
 21
150.412693658835
 31
0.0
  0
LINE
  5
FF
330
1F
100
AcDbEntity
  8
1
  6
Continuous
 62
     4
100
AcDbLine
 10
349.99170737903
 20
151.162693658835
 30
0.0
 11
350.78380737903
 21
150.912693658835
 31
0.0
  0
LINE
  5
100
330
1F
100
AcDbEntity
  8
1
  6
Continuous
 62
     4
100
AcDbLine
 10
348.80355737903
 20
151.162693658835
 30
0.0
 11
349.99170737903
 21
151.162693658835
 31
0.0
  0
LINE
  5
101
330
1F
100
AcDbEntity
  8
1
  6
Continuous
 62
     4
100
AcDbLine
 10
348.01145737903
 20
150.912693658835
 30
0.0
 11
348.80355737903
 21
151.162693658835
 31
0.0
  0
LINE
  5
102
330
1F
100
AcDbEntity
  8
1
  6
Continuous
 62
     4
100
AcDbLine
 10
347.41738237903
 20
150.412693658835
 30
0.0
 11
348.01145737903
 21
150.912693658835
 31
0.0
  0
LINE
  5
103
330
1F
100
AcDbEntity
  8
1
  6
Continuous
 62
     4
100
AcDbLine
 10
347.02133237903
 20
149.662693658835
 30
0.0
 11
347.41738237903
 21
150.412693658835
 31
0.0
  0
LINE
  5
104
330
1F
100
AcDbEntity
  8
1
  6
Continuous
 62
     4
100
AcDbLine
 10
344.84305737903
 20
141.662693658835
 30
0.0
 11
344.84305737903
 21
141.412693658835
 31
0.0
  0
LINE
  5
105
330
1F
100
AcDbEntity
  8
1
  6
Continuous
 62
     4
100
AcDbLine
 10
344.64503237903
 20
141.662693658835
 30
0.0
 11
344.84305737903
 21
141.662693658835
 31
0.0
  0
LINE
  5
106
330
1F
100
AcDbEntity
  8
1
  6
Continuous
 62
     4
100
AcDbLine
 10
344.64503237903
 20
141.412693658835
 30
0.0
 11
344.64503237903
 21
141.662693658835
 31
0.0
  0
LINE
  5
107
330
1F
100
AcDbEntity
  8
1
  6
Continuous
 62
     4
100
AcDbLine
 10
344.84305737903
 20
141.412693658835
 30
0.0
 11
344.64503237903
 21
141.412693658835
 31
0.0
  0
LINE
  5
108
330
1F
100
AcDbEntity
  8
1
  6
Continuous
 62
     4
100
AcDbLine
 10
345.04108237903
 20
141.912693658835
 30
0.0
 11
345.04108237903
 21
141.162693658835
 31
0.0
  0
LINE
  5
109
330
1F
100
AcDbEntity
  8
1
  6
Continuous
 62
     4
100
AcDbLine
 10
344.44700737903
 20
141.912693658835
 30
0.0
 11
345.04108237903
 21
141.912693658835
 31
0.0
  0
LINE
  5
10A
330
1F
100
AcDbEntity
  8
1
  6
Continuous
 62
     4
100
AcDbLine
 10
344.44700737903
 20
141.162693658835
 30
0.0
 11
344.44700737903
 21
141.912693658835
 31
0.0
  0
LINE
  5
10B
330
1F
100
AcDbEntity
  8
1
  6
Continuous
 62
     4
100
AcDbLine
 10
345.04108237903
 20
141.162693658835
 30
0.0
 11
344.44700737903
 21
141.162693658835
 31
0.0
  0
LINE
  5
10C
330
1F
100
AcDbEntity
  8
1
  6
Continuous
 62
     4
100
AcDbLine
 10
342.07070737903
 20
151.162693658835
 30
0.0
 11
342.07070737903
 21
141.162693658835
 31
0.0
  0
LINE
  5
10D
330
1F
100
AcDbEntity
  8
1
  6
Continuous
 62
     4
100
AcDbLine
 10
339.69440737903
 20
148.162693658835
 30
0.0
 11
342.07070737903
 21
151.162693658835
 31
0.0
  0
LINE
  5
10E
330
1F
100
AcDbEntity
  8
1
  6
Continuous
 62
     4
100
AcDbLine
 10
393.55720737903
 20
165.572693658835
 30
0.0
 11
395.73548237903
 21
167.822693658835
 31
0.0
  0
LINE
  5
10F
330
1F
100
AcDbEntity
  8
1
  6
Continuous
 62
     4
100
AcDbLine
 10
392.76510737903
 20
164.322693658835
 30
0.0
 11
393.55720737903
 21
165.572693658835
 31
0.0
  0
LINE
  5
110
330
1F
100
AcDbEntity
  8
1
  6
Continuous
 62
     4
100
AcDbLine
 10
392.36905737903
 20
163.322693658835
 30
0.0
 11
392.76510737903
 21
164.322693658835
 31
0.0
  0
LINE
  5
111
330
1F
100
AcDbEntity
  8
1
  6
Continuous
 62
     4
100
AcDbLine
 10
392.17103237903
 20
161.322693658835
 30
0.0
 11
392.36905737903
 21
163.322693658835
 31
0.0
  0
LINE
  5
112
330
1F
100
AcDbEntity
  8
1
  6
Continuous
 62
     4
100
AcDbLine
 10
392.17103237903
 20
160.322693658835
 30
0.0
 11
392.17103237903
 21
161.322693658835
 31
0.0
  0
LINE
  5
113
330
1F
100
AcDbEntity
  8
1
  6
Continuous
 62
     4
100
AcDbLine
 10
392.36905737903
 20
159.322693658835
 30
0.0
 11
392.17103237903
 21
160.322693658835
 31
0.0
  0
LINE
  5
114
330
1F
100
AcDbEntity
  8
1
  6
Continuous
 62
     4
100
AcDbLine
 10
392.76510737903
 20
158.572693658835
 30
0.0
 11
392.36905737903
 21
159.322693658835
 31
0.0
  0
LINE
  5
115
330
1F
100
AcDbEntity
  8
1
  6
Continuous
 62
     4
100
AcDbLine
 10
393.35918237903
 20
158.072693658835
 30
0.0
 11
392.76510737903
 21
158.572693658835
 31
0.0
  0
LINE
  5
116
330
1F
100
AcDbEntity
  8
1
  6
Continuous
 62
     4
100
AcDbLine
 10
393.95325737903
 20
157.822693658835
 30
0.0
 11
393.35918237903
 21
158.072693658835
 31
0.0
  0
LINE
  5
117
330
1F
100
AcDbEntity
  8
1
  6
Continuous
 62
     4
100
AcDbLine
 10
395.14140737903
 20
157.822693658835
 30
0.0
 11
393.95325737903
 21
157.822693658835
 31
0.0
  0
LINE
  5
118
330
1F
100
AcDbEntity
  8
1
  6
Continuous
 62
     4
100
AcDbLine
 10
395.73548237903
 20
158.072693658835
 30
0.0
 11
395.14140737903
 21
157.822693658835
 31
0.0
  0
LINE
  5
119
330
1F
100
AcDbEntity
  8
1
  6
Continuous
 62
     4
100
AcDbLine
 10
396.32955737903
 20
158.572693658835
 30
0.0
 11
395.73548237903
 21
158.072693658835
 31
0.0
  0
LINE
  5
11A
330
1F
100
AcDbEntity
  8
1
  6
Continuous
 62
     4
100
AcDbLine
 10
396.72560737903
 20
159.322693658835
 30
0.0
 11
396.32955737903
 21
158.572693658835
 31
0.0
  0
LINE
  5
11B
330
1F
100
AcDbEntity
  8
1
  6
Continuous
 62
     4
100
AcDbLine
 10
396.92363237903
 20
160.322693658835
 30
0.0
 11
396.72560737903
 21
159.322693658835
 31
0.0
  0
LINE
  5
11C
330
1F
100
AcDbEntity
  8
1
  6
Continuous
 62
     4
100
AcDbLine
 10
396.92363237903
 20
161.322693658835
 30
0.0
 11
396.92363237903
 21
160.322693658835
 31
0.0
  0
LINE
  5
11D
330
1F
100
AcDbEntity
  8
1
  6
Continuous
 62
     4
100
AcDbLine
 10
396.72560737903
 20
162.322693658835
 30
0.0
 11
396.92363237903
 21
161.322693658835
 31
0.0
  0
LINE
  5
11E
330
1F
100
AcDbEntity
  8
1
  6
Continuous
 62
     4
100
AcDbLine
 10
396.32955737903
 20
163.072693658835
 30
0.0
 11
396.72560737903
 21
162.322693658835
 31
0.0
  0
LINE
  5
11F
330
1F
100
AcDbEntity
  8
1
  6
Continuous
 62
     4
100
AcDbLine
 10
395.73548237903
 20
163.572693658835
 30
0.0
 11
396.32955737903
 21
163.072693658835
 31
0.0
  0
LINE
  5
120
330
1F
100
AcDbEntity
  8
1
  6
Continuous
 62
     4
100
AcDbLine
 10
395.14140737903
 20
163.822693658835
 30
0.0
 11
395.73548237903
 21
163.572693658835
 31
0.0
  0
LINE
  5
121
330
1F
100
AcDbEntity
  8
1
  6
Continuous
 62
     4
100
AcDbLine
 10
393.95325737903
 20
163.822693658835
 30
0.0
 11
395.14140737903
 21
163.822693658835
 31
0.0
  0
LINE
  5
122
330
1F
100
AcDbEntity
  8
1
  6
Continuous
 62
     4
100
AcDbLine
 10
393.35918237903
 20
163.572693658835
 30
0.0
 11
393.95325737903
 21
163.822693658835
 31
0.0
  0
LINE
  5
123
330
1F
100
AcDbEntity
  8
1
  6
Continuous
 62
     4
100
AcDbLine
 10
392.76510737903
 20
163.072693658835
 30
0.0
 11
393.35918237903
 21
163.572693658835
 31
0.0
  0
LINE
  5
124
330
1F
100
AcDbEntity
  8
1
  6
Continuous
 62
     4
100
AcDbLine
 10
392.36905737903
 20
162.322693658835
 30
0.0
 11
392.76510737903
 21
163.072693658835
 31
0.0
  0
LINE
  5
125
330
1F
100
AcDbEntity
  8
1
  6
Continuous
 62
     4
100
AcDbLine
 10
392.17103237903
 20
161.322693658835
 30
0.0
 11
392.36905737903
 21
162.322693658835
 31
0.0
  0
LINE
  5
126
330
1F
100
AcDbEntity
  8
1
  6
Continuous
 62
     4
100
AcDbLine
 10
387.41843237903
 20
158.822693658835
 30
0.0
 11
385.63620737903
 21
157.822693658835
 31
0.0
  0
LINE
  5
127
330
1F
100
AcDbEntity
  8
1
  6
Continuous
 62
     4
100
AcDbLine
 10
388.80460737903
 20
160.322693658835
 30
0.0
 11
387.41843237903
 21
158.822693658835
 31
0.0
  0
LINE
  5
128
330
1F
100
AcDbEntity
  8
1
  6
Continuous
 62
     4
100
AcDbLine
 10
389.3986823790301
 20
161.322693658835
 30
0.0
 11
388.80460737903
 21
160.322693658835
 31
0.0
  0
LINE
  5
129
330
1F
100
AcDbEntity
  8
1
  6
Continuous
 62
     4
100
AcDbLine
 10
389.59670737903
 20
162.322693658835
 30
0.0
 11
389.3986823790301
 21
161.322693658835
 31
0.0
  0
LINE
  5
12A
330
1F
100
AcDbEntity
  8
1
  6
Continuous
 62
     4
100
AcDbLine
 10
389.79473237903
 20
163.572693658835
 30
0.0
 11
389.59670737903
 21
162.322693658835
 31
0.0
  0
LINE
  5
12B
330
1F
100
AcDbEntity
  8
1
  6
Continuous
 62
     4
100
AcDbLine
 10
389.79473237903
 20
165.322693658835
 30
0.0
 11
389.79473237903
 21
163.572693658835
 31
0.0
  0
LINE
  5
12C
330
1F
100
AcDbEntity
  8
1
  6
Continuous
 62
     4
100
AcDbLine
 10
389.59670737903
 20
166.322693658835
 30
0.0
 11
389.79473237903
 21
165.322693658835
 31
0.0
  0
LINE
  5
12D
330
1F
100
AcDbEntity
  8
1
  6
Continuous
 62
     4
100
AcDbLine
 10
389.20065737903
 20
167.072693658835
 30
0.0
 11
389.59670737903
 21
166.322693658835
 31
0.0
  0
LINE
  5
12E
330
1F
100
AcDbEntity
  8
1
  6
Continuous
 62
     4
100
AcDbLine
 10
388.60658237903
 20
167.572693658835
 30
0.0
 11
389.20065737903
 21
167.072693658835
 31
0.0
  0
LINE
  5
12F
330
1F
100
AcDbEntity
  8
1
  6
Continuous
 62
     4
100
AcDbLine
 10
388.01250737903
 20
167.822693658835
 30
0.0
 11
388.60658237903
 21
167.572693658835
 31
0.0
  0
LINE
  5
130
330
1F
100
AcDbEntity
  8
1
  6
Continuous
 62
     4
100
AcDbLine
 10
386.82435737903
 20
167.822693658835
 30
0.0
 11
388.01250737903
 21
167.822693658835
 31
0.0
  0
LINE
  5
131
330
1F
100
AcDbEntity
  8
1
  6
Continuous
 62
     4
100
AcDbLine
 10
386.23028237903
 20
167.572693658835
 30
0.0
 11
386.82435737903
 21
167.822693658835
 31
0.0
  0
LINE
  5
132
330
1F
100
AcDbEntity
  8
1
  6
Continuous
 62
     4
100
AcDbLine
 10
385.63620737903
 20
167.072693658835
 30
0.0
 11
386.23028237903
 21
167.572693658835
 31
0.0
  0
LINE
  5
133
330
1F
100
AcDbEntity
  8
1
  6
Continuous
 62
     4
100
AcDbLine
 10
385.24015737903
 20
166.322693658835
 30
0.0
 11
385.63620737903
 21
167.072693658835
 31
0.0
  0
LINE
  5
134
330
1F
100
AcDbEntity
  8
1
  6
Continuous
 62
     4
100
AcDbLine
 10
385.04213237903
 20
165.322693658835
 30
0.0
 11
385.24015737903
 21
166.322693658835
 31
0.0
  0
LINE
  5
135
330
1F
100
AcDbEntity
  8
1
  6
Continuous
 62
     4
100
AcDbLine
 10
385.04213237903
 20
164.822693658835
 30
0.0
 11
385.04213237903
 21
165.322693658835
 31
0.0
  0
LINE
  5
136
330
1F
100
AcDbEntity
  8
1
  6
Continuous
 62
     4
100
AcDbLine
 10
385.24015737903
 20
163.822693658835
 30
0.0
 11
385.04213237903
 21
164.822693658835
 31
0.0
  0
LINE
  5
137
330
1F
100
AcDbEntity
  8
1
  6
Continuous
 62
     4
100
AcDbLine
 10
385.63620737903
 20
163.072693658835
 30
0.0
 11
385.24015737903
 21
163.822693658835
 31
0.0
  0
LINE
  5
138
330
1F
100
AcDbEntity
  8
1
  6
Continuous
 62
     4
100
AcDbLine
 10
386.23028237903
 20
162.572693658835
 30
0.0
 11
385.63620737903
 21
163.072693658835
 31
0.0
  0
LINE
  5
139
330
1F
100
AcDbEntity
  8
1
  6
Continuous
 62
     4
100
AcDbLine
 10
386.82435737903
 20
162.322693658835
 30
0.0
 11
386.23028237903
 21
162.572693658835
 31
0.0
  0
LINE
  5
13A
330
1F
100
AcDbEntity
  8
1
  6
Continuous
 62
     4
100
AcDbLine
 10
389.59670737903
 20
162.322693658835
 30
0.0
 11
386.82435737903
 21
162.322693658835
 31
0.0
  0
LINE
  5
13B
330
1F
100
AcDbEntity
  8
1
  6
Continuous
 62
     4
100
AcDbLine
 10
380.2895323790301
 20
158.822693658835
 30
0.0
 11
378.50730737903
 21
157.822693658835
 31
0.0
  0
LINE
  5
13C
330
1F
100
AcDbEntity
  8
1
  6
Continuous
 62
     4
100
AcDbLine
 10
381.67570737903
 20
160.322693658835
 30
0.0
 11
380.2895323790301
 21
158.822693658835
 31
0.0
  0
LINE
  5
13D
330
1F
100
AcDbEntity
  8
1
  6
Continuous
 62
     4
100
AcDbLine
 10
382.2697823790301
 20
161.322693658835
 30
0.0
 11
381.67570737903
 21
160.322693658835
 31
0.0
  0
LINE
  5
13E
330
1F
100
AcDbEntity
  8
1
  6
Continuous
 62
     4
100
AcDbLine
 10
382.46780737903
 20
162.322693658835
 30
0.0
 11
382.2697823790301
 21
161.322693658835
 31
0.0
  0
LINE
  5
13F
330
1F
100
AcDbEntity
  8
1
  6
Continuous
 62
     4
100
AcDbLine
 10
382.66583237903
 20
163.572693658835
 30
0.0
 11
382.46780737903
 21
162.322693658835
 31
0.0
  0
LINE
  5
140
330
1F
100
AcDbEntity
  8
1
  6
Continuous
 62
     4
100
AcDbLine
 10
382.66583237903
 20
165.322693658835
 30
0.0
 11
382.66583237903
 21
163.572693658835
 31
0.0
  0
LINE
  5
141
330
1F
100
AcDbEntity
  8
1
  6
Continuous
 62
     4
100
AcDbLine
 10
382.46780737903
 20
166.322693658835
 30
0.0
 11
382.66583237903
 21
165.322693658835
 31
0.0
  0
LINE
  5
142
330
1F
100
AcDbEntity
  8
1
  6
Continuous
 62
     4
100
AcDbLine
 10
382.07175737903
 20
167.072693658835
 30
0.0
 11
382.46780737903
 21
166.322693658835
 31
0.0
  0
LINE
  5
143
330
1F
100
AcDbEntity
  8
1
  6
Continuous
 62
     4
100
AcDbLine
 10
381.4776823790301
 20
167.572693658835
 30
0.0
 11
382.07175737903
 21
167.072693658835
 31
0.0
  0
LINE
  5
144
330
1F
100
AcDbEntity
  8
1
  6
Continuous
 62
     4
100
AcDbLine
 10
380.88360737903
 20
167.822693658835
 30
0.0
 11
381.4776823790301
 21
167.572693658835
 31
0.0
  0
LINE
  5
145
330
1F
100
AcDbEntity
  8
1
  6
Continuous
 62
     4
100
AcDbLine
 10
379.69545737903
 20
167.822693658835
 30
0.0
 11
380.88360737903
 21
167.822693658835
 31
0.0
  0
LINE
  5
146
330
1F
100
AcDbEntity
  8
1
  6
Continuous
 62
     4
100
AcDbLine
 10
379.10138237903
 20
167.572693658835
 30
0.0
 11
379.69545737903
 21
167.822693658835
 31
0.0
  0
LINE
  5
147
330
1F
100
AcDbEntity
  8
1
  6
Continuous
 62
     4
100
AcDbLine
 10
378.50730737903
 20
167.072693658835
 30
0.0
 11
379.10138237903
 21
167.572693658835
 31
0.0
  0
LINE
  5
148
330
1F
100
AcDbEntity
  8
1
  6
Continuous
 62
     4
100
AcDbLine
 10
378.11125737903
 20
166.322693658835
 30
0.0
 11
378.50730737903
 21
167.072693658835
 31
0.0
  0
LINE
  5
149
330
1F
100
AcDbEntity
  8
1
  6
Continuous
 62
     4
100
AcDbLine
 10
377.91323237903
 20
165.322693658835
 30
0.0
 11
378.11125737903
 21
166.322693658835
 31
0.0
  0
LINE
  5
14A
330
1F
100
AcDbEntity
  8
1
  6
Continuous
 62
     4
100
AcDbLine
 10
377.91323237903
 20
164.822693658835
 30
0.0
 11
377.91323237903
 21
165.322693658835
 31
0.0
  0
LINE
  5
14B
330
1F
100
AcDbEntity
  8
1
  6
Continuous
 62
     4
100
AcDbLine
 10
378.11125737903
 20
163.822693658835
 30
0.0
 11
377.91323237903
 21
164.822693658835
 31
0.0
  0
LINE
  5
14C
330
1F
100
AcDbEntity
  8
1
  6
Continuous
 62
     4
100
AcDbLine
 10
378.50730737903
 20
163.072693658835
 30
0.0
 11
378.11125737903
 21
163.822693658835
 31
0.0
  0
LINE
  5
14D
330
1F
100
AcDbEntity
  8
1
  6
Continuous
 62
     4
100
AcDbLine
 10
379.10138237903
 20
162.572693658835
 30
0.0
 11
378.50730737903
 21
163.072693658835
 31
0.0
  0
LINE
  5
14E
330
1F
100
AcDbEntity
  8
1
  6
Continuous
 62
     4
100
AcDbLine
 10
379.69545737903
 20
162.322693658835
 30
0.0
 11
379.10138237903
 21
162.572693658835
 31
0.0
  0
LINE
  5
14F
330
1F
100
AcDbEntity
  8
1
  6
Continuous
 62
     4
100
AcDbLine
 10
382.46780737903
 20
162.322693658835
 30
0.0
 11
379.69545737903
 21
162.322693658835
 31
0.0
  0
LINE
  5
150
330
1F
100
AcDbEntity
  8
1
  6
Continuous
 62
     4
100
AcDbLine
 10
351.77393237903
 20
164.072693658835
 30
0.0
 11
351.77393237903
 21
161.572693658835
 31
0.0
  0
LINE
  5
151
330
1F
100
AcDbEntity
  8
1
  6
Continuous
 62
     4
100
AcDbLine
 10
351.57590737903
 20
165.572693658835
 30
0.0
 11
351.77393237903
 21
164.072693658835
 31
0.0
  0
LINE
  5
152
330
1F
100
AcDbEntity
  8
1
  6
Continuous
 62
     4
100
AcDbLine
 10
351.17985737903
 20
166.572693658835
 30
0.0
 11
351.57590737903
 21
165.572693658835
 31
0.0
  0
LINE
  5
153
330
1F
100
AcDbEntity
  8
1
  6
Continuous
 62
     4
100
AcDbLine
 10
350.78380737903
 20
167.072693658835
 30
0.0
 11
351.17985737903
 21
166.572693658835
 31
0.0
  0
LINE
  5
154
330
1F
100
AcDbEntity
  8
1
  6
Continuous
 62
     4
100
AcDbLine
 10
350.18973237903
 20
167.572693658835
 30
0.0
 11
350.78380737903
 21
167.072693658835
 31
0.0
  0
LINE
  5
155
330
1F
100
AcDbEntity
  8
1
  6
Continuous
 62
     4
100
AcDbLine
 10
349.59565737903
 20
167.822693658835
 30
0.0
 11
350.18973237903
 21
167.572693658835
 31
0.0
  0
LINE
  5
156
330
1F
100
AcDbEntity
  8
1
  6
Continuous
 62
     4
100
AcDbLine
 10
349.19960737903
 20
167.822693658835
 30
0.0
 11
349.59565737903
 21
167.822693658835
 31
0.0
  0
LINE
  5
157
330
1F
100
AcDbEntity
  8
1
  6
Continuous
 62
     4
100
AcDbLine
 10
348.60553237903
 20
167.572693658835
 30
0.0
 11
349.19960737903
 21
167.822693658835
 31
0.0
  0
LINE
  5
158
330
1F
100
AcDbEntity
  8
1
  6
Continuous
 62
     4
100
AcDbLine
 10
348.01145737903
 20
167.072693658835
 30
0.0
 11
348.60553237903
 21
167.572693658835
 31
0.0
  0
LINE
  5
159
330
1F
100
AcDbEntity
  8
1
  6
Continuous
 62
     4
100
AcDbLine
 10
347.61540737903
 20
166.572693658835
 30
0.0
 11
348.01145737903
 21
167.072693658835
 31
0.0
  0
LINE
  5
15A
330
1F
100
AcDbEntity
  8
1
  6
Continuous
 62
     4
100
AcDbLine
 10
347.21935737903
 20
165.572693658835
 30
0.0
 11
347.61540737903
 21
166.572693658835
 31
0.0
  0
LINE
  5
15B
330
1F
100
AcDbEntity
  8
1
  6
Continuous
 62
     4
100
AcDbLine
 10
347.02133237903
 20
164.072693658835
 30
0.0
 11
347.21935737903
 21
165.572693658835
 31
0.0
  0
LINE
  5
15C
330
1F
100
AcDbEntity
  8
1
  6
Continuous
 62
     4
100
AcDbLine
 10
347.02133237903
 20
161.572693658835
 30
0.0
 11
347.02133237903
 21
164.072693658835
 31
0.0
  0
LINE
  5
15D
330
1F
100
AcDbEntity
  8
1
  6
Continuous
 62
     4
100
AcDbLine
 10
347.21935737903
 20
160.072693658835
 30
0.0
 11
347.02133237903
 21
161.572693658835
 31
0.0
  0
LINE
  5
15E
330
1F
100
AcDbEntity
  8
1
  6
Continuous
 62
     4
100
AcDbLine
 10
347.61540737903
 20
159.072693658835
 30
0.0
 11
347.21935737903
 21
160.072693658835
 31
0.0
  0
LINE
  5
15F
330
1F
100
AcDbEntity
  8
1
  6
Continuous
 62
     4
100
AcDbLine
 10
348.01145737903
 20
158.572693658835
 30
0.0
 11
347.61540737903
 21
159.072693658835
 31
0.0
  0
LINE
  5
160
330
1F
100
AcDbEntity
  8
1
  6
Continuous
 62
     4
100
AcDbLine
 10
348.60553237903
 20
158.072693658835
 30
0.0
 11
348.01145737903
 21
158.572693658835
 31
0.0
  0
LINE
  5
161
330
1F
100
AcDbEntity
  8
1
  6
Continuous
 62
     4
100
AcDbLine
 10
349.19960737903
 20
157.822693658835
 30
0.0
 11
348.60553237903
 21
158.072693658835
 31
0.0
  0
LINE
  5
162
330
1F
100
AcDbEntity
  8
1
  6
Continuous
 62
     4
100
AcDbLine
 10
349.59565737903
 20
157.822693658835
 30
0.0
 11
349.19960737903
 21
157.822693658835
 31
0.0
  0
LINE
  5
163
330
1F
100
AcDbEntity
  8
1
  6
Continuous
 62
     4
100
AcDbLine
 10
350.18973237903
 20
158.072693658835
 30
0.0
 11
349.59565737903
 21
157.822693658835
 31
0.0
  0
LINE
  5
164
330
1F
100
AcDbEntity
  8
1
  6
Continuous
 62
     4
100
AcDbLine
 10
350.78380737903
 20
158.572693658835
 30
0.0
 11
350.18973237903
 21
158.072693658835
 31
0.0
  0
LINE
  5
165
330
1F
100
AcDbEntity
  8
1
  6
Continuous
 62
     4
100
AcDbLine
 10
351.17985737903
 20
159.072693658835
 30
0.0
 11
350.78380737903
 21
158.572693658835
 31
0.0
  0
LINE
  5
166
330
1F
100
AcDbEntity
  8
1
  6
Continuous
 62
     4
100
AcDbLine
 10
351.57590737903
 20
160.072693658835
 30
0.0
 11
351.17985737903
 21
159.072693658835
 31
0.0
  0
LINE
  5
167
330
1F
100
AcDbEntity
  8
1
  6
Continuous
 62
     4
100
AcDbLine
 10
351.77393237903
 20
161.572693658835
 30
0.0
 11
351.57590737903
 21
160.072693658835
 31
0.0
  0
LINE
  5
168
330
1F
100
AcDbEntity
  8
1
  6
Continuous
 62
     4
100
AcDbLine
 10
344.84305737903
 20
158.322693658835
 30
0.0
 11
344.84305737903
 21
158.072693658835
 31
0.0
  0
LINE
  5
169
330
1F
100
AcDbEntity
  8
1
  6
Continuous
 62
     4
100
AcDbLine
 10
344.64503237903
 20
158.322693658835
 30
0.0
 11
344.84305737903
 21
158.322693658835
 31
0.0
  0
LINE
  5
16A
330
1F
100
AcDbEntity
  8
1
  6
Continuous
 62
     4
100
AcDbLine
 10
344.64503237903
 20
158.072693658835
 30
0.0
 11
344.64503237903
 21
158.322693658835
 31
0.0
  0
LINE
  5
16B
330
1F
100
AcDbEntity
  8
1
  6
Continuous
 62
     4
100
AcDbLine
 10
344.84305737903
 20
158.072693658835
 30
0.0
 11
344.64503237903
 21
158.072693658835
 31
0.0
  0
LINE
  5
16C
330
1F
100
AcDbEntity
  8
1
  6
Continuous
 62
     4
100
AcDbLine
 10
345.04108237903
 20
158.572693658835
 30
0.0
 11
345.04108237903
 21
157.822693658835
 31
0.0
  0
LINE
  5
16D
330
1F
100
AcDbEntity
  8
1
  6
Continuous
 62
     4
100
AcDbLine
 10
344.44700737903
 20
158.572693658835
 30
0.0
 11
345.04108237903
 21
158.572693658835
 31
0.0
  0
LINE
  5
16E
330
1F
100
AcDbEntity
  8
1
  6
Continuous
 62
     4
100
AcDbLine
 10
344.44700737903
 20
157.822693658835
 30
0.0
 11
344.44700737903
 21
158.572693658835
 31
0.0
  0
LINE
  5
16F
330
1F
100
AcDbEntity
  8
1
  6
Continuous
 62
     4
100
AcDbLine
 10
345.04108237903
 20
157.822693658835
 30
0.0
 11
344.44700737903
 21
157.822693658835
 31
0.0
  0
LINE
  5
170
330
1F
100
AcDbEntity
  8
1
  6
Continuous
 62
     4
100
AcDbLine
 10
342.07070737903
 20
167.822693658835
 30
0.0
 11
342.07070737903
 21
157.822693658835
 31
0.0
  0
LINE
  5
171
330
1F
100
AcDbEntity
  8
1
  6
Continuous
 62
     4
100
AcDbLine
 10
339.69440737903
 20
164.822693658835
 30
0.0
 11
342.07070737903
 21
167.822693658835
 31
0.0
  0
LINE
  5
172
330
1F
100
AcDbEntity
  8
1
  6
Continuous
 62
     4
100
AcDbLine
 10
395.93350737903
 20
182.232693658835
 30
0.0
 11
398.1117823790301
 21
184.482693658835
 31
0.0
  0
LINE
  5
173
330
1F
100
AcDbEntity
  8
1
  6
Continuous
 62
     4
100
AcDbLine
 10
395.14140737903
 20
180.982693658835
 30
0.0
 11
395.93350737903
 21
182.232693658835
 31
0.0
  0
LINE
  5
174
330
1F
100
AcDbEntity
  8
1
  6
Continuous
 62
     4
100
AcDbLine
 10
394.74535737903
 20
179.982693658835
 30
0.0
 11
395.14140737903
 21
180.982693658835
 31
0.0
  0
LINE
  5
175
330
1F
100
AcDbEntity
  8
1
  6
Continuous
 62
     4
100
AcDbLine
 10
394.54733237903
 20
177.982693658835
 30
0.0
 11
394.74535737903
 21
179.982693658835
 31
0.0
  0
LINE
  5
176
330
1F
100
AcDbEntity
  8
1
  6
Continuous
 62
     4
100
AcDbLine
 10
394.54733237903
 20
176.982693658835
 30
0.0
 11
394.54733237903
 21
177.982693658835
 31
0.0
  0
LINE
  5
177
330
1F
100
AcDbEntity
  8
1
  6
Continuous
 62
     4
100
AcDbLine
 10
394.74535737903
 20
175.982693658835
 30
0.0
 11
394.54733237903
 21
176.982693658835
 31
0.0
  0
LINE
  5
178
330
1F
100
AcDbEntity
  8
1
  6
Continuous
 62
     4
100
AcDbLine
 10
395.14140737903
 20
175.232693658835
 30
0.0
 11
394.74535737903
 21
175.982693658835
 31
0.0
  0
LINE
  5
179
330
1F
100
AcDbEntity
  8
1
  6
Continuous
 62
     4
100
AcDbLine
 10
395.73548237903
 20
174.732693658835
 30
0.0
 11
395.14140737903
 21
175.232693658835
 31
0.0
  0
LINE
  5
17A
330
1F
100
AcDbEntity
  8
1
  6
Continuous
 62
     4
100
AcDbLine
 10
396.32955737903
 20
174.482693658835
 30
0.0
 11
395.73548237903
 21
174.732693658835
 31
0.0
  0
LINE
  5
17B
330
1F
100
AcDbEntity
  8
1
  6
Continuous
 62
     4
100
AcDbLine
 10
397.51770737903
 20
174.482693658835
 30
0.0
 11
396.32955737903
 21
174.482693658835
 31
0.0
  0
LINE
  5
17C
330
1F
100
AcDbEntity
  8
1
  6
Continuous
 62
     4
100
AcDbLine
 10
398.1117823790301
 20
174.732693658835
 30
0.0
 11
397.51770737903
 21
174.482693658835
 31
0.0
  0
LINE
  5
17D
330
1F
100
AcDbEntity
  8
1
  6
Continuous
 62
     4
100
AcDbLine
 10
398.70585737903
 20
175.232693658835
 30
0.0
 11
398.1117823790301
 21
174.732693658835
 31
0.0
  0
LINE
  5
17E
330
1F
100
AcDbEntity
  8
1
  6
Continuous
 62
     4
100
AcDbLine
 10
399.10190737903
 20
175.982693658835
 30
0.0
 11
398.70585737903
 21
175.232693658835
 31
0.0
  0
LINE
  5
17F
330
1F
100
AcDbEntity
  8
1
  6
Continuous
 62
     4
100
AcDbLine
 10
399.29993237903
 20
176.982693658835
 30
0.0
 11
399.10190737903
 21
175.982693658835
 31
0.0
  0
LINE
  5
180
330
1F
100
AcDbEntity
  8
1
  6
Continuous
 62
     4
100
AcDbLine
 10
399.29993237903
 20
177.982693658835
 30
0.0
 11
399.29993237903
 21
176.982693658835
 31
0.0
  0
LINE
  5
181
330
1F
100
AcDbEntity
  8
1
  6
Continuous
 62
     4
100
AcDbLine
 10
399.10190737903
 20
178.982693658835
 30
0.0
 11
399.29993237903
 21
177.982693658835
 31
0.0
  0
LINE
  5
182
330
1F
100
AcDbEntity
  8
1
  6
Continuous
 62
     4
100
AcDbLine
 10
398.70585737903
 20
179.732693658835
 30
0.0
 11
399.10190737903
 21
178.982693658835
 31
0.0
  0
LINE
  5
183
330
1F
100
AcDbEntity
  8
1
  6
Continuous
 62
     4
100
AcDbLine
 10
398.1117823790301
 20
180.232693658835
 30
0.0
 11
398.70585737903
 21
179.732693658835
 31
0.0
  0
LINE
  5
184
330
1F
100
AcDbEntity
  8
1
  6
Continuous
 62
     4
100
AcDbLine
 10
397.51770737903
 20
180.482693658835
 30
0.0
 11
398.1117823790301
 21
180.232693658835
 31
0.0
  0
LINE
  5
185
330
1F
100
AcDbEntity
  8
1
  6
Continuous
 62
     4
100
AcDbLine
 10
396.32955737903
 20
180.482693658835
 30
0.0
 11
397.51770737903
 21
180.482693658835
 31
0.0
  0
LINE
  5
186
330
1F
100
AcDbEntity
  8
1
  6
Continuous
 62
     4
100
AcDbLine
 10
395.73548237903
 20
180.232693658835
 30
0.0
 11
396.32955737903
 21
180.482693658835
 31
0.0
  0
LINE
  5
187
330
1F
100
AcDbEntity
  8
1
  6
Continuous
 62
     4
100
AcDbLine
 10
395.14140737903
 20
179.732693658835
 30
0.0
 11
395.73548237903
 21
180.232693658835
 31
0.0
  0
LINE
  5
188
330
1F
100
AcDbEntity
  8
1
  6
Continuous
 62
     4
100
AcDbLine
 10
394.74535737903
 20
178.982693658835
 30
0.0
 11
395.14140737903
 21
179.732693658835
 31
0.0
  0
LINE
  5
189
330
1F
100
AcDbEntity
  8
1
  6
Continuous
 62
     4
100
AcDbLine
 10
394.54733237903
 20
177.982693658835
 30
0.0
 11
394.74535737903
 21
178.982693658835
 31
0.0
  0
LINE
  5
18A
330
1F
100
AcDbEntity
  8
1
  6
Continuous
 62
     4
100
AcDbLine
 10
389.7947323790301
 20
175.482693658835
 30
0.0
 11
388.01250737903
 21
174.482693658835
 31
0.0
  0
LINE
  5
18B
330
1F
100
AcDbEntity
  8
1
  6
Continuous
 62
     4
100
AcDbLine
 10
391.18090737903
 20
176.982693658835
 30
0.0
 11
389.7947323790301
 21
175.482693658835
 31
0.0
  0
LINE
  5
18C
330
1F
100
AcDbEntity
  8
1
  6
Continuous
 62
     4
100
AcDbLine
 10
391.7749823790301
 20
177.982693658835
 30
0.0
 11
391.18090737903
 21
176.982693658835
 31
0.0
  0
LINE
  5
18D
330
1F
100
AcDbEntity
  8
1
  6
Continuous
 62
     4
100
AcDbLine
 10
391.97300737903
 20
178.982693658835
 30
0.0
 11
391.7749823790301
 21
177.982693658835
 31
0.0
  0
LINE
  5
18E
330
1F
100
AcDbEntity
  8
1
  6
Continuous
 62
     4
100
AcDbLine
 10
392.17103237903
 20
180.232693658835
 30
0.0
 11
391.97300737903
 21
178.982693658835
 31
0.0
  0
LINE
  5
18F
330
1F
100
AcDbEntity
  8
1
  6
Continuous
 62
     4
100
AcDbLine
 10
392.17103237903
 20
181.982693658835
 30
0.0
 11
392.17103237903
 21
180.232693658835
 31
0.0
  0
LINE
  5
190
330
1F
100
AcDbEntity
  8
1
  6
Continuous
 62
     4
100
AcDbLine
 10
391.97300737903
 20
182.982693658835
 30
0.0
 11
392.17103237903
 21
181.982693658835
 31
0.0
  0
LINE
  5
191
330
1F
100
AcDbEntity
  8
1
  6
Continuous
 62
     4
100
AcDbLine
 10
391.57695737903
 20
183.732693658835
 30
0.0
 11
391.97300737903
 21
182.982693658835
 31
0.0
  0
LINE
  5
192
330
1F
100
AcDbEntity
  8
1
  6
Continuous
 62
     4
100
AcDbLine
 10
390.9828823790301
 20
184.232693658835
 30
0.0
 11
391.57695737903
 21
183.732693658835
 31
0.0
  0
LINE
  5
193
330
1F
100
AcDbEntity
  8
1
  6
Continuous
 62
     4
100
AcDbLine
 10
390.38880737903
 20
184.482693658835
 30
0.0
 11
390.9828823790301
 21
184.232693658835
 31
0.0
  0
LINE
  5
194
330
1F
100
AcDbEntity
  8
1
  6
Continuous
 62
     4
100
AcDbLine
 10
389.20065737903
 20
184.482693658835
 30
0.0
 11
390.38880737903
 21
184.482693658835
 31
0.0
  0
LINE
  5
195
330
1F
100
AcDbEntity
  8
1
  6
Continuous
 62
     4
100
AcDbLine
 10
388.60658237903
 20
184.232693658835
 30
0.0
 11
389.20065737903
 21
184.482693658835
 31
0.0
  0
LINE
  5
196
330
1F
100
AcDbEntity
  8
1
  6
Continuous
 62
     4
100
AcDbLine
 10
388.01250737903
 20
183.732693658835
 30
0.0
 11
388.60658237903
 21
184.232693658835
 31
0.0
  0
LINE
  5
197
330
1F
100
AcDbEntity
  8
1
  6
Continuous
 62
     4
100
AcDbLine
 10
387.61645737903
 20
182.982693658835
 30
0.0
 11
388.01250737903
 21
183.732693658835
 31
0.0
  0
LINE
  5
198
330
1F
100
AcDbEntity
  8
1
  6
Continuous
 62
     4
100
AcDbLine
 10
387.41843237903
 20
181.982693658835
 30
0.0
 11
387.61645737903
 21
182.982693658835
 31
0.0
  0
LINE
  5
199
330
1F
100
AcDbEntity
  8
1
  6
Continuous
 62
     4
100
AcDbLine
 10
387.41843237903
 20
181.482693658835
 30
0.0
 11
387.41843237903
 21
181.982693658835
 31
0.0
  0
LINE
  5
19A
330
1F
100
AcDbEntity
  8
1
  6
Continuous
 62
     4
100
AcDbLine
 10
387.61645737903
 20
180.482693658835
 30
0.0
 11
387.41843237903
 21
181.482693658835
 31
0.0
  0
LINE
  5
19B
330
1F
100
AcDbEntity
  8
1
  6
Continuous
 62
     4
100
AcDbLine
 10
388.01250737903
 20
179.732693658835
 30
0.0
 11
387.61645737903
 21
180.482693658835
 31
0.0
  0
LINE
  5
19C
330
1F
100
AcDbEntity
  8
1
  6
Continuous
 62
     4
100
AcDbLine
 10
388.60658237903
 20
179.232693658835
 30
0.0
 11
388.01250737903
 21
179.732693658835
 31
0.0
  0
LINE
  5
19D
330
1F
100
AcDbEntity
  8
1
  6
Continuous
 62
     4
100
AcDbLine
 10
389.20065737903
 20
178.982693658835
 30
0.0
 11
388.60658237903
 21
179.232693658835
 31
0.0
  0
LINE
  5
19E
330
1F
100
AcDbEntity
  8
1
  6
Continuous
 62
     4
100
AcDbLine
 10
391.97300737903
 20
178.982693658835
 30
0.0
 11
389.20065737903
 21
178.982693658835
 31
0.0
  0
LINE
  5
19F
330
1F
100
AcDbEntity
  8
1
  6
Continuous
 62
     4
100
AcDbLine
 10
381.08163237903
 20
183.732693658835
 30
0.0
 11
381.67570737903
 21
184.232693658835
 31
0.0
  0
LINE
  5
1A0
330
1F
100
AcDbEntity
  8
1
  6
Continuous
 62
     4
100
AcDbLine
 10
380.68558237903
 20
182.982693658835
 30
0.0
 11
381.08163237903
 21
183.732693658835
 31
0.0
  0
LINE
  5
1A1
330
1F
100
AcDbEntity
  8
1
  6
Continuous
 62
     4
100
AcDbLine
 10
380.68558237903
 20
181.982693658835
 30
0.0
 11
380.68558237903
 21
182.982693658835
 31
0.0
  0
LINE
  5
1A2
330
1F
100
AcDbEntity
  8
1
  6
Continuous
 62
     4
100
AcDbLine
 10
381.08163237903
 20
181.232693658835
 30
0.0
 11
380.68558237903
 21
181.982693658835
 31
0.0
  0
LINE
  5
1A3
330
1F
100
AcDbEntity
  8
1
  6
Continuous
 62
     4
100
AcDbLine
 10
381.67570737903
 20
180.732693658835
 30
0.0
 11
381.08163237903
 21
181.232693658835
 31
0.0
  0
LINE
  5
1A4
330
1F
100
AcDbEntity
  8
1
  6
Continuous
 62
     4
100
AcDbLine
 10
382.26978237903
 20
180.482693658835
 30
0.0
 11
381.67570737903
 21
180.732693658835
 31
0.0
  0
LINE
  5
1A5
330
1F
100
AcDbEntity
  8
1
  6
Continuous
 62
     4
100
AcDbLine
 10
383.06188237903
 20
180.482693658835
 30
0.0
 11
382.26978237903
 21
180.482693658835
 31
0.0
  0
LINE
  5
1A6
330
1F
100
AcDbEntity
  8
1
  6
Continuous
 62
     4
100
AcDbLine
 10
383.65595737903
 20
180.732693658835
 30
0.0
 11
383.06188237903
 21
180.482693658835
 31
0.0
  0
LINE
  5
1A7
330
1F
100
AcDbEntity
  8
1
  6
Continuous
 62
     4
100
AcDbLine
 10
384.25003237903
 20
181.232693658835
 30
0.0
 11
383.65595737903
 21
180.732693658835
 31
0.0
  0
LINE
  5
1A8
330
1F
100
AcDbEntity
  8
1
  6
Continuous
 62
     4
100
AcDbLine
 10
384.64608237903
 20
181.982693658835
 30
0.0
 11
384.25003237903
 21
181.232693658835
 31
0.0
  0
LINE
  5
1A9
330
1F
100
AcDbEntity
  8
1
  6
Continuous
 62
     4
100
AcDbLine
 10
384.64608237903
 20
182.982693658835
 30
0.0
 11
384.64608237903
 21
181.982693658835
 31
0.0
  0
LINE
  5
1AA
330
1F
100
AcDbEntity
  8
1
  6
Continuous
 62
     4
100
AcDbLine
 10
384.25003237903
 20
183.732693658835
 30
0.0
 11
384.64608237903
 21
182.982693658835
 31
0.0
  0
LINE
  5
1AB
330
1F
100
AcDbEntity
  8
1
  6
Continuous
 62
     4
100
AcDbLine
 10
383.65595737903
 20
184.232693658835
 30
0.0
 11
384.25003237903
 21
183.732693658835
 31
0.0
  0
LINE
  5
1AC
330
1F
100
AcDbEntity
  8
1
  6
Continuous
 62
     4
100
AcDbLine
 10
383.06188237903
 20
184.482693658835
 30
0.0
 11
383.65595737903
 21
184.232693658835
 31
0.0
  0
LINE
  5
1AD
330
1F
100
AcDbEntity
  8
1
  6
Continuous
 62
     4
100
AcDbLine
 10
382.26978237903
 20
184.482693658835
 30
0.0
 11
383.06188237903
 21
184.482693658835
 31
0.0
  0
LINE
  5
1AE
330
1F
100
AcDbEntity
  8
1
  6
Continuous
 62
     4
100
AcDbLine
 10
381.67570737903
 20
184.232693658835
 30
0.0
 11
382.26978237903
 21
184.482693658835
 31
0.0
  0
LINE
  5
1AF
330
1F
100
AcDbEntity
  8
1
  6
Continuous
 62
     4
100
AcDbLine
 10
384.05200737903
 20
179.982693658835
 30
0.0
 11
383.06188237903
 21
180.482693658835
 31
0.0
  0
LINE
  5
1B0
330
1F
100
AcDbEntity
  8
1
  6
Continuous
 62
     4
100
AcDbLine
 10
384.64608237903
 20
179.232693658835
 30
0.0
 11
384.05200737903
 21
179.982693658835
 31
0.0
  0
LINE
  5
1B1
330
1F
100
AcDbEntity
  8
1
  6
Continuous
 62
     4
100
AcDbLine
 10
385.04213237903
 20
178.232693658835
 30
0.0
 11
384.64608237903
 21
179.232693658835
 31
0.0
  0
LINE
  5
1B2
330
1F
100
AcDbEntity
  8
1
  6
Continuous
 62
     4
100
AcDbLine
 10
385.04213237903
 20
176.732693658835
 30
0.0
 11
385.04213237903
 21
178.232693658835
 31
0.0
  0
LINE
  5
1B3
330
1F
100
AcDbEntity
  8
1
  6
Continuous
 62
     4
100
AcDbLine
 10
384.64608237903
 20
175.732693658835
 30
0.0
 11
385.04213237903
 21
176.732693658835
 31
0.0
  0
LINE
  5
1B4
330
1F
100
AcDbEntity
  8
1
  6
Continuous
 62
     4
100
AcDbLine
 10
384.05200737903
 20
174.982693658835
 30
0.0
 11
384.64608237903
 21
175.732693658835
 31
0.0
  0
LINE
  5
1B5
330
1F
100
AcDbEntity
  8
1
  6
Continuous
 62
     4
100
AcDbLine
 10
383.25990737903
 20
174.482693658835
 30
0.0
 11
384.05200737903
 21
174.982693658835
 31
0.0
  0
LINE
  5
1B6
330
1F
100
AcDbEntity
  8
1
  6
Continuous
 62
     4
100
AcDbLine
 10
382.07175737903
 20
174.482693658835
 30
0.0
 11
383.25990737903
 21
174.482693658835
 31
0.0
  0
LINE
  5
1B7
330
1F
100
AcDbEntity
  8
1
  6
Continuous
 62
     4
100
AcDbLine
 10
381.27965737903
 20
174.982693658835
 30
0.0
 11
382.07175737903
 21
174.482693658835
 31
0.0
  0
LINE
  5
1B8
330
1F
100
AcDbEntity
  8
1
  6
Continuous
 62
     4
100
AcDbLine
 10
380.68558237903
 20
175.732693658835
 30
0.0
 11
381.27965737903
 21
174.982693658835
 31
0.0
  0
LINE
  5
1B9
330
1F
100
AcDbEntity
  8
1
  6
Continuous
 62
     4
100
AcDbLine
 10
380.28953237903
 20
176.732693658835
 30
0.0
 11
380.68558237903
 21
175.732693658835
 31
0.0
  0
LINE
  5
1BA
330
1F
100
AcDbEntity
  8
1
  6
Continuous
 62
     4
100
AcDbLine
 10
380.28953237903
 20
178.232693658835
 30
0.0
 11
380.28953237903
 21
176.732693658835
 31
0.0
  0
LINE
  5
1BB
330
1F
100
AcDbEntity
  8
1
  6
Continuous
 62
     4
100
AcDbLine
 10
380.68558237903
 20
179.232693658835
 30
0.0
 11
380.28953237903
 21
178.232693658835
 31
0.0
  0
LINE
  5
1BC
330
1F
100
AcDbEntity
  8
1
  6
Continuous
 62
     4
100
AcDbLine
 10
381.27965737903
 20
179.982693658835
 30
0.0
 11
380.68558237903
 21
179.232693658835
 31
0.0
  0
LINE
  5
1BD
330
1F
100
AcDbEntity
  8
1
  6
Continuous
 62
     4
100
AcDbLine
 10
382.26978237903
 20
180.482693658835
 30
0.0
 11
381.27965737903
 21
179.982693658835
 31
0.0
  0
LINE
  5
1BE
330
1F
100
AcDbEntity
  8
1
  6
Continuous
 62
     4
100
AcDbLine
 10
351.77393237903
 20
175.482693658835
 30
0.0
 11
349.99170737903
 21
174.482693658835
 31
0.0
  0
LINE
  5
1BF
330
1F
100
AcDbEntity
  8
1
  6
Continuous
 62
     4
100
AcDbLine
 10
353.16010737903
 20
176.982693658835
 30
0.0
 11
351.77393237903
 21
175.482693658835
 31
0.0
  0
LINE
  5
1C0
330
1F
100
AcDbEntity
  8
1
  6
Continuous
 62
     4
100
AcDbLine
 10
353.7541823790301
 20
177.982693658835
 30
0.0
 11
353.16010737903
 21
176.982693658835
 31
0.0
  0
LINE
  5
1C1
330
1F
100
AcDbEntity
  8
1
  6
Continuous
 62
     4
100
AcDbLine
 10
353.95220737903
 20
178.982693658835
 30
0.0
 11
353.7541823790301
 21
177.982693658835
 31
0.0
  0
LINE
  5
1C2
330
1F
100
AcDbEntity
  8
1
  6
Continuous
 62
     4
100
AcDbLine
 10
354.15023237903
 20
180.232693658835
 30
0.0
 11
353.95220737903
 21
178.982693658835
 31
0.0
  0
LINE
  5
1C3
330
1F
100
AcDbEntity
  8
1
  6
Continuous
 62
     4
100
AcDbLine
 10
354.15023237903
 20
181.982693658835
 30
0.0
 11
354.15023237903
 21
180.232693658835
 31
0.0
  0
LINE
  5
1C4
330
1F
100
AcDbEntity
  8
1
  6
Continuous
 62
     4
100
AcDbLine
 10
353.95220737903
 20
182.982693658835
 30
0.0
 11
354.15023237903
 21
181.982693658835
 31
0.0
  0
LINE
  5
1C5
330
1F
100
AcDbEntity
  8
1
  6
Continuous
 62
     4
100
AcDbLine
 10
353.55615737903
 20
183.732693658835
 30
0.0
 11
353.95220737903
 21
182.982693658835
 31
0.0
  0
LINE
  5
1C6
330
1F
100
AcDbEntity
  8
1
  6
Continuous
 62
     4
100
AcDbLine
 10
352.9620823790301
 20
184.232693658835
 30
0.0
 11
353.55615737903
 21
183.732693658835
 31
0.0
  0
LINE
  5
1C7
330
1F
100
AcDbEntity
  8
1
  6
Continuous
 62
     4
100
AcDbLine
 10
352.36800737903
 20
184.482693658835
 30
0.0
 11
352.9620823790301
 21
184.232693658835
 31
0.0
  0
LINE
  5
1C8
330
1F
100
AcDbEntity
  8
1
  6
Continuous
 62
     4
100
AcDbLine
 10
351.17985737903
 20
184.482693658835
 30
0.0
 11
352.36800737903
 21
184.482693658835
 31
0.0
  0
LINE
  5
1C9
330
1F
100
AcDbEntity
  8
1
  6
Continuous
 62
     4
100
AcDbLine
 10
350.58578237903
 20
184.232693658835
 30
0.0
 11
351.17985737903
 21
184.482693658835
 31
0.0
  0
LINE
  5
1CA
330
1F
100
AcDbEntity
  8
1
  6
Continuous
 62
     4
100
AcDbLine
 10
349.99170737903
 20
183.732693658835
 30
0.0
 11
350.58578237903
 21
184.232693658835
 31
0.0
  0
LINE
  5
1CB
330
1F
100
AcDbEntity
  8
1
  6
Continuous
 62
     4
100
AcDbLine
 10
349.59565737903
 20
182.982693658835
 30
0.0
 11
349.99170737903
 21
183.732693658835
 31
0.0
  0
LINE
  5
1CC
330
1F
100
AcDbEntity
  8
1
  6
Continuous
 62
     4
100
AcDbLine
 10
349.39763237903
 20
181.982693658835
 30
0.0
 11
349.59565737903
 21
182.982693658835
 31
0.0
  0
LINE
  5
1CD
330
1F
100
AcDbEntity
  8
1
  6
Continuous
 62
     4
100
AcDbLine
 10
349.39763237903
 20
181.482693658835
 30
0.0
 11
349.39763237903
 21
181.982693658835
 31
0.0
  0
LINE
  5
1CE
330
1F
100
AcDbEntity
  8
1
  6
Continuous
 62
     4
100
AcDbLine
 10
349.59565737903
 20
180.482693658835
 30
0.0
 11
349.39763237903
 21
181.482693658835
 31
0.0
  0
LINE
  5
1CF
330
1F
100
AcDbEntity
  8
1
  6
Continuous
 62
     4
100
AcDbLine
 10
349.99170737903
 20
179.732693658835
 30
0.0
 11
349.59565737903
 21
180.482693658835
 31
0.0
  0
LINE
  5
1D0
330
1F
100
AcDbEntity
  8
1
  6
Continuous
 62
     4
100
AcDbLine
 10
350.58578237903
 20
179.232693658835
 30
0.0
 11
349.99170737903
 21
179.732693658835
 31
0.0
  0
LINE
  5
1D1
330
1F
100
AcDbEntity
  8
1
  6
Continuous
 62
     4
100
AcDbLine
 10
351.17985737903
 20
178.982693658835
 30
0.0
 11
350.58578237903
 21
179.232693658835
 31
0.0
  0
LINE
  5
1D2
330
1F
100
AcDbEntity
  8
1
  6
Continuous
 62
     4
100
AcDbLine
 10
353.95220737903
 20
178.982693658835
 30
0.0
 11
351.17985737903
 21
178.982693658835
 31
0.0
  0
LINE
  5
1D3
330
1F
100
AcDbEntity
  8
1
  6
Continuous
 62
     4
100
AcDbLine
 10
347.21935737903
 20
174.982693658835
 30
0.0
 11
347.21935737903
 21
174.732693658835
 31
0.0
  0
LINE
  5
1D4
330
1F
100
AcDbEntity
  8
1
  6
Continuous
 62
     4
100
AcDbLine
 10
347.02133237903
 20
174.982693658835
 30
0.0
 11
347.21935737903
 21
174.982693658835
 31
0.0
  0
LINE
  5
1D5
330
1F
100
AcDbEntity
  8
1
  6
Continuous
 62
     4
100
AcDbLine
 10
347.02133237903
 20
174.732693658835
 30
0.0
 11
347.02133237903
 21
174.982693658835
 31
0.0
  0
LINE
  5
1D6
330
1F
100
AcDbEntity
  8
1
  6
Continuous
 62
     4
100
AcDbLine
 10
347.21935737903
 20
174.732693658835
 30
0.0
 11
347.02133237903
 21
174.732693658835
 31
0.0
  0
LINE
  5
1D7
330
1F
100
AcDbEntity
  8
1
  6
Continuous
 62
     4
100
AcDbLine
 10
347.41738237903
 20
175.232693658835
 30
0.0
 11
347.41738237903
 21
174.482693658835
 31
0.0
  0
LINE
  5
1D8
330
1F
100
AcDbEntity
  8
1
  6
Continuous
 62
     4
100
AcDbLine
 10
346.82330737903
 20
175.232693658835
 30
0.0
 11
347.41738237903
 21
175.232693658835
 31
0.0
  0
LINE
  5
1D9
330
1F
100
AcDbEntity
  8
1
  6
Continuous
 62
     4
100
AcDbLine
 10
346.82330737903
 20
174.482693658835
 30
0.0
 11
346.82330737903
 21
175.232693658835
 31
0.0
  0
LINE
  5
1DA
330
1F
100
AcDbEntity
  8
1
  6
Continuous
 62
     4
100
AcDbLine
 10
347.41738237903
 20
174.482693658835
 30
0.0
 11
346.82330737903
 21
174.482693658835
 31
0.0
  0
LINE
  5
1DB
330
1F
100
AcDbEntity
  8
1
  6
Continuous
 62
     4
100
AcDbLine
 10
344.44700737903
 20
180.732693658835
 30
0.0
 11
344.44700737903
 21
178.232693658835
 31
0.0
  0
LINE
  5
1DC
330
1F
100
AcDbEntity
  8
1
  6
Continuous
 62
     4
100
AcDbLine
 10
344.24898237903
 20
182.232693658835
 30
0.0
 11
344.44700737903
 21
180.732693658835
 31
0.0
  0
LINE
  5
1DD
330
1F
100
AcDbEntity
  8
1
  6
Continuous
 62
     4
100
AcDbLine
 10
343.85293237903
 20
183.232693658835
 30
0.0
 11
344.24898237903
 21
182.232693658835
 31
0.0
  0
LINE
  5
1DE
330
1F
100
AcDbEntity
  8
1
  6
Continuous
 62
     4
100
AcDbLine
 10
343.45688237903
 20
183.732693658835
 30
0.0
 11
343.85293237903
 21
183.232693658835
 31
0.0
  0
LINE
  5
1DF
330
1F
100
AcDbEntity
  8
1
  6
Continuous
 62
     4
100
AcDbLine
 10
342.86280737903
 20
184.232693658835
 30
0.0
 11
343.45688237903
 21
183.732693658835
 31
0.0
  0
LINE
  5
1E0
330
1F
100
AcDbEntity
  8
1
  6
Continuous
 62
     4
100
AcDbLine
 10
342.26873237903
 20
184.482693658835
 30
0.0
 11
342.86280737903
 21
184.232693658835
 31
0.0
  0
LINE
  5
1E1
330
1F
100
AcDbEntity
  8
1
  6
Continuous
 62
     4
100
AcDbLine
 10
341.87268237903
 20
184.482693658835
 30
0.0
 11
342.26873237903
 21
184.482693658835
 31
0.0
  0
LINE
  5
1E2
330
1F
100
AcDbEntity
  8
1
  6
Continuous
 62
     4
100
AcDbLine
 10
341.27860737903
 20
184.232693658835
 30
0.0
 11
341.87268237903
 21
184.482693658835
 31
0.0
  0
LINE
  5
1E3
330
1F
100
AcDbEntity
  8
1
  6
Continuous
 62
     4
100
AcDbLine
 10
340.68453237903
 20
183.732693658835
 30
0.0
 11
341.27860737903
 21
184.232693658835
 31
0.0
  0
LINE
  5
1E4
330
1F
100
AcDbEntity
  8
1
  6
Continuous
 62
     4
100
AcDbLine
 10
340.28848237903
 20
183.232693658835
 30
0.0
 11
340.68453237903
 21
183.732693658835
 31
0.0
  0
LINE
  5
1E5
330
1F
100
AcDbEntity
  8
1
  6
Continuous
 62
     4
100
AcDbLine
 10
339.89243237903
 20
182.232693658835
 30
0.0
 11
340.28848237903
 21
183.232693658835
 31
0.0
  0
LINE
  5
1E6
330
1F
100
AcDbEntity
  8
1
  6
Continuous
 62
     4
100
AcDbLine
 10
339.69440737903
 20
180.732693658835
 30
0.0
 11
339.89243237903
 21
182.232693658835
 31
0.0
  0
LINE
  5
1E7
330
1F
100
AcDbEntity
  8
1
  6
Continuous
 62
     4
100
AcDbLine
 10
339.69440737903
 20
178.232693658835
 30
0.0
 11
339.69440737903
 21
180.732693658835
 31
0.0
  0
LINE
  5
1E8
330
1F
100
AcDbEntity
  8
1
  6
Continuous
 62
     4
100
AcDbLine
 10
339.89243237903
 20
176.732693658835
 30
0.0
 11
339.69440737903
 21
178.232693658835
 31
0.0
  0
LINE
  5
1E9
330
1F
100
AcDbEntity
  8
1
  6
Continuous
 62
     4
100
AcDbLine
 10
340.28848237903
 20
175.732693658835
 30
0.0
 11
339.89243237903
 21
176.732693658835
 31
0.0
  0
LINE
  5
1EA
330
1F
100
AcDbEntity
  8
1
  6
Continuous
 62
     4
100
AcDbLine
 10
340.68453237903
 20
175.232693658835
 30
0.0
 11
340.28848237903
 21
175.732693658835
 31
0.0
  0
LINE
  5
1EB
330
1F
100
AcDbEntity
  8
1
  6
Continuous
 62
     4
100
AcDbLine
 10
341.27860737903
 20
174.732693658835
 30
0.0
 11
340.68453237903
 21
175.232693658835
 31
0.0
  0
LINE
  5
1EC
330
1F
100
AcDbEntity
  8
1
  6
Continuous
 62
     4
100
AcDbLine
 10
341.87268237903
 20
174.482693658835
 30
0.0
 11
341.27860737903
 21
174.732693658835
 31
0.0
  0
LINE
  5
1ED
330
1F
100
AcDbEntity
  8
1
  6
Continuous
 62
     4
100
AcDbLine
 10
342.26873237903
 20
174.482693658835
 30
0.0
 11
341.87268237903
 21
174.482693658835
 31
0.0
  0
LINE
  5
1EE
330
1F
100
AcDbEntity
  8
1
  6
Continuous
 62
     4
100
AcDbLine
 10
342.86280737903
 20
174.732693658835
 30
0.0
 11
342.26873237903
 21
174.482693658835
 31
0.0
  0
LINE
  5
1EF
330
1F
100
AcDbEntity
  8
1
  6
Continuous
 62
     4
100
AcDbLine
 10
343.45688237903
 20
175.232693658835
 30
0.0
 11
342.86280737903
 21
174.732693658835
 31
0.0
  0
LINE
  5
1F0
330
1F
100
AcDbEntity
  8
1
  6
Continuous
 62
     4
100
AcDbLine
 10
343.85293237903
 20
175.732693658835
 30
0.0
 11
343.45688237903
 21
175.232693658835
 31
0.0
  0
LINE
  5
1F1
330
1F
100
AcDbEntity
  8
1
  6
Continuous
 62
     4
100
AcDbLine
 10
344.24898237903
 20
176.732693658835
 30
0.0
 11
343.85293237903
 21
175.732693658835
 31
0.0
  0
LINE
  5
1F2
330
1F
100
AcDbEntity
  8
1
  6
Continuous
 62
     4
100
AcDbLine
 10
344.44700737903
 20
178.232693658835
 30
0.0
 11
344.24898237903
 21
176.732693658835
 31
0.0
  0
LINE
  5
1F3
330
1F
100
AcDbEntity
  8
1
  6
Continuous
 62
     4
100
AcDbLine
 10
395.93350737903
 20
198.892693658835
 30
0.0
 11
398.1117823790301
 21
201.142693658835
 31
0.0
  0
LINE
  5
1F4
330
1F
100
AcDbEntity
  8
1
  6
Continuous
 62
     4
100
AcDbLine
 10
395.14140737903
 20
197.642693658835
 30
0.0
 11
395.93350737903
 21
198.892693658835
 31
0.0
  0
LINE
  5
1F5
330
1F
100
AcDbEntity
  8
1
  6
Continuous
 62
     4
100
AcDbLine
 10
394.74535737903
 20
196.642693658835
 30
0.0
 11
395.14140737903
 21
197.642693658835
 31
0.0
  0
LINE
  5
1F6
330
1F
100
AcDbEntity
  8
1
  6
Continuous
 62
     4
100
AcDbLine
 10
394.54733237903
 20
194.642693658835
 30
0.0
 11
394.74535737903
 21
196.642693658835
 31
0.0
  0
LINE
  5
1F7
330
1F
100
AcDbEntity
  8
1
  6
Continuous
 62
     4
100
AcDbLine
 10
394.54733237903
 20
193.642693658835
 30
0.0
 11
394.54733237903
 21
194.642693658835
 31
0.0
  0
LINE
  5
1F8
330
1F
100
AcDbEntity
  8
1
  6
Continuous
 62
     4
100
AcDbLine
 10
394.74535737903
 20
192.642693658835
 30
0.0
 11
394.54733237903
 21
193.642693658835
 31
0.0
  0
LINE
  5
1F9
330
1F
100
AcDbEntity
  8
1
  6
Continuous
 62
     4
100
AcDbLine
 10
395.14140737903
 20
191.892693658835
 30
0.0
 11
394.74535737903
 21
192.642693658835
 31
0.0
  0
LINE
  5
1FA
330
1F
100
AcDbEntity
  8
1
  6
Continuous
 62
     4
100
AcDbLine
 10
395.73548237903
 20
191.392693658835
 30
0.0
 11
395.14140737903
 21
191.892693658835
 31
0.0
  0
LINE
  5
1FB
330
1F
100
AcDbEntity
  8
1
  6
Continuous
 62
     4
100
AcDbLine
 10
396.32955737903
 20
191.142693658835
 30
0.0
 11
395.73548237903
 21
191.392693658835
 31
0.0
  0
LINE
  5
1FC
330
1F
100
AcDbEntity
  8
1
  6
Continuous
 62
     4
100
AcDbLine
 10
397.51770737903
 20
191.142693658835
 30
0.0
 11
396.32955737903
 21
191.142693658835
 31
0.0
  0
LINE
  5
1FD
330
1F
100
AcDbEntity
  8
1
  6
Continuous
 62
     4
100
AcDbLine
 10
398.1117823790301
 20
191.392693658835
 30
0.0
 11
397.51770737903
 21
191.142693658835
 31
0.0
  0
LINE
  5
1FE
330
1F
100
AcDbEntity
  8
1
  6
Continuous
 62
     4
100
AcDbLine
 10
398.70585737903
 20
191.892693658835
 30
0.0
 11
398.1117823790301
 21
191.392693658835
 31
0.0
  0
LINE
  5
1FF
330
1F
100
AcDbEntity
  8
1
  6
Continuous
 62
     4
100
AcDbLine
 10
399.10190737903
 20
192.642693658835
 30
0.0
 11
398.70585737903
 21
191.892693658835
 31
0.0
  0
LINE
  5
200
330
1F
100
AcDbEntity
  8
1
  6
Continuous
 62
     4
100
AcDbLine
 10
399.29993237903
 20
193.642693658835
 30
0.0
 11
399.10190737903
 21
192.642693658835
 31
0.0
  0
LINE
  5
201
330
1F
100
AcDbEntity
  8
1
  6
Continuous
 62
     4
100
AcDbLine
 10
399.29993237903
 20
194.642693658835
 30
0.0
 11
399.29993237903
 21
193.642693658835
 31
0.0
  0
LINE
  5
202
330
1F
100
AcDbEntity
  8
1
  6
Continuous
 62
     4
100
AcDbLine
 10
399.10190737903
 20
195.642693658835
 30
0.0
 11
399.29993237903
 21
194.642693658835
 31
0.0
  0
LINE
  5
203
330
1F
100
AcDbEntity
  8
1
  6
Continuous
 62
     4
100
AcDbLine
 10
398.70585737903
 20
196.392693658835
 30
0.0
 11
399.10190737903
 21
195.642693658835
 31
0.0
  0
LINE
  5
204
330
1F
100
AcDbEntity
  8
1
  6
Continuous
 62
     4
100
AcDbLine
 10
398.1117823790301
 20
196.892693658835
 30
0.0
 11
398.70585737903
 21
196.392693658835
 31
0.0
  0
LINE
  5
205
330
1F
100
AcDbEntity
  8
1
  6
Continuous
 62
     4
100
AcDbLine
 10
397.51770737903
 20
197.142693658835
 30
0.0
 11
398.1117823790301
 21
196.892693658835
 31
0.0
  0
LINE
  5
206
330
1F
100
AcDbEntity
  8
1
  6
Continuous
 62
     4
100
AcDbLine
 10
396.32955737903
 20
197.142693658835
 30
0.0
 11
397.51770737903
 21
197.142693658835
 31
0.0
  0
LINE
  5
207
330
1F
100
AcDbEntity
  8
1
  6
Continuous
 62
     4
100
AcDbLine
 10
395.73548237903
 20
196.892693658835
 30
0.0
 11
396.32955737903
 21
197.142693658835
 31
0.0
  0
LINE
  5
208
330
1F
100
AcDbEntity
  8
1
  6
Continuous
 62
     4
100
AcDbLine
 10
395.14140737903
 20
196.392693658835
 30
0.0
 11
395.73548237903
 21
196.892693658835
 31
0.0
  0
LINE
  5
209
330
1F
100
AcDbEntity
  8
1
  6
Continuous
 62
     4
100
AcDbLine
 10
394.74535737903
 20
195.642693658835
 30
0.0
 11
395.14140737903
 21
196.392693658835
 31
0.0
  0
LINE
  5
20A
330
1F
100
AcDbEntity
  8
1
  6
Continuous
 62
     4
100
AcDbLine
 10
394.54733237903
 20
194.642693658835
 30
0.0
 11
394.74535737903
 21
195.642693658835
 31
0.0
  0
LINE
  5
20B
330
1F
100
AcDbEntity
  8
1
  6
Continuous
 62
     4
100
AcDbLine
 10
389.7947323790301
 20
192.142693658835
 30
0.0
 11
388.01250737903
 21
191.142693658835
 31
0.0
  0
LINE
  5
20C
330
1F
100
AcDbEntity
  8
1
  6
Continuous
 62
     4
100
AcDbLine
 10
391.18090737903
 20
193.642693658835
 30
0.0
 11
389.7947323790301
 21
192.142693658835
 31
0.0
  0
LINE
  5
20D
330
1F
100
AcDbEntity
  8
1
  6
Continuous
 62
     4
100
AcDbLine
 10
391.7749823790301
 20
194.642693658835
 30
0.0
 11
391.18090737903
 21
193.642693658835
 31
0.0
  0
LINE
  5
20E
330
1F
100
AcDbEntity
  8
1
  6
Continuous
 62
     4
100
AcDbLine
 10
391.97300737903
 20
195.642693658835
 30
0.0
 11
391.7749823790301
 21
194.642693658835
 31
0.0
  0
LINE
  5
20F
330
1F
100
AcDbEntity
  8
1
  6
Continuous
 62
     4
100
AcDbLine
 10
392.17103237903
 20
196.892693658835
 30
0.0
 11
391.97300737903
 21
195.642693658835
 31
0.0
  0
LINE
  5
210
330
1F
100
AcDbEntity
  8
1
  6
Continuous
 62
     4
100
AcDbLine
 10
392.17103237903
 20
198.642693658835
 30
0.0
 11
392.17103237903
 21
196.892693658835
 31
0.0
  0
LINE
  5
211
330
1F
100
AcDbEntity
  8
1
  6
Continuous
 62
     4
100
AcDbLine
 10
391.97300737903
 20
199.642693658835
 30
0.0
 11
392.17103237903
 21
198.642693658835
 31
0.0
  0
LINE
  5
212
330
1F
100
AcDbEntity
  8
1
  6
Continuous
 62
     4
100
AcDbLine
 10
391.57695737903
 20
200.392693658835
 30
0.0
 11
391.97300737903
 21
199.642693658835
 31
0.0
  0
LINE
  5
213
330
1F
100
AcDbEntity
  8
1
  6
Continuous
 62
     4
100
AcDbLine
 10
390.9828823790301
 20
200.892693658835
 30
0.0
 11
391.57695737903
 21
200.392693658835
 31
0.0
  0
LINE
  5
214
330
1F
100
AcDbEntity
  8
1
  6
Continuous
 62
     4
100
AcDbLine
 10
390.38880737903
 20
201.142693658835
 30
0.0
 11
390.9828823790301
 21
200.892693658835
 31
0.0
  0
LINE
  5
215
330
1F
100
AcDbEntity
  8
1
  6
Continuous
 62
     4
100
AcDbLine
 10
389.20065737903
 20
201.142693658835
 30
0.0
 11
390.38880737903
 21
201.142693658835
 31
0.0
  0
LINE
  5
216
330
1F
100
AcDbEntity
  8
1
  6
Continuous
 62
     4
100
AcDbLine
 10
388.60658237903
 20
200.892693658835
 30
0.0
 11
389.20065737903
 21
201.142693658835
 31
0.0
  0
LINE
  5
217
330
1F
100
AcDbEntity
  8
1
  6
Continuous
 62
     4
100
AcDbLine
 10
388.01250737903
 20
200.392693658835
 30
0.0
 11
388.60658237903
 21
200.892693658835
 31
0.0
  0
LINE
  5
218
330
1F
100
AcDbEntity
  8
1
  6
Continuous
 62
     4
100
AcDbLine
 10
387.61645737903
 20
199.642693658835
 30
0.0
 11
388.01250737903
 21
200.392693658835
 31
0.0
  0
LINE
  5
219
330
1F
100
AcDbEntity
  8
1
  6
Continuous
 62
     4
100
AcDbLine
 10
387.41843237903
 20
198.642693658835
 30
0.0
 11
387.61645737903
 21
199.642693658835
 31
0.0
  0
LINE
  5
21A
330
1F
100
AcDbEntity
  8
1
  6
Continuous
 62
     4
100
AcDbLine
 10
387.41843237903
 20
198.142693658835
 30
0.0
 11
387.41843237903
 21
198.642693658835
 31
0.0
  0
LINE
  5
21B
330
1F
100
AcDbEntity
  8
1
  6
Continuous
 62
     4
100
AcDbLine
 10
387.61645737903
 20
197.142693658835
 30
0.0
 11
387.41843237903
 21
198.142693658835
 31
0.0
  0
LINE
  5
21C
330
1F
100
AcDbEntity
  8
1
  6
Continuous
 62
     4
100
AcDbLine
 10
388.01250737903
 20
196.392693658835
 30
0.0
 11
387.61645737903
 21
197.142693658835
 31
0.0
  0
LINE
  5
21D
330
1F
100
AcDbEntity
  8
1
  6
Continuous
 62
     4
100
AcDbLine
 10
388.60658237903
 20
195.892693658835
 30
0.0
 11
388.01250737903
 21
196.392693658835
 31
0.0
  0
LINE
  5
21E
330
1F
100
AcDbEntity
  8
1
  6
Continuous
 62
     4
100
AcDbLine
 10
389.20065737903
 20
195.642693658835
 30
0.0
 11
388.60658237903
 21
195.892693658835
 31
0.0
  0
LINE
  5
21F
330
1F
100
AcDbEntity
  8
1
  6
Continuous
 62
     4
100
AcDbLine
 10
391.97300737903
 20
195.642693658835
 30
0.0
 11
389.20065737903
 21
195.642693658835
 31
0.0
  0
LINE
  5
220
330
1F
100
AcDbEntity
  8
1
  6
Continuous
 62
     4
100
AcDbLine
 10
385.04213237903
 20
201.142693658835
 30
0.0
 11
381.08163237903
 21
191.142693658835
 31
0.0
  0
LINE
  5
221
330
1F
100
AcDbEntity
  8
1
  6
Continuous
 62
     4
100
AcDbLine
 10
380.28953237903
 20
201.142693658835
 30
0.0
 11
385.04213237903
 21
201.142693658835
 31
0.0
  0
LINE
  5
222
330
1F
100
AcDbEntity
  8
1
  6
Continuous
 62
     4
100
AcDbLine
 10
380.28953237903
 20
200.142693658835
 30
0.0
 11
380.28953237903
 21
201.142693658835
 31
0.0
  0
LINE
  5
223
330
1F
100
AcDbEntity
  8
1
  6
Continuous
 62
     4
100
AcDbLine
 10
350.18973237903
 20
200.392693658835
 30
0.0
 11
350.78380737903
 21
200.892693658835
 31
0.0
  0
LINE
  5
224
330
1F
100
AcDbEntity
  8
1
  6
Continuous
 62
     4
100
AcDbLine
 10
349.79368237903
 20
199.642693658835
 30
0.0
 11
350.18973237903
 21
200.392693658835
 31
0.0
  0
LINE
  5
225
330
1F
100
AcDbEntity
  8
1
  6
Continuous
 62
     4
100
AcDbLine
 10
349.79368237903
 20
198.642693658835
 30
0.0
 11
349.79368237903
 21
199.642693658835
 31
0.0
  0
LINE
  5
226
330
1F
100
AcDbEntity
  8
1
  6
Continuous
 62
     4
100
AcDbLine
 10
350.18973237903
 20
197.892693658835
 30
0.0
 11
349.79368237903
 21
198.642693658835
 31
0.0
  0
LINE
  5
227
330
1F
100
AcDbEntity
  8
1
  6
Continuous
 62
     4
100
AcDbLine
 10
350.78380737903
 20
197.392693658835
 30
0.0
 11
350.18973237903
 21
197.892693658835
 31
0.0
  0
LINE
  5
228
330
1F
100
AcDbEntity
  8
1
  6
Continuous
 62
     4
100
AcDbLine
 10
351.37788237903
 20
197.142693658835
 30
0.0
 11
350.78380737903
 21
197.392693658835
 31
0.0
  0
LINE
  5
229
330
1F
100
AcDbEntity
  8
1
  6
Continuous
 62
     4
100
AcDbLine
 10
352.1699823790301
 20
197.142693658835
 30
0.0
 11
351.37788237903
 21
197.142693658835
 31
0.0
  0
LINE
  5
22A
330
1F
100
AcDbEntity
  8
1
  6
Continuous
 62
     4
100
AcDbLine
 10
352.76405737903
 20
197.392693658835
 30
0.0
 11
352.1699823790301
 21
197.142693658835
 31
0.0
  0
LINE
  5
22B
330
1F
100
AcDbEntity
  8
1
  6
Continuous
 62
     4
100
AcDbLine
 10
353.3581323790301
 20
197.892693658835
 30
0.0
 11
352.76405737903
 21
197.392693658835
 31
0.0
  0
LINE
  5
22C
330
1F
100
AcDbEntity
  8
1
  6
Continuous
 62
     4
100
AcDbLine
 10
353.7541823790301
 20
198.642693658835
 30
0.0
 11
353.3581323790301
 21
197.892693658835
 31
0.0
  0
LINE
  5
22D
330
1F
100
AcDbEntity
  8
1
  6
Continuous
 62
     4
100
AcDbLine
 10
353.7541823790301
 20
199.642693658835
 30
0.0
 11
353.7541823790301
 21
198.642693658835
 31
0.0
  0
LINE
  5
22E
330
1F
100
AcDbEntity
  8
1
  6
Continuous
 62
     4
100
AcDbLine
 10
353.3581323790301
 20
200.392693658835
 30
0.0
 11
353.7541823790301
 21
199.642693658835
 31
0.0
  0
LINE
  5
22F
330
1F
100
AcDbEntity
  8
1
  6
Continuous
 62
     4
100
AcDbLine
 10
352.76405737903
 20
200.892693658835
 30
0.0
 11
353.3581323790301
 21
200.392693658835
 31
0.0
  0
LINE
  5
230
330
1F
100
AcDbEntity
  8
1
  6
Continuous
 62
     4
100
AcDbLine
 10
352.1699823790301
 20
201.142693658835
 30
0.0
 11
352.76405737903
 21
200.892693658835
 31
0.0
  0
LINE
  5
231
330
1F
100
AcDbEntity
  8
1
  6
Continuous
 62
     4
100
AcDbLine
 10
351.37788237903
 20
201.142693658835
 30
0.0
 11
352.1699823790301
 21
201.142693658835
 31
0.0
  0
LINE
  5
232
330
1F
100
AcDbEntity
  8
1
  6
Continuous
 62
     4
100
AcDbLine
 10
350.78380737903
 20
200.892693658835
 30
0.0
 11
351.37788237903
 21
201.142693658835
 31
0.0
  0
LINE
  5
233
330
1F
100
AcDbEntity
  8
1
  6
Continuous
 62
     4
100
AcDbLine
 10
353.16010737903
 20
196.642693658835
 30
0.0
 11
352.1699823790301
 21
197.142693658835
 31
0.0
  0
LINE
  5
234
330
1F
100
AcDbEntity
  8
1
  6
Continuous
 62
     4
100
AcDbLine
 10
353.7541823790301
 20
195.892693658835
 30
0.0
 11
353.16010737903
 21
196.642693658835
 31
0.0
  0
LINE
  5
235
330
1F
100
AcDbEntity
  8
1
  6
Continuous
 62
     4
100
AcDbLine
 10
354.15023237903
 20
194.892693658835
 30
0.0
 11
353.7541823790301
 21
195.892693658835
 31
0.0
  0
LINE
  5
236
330
1F
100
AcDbEntity
  8
1
  6
Continuous
 62
     4
100
AcDbLine
 10
354.15023237903
 20
193.392693658835
 30
0.0
 11
354.15023237903
 21
194.892693658835
 31
0.0
  0
LINE
  5
237
330
1F
100
AcDbEntity
  8
1
  6
Continuous
 62
     4
100
AcDbLine
 10
353.7541823790301
 20
192.392693658835
 30
0.0
 11
354.15023237903
 21
193.392693658835
 31
0.0
  0
LINE
  5
238
330
1F
100
AcDbEntity
  8
1
  6
Continuous
 62
     4
100
AcDbLine
 10
353.16010737903
 20
191.642693658835
 30
0.0
 11
353.7541823790301
 21
192.392693658835
 31
0.0
  0
LINE
  5
239
330
1F
100
AcDbEntity
  8
1
  6
Continuous
 62
     4
100
AcDbLine
 10
352.36800737903
 20
191.142693658835
 30
0.0
 11
353.16010737903
 21
191.642693658835
 31
0.0
  0
LINE
  5
23A
330
1F
100
AcDbEntity
  8
1
  6
Continuous
 62
     4
100
AcDbLine
 10
351.17985737903
 20
191.142693658835
 30
0.0
 11
352.36800737903
 21
191.142693658835
 31
0.0
  0
LINE
  5
23B
330
1F
100
AcDbEntity
  8
1
  6
Continuous
 62
     4
100
AcDbLine
 10
350.38775737903
 20
191.642693658835
 30
0.0
 11
351.17985737903
 21
191.142693658835
 31
0.0
  0
LINE
  5
23C
330
1F
100
AcDbEntity
  8
1
  6
Continuous
 62
     4
100
AcDbLine
 10
349.79368237903
 20
192.392693658835
 30
0.0
 11
350.38775737903
 21
191.642693658835
 31
0.0
  0
LINE
  5
23D
330
1F
100
AcDbEntity
  8
1
  6
Continuous
 62
     4
100
AcDbLine
 10
349.39763237903
 20
193.392693658835
 30
0.0
 11
349.79368237903
 21
192.392693658835
 31
0.0
  0
LINE
  5
23E
330
1F
100
AcDbEntity
  8
1
  6
Continuous
 62
     4
100
AcDbLine
 10
349.39763237903
 20
194.892693658835
 30
0.0
 11
349.39763237903
 21
193.392693658835
 31
0.0
  0
LINE
  5
23F
330
1F
100
AcDbEntity
  8
1
  6
Continuous
 62
     4
100
AcDbLine
 10
349.79368237903
 20
195.892693658835
 30
0.0
 11
349.39763237903
 21
194.892693658835
 31
0.0
  0
LINE
  5
240
330
1F
100
AcDbEntity
  8
1
  6
Continuous
 62
     4
100
AcDbLine
 10
350.38775737903
 20
196.642693658835
 30
0.0
 11
349.79368237903
 21
195.892693658835
 31
0.0
  0
LINE
  5
241
330
1F
100
AcDbEntity
  8
1
  6
Continuous
 62
     4
100
AcDbLine
 10
351.37788237903
 20
197.142693658835
 30
0.0
 11
350.38775737903
 21
196.642693658835
 31
0.0
  0
LINE
  5
242
330
1F
100
AcDbEntity
  8
1
  6
Continuous
 62
     4
100
AcDbLine
 10
347.21935737903
 20
191.642693658835
 30
0.0
 11
347.21935737903
 21
191.392693658835
 31
0.0
  0
LINE
  5
243
330
1F
100
AcDbEntity
  8
1
  6
Continuous
 62
     4
100
AcDbLine
 10
347.02133237903
 20
191.642693658835
 30
0.0
 11
347.21935737903
 21
191.642693658835
 31
0.0
  0
LINE
  5
244
330
1F
100
AcDbEntity
  8
1
  6
Continuous
 62
     4
100
AcDbLine
 10
347.02133237903
 20
191.392693658835
 30
0.0
 11
347.02133237903
 21
191.642693658835
 31
0.0
  0
LINE
  5
245
330
1F
100
AcDbEntity
  8
1
  6
Continuous
 62
     4
100
AcDbLine
 10
347.21935737903
 20
191.392693658835
 30
0.0
 11
347.02133237903
 21
191.392693658835
 31
0.0
  0
LINE
  5
246
330
1F
100
AcDbEntity
  8
1
  6
Continuous
 62
     4
100
AcDbLine
 10
347.41738237903
 20
191.892693658835
 30
0.0
 11
347.41738237903
 21
191.142693658835
 31
0.0
  0
LINE
  5
247
330
1F
100
AcDbEntity
  8
1
  6
Continuous
 62
     4
100
AcDbLine
 10
346.82330737903
 20
191.892693658835
 30
0.0
 11
347.41738237903
 21
191.892693658835
 31
0.0
  0
LINE
  5
248
330
1F
100
AcDbEntity
  8
1
  6
Continuous
 62
     4
100
AcDbLine
 10
346.82330737903
 20
191.142693658835
 30
0.0
 11
346.82330737903
 21
191.892693658835
 31
0.0
  0
LINE
  5
249
330
1F
100
AcDbEntity
  8
1
  6
Continuous
 62
     4
100
AcDbLine
 10
347.41738237903
 20
191.142693658835
 30
0.0
 11
346.82330737903
 21
191.142693658835
 31
0.0
  0
LINE
  5
24A
330
1F
100
AcDbEntity
  8
1
  6
Continuous
 62
     4
100
AcDbLine
 10
344.44700737903
 20
197.392693658835
 30
0.0
 11
344.44700737903
 21
194.892693658835
 31
0.0
  0
LINE
  5
24B
330
1F
100
AcDbEntity
  8
1
  6
Continuous
 62
     4
100
AcDbLine
 10
344.24898237903
 20
198.892693658835
 30
0.0
 11
344.44700737903
 21
197.392693658835
 31
0.0
  0
LINE
  5
24C
330
1F
100
AcDbEntity
  8
1
  6
Continuous
 62
     4
100
AcDbLine
 10
343.85293237903
 20
199.892693658835
 30
0.0
 11
344.24898237903
 21
198.892693658835
 31
0.0
  0
LINE
  5
24D
330
1F
100
AcDbEntity
  8
1
  6
Continuous
 62
     4
100
AcDbLine
 10
343.45688237903
 20
200.392693658835
 30
0.0
 11
343.85293237903
 21
199.892693658835
 31
0.0
  0
LINE
  5
24E
330
1F
100
AcDbEntity
  8
1
  6
Continuous
 62
     4
100
AcDbLine
 10
342.86280737903
 20
200.892693658835
 30
0.0
 11
343.45688237903
 21
200.392693658835
 31
0.0
  0
LINE
  5
24F
330
1F
100
AcDbEntity
  8
1
  6
Continuous
 62
     4
100
AcDbLine
 10
342.26873237903
 20
201.142693658835
 30
0.0
 11
342.86280737903
 21
200.892693658835
 31
0.0
  0
LINE
  5
250
330
1F
100
AcDbEntity
  8
1
  6
Continuous
 62
     4
100
AcDbLine
 10
341.87268237903
 20
201.142693658835
 30
0.0
 11
342.26873237903
 21
201.142693658835
 31
0.0
  0
LINE
  5
251
330
1F
100
AcDbEntity
  8
1
  6
Continuous
 62
     4
100
AcDbLine
 10
341.27860737903
 20
200.892693658835
 30
0.0
 11
341.87268237903
 21
201.142693658835
 31
0.0
  0
LINE
  5
252
330
1F
100
AcDbEntity
  8
1
  6
Continuous
 62
     4
100
AcDbLine
 10
340.68453237903
 20
200.392693658835
 30
0.0
 11
341.27860737903
 21
200.892693658835
 31
0.0
  0
LINE
  5
253
330
1F
100
AcDbEntity
  8
1
  6
Continuous
 62
     4
100
AcDbLine
 10
340.28848237903
 20
199.892693658835
 30
0.0
 11
340.68453237903
 21
200.392693658835
 31
0.0
  0
LINE
  5
254
330
1F
100
AcDbEntity
  8
1
  6
Continuous
 62
     4
100
AcDbLine
 10
339.89243237903
 20
198.892693658835
 30
0.0
 11
340.28848237903
 21
199.892693658835
 31
0.0
  0
LINE
  5
255
330
1F
100
AcDbEntity
  8
1
  6
Continuous
 62
     4
100
AcDbLine
 10
339.69440737903
 20
197.392693658835
 30
0.0
 11
339.89243237903
 21
198.892693658835
 31
0.0
  0
LINE
  5
256
330
1F
100
AcDbEntity
  8
1
  6
Continuous
 62
     4
100
AcDbLine
 10
339.69440737903
 20
194.892693658835
 30
0.0
 11
339.69440737903
 21
197.392693658835
 31
0.0
  0
LINE
  5
257
330
1F
100
AcDbEntity
  8
1
  6
Continuous
 62
     4
100
AcDbLine
 10
339.89243237903
 20
193.392693658835
 30
0.0
 11
339.69440737903
 21
194.892693658835
 31
0.0
  0
LINE
  5
258
330
1F
100
AcDbEntity
  8
1
  6
Continuous
 62
     4
100
AcDbLine
 10
340.28848237903
 20
192.392693658835
 30
0.0
 11
339.89243237903
 21
193.392693658835
 31
0.0
  0
LINE
  5
259
330
1F
100
AcDbEntity
  8
1
  6
Continuous
 62
     4
100
AcDbLine
 10
340.68453237903
 20
191.892693658835
 30
0.0
 11
340.28848237903
 21
192.392693658835
 31
0.0
  0
LINE
  5
25A
330
1F
100
AcDbEntity
  8
1
  6
Continuous
 62
     4
100
AcDbLine
 10
341.27860737903
 20
191.392693658835
 30
0.0
 11
340.68453237903
 21
191.892693658835
 31
0.0
  0
LINE
  5
25B
330
1F
100
AcDbEntity
  8
1
  6
Continuous
 62
     4
100
AcDbLine
 10
341.87268237903
 20
191.142693658835
 30
0.0
 11
341.27860737903
 21
191.392693658835
 31
0.0
  0
LINE
  5
25C
330
1F
100
AcDbEntity
  8
1
  6
Continuous
 62
     4
100
AcDbLine
 10
342.26873237903
 20
191.142693658835
 30
0.0
 11
341.87268237903
 21
191.142693658835
 31
0.0
  0
LINE
  5
25D
330
1F
100
AcDbEntity
  8
1
  6
Continuous
 62
     4
100
AcDbLine
 10
342.86280737903
 20
191.392693658835
 30
0.0
 11
342.26873237903
 21
191.142693658835
 31
0.0
  0
LINE
  5
25E
330
1F
100
AcDbEntity
  8
1
  6
Continuous
 62
     4
100
AcDbLine
 10
343.45688237903
 20
191.892693658835
 30
0.0
 11
342.86280737903
 21
191.392693658835
 31
0.0
  0
LINE
  5
25F
330
1F
100
AcDbEntity
  8
1
  6
Continuous
 62
     4
100
AcDbLine
 10
343.85293237903
 20
192.392693658835
 30
0.0
 11
343.45688237903
 21
191.892693658835
 31
0.0
  0
LINE
  5
260
330
1F
100
AcDbEntity
  8
1
  6
Continuous
 62
     4
100
AcDbLine
 10
344.24898237903
 20
193.392693658835
 30
0.0
 11
343.85293237903
 21
192.392693658835
 31
0.0
  0
LINE
  5
261
330
1F
100
AcDbEntity
  8
1
  6
Continuous
 62
     4
100
AcDbLine
 10
344.44700737903
 20
194.892693658835
 30
0.0
 11
344.24898237903
 21
193.392693658835
 31
0.0
  0
LINE
  5
262
330
1F
100
AcDbEntity
  8
1
  6
Continuous
 62
     4
100
AcDbLine
 10
395.93350737903
 20
215.552693658835
 30
0.0
 11
398.1117823790301
 21
217.802693658835
 31
0.0
  0
LINE
  5
263
330
1F
100
AcDbEntity
  8
1
  6
Continuous
 62
     4
100
AcDbLine
 10
395.14140737903
 20
214.302693658835
 30
0.0
 11
395.93350737903
 21
215.552693658835
 31
0.0
  0
LINE
  5
264
330
1F
100
AcDbEntity
  8
1
  6
Continuous
 62
     4
100
AcDbLine
 10
394.74535737903
 20
213.302693658835
 30
0.0
 11
395.14140737903
 21
214.302693658835
 31
0.0
  0
LINE
  5
265
330
1F
100
AcDbEntity
  8
1
  6
Continuous
 62
     4
100
AcDbLine
 10
394.54733237903
 20
211.302693658835
 30
0.0
 11
394.74535737903
 21
213.302693658835
 31
0.0
  0
LINE
  5
266
330
1F
100
AcDbEntity
  8
1
  6
Continuous
 62
     4
100
AcDbLine
 10
394.54733237903
 20
210.302693658835
 30
0.0
 11
394.54733237903
 21
211.302693658835
 31
0.0
  0
LINE
  5
267
330
1F
100
AcDbEntity
  8
1
  6
Continuous
 62
     4
100
AcDbLine
 10
394.74535737903
 20
209.302693658835
 30
0.0
 11
394.54733237903
 21
210.302693658835
 31
0.0
  0
LINE
  5
268
330
1F
100
AcDbEntity
  8
1
  6
Continuous
 62
     4
100
AcDbLine
 10
395.14140737903
 20
208.552693658835
 30
0.0
 11
394.74535737903
 21
209.302693658835
 31
0.0
  0
LINE
  5
269
330
1F
100
AcDbEntity
  8
1
  6
Continuous
 62
     4
100
AcDbLine
 10
395.73548237903
 20
208.052693658835
 30
0.0
 11
395.14140737903
 21
208.552693658835
 31
0.0
  0
LINE
  5
26A
330
1F
100
AcDbEntity
  8
1
  6
Continuous
 62
     4
100
AcDbLine
 10
396.32955737903
 20
207.802693658835
 30
0.0
 11
395.73548237903
 21
208.052693658835
 31
0.0
  0
LINE
  5
26B
330
1F
100
AcDbEntity
  8
1
  6
Continuous
 62
     4
100
AcDbLine
 10
397.51770737903
 20
207.802693658835
 30
0.0
 11
396.32955737903
 21
207.802693658835
 31
0.0
  0
LINE
  5
26C
330
1F
100
AcDbEntity
  8
1
  6
Continuous
 62
     4
100
AcDbLine
 10
398.1117823790301
 20
208.052693658835
 30
0.0
 11
397.51770737903
 21
207.802693658835
 31
0.0
  0
LINE
  5
26D
330
1F
100
AcDbEntity
  8
1
  6
Continuous
 62
     4
100
AcDbLine
 10
398.70585737903
 20
208.552693658835
 30
0.0
 11
398.1117823790301
 21
208.052693658835
 31
0.0
  0
LINE
  5
26E
330
1F
100
AcDbEntity
  8
1
  6
Continuous
 62
     4
100
AcDbLine
 10
399.10190737903
 20
209.302693658835
 30
0.0
 11
398.70585737903
 21
208.552693658835
 31
0.0
  0
LINE
  5
26F
330
1F
100
AcDbEntity
  8
1
  6
Continuous
 62
     4
100
AcDbLine
 10
399.29993237903
 20
210.302693658835
 30
0.0
 11
399.10190737903
 21
209.302693658835
 31
0.0
  0
LINE
  5
270
330
1F
100
AcDbEntity
  8
1
  6
Continuous
 62
     4
100
AcDbLine
 10
399.29993237903
 20
211.302693658835
 30
0.0
 11
399.29993237903
 21
210.302693658835
 31
0.0
  0
LINE
  5
271
330
1F
100
AcDbEntity
  8
1
  6
Continuous
 62
     4
100
AcDbLine
 10
399.10190737903
 20
212.302693658835
 30
0.0
 11
399.29993237903
 21
211.302693658835
 31
0.0
  0
LINE
  5
272
330
1F
100
AcDbEntity
  8
1
  6
Continuous
 62
     4
100
AcDbLine
 10
398.70585737903
 20
213.052693658835
 30
0.0
 11
399.10190737903
 21
212.302693658835
 31
0.0
  0
LINE
  5
273
330
1F
100
AcDbEntity
  8
1
  6
Continuous
 62
     4
100
AcDbLine
 10
398.1117823790301
 20
213.552693658835
 30
0.0
 11
398.70585737903
 21
213.052693658835
 31
0.0
  0
LINE
  5
274
330
1F
100
AcDbEntity
  8
1
  6
Continuous
 62
     4
100
AcDbLine
 10
397.51770737903
 20
213.802693658835
 30
0.0
 11
398.1117823790301
 21
213.552693658835
 31
0.0
  0
LINE
  5
275
330
1F
100
AcDbEntity
  8
1
  6
Continuous
 62
     4
100
AcDbLine
 10
396.32955737903
 20
213.802693658835
 30
0.0
 11
397.51770737903
 21
213.802693658835
 31
0.0
  0
LINE
  5
276
330
1F
100
AcDbEntity
  8
1
  6
Continuous
 62
     4
100
AcDbLine
 10
395.73548237903
 20
213.552693658835
 30
0.0
 11
396.32955737903
 21
213.802693658835
 31
0.0
  0
LINE
  5
277
330
1F
100
AcDbEntity
  8
1
  6
Continuous
 62
     4
100
AcDbLine
 10
395.14140737903
 20
213.052693658835
 30
0.0
 11
395.73548237903
 21
213.552693658835
 31
0.0
  0
LINE
  5
278
330
1F
100
AcDbEntity
  8
1
  6
Continuous
 62
     4
100
AcDbLine
 10
394.74535737903
 20
212.302693658835
 30
0.0
 11
395.14140737903
 21
213.052693658835
 31
0.0
  0
LINE
  5
279
330
1F
100
AcDbEntity
  8
1
  6
Continuous
 62
     4
100
AcDbLine
 10
394.54733237903
 20
211.302693658835
 30
0.0
 11
394.74535737903
 21
212.302693658835
 31
0.0
  0
LINE
  5
27A
330
1F
100
AcDbEntity
  8
1
  6
Continuous
 62
     4
100
AcDbLine
 10
389.7947323790301
 20
208.802693658835
 30
0.0
 11
388.01250737903
 21
207.802693658835
 31
0.0
  0
LINE
  5
27B
330
1F
100
AcDbEntity
  8
1
  6
Continuous
 62
     4
100
AcDbLine
 10
391.18090737903
 20
210.302693658835
 30
0.0
 11
389.7947323790301
 21
208.802693658835
 31
0.0
  0
LINE
  5
27C
330
1F
100
AcDbEntity
  8
1
  6
Continuous
 62
     4
100
AcDbLine
 10
391.7749823790301
 20
211.302693658835
 30
0.0
 11
391.18090737903
 21
210.302693658835
 31
0.0
  0
LINE
  5
27D
330
1F
100
AcDbEntity
  8
1
  6
Continuous
 62
     4
100
AcDbLine
 10
391.97300737903
 20
212.302693658835
 30
0.0
 11
391.7749823790301
 21
211.302693658835
 31
0.0
  0
LINE
  5
27E
330
1F
100
AcDbEntity
  8
1
  6
Continuous
 62
     4
100
AcDbLine
 10
392.17103237903
 20
213.552693658835
 30
0.0
 11
391.97300737903
 21
212.302693658835
 31
0.0
  0
LINE
  5
27F
330
1F
100
AcDbEntity
  8
1
  6
Continuous
 62
     4
100
AcDbLine
 10
392.17103237903
 20
215.302693658835
 30
0.0
 11
392.17103237903
 21
213.552693658835
 31
0.0
  0
LINE
  5
280
330
1F
100
AcDbEntity
  8
1
  6
Continuous
 62
     4
100
AcDbLine
 10
391.97300737903
 20
216.302693658835
 30
0.0
 11
392.17103237903
 21
215.302693658835
 31
0.0
  0
LINE
  5
281
330
1F
100
AcDbEntity
  8
1
  6
Continuous
 62
     4
100
AcDbLine
 10
391.57695737903
 20
217.052693658835
 30
0.0
 11
391.97300737903
 21
216.302693658835
 31
0.0
  0
LINE
  5
282
330
1F
100
AcDbEntity
  8
1
  6
Continuous
 62
     4
100
AcDbLine
 10
390.9828823790301
 20
217.552693658835
 30
0.0
 11
391.57695737903
 21
217.052693658835
 31
0.0
  0
LINE
  5
283
330
1F
100
AcDbEntity
  8
1
  6
Continuous
 62
     4
100
AcDbLine
 10
390.38880737903
 20
217.802693658835
 30
0.0
 11
390.9828823790301
 21
217.552693658835
 31
0.0
  0
LINE
  5
284
330
1F
100
AcDbEntity
  8
1
  6
Continuous
 62
     4
100
AcDbLine
 10
389.20065737903
 20
217.802693658835
 30
0.0
 11
390.38880737903
 21
217.802693658835
 31
0.0
  0
LINE
  5
285
330
1F
100
AcDbEntity
  8
1
  6
Continuous
 62
     4
100
AcDbLine
 10
388.60658237903
 20
217.552693658835
 30
0.0
 11
389.20065737903
 21
217.802693658835
 31
0.0
  0
LINE
  5
286
330
1F
100
AcDbEntity
  8
1
  6
Continuous
 62
     4
100
AcDbLine
 10
388.01250737903
 20
217.052693658835
 30
0.0
 11
388.60658237903
 21
217.552693658835
 31
0.0
  0
LINE
  5
287
330
1F
100
AcDbEntity
  8
1
  6
Continuous
 62
     4
100
AcDbLine
 10
387.61645737903
 20
216.302693658835
 30
0.0
 11
388.01250737903
 21
217.052693658835
 31
0.0
  0
LINE
  5
288
330
1F
100
AcDbEntity
  8
1
  6
Continuous
 62
     4
100
AcDbLine
 10
387.41843237903
 20
215.302693658835
 30
0.0
 11
387.61645737903
 21
216.302693658835
 31
0.0
  0
LINE
  5
289
330
1F
100
AcDbEntity
  8
1
  6
Continuous
 62
     4
100
AcDbLine
 10
387.41843237903
 20
214.802693658835
 30
0.0
 11
387.41843237903
 21
215.302693658835
 31
0.0
  0
LINE
  5
28A
330
1F
100
AcDbEntity
  8
1
  6
Continuous
 62
     4
100
AcDbLine
 10
387.61645737903
 20
213.802693658835
 30
0.0
 11
387.41843237903
 21
214.802693658835
 31
0.0
  0
LINE
  5
28B
330
1F
100
AcDbEntity
  8
1
  6
Continuous
 62
     4
100
AcDbLine
 10
388.01250737903
 20
213.052693658835
 30
0.0
 11
387.61645737903
 21
213.802693658835
 31
0.0
  0
LINE
  5
28C
330
1F
100
AcDbEntity
  8
1
  6
Continuous
 62
     4
100
AcDbLine
 10
388.60658237903
 20
212.552693658835
 30
0.0
 11
388.01250737903
 21
213.052693658835
 31
0.0
  0
LINE
  5
28D
330
1F
100
AcDbEntity
  8
1
  6
Continuous
 62
     4
100
AcDbLine
 10
389.20065737903
 20
212.302693658835
 30
0.0
 11
388.60658237903
 21
212.552693658835
 31
0.0
  0
LINE
  5
28E
330
1F
100
AcDbEntity
  8
1
  6
Continuous
 62
     4
100
AcDbLine
 10
391.97300737903
 20
212.302693658835
 30
0.0
 11
389.20065737903
 21
212.302693658835
 31
0.0
  0
LINE
  5
28F
330
1F
100
AcDbEntity
  8
1
  6
Continuous
 62
     4
100
AcDbLine
 10
383.25990737903
 20
207.802693658835
 30
0.0
 11
380.28953237903
 21
207.802693658835
 31
0.0
  0
LINE
  5
290
330
1F
100
AcDbEntity
  8
1
  6
Continuous
 62
     4
100
AcDbLine
 10
383.85398237903
 20
208.052693658835
 30
0.0
 11
383.25990737903
 21
207.802693658835
 31
0.0
  0
LINE
  5
291
330
1F
100
AcDbEntity
  8
1
  6
Continuous
 62
     4
100
AcDbLine
 10
384.44805737903
 20
208.552693658835
 30
0.0
 11
383.85398237903
 21
208.052693658835
 31
0.0
  0
LINE
  5
292
330
1F
100
AcDbEntity
  8
1
  6
Continuous
 62
     4
100
AcDbLine
 10
384.84410737903
 20
209.302693658835
 30
0.0
 11
384.44805737903
 21
208.552693658835
 31
0.0
  0
LINE
  5
293
330
1F
100
AcDbEntity
  8
1
  6
Continuous
 62
     4
100
AcDbLine
 10
385.04213237903
 20
210.302693658835
 30
0.0
 11
384.84410737903
 21
209.302693658835
 31
0.0
  0
LINE
  5
294
330
1F
100
AcDbEntity
  8
1
  6
Continuous
 62
     4
100
AcDbLine
 10
385.04213237903
 20
211.802693658835
 30
0.0
 11
385.04213237903
 21
210.302693658835
 31
0.0
  0
LINE
  5
295
330
1F
100
AcDbEntity
  8
1
  6
Continuous
 62
     4
100
AcDbLine
 10
384.84410737903
 20
212.802693658835
 30
0.0
 11
385.04213237903
 21
211.802693658835
 31
0.0
  0
LINE
  5
296
330
1F
100
AcDbEntity
  8
1
  6
Continuous
 62
     4
100
AcDbLine
 10
384.25003237903
 20
213.552693658835
 30
0.0
 11
384.84410737903
 21
212.802693658835
 31
0.0
  0
LINE
  5
297
330
1F
100
AcDbEntity
  8
1
  6
Continuous
 62
     4
100
AcDbLine
 10
383.25990737903
 20
213.802693658835
 30
0.0
 11
384.25003237903
 21
213.552693658835
 31
0.0
  0
LINE
  5
298
330
1F
100
AcDbEntity
  8
1
  6
Continuous
 62
     4
100
AcDbLine
 10
380.28953237903
 20
213.802693658835
 30
0.0
 11
383.25990737903
 21
213.802693658835
 31
0.0
  0
LINE
  5
299
330
1F
100
AcDbEntity
  8
1
  6
Continuous
 62
     4
100
AcDbLine
 10
380.28953237903
 20
217.802693658835
 30
0.0
 11
380.28953237903
 21
213.802693658835
 31
0.0
  0
LINE
  5
29A
330
1F
100
AcDbEntity
  8
1
  6
Continuous
 62
     4
100
AcDbLine
 10
384.64608237903
 20
217.802693658835
 30
0.0
 11
380.28953237903
 21
217.802693658835
 31
0.0
  0
LINE
  5
29B
330
1F
100
AcDbEntity
  8
1
  6
Continuous
 62
     4
100
AcDbLine
 10
350.78380737903
 20
215.552693658835
 30
0.0
 11
352.9620823790301
 21
217.802693658835
 31
0.0
  0
LINE
  5
29C
330
1F
100
AcDbEntity
  8
1
  6
Continuous
 62
     4
100
AcDbLine
 10
349.99170737903
 20
214.302693658835
 30
0.0
 11
350.78380737903
 21
215.552693658835
 31
0.0
  0
LINE
  5
29D
330
1F
100
AcDbEntity
  8
1
  6
Continuous
 62
     4
100
AcDbLine
 10
349.59565737903
 20
213.302693658835
 30
0.0
 11
349.99170737903
 21
214.302693658835
 31
0.0
  0
LINE
  5
29E
330
1F
100
AcDbEntity
  8
1
  6
Continuous
 62
     4
100
AcDbLine
 10
349.39763237903
 20
211.302693658835
 30
0.0
 11
349.59565737903
 21
213.302693658835
 31
0.0
  0
LINE
  5
29F
330
1F
100
AcDbEntity
  8
1
  6
Continuous
 62
     4
100
AcDbLine
 10
349.39763237903
 20
210.302693658835
 30
0.0
 11
349.39763237903
 21
211.302693658835
 31
0.0
  0
LINE
  5
2A0
330
1F
100
AcDbEntity
  8
1
  6
Continuous
 62
     4
100
AcDbLine
 10
349.59565737903
 20
209.302693658835
 30
0.0
 11
349.39763237903
 21
210.302693658835
 31
0.0
  0
LINE
  5
2A1
330
1F
100
AcDbEntity
  8
1
  6
Continuous
 62
     4
100
AcDbLine
 10
349.99170737903
 20
208.552693658835
 30
0.0
 11
349.59565737903
 21
209.302693658835
 31
0.0
  0
LINE
  5
2A2
330
1F
100
AcDbEntity
  8
1
  6
Continuous
 62
     4
100
AcDbLine
 10
350.58578237903
 20
208.052693658835
 30
0.0
 11
349.99170737903
 21
208.552693658835
 31
0.0
  0
LINE
  5
2A3
330
1F
100
AcDbEntity
  8
1
  6
Continuous
 62
     4
100
AcDbLine
 10
351.17985737903
 20
207.802693658835
 30
0.0
 11
350.58578237903
 21
208.052693658835
 31
0.0
  0
LINE
  5
2A4
330
1F
100
AcDbEntity
  8
1
  6
Continuous
 62
     4
100
AcDbLine
 10
352.36800737903
 20
207.802693658835
 30
0.0
 11
351.17985737903
 21
207.802693658835
 31
0.0
  0
LINE
  5
2A5
330
1F
100
AcDbEntity
  8
1
  6
Continuous
 62
     4
100
AcDbLine
 10
352.9620823790301
 20
208.052693658835
 30
0.0
 11
352.36800737903
 21
207.802693658835
 31
0.0
  0
LINE
  5
2A6
330
1F
100
AcDbEntity
  8
1
  6
Continuous
 62
     4
100
AcDbLine
 10
353.55615737903
 20
208.552693658835
 30
0.0
 11
352.9620823790301
 21
208.052693658835
 31
0.0
  0
LINE
  5
2A7
330
1F
100
AcDbEntity
  8
1
  6
Continuous
 62
     4
100
AcDbLine
 10
353.95220737903
 20
209.302693658835
 30
0.0
 11
353.55615737903
 21
208.552693658835
 31
0.0
  0
LINE
  5
2A8
330
1F
100
AcDbEntity
  8
1
  6
Continuous
 62
     4
100
AcDbLine
 10
354.15023237903
 20
210.302693658835
 30
0.0
 11
353.95220737903
 21
209.302693658835
 31
0.0
  0
LINE
  5
2A9
330
1F
100
AcDbEntity
  8
1
  6
Continuous
 62
     4
100
AcDbLine
 10
354.15023237903
 20
211.302693658835
 30
0.0
 11
354.15023237903
 21
210.302693658835
 31
0.0
  0
LINE
  5
2AA
330
1F
100
AcDbEntity
  8
1
  6
Continuous
 62
     4
100
AcDbLine
 10
353.95220737903
 20
212.302693658835
 30
0.0
 11
354.15023237903
 21
211.302693658835
 31
0.0
  0
LINE
  5
2AB
330
1F
100
AcDbEntity
  8
1
  6
Continuous
 62
     4
100
AcDbLine
 10
353.55615737903
 20
213.052693658835
 30
0.0
 11
353.95220737903
 21
212.302693658835
 31
0.0
  0
LINE
  5
2AC
330
1F
100
AcDbEntity
  8
1
  6
Continuous
 62
     4
100
AcDbLine
 10
352.9620823790301
 20
213.552693658835
 30
0.0
 11
353.55615737903
 21
213.052693658835
 31
0.0
  0
LINE
  5
2AD
330
1F
100
AcDbEntity
  8
1
  6
Continuous
 62
     4
100
AcDbLine
 10
352.36800737903
 20
213.802693658835
 30
0.0
 11
352.9620823790301
 21
213.552693658835
 31
0.0
  0
LINE
  5
2AE
330
1F
100
AcDbEntity
  8
1
  6
Continuous
 62
     4
100
AcDbLine
 10
351.17985737903
 20
213.802693658835
 30
0.0
 11
352.36800737903
 21
213.802693658835
 31
0.0
  0
LINE
  5
2AF
330
1F
100
AcDbEntity
  8
1
  6
Continuous
 62
     4
100
AcDbLine
 10
350.58578237903
 20
213.552693658835
 30
0.0
 11
351.17985737903
 21
213.802693658835
 31
0.0
  0
LINE
  5
2B0
330
1F
100
AcDbEntity
  8
1
  6
Continuous
 62
     4
100
AcDbLine
 10
349.99170737903
 20
213.052693658835
 30
0.0
 11
350.58578237903
 21
213.552693658835
 31
0.0
  0
LINE
  5
2B1
330
1F
100
AcDbEntity
  8
1
  6
Continuous
 62
     4
100
AcDbLine
 10
349.59565737903
 20
212.302693658835
 30
0.0
 11
349.99170737903
 21
213.052693658835
 31
0.0
  0
LINE
  5
2B2
330
1F
100
AcDbEntity
  8
1
  6
Continuous
 62
     4
100
AcDbLine
 10
349.39763237903
 20
211.302693658835
 30
0.0
 11
349.59565737903
 21
212.302693658835
 31
0.0
  0
LINE
  5
2B3
330
1F
100
AcDbEntity
  8
1
  6
Continuous
 62
     4
100
AcDbLine
 10
347.21935737903
 20
208.302693658835
 30
0.0
 11
347.21935737903
 21
208.052693658835
 31
0.0
  0
LINE
  5
2B4
330
1F
100
AcDbEntity
  8
1
  6
Continuous
 62
     4
100
AcDbLine
 10
347.02133237903
 20
208.302693658835
 30
0.0
 11
347.21935737903
 21
208.302693658835
 31
0.0
  0
LINE
  5
2B5
330
1F
100
AcDbEntity
  8
1
  6
Continuous
 62
     4
100
AcDbLine
 10
347.02133237903
 20
208.052693658835
 30
0.0
 11
347.02133237903
 21
208.302693658835
 31
0.0
  0
LINE
  5
2B6
330
1F
100
AcDbEntity
  8
1
  6
Continuous
 62
     4
100
AcDbLine
 10
347.21935737903
 20
208.052693658835
 30
0.0
 11
347.02133237903
 21
208.052693658835
 31
0.0
  0
LINE
  5
2B7
330
1F
100
AcDbEntity
  8
1
  6
Continuous
 62
     4
100
AcDbLine
 10
347.41738237903
 20
208.552693658835
 30
0.0
 11
347.41738237903
 21
207.802693658835
 31
0.0
  0
LINE
  5
2B8
330
1F
100
AcDbEntity
  8
1
  6
Continuous
 62
     4
100
AcDbLine
 10
346.82330737903
 20
208.552693658835
 30
0.0
 11
347.41738237903
 21
208.552693658835
 31
0.0
  0
LINE
  5
2B9
330
1F
100
AcDbEntity
  8
1
  6
Continuous
 62
     4
100
AcDbLine
 10
346.82330737903
 20
207.802693658835
 30
0.0
 11
346.82330737903
 21
208.552693658835
 31
0.0
  0
LINE
  5
2BA
330
1F
100
AcDbEntity
  8
1
  6
Continuous
 62
     4
100
AcDbLine
 10
347.41738237903
 20
207.802693658835
 30
0.0
 11
346.82330737903
 21
207.802693658835
 31
0.0
  0
LINE
  5
2BB
330
1F
100
AcDbEntity
  8
1
  6
Continuous
 62
     4
100
AcDbLine
 10
344.44700737903
 20
214.052693658835
 30
0.0
 11
344.44700737903
 21
211.552693658835
 31
0.0
  0
LINE
  5
2BC
330
1F
100
AcDbEntity
  8
1
  6
Continuous
 62
     4
100
AcDbLine
 10
344.24898237903
 20
215.552693658835
 30
0.0
 11
344.44700737903
 21
214.052693658835
 31
0.0
  0
LINE
  5
2BD
330
1F
100
AcDbEntity
  8
1
  6
Continuous
 62
     4
100
AcDbLine
 10
343.85293237903
 20
216.552693658835
 30
0.0
 11
344.24898237903
 21
215.552693658835
 31
0.0
  0
LINE
  5
2BE
330
1F
100
AcDbEntity
  8
1
  6
Continuous
 62
     4
100
AcDbLine
 10
343.45688237903
 20
217.052693658835
 30
0.0
 11
343.85293237903
 21
216.552693658835
 31
0.0
  0
LINE
  5
2BF
330
1F
100
AcDbEntity
  8
1
  6
Continuous
 62
     4
100
AcDbLine
 10
342.86280737903
 20
217.552693658835
 30
0.0
 11
343.45688237903
 21
217.052693658835
 31
0.0
  0
LINE
  5
2C0
330
1F
100
AcDbEntity
  8
1
  6
Continuous
 62
     4
100
AcDbLine
 10
342.26873237903
 20
217.802693658835
 30
0.0
 11
342.86280737903
 21
217.552693658835
 31
0.0
  0
LINE
  5
2C1
330
1F
100
AcDbEntity
  8
1
  6
Continuous
 62
     4
100
AcDbLine
 10
341.87268237903
 20
217.802693658835
 30
0.0
 11
342.26873237903
 21
217.802693658835
 31
0.0
  0
LINE
  5
2C2
330
1F
100
AcDbEntity
  8
1
  6
Continuous
 62
     4
100
AcDbLine
 10
341.27860737903
 20
217.552693658835
 30
0.0
 11
341.87268237903
 21
217.802693658835
 31
0.0
  0
LINE
  5
2C3
330
1F
100
AcDbEntity
  8
1
  6
Continuous
 62
     4
100
AcDbLine
 10
340.68453237903
 20
217.052693658835
 30
0.0
 11
341.27860737903
 21
217.552693658835
 31
0.0
  0
LINE
  5
2C4
330
1F
100
AcDbEntity
  8
1
  6
Continuous
 62
     4
100
AcDbLine
 10
340.28848237903
 20
216.552693658835
 30
0.0
 11
340.68453237903
 21
217.052693658835
 31
0.0
  0
LINE
  5
2C5
330
1F
100
AcDbEntity
  8
1
  6
Continuous
 62
     4
100
AcDbLine
 10
339.89243237903
 20
215.552693658835
 30
0.0
 11
340.28848237903
 21
216.552693658835
 31
0.0
  0
LINE
  5
2C6
330
1F
100
AcDbEntity
  8
1
  6
Continuous
 62
     4
100
AcDbLine
 10
339.69440737903
 20
214.052693658835
 30
0.0
 11
339.89243237903
 21
215.552693658835
 31
0.0
  0
LINE
  5
2C7
330
1F
100
AcDbEntity
  8
1
  6
Continuous
 62
     4
100
AcDbLine
 10
339.69440737903
 20
211.552693658835
 30
0.0
 11
339.69440737903
 21
214.052693658835
 31
0.0
  0
LINE
  5
2C8
330
1F
100
AcDbEntity
  8
1
  6
Continuous
 62
     4
100
AcDbLine
 10
339.89243237903
 20
210.052693658835
 30
0.0
 11
339.69440737903
 21
211.552693658835
 31
0.0
  0
LINE
  5
2C9
330
1F
100
AcDbEntity
  8
1
  6
Continuous
 62
     4
100
AcDbLine
 10
340.28848237903
 20
209.052693658835
 30
0.0
 11
339.89243237903
 21
210.052693658835
 31
0.0
  0
LINE
  5
2CA
330
1F
100
AcDbEntity
  8
1
  6
Continuous
 62
     4
100
AcDbLine
 10
340.68453237903
 20
208.552693658835
 30
0.0
 11
340.28848237903
 21
209.052693658835
 31
0.0
  0
LINE
  5
2CB
330
1F
100
AcDbEntity
  8
1
  6
Continuous
 62
     4
100
AcDbLine
 10
341.27860737903
 20
208.052693658835
 30
0.0
 11
340.68453237903
 21
208.552693658835
 31
0.0
  0
LINE
  5
2CC
330
1F
100
AcDbEntity
  8
1
  6
Continuous
 62
     4
100
AcDbLine
 10
341.87268237903
 20
207.802693658835
 30
0.0
 11
341.27860737903
 21
208.052693658835
 31
0.0
  0
LINE
  5
2CD
330
1F
100
AcDbEntity
  8
1
  6
Continuous
 62
     4
100
AcDbLine
 10
342.26873237903
 20
207.802693658835
 30
0.0
 11
341.87268237903
 21
207.802693658835
 31
0.0
  0
LINE
  5
2CE
330
1F
100
AcDbEntity
  8
1
  6
Continuous
 62
     4
100
AcDbLine
 10
342.86280737903
 20
208.052693658835
 30
0.0
 11
342.26873237903
 21
207.802693658835
 31
0.0
  0
LINE
  5
2CF
330
1F
100
AcDbEntity
  8
1
  6
Continuous
 62
     4
100
AcDbLine
 10
343.45688237903
 20
208.552693658835
 30
0.0
 11
342.86280737903
 21
208.052693658835
 31
0.0
  0
LINE
  5
2D0
330
1F
100
AcDbEntity
  8
1
  6
Continuous
 62
     4
100
AcDbLine
 10
343.85293237903
 20
209.052693658835
 30
0.0
 11
343.45688237903
 21
208.552693658835
 31
0.0
  0
LINE
  5
2D1
330
1F
100
AcDbEntity
  8
1
  6
Continuous
 62
     4
100
AcDbLine
 10
344.24898237903
 20
210.052693658835
 30
0.0
 11
343.85293237903
 21
209.052693658835
 31
0.0
  0
LINE
  5
2D2
330
1F
100
AcDbEntity
  8
1
  6
Continuous
 62
     4
100
AcDbLine
 10
344.44700737903
 20
211.552693658835
 30
0.0
 11
344.24898237903
 21
210.052693658835
 31
0.0
  0
LINE
  5
2D3
330
1F
100
AcDbEntity
  8
1
  6
Continuous
 62
     4
100
AcDbLine
 10
395.93350737903
 20
232.212693658835
 30
0.0
 11
398.1117823790301
 21
234.462693658835
 31
0.0
  0
LINE
  5
2D4
330
1F
100
AcDbEntity
  8
1
  6
Continuous
 62
     4
100
AcDbLine
 10
395.14140737903
 20
230.962693658835
 30
0.0
 11
395.93350737903
 21
232.212693658835
 31
0.0
  0
LINE
  5
2D5
330
1F
100
AcDbEntity
  8
1
  6
Continuous
 62
     4
100
AcDbLine
 10
394.74535737903
 20
229.962693658835
 30
0.0
 11
395.14140737903
 21
230.962693658835
 31
0.0
  0
LINE
  5
2D6
330
1F
100
AcDbEntity
  8
1
  6
Continuous
 62
     4
100
AcDbLine
 10
394.54733237903
 20
227.962693658835
 30
0.0
 11
394.74535737903
 21
229.962693658835
 31
0.0
  0
LINE
  5
2D7
330
1F
100
AcDbEntity
  8
1
  6
Continuous
 62
     4
100
AcDbLine
 10
394.54733237903
 20
226.962693658835
 30
0.0
 11
394.54733237903
 21
227.962693658835
 31
0.0
  0
LINE
  5
2D8
330
1F
100
AcDbEntity
  8
1
  6
Continuous
 62
     4
100
AcDbLine
 10
394.74535737903
 20
225.962693658835
 30
0.0
 11
394.54733237903
 21
226.962693658835
 31
0.0
  0
LINE
  5
2D9
330
1F
100
AcDbEntity
  8
1
  6
Continuous
 62
     4
100
AcDbLine
 10
395.14140737903
 20
225.212693658835
 30
0.0
 11
394.74535737903
 21
225.962693658835
 31
0.0
  0
LINE
  5
2DA
330
1F
100
AcDbEntity
  8
1
  6
Continuous
 62
     4
100
AcDbLine
 10
395.73548237903
 20
224.712693658835
 30
0.0
 11
395.14140737903
 21
225.212693658835
 31
0.0
  0
LINE
  5
2DB
330
1F
100
AcDbEntity
  8
1
  6
Continuous
 62
     4
100
AcDbLine
 10
396.32955737903
 20
224.462693658835
 30
0.0
 11
395.73548237903
 21
224.712693658835
 31
0.0
  0
LINE
  5
2DC
330
1F
100
AcDbEntity
  8
1
  6
Continuous
 62
     4
100
AcDbLine
 10
397.51770737903
 20
224.462693658835
 30
0.0
 11
396.32955737903
 21
224.462693658835
 31
0.0
  0
LINE
  5
2DD
330
1F
100
AcDbEntity
  8
1
  6
Continuous
 62
     4
100
AcDbLine
 10
398.1117823790301
 20
224.712693658835
 30
0.0
 11
397.51770737903
 21
224.462693658835
 31
0.0
  0
LINE
  5
2DE
330
1F
100
AcDbEntity
  8
1
  6
Continuous
 62
     4
100
AcDbLine
 10
398.70585737903
 20
225.212693658835
 30
0.0
 11
398.1117823790301
 21
224.712693658835
 31
0.0
  0
LINE
  5
2DF
330
1F
100
AcDbEntity
  8
1
  6
Continuous
 62
     4
100
AcDbLine
 10
399.10190737903
 20
225.962693658835
 30
0.0
 11
398.70585737903
 21
225.212693658835
 31
0.0
  0
LINE
  5
2E0
330
1F
100
AcDbEntity
  8
1
  6
Continuous
 62
     4
100
AcDbLine
 10
399.29993237903
 20
226.962693658835
 30
0.0
 11
399.10190737903
 21
225.962693658835
 31
0.0
  0
LINE
  5
2E1
330
1F
100
AcDbEntity
  8
1
  6
Continuous
 62
     4
100
AcDbLine
 10
399.29993237903
 20
227.962693658835
 30
0.0
 11
399.29993237903
 21
226.962693658835
 31
0.0
  0
LINE
  5
2E2
330
1F
100
AcDbEntity
  8
1
  6
Continuous
 62
     4
100
AcDbLine
 10
399.10190737903
 20
228.962693658835
 30
0.0
 11
399.29993237903
 21
227.962693658835
 31
0.0
  0
LINE
  5
2E3
330
1F
100
AcDbEntity
  8
1
  6
Continuous
 62
     4
100
AcDbLine
 10
398.70585737903
 20
229.712693658835
 30
0.0
 11
399.10190737903
 21
228.962693658835
 31
0.0
  0
LINE
  5
2E4
330
1F
100
AcDbEntity
  8
1
  6
Continuous
 62
     4
100
AcDbLine
 10
398.1117823790301
 20
230.212693658835
 30
0.0
 11
398.70585737903
 21
229.712693658835
 31
0.0
  0
LINE
  5
2E5
330
1F
100
AcDbEntity
  8
1
  6
Continuous
 62
     4
100
AcDbLine
 10
397.51770737903
 20
230.462693658835
 30
0.0
 11
398.1117823790301
 21
230.212693658835
 31
0.0
  0
LINE
  5
2E6
330
1F
100
AcDbEntity
  8
1
  6
Continuous
 62
     4
100
AcDbLine
 10
396.32955737903
 20
230.462693658835
 30
0.0
 11
397.51770737903
 21
230.462693658835
 31
0.0
  0
LINE
  5
2E7
330
1F
100
AcDbEntity
  8
1
  6
Continuous
 62
     4
100
AcDbLine
 10
395.73548237903
 20
230.212693658835
 30
0.0
 11
396.32955737903
 21
230.462693658835
 31
0.0
  0
LINE
  5
2E8
330
1F
100
AcDbEntity
  8
1
  6
Continuous
 62
     4
100
AcDbLine
 10
395.14140737903
 20
229.712693658835
 30
0.0
 11
395.73548237903
 21
230.212693658835
 31
0.0
  0
LINE
  5
2E9
330
1F
100
AcDbEntity
  8
1
  6
Continuous
 62
     4
100
AcDbLine
 10
394.74535737903
 20
228.962693658835
 30
0.0
 11
395.14140737903
 21
229.712693658835
 31
0.0
  0
LINE
  5
2EA
330
1F
100
AcDbEntity
  8
1
  6
Continuous
 62
     4
100
AcDbLine
 10
394.54733237903
 20
227.962693658835
 30
0.0
 11
394.74535737903
 21
228.962693658835
 31
0.0
  0
LINE
  5
2EB
330
1F
100
AcDbEntity
  8
1
  6
Continuous
 62
     4
100
AcDbLine
 10
389.7947323790301
 20
225.462693658835
 30
0.0
 11
388.01250737903
 21
224.462693658835
 31
0.0
  0
LINE
  5
2EC
330
1F
100
AcDbEntity
  8
1
  6
Continuous
 62
     4
100
AcDbLine
 10
391.18090737903
 20
226.962693658835
 30
0.0
 11
389.7947323790301
 21
225.462693658835
 31
0.0
  0
LINE
  5
2ED
330
1F
100
AcDbEntity
  8
1
  6
Continuous
 62
     4
100
AcDbLine
 10
391.7749823790301
 20
227.962693658835
 30
0.0
 11
391.18090737903
 21
226.962693658835
 31
0.0
  0
LINE
  5
2EE
330
1F
100
AcDbEntity
  8
1
  6
Continuous
 62
     4
100
AcDbLine
 10
391.97300737903
 20
228.962693658835
 30
0.0
 11
391.7749823790301
 21
227.962693658835
 31
0.0
  0
LINE
  5
2EF
330
1F
100
AcDbEntity
  8
1
  6
Continuous
 62
     4
100
AcDbLine
 10
392.17103237903
 20
230.212693658835
 30
0.0
 11
391.97300737903
 21
228.962693658835
 31
0.0
  0
LINE
  5
2F0
330
1F
100
AcDbEntity
  8
1
  6
Continuous
 62
     4
100
AcDbLine
 10
392.17103237903
 20
231.962693658835
 30
0.0
 11
392.17103237903
 21
230.212693658835
 31
0.0
  0
LINE
  5
2F1
330
1F
100
AcDbEntity
  8
1
  6
Continuous
 62
     4
100
AcDbLine
 10
391.97300737903
 20
232.962693658835
 30
0.0
 11
392.17103237903
 21
231.962693658835
 31
0.0
  0
LINE
  5
2F2
330
1F
100
AcDbEntity
  8
1
  6
Continuous
 62
     4
100
AcDbLine
 10
391.57695737903
 20
233.712693658835
 30
0.0
 11
391.97300737903
 21
232.962693658835
 31
0.0
  0
LINE
  5
2F3
330
1F
100
AcDbEntity
  8
1
  6
Continuous
 62
     4
100
AcDbLine
 10
390.9828823790301
 20
234.212693658835
 30
0.0
 11
391.57695737903
 21
233.712693658835
 31
0.0
  0
LINE
  5
2F4
330
1F
100
AcDbEntity
  8
1
  6
Continuous
 62
     4
100
AcDbLine
 10
390.38880737903
 20
234.462693658835
 30
0.0
 11
390.9828823790301
 21
234.212693658835
 31
0.0
  0
LINE
  5
2F5
330
1F
100
AcDbEntity
  8
1
  6
Continuous
 62
     4
100
AcDbLine
 10
389.20065737903
 20
234.462693658835
 30
0.0
 11
390.38880737903
 21
234.462693658835
 31
0.0
  0
LINE
  5
2F6
330
1F
100
AcDbEntity
  8
1
  6
Continuous
 62
     4
100
AcDbLine
 10
388.60658237903
 20
234.212693658835
 30
0.0
 11
389.20065737903
 21
234.462693658835
 31
0.0
  0
LINE
  5
2F7
330
1F
100
AcDbEntity
  8
1
  6
Continuous
 62
     4
100
AcDbLine
 10
388.01250737903
 20
233.712693658835
 30
0.0
 11
388.60658237903
 21
234.212693658835
 31
0.0
  0
LINE
  5
2F8
330
1F
100
AcDbEntity
  8
1
  6
Continuous
 62
     4
100
AcDbLine
 10
387.61645737903
 20
232.962693658835
 30
0.0
 11
388.01250737903
 21
233.712693658835
 31
0.0
  0
LINE
  5
2F9
330
1F
100
AcDbEntity
  8
1
  6
Continuous
 62
     4
100
AcDbLine
 10
387.41843237903
 20
231.962693658835
 30
0.0
 11
387.61645737903
 21
232.962693658835
 31
0.0
  0
LINE
  5
2FA
330
1F
100
AcDbEntity
  8
1
  6
Continuous
 62
     4
100
AcDbLine
 10
387.41843237903
 20
231.462693658835
 30
0.0
 11
387.41843237903
 21
231.962693658835
 31
0.0
  0
LINE
  5
2FB
330
1F
100
AcDbEntity
  8
1
  6
Continuous
 62
     4
100
AcDbLine
 10
387.61645737903
 20
230.462693658835
 30
0.0
 11
387.41843237903
 21
231.462693658835
 31
0.0
  0
LINE
  5
2FC
330
1F
100
AcDbEntity
  8
1
  6
Continuous
 62
     4
100
AcDbLine
 10
388.01250737903
 20
229.712693658835
 30
0.0
 11
387.61645737903
 21
230.462693658835
 31
0.0
  0
LINE
  5
2FD
330
1F
100
AcDbEntity
  8
1
  6
Continuous
 62
     4
100
AcDbLine
 10
388.60658237903
 20
229.212693658835
 30
0.0
 11
388.01250737903
 21
229.712693658835
 31
0.0
  0
LINE
  5
2FE
330
1F
100
AcDbEntity
  8
1
  6
Continuous
 62
     4
100
AcDbLine
 10
389.20065737903
 20
228.962693658835
 30
0.0
 11
388.60658237903
 21
229.212693658835
 31
0.0
  0
LINE
  5
2FF
330
1F
100
AcDbEntity
  8
1
  6
Continuous
 62
     4
100
AcDbLine
 10
391.97300737903
 20
228.962693658835
 30
0.0
 11
389.20065737903
 21
228.962693658835
 31
0.0
  0
LINE
  5
300
330
1F
100
AcDbEntity
  8
1
  6
Continuous
 62
     4
100
AcDbLine
 10
383.85398237903
 20
228.462693658835
 30
0.0
 11
383.85398237903
 21
224.462693658835
 31
0.0
  0
LINE
  5
301
330
1F
100
AcDbEntity
  8
1
  6
Continuous
 62
     4
100
AcDbLine
 10
380.28953237903
 20
226.462693658835
 30
0.0
 11
385.04213237903
 21
226.462693658835
 31
0.0
  0
LINE
  5
302
330
1F
100
AcDbEntity
  8
1
  6
Continuous
 62
     4
100
AcDbLine
 10
383.85398237903
 20
234.462693658835
 30
0.0
 11
380.28953237903
 21
226.462693658835
 31
0.0
  0
LINE
  5
303
330
1F
100
AcDbEntity
  8
1
  6
Continuous
 62
     4
100
AcDbLine
 10
352.36800737903
 20
224.462693658835
 30
0.0
 11
349.39763237903
 21
224.462693658835
 31
0.0
  0
LINE
  5
304
330
1F
100
AcDbEntity
  8
1
  6
Continuous
 62
     4
100
AcDbLine
 10
352.9620823790301
 20
224.712693658835
 30
0.0
 11
352.36800737903
 21
224.462693658835
 31
0.0
  0
LINE
  5
305
330
1F
100
AcDbEntity
  8
1
  6
Continuous
 62
     4
100
AcDbLine
 10
353.55615737903
 20
225.212693658835
 30
0.0
 11
352.9620823790301
 21
224.712693658835
 31
0.0
  0
LINE
  5
306
330
1F
100
AcDbEntity
  8
1
  6
Continuous
 62
     4
100
AcDbLine
 10
353.95220737903
 20
225.962693658835
 30
0.0
 11
353.55615737903
 21
225.212693658835
 31
0.0
  0
LINE
  5
307
330
1F
100
AcDbEntity
  8
1
  6
Continuous
 62
     4
100
AcDbLine
 10
354.15023237903
 20
226.962693658835
 30
0.0
 11
353.95220737903
 21
225.962693658835
 31
0.0
  0
LINE
  5
308
330
1F
100
AcDbEntity
  8
1
  6
Continuous
 62
     4
100
AcDbLine
 10
354.15023237903
 20
228.462693658835
 30
0.0
 11
354.15023237903
 21
226.962693658835
 31
0.0
  0
LINE
  5
309
330
1F
100
AcDbEntity
  8
1
  6
Continuous
 62
     4
100
AcDbLine
 10
353.95220737903
 20
229.462693658835
 30
0.0
 11
354.15023237903
 21
228.462693658835
 31
0.0
  0
LINE
  5
30A
330
1F
100
AcDbEntity
  8
1
  6
Continuous
 62
     4
100
AcDbLine
 10
353.3581323790301
 20
230.212693658835
 30
0.0
 11
353.95220737903
 21
229.462693658835
 31
0.0
  0
LINE
  5
30B
330
1F
100
AcDbEntity
  8
1
  6
Continuous
 62
     4
100
AcDbLine
 10
352.36800737903
 20
230.462693658835
 30
0.0
 11
353.3581323790301
 21
230.212693658835
 31
0.0
  0
LINE
  5
30C
330
1F
100
AcDbEntity
  8
1
  6
Continuous
 62
     4
100
AcDbLine
 10
349.39763237903
 20
230.462693658835
 30
0.0
 11
352.36800737903
 21
230.462693658835
 31
0.0
  0
LINE
  5
30D
330
1F
100
AcDbEntity
  8
1
  6
Continuous
 62
     4
100
AcDbLine
 10
349.39763237903
 20
234.462693658835
 30
0.0
 11
349.39763237903
 21
230.462693658835
 31
0.0
  0
LINE
  5
30E
330
1F
100
AcDbEntity
  8
1
  6
Continuous
 62
     4
100
AcDbLine
 10
353.7541823790301
 20
234.462693658835
 30
0.0
 11
349.39763237903
 21
234.462693658835
 31
0.0
  0
LINE
  5
30F
330
1F
100
AcDbEntity
  8
1
  6
Continuous
 62
     4
100
AcDbLine
 10
347.21935737903
 20
224.962693658835
 30
0.0
 11
347.21935737903
 21
224.712693658835
 31
0.0
  0
LINE
  5
310
330
1F
100
AcDbEntity
  8
1
  6
Continuous
 62
     4
100
AcDbLine
 10
347.02133237903
 20
224.962693658835
 30
0.0
 11
347.21935737903
 21
224.962693658835
 31
0.0
  0
LINE
  5
311
330
1F
100
AcDbEntity
  8
1
  6
Continuous
 62
     4
100
AcDbLine
 10
347.02133237903
 20
224.712693658835
 30
0.0
 11
347.02133237903
 21
224.962693658835
 31
0.0
  0
LINE
  5
312
330
1F
100
AcDbEntity
  8
1
  6
Continuous
 62
     4
100
AcDbLine
 10
347.21935737903
 20
224.712693658835
 30
0.0
 11
347.02133237903
 21
224.712693658835
 31
0.0
  0
LINE
  5
313
330
1F
100
AcDbEntity
  8
1
  6
Continuous
 62
     4
100
AcDbLine
 10
347.41738237903
 20
225.212693658835
 30
0.0
 11
347.41738237903
 21
224.462693658835
 31
0.0
  0
LINE
  5
314
330
1F
100
AcDbEntity
  8
1
  6
Continuous
 62
     4
100
AcDbLine
 10
346.82330737903
 20
225.212693658835
 30
0.0
 11
347.41738237903
 21
225.212693658835
 31
0.0
  0
LINE
  5
315
330
1F
100
AcDbEntity
  8
1
  6
Continuous
 62
     4
100
AcDbLine
 10
346.82330737903
 20
224.462693658835
 30
0.0
 11
346.82330737903
 21
225.212693658835
 31
0.0
  0
LINE
  5
316
330
1F
100
AcDbEntity
  8
1
  6
Continuous
 62
     4
100
AcDbLine
 10
347.41738237903
 20
224.462693658835
 30
0.0
 11
346.82330737903
 21
224.462693658835
 31
0.0
  0
LINE
  5
317
330
1F
100
AcDbEntity
  8
1
  6
Continuous
 62
     4
100
AcDbLine
 10
344.44700737903
 20
230.712693658835
 30
0.0
 11
344.44700737903
 21
228.212693658835
 31
0.0
  0
LINE
  5
318
330
1F
100
AcDbEntity
  8
1
  6
Continuous
 62
     4
100
AcDbLine
 10
344.24898237903
 20
232.212693658835
 30
0.0
 11
344.44700737903
 21
230.712693658835
 31
0.0
  0
LINE
  5
319
330
1F
100
AcDbEntity
  8
1
  6
Continuous
 62
     4
100
AcDbLine
 10
343.85293237903
 20
233.212693658835
 30
0.0
 11
344.24898237903
 21
232.212693658835
 31
0.0
  0
LINE
  5
31A
330
1F
100
AcDbEntity
  8
1
  6
Continuous
 62
     4
100
AcDbLine
 10
343.45688237903
 20
233.712693658835
 30
0.0
 11
343.85293237903
 21
233.212693658835
 31
0.0
  0
LINE
  5
31B
330
1F
100
AcDbEntity
  8
1
  6
Continuous
 62
     4
100
AcDbLine
 10
342.86280737903
 20
234.212693658835
 30
0.0
 11
343.45688237903
 21
233.712693658835
 31
0.0
  0
LINE
  5
31C
330
1F
100
AcDbEntity
  8
1
  6
Continuous
 62
     4
100
AcDbLine
 10
342.26873237903
 20
234.462693658835
 30
0.0
 11
342.86280737903
 21
234.212693658835
 31
0.0
  0
LINE
  5
31D
330
1F
100
AcDbEntity
  8
1
  6
Continuous
 62
     4
100
AcDbLine
 10
341.87268237903
 20
234.462693658835
 30
0.0
 11
342.26873237903
 21
234.462693658835
 31
0.0
  0
LINE
  5
31E
330
1F
100
AcDbEntity
  8
1
  6
Continuous
 62
     4
100
AcDbLine
 10
341.27860737903
 20
234.212693658835
 30
0.0
 11
341.87268237903
 21
234.462693658835
 31
0.0
  0
LINE
  5
31F
330
1F
100
AcDbEntity
  8
1
  6
Continuous
 62
     4
100
AcDbLine
 10
340.68453237903
 20
233.712693658835
 30
0.0
 11
341.27860737903
 21
234.212693658835
 31
0.0
  0
LINE
  5
320
330
1F
100
AcDbEntity
  8
1
  6
Continuous
 62
     4
100
AcDbLine
 10
340.28848237903
 20
233.212693658835
 30
0.0
 11
340.68453237903
 21
233.712693658835
 31
0.0
  0
LINE
  5
321
330
1F
100
AcDbEntity
  8
1
  6
Continuous
 62
     4
100
AcDbLine
 10
339.89243237903
 20
232.212693658835
 30
0.0
 11
340.28848237903
 21
233.212693658835
 31
0.0
  0
LINE
  5
322
330
1F
100
AcDbEntity
  8
1
  6
Continuous
 62
     4
100
AcDbLine
 10
339.69440737903
 20
230.712693658835
 30
0.0
 11
339.89243237903
 21
232.212693658835
 31
0.0
  0
LINE
  5
323
330
1F
100
AcDbEntity
  8
1
  6
Continuous
 62
     4
100
AcDbLine
 10
339.69440737903
 20
228.212693658835
 30
0.0
 11
339.69440737903
 21
230.712693658835
 31
0.0
  0
LINE
  5
324
330
1F
100
AcDbEntity
  8
1
  6
Continuous
 62
     4
100
AcDbLine
 10
339.89243237903
 20
226.712693658835
 30
0.0
 11
339.69440737903
 21
228.212693658835
 31
0.0
  0
LINE
  5
325
330
1F
100
AcDbEntity
  8
1
  6
Continuous
 62
     4
100
AcDbLine
 10
340.28848237903
 20
225.712693658835
 30
0.0
 11
339.89243237903
 21
226.712693658835
 31
0.0
  0
LINE
  5
326
330
1F
100
AcDbEntity
  8
1
  6
Continuous
 62
     4
100
AcDbLine
 10
340.68453237903
 20
225.212693658835
 30
0.0
 11
340.28848237903
 21
225.712693658835
 31
0.0
  0
LINE
  5
327
330
1F
100
AcDbEntity
  8
1
  6
Continuous
 62
     4
100
AcDbLine
 10
341.27860737903
 20
224.712693658835
 30
0.0
 11
340.68453237903
 21
225.212693658835
 31
0.0
  0
LINE
  5
328
330
1F
100
AcDbEntity
  8
1
  6
Continuous
 62
     4
100
AcDbLine
 10
341.87268237903
 20
224.462693658835
 30
0.0
 11
341.27860737903
 21
224.712693658835
 31
0.0
  0
LINE
  5
329
330
1F
100
AcDbEntity
  8
1
  6
Continuous
 62
     4
100
AcDbLine
 10
342.26873237903
 20
224.462693658835
 30
0.0
 11
341.87268237903
 21
224.462693658835
 31
0.0
  0
LINE
  5
32A
330
1F
100
AcDbEntity
  8
1
  6
Continuous
 62
     4
100
AcDbLine
 10
342.86280737903
 20
224.712693658835
 30
0.0
 11
342.26873237903
 21
224.462693658835
 31
0.0
  0
LINE
  5
32B
330
1F
100
AcDbEntity
  8
1
  6
Continuous
 62
     4
100
AcDbLine
 10
343.45688237903
 20
225.212693658835
 30
0.0
 11
342.86280737903
 21
224.712693658835
 31
0.0
  0
LINE
  5
32C
330
1F
100
AcDbEntity
  8
1
  6
Continuous
 62
     4
100
AcDbLine
 10
343.85293237903
 20
225.712693658835
 30
0.0
 11
343.45688237903
 21
225.212693658835
 31
0.0
  0
LINE
  5
32D
330
1F
100
AcDbEntity
  8
1
  6
Continuous
 62
     4
100
AcDbLine
 10
344.24898237903
 20
226.712693658835
 30
0.0
 11
343.85293237903
 21
225.712693658835
 31
0.0
  0
LINE
  5
32E
330
1F
100
AcDbEntity
  8
1
  6
Continuous
 62
     4
100
AcDbLine
 10
344.44700737903
 20
228.212693658835
 30
0.0
 11
344.24898237903
 21
226.712693658835
 31
0.0
  0
LINE
  5
32F
330
1F
100
AcDbEntity
  8
1
  6
Continuous
 62
     4
100
AcDbLine
 10
395.93350737903
 20
248.872693658835
 30
0.0
 11
398.1117823790301
 21
251.122693658835
 31
0.0
  0
LINE
  5
330
330
1F
100
AcDbEntity
  8
1
  6
Continuous
 62
     4
100
AcDbLine
 10
395.14140737903
 20
247.622693658835
 30
0.0
 11
395.93350737903
 21
248.872693658835
 31
0.0
  0
LINE
  5
331
330
1F
100
AcDbEntity
  8
1
  6
Continuous
 62
     4
100
AcDbLine
 10
394.74535737903
 20
246.622693658835
 30
0.0
 11
395.14140737903
 21
247.622693658835
 31
0.0
  0
LINE
  5
332
330
1F
100
AcDbEntity
  8
1
  6
Continuous
 62
     4
100
AcDbLine
 10
394.54733237903
 20
244.622693658835
 30
0.0
 11
394.74535737903
 21
246.622693658835
 31
0.0
  0
LINE
  5
333
330
1F
100
AcDbEntity
  8
1
  6
Continuous
 62
     4
100
AcDbLine
 10
394.54733237903
 20
243.622693658835
 30
0.0
 11
394.54733237903
 21
244.622693658835
 31
0.0
  0
LINE
  5
334
330
1F
100
AcDbEntity
  8
1
  6
Continuous
 62
     4
100
AcDbLine
 10
394.74535737903
 20
242.622693658835
 30
0.0
 11
394.54733237903
 21
243.622693658835
 31
0.0
  0
LINE
  5
335
330
1F
100
AcDbEntity
  8
1
  6
Continuous
 62
     4
100
AcDbLine
 10
395.14140737903
 20
241.872693658835
 30
0.0
 11
394.74535737903
 21
242.622693658835
 31
0.0
  0
LINE
  5
336
330
1F
100
AcDbEntity
  8
1
  6
Continuous
 62
     4
100
AcDbLine
 10
395.73548237903
 20
241.372693658835
 30
0.0
 11
395.14140737903
 21
241.872693658835
 31
0.0
  0
LINE
  5
337
330
1F
100
AcDbEntity
  8
1
  6
Continuous
 62
     4
100
AcDbLine
 10
396.32955737903
 20
241.122693658835
 30
0.0
 11
395.73548237903
 21
241.372693658835
 31
0.0
  0
LINE
  5
338
330
1F
100
AcDbEntity
  8
1
  6
Continuous
 62
     4
100
AcDbLine
 10
397.51770737903
 20
241.122693658835
 30
0.0
 11
396.32955737903
 21
241.122693658835
 31
0.0
  0
LINE
  5
339
330
1F
100
AcDbEntity
  8
1
  6
Continuous
 62
     4
100
AcDbLine
 10
398.1117823790301
 20
241.372693658835
 30
0.0
 11
397.51770737903
 21
241.122693658835
 31
0.0
  0
LINE
  5
33A
330
1F
100
AcDbEntity
  8
1
  6
Continuous
 62
     4
100
AcDbLine
 10
398.70585737903
 20
241.872693658835
 30
0.0
 11
398.1117823790301
 21
241.372693658835
 31
0.0
  0
LINE
  5
33B
330
1F
100
AcDbEntity
  8
1
  6
Continuous
 62
     4
100
AcDbLine
 10
399.10190737903
 20
242.622693658835
 30
0.0
 11
398.70585737903
 21
241.872693658835
 31
0.0
  0
LINE
  5
33C
330
1F
100
AcDbEntity
  8
1
  6
Continuous
 62
     4
100
AcDbLine
 10
399.29993237903
 20
243.622693658835
 30
0.0
 11
399.10190737903
 21
242.622693658835
 31
0.0
  0
LINE
  5
33D
330
1F
100
AcDbEntity
  8
1
  6
Continuous
 62
     4
100
AcDbLine
 10
399.29993237903
 20
244.622693658835
 30
0.0
 11
399.29993237903
 21
243.622693658835
 31
0.0
  0
LINE
  5
33E
330
1F
100
AcDbEntity
  8
1
  6
Continuous
 62
     4
100
AcDbLine
 10
399.10190737903
 20
245.622693658835
 30
0.0
 11
399.29993237903
 21
244.622693658835
 31
0.0
  0
LINE
  5
33F
330
1F
100
AcDbEntity
  8
1
  6
Continuous
 62
     4
100
AcDbLine
 10
398.70585737903
 20
246.372693658835
 30
0.0
 11
399.10190737903
 21
245.622693658835
 31
0.0
  0
LINE
  5
340
330
1F
100
AcDbEntity
  8
1
  6
Continuous
 62
     4
100
AcDbLine
 10
398.1117823790301
 20
246.872693658835
 30
0.0
 11
398.70585737903
 21
246.372693658835
 31
0.0
  0
LINE
  5
341
330
1F
100
AcDbEntity
  8
1
  6
Continuous
 62
     4
100
AcDbLine
 10
397.51770737903
 20
247.122693658835
 30
0.0
 11
398.1117823790301
 21
246.872693658835
 31
0.0
  0
LINE
  5
342
330
1F
100
AcDbEntity
  8
1
  6
Continuous
 62
     4
100
AcDbLine
 10
396.32955737903
 20
247.122693658835
 30
0.0
 11
397.51770737903
 21
247.122693658835
 31
0.0
  0
LINE
  5
343
330
1F
100
AcDbEntity
  8
1
  6
Continuous
 62
     4
100
AcDbLine
 10
395.73548237903
 20
246.872693658835
 30
0.0
 11
396.32955737903
 21
247.122693658835
 31
0.0
  0
LINE
  5
344
330
1F
100
AcDbEntity
  8
1
  6
Continuous
 62
     4
100
AcDbLine
 10
395.14140737903
 20
246.372693658835
 30
0.0
 11
395.73548237903
 21
246.872693658835
 31
0.0
  0
LINE
  5
345
330
1F
100
AcDbEntity
  8
1
  6
Continuous
 62
     4
100
AcDbLine
 10
394.74535737903
 20
245.622693658835
 30
0.0
 11
395.14140737903
 21
246.372693658835
 31
0.0
  0
LINE
  5
346
330
1F
100
AcDbEntity
  8
1
  6
Continuous
 62
     4
100
AcDbLine
 10
394.54733237903
 20
244.622693658835
 30
0.0
 11
394.74535737903
 21
245.622693658835
 31
0.0
  0
LINE
  5
347
330
1F
100
AcDbEntity
  8
1
  6
Continuous
 62
     4
100
AcDbLine
 10
389.7947323790301
 20
242.122693658835
 30
0.0
 11
388.01250737903
 21
241.122693658835
 31
0.0
  0
LINE
  5
348
330
1F
100
AcDbEntity
  8
1
  6
Continuous
 62
     4
100
AcDbLine
 10
391.18090737903
 20
243.622693658835
 30
0.0
 11
389.7947323790301
 21
242.122693658835
 31
0.0
  0
LINE
  5
349
330
1F
100
AcDbEntity
  8
1
  6
Continuous
 62
     4
100
AcDbLine
 10
391.7749823790301
 20
244.622693658835
 30
0.0
 11
391.18090737903
 21
243.622693658835
 31
0.0
  0
LINE
  5
34A
330
1F
100
AcDbEntity
  8
1
  6
Continuous
 62
     4
100
AcDbLine
 10
391.97300737903
 20
245.622693658835
 30
0.0
 11
391.7749823790301
 21
244.622693658835
 31
0.0
  0
LINE
  5
34B
330
1F
100
AcDbEntity
  8
1
  6
Continuous
 62
     4
100
AcDbLine
 10
392.17103237903
 20
246.872693658835
 30
0.0
 11
391.97300737903
 21
245.622693658835
 31
0.0
  0
LINE
  5
34C
330
1F
100
AcDbEntity
  8
1
  6
Continuous
 62
     4
100
AcDbLine
 10
392.17103237903
 20
248.622693658835
 30
0.0
 11
392.17103237903
 21
246.872693658835
 31
0.0
  0
LINE
  5
34D
330
1F
100
AcDbEntity
  8
1
  6
Continuous
 62
     4
100
AcDbLine
 10
391.97300737903
 20
249.622693658835
 30
0.0
 11
392.17103237903
 21
248.622693658835
 31
0.0
  0
LINE
  5
34E
330
1F
100
AcDbEntity
  8
1
  6
Continuous
 62
     4
100
AcDbLine
 10
391.57695737903
 20
250.372693658835
 30
0.0
 11
391.97300737903
 21
249.622693658835
 31
0.0
  0
LINE
  5
34F
330
1F
100
AcDbEntity
  8
1
  6
Continuous
 62
     4
100
AcDbLine
 10
390.9828823790301
 20
250.872693658835
 30
0.0
 11
391.57695737903
 21
250.372693658835
 31
0.0
  0
LINE
  5
350
330
1F
100
AcDbEntity
  8
1
  6
Continuous
 62
     4
100
AcDbLine
 10
390.38880737903
 20
251.122693658835
 30
0.0
 11
390.9828823790301
 21
250.872693658835
 31
0.0
  0
LINE
  5
351
330
1F
100
AcDbEntity
  8
1
  6
Continuous
 62
     4
100
AcDbLine
 10
389.20065737903
 20
251.122693658835
 30
0.0
 11
390.38880737903
 21
251.122693658835
 31
0.0
  0
LINE
  5
352
330
1F
100
AcDbEntity
  8
1
  6
Continuous
 62
     4
100
AcDbLine
 10
388.60658237903
 20
250.872693658835
 30
0.0
 11
389.20065737903
 21
251.122693658835
 31
0.0
  0
LINE
  5
353
330
1F
100
AcDbEntity
  8
1
  6
Continuous
 62
     4
100
AcDbLine
 10
388.01250737903
 20
250.372693658835
 30
0.0
 11
388.60658237903
 21
250.872693658835
 31
0.0
  0
LINE
  5
354
330
1F
100
AcDbEntity
  8
1
  6
Continuous
 62
     4
100
AcDbLine
 10
387.61645737903
 20
249.622693658835
 30
0.0
 11
388.01250737903
 21
250.372693658835
 31
0.0
  0
LINE
  5
355
330
1F
100
AcDbEntity
  8
1
  6
Continuous
 62
     4
100
AcDbLine
 10
387.41843237903
 20
248.622693658835
 30
0.0
 11
387.61645737903
 21
249.622693658835
 31
0.0
  0
LINE
  5
356
330
1F
100
AcDbEntity
  8
1
  6
Continuous
 62
     4
100
AcDbLine
 10
387.41843237903
 20
248.122693658835
 30
0.0
 11
387.41843237903
 21
248.622693658835
 31
0.0
  0
LINE
  5
357
330
1F
100
AcDbEntity
  8
1
  6
Continuous
 62
     4
100
AcDbLine
 10
387.61645737903
 20
247.122693658835
 30
0.0
 11
387.41843237903
 21
248.122693658835
 31
0.0
  0
LINE
  5
358
330
1F
100
AcDbEntity
  8
1
  6
Continuous
 62
     4
100
AcDbLine
 10
388.01250737903
 20
246.372693658835
 30
0.0
 11
387.61645737903
 21
247.122693658835
 31
0.0
  0
LINE
  5
359
330
1F
100
AcDbEntity
  8
1
  6
Continuous
 62
     4
100
AcDbLine
 10
388.60658237903
 20
245.872693658835
 30
0.0
 11
388.01250737903
 21
246.372693658835
 31
0.0
  0
LINE
  5
35A
330
1F
100
AcDbEntity
  8
1
  6
Continuous
 62
     4
100
AcDbLine
 10
389.20065737903
 20
245.622693658835
 30
0.0
 11
388.60658237903
 21
245.872693658835
 31
0.0
  0
LINE
  5
35B
330
1F
100
AcDbEntity
  8
1
  6
Continuous
 62
     4
100
AcDbLine
 10
391.97300737903
 20
245.622693658835
 30
0.0
 11
389.20065737903
 21
245.622693658835
 31
0.0
  0
LINE
  5
35C
330
1F
100
AcDbEntity
  8
1
  6
Continuous
 62
     4
100
AcDbLine
 10
383.25990737903
 20
241.122693658835
 30
0.0
 11
380.28953237903
 21
241.122693658835
 31
0.0
  0
LINE
  5
35D
330
1F
100
AcDbEntity
  8
1
  6
Continuous
 62
     4
100
AcDbLine
 10
383.85398237903
 20
241.372693658835
 30
0.0
 11
383.25990737903
 21
241.122693658835
 31
0.0
  0
LINE
  5
35E
330
1F
100
AcDbEntity
  8
1
  6
Continuous
 62
     4
100
AcDbLine
 10
384.44805737903
 20
241.872693658835
 30
0.0
 11
383.85398237903
 21
241.372693658835
 31
0.0
  0
LINE
  5
35F
330
1F
100
AcDbEntity
  8
1
  6
Continuous
 62
     4
100
AcDbLine
 10
384.84410737903
 20
242.622693658835
 30
0.0
 11
384.44805737903
 21
241.872693658835
 31
0.0
  0
LINE
  5
360
330
1F
100
AcDbEntity
  8
1
  6
Continuous
 62
     4
100
AcDbLine
 10
385.04213237903
 20
243.622693658835
 30
0.0
 11
384.84410737903
 21
242.622693658835
 31
0.0
  0
LINE
  5
361
330
1F
100
AcDbEntity
  8
1
  6
Continuous
 62
     4
100
AcDbLine
 10
385.04213237903
 20
244.872693658835
 30
0.0
 11
385.04213237903
 21
243.622693658835
 31
0.0
  0
LINE
  5
362
330
1F
100
AcDbEntity
  8
1
  6
Continuous
 62
     4
100
AcDbLine
 10
384.84410737903
 20
245.872693658835
 30
0.0
 11
385.04213237903
 21
244.872693658835
 31
0.0
  0
LINE
  5
363
330
1F
100
AcDbEntity
  8
1
  6
Continuous
 62
     4
100
AcDbLine
 10
384.64608237903
 20
246.372693658835
 30
0.0
 11
384.84410737903
 21
245.872693658835
 31
0.0
  0
LINE
  5
364
330
1F
100
AcDbEntity
  8
1
  6
Continuous
 62
     4
100
AcDbLine
 10
384.25003237903
 20
246.872693658835
 30
0.0
 11
384.64608237903
 21
246.372693658835
 31
0.0
  0
LINE
  5
365
330
1F
100
AcDbEntity
  8
1
  6
Continuous
 62
     4
100
AcDbLine
 10
383.45793237903
 20
247.122693658835
 30
0.0
 11
384.25003237903
 21
246.872693658835
 31
0.0
  0
LINE
  5
366
330
1F
100
AcDbEntity
  8
1
  6
Continuous
 62
     4
100
AcDbLine
 10
384.05200737903
 20
247.372693658835
 30
0.0
 11
383.45793237903
 21
247.122693658835
 31
0.0
  0
LINE
  5
367
330
1F
100
AcDbEntity
  8
1
  6
Continuous
 62
     4
100
AcDbLine
 10
384.44805737903
 20
247.622693658835
 30
0.0
 11
384.05200737903
 21
247.372693658835
 31
0.0
  0
LINE
  5
368
330
1F
100
AcDbEntity
  8
1
  6
Continuous
 62
     4
100
AcDbLine
 10
384.84410737903
 20
248.122693658835
 30
0.0
 11
384.44805737903
 21
247.622693658835
 31
0.0
  0
LINE
  5
369
330
1F
100
AcDbEntity
  8
1
  6
Continuous
 62
     4
100
AcDbLine
 10
385.04213237903
 20
248.872693658835
 30
0.0
 11
384.84410737903
 21
248.122693658835
 31
0.0
  0
LINE
  5
36A
330
1F
100
AcDbEntity
  8
1
  6
Continuous
 62
     4
100
AcDbLine
 10
385.04213237903
 20
249.622693658835
 30
0.0
 11
385.04213237903
 21
248.872693658835
 31
0.0
  0
LINE
  5
36B
330
1F
100
AcDbEntity
  8
1
  6
Continuous
 62
     4
100
AcDbLine
 10
384.84410737903
 20
250.372693658835
 30
0.0
 11
385.04213237903
 21
249.622693658835
 31
0.0
  0
LINE
  5
36C
330
1F
100
AcDbEntity
  8
1
  6
Continuous
 62
     4
100
AcDbLine
 10
384.25003237903
 20
250.872693658835
 30
0.0
 11
384.84410737903
 21
250.372693658835
 31
0.0
  0
LINE
  5
36D
330
1F
100
AcDbEntity
  8
1
  6
Continuous
 62
     4
100
AcDbLine
 10
383.25990737903
 20
251.122693658835
 30
0.0
 11
384.25003237903
 21
250.872693658835
 31
0.0
  0
LINE
  5
36E
330
1F
100
AcDbEntity
  8
1
  6
Continuous
 62
     4
100
AcDbLine
 10
380.28953237903
 20
251.122693658835
 30
0.0
 11
383.25990737903
 21
251.122693658835
 31
0.0
  0
LINE
  5
36F
330
1F
100
AcDbEntity
  8
1
  6
Continuous
 62
     4
100
AcDbLine
 10
381.47768237903
 20
247.122693658835
 30
0.0
 11
383.45793237903
 21
247.122693658835
 31
0.0
  0
LINE
  5
370
330
1F
100
AcDbEntity
  8
1
  6
Continuous
 62
     4
100
AcDbLine
 10
352.9620823790301
 20
245.122693658835
 30
0.0
 11
352.9620823790301
 21
241.122693658835
 31
0.0
  0
LINE
  5
371
330
1F
100
AcDbEntity
  8
1
  6
Continuous
 62
     4
100
AcDbLine
 10
349.39763237903
 20
243.122693658835
 30
0.0
 11
354.15023237903
 21
243.122693658835
 31
0.0
  0
LINE
  5
372
330
1F
100
AcDbEntity
  8
1
  6
Continuous
 62
     4
100
AcDbLine
 10
352.9620823790301
 20
251.122693658835
 30
0.0
 11
349.39763237903
 21
243.122693658835
 31
0.0
  0
LINE
  5
373
330
1F
100
AcDbEntity
  8
1
  6
Continuous
 62
     4
100
AcDbLine
 10
347.21935737903
 20
241.622693658835
 30
0.0
 11
347.21935737903
 21
241.372693658835
 31
0.0
  0
LINE
  5
374
330
1F
100
AcDbEntity
  8
1
  6
Continuous
 62
     4
100
AcDbLine
 10
347.02133237903
 20
241.622693658835
 30
0.0
 11
347.21935737903
 21
241.622693658835
 31
0.0
  0
LINE
  5
375
330
1F
100
AcDbEntity
  8
1
  6
Continuous
 62
     4
100
AcDbLine
 10
347.02133237903
 20
241.372693658835
 30
0.0
 11
347.02133237903
 21
241.622693658835
 31
0.0
  0
LINE
  5
376
330
1F
100
AcDbEntity
  8
1
  6
Continuous
 62
     4
100
AcDbLine
 10
347.21935737903
 20
241.372693658835
 30
0.0
 11
347.02133237903
 21
241.372693658835
 31
0.0
  0
LINE
  5
377
330
1F
100
AcDbEntity
  8
1
  6
Continuous
 62
     4
100
AcDbLine
 10
347.41738237903
 20
241.872693658835
 30
0.0
 11
347.41738237903
 21
241.122693658835
 31
0.0
  0
LINE
  5
378
330
1F
100
AcDbEntity
  8
1
  6
Continuous
 62
     4
100
AcDbLine
 10
346.82330737903
 20
241.872693658835
 30
0.0
 11
347.41738237903
 21
241.872693658835
 31
0.0
  0
LINE
  5
379
330
1F
100
AcDbEntity
  8
1
  6
Continuous
 62
     4
100
AcDbLine
 10
346.82330737903
 20
241.122693658835
 30
0.0
 11
346.82330737903
 21
241.872693658835
 31
0.0
  0
LINE
  5
37A
330
1F
100
AcDbEntity
  8
1
  6
Continuous
 62
     4
100
AcDbLine
 10
347.41738237903
 20
241.122693658835
 30
0.0
 11
346.82330737903
 21
241.122693658835
 31
0.0
  0
LINE
  5
37B
330
1F
100
AcDbEntity
  8
1
  6
Continuous
 62
     4
100
AcDbLine
 10
344.44700737903
 20
247.372693658835
 30
0.0
 11
344.44700737903
 21
244.872693658835
 31
0.0
  0
LINE
  5
37C
330
1F
100
AcDbEntity
  8
1
  6
Continuous
 62
     4
100
AcDbLine
 10
344.24898237903
 20
248.872693658835
 30
0.0
 11
344.44700737903
 21
247.372693658835
 31
0.0
  0
LINE
  5
37D
330
1F
100
AcDbEntity
  8
1
  6
Continuous
 62
     4
100
AcDbLine
 10
343.85293237903
 20
249.872693658835
 30
0.0
 11
344.24898237903
 21
248.872693658835
 31
0.0
  0
LINE
  5
37E
330
1F
100
AcDbEntity
  8
1
  6
Continuous
 62
     4
100
AcDbLine
 10
343.45688237903
 20
250.372693658835
 30
0.0
 11
343.85293237903
 21
249.872693658835
 31
0.0
  0
LINE
  5
37F
330
1F
100
AcDbEntity
  8
1
  6
Continuous
 62
     4
100
AcDbLine
 10
342.86280737903
 20
250.872693658835
 30
0.0
 11
343.45688237903
 21
250.372693658835
 31
0.0
  0
LINE
  5
380
330
1F
100
AcDbEntity
  8
1
  6
Continuous
 62
     4
100
AcDbLine
 10
342.26873237903
 20
251.122693658835
 30
0.0
 11
342.86280737903
 21
250.872693658835
 31
0.0
  0
LINE
  5
381
330
1F
100
AcDbEntity
  8
1
  6
Continuous
 62
     4
100
AcDbLine
 10
341.87268237903
 20
251.122693658835
 30
0.0
 11
342.26873237903
 21
251.122693658835
 31
0.0
  0
LINE
  5
382
330
1F
100
AcDbEntity
  8
1
  6
Continuous
 62
     4
100
AcDbLine
 10
341.27860737903
 20
250.872693658835
 30
0.0
 11
341.87268237903
 21
251.122693658835
 31
0.0
  0
LINE
  5
383
330
1F
100
AcDbEntity
  8
1
  6
Continuous
 62
     4
100
AcDbLine
 10
340.68453237903
 20
250.372693658835
 30
0.0
 11
341.27860737903
 21
250.872693658835
 31
0.0
  0
LINE
  5
384
330
1F
100
AcDbEntity
  8
1
  6
Continuous
 62
     4
100
AcDbLine
 10
340.28848237903
 20
249.872693658835
 30
0.0
 11
340.68453237903
 21
250.372693658835
 31
0.0
  0
LINE
  5
385
330
1F
100
AcDbEntity
  8
1
  6
Continuous
 62
     4
100
AcDbLine
 10
339.89243237903
 20
248.872693658835
 30
0.0
 11
340.28848237903
 21
249.872693658835
 31
0.0
  0
LINE
  5
386
330
1F
100
AcDbEntity
  8
1
  6
Continuous
 62
     4
100
AcDbLine
 10
339.69440737903
 20
247.372693658835
 30
0.0
 11
339.89243237903
 21
248.872693658835
 31
0.0
  0
LINE
  5
387
330
1F
100
AcDbEntity
  8
1
  6
Continuous
 62
     4
100
AcDbLine
 10
339.69440737903
 20
244.872693658835
 30
0.0
 11
339.69440737903
 21
247.372693658835
 31
0.0
  0
LINE
  5
388
330
1F
100
AcDbEntity
  8
1
  6
Continuous
 62
     4
100
AcDbLine
 10
339.89243237903
 20
243.372693658835
 30
0.0
 11
339.69440737903
 21
244.872693658835
 31
0.0
  0
LINE
  5
389
330
1F
100
AcDbEntity
  8
1
  6
Continuous
 62
     4
100
AcDbLine
 10
340.28848237903
 20
242.372693658835
 30
0.0
 11
339.89243237903
 21
243.372693658835
 31
0.0
  0
LINE
  5
38A
330
1F
100
AcDbEntity
  8
1
  6
Continuous
 62
     4
100
AcDbLine
 10
340.68453237903
 20
241.872693658835
 30
0.0
 11
340.28848237903
 21
242.372693658835
 31
0.0
  0
LINE
  5
38B
330
1F
100
AcDbEntity
  8
1
  6
Continuous
 62
     4
100
AcDbLine
 10
341.27860737903
 20
241.372693658835
 30
0.0
 11
340.68453237903
 21
241.872693658835
 31
0.0
  0
LINE
  5
38C
330
1F
100
AcDbEntity
  8
1
  6
Continuous
 62
     4
100
AcDbLine
 10
341.87268237903
 20
241.122693658835
 30
0.0
 11
341.27860737903
 21
241.372693658835
 31
0.0
  0
LINE
  5
38D
330
1F
100
AcDbEntity
  8
1
  6
Continuous
 62
     4
100
AcDbLine
 10
342.26873237903
 20
241.122693658835
 30
0.0
 11
341.87268237903
 21
241.122693658835
 31
0.0
  0
LINE
  5
38E
330
1F
100
AcDbEntity
  8
1
  6
Continuous
 62
     4
100
AcDbLine
 10
342.86280737903
 20
241.372693658835
 30
0.0
 11
342.26873237903
 21
241.122693658835
 31
0.0
  0
LINE
  5
38F
330
1F
100
AcDbEntity
  8
1
  6
Continuous
 62
     4
100
AcDbLine
 10
343.45688237903
 20
241.872693658835
 30
0.0
 11
342.86280737903
 21
241.372693658835
 31
0.0
  0
LINE
  5
390
330
1F
100
AcDbEntity
  8
1
  6
Continuous
 62
     4
100
AcDbLine
 10
343.85293237903
 20
242.372693658835
 30
0.0
 11
343.45688237903
 21
241.872693658835
 31
0.0
  0
LINE
  5
391
330
1F
100
AcDbEntity
  8
1
  6
Continuous
 62
     4
100
AcDbLine
 10
344.24898237903
 20
243.372693658835
 30
0.0
 11
343.85293237903
 21
242.372693658835
 31
0.0
  0
LINE
  5
392
330
1F
100
AcDbEntity
  8
1
  6
Continuous
 62
     4
100
AcDbLine
 10
344.44700737903
 20
244.872693658835
 30
0.0
 11
344.24898237903
 21
243.372693658835
 31
0.0
  0
LINE
  5
393
330
1F
100
AcDbEntity
  8
1
  6
Continuous
 62
     4
100
AcDbLine
 10
395.93350737903
 20
265.532693658835
 30
0.0
 11
398.1117823790301
 21
267.782693658835
 31
0.0
  0
LINE
  5
394
330
1F
100
AcDbEntity
  8
1
  6
Continuous
 62
     4
100
AcDbLine
 10
395.14140737903
 20
264.282693658835
 30
0.0
 11
395.93350737903
 21
265.532693658835
 31
0.0
  0
LINE
  5
395
330
1F
100
AcDbEntity
  8
1
  6
Continuous
 62
     4
100
AcDbLine
 10
394.74535737903
 20
263.282693658835
 30
0.0
 11
395.14140737903
 21
264.282693658835
 31
0.0
  0
LINE
  5
396
330
1F
100
AcDbEntity
  8
1
  6
Continuous
 62
     4
100
AcDbLine
 10
394.54733237903
 20
261.282693658835
 30
0.0
 11
394.74535737903
 21
263.282693658835
 31
0.0
  0
LINE
  5
397
330
1F
100
AcDbEntity
  8
1
  6
Continuous
 62
     4
100
AcDbLine
 10
394.54733237903
 20
260.282693658835
 30
0.0
 11
394.54733237903
 21
261.282693658835
 31
0.0
  0
LINE
  5
398
330
1F
100
AcDbEntity
  8
1
  6
Continuous
 62
     4
100
AcDbLine
 10
394.74535737903
 20
259.282693658835
 30
0.0
 11
394.54733237903
 21
260.282693658835
 31
0.0
  0
LINE
  5
399
330
1F
100
AcDbEntity
  8
1
  6
Continuous
 62
     4
100
AcDbLine
 10
395.14140737903
 20
258.532693658835
 30
0.0
 11
394.74535737903
 21
259.282693658835
 31
0.0
  0
LINE
  5
39A
330
1F
100
AcDbEntity
  8
1
  6
Continuous
 62
     4
100
AcDbLine
 10
395.73548237903
 20
258.032693658835
 30
0.0
 11
395.14140737903
 21
258.532693658835
 31
0.0
  0
LINE
  5
39B
330
1F
100
AcDbEntity
  8
1
  6
Continuous
 62
     4
100
AcDbLine
 10
396.32955737903
 20
257.782693658835
 30
0.0
 11
395.73548237903
 21
258.032693658835
 31
0.0
  0
LINE
  5
39C
330
1F
100
AcDbEntity
  8
1
  6
Continuous
 62
     4
100
AcDbLine
 10
397.51770737903
 20
257.782693658835
 30
0.0
 11
396.32955737903
 21
257.782693658835
 31
0.0
  0
LINE
  5
39D
330
1F
100
AcDbEntity
  8
1
  6
Continuous
 62
     4
100
AcDbLine
 10
398.1117823790301
 20
258.032693658835
 30
0.0
 11
397.51770737903
 21
257.782693658835
 31
0.0
  0
LINE
  5
39E
330
1F
100
AcDbEntity
  8
1
  6
Continuous
 62
     4
100
AcDbLine
 10
398.70585737903
 20
258.532693658835
 30
0.0
 11
398.1117823790301
 21
258.032693658835
 31
0.0
  0
LINE
  5
39F
330
1F
100
AcDbEntity
  8
1
  6
Continuous
 62
     4
100
AcDbLine
 10
399.10190737903
 20
259.282693658835
 30
0.0
 11
398.70585737903
 21
258.532693658835
 31
0.0
  0
LINE
  5
3A0
330
1F
100
AcDbEntity
  8
1
  6
Continuous
 62
     4
100
AcDbLine
 10
399.29993237903
 20
260.282693658835
 30
0.0
 11
399.10190737903
 21
259.282693658835
 31
0.0
  0
LINE
  5
3A1
330
1F
100
AcDbEntity
  8
1
  6
Continuous
 62
     4
100
AcDbLine
 10
399.29993237903
 20
261.282693658835
 30
0.0
 11
399.29993237903
 21
260.282693658835
 31
0.0
  0
LINE
  5
3A2
330
1F
100
AcDbEntity
  8
1
  6
Continuous
 62
     4
100
AcDbLine
 10
399.10190737903
 20
262.282693658835
 30
0.0
 11
399.29993237903
 21
261.282693658835
 31
0.0
  0
LINE
  5
3A3
330
1F
100
AcDbEntity
  8
1
  6
Continuous
 62
     4
100
AcDbLine
 10
398.70585737903
 20
263.032693658835
 30
0.0
 11
399.10190737903
 21
262.282693658835
 31
0.0
  0
LINE
  5
3A4
330
1F
100
AcDbEntity
  8
1
  6
Continuous
 62
     4
100
AcDbLine
 10
398.1117823790301
 20
263.532693658835
 30
0.0
 11
398.70585737903
 21
263.032693658835
 31
0.0
  0
LINE
  5
3A5
330
1F
100
AcDbEntity
  8
1
  6
Continuous
 62
     4
100
AcDbLine
 10
397.51770737903
 20
263.782693658835
 30
0.0
 11
398.1117823790301
 21
263.532693658835
 31
0.0
  0
LINE
  5
3A6
330
1F
100
AcDbEntity
  8
1
  6
Continuous
 62
     4
100
AcDbLine
 10
396.32955737903
 20
263.782693658835
 30
0.0
 11
397.51770737903
 21
263.782693658835
 31
0.0
  0
LINE
  5
3A7
330
1F
100
AcDbEntity
  8
1
  6
Continuous
 62
     4
100
AcDbLine
 10
395.73548237903
 20
263.532693658835
 30
0.0
 11
396.32955737903
 21
263.782693658835
 31
0.0
  0
LINE
  5
3A8
330
1F
100
AcDbEntity
  8
1
  6
Continuous
 62
     4
100
AcDbLine
 10
395.14140737903
 20
263.032693658835
 30
0.0
 11
395.73548237903
 21
263.532693658835
 31
0.0
  0
LINE
  5
3A9
330
1F
100
AcDbEntity
  8
1
  6
Continuous
 62
     4
100
AcDbLine
 10
394.74535737903
 20
262.282693658835
 30
0.0
 11
395.14140737903
 21
263.032693658835
 31
0.0
  0
LINE
  5
3AA
330
1F
100
AcDbEntity
  8
1
  6
Continuous
 62
     4
100
AcDbLine
 10
394.54733237903
 20
261.282693658835
 30
0.0
 11
394.74535737903
 21
262.282693658835
 31
0.0
  0
LINE
  5
3AB
330
1F
100
AcDbEntity
  8
1
  6
Continuous
 62
     4
100
AcDbLine
 10
389.7947323790301
 20
258.782693658835
 30
0.0
 11
388.01250737903
 21
257.782693658835
 31
0.0
  0
LINE
  5
3AC
330
1F
100
AcDbEntity
  8
1
  6
Continuous
 62
     4
100
AcDbLine
 10
391.18090737903
 20
260.282693658835
 30
0.0
 11
389.7947323790301
 21
258.782693658835
 31
0.0
  0
LINE
  5
3AD
330
1F
100
AcDbEntity
  8
1
  6
Continuous
 62
     4
100
AcDbLine
 10
391.7749823790301
 20
261.282693658835
 30
0.0
 11
391.18090737903
 21
260.282693658835
 31
0.0
  0
LINE
  5
3AE
330
1F
100
AcDbEntity
  8
1
  6
Continuous
 62
     4
100
AcDbLine
 10
391.97300737903
 20
262.282693658835
 30
0.0
 11
391.7749823790301
 21
261.282693658835
 31
0.0
  0
LINE
  5
3AF
330
1F
100
AcDbEntity
  8
1
  6
Continuous
 62
     4
100
AcDbLine
 10
392.17103237903
 20
263.532693658835
 30
0.0
 11
391.97300737903
 21
262.282693658835
 31
0.0
  0
LINE
  5
3B0
330
1F
100
AcDbEntity
  8
1
  6
Continuous
 62
     4
100
AcDbLine
 10
392.17103237903
 20
265.282693658835
 30
0.0
 11
392.17103237903
 21
263.532693658835
 31
0.0
  0
LINE
  5
3B1
330
1F
100
AcDbEntity
  8
1
  6
Continuous
 62
     4
100
AcDbLine
 10
391.97300737903
 20
266.282693658835
 30
0.0
 11
392.17103237903
 21
265.282693658835
 31
0.0
  0
LINE
  5
3B2
330
1F
100
AcDbEntity
  8
1
  6
Continuous
 62
     4
100
AcDbLine
 10
391.57695737903
 20
267.032693658835
 30
0.0
 11
391.97300737903
 21
266.282693658835
 31
0.0
  0
LINE
  5
3B3
330
1F
100
AcDbEntity
  8
1
  6
Continuous
 62
     4
100
AcDbLine
 10
390.9828823790301
 20
267.532693658835
 30
0.0
 11
391.57695737903
 21
267.032693658835
 31
0.0
  0
LINE
  5
3B4
330
1F
100
AcDbEntity
  8
1
  6
Continuous
 62
     4
100
AcDbLine
 10
390.38880737903
 20
267.782693658835
 30
0.0
 11
390.9828823790301
 21
267.532693658835
 31
0.0
  0
LINE
  5
3B5
330
1F
100
AcDbEntity
  8
1
  6
Continuous
 62
     4
100
AcDbLine
 10
389.20065737903
 20
267.782693658835
 30
0.0
 11
390.38880737903
 21
267.782693658835
 31
0.0
  0
LINE
  5
3B6
330
1F
100
AcDbEntity
  8
1
  6
Continuous
 62
     4
100
AcDbLine
 10
388.60658237903
 20
267.532693658835
 30
0.0
 11
389.20065737903
 21
267.782693658835
 31
0.0
  0
LINE
  5
3B7
330
1F
100
AcDbEntity
  8
1
  6
Continuous
 62
     4
100
AcDbLine
 10
388.01250737903
 20
267.032693658835
 30
0.0
 11
388.60658237903
 21
267.532693658835
 31
0.0
  0
LINE
  5
3B8
330
1F
100
AcDbEntity
  8
1
  6
Continuous
 62
     4
100
AcDbLine
 10
387.61645737903
 20
266.282693658835
 30
0.0
 11
388.01250737903
 21
267.032693658835
 31
0.0
  0
LINE
  5
3B9
330
1F
100
AcDbEntity
  8
1
  6
Continuous
 62
     4
100
AcDbLine
 10
387.41843237903
 20
265.282693658835
 30
0.0
 11
387.61645737903
 21
266.282693658835
 31
0.0
  0
LINE
  5
3BA
330
1F
100
AcDbEntity
  8
1
  6
Continuous
 62
     4
100
AcDbLine
 10
387.41843237903
 20
264.782693658835
 30
0.0
 11
387.41843237903
 21
265.282693658835
 31
0.0
  0
LINE
  5
3BB
330
1F
100
AcDbEntity
  8
1
  6
Continuous
 62
     4
100
AcDbLine
 10
387.61645737903
 20
263.782693658835
 30
0.0
 11
387.41843237903
 21
264.782693658835
 31
0.0
  0
LINE
  5
3BC
330
1F
100
AcDbEntity
  8
1
  6
Continuous
 62
     4
100
AcDbLine
 10
388.01250737903
 20
263.032693658835
 30
0.0
 11
387.61645737903
 21
263.782693658835
 31
0.0
  0
LINE
  5
3BD
330
1F
100
AcDbEntity
  8
1
  6
Continuous
 62
     4
100
AcDbLine
 10
388.60658237903
 20
262.532693658835
 30
0.0
 11
388.01250737903
 21
263.032693658835
 31
0.0
  0
LINE
  5
3BE
330
1F
100
AcDbEntity
  8
1
  6
Continuous
 62
     4
100
AcDbLine
 10
389.20065737903
 20
262.282693658835
 30
0.0
 11
388.60658237903
 21
262.532693658835
 31
0.0
  0
LINE
  5
3BF
330
1F
100
AcDbEntity
  8
1
  6
Continuous
 62
     4
100
AcDbLine
 10
391.97300737903
 20
262.282693658835
 30
0.0
 11
389.20065737903
 21
262.282693658835
 31
0.0
  0
LINE
  5
3C0
330
1F
100
AcDbEntity
  8
1
  6
Continuous
 62
     4
100
AcDbLine
 10
380.28953237903
 20
257.782693658835
 30
0.0
 11
385.04213237903
 21
257.782693658835
 31
0.0
  0
LINE
  5
3C1
330
1F
100
AcDbEntity
  8
1
  6
Continuous
 62
     4
100
AcDbLine
 10
384.64608237903
 20
264.282693658835
 30
0.0
 11
380.28953237903
 21
257.782693658835
 31
0.0
  0
LINE
  5
3C2
330
1F
100
AcDbEntity
  8
1
  6
Continuous
 62
     4
100
AcDbLine
 10
385.04213237903
 20
265.282693658835
 30
0.0
 11
384.64608237903
 21
264.282693658835
 31
0.0
  0
LINE
  5
3C3
330
1F
100
AcDbEntity
  8
1
  6
Continuous
 62
     4
100
AcDbLine
 10
385.04213237903
 20
266.282693658835
 30
0.0
 11
385.04213237903
 21
265.282693658835
 31
0.0
  0
LINE
  5
3C4
330
1F
100
AcDbEntity
  8
1
  6
Continuous
 62
     4
100
AcDbLine
 10
384.64608237903
 20
267.032693658835
 30
0.0
 11
385.04213237903
 21
266.282693658835
 31
0.0
  0
LINE
  5
3C5
330
1F
100
AcDbEntity
  8
1
  6
Continuous
 62
     4
100
AcDbLine
 10
384.05200737903
 20
267.532693658835
 30
0.0
 11
384.64608237903
 21
267.032693658835
 31
0.0
  0
LINE
  5
3C6
330
1F
100
AcDbEntity
  8
1
  6
Continuous
 62
     4
100
AcDbLine
 10
383.25990737903
 20
267.782693658835
 30
0.0
 11
384.05200737903
 21
267.532693658835
 31
0.0
  0
LINE
  5
3C7
330
1F
100
AcDbEntity
  8
1
  6
Continuous
 62
     4
100
AcDbLine
 10
382.07175737903
 20
267.782693658835
 30
0.0
 11
383.25990737903
 21
267.782693658835
 31
0.0
  0
LINE
  5
3C8
330
1F
100
AcDbEntity
  8
1
  6
Continuous
 62
     4
100
AcDbLine
 10
381.27965737903
 20
267.532693658835
 30
0.0
 11
382.07175737903
 21
267.782693658835
 31
0.0
  0
LINE
  5
3C9
330
1F
100
AcDbEntity
  8
1
  6
Continuous
 62
     4
100
AcDbLine
 10
380.68558237903
 20
267.032693658835
 30
0.0
 11
381.27965737903
 21
267.532693658835
 31
0.0
  0
LINE
  5
3CA
330
1F
100
AcDbEntity
  8
1
  6
Continuous
 62
     4
100
AcDbLine
 10
380.28953237903
 20
266.282693658835
 30
0.0
 11
380.68558237903
 21
267.032693658835
 31
0.0
  0
LINE
  5
3CB
330
1F
100
AcDbEntity
  8
1
  6
Continuous
 62
     4
100
AcDbLine
 10
352.36800737903
 20
257.782693658835
 30
0.0
 11
349.39763237903
 21
257.782693658835
 31
0.0
  0
LINE
  5
3CC
330
1F
100
AcDbEntity
  8
1
  6
Continuous
 62
     4
100
AcDbLine
 10
352.9620823790301
 20
258.032693658835
 30
0.0
 11
352.36800737903
 21
257.782693658835
 31
0.0
  0
LINE
  5
3CD
330
1F
100
AcDbEntity
  8
1
  6
Continuous
 62
     4
100
AcDbLine
 10
353.55615737903
 20
258.532693658835
 30
0.0
 11
352.9620823790301
 21
258.032693658835
 31
0.0
  0
LINE
  5
3CE
330
1F
100
AcDbEntity
  8
1
  6
Continuous
 62
     4
100
AcDbLine
 10
353.95220737903
 20
259.282693658835
 30
0.0
 11
353.55615737903
 21
258.532693658835
 31
0.0
  0
LINE
  5
3CF
330
1F
100
AcDbEntity
  8
1
  6
Continuous
 62
     4
100
AcDbLine
 10
354.15023237903
 20
260.282693658835
 30
0.0
 11
353.95220737903
 21
259.282693658835
 31
0.0
  0
LINE
  5
3D0
330
1F
100
AcDbEntity
  8
1
  6
Continuous
 62
     4
100
AcDbLine
 10
354.15023237903
 20
261.532693658835
 30
0.0
 11
354.15023237903
 21
260.282693658835
 31
0.0
  0
LINE
  5
3D1
330
1F
100
AcDbEntity
  8
1
  6
Continuous
 62
     4
100
AcDbLine
 10
353.95220737903
 20
262.532693658835
 30
0.0
 11
354.15023237903
 21
261.532693658835
 31
0.0
  0
LINE
  5
3D2
330
1F
100
AcDbEntity
  8
1
  6
Continuous
 62
     4
100
AcDbLine
 10
353.7541823790301
 20
263.032693658835
 30
0.0
 11
353.95220737903
 21
262.532693658835
 31
0.0
  0
LINE
  5
3D3
330
1F
100
AcDbEntity
  8
1
  6
Continuous
 62
     4
100
AcDbLine
 10
353.3581323790301
 20
263.532693658835
 30
0.0
 11
353.7541823790301
 21
263.032693658835
 31
0.0
  0
LINE
  5
3D4
330
1F
100
AcDbEntity
  8
1
  6
Continuous
 62
     4
100
AcDbLine
 10
352.5660323790301
 20
263.782693658835
 30
0.0
 11
353.3581323790301
 21
263.532693658835
 31
0.0
  0
LINE
  5
3D5
330
1F
100
AcDbEntity
  8
1
  6
Continuous
 62
     4
100
AcDbLine
 10
353.16010737903
 20
264.032693658835
 30
0.0
 11
352.5660323790301
 21
263.782693658835
 31
0.0
  0
LINE
  5
3D6
330
1F
100
AcDbEntity
  8
1
  6
Continuous
 62
     4
100
AcDbLine
 10
353.55615737903
 20
264.282693658835
 30
0.0
 11
353.16010737903
 21
264.032693658835
 31
0.0
  0
LINE
  5
3D7
330
1F
100
AcDbEntity
  8
1
  6
Continuous
 62
     4
100
AcDbLine
 10
353.95220737903
 20
264.782693658835
 30
0.0
 11
353.55615737903
 21
264.282693658835
 31
0.0
  0
LINE
  5
3D8
330
1F
100
AcDbEntity
  8
1
  6
Continuous
 62
     4
100
AcDbLine
 10
354.15023237903
 20
265.532693658835
 30
0.0
 11
353.95220737903
 21
264.782693658835
 31
0.0
  0
LINE
  5
3D9
330
1F
100
AcDbEntity
  8
1
  6
Continuous
 62
     4
100
AcDbLine
 10
354.15023237903
 20
266.282693658835
 30
0.0
 11
354.15023237903
 21
265.532693658835
 31
0.0
  0
LINE
  5
3DA
330
1F
100
AcDbEntity
  8
1
  6
Continuous
 62
     4
100
AcDbLine
 10
353.95220737903
 20
267.032693658835
 30
0.0
 11
354.15023237903
 21
266.282693658835
 31
0.0
  0
LINE
  5
3DB
330
1F
100
AcDbEntity
  8
1
  6
Continuous
 62
     4
100
AcDbLine
 10
353.3581323790301
 20
267.532693658835
 30
0.0
 11
353.95220737903
 21
267.032693658835
 31
0.0
  0
LINE
  5
3DC
330
1F
100
AcDbEntity
  8
1
  6
Continuous
 62
     4
100
AcDbLine
 10
352.36800737903
 20
267.782693658835
 30
0.0
 11
353.3581323790301
 21
267.532693658835
 31
0.0
  0
LINE
  5
3DD
330
1F
100
AcDbEntity
  8
1
  6
Continuous
 62
     4
100
AcDbLine
 10
349.39763237903
 20
267.782693658835
 30
0.0
 11
352.36800737903
 21
267.782693658835
 31
0.0
  0
LINE
  5
3DE
330
1F
100
AcDbEntity
  8
1
  6
Continuous
 62
     4
100
AcDbLine
 10
350.58578237903
 20
263.782693658835
 30
0.0
 11
352.5660323790301
 21
263.782693658835
 31
0.0
  0
LINE
  5
3DF
330
1F
100
AcDbEntity
  8
1
  6
Continuous
 62
     4
100
AcDbLine
 10
347.21935737903
 20
258.282693658835
 30
0.0
 11
347.21935737903
 21
258.032693658835
 31
0.0
  0
LINE
  5
3E0
330
1F
100
AcDbEntity
  8
1
  6
Continuous
 62
     4
100
AcDbLine
 10
347.02133237903
 20
258.282693658835
 30
0.0
 11
347.21935737903
 21
258.282693658835
 31
0.0
  0
LINE
  5
3E1
330
1F
100
AcDbEntity
  8
1
  6
Continuous
 62
     4
100
AcDbLine
 10
347.02133237903
 20
258.032693658835
 30
0.0
 11
347.02133237903
 21
258.282693658835
 31
0.0
  0
LINE
  5
3E2
330
1F
100
AcDbEntity
  8
1
  6
Continuous
 62
     4
100
AcDbLine
 10
347.21935737903
 20
258.032693658835
 30
0.0
 11
347.02133237903
 21
258.032693658835
 31
0.0
  0
LINE
  5
3E3
330
1F
100
AcDbEntity
  8
1
  6
Continuous
 62
     4
100
AcDbLine
 10
347.41738237903
 20
258.532693658835
 30
0.0
 11
347.41738237903
 21
257.782693658835
 31
0.0
  0
LINE
  5
3E4
330
1F
100
AcDbEntity
  8
1
  6
Continuous
 62
     4
100
AcDbLine
 10
346.82330737903
 20
258.532693658835
 30
0.0
 11
347.41738237903
 21
258.532693658835
 31
0.0
  0
LINE
  5
3E5
330
1F
100
AcDbEntity
  8
1
  6
Continuous
 62
     4
100
AcDbLine
 10
346.82330737903
 20
257.782693658835
 30
0.0
 11
346.82330737903
 21
258.532693658835
 31
0.0
  0
LINE
  5
3E6
330
1F
100
AcDbEntity
  8
1
  6
Continuous
 62
     4
100
AcDbLine
 10
347.41738237903
 20
257.782693658835
 30
0.0
 11
346.82330737903
 21
257.782693658835
 31
0.0
  0
LINE
  5
3E7
330
1F
100
AcDbEntity
  8
1
  6
Continuous
 62
     4
100
AcDbLine
 10
344.44700737903
 20
264.032693658835
 30
0.0
 11
344.44700737903
 21
261.532693658835
 31
0.0
  0
LINE
  5
3E8
330
1F
100
AcDbEntity
  8
1
  6
Continuous
 62
     4
100
AcDbLine
 10
344.24898237903
 20
265.532693658835
 30
0.0
 11
344.44700737903
 21
264.032693658835
 31
0.0
  0
LINE
  5
3E9
330
1F
100
AcDbEntity
  8
1
  6
Continuous
 62
     4
100
AcDbLine
 10
343.85293237903
 20
266.532693658835
 30
0.0
 11
344.24898237903
 21
265.532693658835
 31
0.0
  0
LINE
  5
3EA
330
1F
100
AcDbEntity
  8
1
  6
Continuous
 62
     4
100
AcDbLine
 10
343.45688237903
 20
267.032693658835
 30
0.0
 11
343.85293237903
 21
266.532693658835
 31
0.0
  0
LINE
  5
3EB
330
1F
100
AcDbEntity
  8
1
  6
Continuous
 62
     4
100
AcDbLine
 10
342.86280737903
 20
267.532693658835
 30
0.0
 11
343.45688237903
 21
267.032693658835
 31
0.0
  0
LINE
  5
3EC
330
1F
100
AcDbEntity
  8
1
  6
Continuous
 62
     4
100
AcDbLine
 10
342.26873237903
 20
267.782693658835
 30
0.0
 11
342.86280737903
 21
267.532693658835
 31
0.0
  0
LINE
  5
3ED
330
1F
100
AcDbEntity
  8
1
  6
Continuous
 62
     4
100
AcDbLine
 10
341.87268237903
 20
267.782693658835
 30
0.0
 11
342.26873237903
 21
267.782693658835
 31
0.0
  0
LINE
  5
3EE
330
1F
100
AcDbEntity
  8
1
  6
Continuous
 62
     4
100
AcDbLine
 10
341.27860737903
 20
267.532693658835
 30
0.0
 11
341.87268237903
 21
267.782693658835
 31
0.0
  0
LINE
  5
3EF
330
1F
100
AcDbEntity
  8
1
  6
Continuous
 62
     4
100
AcDbLine
 10
340.68453237903
 20
267.032693658835
 30
0.0
 11
341.27860737903
 21
267.532693658835
 31
0.0
  0
LINE
  5
3F0
330
1F
100
AcDbEntity
  8
1
  6
Continuous
 62
     4
100
AcDbLine
 10
340.28848237903
 20
266.532693658835
 30
0.0
 11
340.68453237903
 21
267.032693658835
 31
0.0
  0
LINE
  5
3F1
330
1F
100
AcDbEntity
  8
1
  6
Continuous
 62
     4
100
AcDbLine
 10
339.89243237903
 20
265.532693658835
 30
0.0
 11
340.28848237903
 21
266.532693658835
 31
0.0
  0
LINE
  5
3F2
330
1F
100
AcDbEntity
  8
1
  6
Continuous
 62
     4
100
AcDbLine
 10
339.69440737903
 20
264.032693658835
 30
0.0
 11
339.89243237903
 21
265.532693658835
 31
0.0
  0
LINE
  5
3F3
330
1F
100
AcDbEntity
  8
1
  6
Continuous
 62
     4
100
AcDbLine
 10
339.69440737903
 20
261.532693658835
 30
0.0
 11
339.69440737903
 21
264.032693658835
 31
0.0
  0
LINE
  5
3F4
330
1F
100
AcDbEntity
  8
1
  6
Continuous
 62
     4
100
AcDbLine
 10
339.89243237903
 20
260.032693658835
 30
0.0
 11
339.69440737903
 21
261.532693658835
 31
0.0
  0
LINE
  5
3F5
330
1F
100
AcDbEntity
  8
1
  6
Continuous
 62
     4
100
AcDbLine
 10
340.28848237903
 20
259.032693658835
 30
0.0
 11
339.89243237903
 21
260.032693658835
 31
0.0
  0
LINE
  5
3F6
330
1F
100
AcDbEntity
  8
1
  6
Continuous
 62
     4
100
AcDbLine
 10
340.68453237903
 20
258.532693658835
 30
0.0
 11
340.28848237903
 21
259.032693658835
 31
0.0
  0
LINE
  5
3F7
330
1F
100
AcDbEntity
  8
1
  6
Continuous
 62
     4
100
AcDbLine
 10
341.27860737903
 20
258.032693658835
 30
0.0
 11
340.68453237903
 21
258.532693658835
 31
0.0
  0
LINE
  5
3F8
330
1F
100
AcDbEntity
  8
1
  6
Continuous
 62
     4
100
AcDbLine
 10
341.87268237903
 20
257.782693658835
 30
0.0
 11
341.27860737903
 21
258.032693658835
 31
0.0
  0
LINE
  5
3F9
330
1F
100
AcDbEntity
  8
1
  6
Continuous
 62
     4
100
AcDbLine
 10
342.26873237903
 20
257.782693658835
 30
0.0
 11
341.87268237903
 21
257.782693658835
 31
0.0
  0
LINE
  5
3FA
330
1F
100
AcDbEntity
  8
1
  6
Continuous
 62
     4
100
AcDbLine
 10
342.86280737903
 20
258.032693658835
 30
0.0
 11
342.26873237903
 21
257.782693658835
 31
0.0
  0
LINE
  5
3FB
330
1F
100
AcDbEntity
  8
1
  6
Continuous
 62
     4
100
AcDbLine
 10
343.45688237903
 20
258.532693658835
 30
0.0
 11
342.86280737903
 21
258.032693658835
 31
0.0
  0
LINE
  5
3FC
330
1F
100
AcDbEntity
  8
1
  6
Continuous
 62
     4
100
AcDbLine
 10
343.85293237903
 20
259.032693658835
 30
0.0
 11
343.45688237903
 21
258.532693658835
 31
0.0
  0
LINE
  5
3FD
330
1F
100
AcDbEntity
  8
1
  6
Continuous
 62
     4
100
AcDbLine
 10
344.24898237903
 20
260.032693658835
 30
0.0
 11
343.85293237903
 21
259.032693658835
 31
0.0
  0
LINE
  5
3FE
330
1F
100
AcDbEntity
  8
1
  6
Continuous
 62
     4
100
AcDbLine
 10
344.44700737903
 20
261.532693658835
 30
0.0
 11
344.24898237903
 21
260.032693658835
 31
0.0
  0
LINE
  5
3FF
330
1F
100
AcDbEntity
  8
1
  6
Continuous
 62
     4
100
AcDbLine
 10
386.42830737903
 20
274.442693658835
 30
0.0
 11
386.42830737903
 21
284.442693658835
 31
0.0
  0
LINE
  5
400
330
1F
100
AcDbEntity
  8
1
  6
Continuous
 62
     4
100
AcDbLine
 10
391.18090737903
 20
274.442693658835
 30
0.0
 11
386.42830737903
 21
274.442693658835
 31
0.0
  0
LINE
  5
401
330
1F
100
AcDbEntity
  8
1
  6
Continuous
 62
     4
100
AcDbLine
 10
367.81395737903
 20
276.442693658835
 30
0.0
 11
367.02185737903
 21
274.442693658835
 31
0.0
  0
LINE
  5
402
330
1F
100
AcDbEntity
  8
1
  6
Continuous
 62
     4
100
AcDbLine
 10
368.21000737903
 20
278.442693658835
 30
0.0
 11
367.81395737903
 21
276.442693658835
 31
0.0
  0
LINE
  5
403
330
1F
100
AcDbEntity
  8
1
  6
Continuous
 62
     4
100
AcDbLine
 10
368.21000737903
 20
280.442693658835
 30
0.0
 11
368.21000737903
 21
278.442693658835
 31
0.0
  0
LINE
  5
404
330
1F
100
AcDbEntity
  8
1
  6
Continuous
 62
     4
100
AcDbLine
 10
367.81395737903
 20
282.442693658835
 30
0.0
 11
368.21000737903
 21
280.442693658835
 31
0.0
  0
LINE
  5
405
330
1F
100
AcDbEntity
  8
1
  6
Continuous
 62
     4
100
AcDbLine
 10
367.02185737903
 20
284.442693658835
 30
0.0
 11
367.81395737903
 21
282.442693658835
 31
0.0
  0
LINE
  5
406
330
1F
100
AcDbEntity
  8
1
  6
Continuous
 62
     4
100
AcDbLine
 10
361.87320737903
 20
281.442693658835
 30
0.0
 11
363.45740737903
 21
281.442693658835
 31
0.0
  0
LINE
  5
407
330
1F
100
AcDbEntity
  8
1
  6
Continuous
 62
     4
100
AcDbLine
 10
361.87320737903
 20
281.442693658835
 30
0.0
 11
361.87320737903
 21
274.442693658835
 31
0.0
  0
LINE
  5
408
330
1F
100
AcDbEntity
  8
1
  6
Continuous
 62
     4
100
AcDbLine
 10
364.64555737903
 20
280.192693658835
 30
0.0
 11
364.64555737903
 21
274.442693658835
 31
0.0
  0
LINE
  5
409
330
1F
100
AcDbEntity
  8
1
  6
Continuous
 62
     4
100
AcDbLine
 10
364.44753237903
 20
280.692693658835
 30
0.0
 11
364.64555737903
 21
280.192693658835
 31
0.0
  0
LINE
  5
40A
330
1F
100
AcDbEntity
  8
1
  6
Continuous
 62
     4
100
AcDbLine
 10
364.05148237903
 20
281.192693658835
 30
0.0
 11
364.44753237903
 21
280.692693658835
 31
0.0
  0
LINE
  5
40B
330
1F
100
AcDbEntity
  8
1
  6
Continuous
 62
     4
100
AcDbLine
 10
363.45740737903
 20
281.442693658835
 30
0.0
 11
364.05148237903
 21
281.192693658835
 31
0.0
  0
LINE
  5
40C
330
1F
100
AcDbEntity
  8
1
  6
Continuous
 62
     4
100
AcDbLine
 10
359.10085737903
 20
281.442693658835
 30
0.0
 11
361.87320737903
 21
281.442693658835
 31
0.0
  0
LINE
  5
40D
330
1F
100
AcDbEntity
  8
1
  6
Continuous
 62
     4
100
AcDbLine
 10
359.10085737903
 20
274.442693658835
 30
0.0
 11
359.10085737903
 21
281.442693658835
 31
0.0
  0
LINE
  5
40E
330
1F
100
AcDbEntity
  8
1
  6
Continuous
 62
     4
100
AcDbLine
 10
355.93245737903
 20
276.442693658835
 30
0.0
 11
356.7245573790301
 21
274.442693658835
 31
0.0
  0
LINE
  5
40F
330
1F
100
AcDbEntity
  8
1
  6
Continuous
 62
     4
100
AcDbLine
 10
355.53640737903
 20
278.442693658835
 30
0.0
 11
355.93245737903
 21
276.442693658835
 31
0.0
  0
LINE
  5
410
330
1F
100
AcDbEntity
  8
1
  6
Continuous
 62
     4
100
AcDbLine
 10
355.53640737903
 20
280.442693658835
 30
0.0
 11
355.53640737903
 21
278.442693658835
 31
0.0
  0
LINE
  5
411
330
1F
100
AcDbEntity
  8
1
  6
Continuous
 62
     4
100
AcDbLine
 10
355.93245737903
 20
282.442693658835
 30
0.0
 11
355.53640737903
 21
280.442693658835
 31
0.0
  0
LINE
  5
412
330
1F
100
AcDbEntity
  8
1
  6
Continuous
 62
     4
100
AcDbLine
 10
356.7245573790301
 20
284.442693658835
 30
0.0
 11
355.93245737903
 21
282.442693658835
 31
0.0
  0
LINE
  5
413
330
1F
100
AcDbEntity
  8
1
  6
Continuous
 62
     4
100
AcDbLine
 10
350.88281987903
 20
275.692693658835
 30
0.0
 11
352.26899487903
 21
275.442693658835
 31
0.0
  0
LINE
  5
414
330
1F
100
AcDbEntity
  8
1
  6
Continuous
 62
     4
100
AcDbLine
 10
349.99170737903
 20
276.317693658835
 30
0.0
 11
350.88281987903
 21
275.692693658835
 31
0.0
  0
LINE
  5
415
330
1F
100
AcDbEntity
  8
1
  6
Continuous
 62
     4
100
AcDbLine
 10
349.59565737903
 20
277.317693658835
 30
0.0
 11
349.99170737903
 21
276.317693658835
 31
0.0
  0
LINE
  5
416
330
1F
100
AcDbEntity
  8
1
  6
Continuous
 62
     4
100
AcDbLine
 10
349.99170737903
 20
278.192693658835
 30
0.0
 11
349.59565737903
 21
277.317693658835
 31
0.0
  0
LINE
  5
417
330
1F
100
AcDbEntity
  8
1
  6
Continuous
 62
     4
100
AcDbLine
 10
351.37788237903
 20
278.817693658835
 30
0.0
 11
349.99170737903
 21
278.192693658835
 31
0.0
  0
LINE
  5
418
330
1F
100
AcDbEntity
  8
1
  6
Continuous
 62
     4
100
AcDbLine
 10
352.86306987903
 20
278.567693658835
 30
0.0
 11
351.37788237903
 21
278.817693658835
 31
0.0
  0
LINE
  5
419
330
1F
100
AcDbEntity
  8
1
  6
Continuous
 62
     4
100
AcDbLine
 10
351.97195737903
 20
280.692693658835
 30
0.0
 11
352.86306987903
 21
278.567693658835
 31
0.0
  0
LINE
  5
41A
330
1F
100
AcDbEntity
  8
1
  6
Continuous
 62
     4
100
AcDbLine
 10
350.48676987903
 20
283.567693658835
 30
0.0
 11
351.97195737903
 21
280.692693658835
 31
0.0
  0
LINE
  5
41B
330
1F
100
AcDbEntity
  8
1
  6
Continuous
 62
     4
100
AcDbLine
 10
351.17985737903
 20
281.692693658835
 30
0.0
 11
352.66504487903
 21
282.567693658835
 31
0.0
  0
LINE
  5
41C
330
1F
100
AcDbEntity
  8
1
  6
Continuous
 62
     4
100
AcDbLine
 10
349.39763237903
 20
281.067693658835
 30
0.0
 11
351.17985737903
 21
281.692693658835
 31
0.0
  0
LINE
  5
41D
330
1F
100
AcDbEntity
  8
1
  6
Continuous
 62
     4
100
AcDbLine
 10
341.67465737903
 20
282.567693658835
 30
0.0
 11
341.67465737903
 21
275.442693658835
 31
0.0
  0
LINE
  5
41E
330
1F
100
AcDbEntity
  8
1
  6
Continuous
 62
     4
100
AcDbLine
 10
344.74404487903
 20
275.692693658835
 30
0.0
 11
346.52626987903
 21
274.817693658835
 31
0.0
  0
LINE
  5
41F
330
1F
100
AcDbEntity
  8
1
  6
Continuous
 62
     4
100
AcDbLine
 10
343.85293237903
 20
276.942693658835
 30
0.0
 11
344.74404487903
 21
275.692693658835
 31
0.0
  0
LINE
  5
420
330
1F
100
AcDbEntity
  8
1
  6
Continuous
 62
     4
100
AcDbLine
 10
342.96181987903
 20
278.817693658835
 30
0.0
 11
343.85293237903
 21
276.942693658835
 31
0.0
  0
LINE
  5
421
330
1F
100
AcDbEntity
  8
1
  6
Continuous
 62
     4
100
AcDbLine
 10
341.67465737903
 20
284.192693658835
 30
0.0
 11
341.67465737903
 21
282.567693658835
 31
0.0
  0
LINE
  5
422
330
1F
100
AcDbEntity
  8
1
  6
Continuous
 62
     4
100
AcDbLine
 10
345.23910737903
 20
284.192693658835
 30
0.0
 11
341.67465737903
 21
284.192693658835
 31
0.0
  0
LINE
  5
423
330
1F
100
AcDbEntity
  8
1
  6
Continuous
 62
     4
100
AcDbLine
 10
344.94206987903
 20
282.567693658835
 30
0.0
 11
341.67465737903
 21
282.567693658835
 31
0.0
  0
LINE
  5
424
330
1F
100
AcDbEntity
  8
1
  6
Continuous
 62
     4
100
AcDbLine
 10
341.67465737903
 20
281.067693658835
 30
0.0
 11
344.94206987903
 21
281.067693658835
 31
0.0
  0
LINE
  5
425
330
1F
100
AcDbEntity
  8
1
  6
Continuous
 62
     4
100
AcDbLine
 10
346.52626987903
 20
279.442693658835
 30
0.0
 11
339.89243237903
 21
279.442693658835
 31
0.0
  0
LINE
  5
426
330
1F
100
AcDbEntity
  8
1
  6
Continuous
 62
     4
100
AcDbLine
 10
343.85293237903
 20
277.317693658835
 30
0.0
 11
345.43713237903
 21
278.567693658835
 31
0.0
  0
LINE
  5
427
330
1F
100
AcDbEntity
  8
1
  6
Continuous
 62
     4
100
AcDbLine
 10
340.38749487903
 20
274.817693658835
 30
0.0
 11
343.25885737903
 21
276.317693658835
 31
0.0
  0
LINE
  5
428
330
1F
100
AcDbEntity
  8
1
  6
Continuous
 62
     4
100
AcDbLine
 10
338.11020737903
 20
282.942693658835
 30
0.0
 11
338.80329487903
 21
281.942693658835
 31
0.0
  0
LINE
  5
429
330
1F
100
AcDbEntity
  8
1
  6
Continuous
 62
     4
100
AcDbLine
 10
337.51613237903
 20
282.317693658835
 30
0.0
 11
338.11020737903
 21
281.317693658835
 31
0.0
  0
LINE
  5
42A
330
1F
100
AcDbEntity
  8
1
  6
Continuous
 62
     4
100
AcDbLine
 10
336.62501987903
 20
279.817693658835
 30
0.0
 11
337.51613237903
 21
277.317693658835
 31
0.0
  0
LINE
  5
42B
330
1F
100
AcDbEntity
  8
1
  6
Continuous
 62
     4
100
AcDbLine
 10
336.42699487903
 20
281.942693658835
 30
0.0
 11
336.62501987903
 21
279.817693658835
 31
0.0
  0
LINE
  5
42C
330
1F
100
AcDbEntity
  8
1
  6
Continuous
 62
     4
100
AcDbLine
 10
336.42699487903
 20
280.067693658835
 30
0.0
 11
336.42699487903
 21
281.942693658835
 31
0.0
  0
LINE
  5
42D
330
1F
100
AcDbEntity
  8
1
  6
Continuous
 62
     4
100
AcDbLine
 10
336.12995737903
 20
278.192693658835
 30
0.0
 11
336.42699487903
 21
280.067693658835
 31
0.0
  0
LINE
  5
42E
330
1F
100
AcDbEntity
  8
1
  6
Continuous
 62
     4
100
AcDbLine
 10
335.53588237903
 20
276.317693658835
 30
0.0
 11
336.12995737903
 21
278.192693658835
 31
0.0
  0
LINE
  5
42F
330
1F
100
AcDbEntity
  8
1
  6
Continuous
 62
     4
100
AcDbLine
 10
334.64476987903
 20
275.442693658835
 30
0.0
 11
335.53588237903
 21
276.317693658835
 31
0.0
  0
LINE
  5
430
330
1F
100
AcDbEntity
  8
1
  6
Continuous
 62
     4
100
AcDbLine
 10
333.75365737903
 20
275.067693658835
 30
0.0
 11
334.64476987903
 21
275.442693658835
 31
0.0
  0
LINE
  5
431
330
1F
100
AcDbEntity
  8
1
  6
Continuous
 62
     4
100
AcDbLine
 10
332.86254487903
 20
275.442693658835
 30
0.0
 11
333.75365737903
 21
275.067693658835
 31
0.0
  0
LINE
  5
432
330
1F
100
AcDbEntity
  8
1
  6
Continuous
 62
     4
100
AcDbLine
 10
332.46649487903
 20
276.317693658835
 30
0.0
 11
332.86254487903
 21
275.442693658835
 31
0.0
  0
LINE
  5
433
330
1F
100
AcDbEntity
  8
1
  6
Continuous
 62
     4
100
AcDbLine
 10
332.46649487903
 20
277.567693658835
 30
0.0
 11
332.46649487903
 21
276.317693658835
 31
0.0
  0
LINE
  5
434
330
1F
100
AcDbEntity
  8
1
  6
Continuous
 62
     4
100
AcDbLine
 10
332.86254487903
 20
279.192693658835
 30
0.0
 11
332.46649487903
 21
277.567693658835
 31
0.0
  0
LINE
  5
435
330
1F
100
AcDbEntity
  8
1
  6
Continuous
 62
     4
100
AcDbLine
 10
333.55563237903
 20
280.442693658835
 30
0.0
 11
332.86254487903
 21
279.192693658835
 31
0.0
  0
LINE
  5
436
330
1F
100
AcDbEntity
  8
1
  6
Continuous
 62
     4
100
AcDbLine
 10
334.44674487903
 20
281.692693658835
 30
0.0
 11
333.55563237903
 21
280.442693658835
 31
0.0
  0
LINE
  5
437
330
1F
100
AcDbEntity
  8
1
  6
Continuous
 62
     4
100
AcDbLine
 10
333.55563237903
 20
281.317693658835
 30
0.0
 11
334.44674487903
 21
281.692693658835
 31
0.0
  0
LINE
  5
438
330
1F
100
AcDbEntity
  8
1
  6
Continuous
 62
     4
100
AcDbLine
 10
332.46649487903
 20
281.067693658835
 30
0.0
 11
333.55563237903
 21
281.317693658835
 31
0.0
  0
LINE
  5
439
330
1F
100
AcDbEntity
  8
1
  6
Continuous
 62
     4
100
AcDbLine
 10
328.70401987903
 20
274.817693658835
 30
0.0
 11
327.81290737903
 21
274.817693658835
 31
0.0
  0
LINE
  5
43A
330
1F
100
AcDbEntity
  8
1
  6
Continuous
 62
     4
100
AcDbLine
 10
328.70401987903
 20
282.942693658835
 30
0.0
 11
328.70401987903
 21
274.817693658835
 31
0.0
  0
LINE
  5
43B
330
1F
100
AcDbEntity
  8
1
  6
Continuous
 62
     4
100
AcDbLine
 10
326.92179487903
 20
281.942693658835
 30
0.0
 11
327.61488237903
 21
280.067693658835
 31
0.0
  0
LINE
  5
43C
330
1F
100
AcDbEntity
  8
1
  6
Continuous
 62
     4
100
AcDbLine
 10
328.20895737903
 20
283.567693658835
 30
0.0
 11
327.11981987903
 21
283.192693658835
 31
0.0
  0
LINE
  5
43D
330
1F
100
AcDbEntity
  8
1
  6
Continuous
 62
     4
100
AcDbLine
 10
329.79315737903
 20
284.192693658835
 30
0.0
 11
328.20895737903
 21
283.567693658835
 31
0.0
  0
LINE
  5
43E
330
1F
100
AcDbEntity
  8
1
  6
Continuous
 62
     4
100
AcDbLine
 10
329.59513237903
 20
280.067693658835
 30
0.0
 11
330.18920737903
 21
281.942693658835
 31
0.0
  0
LINE
  5
43F
330
1F
100
AcDbEntity
  8
1
  6
Continuous
 62
     4
100
AcDbLine
 10
326.52574487903
 20
278.817693658835
 30
0.0
 11
330.88229487903
 21
278.817693658835
 31
0.0
  0
LINE
  5
440
330
1F
100
AcDbEntity
  8
1
  6
Continuous
 62
     4
100
AcDbLine
 10
324.24845737903
 20
282.942693658835
 30
0.0
 11
324.24845737903
 21
277.567693658835
 31
0.0
  0
LINE
  5
441
330
1F
100
AcDbEntity
  8
1
  6
Continuous
 62
     4
100
AcDbLine
 10
325.83265737903
 20
282.942693658835
 30
0.0
 11
324.24845737903
 21
282.942693658835
 31
0.0
  0
LINE
  5
442
330
1F
100
AcDbEntity
  8
1
  6
Continuous
 62
     4
100
AcDbLine
 10
325.83265737903
 20
277.567693658835
 30
0.0
 11
325.83265737903
 21
282.942693658835
 31
0.0
  0
LINE
  5
443
330
1F
100
AcDbEntity
  8
1
  6
Continuous
 62
     4
100
AcDbLine
 10
324.24845737903
 20
277.567693658835
 30
0.0
 11
325.83265737903
 21
277.567693658835
 31
0.0
  0
LINE
  5
444
330
1F
100
AcDbEntity
  8
1
  6
Continuous
 62
     4
100
AcDbLine
 10
369.99223237903
 20
307.762693658835
 30
0.0
 11
367.0218573790301
 21
307.762693658835
 31
0.0
  0
LINE
  5
445
330
1F
100
AcDbEntity
  8
1
  6
Continuous
 62
     4
100
AcDbLine
 10
370.5863073790301
 20
308.012693658835
 30
0.0
 11
369.99223237903
 21
307.762693658835
 31
0.0
  0
LINE
  5
446
330
1F
100
AcDbEntity
  8
1
  6
Continuous
 62
     4
100
AcDbLine
 10
371.1803823790301
 20
308.512693658835
 30
0.0
 11
370.5863073790301
 21
308.012693658835
 31
0.0
  0
LINE
  5
447
330
1F
100
AcDbEntity
  8
1
  6
Continuous
 62
     4
100
AcDbLine
 10
371.5764323790301
 20
309.262693658835
 30
0.0
 11
371.1803823790301
 21
308.512693658835
 31
0.0
  0
LINE
  5
448
330
1F
100
AcDbEntity
  8
1
  6
Continuous
 62
     4
100
AcDbLine
 10
371.77445737903
 20
310.262693658835
 30
0.0
 11
371.5764323790301
 21
309.262693658835
 31
0.0
  0
LINE
  5
449
330
1F
100
AcDbEntity
  8
1
  6
Continuous
 62
     4
100
AcDbLine
 10
371.77445737903
 20
311.762693658835
 30
0.0
 11
371.77445737903
 21
310.262693658835
 31
0.0
  0
LINE
  5
44A
330
1F
100
AcDbEntity
  8
1
  6
Continuous
 62
     4
100
AcDbLine
 10
371.5764323790301
 20
312.762693658835
 30
0.0
 11
371.77445737903
 21
311.762693658835
 31
0.0
  0
LINE
  5
44B
330
1F
100
AcDbEntity
  8
1
  6
Continuous
 62
     4
100
AcDbLine
 10
370.9823573790301
 20
313.512693658835
 30
0.0
 11
371.5764323790301
 21
312.762693658835
 31
0.0
  0
LINE
  5
44C
330
1F
100
AcDbEntity
  8
1
  6
Continuous
 62
     4
100
AcDbLine
 10
369.99223237903
 20
313.762693658835
 30
0.0
 11
370.9823573790301
 21
313.512693658835
 31
0.0
  0
LINE
  5
44D
330
1F
100
AcDbEntity
  8
1
  6
Continuous
 62
     4
100
AcDbLine
 10
367.0218573790301
 20
313.762693658835
 30
0.0
 11
369.99223237903
 21
313.762693658835
 31
0.0
  0
LINE
  5
44E
330
1F
100
AcDbEntity
  8
1
  6
Continuous
 62
     4
100
AcDbLine
 10
367.0218573790301
 20
317.762693658835
 30
0.0
 11
367.0218573790301
 21
313.762693658835
 31
0.0
  0
LINE
  5
44F
330
1F
100
AcDbEntity
  8
1
  6
Continuous
 62
     4
100
AcDbLine
 10
371.3784073790301
 20
317.762693658835
 30
0.0
 11
367.0218573790301
 21
317.762693658835
 31
0.0
  0
LINE
  5
450
330
1F
100
AcDbEntity
  8
1
  6
Continuous
 62
     4
100
AcDbLine
 10
359.89295737903
 20
307.762693658835
 30
0.0
 11
364.64555737903
 21
307.762693658835
 31
0.0
  0
LINE
  5
451
330
1F
100
AcDbEntity
  8
1
  6
Continuous
 62
     4
100
AcDbLine
 10
364.24950737903
 20
314.262693658835
 30
0.0
 11
359.89295737903
 21
307.762693658835
 31
0.0
  0
LINE
  5
452
330
1F
100
AcDbEntity
  8
1
  6
Continuous
 62
     4
100
AcDbLine
 10
364.64555737903
 20
315.262693658835
 30
0.0
 11
364.24950737903
 21
314.262693658835
 31
0.0
  0
LINE
  5
453
330
1F
100
AcDbEntity
  8
1
  6
Continuous
 62
     4
100
AcDbLine
 10
364.64555737903
 20
316.262693658835
 30
0.0
 11
364.64555737903
 21
315.262693658835
 31
0.0
  0
LINE
  5
454
330
1F
100
AcDbEntity
  8
1
  6
Continuous
 62
     4
100
AcDbLine
 10
364.24950737903
 20
317.012693658835
 30
0.0
 11
364.64555737903
 21
316.262693658835
 31
0.0
  0
LINE
  5
455
330
1F
100
AcDbEntity
  8
1
  6
Continuous
 62
     4
100
AcDbLine
 10
363.65543237903
 20
317.512693658835
 30
0.0
 11
364.24950737903
 21
317.012693658835
 31
0.0
  0
LINE
  5
456
330
1F
100
AcDbEntity
  8
1
  6
Continuous
 62
     4
100
AcDbLine
 10
362.86333237903
 20
317.762693658835
 30
0.0
 11
363.65543237903
 21
317.512693658835
 31
0.0
  0
LINE
  5
457
330
1F
100
AcDbEntity
  8
1
  6
Continuous
 62
     4
100
AcDbLine
 10
361.67518237903
 20
317.762693658835
 30
0.0
 11
362.86333237903
 21
317.762693658835
 31
0.0
  0
LINE
  5
458
330
1F
100
AcDbEntity
  8
1
  6
Continuous
 62
     4
100
AcDbLine
 10
360.88308237903
 20
317.512693658835
 30
0.0
 11
361.67518237903
 21
317.762693658835
 31
0.0
  0
LINE
  5
459
330
1F
100
AcDbEntity
  8
1
  6
Continuous
 62
     4
100
AcDbLine
 10
360.28900737903
 20
317.012693658835
 30
0.0
 11
360.88308237903
 21
317.512693658835
 31
0.0
  0
LINE
  5
45A
330
1F
100
AcDbEntity
  8
1
  6
Continuous
 62
     4
100
AcDbLine
 10
359.89295737903
 20
316.262693658835
 30
0.0
 11
360.28900737903
 21
317.012693658835
 31
0.0
  0
LINE
  5
45B
330
1F
100
AcDbEntity
  8
1
  6
Continuous
 62
     4
100
AcDbLine
 10
353.55615737903
 20
311.262693658835
 30
0.0
 11
357.5166573790301
 21
311.262693658835
 31
0.0
  0
LINE
  5
45C
330
1F
100
AcDbEntity
  8
1
  6
Continuous
 62
     4
100
AcDbLine
 10
346.03120737903
 20
308.512693658835
 30
0.0
 11
345.63515737903
 21
309.012693658835
 31
0.0
  0
LINE
  5
45D
330
1F
100
AcDbEntity
  8
1
  6
Continuous
 62
     4
100
AcDbLine
 10
346.82330737903
 20
308.012693658835
 30
0.0
 11
346.03120737903
 21
308.512693658835
 31
0.0
  0
LINE
  5
45E
330
1F
100
AcDbEntity
  8
1
  6
Continuous
 62
     4
100
AcDbLine
 10
347.81343237903
 20
307.762693658835
 30
0.0
 11
346.82330737903
 21
308.012693658835
 31
0.0
  0
LINE
  5
45F
330
1F
100
AcDbEntity
  8
1
  6
Continuous
 62
     4
100
AcDbLine
 10
349.00158237903
 20
307.762693658835
 30
0.0
 11
347.81343237903
 21
307.762693658835
 31
0.0
  0
LINE
  5
460
330
1F
100
AcDbEntity
  8
1
  6
Continuous
 62
     4
100
AcDbLine
 10
349.9917073790301
 20
308.012693658835
 30
0.0
 11
349.00158237903
 21
307.762693658835
 31
0.0
  0
LINE
  5
461
330
1F
100
AcDbEntity
  8
1
  6
Continuous
 62
     4
100
AcDbLine
 10
350.58578237903
 20
308.512693658835
 30
0.0
 11
349.9917073790301
 21
308.012693658835
 31
0.0
  0
LINE
  5
462
330
1F
100
AcDbEntity
  8
1
  6
Continuous
 62
     4
100
AcDbLine
 10
350.98183237903
 20
309.262693658835
 30
0.0
 11
350.58578237903
 21
308.512693658835
 31
0.0
  0
LINE
  5
463
330
1F
100
AcDbEntity
  8
1
  6
Continuous
 62
     4
100
AcDbLine
 10
351.17985737903
 20
310.012693658835
 30
0.0
 11
350.98183237903
 21
309.262693658835
 31
0.0
  0
LINE
  5
464
330
1F
100
AcDbEntity
  8
1
  6
Continuous
 62
     4
100
AcDbLine
 10
351.17985737903
 20
310.512693658835
 30
0.0
 11
351.17985737903
 21
310.012693658835
 31
0.0
  0
LINE
  5
465
330
1F
100
AcDbEntity
  8
1
  6
Continuous
 62
     4
100
AcDbLine
 10
350.98183237903
 20
311.262693658835
 30
0.0
 11
351.17985737903
 21
310.512693658835
 31
0.0
  0
LINE
  5
466
330
1F
100
AcDbEntity
  8
1
  6
Continuous
 62
     4
100
AcDbLine
 10
350.58578237903
 20
312.012693658835
 30
0.0
 11
350.98183237903
 21
311.262693658835
 31
0.0
  0
LINE
  5
467
330
1F
100
AcDbEntity
  8
1
  6
Continuous
 62
     4
100
AcDbLine
 10
349.9917073790301
 20
312.512693658835
 30
0.0
 11
350.58578237903
 21
312.012693658835
 31
0.0
  0
LINE
  5
468
330
1F
100
AcDbEntity
  8
1
  6
Continuous
 62
     4
100
AcDbLine
 10
346.62528237903
 20
314.262693658835
 30
0.0
 11
349.9917073790301
 21
312.512693658835
 31
0.0
  0
LINE
  5
469
330
1F
100
AcDbEntity
  8
1
  6
Continuous
 62
     4
100
AcDbLine
 10
346.03120737903
 20
314.762693658835
 30
0.0
 11
346.62528237903
 21
314.262693658835
 31
0.0
  0
LINE
  5
46A
330
1F
100
AcDbEntity
  8
1
  6
Continuous
 62
     4
100
AcDbLine
 10
345.83318237903
 20
315.512693658835
 30
0.0
 11
346.03120737903
 21
314.762693658835
 31
0.0
  0
LINE
  5
46B
330
1F
100
AcDbEntity
  8
1
  6
Continuous
 62
     4
100
AcDbLine
 10
345.83318237903
 20
316.012693658835
 30
0.0
 11
345.83318237903
 21
315.512693658835
 31
0.0
  0
LINE
  5
46C
330
1F
100
AcDbEntity
  8
1
  6
Continuous
 62
     4
100
AcDbLine
 10
346.03120737903
 20
316.762693658835
 30
0.0
 11
345.83318237903
 21
316.012693658835
 31
0.0
  0
LINE
  5
46D
330
1F
100
AcDbEntity
  8
1
  6
Continuous
 62
     4
100
AcDbLine
 10
346.62528237903
 20
317.262693658835
 30
0.0
 11
346.03120737903
 21
316.762693658835
 31
0.0
  0
LINE
  5
46E
330
1F
100
AcDbEntity
  8
1
  6
Continuous
 62
     4
100
AcDbLine
 10
347.21935737903
 20
317.512693658835
 30
0.0
 11
346.62528237903
 21
317.262693658835
 31
0.0
  0
LINE
  5
46F
330
1F
100
AcDbEntity
  8
1
  6
Continuous
 62
     4
100
AcDbLine
 10
348.0114573790301
 20
317.762693658835
 30
0.0
 11
347.21935737903
 21
317.512693658835
 31
0.0
  0
LINE
  5
470
330
1F
100
AcDbEntity
  8
1
  6
Continuous
 62
     4
100
AcDbLine
 10
348.8035573790301
 20
317.762693658835
 30
0.0
 11
348.0114573790301
 21
317.762693658835
 31
0.0
  0
LINE
  5
471
330
1F
100
AcDbEntity
  8
1
  6
Continuous
 62
     4
100
AcDbLine
 10
349.79368237903
 20
317.512693658835
 30
0.0
 11
348.8035573790301
 21
317.762693658835
 31
0.0
  0
LINE
  5
472
330
1F
100
AcDbEntity
  8
1
  6
Continuous
 62
     4
100
AcDbLine
 10
350.38775737903
 20
317.262693658835
 30
0.0
 11
349.79368237903
 21
317.512693658835
 31
0.0
  0
LINE
  5
473
330
1F
100
AcDbEntity
  8
1
  6
Continuous
 62
     4
100
AcDbLine
 10
350.98183237903
 20
316.762693658835
 30
0.0
 11
350.38775737903
 21
317.262693658835
 31
0.0
  0
LINE
  5
474
330
1F
100
AcDbEntity
  8
1
  6
Continuous
 62
     4
100
AcDbLine
 10
339.29835737903
 20
311.262693658835
 30
0.0
 11
343.25885737903
 21
311.262693658835
 31
0.0
  0
LINE
  5
475
330
1F
100
AcDbEntity
  8
1
  6
Continuous
 62
     4
100
AcDbLine
 10
331.37735737903
 20
313.262693658835
 30
0.0
 11
331.37735737903
 21
312.762693658835
 31
0.0
  0
LINE
  5
476
330
1F
100
AcDbEntity
  8
1
  6
Continuous
 62
     4
100
AcDbLine
 10
336.92205737903
 20
313.262693658835
 30
0.0
 11
336.92205737903
 21
307.762693658835
 31
0.0
  0
LINE
  5
477
330
1F
100
AcDbEntity
  8
1
  6
Continuous
 62
     4
100
AcDbLine
 10
331.37735737903
 20
312.762693658835
 30
0.0
 11
331.37735737903
 21
307.762693658835
 31
0.0
  0
LINE
  5
478
330
1F
100
AcDbEntity
  8
1
  6
Continuous
 62
     4
100
AcDbLine
 10
331.37735737903
 20
317.762693658835
 30
0.0
 11
331.37735737903
 21
313.262693658835
 31
0.0
  0
LINE
  5
479
330
1F
100
AcDbEntity
  8
1
  6
Continuous
 62
     4
100
AcDbLine
 10
331.37735737903
 20
313.262693658835
 30
0.0
 11
336.92205737903
 21
313.262693658835
 31
0.0
  0
LINE
  5
47A
330
1F
100
AcDbEntity
  8
1
  6
Continuous
 62
     4
100
AcDbLine
 10
336.92205737903
 20
317.762693658835
 30
0.0
 11
336.92205737903
 21
313.262693658835
 31
0.0
  0
LINE
  5
47B
330
1F
100
AcDbEntity
  8
1
  6
Continuous
 62
     4
100
AcDbLine
 10
323.85240737903
 20
313.262693658835
 30
0.0
 11
323.85240737903
 21
317.762693658835
 31
0.0
  0
LINE
  5
47C
330
1F
100
AcDbEntity
  8
1
  6
Continuous
 62
     4
100
AcDbLine
 10
327.61488237903
 20
313.512693658835
 30
0.0
 11
327.02080737903
 21
313.262693658835
 31
0.0
  0
LINE
  5
47D
330
1F
100
AcDbEntity
  8
1
  6
Continuous
 62
     4
100
AcDbLine
 10
328.20895737903
 20
314.012693658835
 30
0.0
 11
327.61488237903
 21
313.512693658835
 31
0.0
  0
LINE
  5
47E
330
1F
100
AcDbEntity
  8
1
  6
Continuous
 62
     4
100
AcDbLine
 10
328.60500737903
 20
315.012693658835
 30
0.0
 11
328.20895737903
 21
314.012693658835
 31
0.0
  0
LINE
  5
47F
330
1F
100
AcDbEntity
  8
1
  6
Continuous
 62
     4
100
AcDbLine
 10
328.60500737903
 20
315.762693658835
 30
0.0
 11
328.60500737903
 21
315.012693658835
 31
0.0
  0
LINE
  5
480
330
1F
100
AcDbEntity
  8
1
  6
Continuous
 62
     4
100
AcDbLine
 10
328.40698237903
 20
316.762693658835
 30
0.0
 11
328.60500737903
 21
315.762693658835
 31
0.0
  0
LINE
  5
481
330
1F
100
AcDbEntity
  8
1
  6
Continuous
 62
     4
100
AcDbLine
 10
327.81290737903
 20
317.512693658835
 30
0.0
 11
328.40698237903
 21
316.762693658835
 31
0.0
  0
LINE
  5
482
330
1F
100
AcDbEntity
  8
1
  6
Continuous
 62
     4
100
AcDbLine
 10
326.82278237903
 20
317.762693658835
 30
0.0
 11
327.81290737903
 21
317.512693658835
 31
0.0
  0
LINE
  5
483
330
1F
100
AcDbEntity
  8
1
  6
Continuous
 62
     4
100
AcDbLine
 10
323.85240737903
 20
317.762693658835
 30
0.0
 11
326.82278237903
 21
317.762693658835
 31
0.0
  0
LINE
  5
484
330
1F
100
AcDbEntity
  8
1
  6
Continuous
 62
     4
100
AcDbLine
 10
323.85240737903
 20
307.762693658835
 30
0.0
 11
323.85240737903
 21
313.262693658835
 31
0.0
  0
LINE
  5
485
330
1F
100
AcDbEntity
  8
1
  6
Continuous
 62
     4
100
AcDbLine
 10
327.41685737903
 20
307.762693658835
 30
0.0
 11
323.85240737903
 21
307.762693658835
 31
0.0
  0
LINE
  5
486
330
1F
100
AcDbEntity
  8
1
  6
Continuous
 62
     4
100
AcDbLine
 10
328.20895737903
 20
308.262693658835
 30
0.0
 11
327.41685737903
 21
307.762693658835
 31
0.0
  0
LINE
  5
487
330
1F
100
AcDbEntity
  8
1
  6
Continuous
 62
     4
100
AcDbLine
 10
328.60500737903
 20
308.762693658835
 30
0.0
 11
328.20895737903
 21
308.262693658835
 31
0.0
  0
LINE
  5
488
330
1F
100
AcDbEntity
  8
1
  6
Continuous
 62
     4
100
AcDbLine
 10
329.00105737903
 20
309.762693658835
 30
0.0
 11
328.60500737903
 21
308.762693658835
 31
0.0
  0
LINE
  5
489
330
1F
100
AcDbEntity
  8
1
  6
Continuous
 62
     4
100
AcDbLine
 10
329.00105737903
 20
311.012693658835
 30
0.0
 11
329.00105737903
 21
309.762693658835
 31
0.0
  0
LINE
  5
48A
330
1F
100
AcDbEntity
  8
1
  6
Continuous
 62
     4
100
AcDbLine
 10
328.60500737903
 20
312.262693658835
 30
0.0
 11
329.00105737903
 21
311.012693658835
 31
0.0
  0
LINE
  5
48B
330
1F
100
AcDbEntity
  8
1
  6
Continuous
 62
     4
100
AcDbLine
 10
328.20895737903
 20
312.762693658835
 30
0.0
 11
328.60500737903
 21
312.262693658835
 31
0.0
  0
LINE
  5
48C
330
1F
100
AcDbEntity
  8
1
  6
Continuous
 62
     4
100
AcDbLine
 10
327.41685737903
 20
313.262693658835
 30
0.0
 11
328.20895737903
 21
312.762693658835
 31
0.0
  0
LINE
  5
48D
330
1F
100
AcDbEntity
  8
1
  6
Continuous
 62
     4
100
AcDbLine
 10
327.02080737903
 20
313.262693658835
 30
0.0
 11
327.41685737903
 21
313.262693658835
 31
0.0
  0
LINE
  5
48E
330
1F
100
AcDbEntity
  8
1
  6
Continuous
 62
     4
100
AcDbLine
 10
323.85240737903
 20
313.262693658835
 30
0.0
 11
327.02080737903
 21
313.262693658835
 31
0.0
  0
LINE
  5
48F
330
1F
100
AcDbEntity
  8
1
  6
Continuous
 62
     4
100
AcDbLine
 10
56.4394645690918
 20
-129.726898193359
 30
0.0
 11
57.4394645690918
 21
-130.351898193359
 31
0.0
  0
LINE
  5
490
330
1F
100
AcDbEntity
  8
1
  6
Continuous
 62
     4
100
AcDbLine
 10
57.8144645690918
 20
-129.414398193359
 30
0.0
 11
57.0019645690918
 21
-128.789398193359
 31
0.0
  0
LINE
  5
491
330
1F
100
AcDbEntity
  8
1
  6
Continuous
 62
     4
100
AcDbLine
 10
58.5019645690918
 20
-128.664398193359
 30
0.0
 11
58.9394645690918
 21
-129.101898193359
 31
0.0
  0
LINE
  5
492
330
1F
100
AcDbEntity
  8
1
  6
Continuous
 62
     4
100
AcDbLine
 10
59.2519645690918
 20
-128.789398193359
 30
0.0
 11
58.8144645690918
 21
-128.351898193359
 31
0.0
  0
LINE
  5
493
330
1F
100
AcDbEntity
  8
1
  6
Continuous
 62
     4
100
AcDbLine
 10
58.9394645690918
 20
-130.664398193359
 30
0.0
 11
59.6269645690918
 21
-129.726898193359
 31
0.0
  0
LINE
  5
494
330
1F
100
AcDbEntity
  8
1
  6
Continuous
 62
     4
100
AcDbLine
 10
57.8144645690918
 20
-131.601898193359
 30
0.0
 11
58.9394645690918
 21
-130.664398193359
 31
0.0
  0
LINE
  5
495
330
1F
100
AcDbEntity
  8
1
  6
Continuous
 62
     4
100
AcDbLine
 10
56.7519645690918
 20
-132.226898193359
 30
0.0
 11
57.8144645690918
 21
-131.601898193359
 31
0.0
  0
LINE
  5
496
330
1F
100
AcDbEntity
  8
1
  6
Continuous
 62
     4
100
AcDbLine
 10
54.0644645690918
 20
-130.851898193359
 30
0.0
 11
54.5019645690918
 21
-131.476898193359
 31
0.0
  0
LINE
  5
497
330
1F
100
AcDbEntity
  8
1
  6
Continuous
 62
     4
100
AcDbLine
 10
53.5019645690918
 20
-130.351898193359
 30
0.0
 11
54.0644645690918
 21
-130.851898193359
 31
0.0
  0
LINE
  5
498
330
1F
100
AcDbEntity
  8
1
  6
Continuous
 62
     4
100
AcDbLine
 10
53.1269645690918
 20
-128.351898193359
 30
0.0
 11
53.3769645690918
 21
-128.664398193359
 31
0.0
  0
LINE
  5
499
330
1F
100
AcDbEntity
  8
1
  6
Continuous
 62
     4
100
AcDbLine
 10
52.5644645690918
 20
-128.039398193359
 30
0.0
 11
53.1269645690918
 21
-128.351898193359
 31
0.0
  0
LINE
  5
49A
330
1F
100
AcDbEntity
  8
1
  6
Continuous
 62
     4
100
AcDbLine
 10
53.8144645690918
 20
-129.289398193359
 30
0.0
 11
51.8769645690918
 21
-129.289398193359
 31
0.0
  0
LINE
  5
49B
330
1F
100
AcDbEntity
  8
1
  6
Continuous
 62
     4
100
AcDbLine
 10
52.8144645690918
 20
-130.351898193359
 30
0.0
 11
53.8144645690918
 21
-129.289398193359
 31
0.0
  0
LINE
  5
49C
330
1F
100
AcDbEntity
  8
1
  6
Continuous
 62
     4
100
AcDbLine
 10
51.4394645690918
 20
-131.289398193359
 30
0.0
 11
52.8144645690918
 21
-130.351898193359
 31
0.0
  0
LINE
  5
49D
330
1F
100
AcDbEntity
  8
1
  6
Continuous
 62
     4
100
AcDbLine
 10
53.0019645690918
 20
-132.226898193359
 30
0.0
 11
53.0019645690918
 21
-130.226898193359
 31
0.0
  0
LINE
  5
49E
330
1F
100
AcDbEntity
  8
1
  6
Continuous
 62
     4
100
AcDbLine
 10
48.5019645690918
 20
-130.726898193359
 30
0.0
 11
48.5019645690918
 21
-132.726898193359
 31
0.0
  0
LINE
  5
49F
330
1F
100
AcDbEntity
  8
1
  6
Continuous
 62
     4
100
AcDbLine
 10
46.2519645690918
 20
-131.726898193359
 30
0.0
 11
49.2519645690918
 21
-131.726898193359
 31
0.0
  0
LINE
  5
4A0
330
1F
100
AcDbEntity
  8
1
  6
Continuous
 62
     4
100
AcDbLine
 10
48.5019645690918
 20
-127.726898193359
 30
0.0
 11
46.2519645690918
 21
-131.726898193359
 31
0.0
  0
LINE
  5
4A1
330
1F
100
AcDbEntity
  8
1
  6
Continuous
 62
     4
100
AcDbLine
 10
42.7519645690918
 20
-132.726898193359
 30
0.0
 11
44.7519645690918
 21
-127.726898193359
 31
0.0
  0
LINE
  5
4A2
330
1F
100
AcDbEntity
  8
1
  6
Continuous
 62
     4
100
AcDbLine
 10
40.1269645690918
 20
-132.726898193359
 30
0.0
 11
38.2519645690918
 21
-132.726898193359
 31
0.0
  0
LINE
  5
4A3
330
1F
100
AcDbEntity
  8
1
  6
Continuous
 62
     4
100
AcDbLine
 10
40.5019645690918
 20
-132.601898193359
 30
0.0
 11
40.1269645690918
 21
-132.726898193359
 31
0.0
  0
LINE
  5
4A4
330
1F
100
AcDbEntity
  8
1
  6
Continuous
 62
     4
100
AcDbLine
 10
40.8769645690918
 20
-132.351898193359
 30
0.0
 11
40.5019645690918
 21
-132.601898193359
 31
0.0
  0
LINE
  5
4A5
330
1F
100
AcDbEntity
  8
1
  6
Continuous
 62
     4
100
AcDbLine
 10
41.1269645690918
 20
-131.976898193359
 30
0.0
 11
40.8769645690918
 21
-132.351898193359
 31
0.0
  0
LINE
  5
4A6
330
1F
100
AcDbEntity
  8
1
  6
Continuous
 62
     4
100
AcDbLine
 10
41.2519645690918
 20
-131.476898193359
 30
0.0
 11
41.1269645690918
 21
-131.976898193359
 31
0.0
  0
LINE
  5
4A7
330
1F
100
AcDbEntity
  8
1
  6
Continuous
 62
     4
100
AcDbLine
 10
41.2519645690918
 20
-130.851898193359
 30
0.0
 11
41.2519645690918
 21
-131.476898193359
 31
0.0
  0
LINE
  5
4A8
330
1F
100
AcDbEntity
  8
1
  6
Continuous
 62
     4
100
AcDbLine
 10
41.1269645690918
 20
-130.351898193359
 30
0.0
 11
41.2519645690918
 21
-130.851898193359
 31
0.0
  0
LINE
  5
4A9
330
1F
100
AcDbEntity
  8
1
  6
Continuous
 62
     4
100
AcDbLine
 10
41.0019645690918
 20
-130.101898193359
 30
0.0
 11
41.1269645690918
 21
-130.351898193359
 31
0.0
  0
LINE
  5
4AA
330
1F
100
AcDbEntity
  8
1
  6
Continuous
 62
     4
100
AcDbLine
 10
40.7519645690918
 20
-129.851898193359
 30
0.0
 11
41.0019645690918
 21
-130.101898193359
 31
0.0
  0
LINE
  5
4AB
330
1F
100
AcDbEntity
  8
1
  6
Continuous
 62
     4
100
AcDbLine
 10
40.2519645690918
 20
-129.726898193359
 30
0.0
 11
40.7519645690918
 21
-129.851898193359
 31
0.0
  0
LINE
  5
4AC
330
1F
100
AcDbEntity
  8
1
  6
Continuous
 62
     4
100
AcDbLine
 10
40.6269645690918
 20
-129.601898193359
 30
0.0
 11
40.2519645690918
 21
-129.726898193359
 31
0.0
  0
LINE
  5
4AD
330
1F
100
AcDbEntity
  8
1
  6
Continuous
 62
     4
100
AcDbLine
 10
40.8769645690918
 20
-129.476898193359
 30
0.0
 11
40.6269645690918
 21
-129.601898193359
 31
0.0
  0
LINE
  5
4AE
330
1F
100
AcDbEntity
  8
1
  6
Continuous
 62
     4
100
AcDbLine
 10
41.1269645690918
 20
-129.226898193359
 30
0.0
 11
40.8769645690918
 21
-129.476898193359
 31
0.0
  0
LINE
  5
4AF
330
1F
100
AcDbEntity
  8
1
  6
Continuous
 62
     4
100
AcDbLine
 10
41.2519645690918
 20
-128.851898193359
 30
0.0
 11
41.1269645690918
 21
-129.226898193359
 31
0.0
  0
LINE
  5
4B0
330
1F
100
AcDbEntity
  8
1
  6
Continuous
 62
     4
100
AcDbLine
 10
41.2519645690918
 20
-128.476898193359
 30
0.0
 11
41.2519645690918
 21
-128.851898193359
 31
0.0
  0
LINE
  5
4B1
330
1F
100
AcDbEntity
  8
1
  6
Continuous
 62
     4
100
AcDbLine
 10
41.1269645690918
 20
-128.101898193359
 30
0.0
 11
41.2519645690918
 21
-128.476898193359
 31
0.0
  0
LINE
  5
4B2
330
1F
100
AcDbEntity
  8
1
  6
Continuous
 62
     4
100
AcDbLine
 10
40.7519645690918
 20
-127.851898193359
 30
0.0
 11
41.1269645690918
 21
-128.101898193359
 31
0.0
  0
LINE
  5
4B3
330
1F
100
AcDbEntity
  8
1
  6
Continuous
 62
     4
100
AcDbLine
 10
40.1269645690918
 20
-127.726898193359
 30
0.0
 11
40.7519645690918
 21
-127.851898193359
 31
0.0
  0
LINE
  5
4B4
330
1F
100
AcDbEntity
  8
1
  6
Continuous
 62
     4
100
AcDbLine
 10
38.2519645690918
 20
-127.726898193359
 30
0.0
 11
40.1269645690918
 21
-127.726898193359
 31
0.0
  0
LINE
  5
4B5
330
1F
100
AcDbEntity
  8
1
  6
Continuous
 62
     4
100
AcDbLine
 10
39.0019645690918
 20
-129.726898193359
 30
0.0
 11
40.2519645690918
 21
-129.726898193359
 31
0.0
  0
LINE
  5
4B6
330
1F
100
AcDbEntity
  8
1
  6
Continuous
 62
     4
100
AcDbLine
 10
33.2519645690918
 20
-132.726898193359
 30
0.0
 11
33.2519645690918
 21
-130.226898193359
 31
0.0
  0
LINE
  5
4B7
330
1F
100
AcDbEntity
  8
1
  6
Continuous
 62
     4
100
AcDbLine
 10
35.2519645690918
 20
-130.226898193359
 30
0.0
 11
36.7519645690918
 21
-132.726898193359
 31
0.0
  0
LINE
  5
4B8
330
1F
100
AcDbEntity
  8
1
  6
Continuous
 62
     4
100
AcDbLine
 10
35.6269645690918
 20
-130.226898193359
 30
0.0
 11
35.2519645690918
 21
-130.226898193359
 31
0.0
  0
LINE
  5
4B9
330
1F
100
AcDbEntity
  8
1
  6
Continuous
 62
     4
100
AcDbLine
 10
36.1269645690918
 20
-130.101898193359
 30
0.0
 11
35.6269645690918
 21
-130.226898193359
 31
0.0
  0
LINE
  5
4BA
330
1F
100
AcDbEntity
  8
1
  6
Continuous
 62
     4
100
AcDbLine
 10
36.5019645690918
 20
-129.851898193359
 30
0.0
 11
36.1269645690918
 21
-130.101898193359
 31
0.0
  0
LINE
  5
4BB
330
1F
100
AcDbEntity
  8
1
  6
Continuous
 62
     4
100
AcDbLine
 10
36.6269645690918
 20
-129.601898193359
 30
0.0
 11
36.5019645690918
 21
-129.851898193359
 31
0.0
  0
LINE
  5
4BC
330
1F
100
AcDbEntity
  8
1
  6
Continuous
 62
     4
100
AcDbLine
 10
36.7519645690918
 20
-129.226898193359
 30
0.0
 11
36.6269645690918
 21
-129.601898193359
 31
0.0
  0
LINE
  5
4BD
330
1F
100
AcDbEntity
  8
1
  6
Continuous
 62
     4
100
AcDbLine
 10
36.7519645690918
 20
-128.726898193359
 30
0.0
 11
36.7519645690918
 21
-129.226898193359
 31
0.0
  0
LINE
  5
4BE
330
1F
100
AcDbEntity
  8
1
  6
Continuous
 62
     4
100
AcDbLine
 10
36.6269645690918
 20
-128.351898193359
 30
0.0
 11
36.7519645690918
 21
-128.726898193359
 31
0.0
  0
LINE
  5
4BF
330
1F
100
AcDbEntity
  8
1
  6
Continuous
 62
     4
100
AcDbLine
 10
36.5019645690918
 20
-128.101898193359
 30
0.0
 11
36.6269645690918
 21
-128.351898193359
 31
0.0
  0
LINE
  5
4C0
330
1F
100
AcDbEntity
  8
1
  6
Continuous
 62
     4
100
AcDbLine
 10
36.1269645690918
 20
-127.851898193359
 30
0.0
 11
36.5019645690918
 21
-128.101898193359
 31
0.0
  0
LINE
  5
4C1
330
1F
100
AcDbEntity
  8
1
  6
Continuous
 62
     4
100
AcDbLine
 10
35.6269645690918
 20
-127.726898193359
 30
0.0
 11
36.1269645690918
 21
-127.851898193359
 31
0.0
  0
LINE
  5
4C2
330
1F
100
AcDbEntity
  8
1
  6
Continuous
 62
     4
100
AcDbLine
 10
33.2519645690918
 20
-127.726898193359
 30
0.0
 11
35.6269645690918
 21
-127.726898193359
 31
0.0
  0
LINE
  5
4C3
330
1F
100
AcDbEntity
  8
1
  6
Continuous
 62
     4
100
AcDbLine
 10
33.2519645690918
 20
-130.226898193359
 30
0.0
 11
33.2519645690918
 21
-127.726898193359
 31
0.0
  0
LINE
  5
4C4
330
1F
100
AcDbEntity
  8
1
  6
Continuous
 62
     4
100
AcDbLine
 10
35.2519645690918
 20
-130.226898193359
 30
0.0
 11
33.2519645690918
 21
-130.226898193359
 31
0.0
  0
LINE
  5
4C5
330
1F
100
AcDbEntity
  8
1
  6
Continuous
 62
     4
100
AcDbLine
 10
-111.556245731116
 20
-26.0706135534559
 30
0.0
 11
-110.556245731116
 21
-26.6956135534559
 31
0.0
  0
LINE
  5
4C6
330
1F
100
AcDbEntity
  8
1
  6
Continuous
 62
     4
100
AcDbLine
 10
-110.181245731116
 20
-25.7581135534559
 30
0.0
 11
-110.993745731116
 21
-25.1331135534559
 31
0.0
  0
LINE
  5
4C7
330
1F
100
AcDbEntity
  8
1
  6
Continuous
 62
     4
100
AcDbLine
 10
-109.493745731116
 20
-25.0081135534559
 30
0.0
 11
-109.056245731116
 21
-25.4456135534559
 31
0.0
  0
LINE
  5
4C8
330
1F
100
AcDbEntity
  8
1
  6
Continuous
 62
     4
100
AcDbLine
 10
-108.743745731116
 20
-25.1331135534559
 30
0.0
 11
-109.181245731116
 21
-24.6956135534559
 31
0.0
  0
LINE
  5
4C9
330
1F
100
AcDbEntity
  8
1
  6
Continuous
 62
     4
100
AcDbLine
 10
-109.056245731116
 20
-27.0081135534559
 30
0.0
 11
-108.368745731116
 21
-26.0706135534559
 31
0.0
  0
LINE
  5
4CA
330
1F
100
AcDbEntity
  8
1
  6
Continuous
 62
     4
100
AcDbLine
 10
-110.181245731116
 20
-27.9456135534559
 30
0.0
 11
-109.056245731116
 21
-27.0081135534559
 31
0.0
  0
LINE
  5
4CB
330
1F
100
AcDbEntity
  8
1
  6
Continuous
 62
     4
100
AcDbLine
 10
-111.243745731116
 20
-28.5706135534559
 30
0.0
 11
-110.181245731116
 21
-27.9456135534559
 31
0.0
  0
LINE
  5
4CC
330
1F
100
AcDbEntity
  8
1
  6
Continuous
 62
     4
100
AcDbLine
 10
-113.931245731116
 20
-27.1956135534559
 30
0.0
 11
-113.493745731116
 21
-27.8206135534559
 31
0.0
  0
LINE
  5
4CD
330
1F
100
AcDbEntity
  8
1
  6
Continuous
 62
     4
100
AcDbLine
 10
-114.493745731116
 20
-26.6956135534559
 30
0.0
 11
-113.931245731116
 21
-27.1956135534559
 31
0.0
  0
LINE
  5
4CE
330
1F
100
AcDbEntity
  8
1
  6
Continuous
 62
     4
100
AcDbLine
 10
-114.868745731116
 20
-24.6956135534559
 30
0.0
 11
-114.618745731116
 21
-25.0081135534559
 31
0.0
  0
LINE
  5
4CF
330
1F
100
AcDbEntity
  8
1
  6
Continuous
 62
     4
100
AcDbLine
 10
-115.431245731116
 20
-24.3831135534559
 30
0.0
 11
-114.868745731116
 21
-24.6956135534559
 31
0.0
  0
LINE
  5
4D0
330
1F
100
AcDbEntity
  8
1
  6
Continuous
 62
     4
100
AcDbLine
 10
-114.181245731116
 20
-25.6331135534559
 30
0.0
 11
-116.118745731116
 21
-25.6331135534559
 31
0.0
  0
LINE
  5
4D1
330
1F
100
AcDbEntity
  8
1
  6
Continuous
 62
     4
100
AcDbLine
 10
-115.181245731116
 20
-26.6956135534559
 30
0.0
 11
-114.181245731116
 21
-25.6331135534559
 31
0.0
  0
LINE
  5
4D2
330
1F
100
AcDbEntity
  8
1
  6
Continuous
 62
     4
100
AcDbLine
 10
-116.556245731116
 20
-27.6331135534559
 30
0.0
 11
-115.181245731116
 21
-26.6956135534559
 31
0.0
  0
LINE
  5
4D3
330
1F
100
AcDbEntity
  8
1
  6
Continuous
 62
     4
100
AcDbLine
 10
-114.993745731116
 20
-28.5706135534559
 30
0.0
 11
-114.993745731116
 21
-26.5706135534559
 31
0.0
  0
LINE
  5
4D4
330
1F
100
AcDbEntity
  8
1
  6
Continuous
 62
     4
100
AcDbLine
 10
-118.743745731116
 20
-24.0706135534559
 30
0.0
 11
-118.743745731116
 21
-29.0706135534559
 31
0.0
  0
LINE
  5
4D5
330
1F
100
AcDbEntity
  8
1
  6
Continuous
 62
     4
100
AcDbLine
 10
-120.243745731116
 20
-25.5706135534559
 30
0.0
 11
-118.743745731116
 21
-24.0706135534559
 31
0.0
  0
LINE
  5
4D6
330
1F
100
AcDbEntity
  8
1
  6
Continuous
 62
     4
100
AcDbLine
 10
-125.243745731116
 20
-29.0706135534559
 30
0.0
 11
-125.243745731116
 21
-26.5706135534559
 31
0.0
  0
LINE
  5
4D7
330
1F
100
AcDbEntity
  8
1
  6
Continuous
 62
     4
100
AcDbLine
 10
-123.243745731116
 20
-26.5706135534559
 30
0.0
 11
-121.743745731116
 21
-29.0706135534559
 31
0.0
  0
LINE
  5
4D8
330
1F
100
AcDbEntity
  8
1
  6
Continuous
 62
     4
100
AcDbLine
 10
-122.868745731116
 20
-26.5706135534559
 30
0.0
 11
-123.243745731116
 21
-26.5706135534559
 31
0.0
  0
LINE
  5
4D9
330
1F
100
AcDbEntity
  8
1
  6
Continuous
 62
     4
100
AcDbLine
 10
-122.368745731116
 20
-26.4456135534559
 30
0.0
 11
-122.868745731116
 21
-26.5706135534559
 31
0.0
  0
LINE
  5
4DA
330
1F
100
AcDbEntity
  8
1
  6
Continuous
 62
     4
100
AcDbLine
 10
-121.993745731116
 20
-26.1956135534559
 30
0.0
 11
-122.368745731116
 21
-26.4456135534559
 31
0.0
  0
LINE
  5
4DB
330
1F
100
AcDbEntity
  8
1
  6
Continuous
 62
     4
100
AcDbLine
 10
-121.868745731116
 20
-25.9456135534559
 30
0.0
 11
-121.993745731116
 21
-26.1956135534559
 31
0.0
  0
LINE
  5
4DC
330
1F
100
AcDbEntity
  8
1
  6
Continuous
 62
     4
100
AcDbLine
 10
-121.743745731116
 20
-25.5706135534559
 30
0.0
 11
-121.868745731116
 21
-25.9456135534559
 31
0.0
  0
LINE
  5
4DD
330
1F
100
AcDbEntity
  8
1
  6
Continuous
 62
     4
100
AcDbLine
 10
-121.743745731116
 20
-25.0706135534559
 30
0.0
 11
-121.743745731116
 21
-25.5706135534559
 31
0.0
  0
LINE
  5
4DE
330
1F
100
AcDbEntity
  8
1
  6
Continuous
 62
     4
100
AcDbLine
 10
-121.868745731116
 20
-24.6956135534559
 30
0.0
 11
-121.743745731116
 21
-25.0706135534559
 31
0.0
  0
LINE
  5
4DF
330
1F
100
AcDbEntity
  8
1
  6
Continuous
 62
     4
100
AcDbLine
 10
-121.993745731116
 20
-24.4456135534559
 30
0.0
 11
-121.868745731116
 21
-24.6956135534559
 31
0.0
  0
LINE
  5
4E0
330
1F
100
AcDbEntity
  8
1
  6
Continuous
 62
     4
100
AcDbLine
 10
-122.368745731116
 20
-24.1956135534559
 30
0.0
 11
-121.993745731116
 21
-24.4456135534559
 31
0.0
  0
LINE
  5
4E1
330
1F
100
AcDbEntity
  8
1
  6
Continuous
 62
     4
100
AcDbLine
 10
-122.868745731116
 20
-24.0706135534559
 30
0.0
 11
-122.368745731116
 21
-24.1956135534559
 31
0.0
  0
LINE
  5
4E2
330
1F
100
AcDbEntity
  8
1
  6
Continuous
 62
     4
100
AcDbLine
 10
-125.243745731116
 20
-24.0706135534559
 30
0.0
 11
-122.868745731116
 21
-24.0706135534559
 31
0.0
  0
LINE
  5
4E3
330
1F
100
AcDbEntity
  8
1
  6
Continuous
 62
     4
100
AcDbLine
 10
-125.243745731116
 20
-26.5706135534559
 30
0.0
 11
-125.243745731116
 21
-24.0706135534559
 31
0.0
  0
LINE
  5
4E4
330
1F
100
AcDbEntity
  8
1
  6
Continuous
 62
     4
100
AcDbLine
 10
-123.243745731116
 20
-26.5706135534559
 30
0.0
 11
-125.243745731116
 21
-26.5706135534559
 31
0.0
  0
LINE
  5
4E5
330
1F
100
AcDbEntity
  8
1
  6
Continuous
 62
     4
100
AcDbLine
 10
117.865404517802
 20
-25.4415563416439
 30
0.0
 11
118.865404517802
 21
-26.0665563416439
 31
0.0
  0
LINE
  5
4E6
330
1F
100
AcDbEntity
  8
1
  6
Continuous
 62
     4
100
AcDbLine
 10
119.240404517802
 20
-25.1290563416439
 30
0.0
 11
118.427904517802
 21
-24.5040563416439
 31
0.0
  0
LINE
  5
4E7
330
1F
100
AcDbEntity
  8
1
  6
Continuous
 62
     4
100
AcDbLine
 10
119.927904517802
 20
-24.3790563416439
 30
0.0
 11
120.365404517802
 21
-24.8165563416439
 31
0.0
  0
LINE
  5
4E8
330
1F
100
AcDbEntity
  8
1
  6
Continuous
 62
     4
100
AcDbLine
 10
120.677904517802
 20
-24.5040563416439
 30
0.0
 11
120.240404517802
 21
-24.0665563416439
 31
0.0
  0
LINE
  5
4E9
330
1F
100
AcDbEntity
  8
1
  6
Continuous
 62
     4
100
AcDbLine
 10
120.365404517802
 20
-26.3790563416439
 30
0.0
 11
121.052904517802
 21
-25.4415563416439
 31
0.0
  0
LINE
  5
4EA
330
1F
100
AcDbEntity
  8
1
  6
Continuous
 62
     4
100
AcDbLine
 10
119.240404517802
 20
-27.3165563416439
 30
0.0
 11
120.365404517802
 21
-26.3790563416439
 31
0.0
  0
LINE
  5
4EB
330
1F
100
AcDbEntity
  8
1
  6
Continuous
 62
     4
100
AcDbLine
 10
118.177904517802
 20
-27.9415563416439
 30
0.0
 11
119.240404517802
 21
-27.3165563416439
 31
0.0
  0
LINE
  5
4EC
330
1F
100
AcDbEntity
  8
1
  6
Continuous
 62
     4
100
AcDbLine
 10
115.490404517802
 20
-26.5665563416439
 30
0.0
 11
115.927904517802
 21
-27.1915563416439
 31
0.0
  0
LINE
  5
4ED
330
1F
100
AcDbEntity
  8
1
  6
Continuous
 62
     4
100
AcDbLine
 10
114.927904517802
 20
-26.0665563416439
 30
0.0
 11
115.490404517802
 21
-26.5665563416439
 31
0.0
  0
LINE
  5
4EE
330
1F
100
AcDbEntity
  8
1
  6
Continuous
 62
     4
100
AcDbLine
 10
114.552904517802
 20
-24.0665563416439
 30
0.0
 11
114.802904517802
 21
-24.3790563416439
 31
0.0
  0
LINE
  5
4EF
330
1F
100
AcDbEntity
  8
1
  6
Continuous
 62
     4
100
AcDbLine
 10
113.990404517802
 20
-23.7540563416439
 30
0.0
 11
114.552904517802
 21
-24.0665563416439
 31
0.0
  0
LINE
  5
4F0
330
1F
100
AcDbEntity
  8
1
  6
Continuous
 62
     4
100
AcDbLine
 10
115.240404517802
 20
-25.0040563416439
 30
0.0
 11
113.302904517802
 21
-25.0040563416439
 31
0.0
  0
LINE
  5
4F1
330
1F
100
AcDbEntity
  8
1
  6
Continuous
 62
     4
100
AcDbLine
 10
114.240404517802
 20
-26.0665563416439
 30
0.0
 11
115.240404517802
 21
-25.0040563416439
 31
0.0
  0
LINE
  5
4F2
330
1F
100
AcDbEntity
  8
1
  6
Continuous
 62
     4
100
AcDbLine
 10
112.865404517802
 20
-27.0040563416439
 30
0.0
 11
114.240404517802
 21
-26.0665563416439
 31
0.0
  0
LINE
  5
4F3
330
1F
100
AcDbEntity
  8
1
  6
Continuous
 62
     4
100
AcDbLine
 10
114.427904517802
 20
-27.9415563416439
 30
0.0
 11
114.427904517802
 21
-25.9415563416439
 31
0.0
  0
LINE
  5
4F4
330
1F
100
AcDbEntity
  8
1
  6
Continuous
 62
     4
100
AcDbLine
 10
110.677904517802
 20
-23.4415563416439
 30
0.0
 11
110.677904517802
 21
-28.4415563416439
 31
0.0
  0
LINE
  5
4F5
330
1F
100
AcDbEntity
  8
1
  6
Continuous
 62
     4
100
AcDbLine
 10
109.177904517802
 20
-24.9415563416439
 30
0.0
 11
110.677904517802
 21
-23.4415563416439
 31
0.0
  0
LINE
  5
4F6
330
1F
100
AcDbEntity
  8
1
  6
Continuous
 62
     4
100
AcDbLine
 10
104.177904517802
 20
-28.4415563416439
 30
0.0
 11
104.177904517802
 21
-25.9415563416439
 31
0.0
  0
LINE
  5
4F7
330
1F
100
AcDbEntity
  8
1
  6
Continuous
 62
     4
100
AcDbLine
 10
106.177904517802
 20
-25.9415563416439
 30
0.0
 11
107.677904517802
 21
-28.4415563416439
 31
0.0
  0
LINE
  5
4F8
330
1F
100
AcDbEntity
  8
1
  6
Continuous
 62
     4
100
AcDbLine
 10
106.552904517802
 20
-25.9415563416439
 30
0.0
 11
106.177904517802
 21
-25.9415563416439
 31
0.0
  0
LINE
  5
4F9
330
1F
100
AcDbEntity
  8
1
  6
Continuous
 62
     4
100
AcDbLine
 10
107.052904517802
 20
-25.8165563416439
 30
0.0
 11
106.552904517802
 21
-25.9415563416439
 31
0.0
  0
LINE
  5
4FA
330
1F
100
AcDbEntity
  8
1
  6
Continuous
 62
     4
100
AcDbLine
 10
107.427904517802
 20
-25.5665563416439
 30
0.0
 11
107.052904517802
 21
-25.8165563416439
 31
0.0
  0
LINE
  5
4FB
330
1F
100
AcDbEntity
  8
1
  6
Continuous
 62
     4
100
AcDbLine
 10
107.552904517802
 20
-25.3165563416439
 30
0.0
 11
107.427904517802
 21
-25.5665563416439
 31
0.0
  0
LINE
  5
4FC
330
1F
100
AcDbEntity
  8
1
  6
Continuous
 62
     4
100
AcDbLine
 10
107.677904517802
 20
-24.9415563416439
 30
0.0
 11
107.552904517802
 21
-25.3165563416439
 31
0.0
  0
LINE
  5
4FD
330
1F
100
AcDbEntity
  8
1
  6
Continuous
 62
     4
100
AcDbLine
 10
107.677904517802
 20
-24.4415563416439
 30
0.0
 11
107.677904517802
 21
-24.9415563416439
 31
0.0
  0
LINE
  5
4FE
330
1F
100
AcDbEntity
  8
1
  6
Continuous
 62
     4
100
AcDbLine
 10
107.552904517802
 20
-24.0665563416439
 30
0.0
 11
107.677904517802
 21
-24.4415563416439
 31
0.0
  0
LINE
  5
4FF
330
1F
100
AcDbEntity
  8
1
  6
Continuous
 62
     4
100
AcDbLine
 10
107.427904517802
 20
-23.8165563416439
 30
0.0
 11
107.552904517802
 21
-24.0665563416439
 31
0.0
  0
LINE
  5
500
330
1F
100
AcDbEntity
  8
1
  6
Continuous
 62
     4
100
AcDbLine
 10
107.052904517802
 20
-23.5665563416439
 30
0.0
 11
107.427904517802
 21
-23.8165563416439
 31
0.0
  0
LINE
  5
501
330
1F
100
AcDbEntity
  8
1
  6
Continuous
 62
     4
100
AcDbLine
 10
106.552904517802
 20
-23.4415563416439
 30
0.0
 11
107.052904517802
 21
-23.5665563416439
 31
0.0
  0
LINE
  5
502
330
1F
100
AcDbEntity
  8
1
  6
Continuous
 62
     4
100
AcDbLine
 10
104.177904517802
 20
-23.4415563416439
 30
0.0
 11
106.552904517802
 21
-23.4415563416439
 31
0.0
  0
LINE
  5
503
330
1F
100
AcDbEntity
  8
1
  6
Continuous
 62
     4
100
AcDbLine
 10
104.177904517802
 20
-25.9415563416439
 30
0.0
 11
104.177904517802
 21
-23.4415563416439
 31
0.0
  0
LINE
  5
504
330
1F
100
AcDbEntity
  8
1
  6
Continuous
 62
     4
100
AcDbLine
 10
106.177904517802
 20
-25.9415563416439
 30
0.0
 11
104.177904517802
 21
-25.9415563416439
 31
0.0
  0
LINE
  5
557
330
1F
100
AcDbEntity
  8
2
  6
Continuous
 62
     2
100
AcDbLine
 10
109.0
 20
0.0
 30
0.0
 11
116.0
 21
0.0
 31
0.0
  0
LINE
  5
558
330
1F
100
AcDbEntity
  8
2
  6
Continuous
 62
     2
100
AcDbLine
 10
17.6854000091553
 20
296.0
 30
0.0
 11
116.0
 21
296.0
 31
0.0
  0
LINE
  5
559
330
1F
100
AcDbEntity
  8
2
  6
Continuous
 62
     2
100
AcDbLine
 10
115.0
 20
0.0
 30
0.0
 11
115.0
 21
166.765625
 31
0.0
  0
LINE
  5
55A
330
1F
100
AcDbEntity
  8
2
  6
Continuous
 62
     2
100
AcDbLine
 10
115.0
 20
296.0
 30
0.0
 11
115.0
 21
166.765625
 31
0.0
  0
LINE
  5
55B
330
1F
100
AcDbEntity
  8
100
  6
Continuous
 62
     3
100
AcDbLine
 10
32.0
 20
375.8
 30
0.0
 11
30.0
 21
375.8
 31
0.0
  0
LINE
  5
55C
330
1F
100
AcDbEntity
  8
100
  6
Continuous
 62
     3
100
AcDbLine
 10
28.2000000000001
 20
374.0
 30
0.0
 11
30.0
 21
375.8
 31
0.0
  0
LINE
  5
55D
330
1F
100
AcDbEntity
  8
100
  6
Continuous
 62
     3
100
AcDbLine
 10
32.0
 20
334.2
 30
0.0
 11
30.0
 21
334.2
 31
0.0
  0
LINE
  5
55E
330
1F
100
AcDbEntity
  8
100
  6
Continuous
 62
     3
100
AcDbLine
 10
28.2000000000001
 20
336.0
 30
0.0
 11
30.0
 21
334.2
 31
0.0
  0
LINE
  5
55F
330
1F
100
AcDbEntity
  8
100
  6
Continuous
 62
     3
100
AcDbLine
 10
23.6699159508475
 20
336.0
 30
0.0
 11
28.2000000000001
 21
336.0
 31
0.0
  0
LINE
  5
560
330
1F
100
AcDbEntity
  8
100
  6
Continuous
 62
     3
100
AcDbLine
 10
23.6699159508474
 20
374.0
 30
0.0
 11
28.2000000000001
 21
374.0
 31
0.0
  0
LINE
  5
561
330
1F
100
AcDbEntity
  8
100
  6
Continuous
 62
     3
100
AcDbLine
 10
-32.0
 20
375.8
 30
0.0
 11
-30.0
 21
375.8
 31
0.0
  0
LINE
  5
562
330
1F
100
AcDbEntity
  8
100
  6
Continuous
 62
     3
100
AcDbLine
 10
-28.2000000000001
 20
374.0
 30
0.0
 11
-30.0
 21
375.8
 31
0.0
  0
LINE
  5
563
330
1F
100
AcDbEntity
  8
100
  6
Continuous
 62
     3
100
AcDbLine
 10
-23.6699159508474
 20
374.0
 30
0.0
 11
-28.2000000000001
 21
374.0
 31
0.0
  0
LINE
  5
564
330
1F
100
AcDbEntity
  8
100
  6
Continuous
 62
     3
100
AcDbLine
 10
-32.0
 20
334.2
 30
0.0
 11
-30.0
 21
334.2
 31
0.0
  0
LINE
  5
565
330
1F
100
AcDbEntity
  8
100
  6
Continuous
 62
     3
100
AcDbLine
 10
-28.2000000000001
 20
336.0
 30
0.0
 11
-30.0
 21
334.2
 31
0.0
  0
LINE
  5
566
330
1F
100
AcDbEntity
  8
100
  6
Continuous
 62
     3
100
AcDbLine
 10
-23.6699159508475
 20
336.0
 30
0.0
 11
-28.2000000000001
 21
336.0
 31
0.0
  0
LINE
  5
567
330
1F
100
AcDbEntity
  8
100
  6
Continuous
 62
     3
100
AcDbLine
 10
-20.5
 20
211.0
 30
0.0
 11
20.5
 21
211.0
 31
0.0
  0
LINE
  5
568
330
1F
100
AcDbEntity
  8
100
  6
Continuous
 62
     3
100
AcDbLine
 10
-20.5
 20
178.0
 30
0.0
 11
20.5
 21
178.0
 31
0.0
  0
LINE
  5
569
330
1F
100
AcDbEntity
  8
100
  6
Continuous
 62
     3
100
AcDbLine
 10
-20.5
 20
178.0
 30
0.0
 11
-20.5
 21
211.0
 31
0.0
  0
LINE
  5
56A
330
1F
100
AcDbEntity
  8
100
  6
Continuous
 62
     3
100
AcDbLine
 10
20.5
 20
178.0
 30
0.0
 11
20.5
 21
211.0
 31
0.0
  0
LINE
  5
56B
330
1F
100
AcDbEntity
  8
100
  6
Continuous
 62
     3
100
AcDbLine
 10
17.0
 20
60.0
 30
0.0
 11
17.0
 21
104.0
 31
0.0
  0
LINE
  5
56C
330
1F
100
AcDbEntity
  8
100
  6
Continuous
 62
     3
100
AcDbLine
 10
17.0
 20
109.0
 30
0.0
 11
17.0
 21
178.0
 31
0.0
  0
LINE
  5
56D
330
1F
100
AcDbEntity
  8
100
  6
Continuous
 62
     3
100
AcDbLine
 10
-17.0
 20
60.0
 30
0.0
 11
-17.0
 21
104.0
 31
0.0
  0
LINE
  5
56E
330
1F
100
AcDbEntity
  8
100
  6
Continuous
 62
     3
100
AcDbLine
 10
-17.0
 20
109.0
 30
0.0
 11
-17.0
 21
178.0
 31
0.0
  0
LINE
  5
56F
330
1F
100
AcDbEntity
  8
2
  6
DOT_CENTER
 62
     1
100
AcDbLine
 10
206.821879424339
 20
0.0
 30
0.0
 11
289.358548059774
 21
0.0
 31
0.0
  0
LINE
  5
570
330
1F
100
AcDbEntity
  8
1
  6
Continuous
 62
     3
100
AcDbLine
 10
266.917
 20
-36.0
 30
0.0
 11
266.917
 21
-35.9428066535197
 31
0.0
  0
LINE
  5
571
330
1F
100
AcDbEntity
  8
1
  6
Continuous
 62
     3
100
AcDbLine
 10
233.083
 20
-35.9428066535197
 30
0.0
 11
233.083
 21
-36.0
 31
0.0
  0
LINE
  5
572
330
1F
100
AcDbEntity
  8
100
  6
Continuous
 62
     3
100
AcDbLine
 10
270.0
 20
60.0
 30
0.0
 11
230.0
 21
60.0
 31
0.0
  0
LINE
  5
573
330
1F
100
AcDbEntity
  8
100
  6
Continuous
 62
     3
100
AcDbLine
 10
230.0
 20
60.0
 30
0.0
 11
230.0
 21
42.0
 31
0.0
  0
LINE
  5
574
330
1F
100
AcDbEntity
  8
100
  6
Continuous
 62
     3
100
AcDbLine
 10
230.0
 20
42.0
 30
0.0
 11
270.0
 21
42.0
 31
0.0
  0
LINE
  5
575
330
1F
100
AcDbEntity
  8
100
  6
Continuous
 62
     3
100
AcDbLine
 10
235.5
 20
42.0
 30
0.0
 11
235.5
 21
23.0
 31
0.0
  0
LINE
  5
576
330
1F
100
AcDbEntity
  8
100
  6
Continuous
 62
     3
100
AcDbLine
 10
235.5
 20
-23.0
 30
0.0
 11
235.5
 21
-36.0
 31
0.0
  0
LINE
  5
577
330
1F
100
AcDbEntity
  8
100
  6
Continuous
 62
     3
100
AcDbLine
 10
264.5
 20
-36.0
 30
0.0
 11
264.5
 21
-23.0
 31
0.0
  0
LINE
  5
578
330
1F
100
AcDbEntity
  8
100
  6
Continuous
 62
     3
100
AcDbLine
 10
264.5
 20
23.0
 30
0.0
 11
264.5
 21
42.0
 31
0.0
  0
LINE
  5
579
330
1F
100
AcDbEntity
  8
100
  6
Continuous
 62
     3
100
AcDbLine
 10
270.0
 20
42.0
 30
0.0
 11
270.0
 21
60.0
 31
0.0
  0
LINE
  5
57A
330
1F
100
AcDbEntity
  8
100
  6
Continuous
 62
     3
100
AcDbLine
 10
270.0
 20
-51.0
 30
0.0
 11
230.0
 21
-51.0
 31
0.0
  0
LINE
  5
57B
330
1F
100
AcDbEntity
  8
100
  6
Continuous
 62
     3
100
AcDbLine
 10
233.55
 20
-56.5
 30
0.0
 11
233.55
 21
-51.0
 31
0.0
  0
LINE
  5
57C
330
1F
100
AcDbEntity
  8
100
  6
Continuous
 62
     3
100
AcDbLine
 10
270.0
 20
-36.0
 30
0.0
 11
230.0
 21
-36.0
 31
0.0
  0
LINE
  5
57D
330
1F
100
AcDbEntity
  8
100
  6
Continuous
 62
     3
100
AcDbLine
 10
266.45
 20
-51.0
 30
0.0
 11
266.45
 21
-56.5
 31
0.0
  0
LINE
  5
57E
330
1F
100
AcDbEntity
  8
100
  6
Continuous
 62
     3
100
AcDbLine
 10
230.0
 20
-51.0
 30
0.0
 11
230.0
 21
-36.0
 31
0.0
  0
LINE
  5
57F
330
1F
100
AcDbEntity
  8
100
  6
Continuous
 62
     3
100
AcDbLine
 10
270.0
 20
-51.0
 30
0.0
 11
270.0
 21
-36.0
 31
0.0
  0
LINE
  5
580
330
1F
100
AcDbEntity
  8
100
  6
Continuous
 62
     3
100
AcDbLine
 10
260.0
 20
254.0
 30
0.0
 11
260.0
 21
232.0
 31
0.0
  0
LINE
  5
581
330
1F
100
AcDbEntity
  8
100
  6
Continuous
 62
     3
100
AcDbLine
 10
240.0
 20
254.0
 30
0.0
 11
260.0
 21
254.0
 31
0.0
  0
LINE
  5
582
330
1F
100
AcDbEntity
  8
100
  6
Continuous
 62
     3
100
AcDbLine
 10
260.0
 20
232.0
 30
0.0
 11
266.0
 21
229.876158473536
 31
0.0
  0
LINE
  5
583
330
1F
100
AcDbEntity
  8
100
  6
Continuous
 62
     3
100
AcDbLine
 10
240.0
 20
254.0
 30
0.0
 11
240.0
 21
232.0
 31
0.0
  0
LINE
  5
584
330
1F
100
AcDbEntity
  8
100
  6
Continuous
 62
     3
100
AcDbLine
 10
240.0
 20
232.0
 30
0.0
 11
234.0
 21
229.876158473536
 31
0.0
  0
LINE
  5
585
330
1F
100
AcDbEntity
  8
100
  6
Continuous
 62
     3
100
AcDbLine
 10
230.0
 20
216.0
 30
0.0
 11
230.0
 21
211.0
 31
0.0
  0
LINE
  5
586
330
1F
100
AcDbEntity
  8
100
  6
Continuous
 62
     3
100
AcDbLine
 10
270.0
 20
216.0
 30
0.0
 11
270.0
 21
211.0
 31
0.0
  0
LINE
  5
587
330
1F
100
AcDbEntity
  8
100
  6
Continuous
 62
     3
100
AcDbLine
 10
254.4
 20
276.0
 30
0.0
 11
254.4
 21
254.0
 31
0.0
  0
LINE
  5
588
330
1F
100
AcDbEntity
  8
100
  6
Continuous
 62
     3
100
AcDbLine
 10
245.6
 20
276.0
 30
0.0
 11
245.6
 21
254.0
 31
0.0
  0
LINE
  5
589
330
1F
100
AcDbEntity
  8
100
  6
Continuous
 62
     3
100
AcDbLine
 10
219.0
 20
276.0
 30
0.0
 11
281.0
 21
276.0
 31
0.0
  0
LINE
  5
58A
330
1F
100
AcDbEntity
  8
100
  6
Continuous
 62
     3
100
AcDbLine
 10
281.0
 20
276.0
 30
0.0
 11
281.0
 21
286.044738518462
 31
0.0
  0
LINE
  5
58B
330
1F
100
AcDbEntity
  8
100
  6
Continuous
 62
     3
100
AcDbLine
 10
276.744017307768
 20
291.785679524099
 30
0.0
 11
263.226673878237
 21
295.892058752349
 31
0.0
  0
LINE
  5
58C
330
1F
100
AcDbEntity
  8
100
  6
Continuous
 62
     3
100
AcDbLine
 10
274.05095597478
 20
286.044738518462
 30
0.0
 11
274.05095597478
 21
278.0
 31
0.0
  0
LINE
  5
58D
330
1F
100
AcDbEntity
  8
100
  6
Continuous
 62
     3
100
AcDbLine
 10
262.5
 20
296.0
 30
0.0
 11
237.5
 21
296.0
 31
0.0
  0
LINE
  5
58E
330
1F
100
AcDbEntity
  8
100
  6
Continuous
 62
     3
100
AcDbLine
 10
236.773326121763
 20
295.892058752349
 30
0.0
 11
223.255982692232
 21
291.785679524099
 31
0.0
  0
LINE
  5
58F
330
1F
100
AcDbEntity
  8
100
  6
Continuous
 62
     3
100
AcDbLine
 10
219.0
 20
286.044738518462
 30
0.0
 11
219.0
 21
276.0
 31
0.0
  0
LINE
  5
590
330
1F
100
AcDbEntity
  8
100
  6
Continuous
 62
     3
100
AcDbLine
 10
225.94904402522
 20
286.044738518462
 30
0.0
 11
225.94904402522
 21
278.0
 31
0.0
  0
LINE
  5
591
330
1F
100
AcDbEntity
  8
100
  6
Continuous
 62
     3
100
AcDbLine
 10
234.0
 20
216.0
 30
0.0
 11
234.0
 21
229.876158473536
 31
0.0
  0
LINE
  5
592
330
1F
100
AcDbEntity
  8
100
  6
Continuous
 62
     3
100
AcDbLine
 10
266.0
 20
216.0
 30
0.0
 11
266.0
 21
229.876158473536
 31
0.0
  0
LINE
  5
593
330
1F
100
AcDbEntity
  8
100
  6
Continuous
 62
     3
100
AcDbLine
 10
230.0
 20
216.0
 30
0.0
 11
270.0
 21
216.0
 31
0.0
  0
LINE
  5
594
330
1F
100
AcDbEntity
  8
100
  6
Continuous
 62
     3
100
AcDbLine
 10
267.5
 20
-23.0
 30
0.0
 11
267.5
 21
-17.6091832102836
 31
0.0
  0
LINE
  5
595
330
1F
100
AcDbEntity
  8
100
  6
Continuous
 62
     3
100
AcDbLine
 10
267.5
 20
17.6091832102836
 30
0.0
 11
267.5
 21
23.0
 31
0.0
  0
LINE
  5
596
330
1F
100
AcDbEntity
  8
100
  6
Continuous
 62
     3
100
AcDbLine
 10
232.5
 20
23.0
 30
0.0
 11
232.5
 21
17.6091832102836
 31
0.0
  0
LINE
  5
597
330
1F
100
AcDbEntity
  8
100
  6
Continuous
 62
     3
100
AcDbLine
 10
232.5
 20
-17.6091832102836
 30
0.0
 11
232.5
 21
-23.0
 31
0.0
  0
LINE
  5
598
330
1F
100
AcDbEntity
  8
2
  6
DOT_CENTER
 62
     1
100
AcDbLine
 10
250.0
 20
-132.490489126222
 30
0.0
 11
250.0
 21
305.0
 31
0.0
  0
LINE
  5
599
330
1F
100
AcDbEntity
  8
100
  6
Continuous
 62
     3
100
AcDbLine
 10
232.5
 20
23.0
 30
0.0
 11
241.837168574084
 21
23.0
 31
0.0
  0
LINE
  5
59A
330
1F
100
AcDbEntity
  8
100
  6
Continuous
 62
     3
100
AcDbLine
 10
258.162831425916
 20
23.0
 30
0.0
 11
267.5
 21
23.0
 31
0.0
  0
LINE
  5
59B
330
1F
100
AcDbEntity
  8
100
  6
Continuous
 62
     3
100
AcDbLine
 10
232.5
 20
-23.0
 30
0.0
 11
241.837168574084
 21
-23.0
 31
0.0
  0
LINE
  5
59C
330
1F
100
AcDbEntity
  8
100
  6
Continuous
 62
     3
100
AcDbLine
 10
258.162831425916
 20
-23.0
 30
0.0
 11
267.5
 21
-23.0
 31
0.0
  0
LINE
  5
59D
330
1F
100
AcDbEntity
  8
100
  6
Continuous
 62
     3
100
AcDbLine
 10
270.0
 20
211.0
 30
0.0
 11
230.0
 21
211.0
 31
0.0
  0
LINE
  5
59E
330
1F
100
AcDbEntity
  8
100
  6
Continuous
 62
     3
100
AcDbLine
 10
267.0
 20
60.0
 30
0.0
 11
267.0
 21
104.0
 31
0.0
  0
LINE
  5
59F
330
1F
100
AcDbEntity
  8
100
  6
Continuous
 62
     3
100
AcDbLine
 10
267.0
 20
109.0
 30
0.0
 11
267.0
 21
178.0
 31
0.0
  0
LINE
  5
5A0
330
1F
100
AcDbEntity
  8
100
  6
Continuous
 62
     3
100
AcDbLine
 10
233.0
 20
60.0
 30
0.0
 11
233.0
 21
104.0
 31
0.0
  0
LINE
  5
5A1
330
1F
100
AcDbEntity
  8
100
  6
Continuous
 62
     3
100
AcDbLine
 10
233.0
 20
109.0
 30
0.0
 11
233.0
 21
178.0
 31
0.0
  0
LINE
  5
5A2
330
1F
100
AcDbEntity
  8
100
  6
Continuous
 62
     3
100
AcDbLine
 10
269.0
 20
178.0
 30
0.0
 11
231.0
 21
178.0
 31
0.0
  0
LINE
  5
5A3
330
1F
100
AcDbEntity
  8
100
  6
Continuous
 62
     3
100
AcDbLine
 10
231.0
 20
178.0
 30
0.0
 11
231.0
 21
211.0
 31
0.0
  0
LINE
  5
5A4
330
1F
100
AcDbEntity
  8
100
  6
Continuous
 62
     3
100
AcDbLine
 10
269.0
 20
178.0
 30
0.0
 11
269.0
 21
211.0
 31
0.0
  0
LINE
  5
5A5
330
1F
100
AcDbEntity
  8
100
  6
Continuous
 62
     3
100
AcDbLine
 10
4.40000000000009
 20
276.0
 30
0.0
 11
4.40000000000009
 21
254.0
 31
0.0
  0
LINE
  5
5A6
330
1F
100
AcDbEntity
  8
100
  6
Continuous
 62
     3
100
AcDbLine
 10
-4.40000000000009
 20
276.0
 30
0.0
 11
-4.40000000000009
 21
254.0
 31
0.0
  0
LINE
  5
5A7
330
1F
100
AcDbEntity
  8
100
  6
Continuous
 62
     3
100
AcDbLine
 10
-20.0
 20
216.0
 30
0.0
 11
-20.0
 21
211.0
 31
0.0
  0
LINE
  5
5A8
330
1F
100
AcDbEntity
  8
100
  6
Continuous
 62
     3
100
AcDbLine
 10
-18.4752086140679
 20
229.0
 30
0.0
 11
-18.4752086140679
 21
216.0
 31
0.0
  0
LINE
  5
5A9
330
1F
100
AcDbEntity
  8
100
  6
Continuous
 62
     3
100
AcDbLine
 10
10.0
 20
254.0
 30
0.0
 11
10.0
 21
232.0
 31
0.0
  0
LINE
  5
5AA
330
1F
100
AcDbEntity
  8
100
  6
Continuous
 62
     3
100
AcDbLine
 10
-10.0
 20
254.0
 30
0.0
 11
-10.0
 21
232.0
 31
0.0
  0
LINE
  5
5AB
330
1F
100
AcDbEntity
  8
100
  6
Continuous
 62
     3
100
AcDbLine
 10
-10.0
 20
232.0
 30
0.0
 11
-18.4752086140679
 21
229.0
 31
0.0
  0
LINE
  5
5AC
330
1F
100
AcDbEntity
  8
100
  6
Continuous
 62
     3
100
AcDbLine
 10
-10.0
 20
254.0
 30
0.0
 11
10.0
 21
254.0
 31
0.0
  0
LINE
  5
5AD
330
1F
100
AcDbEntity
  8
100
  6
Continuous
 62
     3
100
AcDbLine
 10
-20.0
 20
60.0
 30
0.0
 11
20.0
 21
60.0
 31
0.0
  0
LINE
  5
5AE
330
1F
100
AcDbEntity
  8
100
  6
Continuous
 62
     3
100
AcDbLine
 10
20.0
 20
216.0
 30
0.0
 11
20.0
 21
211.0
 31
0.0
  0
LINE
  5
5AF
330
1F
100
AcDbEntity
  8
100
  6
Continuous
 62
     3
100
AcDbLine
 10
18.4752086140679
 20
229.0
 30
0.0
 11
18.4752086140679
 21
216.0
 31
0.0
  0
LINE
  5
5B0
330
1F
100
AcDbEntity
  8
100
  6
Continuous
 62
     3
100
AcDbLine
 10
10.0
 20
232.0
 30
0.0
 11
18.4752086140679
 21
229.0
 31
0.0
  0
LINE
  5
5B1
330
1F
100
AcDbEntity
  8
100
  6
Continuous
 62
     3
100
AcDbLine
 10
16.45
 20
-51.0
 30
0.0
 11
16.45
 21
-56.5
 31
0.0
  0
LINE
  5
5B2
330
1F
100
AcDbEntity
  8
100
  6
Continuous
 62
     3
100
AcDbLine
 10
22.0
 20
-51.0
 30
0.0
 11
-22.0
 21
-51.0
 31
0.0
  0
LINE
  5
5B3
330
1F
100
AcDbEntity
  8
100
  6
Continuous
 62
     3
100
AcDbLine
 10
-16.45
 20
-56.5
 30
0.0
 11
-16.45
 21
-51.0
 31
0.0
  0
LINE
  5
5B4
330
1F
100
AcDbEntity
  8
100
  6
Continuous
 62
     3
100
AcDbLine
 10
22.0
 20
-36.0
 30
0.0
 11
-22.0
 21
-36.0
 31
0.0
  0
LINE
  5
5B5
330
1F
100
AcDbEntity
  8
100
  6
Continuous
 62
     3
100
AcDbLine
 10
14.5
 20
-36.0
 30
0.0
 11
14.5
 21
-23.0
 31
0.0
  0
LINE
  5
5B6
330
1F
100
AcDbEntity
  8
100
  6
Continuous
 62
     3
100
AcDbLine
 10
22.0
 20
-36.0
 30
0.0
 11
22.0
 21
-51.0
 31
0.0
  0
LINE
  5
5B7
330
1F
100
AcDbEntity
  8
100
  6
Continuous
 62
     3
100
AcDbLine
 10
-22.0
 20
-51.0
 30
0.0
 11
-22.0
 21
-36.0
 31
0.0
  0
LINE
  5
5B8
330
1F
100
AcDbEntity
  8
100
  6
Continuous
 62
     3
100
AcDbLine
 10
-20.0
 20
60.0
 30
0.0
 11
-20.0
 21
42.0
 31
0.0
  0
LINE
  5
5B9
330
1F
100
AcDbEntity
  8
100
  6
Continuous
 62
     3
100
AcDbLine
 10
-20.0
 20
42.0
 30
0.0
 11
20.0
 21
42.0
 31
0.0
  0
LINE
  5
5BA
330
1F
100
AcDbEntity
  8
100
  6
Continuous
 62
     3
100
AcDbLine
 10
32.0
 20
20.8
 30
0.0
 11
30.0
 21
20.8
 31
0.0
  0
LINE
  5
5BB
330
1F
100
AcDbEntity
  8
100
  6
Continuous
 62
     3
100
AcDbLine
 10
14.5
 20
23.0
 30
0.0
 11
14.5
 21
42.0
 31
0.0
  0
LINE
  5
5BC
330
1F
100
AcDbEntity
  8
100
  6
Continuous
 62
     3
100
AcDbLine
 10
20.0
 20
42.0
 30
0.0
 11
20.0
 21
60.0
 31
0.0
  0
LINE
  5
5BD
330
1F
100
AcDbEntity
  8
100
  6
Continuous
 62
     3
100
AcDbLine
 10
12.5
 20
296.0
 30
0.0
 11
-12.5
 21
296.0
 31
0.0
  0
LINE
  5
5BE
330
1F
100
AcDbEntity
  8
100
  6
Continuous
 62
     3
100
AcDbLine
 10
-13.2266738782369
 20
295.892058752349
 30
0.0
 11
-26.7440173077684
 21
291.785679524099
 31
0.0
  0
LINE
  5
5BF
330
1F
100
AcDbEntity
  8
100
  6
Continuous
 62
     3
100
AcDbLine
 10
-31.0
 20
276.0
 30
0.0
 11
30.9999999999999
 21
276.0
 31
0.0
  0
LINE
  5
5C0
330
1F
100
AcDbEntity
  8
100
  6
Continuous
 62
     3
100
AcDbLine
 10
-31.0
 20
286.044738518462
 30
0.0
 11
-31.0
 21
276.0
 31
0.0
  0
LINE
  5
5C1
330
1F
100
AcDbEntity
  8
100
  6
Continuous
 62
     3
100
AcDbLine
 10
30.9999999999999
 20
276.0
 30
0.0
 11
31.0
 21
286.044738518462
 31
0.0
  0
LINE
  5
5C2
330
1F
100
AcDbEntity
  8
100
  6
Continuous
 62
     3
100
AcDbLine
 10
26.7440173077684
 20
291.785679524099
 30
0.0
 11
13.2266738782369
 21
295.892058752349
 31
0.0
  0
LINE
  5
5C3
330
1F
100
AcDbEntity
  8
100
  6
Continuous
 62
     3
100
AcDbLine
 10
9.0
 20
-5.0
 30
0.0
 11
16.0
 21
0.0
 31
0.0
  0
LINE
  5
5C4
330
1F
100
AcDbEntity
  8
100
  6
Continuous
 62
     3
100
AcDbLine
 10
16.0
 20
0.0
 30
0.0
 11
-12.25
 21
0.0
 31
0.0
  0
LINE
  5
5C5
330
1F
100
AcDbEntity
  8
100
  6
Continuous
 62
     3
100
AcDbLine
 10
-12.25
 20
0.0
 30
0.0
 11
-16.0
 21
-5.0
 31
0.0
  0
LINE
  5
5C6
330
1F
100
AcDbEntity
  8
100
  6
Continuous
 62
     3
100
AcDbLine
 10
-16.0
 20
-5.0
 30
0.0
 11
-3.0
 21
-5.0
 31
0.0
  0
LINE
  5
5C7
330
1F
100
AcDbEntity
  8
100
  6
Continuous
 62
     3
100
AcDbLine
 10
-3.0
 20
-5.0
 30
0.0
 11
0.75
 21
0.0
 31
0.0
  0
LINE
  5
5C8
330
1F
100
AcDbEntity
  8
100
  6
Continuous
 62
     3
100
AcDbLine
 10
-24.0509559747802
 20
286.044738518462
 30
0.0
 11
-24.0509559747802
 21
278.0
 31
0.0
  0
LINE
  5
5C9
330
1F
100
AcDbEntity
  8
100
  6
Continuous
 62
     3
100
AcDbLine
 10
24.0509559747802
 20
286.044738518462
 30
0.0
 11
24.0509559747802
 21
278.0
 31
0.0
  0
LINE
  5
5CA
330
1F
100
AcDbEntity
  8
2
  6
CENTER
 62
     6
100
AcDbLine
 10
-13.2266738782369
 20
279.392058752349
 30
0.0
 11
-26.7440173077684
 21
275.285679524099
 31
0.0
  0
LINE
  5
5CB
330
1F
100
AcDbEntity
  8
2
  6
CENTER
 62
     6
100
AcDbLine
 10
12.5
 20
279.5
 30
0.0
 11
-12.5
 21
279.5
 31
0.0
  0
LINE
  5
5CC
330
1F
100
AcDbEntity
  8
2
  6
CENTER
 62
     6
100
AcDbLine
 10
26.7440173077684
 20
275.285679524099
 30
0.0
 11
13.2266738782369
 21
279.392058752349
 31
0.0
  0
LINE
  5
5CD
330
1F
100
AcDbEntity
  8
2
  6
CENTER
 62
     6
100
AcDbLine
 10
31.0
 20
259.5
 30
0.0
 11
31.0
 21
269.544738518462
 31
0.0
  0
LINE
  5
5CE
330
1F
100
AcDbEntity
  8
2
  6
CENTER
 62
     6
100
AcDbLine
 10
-31.0
 20
259.5
 30
0.0
 11
31.0
 21
259.5
 31
0.0
  0
LINE
  5
5CF
330
1F
100
AcDbEntity
  8
2
  6
CENTER
 62
     6
100
AcDbLine
 10
-31.0
 20
269.544738518462
 30
0.0
 11
-31.0
 21
259.5
 31
0.0
  0
LINE
  5
5D0
330
1F
100
AcDbEntity
  8
100
  6
Continuous
 62
     3
100
AcDbLine
 10
-20.0
 20
216.0
 30
0.0
 11
20.0
 21
216.0
 31
0.0
  0
LINE
  5
5D1
330
1F
100
AcDbEntity
  8
2
  6
DOT_CENTER
 62
     1
100
AcDbLine
 10
0.0
 20
-130.985255924491
 30
0.0
 11
0.0
 21
-7.0
 31
0.0
  0
LINE
  5
5D2
330
1F
100
AcDbEntity
  8
2
  6
DOT_CENTER
 62
     1
100
AcDbLine
 10
0.0
 20
13.0
 30
0.0
 11
0.0
 21
305.0
 31
0.0
  0
LINE
  5
5D3
330
1F
100
AcDbEntity
  8
2
  6
DOT_CENTER
 62
     1
100
AcDbLine
 10
-116.663435174898
 20
0.0
 30
0.0
 11
-17.0
 21
0.0
 31
0.0
  0
LINE
  5
5D4
330
1F
100
AcDbEntity
  8
2
  6
DOT_CENTER
 62
     1
100
AcDbLine
 10
22.7192004236353
 20
0.0
 30
0.0
 11
109.0
 21
0.0
 31
0.0
  0
LINE
  5
5D5
330
1F
100
AcDbEntity
  8
2
  6
DOT_CENTER
 62
     1
100
AcDbLine
 10
-109.505981466419
 20
355.0
 30
0.0
 11
110.471461223049
 21
355.0
 31
0.0
  0
LINE
  5
5D6
330
1F
100
AcDbEntity
  8
2
  6
DOT_CENTER
 62
     1
100
AcDbLine
 10
0.0
 20
395.0
 30
0.0
 11
0.0
 21
315.0
 31
0.0
  0
LINE
  5
5D7
330
1F
100
AcDbEntity
  8
100
  6
Continuous
 62
     3
100
AcDbLine
 10
-14.0
 20
23.0
 30
0.0
 11
14.0
 21
23.0
 31
0.0
  0
LINE
  5
5D8
330
1F
100
AcDbEntity
  8
100
  6
Continuous
 62
     3
100
AcDbLine
 10
-14.0
 20
-23.0
 30
0.0
 11
14.0
 21
-23.0
 31
0.0
  0
LINE
  5
5D9
330
1F
100
AcDbEntity
  8
100
  6
Continuous
 62
     3
100
AcDbLine
 10
28.2
 20
19.0
 30
0.0
 11
30.0
 21
20.8
 31
0.0
  0
LINE
  5
5DA
330
1F
100
AcDbEntity
  8
100
  6
Continuous
 62
     3
100
AcDbLine
 10
27.0
 20
19.0
 30
0.0
 11
28.2
 21
19.0
 31
0.0
  0
LINE
  5
5DB
330
1F
100
AcDbEntity
  8
100
  6
Continuous
 62
     3
100
AcDbLine
 10
27.0
 20
19.0
 30
0.0
 11
14.5
 21
23.0
 31
0.0
  0
LINE
  5
5DC
330
1F
100
AcDbEntity
  8
100
  6
Continuous
 62
     3
100
AcDbLine
 10
27.0
 20
-19.0
 30
0.0
 11
14.5
 21
-23.0
 31
0.0
  0
LINE
  5
5DD
330
1F
100
AcDbEntity
  8
100
  6
Continuous
 62
     3
100
AcDbLine
 10
28.2
 20
-19.0
 30
0.0
 11
30.0
 21
-20.8
 31
0.0
  0
LINE
  5
5DE
330
1F
100
AcDbEntity
  8
100
  6
Continuous
 62
     3
100
AcDbLine
 10
27.0
 20
-19.0
 30
0.0
 11
28.2
 21
-19.0
 31
0.0
  0
LINE
  5
5DF
330
1F
100
AcDbEntity
  8
100
  6
Continuous
 62
     3
100
AcDbLine
 10
32.0
 20
-20.8
 30
0.0
 11
30.0
 21
-20.8
 31
0.0
  0
LINE
  5
5E0
330
1F
100
AcDbEntity
  8
100
  6
Continuous
 62
     3
100
AcDbLine
 10
-14.5
 20
23.0
 30
0.0
 11
-14.5
 21
42.0
 31
0.0
  0
LINE
  5
5E1
330
1F
100
AcDbEntity
  8
100
  6
Continuous
 62
     3
100
AcDbLine
 10
-32.0
 20
20.8
 30
0.0
 11
-30.0
 21
20.8
 31
0.0
  0
LINE
  5
5E2
330
1F
100
AcDbEntity
  8
100
  6
Continuous
 62
     3
100
AcDbLine
 10
-28.2
 20
19.0
 30
0.0
 11
-30.0
 21
20.8
 31
0.0
  0
LINE
  5
5E3
330
1F
100
AcDbEntity
  8
100
  6
Continuous
 62
     3
100
AcDbLine
 10
-27.0
 20
19.0
 30
0.0
 11
-14.5
 21
23.0
 31
0.0
  0
LINE
  5
5E4
330
1F
100
AcDbEntity
  8
100
  6
Continuous
 62
     3
100
AcDbLine
 10
-27.0
 20
19.0
 30
0.0
 11
-28.2
 21
19.0
 31
0.0
  0
LINE
  5
5E5
330
1F
100
AcDbEntity
  8
100
  6
Continuous
 62
     3
100
AcDbLine
 10
-32.0
 20
-20.8
 30
0.0
 11
-30.0
 21
-20.8
 31
0.0
  0
LINE
  5
5E6
330
1F
100
AcDbEntity
  8
100
  6
Continuous
 62
     3
100
AcDbLine
 10
-27.0
 20
-19.0
 30
0.0
 11
-14.5
 21
-23.0
 31
0.0
  0
LINE
  5
5E7
330
1F
100
AcDbEntity
  8
100
  6
Continuous
 62
     3
100
AcDbLine
 10
-28.2000000000001
 20
-19.0
 30
0.0
 11
-30.0
 21
-20.8
 31
0.0
  0
LINE
  5
5E8
330
1F
100
AcDbEntity
  8
100
  6
Continuous
 62
     3
100
AcDbLine
 10
-27.0
 20
-19.0
 30
0.0
 11
-28.2000000000001
 21
-19.0
 31
0.0
  0
LINE
  5
5E9
330
1F
100
AcDbEntity
  8
100
  6
Continuous
 62
     3
100
AcDbLine
 10
-14.5
 20
-36.0
 30
0.0
 11
-14.5
 21
-23.0
 31
0.0
  0
LINE
  5
5EA
330
1F
100
AcDbEntity
  8
100
  6
Continuous
 62
     3
100
AcDbLine
 10
27.0
 20
17.507311450166
 30
0.0
 11
27.0
 21
-18.0
 31
0.0
  0
LINE
  5
5EB
330
1F
100
AcDbEntity
  8
100
  6
Continuous
 62
     3
100
AcDbLine
 10
-27.0
 20
17.507311450166
 30
0.0
 11
-27.0
 21
-18.0
 31
0.0
  0
LINE
  5
5EC
330
1F
100
AcDbEntity
  8
100
  6
Continuous
 62
     3
100
AcDbLine
 10
-10.0
 20
232.0
 30
0.0
 11
10.0
 21
232.0
 31
0.0
  0
LINE
  5
5ED
330
1F
100
AcDbEntity
  8
100
  6
Continuous
 62
     3
100
AcDbLine
 10
240.0
 20
232.0
 30
0.0
 11
260.0
 21
232.0
 31
0.0
  0
LINE
  5
5EE
330
1F
100
AcDbEntity
  8
100
  6
Continuous
 62
     3
100
AcDbLine
 10
-104.0
 20
-16.2998125
 30
0.0
 11
-104.0
 21
16.2998125
 31
0.0
  0
LINE
  5
5EF
330
1F
100
AcDbEntity
  8
100
  6
Continuous
 62
     3
100
AcDbLine
 10
-104.0
 20
16.2998125
 30
0.0
 11
-97.5940000000002
 21
16.5
 31
0.0
  0
LINE
  5
5F0
330
1F
100
AcDbEntity
  8
2
  6
Continuous
 62
     1
100
AcDbLine
 10
-83.0
 20
15.4770625
 30
0.0
 11
-104.0
 21
14.8208125
 31
0.0
  0
LINE
  5
5F1
330
1F
100
AcDbEntity
  8
100
  6
Continuous
 62
     3
100
AcDbLine
 10
-104.0
 20
-16.2998125
 30
0.0
 11
-97.5940000000002
 21
-16.5
 31
0.0
  0
LINE
  5
5F2
330
1F
100
AcDbEntity
  8
2
  6
Continuous
 62
     1
100
AcDbLine
 10
-83.0
 20
-15.4770625
 30
0.0
 11
-104.0
 21
-14.8208125
 31
0.0
  0
LINE
  5
5F3
330
1F
100
AcDbEntity
  8
100
  6
Continuous
 62
     3
100
AcDbLine
 10
-83.0
 20
-16.5
 30
0.0
 11
-83.0
 21
16.5
 31
0.0
  0
LINE
  5
5F4
330
1F
100
AcDbEntity
  8
2
  6
Continuous
 62
     3
100
AcDbLine
 10
-83.0
 20
15.4770625
 30
0.0
 11
-81.2282202770325
 21
16.5
 31
0.0
  0
LINE
  5
5F5
330
1F
100
AcDbEntity
  8
2
  6
Continuous
 62
     3
100
AcDbLine
 10
-83.0
 20
-15.4770625
 30
0.0
 11
-81.2282202770325
 21
-16.5
 31
0.0
  0
LINE
  5
5F6
330
1F
100
AcDbEntity
  8
100
  6
Continuous
 62
     3
100
AcDbLine
 10
-56.0
 20
-27.712812921102
 30
0.0
 11
-56.0
 21
27.712812921102
 31
0.0
  0
LINE
  5
5F7
330
1F
100
AcDbEntity
  8
100
  6
Continuous
 62
     3
100
AcDbLine
 10
-56.0
 20
27.712812921102
 30
0.0
 11
-32.0
 21
27.712812921102
 31
0.0
  0
LINE
  5
5F8
330
1F
100
AcDbEntity
  8
100
  6
Continuous
 62
     3
100
AcDbLine
 10
-32.0
 20
-27.712812921102
 30
0.0
 11
-32.0
 21
27.712812921102
 31
0.0
  0
LINE
  5
5F9
330
1F
100
AcDbEntity
  8
100
  6
Continuous
 62
     3
100
AcDbLine
 10
-56.0
 20
13.856406460551
 30
0.0
 11
-32.0
 21
13.856406460551
 31
0.0
  0
LINE
  5
5FA
330
1F
100
AcDbEntity
  8
100
  6
Continuous
 62
     3
100
AcDbLine
 10
-56.0
 20
-13.856406460551
 30
0.0
 11
-32.0
 21
-13.856406460551
 31
0.0
  0
LINE
  5
5FB
330
1F
100
AcDbEntity
  8
100
  6
Continuous
 62
     3
100
AcDbLine
 10
-56.0
 20
-27.712812921102
 30
0.0
 11
-32.0
 21
-27.712812921102
 31
0.0
  0
LINE
  5
5FC
330
1F
100
AcDbEntity
  8
100
  6
Continuous
 62
     3
100
AcDbLine
 10
-97.5940000000002
 20
16.5
 30
0.0
 11
-56.0
 21
16.5
 31
0.0
  0
LINE
  5
5FD
330
1F
100
AcDbEntity
  8
100
  6
Continuous
 62
     3
100
AcDbLine
 10
-97.5940000000002
 20
-16.5
 30
0.0
 11
-56.0
 21
-16.5
 31
0.0
  0
LINE
  5
5FE
330
1F
100
AcDbEntity
  8
100
  6
Continuous
 62
     3
100
AcDbLine
 10
-104.0
 20
371.299812500001
 30
0.0
 11
-97.5940000000002
 21
371.5
 31
0.0
  0
LINE
  5
5FF
330
1F
100
AcDbEntity
  8
100
  6
Continuous
 62
     3
100
AcDbLine
 10
-104.0
 20
338.7001875
 30
0.0
 11
-104.0
 21
371.299812500001
 31
0.0
  0
LINE
  5
600
330
1F
100
AcDbEntity
  8
100
  6
Continuous
 62
     3
100
AcDbLine
 10
-104.0
 20
338.7001875
 30
0.0
 11
-97.5940000000002
 21
338.5
 31
0.0
  0
LINE
  5
601
330
1F
100
AcDbEntity
  8
2
  6
Continuous
 62
     1
100
AcDbLine
 10
-83.0
 20
370.4770625
 30
0.0
 11
-104.0
 21
369.8208125
 31
0.0
  0
LINE
  5
602
330
1F
100
AcDbEntity
  8
2
  6
Continuous
 62
     1
100
AcDbLine
 10
-83.0
 20
339.5229375
 30
0.0
 11
-104.0
 21
340.1791875
 31
0.0
  0
LINE
  5
603
330
1F
100
AcDbEntity
  8
100
  6
Continuous
 62
     3
100
AcDbLine
 10
-83.0
 20
338.5
 30
0.0
 11
-83.0
 21
371.5
 31
0.0
  0
LINE
  5
604
330
1F
100
AcDbEntity
  8
2
  6
Continuous
 62
     3
100
AcDbLine
 10
-83.0
 20
339.5229375
 30
0.0
 11
-81.2282202770325
 21
338.5
 31
0.0
  0
LINE
  5
605
330
1F
100
AcDbEntity
  8
2
  6
Continuous
 62
     3
100
AcDbLine
 10
-83.0
 20
370.4770625
 30
0.0
 11
-81.2282202770325
 21
371.5
 31
0.0
  0
LINE
  5
606
330
1F
100
AcDbEntity
  8
100
  6
Continuous
 62
     3
100
AcDbLine
 10
-56.0
 20
331.0
 30
0.0
 11
-56.0
 21
379.0
 31
0.0
  0
LINE
  5
607
330
1F
100
AcDbEntity
  8
100
  6
Continuous
 62
     3
100
AcDbLine
 10
-32.0
 20
331.0
 30
0.0
 11
-32.0
 21
379.0
 31
0.0
  0
LINE
  5
608
330
1F
100
AcDbEntity
  8
100
  6
Continuous
 62
     3
100
AcDbLine
 10
-97.5940000000002
 20
371.5
 30
0.0
 11
-56.0
 21
371.5
 31
0.0
  0
LINE
  5
609
330
1F
100
AcDbEntity
  8
100
  6
Continuous
 62
     3
100
AcDbLine
 10
-97.5940000000002
 20
338.5
 30
0.0
 11
-56.0
 21
338.5
 31
0.0
  0
LINE
  5
60A
330
1F
100
AcDbEntity
  8
100
  6
Continuous
 62
     3
100
AcDbLine
 10
-56.0
 20
379.0
 30
0.0
 11
-32.0
 21
379.0
 31
0.0
  0
LINE
  5
60B
330
1F
100
AcDbEntity
  8
100
  6
Continuous
 62
     3
100
AcDbLine
 10
-56.0
 20
331.0
 30
0.0
 11
-32.0
 21
331.0
 31
0.0
  0
LINE
  5
60C
330
1F
100
AcDbEntity
  8
100
  6
Continuous
 62
     3
100
AcDbLine
 10
-56.0
 20
355.0
 30
0.0
 11
-32.0
 21
355.0
 31
0.0
  0
LINE
  5
60D
330
1F
100
AcDbEntity
  8
100
  6
Continuous
 62
     3
100
AcDbLine
 10
274.0
 20
13.856406460551
 30
0.0
 11
250.0
 21
27.712812921102
 31
0.0
  0
LINE
  5
60E
330
1F
100
AcDbEntity
  8
100
  6
Continuous
 62
     3
100
AcDbLine
 10
250.0
 20
27.712812921102
 30
0.0
 11
226.0
 21
13.856406460551
 31
0.0
  0
LINE
  5
60F
330
1F
100
AcDbEntity
  8
100
  6
Continuous
 62
     3
100
AcDbLine
 10
226.0
 20
13.856406460551
 30
0.0
 11
226.0
 21
-13.856406460551
 31
0.0
  0
LINE
  5
610
330
1F
100
AcDbEntity
  8
100
  6
Continuous
 62
     3
100
AcDbLine
 10
226.0
 20
-13.856406460551
 30
0.0
 11
250.0
 21
-27.712812921102
 31
0.0
  0
LINE
  5
611
330
1F
100
AcDbEntity
  8
100
  6
Continuous
 62
     3
100
AcDbLine
 10
250.0
 20
-27.712812921102
 30
0.0
 11
274.0
 21
-13.856406460551
 31
0.0
  0
LINE
  5
612
330
1F
100
AcDbEntity
  8
100
  6
Continuous
 62
     3
100
AcDbLine
 10
274.0
 20
-13.856406460551
 30
0.0
 11
274.0
 21
13.856406460551
 31
0.0
  0
LINE
  5
613
330
1F
100
AcDbEntity
  8
100
  6
Continuous
 62
     3
100
AcDbLine
 10
12.9226875
 20
-124.0
 30
0.0
 11
-12.9226875
 21
-124.0
 31
0.0
  0
LINE
  5
614
330
1F
100
AcDbEntity
  8
100
  6
Continuous
 62
     3
100
AcDbLine
 10
-12.9226875
 20
-124.0
 30
0.0
 11
-13.1
 21
-118.326
 31
0.0
  0
LINE
  5
615
330
1F
100
AcDbEntity
  8
2
  6
Continuous
 62
     1
100
AcDbLine
 10
-12.3544375
 20
-105.0
 30
0.0
 11
-11.7606875
 21
-124.0
 31
0.0
  0
LINE
  5
616
330
1F
100
AcDbEntity
  8
100
  6
Continuous
 62
     3
100
AcDbLine
 10
12.9226875
 20
-124.0
 30
0.0
 11
13.1
 21
-118.326
 31
0.0
  0
LINE
  5
617
330
1F
100
AcDbEntity
  8
2
  6
Continuous
 62
     1
100
AcDbLine
 10
12.3544375
 20
-105.0
 30
0.0
 11
11.7606875
 21
-124.0
 31
0.0
  0
LINE
  5
618
330
1F
100
AcDbEntity
  8
100
  6
Continuous
 62
     3
100
AcDbLine
 10
13.1
 20
-105.0
 30
0.0
 11
-13.1
 21
-105.0
 31
0.0
  0
LINE
  5
619
330
1F
100
AcDbEntity
  8
2
  6
Continuous
 62
     3
100
AcDbLine
 10
-12.3544375
 20
-105.0
 30
0.0
 11
-13.1
 21
-103.708647869782
 31
0.0
  0
LINE
  5
61A
330
1F
100
AcDbEntity
  8
2
  6
Continuous
 62
     3
100
AcDbLine
 10
12.3544375
 20
-105.0
 30
0.0
 11
13.1
 21
-103.708647869782
 31
0.0
  0
LINE
  5
61B
330
1F
100
AcDbEntity
  8
100
  6
Continuous
 62
     3
100
AcDbLine
 10
21.9393102292058
 20
-78.5
 30
0.0
 11
-21.9393102292058
 21
-78.5
 31
0.0
  0
LINE
  5
61C
330
1F
100
AcDbEntity
  8
100
  6
Continuous
 62
     3
100
AcDbLine
 10
-21.9393102292058
 20
-78.5
 30
0.0
 11
-21.9393102292058
 21
-56.5
 31
0.0
  0
LINE
  5
61D
330
1F
100
AcDbEntity
  8
100
  6
Continuous
 62
     3
100
AcDbLine
 10
21.9393102292058
 20
-56.5
 30
0.0
 11
-21.9393102292058
 21
-56.5
 31
0.0
  0
LINE
  5
61E
330
1F
100
AcDbEntity
  8
100
  6
Continuous
 62
     3
100
AcDbLine
 10
-10.9696551146029
 20
-78.5
 30
0.0
 11
-10.9696551146029
 21
-56.5
 31
0.0
  0
LINE
  5
61F
330
1F
100
AcDbEntity
  8
100
  6
Continuous
 62
     3
100
AcDbLine
 10
10.9696551146029
 20
-78.5
 30
0.0
 11
10.9696551146029
 21
-56.5
 31
0.0
  0
LINE
  5
620
330
1F
100
AcDbEntity
  8
100
  6
Continuous
 62
     3
100
AcDbLine
 10
21.9393102292058
 20
-78.5
 30
0.0
 11
21.9393102292058
 21
-56.5
 31
0.0
  0
LINE
  5
621
330
1F
100
AcDbEntity
  8
100
  6
Continuous
 62
     3
100
AcDbLine
 10
-13.1
 20
-118.326
 30
0.0
 11
-13.1
 21
-78.5
 31
0.0
  0
LINE
  5
622
330
1F
100
AcDbEntity
  8
100
  6
Continuous
 62
     3
100
AcDbLine
 10
13.1
 20
-118.326
 30
0.0
 11
13.1
 21
-78.5
 31
0.0
  0
LINE
  5
623
330
1F
100
AcDbEntity
  8
2
  6
Continuous
 62
     3
100
AcDbLine
 10
237.6455625
 20
-105.0
 30
0.0
 11
236.9
 21
-103.708647869782
 31
0.0
  0
LINE
  5
624
330
1F
100
AcDbEntity
  8
100
  6
Continuous
 62
     3
100
AcDbLine
 10
263.1
 20
-105.0
 30
0.0
 11
236.9
 21
-105.0
 31
0.0
  0
LINE
  5
625
330
1F
100
AcDbEntity
  8
2
  6
Continuous
 62
     3
100
AcDbLine
 10
262.3544375
 20
-105.0
 30
0.0
 11
263.1
 21
-103.708647869782
 31
0.0
  0
LINE
  5
626
330
1F
100
AcDbEntity
  8
100
  6
Continuous
 62
     3
100
AcDbLine
 10
237.0773125
 20
-124.0
 30
0.0
 11
236.9
 21
-118.326
 31
0.0
  0
LINE
  5
627
330
1F
100
AcDbEntity
  8
100
  6
Continuous
 62
     3
100
AcDbLine
 10
262.9226875
 20
-124.0
 30
0.0
 11
237.0773125
 21
-124.0
 31
0.0
  0
LINE
  5
628
330
1F
100
AcDbEntity
  8
100
  6
Continuous
 62
     3
100
AcDbLine
 10
262.9226875
 20
-124.0
 30
0.0
 11
263.1
 21
-118.326
 31
0.0
  0
LINE
  5
629
330
1F
100
AcDbEntity
  8
2
  6
Continuous
 62
     1
100
AcDbLine
 10
262.3544375
 20
-105.0
 30
0.0
 11
261.7606875
 21
-124.0
 31
0.0
  0
LINE
  5
62A
330
1F
100
AcDbEntity
  8
2
  6
Continuous
 62
     1
100
AcDbLine
 10
237.6455625
 20
-105.0
 30
0.0
 11
238.2393125
 21
-124.0
 31
0.0
  0
LINE
  5
62B
330
1F
100
AcDbEntity
  8
100
  6
Continuous
 62
     3
100
AcDbLine
 10
269.0
 20
-78.5
 30
0.0
 11
231.0
 21
-78.5
 31
0.0
  0
LINE
  5
62C
330
1F
100
AcDbEntity
  8
100
  6
Continuous
 62
     3
100
AcDbLine
 10
269.0
 20
-56.5
 30
0.0
 11
231.0
 21
-56.5
 31
0.0
  0
LINE
  5
62D
330
1F
100
AcDbEntity
  8
100
  6
Continuous
 62
     3
100
AcDbLine
 10
236.9
 20
-118.326
 30
0.0
 11
236.9
 21
-78.5
 31
0.0
  0
LINE
  5
62E
330
1F
100
AcDbEntity
  8
100
  6
Continuous
 62
     3
100
AcDbLine
 10
263.1
 20
-118.326
 30
0.0
 11
263.1
 21
-78.5
 31
0.0
  0
LINE
  5
62F
330
1F
100
AcDbEntity
  8
100
  6
Continuous
 62
     3
100
AcDbLine
 10
269.0
 20
-78.5
 30
0.0
 11
269.0
 21
-56.5
 31
0.0
  0
LINE
  5
630
330
1F
100
AcDbEntity
  8
100
  6
Continuous
 62
     3
100
AcDbLine
 10
231.0
 20
-78.5
 30
0.0
 11
231.0
 21
-56.5
 31
0.0
  0
LINE
  5
631
330
1F
100
AcDbEntity
  8
100
  6
Continuous
 62
     3
100
AcDbLine
 10
250.0
 20
-78.5
 30
0.0
 11
250.0
 21
-56.5
 31
0.0
  0
LINE
  5
632
330
1F
100
AcDbEntity
  8
100
  6
Continuous
 62
     3
100
AcDbLine
 10
83.0
 20
-16.5
 30
0.0
 11
83.0
 21
16.5
 31
0.0
  0
LINE
  5
633
330
1F
100
AcDbEntity
  8
2
  6
Continuous
 62
     3
100
AcDbLine
 10
83.0
 20
15.4770625
 30
0.0
 11
81.2282202770325
 21
16.5
 31
0.0
  0
LINE
  5
634
330
1F
100
AcDbEntity
  8
2
  6
Continuous
 62
     3
100
AcDbLine
 10
83.0
 20
-15.4770625
 30
0.0
 11
81.2282202770325
 21
-16.5
 31
0.0
  0
LINE
  5
635
330
1F
100
AcDbEntity
  8
100
  6
Continuous
 62
     3
100
AcDbLine
 10
97.5940000000002
 20
16.5
 30
0.0
 11
56.0
 21
16.5
 31
0.0
  0
LINE
  5
636
330
1F
100
AcDbEntity
  8
100
  6
Continuous
 62
     3
100
AcDbLine
 10
97.5940000000002
 20
-16.5
 30
0.0
 11
56.0
 21
-16.5
 31
0.0
  0
LINE
  5
637
330
1F
100
AcDbEntity
  8
100
  6
Continuous
 62
     3
100
AcDbLine
 10
83.0
 20
338.5
 30
0.0
 11
83.0
 21
371.5
 31
0.0
  0
LINE
  5
638
330
1F
100
AcDbEntity
  8
2
  6
Continuous
 62
     3
100
AcDbLine
 10
83.0
 20
339.5229375
 30
0.0
 11
81.2282202770325
 21
338.5
 31
0.0
  0
LINE
  5
639
330
1F
100
AcDbEntity
  8
2
  6
Continuous
 62
     3
100
AcDbLine
 10
83.0
 20
370.4770625
 30
0.0
 11
81.2282202770325
 21
371.5
 31
0.0
  0
LINE
  5
63A
330
1F
100
AcDbEntity
  8
100
  6
Continuous
 62
     3
100
AcDbLine
 10
56.0
 20
331.0
 30
0.0
 11
56.0
 21
379.0
 31
0.0
  0
LINE
  5
63B
330
1F
100
AcDbEntity
  8
100
  6
Continuous
 62
     3
100
AcDbLine
 10
32.0
 20
331.0
 30
0.0
 11
32.0
 21
379.0
 31
0.0
  0
LINE
  5
63C
330
1F
100
AcDbEntity
  8
100
  6
Continuous
 62
     3
100
AcDbLine
 10
97.5940000000002
 20
371.5
 30
0.0
 11
56.0
 21
371.5
 31
0.0
  0
LINE
  5
63D
330
1F
100
AcDbEntity
  8
100
  6
Continuous
 62
     3
100
AcDbLine
 10
97.5940000000002
 20
338.5
 30
0.0
 11
56.0
 21
338.5
 31
0.0
  0
LINE
  5
63E
330
1F
100
AcDbEntity
  8
100
  6
Continuous
 62
     3
100
AcDbLine
 10
104.0
 20
16.2998125
 30
0.0
 11
97.5940000000002
 21
16.5
 31
0.0
  0
LINE
  5
63F
330
1F
100
AcDbEntity
  8
2
  6
Continuous
 62
     1
100
AcDbLine
 10
83.0
 20
15.4770625
 30
0.0
 11
104.0
 21
14.8208125
 31
0.0
  0
LINE
  5
640
330
1F
100
AcDbEntity
  8
100
  6
Continuous
 62
     3
100
AcDbLine
 10
104.0
 20
-16.2998125
 30
0.0
 11
97.5940000000002
 21
-16.5
 31
0.0
  0
LINE
  5
641
330
1F
100
AcDbEntity
  8
2
  6
Continuous
 62
     1
100
AcDbLine
 10
83.0
 20
-15.4770625
 30
0.0
 11
104.0
 21
-14.8208125
 31
0.0
  0
LINE
  5
642
330
1F
100
AcDbEntity
  8
100
  6
Continuous
 62
     3
100
AcDbLine
 10
104.0
 20
371.299812500001
 30
0.0
 11
97.5940000000002
 21
371.5
 31
0.0
  0
LINE
  5
643
330
1F
100
AcDbEntity
  8
100
  6
Continuous
 62
     3
100
AcDbLine
 10
104.0
 20
338.7001875
 30
0.0
 11
97.5940000000002
 21
338.5
 31
0.0
  0
LINE
  5
644
330
1F
100
AcDbEntity
  8
2
  6
Continuous
 62
     1
100
AcDbLine
 10
83.0
 20
370.4770625
 30
0.0
 11
104.0
 21
369.8208125
 31
0.0
  0
LINE
  5
645
330
1F
100
AcDbEntity
  8
2
  6
Continuous
 62
     1
100
AcDbLine
 10
83.0
 20
339.5229375
 30
0.0
 11
104.0
 21
340.1791875
 31
0.0
  0
LINE
  5
646
330
1F
100
AcDbEntity
  8
100
  6
Continuous
 62
     3
100
AcDbLine
 10
104.0
 20
338.7001875
 30
0.0
 11
104.0
 21
371.299812500001
 31
0.0
  0
LINE
  5
647
330
1F
100
AcDbEntity
  8
100
  6
Continuous
 62
     3
100
AcDbLine
 10
104.0
 20
-16.2998125
 30
0.0
 11
104.0
 21
16.2998125
 31
0.0
  0
LINE
  5
648
330
1F
100
AcDbEntity
  8
100
  6
Continuous
 62
     3
100
AcDbLine
 10
56.0
 20
27.712812921102
 30
0.0
 11
32.0
 21
27.712812921102
 31
0.0
  0
LINE
  5
649
330
1F
100
AcDbEntity
  8
100
  6
Continuous
 62
     3
100
AcDbLine
 10
56.0
 20
13.856406460551
 30
0.0
 11
32.0
 21
13.856406460551
 31
0.0
  0
LINE
  5
64A
330
1F
100
AcDbEntity
  8
100
  6
Continuous
 62
     3
100
AcDbLine
 10
56.0
 20
-13.856406460551
 30
0.0
 11
32.0
 21
-13.856406460551
 31
0.0
  0
LINE
  5
64B
330
1F
100
AcDbEntity
  8
100
  6
Continuous
 62
     3
100
AcDbLine
 10
56.0
 20
-27.712812921102
 30
0.0
 11
32.0
 21
-27.712812921102
 31
0.0
  0
LINE
  5
64C
330
1F
100
AcDbEntity
  8
100
  6
Continuous
 62
     3
100
AcDbLine
 10
56.0
 20
379.0
 30
0.0
 11
32.0
 21
379.0
 31
0.0
  0
LINE
  5
64D
330
1F
100
AcDbEntity
  8
100
  6
Continuous
 62
     3
100
AcDbLine
 10
56.0
 20
331.0
 30
0.0
 11
32.0
 21
331.0
 31
0.0
  0
LINE
  5
64E
330
1F
100
AcDbEntity
  8
100
  6
Continuous
 62
     3
100
AcDbLine
 10
56.0
 20
355.0
 30
0.0
 11
32.0
 21
355.0
 31
0.0
  0
LINE
  5
64F
330
1F
100
AcDbEntity
  8
100
  6
Continuous
 62
     3
100
AcDbLine
 10
56.0
 20
-27.712812921102
 30
0.0
 11
56.0
 21
27.712812921102
 31
0.0
  0
LINE
  5
650
330
1F
100
AcDbEntity
  8
100
  6
Continuous
 62
     3
100
AcDbLine
 10
32.0
 20
-27.712812921102
 30
0.0
 11
32.0
 21
27.712812921102
 31
0.0
  0
LINE
  5
651
330
1F
100
AcDbEntity
  8
1
  6
Continuous
 62
     4
100
AcDbLine
 10
13.1000061035156
 20
-113.470001220703
 30
0.0
 11
15.6052333946223
 21
-115.305759142493
 31
0.0
  0
LINE
  5
652
330
1F
100
AcDbEntity
  8
1
  6
Continuous
 62
     4
100
AcDbLine
 10
13.1000061035156
 20
-113.470001220703
 30
0.0
 11
14.3517176189729
 21
-116.312427861725
 31
0.0
  0
LINE
  5
653
330
1F
100
AcDbEntity
  8
1
  6
Continuous
 62
     4
100
AcDbLine
 10
92.6100006103516
 20
-16.5000019073486
 30
0.0
 11
94.8707057968871
 21
-18.6296457712592
 31
0.0
  0
LINE
  5
654
330
1F
100
AcDbEntity
  8
1
  6
Continuous
 62
     4
100
AcDbLine
 10
92.6100006103516
 20
-16.5000019073486
 30
0.0
 11
93.5030068004033
 21
-19.4746801877766
 31
0.0
  0
LINE
  5
655
330
1F
100
AcDbEntity
  8
1
  6
Continuous
 62
     4
100
AcDbLine
 10
-92.4666233299871
 20
-16.5
 30
0.0
 11
-93.779898936296
 21
-19.3145120552938
 31
0.0
  0
LINE
  5
656
330
1F
100
AcDbEntity
  8
1
  6
Continuous
 62
     4
100
AcDbLine
 10
-92.4666233299871
 20
-16.5
 30
0.0
 11
-95.011209394868
 21
-18.2808011359875
 31
0.0
  0
ARC
  5
657
330
1F
100
AcDbEntity
  8
100
  6
Continuous
 62
     3
100
AcDbCircle
 10
275.0
 20
286.044738518462
 30
0.0
 40
6.0
100
AcDbArc
 50
0.0
 51
73.10195467180623
  0
ARC
  5
658
330
1F
100
AcDbEntity
  8
100
  6
Continuous
 62
     3
100
AcDbCircle
 10
268.05095597478
 20
286.044738518463
 30
0.0
 40
6.0
100
AcDbArc
 50
359.9999999999902
 51
58.79055696353237
  0
ARC
  5
659
330
1F
100
AcDbEntity
  8
100
  6
Continuous
 62
     3
100
AcDbCircle
 10
262.500000000001
 20
293.500000000004
 30
0.0
 40
2.499999999996181
100
AcDbArc
 50
73.10195467179581
 51
90.00000000002345
  0
ARC
  5
65A
330
1F
100
AcDbEntity
  8
100
  6
Continuous
 62
     3
100
AcDbCircle
 10
225.0
 20
286.044738518462
 30
0.0
 40
5.999999999999901
100
AcDbArc
 50
106.8980453281938
 51
180.0
  0
ARC
  5
65B
330
1F
100
AcDbEntity
  8
100
  6
Continuous
 62
     3
100
AcDbCircle
 10
237.5
 20
293.499999999999
 30
0.0
 40
2.500000000001023
100
AcDbArc
 50
90.0
 51
106.8980453281927
  0
ARC
  5
65C
330
1F
100
AcDbEntity
  8
100
  6
Continuous
 62
     3
100
AcDbCircle
 10
231.94904402522
 20
286.044738518463
 30
0.0
 40
5.999999999999852
100
AcDbArc
 50
121.2094430364671
 51
180.0000000000097
  0
ARC
  5
65D
330
1F
100
AcDbEntity
  8
100
  6
Continuous
 62
     3
100
AcDbCircle
 10
-24.9999999999999
 20
286.044738518462
 30
0.0
 40
6.000000000000049
100
AcDbArc
 50
106.8980453281984
 51
180.0
  0
ARC
  5
65E
330
1F
100
AcDbEntity
  8
100
  6
Continuous
 62
     3
100
AcDbCircle
 10
-12.4999999999999
 20
293.499999999999
 30
0.0
 40
2.500000000001023
100
AcDbArc
 50
90.00000000000227
 51
106.8980453281928
  0
ARC
  5
65F
330
1F
100
AcDbEntity
  8
100
  6
Continuous
 62
     3
100
AcDbCircle
 10
24.9999999999999
 20
286.044738518462
 30
0.0
 40
6.000000000000099
100
AcDbArc
 50
0.0
 51
73.10195467180158
  0
ARC
  5
660
330
1F
100
AcDbEntity
  8
100
  6
Continuous
 62
     3
100
AcDbCircle
 10
12.5000000000007
 20
293.500000000004
 30
0.0
 40
2.499999999996239
100
AcDbArc
 50
73.1019546717914
 51
90.00000000001604
  0
ARC
  5
661
330
1F
100
AcDbEntity
  8
100
  6
Continuous
 62
     3
100
AcDbCircle
 10
-18.0509559747804
 20
286.044738518463
 30
0.0
 40
5.9999999999995
100
AcDbArc
 50
121.2094430364616
 51
180.0000000000097
  0
ARC
  5
662
330
1F
100
AcDbEntity
  8
100
  6
Continuous
 62
     3
100
AcDbCircle
 10
18.0509559747804
 20
286.044738518463
 30
0.0
 40
5.999999999999801
100
AcDbArc
 50
359.9999999999902
 51
58.79055696353512
  0
ARC
  5
663
330
1F
100
AcDbEntity
  8
2
  6
CENTER
 62
     6
100
AcDbCircle
 10
-12.4999999999999
 20
276.999999999999
 30
0.0
 40
2.500000000001023
100
AcDbArc
 50
90.00000000000227
 51
106.8980453281928
  0
ARC
  5
664
330
1F
100
AcDbEntity
  8
2
  6
CENTER
 62
     6
100
AcDbCircle
 10
12.5000000000007
 20
277.000000000004
 30
0.0
 40
2.499999999996239
100
AcDbArc
 50
73.1019546717914
 51
90.00000000001604
  0
ARC
  5
665
330
1F
100
AcDbEntity
  8
2
  6
CENTER
 62
     6
100
AcDbCircle
 10
24.9999999999999
 20
269.544738518462
 30
0.0
 40
6.000000000000099
100
AcDbArc
 50
0.0
 51
73.10195467180158
  0
ARC
  5
666
330
1F
100
AcDbEntity
  8
2
  6
CENTER
 62
     6
100
AcDbCircle
 10
-24.9999999999999
 20
269.544738518462
 30
0.0
 40
6.000000000000049
100
AcDbArc
 50
106.8980453281984
 51
180.0
  0
ARC
  5
667
330
1F
100
AcDbEntity
  8
100
  6
Continuous
 62
     3
100
AcDbCircle
 10
13.0236957970155
 20
323.55800776513
 30
0.0
 40
7.999999999999642
100
AcDbArc
 50
74.74447725793738
 51
150.2555227420624
  0
ARC
  5
668
330
1F
100
AcDbEntity
  8
100
  6
Continuous
 62
     3
100
AcDbCircle
 10
-0.00000381469727
 20
331.0
 30
0.0
 40
6.999999999999903
100
AcDbArc
 50
209.744477257937
 51
330.2555227420632
  0
ARC
  5
669
330
1F
100
AcDbEntity
  8
100
  6
Continuous
 62
     3
100
AcDbCircle
 10
-13.0237034264102
 20
323.558007765129
 30
0.0
 40
8.000000000000494
100
AcDbArc
 50
29.74447725794327
 51
105.25552274206
  0
ARC
  5
66A
330
1F
100
AcDbEntity
  8
100
  6
Continuous
 62
     3
100
AcDbCircle
 10
-16.9705665631743
 20
338.029437251523
 30
0.0
 40
6.999999999999972
100
AcDbArc
 50
164.7444772579412
 51
285.2555227420602
  0
ARC
  5
66B
330
1F
100
AcDbEntity
  8
100
  6
Continuous
 62
     3
100
AcDbCircle
 10
-31.4419960495676
 20
341.976300388287
 30
0.0
 40
8.000000000000016
100
AcDbArc
 50
344.7444772579383
 51
60.25552274206292
  0
ARC
  5
66C
330
1F
100
AcDbEntity
  8
100
  6
Continuous
 62
     3
100
AcDbCircle
 10
-24.0000038146973
 20
355.0
 30
0.0
 40
6.999999999999948
100
AcDbArc
 50
119.744477257938
 51
240.2555227420613
  0
ARC
  5
66D
330
1F
100
AcDbEntity
  8
100
  6
Continuous
 62
     3
100
AcDbCircle
 10
-31.4419960495677
 20
368.023699611713
 30
0.0
 40
8.000000000000231
100
AcDbArc
 50
299.7444772579383
 51
15.25552274206219
  0
ARC
  5
66E
330
1F
100
AcDbEntity
  8
100
  6
Continuous
 62
     3
100
AcDbCircle
 10
-16.9705665631745
 20
371.970562748477
 30
0.0
 40
7.000000000000194
100
AcDbArc
 50
74.74447725793743
 51
195.2555227420584
  0
ARC
  5
66F
330
1F
100
AcDbEntity
  8
100
  6
Continuous
 62
     3
100
AcDbCircle
 10
-13.0237034264102
 20
386.441992234871
 30
0.0
 40
8.000000000000576
100
AcDbArc
 50
254.7444772579407
 51
330.2555227420569
  0
ARC
  5
670
330
1F
100
AcDbEntity
  8
100
  6
Continuous
 62
     3
100
AcDbCircle
 10
-0.00000381469727
 20
379.0
 30
0.0
 40
6.999999999999877
100
AcDbArc
 50
29.74447725793717
 51
150.2555227420628
  0
ARC
  5
671
330
1F
100
AcDbEntity
  8
100
  6
Continuous
 62
     3
100
AcDbCircle
 10
13.0236957970157
 20
386.441992234871
 30
0.0
 40
8.000000000000554
100
AcDbArc
 50
209.744477257943
 51
285.2555227420614
  0
ARC
  5
672
330
1F
100
AcDbEntity
  8
100
  6
Continuous
 62
     3
100
AcDbCircle
 10
16.9705589337799
 20
371.970562748477
 30
0.0
 40
6.99999999999988
100
AcDbArc
 50
344.744477257941
 51
105.2555227420594
  0
ARC
  5
673
330
1F
100
AcDbEntity
  8
100
  6
Continuous
 62
     3
100
AcDbCircle
 10
31.4419884201731
 20
368.023699611713
 30
0.0
 40
8.000000000000016
100
AcDbArc
 50
164.7444772579384
 51
240.2555227420635
  0
ARC
  5
674
330
1F
100
AcDbEntity
  8
100
  6
Continuous
 62
     3
100
AcDbCircle
 10
23.9999961853027
 20
355.0
 30
0.0
 40
6.999999999999999
100
AcDbArc
 50
299.7444772579387
 51
60.25552274205987
  0
ARC
  5
675
330
1F
100
AcDbEntity
  8
100
  6
Continuous
 62
     3
100
AcDbCircle
 10
31.4419884201731
 20
341.976300388287
 30
0.0
 40
8.000000000000181
100
AcDbArc
 50
119.7444772579377
 51
195.2555227420622
  0
ARC
  5
676
330
1F
100
AcDbEntity
  8
100
  6
Continuous
 62
     3
100
AcDbCircle
 10
16.9705589337799
 20
338.029437251523
 30
0.0
 40
7.000000000000166
100
AcDbArc
 50
254.7444772579383
 51
15.25552274205839
  0
CIRCLE
  5
677
330
1F
100
AcDbEntity
  8
100
  6
Continuous
 62
     3
100
AcDbCircle
 10
0.00000388179043
 20
355.0
 30
0.0
 40
9.99999999999997
  0
CIRCLE
  5
678
330
1F
100
AcDbEntity
  8
100
  6
Continuous
 62
     3
100
AcDbCircle
 10
250.0
 20
0.0
 30
0.0
 40
16.5
  0
CIRCLE
  5
679
330
1F
100
AcDbEntity
  8
2
  6
Continuous
 62
     3
100
AcDbCircle
 10
250.0
 20
0.0
 30
0.0
 40
15.14550000000003
  0
CIRCLE
  5
67A
330
1F
100
AcDbEntity
  8
100
  6
Continuous
 62
     3
100
AcDbCircle
 10
250.0
 20
0.0
 30
0.0
 40
12.75
  0
LWPOLYLINE
  5
67B
330
1F
100
AcDbEntity
  8
2
  6
Continuous
 62
     2
100
AcDbPolyline
 90
        3
 70
     0
 43
0.0
 10
105.420732100024
 20
165.190628051758
 10
111.720735151782
 20
165.190628051758
 10
111.720735151782
 20
168.340621948242
  0
LWPOLYLINE
  5
67C
330
1F
100
AcDbEntity
  8
2
  6
Continuous
 62
     2
100
AcDbPolyline
 90
        3
 70
     0
 43
0.0
 10
115.75
 20
3.0
 10
115.0
 20
0.0
 10
114.25
 20
3.0
  0
LWPOLYLINE
  5
67D
330
1F
100
AcDbEntity
  8
2
  6
Continuous
 62
     2
100
AcDbPolyline
 90
        3
 70
     0
 43
0.0
 10
114.25
 20
293.0
 10
115.0
 20
296.0
 10
115.75
 20
293.0
  0
LWPOLYLINE
  5
67E
330
1F
100
AcDbEntity
  8
100
  6
Continuous
 62
     3
100
AcDbPolyline
 90
       10
 70
     0
 43
0.0
 10
4.97240781784058
 20
10.8546361923218
 10
1.31615781784058
 20
10.8546361923218
 10
0.75365781784058
 20
6.91713619232178
 10
2.15990781784058
 20
7.47963619232178
 10
3.84740781784058
 20
7.47963619232178
 10
5.25365781784058
 20
6.35463619232178
 10
5.25365781784058
 20
3.54213619232178
 10
3.84740781784058
 20
2.13588619232178
 10
2.15990781784058
 20
2.13588619232178
 10
0.75365781784058
 20
3.54213619232178
  0
LWPOLYLINE
  5
67F
330
1F
100
AcDbEntity
  8
100
  6
Continuous
 62
     3
100
AcDbPolyline
 90
        8
 70
     0
 43
0.0
 10
-5.43384218215942
 20
9.44838619232178
 10
-4.02759218215942
 20
11.1358861923218
 10
-2.34009218215942
 20
11.1358861923218
 10
-0.93384218215942
 20
9.44838619232178
 10
-0.93384218215942
 20
7.19838619232178
 10
-5.43384218215942
 20
3.26088619232178
 10
-5.43384218215942
 20
2.13588619232178
 10
-0.93384218215942
 20
2.13588619232178
  0
LWPOLYLINE
  5
680
330
1F
100
AcDbEntity
  8
2
  6
Continuous
 62
     1
100
AcDbPolyline
 90
       16
 70
     0
 43
0.0
 10
-17.0
 20
104.0
 10
-13.0994973379537
 20
104.394290717255
 10
-9.86353714219394
 20
104.547830846999
 10
-7.04032541130065
 20
104.473182441799
 10
-4.67211103820309
 20
104.166783700649
 10
-2.56626874072203
 20
103.600681025031
 10
0.02744971884597
 20
102.588991427787
 10
1.84646178695611
 20
101.856262475573
 10
3.20550721353949
 20
101.414900907059
 10
4.49452060934371
 20
101.138315846659
 10
5.75013935559078
 20
101.025831527177
 10
6.79812083899151
 20
101.049279854972
 10
7.94486795430467
 20
101.17122177277
 10
10.5324052549766
 20
101.710313095853
 10
13.4744937929863
 20
102.629149279175
 10
17.0
 20
104.0
  0
LWPOLYLINE
  5
681
330
1F
100
AcDbEntity
  8
2
  6
Continuous
 62
     1
100
AcDbPolyline
 90
       16
 70
     0
 43
0.0
 10
-17.0
 20
109.0
 10
-13.0994973379537
 20
109.394290717255
 10
-9.86353714219394
 20
109.547830846999
 10
-7.04032541130065
 20
109.473182441799
 10
-4.67211103820309
 20
109.166783700649
 10
-2.56626874072203
 20
108.600681025031
 10
0.02744971884597
 20
107.588991427787
 10
1.84646178695611
 20
106.856262475573
 10
3.20550721353949
 20
106.414900907059
 10
4.49452060934371
 20
106.138315846659
 10
5.75013935559078
 20
106.025831527177
 10
6.79812083899151
 20
106.049279854972
 10
7.94486795430467
 20
106.17122177277
 10
10.5324052549766
 20
106.710313095853
 10
13.4744937929863
 20
107.629149279175
 10
17.0
 20
109.0
  0
LWPOLYLINE
  5
682
330
1F
100
AcDbEntity
  8
2
  6
Continuous
 62
     1
100
AcDbPolyline
 90
       16
 70
     0
 43
0.0
 10
233.0
 20
104.0
 10
236.900502662046
 20
104.394290717255
 10
240.136462857806
 20
104.547830846999
 10
242.959674588699
 20
104.473182441799
 10
245.327888961797
 20
104.166783700649
 10
247.433731259278
 20
103.600681025031
 10
250.027449718846
 20
102.588991427787
 10
251.846461786956
 20
101.856262475573
 10
253.205507213539
 20
101.414900907059
 10
254.494520609344
 20
101.138315846659
 10
255.750139355591
 20
101.025831527177
 10
256.798120838992
 20
101.049279854972
 10
257.944867954305
 20
101.17122177277
 10
260.532405254977
 20
101.710313095853
 10
263.474493792987
 20
102.629149279175
 10
267.0
 20
104.0
  0
LWPOLYLINE
  5
683
330
1F
100
AcDbEntity
  8
2
  6
Continuous
 62
     1
100
AcDbPolyline
 90
       16
 70
     0
 43
0.0
 10
233.0
 20
109.0
 10
236.900502662046
 20
109.394290717255
 10
240.136462857806
 20
109.547830846999
 10
242.959674588699
 20
109.473182441799
 10
245.327888961797
 20
109.166783700649
 10
247.433731259278
 20
108.600681025031
 10
250.027449718846
 20
107.588991427787
 10
251.846461786956
 20
106.856262475573
 10
253.205507213539
 20
106.414900907059
 10
254.494520609344
 20
106.138315846659
 10
255.750139355591
 20
106.025831527177
 10
256.798120838992
 20
106.049279854972
 10
257.944867954305
 20
106.17122177277
 10
260.532405254977
 20
106.710313095853
 10
263.474493792987
 20
107.629149279175
 10
267.0
 20
109.0
  0
LEADER
  5
684
330
1F
100
AcDbEntity
  8
1
  6
Continuous
 62
     4
100
AcDbLeader
  3
Standard
 71
     0
 76
     3
 10
13.1000061035156
 20
-113.470001220703
 30
0.0
 10
31.1207993002488
 20
-135.909705693743
 30
0.0
 10
70.128311787272
 20
-135.909705693743
 30
0.0
  0
LEADER
  5
685
330
1F
100
AcDbEntity
  8
1
  6
Continuous
 62
     4
100
AcDbLeader
  3
Standard
 71
     0
 76
     3
 10
92.6100006103516
 20
-16.5000019073486
 30
0.0
 10
101.568841304998
 20
-31.0
 30
0.0
 10
126.715172786551
 20
-31.0
 30
0.0
  0
LEADER
  5
686
330
1F
100
AcDbEntity
  8
1
  6
Continuous
 62
     4
100
AcDbLeader
  3
Standard
 71
     0
 76
     3
 10
-92.4666233299871
 20
-16.5
 30
0.0
 10
-104.639677027042
 20
-31.0
 30
0.0
 10
-129.07919025692
 20
-31.0
 30
0.0
  0
ENDSEC
  0
SECTION
  2
OBJECTS
  0
DICTIONARY
  5
C
330
0
100
AcDbDictionary
281
     1
  3
ACAD_GROUP
350
D
  3
ACAD_LAYOUT
350
1A
  3
ACAD_MATERIAL
350
3B
  3
ACAD_MLEADERSTYLE
350
689
  3
ACAD_MLINESTYLE
350
17
  3
ACAD_PLOTSETTINGS
350
19
  3
ACAD_PLOTSTYLENAME
350
E
  3
ACAD_VISUALSTYLE
350
2A
  3
AcDbVariableDictionary
350
687
  0
DICTIONARY
  5
D
102
{ACAD_REACTORS
330
C
102
}
330
C
100
AcDbDictionary
281
     1
  0
DICTIONARY
  5
1A
102
{ACAD_REACTORS
330
C
102
}
330
C
100
AcDbDictionary
281
     1
  3
Layout1
350
1E
  3
Layout2
350
26
  3
Model
350
22
  0
DICTIONARY
  5
3B
102
{ACAD_REACTORS
330
C
102
}
330
C
100
AcDbDictionary
281
     1
  3
ByBlock
350
3D
  3
ByLayer
350
3C
  3
Global
350
3E
  0
DICTIONARY
  5
689
102
{ACAD_REACTORS
330
C
102
}
330
C
100
AcDbDictionary
281
     1
  0
DICTIONARY
  5
17
102
{ACAD_REACTORS
330
C
102
}
330
C
100
AcDbDictionary
281
     1
  3
Standard
350
18
  0
DICTIONARY
  5
19
102
{ACAD_REACTORS
330
C
102
}
330
C
100
AcDbDictionary
281
     1
  0
ACDBDICTIONARYWDFLT
  5
E
102
{ACAD_REACTORS
330
C
102
}
330
C
100
AcDbDictionary
281
     1
  3
Normal
350
F
100
AcDbDictionaryWithDefault
340
F
  0
DICTIONARY
  5
2A
102
{ACAD_REACTORS
330
C
102
}
330
C
100
AcDbDictionary
281
     1
  3
2dWireframe
350
2F
  3
3D Hidden
350
31
  3
3dWireframe
350
30
  3
Basic
350
32
  3
Brighten
350
36
  3
ColorChange
350
3A
  3
Conceptual
350
34
  3
Dim
350
35
  3
Facepattern
350
39
  3
Flat
350
2B
  3
FlatWithEdges
350
2C
  3
Gouraud
350
2D
  3
GouraudWithEdges
350
2E
  3
Linepattern
350
38
  3
Realistic
350
33
  3
Thicken
350
37
  0
DICTIONARY
  5
687
102
{ACAD_REACTORS
330
C
102
}
330
C
100
AcDbDictionary
281
     1
  3
DIMASSOC
350
68A
  3
HIDETEXT
350
68B
  0
LAYOUT
  5
1E
102
{ACAD_REACTORS
330
1A
102
}
330
1A
100
AcDbPlotSettings
  1

  2
none_device
  4

  6

 40
0.0
 41
0.0
 42
0.0
 43
0.0
 44
0.0
 45
0.0
 46
0.0
 47
0.0
 48
0.0
 49
0.0
140
0.0
141
0.0
142
1.0
143
1.0
 70
   688
 72
     0
 73
     0
 74
     5
  7

 75
    16
147
1.0
148
0.0
149
0.0
100
AcDbLayout
  1
Layout1
 70
     1
 71
     1
 10
0.0
 20
0.0
 11
12.0
 21
9.0
 12
0.0
 22
0.0
 32
0.0
 14
1.00000000000000E+20
 24
1.00000000000000E+20
 34
1.00000000000000E+20
 15
-1.00000000000000E+20
 25
-1.00000000000000E+20
 35
-1.00000000000000E+20
146
0.0
 13
0.0
 23
0.0
 33
0.0
 16
1.0
 26
0.0
 36
0.0
 17
0.0
 27
1.0
 37
0.0
 76
     0
330
1B
  0
LAYOUT
  5
26
102
{ACAD_REACTORS
330
1A
102
}
330
1A
100
AcDbPlotSettings
  1

  2
none_device
  4

  6

 40
0.0
 41
0.0
 42
0.0
 43
0.0
 44
0.0
 45
0.0
 46
0.0
 47
0.0
 48
0.0
 49
0.0
140
0.0
141
0.0
142
1.0
143
1.0
 70
   688
 72
     0
 73
     0
 74
     5
  7

 75
    16
147
1.0
148
0.0
149
0.0
100
AcDbLayout
  1
Layout2
 70
     1
 71
     2
 10
0.0
 20
0.0
 11
0.0
 21
0.0
 12
0.0
 22
0.0
 32
0.0
 14
0.0
 24
0.0
 34
0.0
 15
0.0
 25
0.0
 35
0.0
146
0.0
 13
0.0
 23
0.0
 33
0.0
 16
1.0
 26
0.0
 36
0.0
 17
0.0
 27
1.0
 37
0.0
 76
     0
330
23
  0
LAYOUT
  5
22
102
{ACAD_REACTORS
330
1A
102
}
330
1A
100
AcDbPlotSettings
  1

  2
none_device
  4

  6

 40
0.0
 41
0.0
 42
0.0
 43
0.0
 44
0.0
 45
0.0
 46
0.0
 47
0.0
 48
0.0
 49
0.0
140
0.0
141
0.0
142
1.0
143
1.0
 70
  1712
 72
     0
 73
     0
 74
     0
  7

 75
     0
147
1.0
148
0.0
149
0.0
100
AcDbLayout
  1
Model
 70
     1
 71
     0
 10
0.0
 20
0.0
 11
12.0
 21
9.0
 12
0.0
 22
0.0
 32
0.0
 14
-129.07919025692
 24
-163.076806798159
 34
0.0
 15
401.67623237903
 25
395.0
 35
0.0
146
0.0
 13
0.0
 23
0.0
 33
0.0
 16
1.0
 26
0.0
 36
0.0
 17
0.0
 27
1.0
 37
0.0
 76
     0
330
1F
331
29
  0
MATERIAL
  5
3D
102
{ACAD_REACTORS
330
3B
102
}
102
{ACAD_XDICTIONARY
360
6AE
102
}
330
3B
100
AcDbMaterial
  1
ByBlock
  0
MATERIAL
  5
3C
102
{ACAD_REACTORS
330
3B
102
}
102
{ACAD_XDICTIONARY
360
6AC
102
}
330
3B
100
AcDbMaterial
  1
ByLayer
  0
MATERIAL
  5
3E
102
{ACAD_REACTORS
330
3B
102
}
102
{ACAD_XDICTIONARY
360
6B0
102
}
330
3B
100
AcDbMaterial
  1
Global
  0
MLINESTYLE
  5
18
102
{ACAD_REACTORS
330
17
102
}
330
17
100
AcDbMlineStyle
  2
Standard
 70
     0
  3

 62
   256
 51
90.0
 52
90.0
 71
     2
 49
0.5
 62
   256
  6
BYLAYER
 49
-0.5
 62
   256
  6
BYLAYER
  0
ACDBPLACEHOLDER
  5
F
102
{ACAD_REACTORS
330
E
102
}
330
E
  0
VISUALSTYLE
  5
2F
102
{ACAD_REACTORS
330
2A
102
}
102
{ACAD_XDICTIONARY
360
694
102
}
330
2A
100
AcDbVisualStyle
  2
2dWireframe
 70
     4
 71
     0
 72
     2
 73
     0
 90
        0
 40
-0.6
 41
-30.0
 62
     5
 63
     7
 74
     1
 91
        4
 64
     7
 65
   257
 75
     1
175
     1
 42
1.0
 92
        0
 66
   257
 43
1.0
 76
     1
 77
     6
 78
     2
 67
     7
 79
     5
170
     0
171
     0
290
     0
174
     0
 93
        1
 44
0.0
173
     0
291
     0
 45
0.0
1001
ACAD
1000
AcDbSavedByObjectVersion
1070
     0
  0
VISUALSTYLE
  5
31
102
{ACAD_REACTORS
330
2A
102
}
102
{ACAD_XDICTIONARY
360
698
102
}
330
2A
100
AcDbVisualStyle
  2
3D Hidden
 70
     6
 71
     1
 72
     2
 73
     2
 90
        0
 40
-0.6
 41
-30.0
 62
     5
 63
     7
 74
     2
 91
        2
 64
     7
 65
   257
 75
     2
175
     1
 42
40.0
 92
        0
 66
   257
 43
1.0
 76
     1
 77
     6
 78
     2
 67
     7
 79
     3
170
     0
171
     0
290
     0
174
     0
 93
        1
 44
0.0
173
     0
291
     0
 45
0.0
1001
ACAD
1000
AcDbSavedByObjectVersion
1070
     0
  0
VISUALSTYLE
  5
30
102
{ACAD_REACTORS
330
2A
102
}
102
{ACAD_XDICTIONARY
360
696
102
}
330
2A
100
AcDbVisualStyle
  2
3dWireframe
 70
     5
 71
     0
 72
     2
 73
     0
 90
        0
 40
-0.6
 41
-30.0
 62
     5
 63
     7
 74
     1
 91
        4
 64
     7
 65
   257
 75
     1
175
     1
 42
1.0
 92
        0
 66
   257
 43
1.0
 76
     1
 77
     6
 78
     2
 67
     7
 79
     5
170
     0
171
     0
290
     0
174
     0
 93
        1
 44
0.0
173
     0
291
     0
 45
0.0
1001
ACAD
1000
AcDbSavedByObjectVersion
1070
     0
  0
VISUALSTYLE
  5
32
102
{ACAD_REACTORS
330
2A
102
}
102
{ACAD_XDICTIONARY
360
69A
102
}
330
2A
100
AcDbVisualStyle
  2
Basic
 70
     7
 71
     1
 72
     0
 73
     1
 90
        0
 40
-0.6
 41
-30.0
 62
     5
 63
     7
 74
     0
 91
        4
 64
     7
 65
   257
 75
     1
175
     1
 42
1.0
 92
        8
 66
     7
 43
1.0
 76
     1
 77
     6
 78
     2
 67
     7
 79
     5
170
     0
171
     0
290
     0
174
     0
 93
        1
 44
0.0
173
     0
291
     1
 45
0.0
1001
ACAD
1000
AcDbSavedByObjectVersion
1070
     0
  0
VISUALSTYLE
  5
36
102
{ACAD_REACTORS
330
2A
102
}
102
{ACAD_XDICTIONARY
360
6A2
102
}
330
2A
100
AcDbVisualStyle
  2
Brighten
 70
    12
 71
     2
 72
     2
 73
     0
 90
        0
 40
-0.6
 41
-30.0
 62
     5
 63
     7
 74
     1
 91
        4
 64
     7
 65
   257
 75
     1
175
     1
 42
1.0
 92
        8
 66
     7
 43
1.0
 76
     1
 77
     6
 78
     2
 67
     7
 79
     5
170
     0
171
     0
290
     0
174
     0
 93
        1
 44
50.0
173
     0
291
     1
 45
0.0
1001
ACAD
1000
AcDbSavedByObjectVersion
1070
     0
  0
VISUALSTYLE
  5
3A
102
{ACAD_REACTORS
330
2A
102
}
102
{ACAD_XDICTIONARY
360
6AA
102
}
330
2A
100
AcDbVisualStyle
  2
ColorChange
 70
    16
 71
     2
 72
     2
 73
     3
 90
        0
 40
-0.6
 41
-30.0
 62
     5
 63
     8
 74
     1
 91
        4
 64
     7
 65
   257
 75
     1
175
     1
 42
1.0
 92
        8
 66
     8
 43
1.0
 76
     1
 77
     6
 78
     2
 67
     7
 79
     5
170
     0
171
     0
290
     0
174
     0
 93
        1
 44
0.0
173
     0
291
     1
 45
0.0
1001
ACAD
1000
AcDbSavedByObjectVersion
1070
     0
  0
VISUALSTYLE
  5
34
102
{ACAD_REACTORS
330
2A
102
}
102
{ACAD_XDICTIONARY
360
69E
102
}
330
2A
100
AcDbVisualStyle
  2
Conceptual
 70
     9
 71
     3
 72
     2
 73
     0
 90
        0
 40
-0.6
 41
-30.0
 62
     5
 63
     7
 74
     2
 91
        2
 64
     7
 65
   257
 75
     1
175
     1
 42
40.0
 92
        8
 66
     7
 43
1.0
 76
     1
 77
     6
 78
     2
 67
     7
 79
     3
170
     0
171
     0
290
     0
174
     0
 93
        1
 44
0.0
173
     0
291
     0
 45
0.0
1001
ACAD
1000
AcDbSavedByObjectVersion
1070
     0
  0
VISUALSTYLE
  5
35
102
{ACAD_REACTORS
330
2A
102
}
102
{ACAD_XDICTIONARY
360
6A0
102
}
330
2A
100
AcDbVisualStyle
  2
Dim
 70
    11
 71
     2
 72
     2
 73
     0
 90
        0
 40
-0.6
 41
-30.0
 62
     5
 63
     7
 74
     1
 91
        4
 64
     7
 65
   257
 75
     1
175
     1
 42
1.0
 92
        8
 66
     7
 43
1.0
 76
     1
 77
     6
 78
     2
 67
     7
 79
     5
170
     0
171
     0
290
     0
174
     0
 93
        1
 44
-50.0
173
     0
291
     1
 45
0.0
1001
ACAD
1000
AcDbSavedByObjectVersion
1070
     0
  0
VISUALSTYLE
  5
39
102
{ACAD_REACTORS
330
2A
102
}
102
{ACAD_XDICTIONARY
360
6A8
102
}
330
2A
100
AcDbVisualStyle
  2
Facepattern
 70
    15
 71
     2
 72
     2
 73
     0
 90
        0
 40
-0.6
 41
-30.0
 62
     5
 63
     7
 74
     1
 91
        4
 64
     7
 65
   257
 75
     1
175
     1
 42
1.0
 92
        8
 66
     7
 43
1.0
 76
     1
 77
     6
 78
     2
 67
     7
 79
     5
170
     0
171
     0
290
     0
174
     0
 93
        1
 44
0.0
173
     0
291
     1
 45
0.0
1001
ACAD
1000
AcDbSavedByObjectVersion
1070
     0
  0
VISUALSTYLE
  5
2B
102
{ACAD_REACTORS
330
2A
102
}
102
{ACAD_XDICTIONARY
360
68C
102
}
330
2A
100
AcDbVisualStyle
  2
Flat
 70
     0
 71
     2
 72
     1
 73
     1
 90
        2
 40
-0.6
 41
30.0
 62
     5
 63
     7
 74
     0
 91
        4
 64
     7
 65
   257
 75
     1
175
     1
 42
1.0
 92
        8
 66
     7
 43
1.0
 76
     1
 77
     6
 78
     2
 67
     7
 79
     5
170
     0
171
     0
290
     0
174
     0
 93
       13
 44
0.0
173
     0
291
     1
 45
0.0
1001
ACAD
1000
AcDbSavedByObjectVersion
1070
     0
  0
VISUALSTYLE
  5
2C
102
{ACAD_REACTORS
330
2A
102
}
102
{ACAD_XDICTIONARY
360
68E
102
}
330
2A
100
AcDbVisualStyle
  2
FlatWithEdges
 70
     1
 71
     2
 72
     1
 73
     1
 90
        2
 40
-0.6
 41
30.0
 62
     5
 63
     7
 74
     1
 91
        4
 64
     7
 65
   257
 75
     1
175
     1
 42
1.0
 92
        0
 66
   257
 43
1.0
 76
     1
 77
     6
 78
     2
 67
     7
 79
     5
170
     0
171
     0
290
     0
174
     0
 93
       13
 44
0.0
173
     0
291
     1
 45
0.0
1001
ACAD
1000
AcDbSavedByObjectVersion
1070
     0
  0
VISUALSTYLE
  5
2D
102
{ACAD_REACTORS
330
2A
102
}
102
{ACAD_XDICTIONARY
360
690
102
}
330
2A
100
AcDbVisualStyle
  2
Gouraud
 70
     2
 71
     2
 72
     2
 73
     1
 90
        2
 40
-0.6
 41
30.0
 62
     5
 63
     7
 74
     0
 91
        4
 64
     7
 65
   257
 75
     1
175
     1
 42
1.0
 92
        0
 66
     7
 43
1.0
 76
     1
 77
     6
 78
     2
 67
     7
 79
     5
170
     0
171
     0
290
     0
174
     0
 93
       13
 44
0.0
173
     0
291
     1
 45
0.0
1001
ACAD
1000
AcDbSavedByObjectVersion
1070
     0
  0
VISUALSTYLE
  5
2E
102
{ACAD_REACTORS
330
2A
102
}
102
{ACAD_XDICTIONARY
360
692
102
}
330
2A
100
AcDbVisualStyle
  2
GouraudWithEdges
 70
     3
 71
     2
 72
     2
 73
     1
 90
        2
 40
-0.6
 41
30.0
 62
     5
 63
     7
 74
     1
 91
        4
 64
     7
 65
   257
 75
     1
175
     1
 42
1.0
 92
        0
 66
   257
 43
1.0
 76
     1
 77
     6
 78
     2
 67
     7
 79
     5
170
     0
171
     0
290
     0
174
     0
 93
       13
 44
0.0
173
     0
291
     1
 45
0.0
1001
ACAD
1000
AcDbSavedByObjectVersion
1070
     0
  0
VISUALSTYLE
  5
38
102
{ACAD_REACTORS
330
2A
102
}
102
{ACAD_XDICTIONARY
360
6A6
102
}
330
2A
100
AcDbVisualStyle
  2
Linepattern
 70
    14
 71
     2
 72
     2
 73
     0
 90
        0
 40
-0.6
 41
-30.0
 62
     5
 63
     7
 74
     1
 91
        4
 64
     7
 65
   257
 75
     7
175
     7
 42
1.0
 92
        8
 66
     7
 43
1.0
 76
     1
 77
     6
 78
     2
 67
     7
 79
     5
170
     0
171
     0
290
     0
174
     0
 93
        1
 44
0.0
173
     0
291
     1
 45
0.0
1001
ACAD
1000
AcDbSavedByObjectVersion
1070
     0
  0
VISUALSTYLE
  5
33
102
{ACAD_REACTORS
330
2A
102
}
102
{ACAD_XDICTIONARY
360
69C
102
}
330
2A
100
AcDbVisualStyle
  2
Realistic
 70
     8
 71
     2
 72
     2
 73
     0
 90
        0
 40
-0.6
 41
-30.0
 62
     5
 63
     7
 74
     1
 91
        0
 64
     7
 65
   257
 75
     1
175
     1
 42
1.0
 92
        8
 66
     8
 43
1.0
 76
     1
 77
     6
 78
     2
 67
     7
 79
     5
170
     0
171
     0
290
     0
174
     0
 93
       13
 44
0.0
173
     0
291
     0
 45
0.0
1001
ACAD
1000
AcDbSavedByObjectVersion
1070
     0
  0
VISUALSTYLE
  5
37
102
{ACAD_REACTORS
330
2A
102
}
102
{ACAD_XDICTIONARY
360
6A4
102
}
330
2A
100
AcDbVisualStyle
  2
Thicken
 70
    13
 71
     2
 72
     2
 73
     0
 90
        0
 40
-0.6
 41
-30.0
 62
     5
 63
     7
 74
     1
 91
        4
 64
     7
 65
   257
 75
     1
175
     1
 42
1.0
 92
       12
 66
     7
 43
1.0
 76
     1
 77
     6
 78
     2
 67
     7
 79
     5
170
     0
171
     0
290
     0
174
     0
 93
        1
 44
0.0
173
     0
291
     1
 45
0.0
1001
ACAD
1000
AcDbSavedByObjectVersion
1070
     0
  0
DICTIONARYVAR
  5
68A
102
{ACAD_REACTORS
330
687
102
}
330
687
100
DictionaryVariables
280
     0
  1
2
  0
DICTIONARYVAR
  5
68B
102
{ACAD_REACTORS
330
687
102
}
330
687
100
DictionaryVariables
280
     0
  1
1
  0
DICTIONARY
  5
6AE
330
3D
100
AcDbDictionary
280
     1
281
     1
  3
ACAD_XREC_ROUNDTRIP
360
6AF
  0
DICTIONARY
  5
6AC
330
3C
100
AcDbDictionary
280
     1
281
     1
  3
ACAD_XREC_ROUNDTRIP
360
6AD
  0
DICTIONARY
  5
6B0
330
3E
100
AcDbDictionary
280
     1
281
     1
  3
ACAD_XREC_ROUNDTRIP
360
6B1
  0
DICTIONARY
  5
694
330
2F
100
AcDbDictionary
280
     1
281
     1
  3
ACAD_XREC_ROUNDTRIP
360
695
  0
DICTIONARY
  5
698
330
31
100
AcDbDictionary
280
     1
281
     1
  3
ACAD_XREC_ROUNDTRIP
360
699
  0
DICTIONARY
  5
696
330
30
100
AcDbDictionary
280
     1
281
     1
  3
ACAD_XREC_ROUNDTRIP
360
697
  0
DICTIONARY
  5
69A
330
32
100
AcDbDictionary
280
     1
281
     1
  3
ACAD_XREC_ROUNDTRIP
360
69B
  0
DICTIONARY
  5
6A2
330
36
100
AcDbDictionary
280
     1
281
     1
  3
ACAD_XREC_ROUNDTRIP
360
6A3
  0
DICTIONARY
  5
6AA
330
3A
100
AcDbDictionary
280
     1
281
     1
  3
ACAD_XREC_ROUNDTRIP
360
6AB
  0
DICTIONARY
  5
69E
330
34
100
AcDbDictionary
280
     1
281
     1
  3
ACAD_XREC_ROUNDTRIP
360
69F
  0
DICTIONARY
  5
6A0
330
35
100
AcDbDictionary
280
     1
281
     1
  3
ACAD_XREC_ROUNDTRIP
360
6A1
  0
DICTIONARY
  5
6A8
330
39
100
AcDbDictionary
280
     1
281
     1
  3
ACAD_XREC_ROUNDTRIP
360
6A9
  0
DICTIONARY
  5
68C
330
2B
100
AcDbDictionary
280
     1
281
     1
  3
ACAD_XREC_ROUNDTRIP
360
68D
  0
DICTIONARY
  5
68E
330
2C
100
AcDbDictionary
280
     1
281
     1
  3
ACAD_XREC_ROUNDTRIP
360
68F
  0
DICTIONARY
  5
690
330
2D
100
AcDbDictionary
280
     1
281
     1
  3
ACAD_XREC_ROUNDTRIP
360
691
  0
DICTIONARY
  5
692
330
2E
100
AcDbDictionary
280
     1
281
     1
  3
ACAD_XREC_ROUNDTRIP
360
693
  0
DICTIONARY
  5
6A6
330
38
100
AcDbDictionary
280
     1
281
     1
  3
ACAD_XREC_ROUNDTRIP
360
6A7
  0
DICTIONARY
  5
69C
330
33
100
AcDbDictionary
280
     1
281
     1
  3
ACAD_XREC_ROUNDTRIP
360
69D
  0
DICTIONARY
  5
6A4
330
37
100
AcDbDictionary
280
     1
281
     1
  3
ACAD_XREC_ROUNDTRIP
360
6A5
  0
XRECORD
  5
6AF
102
{ACAD_REACTORS
330
6AE
102
}
330
6AE
100
AcDbXrecord
280
     1
102
MATERIAL
148
0.0
149
0.0
149
0.0
 93
        0
 94
      127
282
     0
 72
     1
 77
     1
171
     1
175
     1
179
     1
273
     0
  0
XRECORD
  5
6AD
102
{ACAD_REACTORS
330
6AC
102
}
330
6AC
100
AcDbXrecord
280
     1
102
MATERIAL
148
0.0
149
0.0
149
0.0
 93
        0
 94
      127
282
     0
 72
     1
 77
     1
171
     1
175
     1
179
     1
273
     0
  0
XRECORD
  5
6B1
102
{ACAD_REACTORS
330
6B0
102
}
330
6B0
100
AcDbXrecord
280
     1
102
MATERIAL
148
0.0
149
0.0
149
0.0
 93
        0
 94
      127
282
     0
 72
     1
 77
     1
171
     1
175
     1
179
     1
273
     0
  0
XRECORD
  5
695
102
{ACAD_REACTORS
330
694
102
}
330
694
100
AcDbXrecord
280
     1
102
RTVSPropertyOp0
 70
     1
102
RTVSPropertyOp1
 70
     1
102
RTVSPropertyOp2
 70
     1
102
RTVSPropertyOp3
 70
     1
102
RTVSPropertyOp4
 70
     1
102
RTVSPropertyOp5
 70
     1
102
RTVSPropertyOp6
 70
     1
102
RTVSPropertyOp7
 70
     1
102
RTVSPropertyOp8
 70
     1
102
RTVSPropertyOp9
 70
     1
102
RTVSPropertyOp10
 70
     1
102
RTVSPropertyOp11
 70
     1
102
RTVSPropertyOp12
 70
     1
102
RTVSPropertyOp13
 70
     1
102
RTVSPropertyOp14
 70
     1
102
RTVSPropertyOp15
 70
     1
102
RTVSPropertyOp16
 70
     1
102
RTVSPropertyOp17
 70
     1
102
RTVSPropertyOp18
 70
     1
102
RTVSPropertyOp19
 70
     1
102
RTVSPropertyOp20
 70
     1
102
RTVSPropertyOp21
 70
     1
102
RTVSPropertyOp22
 70
     1
102
RTVSPropertyOp23
 70
     1
102
RTVSPropertyOp24
 70
     1
102
RTVSPropertyOp25
 70
     1
102
RTVSPropertyOp26
 70
     1
102
RTVSPropertyOp27
 70
     1
  0
XRECORD
  5
699
102
{ACAD_REACTORS
330
698
102
}
330
698
100
AcDbXrecord
280
     1
102
RTVSPropertyOp0
 70
     1
102
RTVSPropertyOp1
 70
     1
102
RTVSPropertyOp2
 70
     1
102
RTVSPropertyOp3
 70
     1
102
RTVSPropertyOp4
 70
     1
102
RTVSPropertyOp5
 70
     1
102
RTVSPropertyOp6
 70
     1
102
RTVSPropertyOp7
 70
     1
102
RTVSPropertyOp8
 70
     1
102
RTVSPropertyOp9
 70
     1
102
RTVSPropertyOp10
 70
     1
102
RTVSPropertyOp11
 70
     1
102
RTVSPropertyOp12
 70
     1
102
RTVSPropertyOp13
 70
     1
102
RTVSPropertyOp14
 70
     1
102
RTVSPropertyOp15
 70
     1
102
RTVSPropertyOp16
 70
     1
102
RTVSPropertyOp17
 70
     1
102
RTVSPropertyOp18
 70
     1
102
RTVSPropertyOp19
 70
     1
102
RTVSPropertyOp20
 70
     1
102
RTVSPropertyOp21
 70
     1
102
RTVSPropertyOp22
 70
     1
102
RTVSPropertyOp23
 70
     1
102
RTVSPropertyOp24
 70
     1
102
RTVSPropertyOp25
 70
     1
102
RTVSPropertyOp26
 70
     1
102
RTVSPropertyOp27
 70
     1
  0
XRECORD
  5
697
102
{ACAD_REACTORS
330
696
102
}
330
696
100
AcDbXrecord
280
     1
102
RTVSPropertyOp0
 70
     1
102
RTVSPropertyOp1
 70
     1
102
RTVSPropertyOp2
 70
     1
102
RTVSPropertyOp3
 70
     1
102
RTVSPropertyOp4
 70
     1
102
RTVSPropertyOp5
 70
     1
102
RTVSPropertyOp6
 70
     1
102
RTVSPropertyOp7
 70
     1
102
RTVSPropertyOp8
 70
     1
102
RTVSPropertyOp9
 70
     1
102
RTVSPropertyOp10
 70
     1
102
RTVSPropertyOp11
 70
     1
102
RTVSPropertyOp12
 70
     1
102
RTVSPropertyOp13
 70
     1
102
RTVSPropertyOp14
 70
     1
102
RTVSPropertyOp15
 70
     1
102
RTVSPropertyOp16
 70
     1
102
RTVSPropertyOp17
 70
     1
102
RTVSPropertyOp18
 70
     1
102
RTVSPropertyOp19
 70
     1
102
RTVSPropertyOp20
 70
     1
102
RTVSPropertyOp21
 70
     1
102
RTVSPropertyOp22
 70
     1
102
RTVSPropertyOp23
 70
     1
102
RTVSPropertyOp24
 70
     1
102
RTVSPropertyOp25
 70
     1
102
RTVSPropertyOp26
 70
     1
102
RTVSPropertyOp27
 70
     1
  0
XRECORD
  5
69B
102
{ACAD_REACTORS
330
69A
102
}
330
69A
100
AcDbXrecord
280
     1
102
RTVSPropertyOp0
 70
     1
102
RTVSPropertyOp1
 70
     1
102
RTVSPropertyOp2
 70
     1
102
RTVSPropertyOp3
 70
     1
102
RTVSPropertyOp4
 70
     1
102
RTVSPropertyOp5
 70
     1
102
RTVSPropertyOp6
 70
     1
102
RTVSPropertyOp7
 70
     1
102
RTVSPropertyOp8
 70
     1
102
RTVSPropertyOp9
 70
     1
102
RTVSPropertyOp10
 70
     1
102
RTVSPropertyOp11
 70
     1
102
RTVSPropertyOp12
 70
     1
102
RTVSPropertyOp13
 70
     1
102
RTVSPropertyOp14
 70
     1
102
RTVSPropertyOp15
 70
     1
102
RTVSPropertyOp16
 70
     1
102
RTVSPropertyOp17
 70
     1
102
RTVSPropertyOp18
 70
     1
102
RTVSPropertyOp19
 70
     1
102
RTVSPropertyOp20
 70
     1
102
RTVSPropertyOp21
 70
     1
102
RTVSPropertyOp22
 70
     1
102
RTVSPropertyOp23
 70
     1
102
RTVSPropertyOp24
 70
     1
102
RTVSPropertyOp25
 70
     1
102
RTVSPropertyOp26
 70
     1
102
RTVSPropertyOp27
 70
     1
  0
XRECORD
  5
6A3
102
{ACAD_REACTORS
330
6A2
102
}
330
6A2
100
AcDbXrecord
280
     1
102
RTVSPropertyOp0
 70
     1
102
RTVSPropertyOp1
 70
     1
102
RTVSPropertyOp2
 70
     1
102
RTVSPropertyOp3
 70
     1
102
RTVSPropertyOp4
 70
     1
102
RTVSPropertyOp5
 70
     1
102
RTVSPropertyOp6
 70
     1
102
RTVSPropertyOp7
 70
     1
102
RTVSPropertyOp8
 70
     1
102
RTVSPropertyOp9
 70
     1
102
RTVSPropertyOp10
 70
     1
102
RTVSPropertyOp11
 70
     1
102
RTVSPropertyOp12
 70
     1
102
RTVSPropertyOp13
 70
     1
102
RTVSPropertyOp14
 70
     1
102
RTVSPropertyOp15
 70
     1
102
RTVSPropertyOp16
 70
     1
102
RTVSPropertyOp17
 70
     1
102
RTVSPropertyOp18
 70
     1
102
RTVSPropertyOp19
 70
     1
102
RTVSPropertyOp20
 70
     1
102
RTVSPropertyOp21
 70
     1
102
RTVSPropertyOp22
 70
     1
102
RTVSPropertyOp23
 70
     1
102
RTVSPropertyOp24
 70
     1
102
RTVSPropertyOp25
 70
     1
102
RTVSPropertyOp26
 70
     1
102
RTVSPropertyOp27
 70
     1
  0
XRECORD
  5
6AB
102
{ACAD_REACTORS
330
6AA
102
}
330
6AA
100
AcDbXrecord
280
     1
102
RTVSPropertyOp0
 70
     1
102
RTVSPropertyOp1
 70
     1
102
RTVSPropertyOp2
 70
     1
102
RTVSPropertyOp3
 70
     1
102
RTVSPropertyOp4
 70
     1
102
RTVSPropertyOp5
 70
     1
102
RTVSPropertyOp6
 70
     1
102
RTVSPropertyOp7
 70
     1
102
RTVSPropertyOp8
 70
     1
102
RTVSPropertyOp9
 70
     1
102
RTVSPropertyOp10
 70
     1
102
RTVSPropertyOp11
 70
     1
102
RTVSPropertyOp12
 70
     1
102
RTVSPropertyOp13
 70
     1
102
RTVSPropertyOp14
 70
     1
102
RTVSPropertyOp15
 70
     1
102
RTVSPropertyOp16
 70
     1
102
RTVSPropertyOp17
 70
     1
102
RTVSPropertyOp18
 70
     1
102
RTVSPropertyOp19
 70
     1
102
RTVSPropertyOp20
 70
     1
102
RTVSPropertyOp21
 70
     1
102
RTVSPropertyOp22
 70
     1
102
RTVSPropertyOp23
 70
     1
102
RTVSPropertyOp24
 70
     1
102
RTVSPropertyOp25
 70
     1
102
RTVSPropertyOp26
 70
     1
102
RTVSPropertyOp27
 70
     1
  0
XRECORD
  5
69F
102
{ACAD_REACTORS
330
69E
102
}
330
69E
100
AcDbXrecord
280
     1
102
RTVSPropertyOp0
 70
     1
102
RTVSPropertyOp1
 70
     1
102
RTVSPropertyOp2
 70
     1
102
RTVSPropertyOp3
 70
     1
102
RTVSPropertyOp4
 70
     1
102
RTVSPropertyOp5
 70
     1
102
RTVSPropertyOp6
 70
     1
102
RTVSPropertyOp7
 70
     1
102
RTVSPropertyOp8
 70
     1
102
RTVSPropertyOp9
 70
     1
102
RTVSPropertyOp10
 70
     1
102
RTVSPropertyOp11
 70
     1
102
RTVSPropertyOp12
 70
     1
102
RTVSPropertyOp13
 70
     1
102
RTVSPropertyOp14
 70
     1
102
RTVSPropertyOp15
 70
     1
102
RTVSPropertyOp16
 70
     1
102
RTVSPropertyOp17
 70
     1
102
RTVSPropertyOp18
 70
     1
102
RTVSPropertyOp19
 70
     1
102
RTVSPropertyOp20
 70
     1
102
RTVSPropertyOp21
 70
     1
102
RTVSPropertyOp22
 70
     1
102
RTVSPropertyOp23
 70
     1
102
RTVSPropertyOp24
 70
     1
102
RTVSPropertyOp25
 70
     1
102
RTVSPropertyOp26
 70
     1
102
RTVSPropertyOp27
 70
     1
  0
XRECORD
  5
6A1
102
{ACAD_REACTORS
330
6A0
102
}
330
6A0
100
AcDbXrecord
280
     1
102
RTVSPropertyOp0
 70
     1
102
RTVSPropertyOp1
 70
     1
102
RTVSPropertyOp2
 70
     1
102
RTVSPropertyOp3
 70
     1
102
RTVSPropertyOp4
 70
     1
102
RTVSPropertyOp5
 70
     1
102
RTVSPropertyOp6
 70
     1
102
RTVSPropertyOp7
 70
     1
102
RTVSPropertyOp8
 70
     1
102
RTVSPropertyOp9
 70
     1
102
RTVSPropertyOp10
 70
     1
102
RTVSPropertyOp11
 70
     1
102
RTVSPropertyOp12
 70
     1
102
RTVSPropertyOp13
 70
     1
102
RTVSPropertyOp14
 70
     1
102
RTVSPropertyOp15
 70
     1
102
RTVSPropertyOp16
 70
     1
102
RTVSPropertyOp17
 70
     1
102
RTVSPropertyOp18
 70
     1
102
RTVSPropertyOp19
 70
     1
102
RTVSPropertyOp20
 70
     1
102
RTVSPropertyOp21
 70
     1
102
RTVSPropertyOp22
 70
     1
102
RTVSPropertyOp23
 70
     1
102
RTVSPropertyOp24
 70
     1
102
RTVSPropertyOp25
 70
     1
102
RTVSPropertyOp26
 70
     1
102
RTVSPropertyOp27
 70
     1
  0
XRECORD
  5
6A9
102
{ACAD_REACTORS
330
6A8
102
}
330
6A8
100
AcDbXrecord
280
     1
102
RTVSPropertyOp0
 70
     1
102
RTVSPropertyOp1
 70
     1
102
RTVSPropertyOp2
 70
     1
102
RTVSPropertyOp3
 70
     1
102
RTVSPropertyOp4
 70
     1
102
RTVSPropertyOp5
 70
     1
102
RTVSPropertyOp6
 70
     1
102
RTVSPropertyOp7
 70
     1
102
RTVSPropertyOp8
 70
     1
102
RTVSPropertyOp9
 70
     1
102
RTVSPropertyOp10
 70
     1
102
RTVSPropertyOp11
 70
     1
102
RTVSPropertyOp12
 70
     1
102
RTVSPropertyOp13
 70
     1
102
RTVSPropertyOp14
 70
     1
102
RTVSPropertyOp15
 70
     1
102
RTVSPropertyOp16
 70
     1
102
RTVSPropertyOp17
 70
     1
102
RTVSPropertyOp18
 70
     1
102
RTVSPropertyOp19
 70
     1
102
RTVSPropertyOp20
 70
     1
102
RTVSPropertyOp21
 70
     1
102
RTVSPropertyOp22
 70
     1
102
RTVSPropertyOp23
 70
     1
102
RTVSPropertyOp24
 70
     1
102
RTVSPropertyOp25
 70
     1
102
RTVSPropertyOp26
 70
     1
102
RTVSPropertyOp27
 70
     1
  0
XRECORD
  5
68D
102
{ACAD_REACTORS
330
68C
102
}
330
68C
100
AcDbXrecord
280
     1
102
RTVSPropertyOp0
 70
     1
102
RTVSPropertyOp1
 70
     1
102
RTVSPropertyOp2
 70
     1
102
RTVSPropertyOp3
 70
     1
102
RTVSPropertyOp4
 70
     1
102
RTVSPropertyOp5
 70
     1
102
RTVSPropertyOp6
 70
     1
102
RTVSPropertyOp7
 70
     1
102
RTVSPropertyOp8
 70
     1
102
RTVSPropertyOp9
 70
     1
102
RTVSPropertyOp10
 70
     1
102
RTVSPropertyOp11
 70
     1
102
RTVSPropertyOp12
 70
     1
102
RTVSPropertyOp13
 70
     1
102
RTVSPropertyOp14
 70
     1
102
RTVSPropertyOp15
 70
     1
102
RTVSPropertyOp16
 70
     1
102
RTVSPropertyOp17
 70
     1
102
RTVSPropertyOp18
 70
     1
102
RTVSPropertyOp19
 70
     1
102
RTVSPropertyOp20
 70
     1
102
RTVSPropertyOp21
 70
     1
102
RTVSPropertyOp22
 70
     1
102
RTVSPropertyOp23
 70
     1
102
RTVSPropertyOp24
 70
     1
102
RTVSPropertyOp25
 70
     1
102
RTVSPropertyOp26
 70
     1
102
RTVSPropertyOp27
 70
     1
  0
XRECORD
  5
68F
102
{ACAD_REACTORS
330
68E
102
}
330
68E
100
AcDbXrecord
280
     1
102
RTVSPropertyOp0
 70
     1
102
RTVSPropertyOp1
 70
     1
102
RTVSPropertyOp2
 70
     1
102
RTVSPropertyOp3
 70
     1
102
RTVSPropertyOp4
 70
     1
102
RTVSPropertyOp5
 70
     1
102
RTVSPropertyOp6
 70
     1
102
RTVSPropertyOp7
 70
     1
102
RTVSPropertyOp8
 70
     1
102
RTVSPropertyOp9
 70
     1
102
RTVSPropertyOp10
 70
     1
102
RTVSPropertyOp11
 70
     1
102
RTVSPropertyOp12
 70
     1
102
RTVSPropertyOp13
 70
     1
102
RTVSPropertyOp14
 70
     1
102
RTVSPropertyOp15
 70
     1
102
RTVSPropertyOp16
 70
     1
102
RTVSPropertyOp17
 70
     1
102
RTVSPropertyOp18
 70
     1
102
RTVSPropertyOp19
 70
     1
102
RTVSPropertyOp20
 70
     1
102
RTVSPropertyOp21
 70
     1
102
RTVSPropertyOp22
 70
     1
102
RTVSPropertyOp23
 70
     1
102
RTVSPropertyOp24
 70
     1
102
RTVSPropertyOp25
 70
     1
102
RTVSPropertyOp26
 70
     1
102
RTVSPropertyOp27
 70
     1
  0
XRECORD
  5
691
102
{ACAD_REACTORS
330
690
102
}
330
690
100
AcDbXrecord
280
     1
102
RTVSPropertyOp0
 70
     1
102
RTVSPropertyOp1
 70
     1
102
RTVSPropertyOp2
 70
     1
102
RTVSPropertyOp3
 70
     1
102
RTVSPropertyOp4
 70
     1
102
RTVSPropertyOp5
 70
     1
102
RTVSPropertyOp6
 70
     1
102
RTVSPropertyOp7
 70
     1
102
RTVSPropertyOp8
 70
     1
102
RTVSPropertyOp9
 70
     1
102
RTVSPropertyOp10
 70
     1
102
RTVSPropertyOp11
 70
     1
102
RTVSPropertyOp12
 70
     1
102
RTVSPropertyOp13
 70
     1
102
RTVSPropertyOp14
 70
     1
102
RTVSPropertyOp15
 70
     1
102
RTVSPropertyOp16
 70
     1
102
RTVSPropertyOp17
 70
     1
102
RTVSPropertyOp18
 70
     1
102
RTVSPropertyOp19
 70
     1
102
RTVSPropertyOp20
 70
     1
102
RTVSPropertyOp21
 70
     1
102
RTVSPropertyOp22
 70
     1
102
RTVSPropertyOp23
 70
     1
102
RTVSPropertyOp24
 70
     1
102
RTVSPropertyOp25
 70
     1
102
RTVSPropertyOp26
 70
     1
102
RTVSPropertyOp27
 70
     1
  0
XRECORD
  5
693
102
{ACAD_REACTORS
330
692
102
}
330
692
100
AcDbXrecord
280
     1
102
RTVSPropertyOp0
 70
     1
102
RTVSPropertyOp1
 70
     1
102
RTVSPropertyOp2
 70
     1
102
RTVSPropertyOp3
 70
     1
102
RTVSPropertyOp4
 70
     1
102
RTVSPropertyOp5
 70
     1
102
RTVSPropertyOp6
 70
     1
102
RTVSPropertyOp7
 70
     1
102
RTVSPropertyOp8
 70
     1
102
RTVSPropertyOp9
 70
     1
102
RTVSPropertyOp10
 70
     1
102
RTVSPropertyOp11
 70
     1
102
RTVSPropertyOp12
 70
     1
102
RTVSPropertyOp13
 70
     1
102
RTVSPropertyOp14
 70
     1
102
RTVSPropertyOp15
 70
     1
102
RTVSPropertyOp16
 70
     1
102
RTVSPropertyOp17
 70
     1
102
RTVSPropertyOp18
 70
     1
102
RTVSPropertyOp19
 70
     1
102
RTVSPropertyOp20
 70
     1
102
RTVSPropertyOp21
 70
     1
102
RTVSPropertyOp22
 70
     1
102
RTVSPropertyOp23
 70
     1
102
RTVSPropertyOp24
 70
     1
102
RTVSPropertyOp25
 70
     1
102
RTVSPropertyOp26
 70
     1
102
RTVSPropertyOp27
 70
     1
  0
XRECORD
  5
6A7
102
{ACAD_REACTORS
330
6A6
102
}
330
6A6
100
AcDbXrecord
280
     1
102
RTVSPropertyOp0
 70
     1
102
RTVSPropertyOp1
 70
     1
102
RTVSPropertyOp2
 70
     1
102
RTVSPropertyOp3
 70
     1
102
RTVSPropertyOp4
 70
     1
102
RTVSPropertyOp5
 70
     1
102
RTVSPropertyOp6
 70
     1
102
RTVSPropertyOp7
 70
     1
102
RTVSPropertyOp8
 70
     1
102
RTVSPropertyOp9
 70
     1
102
RTVSPropertyOp10
 70
     1
102
RTVSPropertyOp11
 70
     1
102
RTVSPropertyOp12
 70
     1
102
RTVSPropertyOp13
 70
     1
102
RTVSPropertyOp14
 70
     1
102
RTVSPropertyOp15
 70
     1
102
RTVSPropertyOp16
 70
     1
102
RTVSPropertyOp17
 70
     1
102
RTVSPropertyOp18
 70
     1
102
RTVSPropertyOp19
 70
     1
102
RTVSPropertyOp20
 70
     1
102
RTVSPropertyOp21
 70
     1
102
RTVSPropertyOp22
 70
     1
102
RTVSPropertyOp23
 70
     1
102
RTVSPropertyOp24
 70
     1
102
RTVSPropertyOp25
 70
     1
102
RTVSPropertyOp26
 70
     1
102
RTVSPropertyOp27
 70
     1
  0
XRECORD
  5
69D
102
{ACAD_REACTORS
330
69C
102
}
330
69C
100
AcDbXrecord
280
     1
102
RTVSPropertyOp0
 70
     1
102
RTVSPropertyOp1
 70
     1
102
RTVSPropertyOp2
 70
     1
102
RTVSPropertyOp3
 70
     1
102
RTVSPropertyOp4
 70
     1
102
RTVSPropertyOp5
 70
     1
102
RTVSPropertyOp6
 70
     1
102
RTVSPropertyOp7
 70
     1
102
RTVSPropertyOp8
 70
     1
102
RTVSPropertyOp9
 70
     1
102
RTVSPropertyOp10
 70
     1
102
RTVSPropertyOp11
 70
     1
102
RTVSPropertyOp12
 70
     1
102
RTVSPropertyOp13
 70
     1
102
RTVSPropertyOp14
 70
     1
102
RTVSPropertyOp15
 70
     1
102
RTVSPropertyOp16
 70
     1
102
RTVSPropertyOp17
 70
     1
102
RTVSPropertyOp18
 70
     1
102
RTVSPropertyOp19
 70
     1
102
RTVSPropertyOp20
 70
     1
102
RTVSPropertyOp21
 70
     1
102
RTVSPropertyOp22
 70
     1
102
RTVSPropertyOp23
 70
     1
102
RTVSPropertyOp24
 70
     1
102
RTVSPropertyOp25
 70
     1
102
RTVSPropertyOp26
 70
     1
102
RTVSPropertyOp27
 70
     1
  0
XRECORD
  5
6A5
102
{ACAD_REACTORS
330
6A4
102
}
330
6A4
100
AcDbXrecord
280
     1
102
RTVSPropertyOp0
 70
     1
102
RTVSPropertyOp1
 70
     1
102
RTVSPropertyOp2
 70
     1
102
RTVSPropertyOp3
 70
     1
102
RTVSPropertyOp4
 70
     1
102
RTVSPropertyOp5
 70
     1
102
RTVSPropertyOp6
 70
     1
102
RTVSPropertyOp7
 70
     1
102
RTVSPropertyOp8
 70
     1
102
RTVSPropertyOp9
 70
     1
102
RTVSPropertyOp10
 70
     1
102
RTVSPropertyOp11
 70
     1
102
RTVSPropertyOp12
 70
     1
102
RTVSPropertyOp13
 70
     1
102
RTVSPropertyOp14
 70
     1
102
RTVSPropertyOp15
 70
     1
102
RTVSPropertyOp16
 70
     1
102
RTVSPropertyOp17
 70
     1
102
RTVSPropertyOp18
 70
     1
102
RTVSPropertyOp19
 70
     1
102
RTVSPropertyOp20
 70
     1
102
RTVSPropertyOp21
 70
     1
102
RTVSPropertyOp22
 70
     1
102
RTVSPropertyOp23
 70
     1
102
RTVSPropertyOp24
 70
     1
102
RTVSPropertyOp25
 70
     1
102
RTVSPropertyOp26
 70
     1
102
RTVSPropertyOp27
 70
     1
  0
ENDSEC
  0
EOF
