  0
SECTION
  2
HEADER
  9
$ACADVER
  1
AC1015
  9
$ACADMAINTVER
 70
     6
  9
$DWGCODEPAGE
  3
ANSI_932
  9
$INSBASE
 10
0.0
 20
0.0
 30
0.0
  9
$EXTMIN
 10
-78.0
 20
-85.26666666666667
 30
0.0
  9
$EXTMAX
 10
231.0
 20
247.0
 30
0.0
  9
$LIMMIN
 10
0.0
 20
0.0
  9
$LIMMAX
 10
12.0
 20
9.0
  9
$ORTHOMODE
 70
     0
  9
$REGENMODE
 70
     1
  9
$FILLMODE
 70
     1
  9
$QTEXTMODE
 70
     0
  9
$MIRRTEXT
 70
     1
  9
$LTSCALE
 40
1.0
  9
$ATTMODE
 70
     1
  9
$TEXTSIZE
 40
0.2
  9
$TRACEWID
 40
0.05
  9
$TEXTSTYLE
  7
Standard
  9
$CLAYER
  8
0
  9
$CELTYPE
  6
ByLayer
  9
$CECOLOR
 62
   256
  9
$CELTSCALE
 40
1.0
  9
$DISPSILH
 70
     0
  9
$DIMSCALE
 40
1.0
  9
$DIMASZ
 40
0.18
  9
$DIMEXO
 40
0.0625
  9
$DIMDLI
 40
0.38
  9
$DIMRND
 40
0.0
  9
$DIMDLE
 40
0.0
  9
$DIMEXE
 40
0.18
  9
$DIMTP
 40
0.0
  9
$DIMTM
 40
0.0
  9
$DIMTXT
 40
0.18
  9
$DIMCEN
 40
0.09
  9
$DIMTSZ
 40
0.0
  9
$DIMTOL
 70
     0
  9
$DIMLIM
 70
     0
  9
$DIMTIH
 70
     1
  9
$DIMTOH
 70
     1
  9
$DIMSE1
 70
     0
  9
$DIMSE2
 70
     0
  9
$DIMTAD
 70
     0
  9
$DIMZIN
 70
     0
  9
$DIMBLK
  1

  9
$DIMASO
 70
     1
  9
$DIMSHO
 70
     1
  9
$DIMPOST
  1

  9
$DIMAPOST
  1

  9
$DIMALT
 70
     0
  9
$DIMALTD
 70
     2
  9
$DIMALTF
 40
25.4
  9
$DIMLFAC
 40
1.0
  9
$DIMTOFL
 70
     0
  9
$DIMTVP
 40
0.0
  9
$DIMTIX
 70
     0
  9
$DIMSOXD
 70
     0
  9
$DIMSAH
 70
     0
  9
$DIMBLK1
  1

  9
$DIMBLK2
  1

  9
$DIMSTYLE
  2
Standard
  9
$DIMCLRD
 70
     0
  9
$DIMCLRE
 70
     0
  9
$DIMCLRT
 70
     0
  9
$DIMTFAC
 40
1.0
  9
$DIMGAP
 40
0.09
  9
$DIMJUST
 70
     0
  9
$DIMSD1
 70
     0
  9
$DIMSD2
 70
     0
  9
$DIMTOLJ
 70
     1
  9
$DIMTZIN
 70
     0
  9
$DIMALTZ
 70
     0
  9
$DIMALTTZ
 70
     0
  9
$DIMUPT
 70
     0
  9
$DIMDEC
 70
     4
  9
$DIMTDEC
 70
     4
  9
$DIMALTU
 70
     2
  9
$DIMALTTD
 70
     2
  9
$DIMTXSTY
  7
Standard
  9
$DIMAUNIT
 70
     0
  9
$DIMADEC
 70
     0
  9
$DIMALTRND
 40
0.0
  9
$DIMAZIN
 70
     0
  9
$DIMDSEP
 70
    46
  9
$DIMATFIT
 70
     3
  9
$DIMFRAC
 70
     0
  9
$DIMLDRBLK
  1

  9
$DIMLUNIT
 70
     2
  9
$DIMLWD
 70
    -2
  9
$DIMLWE
 70
    -2
  9
$DIMTMOVE
 70
     0
  9
$LUNITS
 70
     2
  9
$LUPREC
 70
     4
  9
$SKETCHINC
 40
0.1
  9
$FILLETRAD
 40
0.5
  9
$AUNITS
 70
     0
  9
$AUPREC
 70
     0
  9
$MENU
  1
.
  9
$ELEVATION
 40
0.0
  9
$PELEVATION
 40
0.0
  9
$THICKNESS
 40
0.0
  9
$LIMCHECK
 70
     0
  9
$CHAMFERA
 40
0.5
  9
$CHAMFERB
 40
0.5
  9
$CHAMFERC
 40
1.0
  9
$CHAMFERD
 40
0.0
  9
$SKPOLY
 70
     0
  9
$TDCREATE
 40
2457645.359651296
  9
$TDUCREATE
 40
2457644.984651296
  9
$TDUPDATE
 40
2457645.359651308
  9
$TDUUPDATE
 40
2457644.984651308
  9
$TDINDWG
 40
0.0000000116
  9
$TDUSRTIMER
 40
0.0000000116
  9
$USRTIMER
 70
     1
  9
$ANGBASE
 50
0.0
  9
$ANGDIR
 70
     0
  9
$PDMODE
 70
     0
  9
$PDSIZE
 40
0.0
  9
$PLINEWID
 40
0.0
  9
$SPLFRAME
 70
     0
  9
$SPLINETYPE
 70
     6
  9
$SPLINESEGS
 70
     8
  9
$HANDSEED
  5
319
  9
$SURFTAB1
 70
     6
  9
$SURFTAB2
 70
     6
  9
$SURFTYPE
 70
     6
  9
$SURFU
 70
     6
  9
$SURFV
 70
     6
  9
$UCSBASE
  2

  9
$UCSNAME
  2

  9
$UCSORG
 10
0.0
 20
0.0
 30
0.0
  9
$UCSXDIR
 10
1.0
 20
0.0
 30
0.0
  9
$UCSYDIR
 10
0.0
 20
1.0
 30
0.0
  9
$UCSORTHOREF
  2

  9
$UCSORTHOVIEW
 70
     0
  9
$UCSORGTOP
 10
0.0
 20
0.0
 30
0.0
  9
$UCSORGBOTTOM
 10
0.0
 20
0.0
 30
0.0
  9
$UCSORGLEFT
 10
0.0
 20
0.0
 30
0.0
  9
$UCSORGRIGHT
 10
0.0
 20
0.0
 30
0.0
  9
$UCSORGFRONT
 10
0.0
 20
0.0
 30
0.0
  9
$UCSORGBACK
 10
0.0
 20
0.0
 30
0.0
  9
$PUCSBASE
  2

  9
$PUCSNAME
  2

  9
$PUCSORG
 10
0.0
 20
0.0
 30
0.0
  9
$PUCSXDIR
 10
1.0
 20
0.0
 30
0.0
  9
$PUCSYDIR
 10
0.0
 20
1.0
 30
0.0
  9
$PUCSORTHOREF
  2

  9
$PUCSORTHOVIEW
 70
     0
  9
$PUCSORGTOP
 10
0.0
 20
0.0
 30
0.0
  9
$PUCSORGBOTTOM
 10
0.0
 20
0.0
 30
0.0
  9
$PUCSORGLEFT
 10
0.0
 20
0.0
 30
0.0
  9
$PUCSORGRIGHT
 10
0.0
 20
0.0
 30
0.0
  9
$PUCSORGFRONT
 10
0.0
 20
0.0
 30
0.0
  9
$PUCSORGBACK
 10
0.0
 20
0.0
 30
0.0
  9
$USERI1
 70
     0
  9
$USERI2
 70
     0
  9
$USERI3
 70
     0
  9
$USERI4
 70
     0
  9
$USERI5
 70
     0
  9
$USERR1
 40
18.0
  9
$USERR2
 40
0.0
  9
$USERR3
 40
0.0
  9
$USERR4
 40
0.0
  9
$USERR5
 40
0.0
  9
$WORLDVIEW
 70
     1
  9
$SHADEDGE
 70
     3
  9
$SHADEDIF
 70
    70
  9
$TILEMODE
 70
     1
  9
$MAXACTVP
 70
    64
  9
$PINSBASE
 10
0.0
 20
0.0
 30
0.0
  9
$PLIMCHECK
 70
     0
  9
$PEXTMIN
 10
1.00000000000000E+20
 20
1.00000000000000E+20
 30
1.00000000000000E+20
  9
$PEXTMAX
 10
-1.00000000000000E+20
 20
-1.00000000000000E+20
 30
-1.00000000000000E+20
  9
$PLIMMIN
 10
0.0
 20
0.0
  9
$PLIMMAX
 10
12.0
 20
9.0
  9
$UNITMODE
 70
     0
  9
$VISRETAIN
 70
     1
  9
$PLINEGEN
 70
     0
  9
$PSLTSCALE
 70
     1
  9
$TREEDEPTH
 70
  3020
  9
$CMLSTYLE
  2
Standard
  9
$CMLJUST
 70
     0
  9
$CMLSCALE
 40
1.0
  9
$PROXYGRAPHICS
 70
     1
  9
$MEASUREMENT
 70
     1
  9
$CELWEIGHT
370
    -1
  9
$ENDCAPS
280
     0
  9
$JOINSTYLE
280
     0
  9
$LWDISPLAY
290
     0
  9
$INSUNITS
 70
     1
  9
$HYPERLINKBASE
  1

  9
$STYLESHEET
  1

  9
$XEDIT
290
     1
  9
$CEPSNTYPE
380
     0
  9
$PSTYLEMODE
290
     1
  9
$FINGERPRINTGUID
  2
{BF8E9FBC-B5C7-4F48-B5B2-F2B8B0512910}
  9
$VERSIONGUID
  2
{FAEB1C32-E019-11D5-929B-00C0DF256EC4}
  9
$EXTNAMES
290
     1
  9
$PSVPSCALE
 40
0.0
  9
$OLESTARTUP
290
     0
  0
ENDSEC
  0
SECTION
  2
CLASSES
  0
CLASS
  1
ACDBDICTIONARYWDFLT
  2
AcDbDictionaryWithDefault
  3
ObjectDBX Classes
 90
        0
280
     0
281
     0
  0
CLASS
  1
VISUALSTYLE
  2
AcDbVisualStyle
  3
ObjectDBX Classes
 90
     4095
280
     0
281
     0
  0
CLASS
  1
MATERIAL
  2
AcDbMaterial
  3
ObjectDBX Classes
 90
     1153
280
     0
281
     0
  0
CLASS
  1

  2
exOdDbCircle
  3

 90
        0
280
     0
281
     1
  0
CLASS
  1

  2
exOdDbPolyline
  3

 90
        0
280
     0
281
     1
  0
CLASS
  1
DICTIONARYVAR
  2
AcDbDictionaryVar
  3
ObjectDBX Classes
 90
        0
280
     0
281
     0
  0
CLASS
  1
ACDBPLACEHOLDER
  2
AcDbPlaceHolder
  3
ObjectDBX Classes
 90
        0
280
     0
281
     0
  0
CLASS
  1
LAYOUT
  2
AcDbLayout
  3
ObjectDBX Classes
 90
        0
280
     0
281
     0
  0
ENDSEC
  0
SECTION
  2
TABLES
  0
TABLE
  2
VPORT
  5
8
330
0
100
AcDbSymbolTable
 70
     1
  0
VPORT
  5
29
330
8
100
AcDbSymbolTableRecord
100
AcDbViewportTableRecord
  2
*Active
 70
     0
 10
0.0
 20
0.0
 11
1.0
 21
1.0
 12
76.5
 22
80.86666666666667
 13
0.0
 23
0.0
 14
0.5
 24
0.5
 15
0.5
 25
0.5
 16
0.0
 26
0.0
 36
1.0
 17
0.0
 27
0.0
 37
0.0
 40
365.4933333333333
 41
1.60267857142857
 42
50.0
 43
0.0
 44
0.0
 50
0.0
 51
0.0
 71
     0
 72
   100
 73
     1
 74
     3
 75
     0
 76
     0
 77
     0
 78
     0
281
     0
 65
     1
110
0.0
120
0.0
130
0.0
111
1.0
121
0.0
131
0.0
112
0.0
122
1.0
132
0.0
 79
     0
146
0.0
  0
ENDTAB
  0
TABLE
  2
LTYPE
  5
5
330
0
100
AcDbSymbolTable
 70
     9
  0
LTYPE
  5
14
330
5
100
AcDbSymbolTableRecord
100
AcDbLinetypeTableRecord
  2
ByBlock
 70
     0
  3

 72
    65
 73
     0
 40
0.0
  0
LTYPE
  5
15
330
5
100
AcDbSymbolTableRecord
100
AcDbLinetypeTableRecord
  2
ByLayer
 70
     0
  3

 72
    65
 73
     0
 40
0.0
  0
LTYPE
  5
16
330
5
100
AcDbSymbolTableRecord
100
AcDbLinetypeTableRecord
  2
Continuous
 70
     0
  3
Solid line
 72
    65
 73
     0
 40
0.0
  0
LTYPE
  5
3F
330
5
100
AcDbSymbolTableRecord
100
AcDbLinetypeTableRecord
  2
DASHED
 70
     0
  3
Dashed
 72
    65
 73
     2
 40
15.0
 49
7.0
 74
     0
 49
-8.0
 74
     0
  0
LTYPE
  5
40
330
5
100
AcDbSymbolTableRecord
100
AcDbLinetypeTableRecord
  2
DOTTED
 70
     0
  3
Dotted
 72
    65
 73
     2
 40
1.0
 49
0.0
 74
     0
 49
-1.0
 74
     0
  0
LTYPE
  5
41
330
5
100
AcDbSymbolTableRecord
100
AcDbLinetypeTableRecord
  2
DOT_CENTER
 70
     0
  3
Dot_Center
 72
    65
 73
     4
 40
14.0
 49
12.0
 74
     0
 49
-1.0
 74
     0
 49
0.0
 74
     0
 49
-1.0
 74
     0
  0
LTYPE
  5
42
330
5
100
AcDbSymbolTableRecord
100
AcDbLinetypeTableRecord
  2
LONG_DASHED
 70
     0
  3
Long_Dashed
 72
    65
 73
     2
 40
15.0
 49
10.0
 74
     0
 49
-5.0
 74
     0
  0
LTYPE
  5
43
330
5
100
AcDbSymbolTableRecord
100
AcDbLinetypeTableRecord
  2
DASH_CENTER
 70
     0
  3
Dash_Center
 72
    65
 73
     4
 40
14.0
 49
11.0
 74
     0
 49
-1.0
 74
     0
 49
1.0
 74
     0
 49
-1.0
 74
     0
  0
LTYPE
  5
44
330
5
100
AcDbSymbolTableRecord
100
AcDbLinetypeTableRecord
  2
PHANTOM
 70
     0
  3
Phantom
 72
    65
 73
     6
 40
13.0
 49
10.0
 74
     0
 49
-1.0
 74
     0
 49
0.0
 74
     0
 49
-1.0
 74
     0
 49
0.0
 74
     0
 49
-1.0
 74
     0
  0
LTYPE
  5
45
330
5
100
AcDbSymbolTableRecord
100
AcDbLinetypeTableRecord
  2
CENTER_DASH_DASH
 70
     0
  3
Center_Dash_Dash
 72
    65
 73
     6
 40
14.0
 49
9.0
 74
     0
 49
-1.0
 74
     0
 49
1.0
 74
     0
 49
-1.0
 74
     0
 49
1.0
 74
     0
 49
-1.0
 74
     0
  0
LTYPE
  5
46
330
5
100
AcDbSymbolTableRecord
100
AcDbLinetypeTableRecord
  2
CENTER
 70
     0
  3
CENTER
 72
    65
 73
     4
 40
6.0
 49
3.0
 74
     0
 49
-1.0
 74
     0
 49
1.0
 74
     0
 49
-1.0
 74
     0
  0
ENDTAB
  0
TABLE
  2
LAYER
  5
2
330
0
100
AcDbSymbolTable
 70
     5
  0
LAYER
  5
10
330
2
100
AcDbSymbolTableRecord
100
AcDbLayerTableRecord
  2
0
 70
     0
 62
     7
  6
Continuous
370
    -3
390
F
  0
LAYER
  5
47
330
2
100
AcDbSymbolTableRecord
100
AcDbLayerTableRecord
  2
1
 70
     0
 62
     7
  6
Continuous
370
    -3
390
F
  0
LAYER
  5
48
330
2
100
AcDbSymbolTableRecord
100
AcDbLayerTableRecord
  2
100
 70
     0
 62
     7
  6
Continuous
370
    -3
390
F
  0
LAYER
  5
49
330
2
100
AcDbSymbolTableRecord
100
AcDbLayerTableRecord
  2
2
 70
     0
 62
     7
  6
Continuous
370
    -3
390
F
  0
LAYER
  5
4A
330
2
100
AcDbSymbolTableRecord
100
AcDbLayerTableRecord
  2
3
 70
     0
 62
     7
  6
Continuous
370
    -3
390
F
  0
ENDTAB
  0
TABLE
  2
STYLE
  5
3
330
0
100
AcDbSymbolTable
 70
     1
  0
STYLE
  5
11
330
3
100
AcDbSymbolTableRecord
100
AcDbTextStyleTableRecord
  2
Standard
 70
     0
 40
0.0
 41
1.0
 50
0.0
 71
     0
 42
0.2
  3
txt
  4

  0
ENDTAB
  0
TABLE
  2
VIEW
  5
6
330
0
100
AcDbSymbolTable
 70
     0
  0
ENDTAB
  0
TABLE
  2
UCS
  5
7
330
0
100
AcDbSymbolTable
 70
     0
  0
ENDTAB
  0
TABLE
  2
APPID
  5
9
330
0
100
AcDbSymbolTable
 70
     1
  0
APPID
  5
12
330
9
100
AcDbSymbolTableRecord
100
AcDbRegAppTableRecord
  2
ACAD
 70
     0
  0
ENDTAB
  0
TABLE
  2
DIMSTYLE
  5
A
330
0
100
AcDbSymbolTable
 70
     1
100
AcDbDimStyleTable
  0
DIMSTYLE
105
27
330
A
100
AcDbSymbolTableRecord
100
AcDbDimStyleTableRecord
  2
Standard
 70
     0
340
11
  0
ENDTAB
  0
TABLE
  2
BLOCK_RECORD
  5
1
330
0
100
AcDbSymbolTable
 70
     1
  0
BLOCK_RECORD
  5
1F
330
1
100
AcDbSymbolTableRecord
100
AcDbBlockTableRecord
  2
*Model_Space
340
22
  0
BLOCK_RECORD
  5
1B
330
1
100
AcDbSymbolTableRecord
100
AcDbBlockTableRecord
  2
*Paper_Space
340
1E
  0
BLOCK_RECORD
  5
23
330
1
100
AcDbSymbolTableRecord
100
AcDbBlockTableRecord
  2
*Paper_Space0
340
26
  0
ENDTAB
  0
ENDSEC
  0
SECTION
  2
BLOCKS
  0
BLOCK
  5
20
330
1F
100
AcDbEntity
  8
0
100
AcDbBlockBegin
  2
*Model_Space
 70
     0
 10
0.0
 20
0.0
 30
0.0
  3
*Model_Space
  1

  0
ENDBLK
  5
21
330
1F
100
AcDbEntity
  8
0
100
AcDbBlockEnd
  0
BLOCK
  5
1C
330
1B
100
AcDbEntity
 67
     1
  8
0
100
AcDbBlockBegin
  2
*Paper_Space
 70
     0
 10
0.0
 20
0.0
 30
0.0
  3
*Paper_Space
  1

  0
ENDBLK
  5
1D
330
1B
100
AcDbEntity
 67
     1
  8
0
100
AcDbBlockEnd
  0
BLOCK
  5
24
330
23
100
AcDbEntity
  8
0
100
AcDbBlockBegin
  2
*Paper_Space0
 70
     0
 10
0.0
 20
0.0
 30
0.0
  3
*Paper_Space0
  1

  0
ENDBLK
  5
25
330
23
100
AcDbEntity
  8
0
100
AcDbBlockEnd
  0
ENDSEC
  0
SECTION
  2
ENTITIES
  0
LINE
  5
4B
330
1F
100
AcDbEntity
  8
1
  6
Continuous
 62
     3
100
AcDbLine
 10
0.92352941176471
 20
2.9
 30
0.0
 11
0.5
 21
3.5
 31
0.0
  0
LINE
  5
4C
330
1F
100
AcDbEntity
  8
1
  6
Continuous
 62
     3
100
AcDbLine
 10
1.77058823529412
 20
2.3
 30
0.0
 11
0.92352941176471
 21
2.9
 31
0.0
  0
LINE
  5
4D
330
1F
100
AcDbEntity
  8
1
  6
Continuous
 62
     3
100
AcDbLine
 10
2.82941176470588
 20
2.0
 30
0.0
 11
1.77058823529412
 21
2.3
 31
0.0
  0
LINE
  5
4E
330
1F
100
AcDbEntity
  8
1
  6
Continuous
 62
     3
100
AcDbLine
 10
4.1
 20
2.3
 30
0.0
 11
2.82941176470588
 21
2.0
 31
0.0
  0
LINE
  5
4F
330
1F
100
AcDbEntity
  8
1
  6
Continuous
 62
     3
100
AcDbLine
 10
4.73529411764706
 20
2.9
 30
0.0
 11
4.1
 21
2.3
 31
0.0
  0
LINE
  5
50
330
1F
100
AcDbEntity
  8
1
  6
Continuous
 62
     3
100
AcDbLine
 10
5.15882352941177
 20
4.4
 30
0.0
 11
4.73529411764706
 21
2.9
 31
0.0
  0
LINE
  5
51
330
1F
100
AcDbEntity
  8
1
  6
Continuous
 62
     3
100
AcDbLine
 10
4.73529411764706
 20
5.9
 30
0.0
 11
5.15882352941177
 21
4.4
 31
0.0
  0
LINE
  5
52
330
1F
100
AcDbEntity
  8
1
  6
Continuous
 62
     3
100
AcDbLine
 10
3.67647058823529
 20
6.8
 30
0.0
 11
4.73529411764706
 21
5.9
 31
0.0
  0
LINE
  5
53
330
1F
100
AcDbEntity
  8
1
  6
Continuous
 62
     3
100
AcDbLine
 10
2.61764705882353
 20
6.8
 30
0.0
 11
3.67647058823529
 21
6.8
 31
0.0
  0
LINE
  5
54
330
1F
100
AcDbEntity
  8
1
  6
Continuous
 62
     3
100
AcDbLine
 10
3.67647058823529
 20
6.8
 30
0.0
 11
2.61764705882353
 21
6.8
 31
0.0
  0
LINE
  5
55
330
1F
100
AcDbEntity
  8
1
  6
Continuous
 62
     3
100
AcDbLine
 10
4.52352941176471
 20
7.4
 30
0.0
 11
3.67647058823529
 21
6.8
 31
0.0
  0
LINE
  5
56
330
1F
100
AcDbEntity
  8
1
  6
Continuous
 62
     3
100
AcDbLine
 10
4.94705882352941
 20
8.6
 30
0.0
 11
4.52352941176471
 21
7.4
 31
0.0
  0
LINE
  5
57
330
1F
100
AcDbEntity
  8
1
  6
Continuous
 62
     3
100
AcDbLine
 10
4.73529411764706
 20
9.5
 30
0.0
 11
4.94705882352941
 21
8.6
 31
0.0
  0
LINE
  5
58
330
1F
100
AcDbEntity
  8
1
  6
Continuous
 62
     3
100
AcDbLine
 10
4.1
 20
10.7
 30
0.0
 11
4.73529411764706
 21
9.5
 31
0.0
  0
LINE
  5
59
330
1F
100
AcDbEntity
  8
1
  6
Continuous
 62
     3
100
AcDbLine
 10
2.82941176470588
 20
11.0
 30
0.0
 11
4.1
 21
10.7
 31
0.0
  0
LINE
  5
5A
330
1F
100
AcDbEntity
  8
1
  6
Continuous
 62
     3
100
AcDbLine
 10
1.55882352941176
 20
10.7
 30
0.0
 11
2.82941176470588
 21
11.0
 31
0.0
  0
LINE
  5
5B
330
1F
100
AcDbEntity
  8
1
  6
Continuous
 62
     3
100
AcDbLine
 10
0.71176470588235
 20
9.5
 30
0.0
 11
1.55882352941176
 21
10.7
 31
0.0
  0
LINE
  5
5C
330
1F
100
AcDbEntity
  8
1
  6
Continuous
 62
     4
100
AcDbLine
 10
73.23337240809428
 20
53.77061962321687
 30
0.0
 11
78.88043123162369
 21
53.77061962321687
 31
0.0
  0
LINE
  5
5D
330
1F
100
AcDbEntity
  8
1
  6
Continuous
 62
     4
100
AcDbLine
 10
77.46866652574134
 20
59.9039529565502
 30
0.0
 11
73.23337240809428
 21
53.77061962321687
 31
0.0
  0
LINE
  5
5E
330
1F
100
AcDbEntity
  8
1
  6
Continuous
 62
     4
100
AcDbLine
 10
77.46866652574134
 20
51.9039529565502
 30
0.0
 11
77.46866652574134
 21
59.9039529565502
 31
0.0
  0
LINE
  5
5F
330
1F
100
AcDbEntity
  8
1
  6
Continuous
 62
     4
100
AcDbLine
 10
70.8804312316237
 20
59.1039529565502
 30
0.0
 11
65.93925476103547
 21
53.23728628988354
 31
0.0
  0
LINE
  5
60
330
1F
100
AcDbEntity
  8
1
  6
Continuous
 62
     4
100
AcDbLine
 10
58.8804312316237
 20
52.7039529565502
 30
0.0
 11
58.40984299632959
 21
53.23728628988354
 31
0.0
  0
LINE
  5
61
330
1F
100
AcDbEntity
  8
1
  6
Continuous
 62
     4
100
AcDbLine
 10
59.82160770221194
 20
52.17061962321687
 30
0.0
 11
58.8804312316237
 21
52.7039529565502
 31
0.0
  0
LINE
  5
62
330
1F
100
AcDbEntity
  8
1
  6
Continuous
 62
     4
100
AcDbLine
 10
60.99807829044723
 20
51.9039529565502
 30
0.0
 11
59.82160770221194
 21
52.17061962321687
 31
0.0
  0
LINE
  5
63
330
1F
100
AcDbEntity
  8
1
  6
Continuous
 62
     4
100
AcDbLine
 10
62.40984299632959
 20
52.17061962321687
 30
0.0
 11
60.99807829044723
 21
51.9039529565502
 31
0.0
  0
LINE
  5
64
330
1F
100
AcDbEntity
  8
1
  6
Continuous
 62
     4
100
AcDbLine
 10
63.11572534927076
 20
52.7039529565502
 30
0.0
 11
62.40984299632959
 21
52.17061962321687
 31
0.0
  0
LINE
  5
65
330
1F
100
AcDbEntity
  8
1
  6
Continuous
 62
     4
100
AcDbLine
 10
63.58631358456488
 20
54.03728628988353
 30
0.0
 11
63.11572534927076
 21
52.7039529565502
 31
0.0
  0
LINE
  5
66
330
1F
100
AcDbEntity
  8
1
  6
Continuous
 62
     4
100
AcDbLine
 10
63.11572534927076
 20
55.37061962321687
 30
0.0
 11
63.58631358456488
 21
54.03728628988353
 31
0.0
  0
LINE
  5
67
330
1F
100
AcDbEntity
  8
1
  6
Continuous
 62
     4
100
AcDbLine
 10
61.93925476103547
 20
56.17061962321687
 30
0.0
 11
63.11572534927076
 21
55.37061962321687
 31
0.0
  0
LINE
  5
68
330
1F
100
AcDbEntity
  8
1
  6
Continuous
 62
     4
100
AcDbLine
 10
60.76278417280017
 20
56.17061962321687
 30
0.0
 11
61.93925476103547
 21
56.17061962321687
 31
0.0
  0
LINE
  5
69
330
1F
100
AcDbEntity
  8
1
  6
Continuous
 62
     4
100
AcDbLine
 10
61.93925476103547
 20
56.17061962321687
 30
0.0
 11
60.76278417280017
 21
56.17061962321687
 31
0.0
  0
LINE
  5
6A
330
1F
100
AcDbEntity
  8
1
  6
Continuous
 62
     4
100
AcDbLine
 10
62.8804312316237
 20
56.7039529565502
 30
0.0
 11
61.93925476103547
 21
56.17061962321687
 31
0.0
  0
LINE
  5
6B
330
1F
100
AcDbEntity
  8
1
  6
Continuous
 62
     4
100
AcDbLine
 10
63.35101946691782
 20
57.77061962321687
 30
0.0
 11
62.8804312316237
 21
56.7039529565502
 31
0.0
  0
LINE
  5
6C
330
1F
100
AcDbEntity
  8
1
  6
Continuous
 62
     4
100
AcDbLine
 10
63.11572534927076
 20
58.57061962321686
 30
0.0
 11
63.35101946691782
 21
57.77061962321687
 31
0.0
  0
LINE
  5
6D
330
1F
100
AcDbEntity
  8
1
  6
Continuous
 62
     4
100
AcDbLine
 10
62.40984299632959
 20
59.63728628988353
 30
0.0
 11
63.11572534927076
 21
58.57061962321686
 31
0.0
  0
LINE
  5
6E
330
1F
100
AcDbEntity
  8
1
  6
Continuous
 62
     4
100
AcDbLine
 10
60.99807829044723
 20
59.9039529565502
 30
0.0
 11
62.40984299632959
 21
59.63728628988353
 31
0.0
  0
LINE
  5
6F
330
1F
100
AcDbEntity
  8
1
  6
Continuous
 62
     4
100
AcDbLine
 10
59.58631358456488
 20
59.63728628988353
 30
0.0
 11
60.99807829044723
 21
59.9039529565502
 31
0.0
  0
LINE
  5
70
330
1F
100
AcDbEntity
  8
1
  6
Continuous
 62
     4
100
AcDbLine
 10
58.64513711397665
 20
58.57061962321686
 30
0.0
 11
59.58631358456488
 21
59.63728628988353
 31
0.0
  0
LINE
  5
71
330
1F
100
AcDbEntity
  8
1
  6
Continuous
 62
     4
100
AcDbLine
 10
56.056901819859
 20
55.63728628988353
 30
0.0
 11
53.93925476103547
 21
55.63728628988353
 31
0.0
  0
LINE
  5
72
330
1F
100
AcDbEntity
  8
1
  6
Continuous
 62
     4
100
AcDbLine
 10
56.056901819859
 20
54.03728628988353
 30
0.0
 11
56.056901819859
 21
55.63728628988353
 31
0.0
  0
LINE
  5
73
330
1F
100
AcDbEntity
  8
1
  6
Continuous
 62
     4
100
AcDbLine
 10
55.82160770221194
 20
53.23728628988354
 30
0.0
 11
56.056901819859
 21
54.03728628988353
 31
0.0
  0
LINE
  5
74
330
1F
100
AcDbEntity
  8
1
  6
Continuous
 62
     4
100
AcDbLine
 10
55.35101946691782
 20
52.7039529565502
 30
0.0
 11
55.82160770221194
 21
53.23728628988354
 31
0.0
  0
LINE
  5
75
330
1F
100
AcDbEntity
  8
1
  6
Continuous
 62
     4
100
AcDbLine
 10
54.64513711397665
 20
52.17061962321687
 30
0.0
 11
55.35101946691782
 21
52.7039529565502
 31
0.0
  0
LINE
  5
76
330
1F
100
AcDbEntity
  8
1
  6
Continuous
 62
     4
100
AcDbLine
 10
53.46866652574135
 20
51.9039529565502
 30
0.0
 11
54.64513711397665
 21
52.17061962321687
 31
0.0
  0
LINE
  5
77
330
1F
100
AcDbEntity
  8
1
  6
Continuous
 62
     4
100
AcDbLine
 10
52.29219593750606
 20
52.17061962321687
 30
0.0
 11
53.46866652574135
 21
51.9039529565502
 31
0.0
  0
LINE
  5
78
330
1F
100
AcDbEntity
  8
1
  6
Continuous
 62
     4
100
AcDbLine
 10
51.58631358456488
 20
53.23728628988354
 30
0.0
 11
52.29219593750606
 21
52.17061962321687
 31
0.0
  0
LINE
  5
79
330
1F
100
AcDbEntity
  8
1
  6
Continuous
 62
     4
100
AcDbLine
 10
51.35101946691782
 20
53.77061962321687
 30
0.0
 11
51.58631358456488
 21
53.23728628988354
 31
0.0
  0
LINE
  5
7A
330
1F
100
AcDbEntity
  8
1
  6
Continuous
 62
     4
100
AcDbLine
 10
51.11572534927076
 20
54.83728628988353
 30
0.0
 11
51.35101946691782
 21
53.77061962321687
 31
0.0
  0
LINE
  5
7B
330
1F
100
AcDbEntity
  8
1
  6
Continuous
 62
     4
100
AcDbLine
 10
50.8804312316237
 20
55.9039529565502
 30
0.0
 11
51.11572534927076
 21
54.83728628988353
 31
0.0
  0
LINE
  5
7C
330
1F
100
AcDbEntity
  8
1
  6
Continuous
 62
     4
100
AcDbLine
 10
51.11572534927076
 20
56.97061962321686
 30
0.0
 11
50.8804312316237
 21
55.9039529565502
 31
0.0
  0
LINE
  5
7D
330
1F
100
AcDbEntity
  8
1
  6
Continuous
 62
     4
100
AcDbLine
 10
51.58631358456488
 20
58.57061962321686
 30
0.0
 11
51.11572534927076
 21
56.97061962321686
 31
0.0
  0
LINE
  5
7E
330
1F
100
AcDbEntity
  8
1
  6
Continuous
 62
     4
100
AcDbLine
 10
51.82160770221194
 20
59.1039529565502
 30
0.0
 11
51.58631358456488
 21
58.57061962321686
 31
0.0
  0
LINE
  5
7F
330
1F
100
AcDbEntity
  8
1
  6
Continuous
 62
     4
100
AcDbLine
 10
52.52749005515312
 20
59.63728628988353
 30
0.0
 11
51.82160770221194
 21
59.1039529565502
 31
0.0
  0
LINE
  5
80
330
1F
100
AcDbEntity
  8
1
  6
Continuous
 62
     4
100
AcDbLine
 10
53.46866652574135
 20
59.9039529565502
 30
0.0
 11
52.52749005515312
 21
59.63728628988353
 31
0.0
  0
LINE
  5
81
330
1F
100
AcDbEntity
  8
1
  6
Continuous
 62
     4
100
AcDbLine
 10
54.64513711397665
 20
59.63728628988353
 30
0.0
 11
53.46866652574135
 21
59.9039529565502
 31
0.0
  0
LINE
  5
82
330
1F
100
AcDbEntity
  8
1
  6
Continuous
 62
     4
100
AcDbLine
 10
55.11572534927076
 20
59.37061962321687
 30
0.0
 11
54.64513711397665
 21
59.63728628988353
 31
0.0
  0
LINE
  5
83
330
1F
100
AcDbEntity
  8
1
  6
Continuous
 62
     4
100
AcDbLine
 10
55.58631358456488
 20
58.83728628988354
 30
0.0
 11
55.11572534927076
 21
59.37061962321687
 31
0.0
  0
LINE
  5
84
330
1F
100
AcDbEntity
  8
1
  6
Continuous
 62
     4
100
AcDbLine
 10
56.056901819859
 20
58.03728628988353
 30
0.0
 11
55.58631358456488
 21
58.83728628988354
 31
0.0
  0
LINE
  5
85
330
1F
100
AcDbEntity
  8
1
  6
Continuous
 62
     4
100
AcDbLine
 10
-54.64705882352941
 20
53.86666666666667
 30
0.0
 11
-49.0
 21
53.86666666666667
 31
0.0
  0
LINE
  5
86
330
1F
100
AcDbEntity
  8
1
  6
Continuous
 62
     4
100
AcDbLine
 10
-50.41176470588236
 20
60.0
 30
0.0
 11
-54.64705882352941
 21
53.86666666666667
 31
0.0
  0
LINE
  5
87
330
1F
100
AcDbEntity
  8
1
  6
Continuous
 62
     4
100
AcDbLine
 10
-50.41176470588236
 20
52.0
 30
0.0
 11
-50.41176470588236
 21
60.0
 31
0.0
  0
LINE
  5
88
330
1F
100
AcDbEntity
  8
1
  6
Continuous
 62
     4
100
AcDbLine
 10
-57.0
 20
59.2
 30
0.0
 11
-61.94117647058823
 21
53.33333333333334
 31
0.0
  0
LINE
  5
89
330
1F
100
AcDbEntity
  8
1
  6
Continuous
 62
     4
100
AcDbLine
 10
-69.0
 20
52.8
 30
0.0
 11
-69.47058823529412
 21
53.33333333333334
 31
0.0
  0
LINE
  5
8A
330
1F
100
AcDbEntity
  8
1
  6
Continuous
 62
     4
100
AcDbLine
 10
-68.05882352941177
 20
52.26666666666667
 30
0.0
 11
-69.0
 21
52.8
 31
0.0
  0
LINE
  5
8B
330
1F
100
AcDbEntity
  8
1
  6
Continuous
 62
     4
100
AcDbLine
 10
-66.88235294117646
 20
52.0
 30
0.0
 11
-68.05882352941177
 21
52.26666666666667
 31
0.0
  0
LINE
  5
8C
330
1F
100
AcDbEntity
  8
1
  6
Continuous
 62
     4
100
AcDbLine
 10
-65.47058823529412
 20
52.26666666666667
 30
0.0
 11
-66.88235294117646
 21
52.0
 31
0.0
  0
LINE
  5
8D
330
1F
100
AcDbEntity
  8
1
  6
Continuous
 62
     4
100
AcDbLine
 10
-64.76470588235294
 20
52.8
 30
0.0
 11
-65.47058823529412
 21
52.26666666666667
 31
0.0
  0
LINE
  5
8E
330
1F
100
AcDbEntity
  8
1
  6
Continuous
 62
     4
100
AcDbLine
 10
-64.29411764705883
 20
54.13333333333333
 30
0.0
 11
-64.76470588235294
 21
52.8
 31
0.0
  0
LINE
  5
8F
330
1F
100
AcDbEntity
  8
1
  6
Continuous
 62
     4
100
AcDbLine
 10
-64.76470588235294
 20
55.46666666666667
 30
0.0
 11
-64.29411764705883
 21
54.13333333333333
 31
0.0
  0
LINE
  5
90
330
1F
100
AcDbEntity
  8
1
  6
Continuous
 62
     4
100
AcDbLine
 10
-65.94117647058823
 20
56.26666666666667
 30
0.0
 11
-64.76470588235294
 21
55.46666666666667
 31
0.0
  0
LINE
  5
91
330
1F
100
AcDbEntity
  8
1
  6
Continuous
 62
     4
100
AcDbLine
 10
-67.11764705882352
 20
56.26666666666667
 30
0.0
 11
-65.94117647058823
 21
56.26666666666667
 31
0.0
  0
LINE
  5
92
330
1F
100
AcDbEntity
  8
1
  6
Continuous
 62
     4
100
AcDbLine
 10
-65.94117647058823
 20
56.26666666666667
 30
0.0
 11
-67.11764705882352
 21
56.26666666666667
 31
0.0
  0
LINE
  5
93
330
1F
100
AcDbEntity
  8
1
  6
Continuous
 62
     4
100
AcDbLine
 10
-65.0
 20
56.8
 30
0.0
 11
-65.94117647058823
 21
56.26666666666667
 31
0.0
  0
LINE
  5
94
330
1F
100
AcDbEntity
  8
1
  6
Continuous
 62
     4
100
AcDbLine
 10
-64.52941176470588
 20
57.86666666666667
 30
0.0
 11
-65.0
 21
56.8
 31
0.0
  0
LINE
  5
95
330
1F
100
AcDbEntity
  8
1
  6
Continuous
 62
     4
100
AcDbLine
 10
-64.76470588235294
 20
58.66666666666666
 30
0.0
 11
-64.52941176470588
 21
57.86666666666667
 31
0.0
  0
LINE
  5
96
330
1F
100
AcDbEntity
  8
1
  6
Continuous
 62
     4
100
AcDbLine
 10
-65.47058823529412
 20
59.73333333333333
 30
0.0
 11
-64.76470588235294
 21
58.66666666666666
 31
0.0
  0
LINE
  5
97
330
1F
100
AcDbEntity
  8
1
  6
Continuous
 62
     4
100
AcDbLine
 10
-66.88235294117646
 20
60.0
 30
0.0
 11
-65.47058823529412
 21
59.73333333333333
 31
0.0
  0
LINE
  5
98
330
1F
100
AcDbEntity
  8
1
  6
Continuous
 62
     4
100
AcDbLine
 10
-68.29411764705883
 20
59.73333333333333
 30
0.0
 11
-66.88235294117646
 21
60.0
 31
0.0
  0
LINE
  5
99
330
1F
100
AcDbEntity
  8
1
  6
Continuous
 62
     4
100
AcDbLine
 10
-69.23529411764706
 20
58.66666666666666
 30
0.0
 11
-68.29411764705883
 21
59.73333333333333
 31
0.0
  0
LINE
  5
9A
330
1F
100
AcDbEntity
  8
1
  6
Continuous
 62
     4
100
AcDbLine
 10
-71.82352941176471
 20
55.73333333333333
 30
0.0
 11
-73.94117647058823
 21
55.73333333333333
 31
0.0
  0
LINE
  5
9B
330
1F
100
AcDbEntity
  8
1
  6
Continuous
 62
     4
100
AcDbLine
 10
-71.82352941176471
 20
54.13333333333333
 30
0.0
 11
-71.82352941176471
 21
55.73333333333333
 31
0.0
  0
LINE
  5
9C
330
1F
100
AcDbEntity
  8
1
  6
Continuous
 62
     4
100
AcDbLine
 10
-72.05882352941177
 20
53.33333333333334
 30
0.0
 11
-71.82352941176471
 21
54.13333333333333
 31
0.0
  0
LINE
  5
9D
330
1F
100
AcDbEntity
  8
1
  6
Continuous
 62
     4
100
AcDbLine
 10
-72.52941176470588
 20
52.8
 30
0.0
 11
-72.05882352941177
 21
53.33333333333334
 31
0.0
  0
LINE
  5
9E
330
1F
100
AcDbEntity
  8
1
  6
Continuous
 62
     4
100
AcDbLine
 10
-73.23529411764706
 20
52.26666666666667
 30
0.0
 11
-72.52941176470588
 21
52.8
 31
0.0
  0
LINE
  5
9F
330
1F
100
AcDbEntity
  8
1
  6
Continuous
 62
     4
100
AcDbLine
 10
-74.41176470588235
 20
52.0
 30
0.0
 11
-73.23529411764706
 21
52.26666666666667
 31
0.0
  0
LINE
  5
A0
330
1F
100
AcDbEntity
  8
1
  6
Continuous
 62
     4
100
AcDbLine
 10
-75.58823529411765
 20
52.26666666666667
 30
0.0
 11
-74.41176470588235
 21
52.0
 31
0.0
  0
LINE
  5
A1
330
1F
100
AcDbEntity
  8
1
  6
Continuous
 62
     4
100
AcDbLine
 10
-76.29411764705883
 20
53.33333333333334
 30
0.0
 11
-75.58823529411765
 21
52.26666666666667
 31
0.0
  0
LINE
  5
A2
330
1F
100
AcDbEntity
  8
1
  6
Continuous
 62
     4
100
AcDbLine
 10
-76.52941176470588
 20
53.86666666666667
 30
0.0
 11
-76.29411764705883
 21
53.33333333333334
 31
0.0
  0
LINE
  5
A3
330
1F
100
AcDbEntity
  8
1
  6
Continuous
 62
     4
100
AcDbLine
 10
-76.76470588235294
 20
54.93333333333333
 30
0.0
 11
-76.52941176470588
 21
53.86666666666667
 31
0.0
  0
LINE
  5
A4
330
1F
100
AcDbEntity
  8
1
  6
Continuous
 62
     4
100
AcDbLine
 10
-77.0
 20
56.0
 30
0.0
 11
-76.76470588235294
 21
54.93333333333333
 31
0.0
  0
LINE
  5
A5
330
1F
100
AcDbEntity
  8
1
  6
Continuous
 62
     4
100
AcDbLine
 10
-76.76470588235294
 20
57.06666666666666
 30
0.0
 11
-77.0
 21
56.0
 31
0.0
  0
LINE
  5
A6
330
1F
100
AcDbEntity
  8
1
  6
Continuous
 62
     4
100
AcDbLine
 10
-76.29411764705883
 20
58.66666666666666
 30
0.0
 11
-76.76470588235294
 21
57.06666666666666
 31
0.0
  0
LINE
  5
A7
330
1F
100
AcDbEntity
  8
1
  6
Continuous
 62
     4
100
AcDbLine
 10
-76.05882352941177
 20
59.2
 30
0.0
 11
-76.29411764705883
 21
58.66666666666666
 31
0.0
  0
LINE
  5
A8
330
1F
100
AcDbEntity
  8
1
  6
Continuous
 62
     4
100
AcDbLine
 10
-75.3529411764706
 20
59.73333333333333
 30
0.0
 11
-76.05882352941177
 21
59.2
 31
0.0
  0
LINE
  5
A9
330
1F
100
AcDbEntity
  8
1
  6
Continuous
 62
     4
100
AcDbLine
 10
-74.41176470588235
 20
60.0
 30
0.0
 11
-75.3529411764706
 21
59.73333333333333
 31
0.0
  0
LINE
  5
AA
330
1F
100
AcDbEntity
  8
1
  6
Continuous
 62
     4
100
AcDbLine
 10
-73.23529411764706
 20
59.73333333333333
 30
0.0
 11
-74.41176470588235
 21
60.0
 31
0.0
  0
LINE
  5
AB
330
1F
100
AcDbEntity
  8
1
  6
Continuous
 62
     4
100
AcDbLine
 10
-72.76470588235294
 20
59.46666666666667
 30
0.0
 11
-73.23529411764706
 21
59.73333333333333
 31
0.0
  0
LINE
  5
AC
330
1F
100
AcDbEntity
  8
1
  6
Continuous
 62
     4
100
AcDbLine
 10
-72.29411764705883
 20
58.93333333333334
 30
0.0
 11
-72.76470588235294
 21
59.46666666666667
 31
0.0
  0
LINE
  5
AD
330
1F
100
AcDbEntity
  8
1
  6
Continuous
 62
     4
100
AcDbLine
 10
-71.82352941176471
 20
58.13333333333333
 30
0.0
 11
-72.29411764705883
 21
58.93333333333334
 31
0.0
  0
LINE
  5
AE
330
1F
100
AcDbEntity
  8
1
  6
Continuous
 62
     4
100
AcDbLine
 10
205.9411764705882
 20
246.3333333333333
 30
0.0
 11
204.1764705882353
 21
247.0
 31
0.0
  0
LINE
  5
AF
330
1F
100
AcDbEntity
  8
1
  6
Continuous
 62
     4
100
AcDbLine
 10
207.1176470588235
 20
244.6666666666667
 30
0.0
 11
205.9411764705882
 21
246.3333333333333
 31
0.0
  0
LINE
  5
B0
330
1F
100
AcDbEntity
  8
1
  6
Continuous
 62
     4
100
AcDbLine
 10
207.4117647058824
 20
242.0
 30
0.0
 11
207.1176470588235
 21
244.6666666666667
 31
0.0
  0
LINE
  5
B1
330
1F
100
AcDbEntity
  8
1
  6
Continuous
 62
     4
100
AcDbLine
 10
207.1176470588235
 20
239.3333333333333
 30
0.0
 11
207.4117647058824
 21
242.0
 31
0.0
  0
LINE
  5
B2
330
1F
100
AcDbEntity
  8
1
  6
Continuous
 62
     4
100
AcDbLine
 10
205.9411764705882
 20
237.6666666666667
 30
0.0
 11
207.1176470588235
 21
239.3333333333333
 31
0.0
  0
LINE
  5
B3
330
1F
100
AcDbEntity
  8
1
  6
Continuous
 62
     4
100
AcDbLine
 10
204.1764705882353
 20
237.0
 30
0.0
 11
205.9411764705882
 21
237.6666666666667
 31
0.0
  0
LINE
  5
B4
330
1F
100
AcDbEntity
  8
1
  6
Continuous
 62
     4
100
AcDbLine
 10
202.4117647058824
 20
237.6666666666667
 30
0.0
 11
204.1764705882353
 21
237.0
 31
0.0
  0
LINE
  5
B5
330
1F
100
AcDbEntity
  8
1
  6
Continuous
 62
     4
100
AcDbLine
 10
201.5294117647059
 20
239.3333333333333
 30
0.0
 11
202.4117647058824
 21
237.6666666666667
 31
0.0
  0
LINE
  5
B6
330
1F
100
AcDbEntity
  8
1
  6
Continuous
 62
     4
100
AcDbLine
 10
200.9411764705882
 20
242.0
 30
0.0
 11
201.5294117647059
 21
239.3333333333333
 31
0.0
  0
LINE
  5
B7
330
1F
100
AcDbEntity
  8
1
  6
Continuous
 62
     4
100
AcDbLine
 10
201.5294117647059
 20
244.6666666666667
 30
0.0
 11
200.9411764705882
 21
242.0
 31
0.0
  0
LINE
  5
B8
330
1F
100
AcDbEntity
  8
1
  6
Continuous
 62
     4
100
AcDbLine
 10
202.4117647058824
 20
246.3333333333333
 30
0.0
 11
201.5294117647059
 21
244.6666666666667
 31
0.0
  0
LINE
  5
B9
330
1F
100
AcDbEntity
  8
1
  6
Continuous
 62
     4
100
AcDbLine
 10
204.1764705882353
 20
247.0
 30
0.0
 11
202.4117647058824
 21
246.3333333333333
 31
0.0
  0
LINE
  5
BA
330
1F
100
AcDbEntity
  8
1
  6
Continuous
 62
     4
100
AcDbLine
 10
192.7058823529412
 20
242.0
 30
0.0
 11
198.0
 21
242.0
 31
0.0
  0
LINE
  5
BB
330
1F
100
AcDbEntity
  8
1
  6
Continuous
 62
     4
100
AcDbLine
 10
189.7647058823529
 20
247.0
 30
0.0
 11
189.7647058823529
 21
237.0
 31
0.0
  0
LINE
  5
BC
330
1F
100
AcDbEntity
  8
1
  6
Continuous
 62
     4
100
AcDbLine
 10
188.2941176470588
 20
246.0
 30
0.0
 11
189.7647058823529
 21
247.0
 31
0.0
  0
LINE
  5
BD
330
1F
100
AcDbEntity
  8
1
  6
Continuous
 62
     4
100
AcDbLine
 10
183.8823529411765
 20
246.3333333333333
 30
0.0
 11
182.1176470588235
 21
247.0
 31
0.0
  0
LINE
  5
BE
330
1F
100
AcDbEntity
  8
1
  6
Continuous
 62
     4
100
AcDbLine
 10
185.0588235294118
 20
244.6666666666667
 30
0.0
 11
183.8823529411765
 21
246.3333333333333
 31
0.0
  0
LINE
  5
BF
330
1F
100
AcDbEntity
  8
1
  6
Continuous
 62
     4
100
AcDbLine
 10
185.3529411764706
 20
242.0
 30
0.0
 11
185.0588235294118
 21
244.6666666666667
 31
0.0
  0
LINE
  5
C0
330
1F
100
AcDbEntity
  8
1
  6
Continuous
 62
     4
100
AcDbLine
 10
185.0588235294118
 20
239.3333333333333
 30
0.0
 11
185.3529411764706
 21
242.0
 31
0.0
  0
LINE
  5
C1
330
1F
100
AcDbEntity
  8
1
  6
Continuous
 62
     4
100
AcDbLine
 10
183.8823529411765
 20
237.6666666666667
 30
0.0
 11
185.0588235294118
 21
239.3333333333333
 31
0.0
  0
LINE
  5
C2
330
1F
100
AcDbEntity
  8
1
  6
Continuous
 62
     4
100
AcDbLine
 10
182.1176470588235
 20
237.0
 30
0.0
 11
183.8823529411765
 21
237.6666666666667
 31
0.0
  0
LINE
  5
C3
330
1F
100
AcDbEntity
  8
1
  6
Continuous
 62
     4
100
AcDbLine
 10
180.3529411764706
 20
237.6666666666667
 30
0.0
 11
182.1176470588235
 21
237.0
 31
0.0
  0
LINE
  5
C4
330
1F
100
AcDbEntity
  8
1
  6
Continuous
 62
     4
100
AcDbLine
 10
179.4705882352941
 20
239.3333333333333
 30
0.0
 11
180.3529411764706
 21
237.6666666666667
 31
0.0
  0
LINE
  5
C5
330
1F
100
AcDbEntity
  8
1
  6
Continuous
 62
     4
100
AcDbLine
 10
178.8823529411765
 20
242.0
 30
0.0
 11
179.4705882352941
 21
239.3333333333333
 31
0.0
  0
LINE
  5
C6
330
1F
100
AcDbEntity
  8
1
  6
Continuous
 62
     4
100
AcDbLine
 10
179.4705882352941
 20
244.6666666666667
 30
0.0
 11
178.8823529411765
 21
242.0
 31
0.0
  0
LINE
  5
C7
330
1F
100
AcDbEntity
  8
1
  6
Continuous
 62
     4
100
AcDbLine
 10
180.3529411764706
 20
246.3333333333333
 30
0.0
 11
179.4705882352941
 21
244.6666666666667
 31
0.0
  0
LINE
  5
C8
330
1F
100
AcDbEntity
  8
1
  6
Continuous
 62
     4
100
AcDbLine
 10
182.1176470588235
 20
247.0
 30
0.0
 11
180.3529411764706
 21
246.3333333333333
 31
0.0
  0
LINE
  5
C9
330
1F
100
AcDbEntity
  8
1
  6
Continuous
 62
     4
100
AcDbLine
 10
170.3529411764706
 20
242.0
 30
0.0
 11
170.3529411764706
 21
237.0
 31
0.0
  0
LINE
  5
CA
330
1F
100
AcDbEntity
  8
1
  6
Continuous
 62
     4
100
AcDbLine
 10
170.3529411764706
 20
242.0
 30
0.0
 11
175.3529411764706
 21
242.0
 31
0.0
  0
LINE
  5
CB
330
1F
100
AcDbEntity
  8
1
  6
Continuous
 62
     4
100
AcDbLine
 10
170.3529411764706
 20
247.0
 30
0.0
 11
170.3529411764706
 21
242.0
 31
0.0
  0
LINE
  5
CC
330
1F
100
AcDbEntity
  8
1
  6
Continuous
 62
     4
100
AcDbLine
 10
175.9411764705882
 20
247.0
 30
0.0
 11
170.3529411764706
 21
247.0
 31
0.0
  0
LINE
  5
CD
330
1F
100
AcDbEntity
  8
1
  6
Continuous
 62
     4
100
AcDbLine
 10
164.1764705882353
 20
237.0
 30
0.0
 11
167.4117647058824
 21
247.0
 31
0.0
  0
LINE
  5
CE
330
1F
100
AcDbEntity
  8
1
  6
Continuous
 62
     4
100
AcDbLine
 10
160.9411764705882
 20
247.0
 30
0.0
 11
164.1764705882353
 21
237.0
 31
0.0
  0
LINE
  5
CF
330
1F
100
AcDbEntity
  8
1
  6
Continuous
 62
     4
100
AcDbLine
 10
153.2941176470588
 20
237.6666666666667
 30
0.0
 11
152.4117647058824
 21
238.6666666666667
 31
0.0
  0
LINE
  5
D0
330
1F
100
AcDbEntity
  8
1
  6
Continuous
 62
     4
100
AcDbLine
 10
155.3529411764706
 20
237.0
 30
0.0
 11
153.2941176470588
 21
237.6666666666667
 31
0.0
  0
LINE
  5
D1
330
1F
100
AcDbEntity
  8
1
  6
Continuous
 62
     4
100
AcDbLine
 10
156.8235294117647
 20
237.6666666666667
 30
0.0
 11
155.3529411764706
 21
237.0
 31
0.0
  0
LINE
  5
D2
330
1F
100
AcDbEntity
  8
1
  6
Continuous
 62
     4
100
AcDbLine
 10
157.7058823529412
 20
238.6666666666667
 30
0.0
 11
156.8235294117647
 21
237.6666666666667
 31
0.0
  0
LINE
  5
D3
330
1F
100
AcDbEntity
  8
1
  6
Continuous
 62
     4
100
AcDbLine
 10
158.0
 20
240.0
 30
0.0
 11
157.7058823529412
 21
238.6666666666667
 31
0.0
  0
LINE
  5
D4
330
1F
100
AcDbEntity
  8
1
  6
Continuous
 62
     4
100
AcDbLine
 10
158.0
 20
244.0
 30
0.0
 11
158.0
 21
240.0
 31
0.0
  0
LINE
  5
D5
330
1F
100
AcDbEntity
  8
1
  6
Continuous
 62
     4
100
AcDbLine
 10
157.4117647058824
 20
242.0
 30
0.0
 11
158.0
 21
244.0
 31
0.0
  0
LINE
  5
D6
330
1F
100
AcDbEntity
  8
1
  6
Continuous
 62
     4
100
AcDbLine
 10
156.5294117647059
 20
241.0
 30
0.0
 11
157.4117647058824
 21
242.0
 31
0.0
  0
LINE
  5
D7
330
1F
100
AcDbEntity
  8
1
  6
Continuous
 62
     4
100
AcDbLine
 10
155.3529411764706
 20
240.6666666666667
 30
0.0
 11
156.5294117647059
 21
241.0
 31
0.0
  0
LINE
  5
D8
330
1F
100
AcDbEntity
  8
1
  6
Continuous
 62
     4
100
AcDbLine
 10
154.1764705882353
 20
241.0
 30
0.0
 11
155.3529411764706
 21
240.6666666666667
 31
0.0
  0
LINE
  5
D9
330
1F
100
AcDbEntity
  8
1
  6
Continuous
 62
     4
100
AcDbLine
 10
153.0
 20
242.0
 30
0.0
 11
154.1764705882353
 21
241.0
 31
0.0
  0
LINE
  5
DA
330
1F
100
AcDbEntity
  8
1
  6
Continuous
 62
     4
100
AcDbLine
 10
152.7058823529412
 20
242.6666666666667
 30
0.0
 11
153.0
 21
242.0
 31
0.0
  0
LINE
  5
DB
330
1F
100
AcDbEntity
  8
1
  6
Continuous
 62
     4
100
AcDbLine
 10
152.4117647058824
 20
244.0
 30
0.0
 11
152.7058823529412
 21
242.6666666666667
 31
0.0
  0
LINE
  5
DC
330
1F
100
AcDbEntity
  8
1
  6
Continuous
 62
     4
100
AcDbLine
 10
153.0
 20
245.6666666666667
 30
0.0
 11
152.4117647058824
 21
244.0
 31
0.0
  0
LINE
  5
DD
330
1F
100
AcDbEntity
  8
1
  6
Continuous
 62
     4
100
AcDbLine
 10
153.8823529411765
 20
246.6666666666667
 30
0.0
 11
153.0
 21
245.6666666666667
 31
0.0
  0
LINE
  5
DE
330
1F
100
AcDbEntity
  8
1
  6
Continuous
 62
     4
100
AcDbLine
 10
155.3529411764706
 20
247.0
 30
0.0
 11
153.8823529411765
 21
246.6666666666667
 31
0.0
  0
LINE
  5
DF
330
1F
100
AcDbEntity
  8
1
  6
Continuous
 62
     4
100
AcDbLine
 10
156.8235294117647
 20
246.6666666666667
 30
0.0
 11
155.3529411764706
 21
247.0
 31
0.0
  0
LINE
  5
E0
330
1F
100
AcDbEntity
  8
1
  6
Continuous
 62
     4
100
AcDbLine
 10
157.7058823529412
 20
245.6666666666667
 30
0.0
 11
156.8235294117647
 21
246.6666666666667
 31
0.0
  0
LINE
  5
E1
330
1F
100
AcDbEntity
  8
1
  6
Continuous
 62
     4
100
AcDbLine
 10
158.0
 20
244.0
 30
0.0
 11
157.7058823529412
 21
245.6666666666667
 31
0.0
  0
LINE
  5
E2
330
1F
100
AcDbEntity
  8
1
  6
Continuous
 62
     4
100
AcDbLine
 10
144.7647058823529
 20
237.6666666666667
 30
0.0
 11
143.8823529411765
 21
238.6666666666667
 31
0.0
  0
LINE
  5
E3
330
1F
100
AcDbEntity
  8
1
  6
Continuous
 62
     4
100
AcDbLine
 10
146.8235294117647
 20
237.0
 30
0.0
 11
144.7647058823529
 21
237.6666666666667
 31
0.0
  0
LINE
  5
E4
330
1F
100
AcDbEntity
  8
1
  6
Continuous
 62
     4
100
AcDbLine
 10
148.2941176470588
 20
237.6666666666667
 30
0.0
 11
146.8235294117647
 21
237.0
 31
0.0
  0
LINE
  5
E5
330
1F
100
AcDbEntity
  8
1
  6
Continuous
 62
     4
100
AcDbLine
 10
149.1764705882353
 20
238.6666666666667
 30
0.0
 11
148.2941176470588
 21
237.6666666666667
 31
0.0
  0
LINE
  5
E6
330
1F
100
AcDbEntity
  8
1
  6
Continuous
 62
     4
100
AcDbLine
 10
149.4705882352941
 20
240.0
 30
0.0
 11
149.1764705882353
 21
238.6666666666667
 31
0.0
  0
LINE
  5
E7
330
1F
100
AcDbEntity
  8
1
  6
Continuous
 62
     4
100
AcDbLine
 10
149.4705882352941
 20
244.0
 30
0.0
 11
149.4705882352941
 21
240.0
 31
0.0
  0
LINE
  5
E8
330
1F
100
AcDbEntity
  8
1
  6
Continuous
 62
     4
100
AcDbLine
 10
148.8823529411765
 20
242.0
 30
0.0
 11
149.4705882352941
 21
244.0
 31
0.0
  0
LINE
  5
E9
330
1F
100
AcDbEntity
  8
1
  6
Continuous
 62
     4
100
AcDbLine
 10
148.0
 20
241.0
 30
0.0
 11
148.8823529411765
 21
242.0
 31
0.0
  0
LINE
  5
EA
330
1F
100
AcDbEntity
  8
1
  6
Continuous
 62
     4
100
AcDbLine
 10
146.8235294117647
 20
240.6666666666667
 30
0.0
 11
148.0
 21
241.0
 31
0.0
  0
LINE
  5
EB
330
1F
100
AcDbEntity
  8
1
  6
Continuous
 62
     4
100
AcDbLine
 10
145.6470588235294
 20
241.0
 30
0.0
 11
146.8235294117647
 21
240.6666666666667
 31
0.0
  0
LINE
  5
EC
330
1F
100
AcDbEntity
  8
1
  6
Continuous
 62
     4
100
AcDbLine
 10
144.4705882352941
 20
242.0
 30
0.0
 11
145.6470588235294
 21
241.0
 31
0.0
  0
LINE
  5
ED
330
1F
100
AcDbEntity
  8
1
  6
Continuous
 62
     4
100
AcDbLine
 10
144.1764705882353
 20
242.6666666666667
 30
0.0
 11
144.4705882352941
 21
242.0
 31
0.0
  0
LINE
  5
EE
330
1F
100
AcDbEntity
  8
1
  6
Continuous
 62
     4
100
AcDbLine
 10
143.8823529411765
 20
244.0
 30
0.0
 11
144.1764705882353
 21
242.6666666666667
 31
0.0
  0
LINE
  5
EF
330
1F
100
AcDbEntity
  8
1
  6
Continuous
 62
     4
100
AcDbLine
 10
144.4705882352941
 20
245.6666666666667
 30
0.0
 11
143.8823529411765
 21
244.0
 31
0.0
  0
LINE
  5
F0
330
1F
100
AcDbEntity
  8
1
  6
Continuous
 62
     4
100
AcDbLine
 10
145.3529411764706
 20
246.6666666666667
 30
0.0
 11
144.4705882352941
 21
245.6666666666667
 31
0.0
  0
LINE
  5
F1
330
1F
100
AcDbEntity
  8
1
  6
Continuous
 62
     4
100
AcDbLine
 10
146.8235294117647
 20
247.0
 30
0.0
 11
145.3529411764706
 21
246.6666666666667
 31
0.0
  0
LINE
  5
F2
330
1F
100
AcDbEntity
  8
1
  6
Continuous
 62
     4
100
AcDbLine
 10
148.2941176470588
 20
246.6666666666667
 30
0.0
 11
146.8235294117647
 21
247.0
 31
0.0
  0
LINE
  5
F3
330
1F
100
AcDbEntity
  8
1
  6
Continuous
 62
     4
100
AcDbLine
 10
149.1764705882353
 20
245.6666666666667
 30
0.0
 11
148.2941176470588
 21
246.6666666666667
 31
0.0
  0
LINE
  5
F4
330
1F
100
AcDbEntity
  8
1
  6
Continuous
 62
     4
100
AcDbLine
 10
149.4705882352941
 20
244.0
 30
0.0
 11
149.1764705882353
 21
245.6666666666667
 31
0.0
  0
LINE
  5
F5
330
1F
100
AcDbEntity
  8
1
  6
Continuous
 62
     4
100
AcDbLine
 10
139.4705882352941
 20
246.3333333333333
 30
0.0
 11
137.7058823529412
 21
247.0
 31
0.0
  0
LINE
  5
F6
330
1F
100
AcDbEntity
  8
1
  6
Continuous
 62
     4
100
AcDbLine
 10
140.6470588235294
 20
244.6666666666667
 30
0.0
 11
139.4705882352941
 21
246.3333333333333
 31
0.0
  0
LINE
  5
F7
330
1F
100
AcDbEntity
  8
1
  6
Continuous
 62
     4
100
AcDbLine
 10
140.9411764705882
 20
242.0
 30
0.0
 11
140.6470588235294
 21
244.6666666666667
 31
0.0
  0
LINE
  5
F8
330
1F
100
AcDbEntity
  8
1
  6
Continuous
 62
     4
100
AcDbLine
 10
140.6470588235294
 20
239.3333333333333
 30
0.0
 11
140.9411764705882
 21
242.0
 31
0.0
  0
LINE
  5
F9
330
1F
100
AcDbEntity
  8
1
  6
Continuous
 62
     4
100
AcDbLine
 10
139.4705882352941
 20
237.6666666666667
 30
0.0
 11
140.6470588235294
 21
239.3333333333333
 31
0.0
  0
LINE
  5
FA
330
1F
100
AcDbEntity
  8
1
  6
Continuous
 62
     4
100
AcDbLine
 10
137.7058823529412
 20
237.0
 30
0.0
 11
139.4705882352941
 21
237.6666666666667
 31
0.0
  0
LINE
  5
FB
330
1F
100
AcDbEntity
  8
1
  6
Continuous
 62
     4
100
AcDbLine
 10
135.9411764705882
 20
237.6666666666667
 30
0.0
 11
137.7058823529412
 21
237.0
 31
0.0
  0
LINE
  5
FC
330
1F
100
AcDbEntity
  8
1
  6
Continuous
 62
     4
100
AcDbLine
 10
135.0588235294118
 20
239.3333333333333
 30
0.0
 11
135.9411764705882
 21
237.6666666666667
 31
0.0
  0
LINE
  5
FD
330
1F
100
AcDbEntity
  8
1
  6
Continuous
 62
     4
100
AcDbLine
 10
134.4705882352941
 20
242.0
 30
0.0
 11
135.0588235294118
 21
239.3333333333333
 31
0.0
  0
LINE
  5
FE
330
1F
100
AcDbEntity
  8
1
  6
Continuous
 62
     4
100
AcDbLine
 10
135.0588235294118
 20
244.6666666666667
 30
0.0
 11
134.4705882352941
 21
242.0
 31
0.0
  0
LINE
  5
FF
330
1F
100
AcDbEntity
  8
1
  6
Continuous
 62
     4
100
AcDbLine
 10
135.9411764705882
 20
246.3333333333333
 30
0.0
 11
135.0588235294118
 21
244.6666666666667
 31
0.0
  0
LINE
  5
100
330
1F
100
AcDbEntity
  8
1
  6
Continuous
 62
     4
100
AcDbLine
 10
137.7058823529412
 20
247.0
 30
0.0
 11
135.9411764705882
 21
246.3333333333333
 31
0.0
  0
LINE
  5
101
330
1F
100
AcDbEntity
  8
1
  6
Continuous
 62
     4
100
AcDbLine
 10
130.0588235294118
 20
246.3333333333333
 30
0.0
 11
128.2941176470588
 21
247.0
 31
0.0
  0
LINE
  5
102
330
1F
100
AcDbEntity
  8
1
  6
Continuous
 62
     4
100
AcDbLine
 10
131.2352941176471
 20
244.6666666666667
 30
0.0
 11
130.0588235294118
 21
246.3333333333333
 31
0.0
  0
LINE
  5
103
330
1F
100
AcDbEntity
  8
1
  6
Continuous
 62
     4
100
AcDbLine
 10
131.5294117647059
 20
242.0
 30
0.0
 11
131.2352941176471
 21
244.6666666666667
 31
0.0
  0
LINE
  5
104
330
1F
100
AcDbEntity
  8
1
  6
Continuous
 62
     4
100
AcDbLine
 10
131.2352941176471
 20
239.3333333333333
 30
0.0
 11
131.5294117647059
 21
242.0
 31
0.0
  0
LINE
  5
105
330
1F
100
AcDbEntity
  8
1
  6
Continuous
 62
     4
100
AcDbLine
 10
130.0588235294118
 20
237.6666666666667
 30
0.0
 11
131.2352941176471
 21
239.3333333333333
 31
0.0
  0
LINE
  5
106
330
1F
100
AcDbEntity
  8
1
  6
Continuous
 62
     4
100
AcDbLine
 10
128.2941176470588
 20
237.0
 30
0.0
 11
130.0588235294118
 21
237.6666666666667
 31
0.0
  0
LINE
  5
107
330
1F
100
AcDbEntity
  8
1
  6
Continuous
 62
     4
100
AcDbLine
 10
126.5294117647059
 20
237.6666666666667
 30
0.0
 11
128.2941176470588
 21
237.0
 31
0.0
  0
LINE
  5
108
330
1F
100
AcDbEntity
  8
1
  6
Continuous
 62
     4
100
AcDbLine
 10
125.6470588235294
 20
239.3333333333333
 30
0.0
 11
126.5294117647059
 21
237.6666666666667
 31
0.0
  0
LINE
  5
109
330
1F
100
AcDbEntity
  8
1
  6
Continuous
 62
     4
100
AcDbLine
 10
125.0588235294118
 20
242.0
 30
0.0
 11
125.6470588235294
 21
239.3333333333333
 31
0.0
  0
LINE
  5
10A
330
1F
100
AcDbEntity
  8
1
  6
Continuous
 62
     4
100
AcDbLine
 10
125.6470588235294
 20
244.6666666666667
 30
0.0
 11
125.0588235294118
 21
242.0
 31
0.0
  0
LINE
  5
10B
330
1F
100
AcDbEntity
  8
1
  6
Continuous
 62
     4
100
AcDbLine
 10
126.5294117647059
 20
246.3333333333333
 30
0.0
 11
125.6470588235294
 21
244.6666666666667
 31
0.0
  0
LINE
  5
10C
330
1F
100
AcDbEntity
  8
1
  6
Continuous
 62
     4
100
AcDbLine
 10
128.2941176470588
 20
247.0
 30
0.0
 11
126.5294117647059
 21
246.3333333333333
 31
0.0
  0
LINE
  5
10D
330
1F
100
AcDbEntity
  8
1
  6
Continuous
 62
     4
100
AcDbLine
 10
112.7058823529412
 20
237.0
 30
0.0
 11
122.1176470588235
 21
237.0
 31
0.0
  0
LINE
  5
10E
330
1F
100
AcDbEntity
  8
1
  6
Continuous
 62
     4
100
AcDbLine
 10
103.8823529411765
 20
238.0
 30
0.0
 11
103.2941176470588
 21
238.6666666666667
 31
0.0
  0
LINE
  5
10F
330
1F
100
AcDbEntity
  8
1
  6
Continuous
 62
     4
100
AcDbLine
 10
105.0588235294118
 20
237.3333333333333
 30
0.0
 11
103.8823529411765
 21
238.0
 31
0.0
  0
LINE
  5
110
330
1F
100
AcDbEntity
  8
1
  6
Continuous
 62
     4
100
AcDbLine
 10
106.5294117647059
 20
237.0
 30
0.0
 11
105.0588235294118
 21
237.3333333333333
 31
0.0
  0
LINE
  5
111
330
1F
100
AcDbEntity
  8
1
  6
Continuous
 62
     4
100
AcDbLine
 10
108.2941176470588
 20
237.3333333333333
 30
0.0
 11
106.5294117647059
 21
237.0
 31
0.0
  0
LINE
  5
112
330
1F
100
AcDbEntity
  8
1
  6
Continuous
 62
     4
100
AcDbLine
 10
109.1764705882353
 20
238.0
 30
0.0
 11
108.2941176470588
 21
237.3333333333333
 31
0.0
  0
LINE
  5
113
330
1F
100
AcDbEntity
  8
1
  6
Continuous
 62
     4
100
AcDbLine
 10
109.7647058823529
 20
239.6666666666667
 30
0.0
 11
109.1764705882353
 21
238.0
 31
0.0
  0
LINE
  5
114
330
1F
100
AcDbEntity
  8
1
  6
Continuous
 62
     4
100
AcDbLine
 10
109.1764705882353
 20
241.3333333333333
 30
0.0
 11
109.7647058823529
 21
239.6666666666667
 31
0.0
  0
LINE
  5
115
330
1F
100
AcDbEntity
  8
1
  6
Continuous
 62
     4
100
AcDbLine
 10
107.7058823529412
 20
242.3333333333333
 30
0.0
 11
109.1764705882353
 21
241.3333333333333
 31
0.0
  0
LINE
  5
116
330
1F
100
AcDbEntity
  8
1
  6
Continuous
 62
     4
100
AcDbLine
 10
106.2352941176471
 20
242.3333333333333
 30
0.0
 11
107.7058823529412
 21
242.3333333333333
 31
0.0
  0
LINE
  5
117
330
1F
100
AcDbEntity
  8
1
  6
Continuous
 62
     4
100
AcDbLine
 10
107.7058823529412
 20
242.3333333333333
 30
0.0
 11
106.2352941176471
 21
242.3333333333333
 31
0.0
  0
LINE
  5
118
330
1F
100
AcDbEntity
  8
1
  6
Continuous
 62
     4
100
AcDbLine
 10
108.8823529411765
 20
243.0
 30
0.0
 11
107.7058823529412
 21
242.3333333333333
 31
0.0
  0
LINE
  5
119
330
1F
100
AcDbEntity
  8
1
  6
Continuous
 62
     4
100
AcDbLine
 10
109.4705882352941
 20
244.3333333333333
 30
0.0
 11
108.8823529411765
 21
243.0
 31
0.0
  0
LINE
  5
11A
330
1F
100
AcDbEntity
  8
1
  6
Continuous
 62
     4
100
AcDbLine
 10
109.1764705882353
 20
245.3333333333333
 30
0.0
 11
109.4705882352941
 21
244.3333333333333
 31
0.0
  0
LINE
  5
11B
330
1F
100
AcDbEntity
  8
1
  6
Continuous
 62
     4
100
AcDbLine
 10
108.2941176470588
 20
246.6666666666667
 30
0.0
 11
109.1764705882353
 21
245.3333333333333
 31
0.0
  0
LINE
  5
11C
330
1F
100
AcDbEntity
  8
1
  6
Continuous
 62
     4
100
AcDbLine
 10
106.5294117647059
 20
247.0
 30
0.0
 11
108.2941176470588
 21
246.6666666666667
 31
0.0
  0
LINE
  5
11D
330
1F
100
AcDbEntity
  8
1
  6
Continuous
 62
     4
100
AcDbLine
 10
104.7647058823529
 20
246.6666666666667
 30
0.0
 11
106.5294117647059
 21
247.0
 31
0.0
  0
LINE
  5
11E
330
1F
100
AcDbEntity
  8
1
  6
Continuous
 62
     4
100
AcDbLine
 10
103.5882352941177
 20
245.3333333333333
 30
0.0
 11
104.7647058823529
 21
246.6666666666667
 31
0.0
  0
LINE
  5
11F
330
1F
100
AcDbEntity
  8
1
  6
Continuous
 62
     4
100
AcDbLine
 10
100.3529411764706
 20
247.0
 30
0.0
 11
100.3529411764706
 21
237.0
 31
0.0
  0
LINE
  5
120
330
1F
100
AcDbEntity
  8
1
  6
Continuous
 62
     4
100
AcDbLine
 10
98.88235294117648
 20
246.0
 30
0.0
 11
100.3529411764706
 21
247.0
 31
0.0
  0
LINE
  5
121
330
1F
100
AcDbEntity
  8
1
  6
Continuous
 62
     4
100
AcDbLine
 10
86.52941176470588
 20
237.0
 30
0.0
 11
95.94117647058823
 21
237.0
 31
0.0
  0
LINE
  5
122
330
1F
100
AcDbEntity
  8
1
  6
Continuous
 62
     4
100
AcDbLine
 10
77.41176470588235
 20
241.6666666666667
 30
0.0
 11
77.41176470588235
 21
247.0
 31
0.0
  0
LINE
  5
123
330
1F
100
AcDbEntity
  8
1
  6
Continuous
 62
     4
100
AcDbLine
 10
81.23529411764706
 20
241.6666666666667
 30
0.0
 11
83.58823529411764
 21
237.0
 31
0.0
  0
LINE
  5
124
330
1F
100
AcDbEntity
  8
1
  6
Continuous
 62
     4
100
AcDbLine
 10
81.23529411764706
 20
241.6666666666667
 30
0.0
 11
77.41176470588235
 21
241.6666666666667
 31
0.0
  0
LINE
  5
125
330
1F
100
AcDbEntity
  8
1
  6
Continuous
 62
     4
100
AcDbLine
 10
82.41176470588235
 20
242.3333333333333
 30
0.0
 11
81.23529411764706
 21
241.6666666666667
 31
0.0
  0
LINE
  5
126
330
1F
100
AcDbEntity
  8
1
  6
Continuous
 62
     4
100
AcDbLine
 10
83.0
 20
243.0
 30
0.0
 11
82.41176470588235
 21
242.3333333333333
 31
0.0
  0
LINE
  5
127
330
1F
100
AcDbEntity
  8
1
  6
Continuous
 62
     4
100
AcDbLine
 10
83.29411764705881
 20
244.3333333333333
 30
0.0
 11
83.0
 21
243.0
 31
0.0
  0
LINE
  5
128
330
1F
100
AcDbEntity
  8
1
  6
Continuous
 62
     4
100
AcDbLine
 10
83.0
 20
245.3333333333333
 30
0.0
 11
83.29411764705881
 21
244.3333333333333
 31
0.0
  0
LINE
  5
129
330
1F
100
AcDbEntity
  8
1
  6
Continuous
 62
     4
100
AcDbLine
 10
82.41176470588235
 20
246.3333333333333
 30
0.0
 11
83.0
 21
245.3333333333333
 31
0.0
  0
LINE
  5
12A
330
1F
100
AcDbEntity
  8
1
  6
Continuous
 62
     4
100
AcDbLine
 10
81.23529411764706
 20
247.0
 30
0.0
 11
82.41176470588235
 21
246.3333333333333
 31
0.0
  0
LINE
  5
12B
330
1F
100
AcDbEntity
  8
1
  6
Continuous
 62
     4
100
AcDbLine
 10
77.41176470588235
 20
247.0
 30
0.0
 11
81.23529411764706
 21
247.0
 31
0.0
  0
LINE
  5
12C
330
1F
100
AcDbEntity
  8
1
  6
Continuous
 62
     4
100
AcDbLine
 10
77.41176470588235
 20
237.0
 30
0.0
 11
77.41176470588235
 21
241.6666666666667
 31
0.0
  0
LINE
  5
12D
330
1F
100
AcDbEntity
  8
1
  6
Continuous
 62
     4
100
AcDbLine
 10
74.47058823529412
 20
241.6666666666667
 30
0.0
 11
71.82352941176471
 21
241.6666666666667
 31
0.0
  0
LINE
  5
12E
330
1F
100
AcDbEntity
  8
1
  6
Continuous
 62
     4
100
AcDbLine
 10
74.47058823529412
 20
239.6666666666667
 30
0.0
 11
74.47058823529412
 21
241.6666666666667
 31
0.0
  0
LINE
  5
12F
330
1F
100
AcDbEntity
  8
1
  6
Continuous
 62
     4
100
AcDbLine
 10
74.17647058823529
 20
238.6666666666667
 30
0.0
 11
74.47058823529412
 21
239.6666666666667
 31
0.0
  0
LINE
  5
130
330
1F
100
AcDbEntity
  8
1
  6
Continuous
 62
     4
100
AcDbLine
 10
73.58823529411765
 20
238.0
 30
0.0
 11
74.17647058823529
 21
238.6666666666667
 31
0.0
  0
LINE
  5
131
330
1F
100
AcDbEntity
  8
1
  6
Continuous
 62
     4
100
AcDbLine
 10
72.70588235294117
 20
237.3333333333333
 30
0.0
 11
73.58823529411765
 21
238.0
 31
0.0
  0
LINE
  5
132
330
1F
100
AcDbEntity
  8
1
  6
Continuous
 62
     4
100
AcDbLine
 10
71.23529411764706
 20
237.0
 30
0.0
 11
72.70588235294117
 21
237.3333333333333
 31
0.0
  0
LINE
  5
133
330
1F
100
AcDbEntity
  8
1
  6
Continuous
 62
     4
100
AcDbLine
 10
69.76470588235294
 20
237.3333333333333
 30
0.0
 11
71.23529411764706
 21
237.0
 31
0.0
  0
LINE
  5
134
330
1F
100
AcDbEntity
  8
1
  6
Continuous
 62
     4
100
AcDbLine
 10
68.88235294117646
 20
238.6666666666667
 30
0.0
 11
69.76470588235294
 21
237.3333333333333
 31
0.0
  0
LINE
  5
135
330
1F
100
AcDbEntity
  8
1
  6
Continuous
 62
     4
100
AcDbLine
 10
68.58823529411765
 20
239.3333333333333
 30
0.0
 11
68.88235294117646
 21
238.6666666666667
 31
0.0
  0
LINE
  5
136
330
1F
100
AcDbEntity
  8
1
  6
Continuous
 62
     4
100
AcDbLine
 10
68.29411764705883
 20
240.6666666666667
 30
0.0
 11
68.58823529411765
 21
239.3333333333333
 31
0.0
  0
LINE
  5
137
330
1F
100
AcDbEntity
  8
1
  6
Continuous
 62
     4
100
AcDbLine
 10
68.0
 20
242.0
 30
0.0
 11
68.29411764705883
 21
240.6666666666667
 31
0.0
  0
LINE
  5
138
330
1F
100
AcDbEntity
  8
1
  6
Continuous
 62
     4
100
AcDbLine
 10
68.29411764705883
 20
243.3333333333333
 30
0.0
 11
68.0
 21
242.0
 31
0.0
  0
LINE
  5
139
330
1F
100
AcDbEntity
  8
1
  6
Continuous
 62
     4
100
AcDbLine
 10
68.88235294117646
 20
245.3333333333333
 30
0.0
 11
68.29411764705883
 21
243.3333333333333
 31
0.0
  0
LINE
  5
13A
330
1F
100
AcDbEntity
  8
1
  6
Continuous
 62
     4
100
AcDbLine
 10
69.17647058823529
 20
246.0
 30
0.0
 11
68.88235294117646
 21
245.3333333333333
 31
0.0
  0
LINE
  5
13B
330
1F
100
AcDbEntity
  8
1
  6
Continuous
 62
     4
100
AcDbLine
 10
70.05882352941177
 20
246.6666666666667
 30
0.0
 11
69.17647058823529
 21
246.0
 31
0.0
  0
LINE
  5
13C
330
1F
100
AcDbEntity
  8
1
  6
Continuous
 62
     4
100
AcDbLine
 10
71.23529411764706
 20
247.0
 30
0.0
 11
70.05882352941177
 21
246.6666666666667
 31
0.0
  0
LINE
  5
13D
330
1F
100
AcDbEntity
  8
1
  6
Continuous
 62
     4
100
AcDbLine
 10
72.70588235294117
 20
246.6666666666667
 30
0.0
 11
71.23529411764706
 21
247.0
 31
0.0
  0
LINE
  5
13E
330
1F
100
AcDbEntity
  8
1
  6
Continuous
 62
     4
100
AcDbLine
 10
73.29411764705883
 20
246.3333333333333
 30
0.0
 11
72.70588235294117
 21
246.6666666666667
 31
0.0
  0
LINE
  5
13F
330
1F
100
AcDbEntity
  8
1
  6
Continuous
 62
     4
100
AcDbLine
 10
73.88235294117646
 20
245.6666666666667
 30
0.0
 11
73.29411764705883
 21
246.3333333333333
 31
0.0
  0
LINE
  5
140
330
1F
100
AcDbEntity
  8
1
  6
Continuous
 62
     4
100
AcDbLine
 10
74.47058823529412
 20
244.6666666666667
 30
0.0
 11
73.88235294117646
 21
245.6666666666667
 31
0.0
  0
LINE
  5
141
330
1F
100
AcDbEntity
  8
1
  6
Continuous
 62
     4
100
AcDbLine
 10
65.05882352941177
 20
241.6666666666667
 30
0.0
 11
62.41176470588235
 21
241.6666666666667
 31
0.0
  0
LINE
  5
142
330
1F
100
AcDbEntity
  8
1
  6
Continuous
 62
     4
100
AcDbLine
 10
65.05882352941177
 20
239.6666666666667
 30
0.0
 11
65.05882352941177
 21
241.6666666666667
 31
0.0
  0
LINE
  5
143
330
1F
100
AcDbEntity
  8
1
  6
Continuous
 62
     4
100
AcDbLine
 10
64.76470588235294
 20
238.6666666666667
 30
0.0
 11
65.05882352941177
 21
239.6666666666667
 31
0.0
  0
LINE
  5
144
330
1F
100
AcDbEntity
  8
1
  6
Continuous
 62
     4
100
AcDbLine
 10
64.17647058823529
 20
238.0
 30
0.0
 11
64.76470588235294
 21
238.6666666666667
 31
0.0
  0
LINE
  5
145
330
1F
100
AcDbEntity
  8
1
  6
Continuous
 62
     4
100
AcDbLine
 10
63.29411764705882
 20
237.3333333333333
 30
0.0
 11
64.17647058823529
 21
238.0
 31
0.0
  0
LINE
  5
146
330
1F
100
AcDbEntity
  8
1
  6
Continuous
 62
     4
100
AcDbLine
 10
61.8235294117647
 20
237.0
 30
0.0
 11
63.29411764705882
 21
237.3333333333333
 31
0.0
  0
LINE
  5
147
330
1F
100
AcDbEntity
  8
1
  6
Continuous
 62
     4
100
AcDbLine
 10
60.35294117647059
 20
237.3333333333333
 30
0.0
 11
61.8235294117647
 21
237.0
 31
0.0
  0
LINE
  5
148
330
1F
100
AcDbEntity
  8
1
  6
Continuous
 62
     4
100
AcDbLine
 10
59.47058823529412
 20
238.6666666666667
 30
0.0
 11
60.35294117647059
 21
237.3333333333333
 31
0.0
  0
LINE
  5
149
330
1F
100
AcDbEntity
  8
1
  6
Continuous
 62
     4
100
AcDbLine
 10
59.17647058823529
 20
239.3333333333333
 30
0.0
 11
59.47058823529412
 21
238.6666666666667
 31
0.0
  0
LINE
  5
14A
330
1F
100
AcDbEntity
  8
1
  6
Continuous
 62
     4
100
AcDbLine
 10
58.88235294117647
 20
240.6666666666667
 30
0.0
 11
59.17647058823529
 21
239.3333333333333
 31
0.0
  0
LINE
  5
14B
330
1F
100
AcDbEntity
  8
1
  6
Continuous
 62
     4
100
AcDbLine
 10
58.58823529411765
 20
242.0
 30
0.0
 11
58.88235294117647
 21
240.6666666666667
 31
0.0
  0
LINE
  5
14C
330
1F
100
AcDbEntity
  8
1
  6
Continuous
 62
     4
100
AcDbLine
 10
58.88235294117647
 20
243.3333333333333
 30
0.0
 11
58.58823529411765
 21
242.0
 31
0.0
  0
LINE
  5
14D
330
1F
100
AcDbEntity
  8
1
  6
Continuous
 62
     4
100
AcDbLine
 10
59.47058823529412
 20
245.3333333333333
 30
0.0
 11
58.88235294117647
 21
243.3333333333333
 31
0.0
  0
LINE
  5
14E
330
1F
100
AcDbEntity
  8
1
  6
Continuous
 62
     4
100
AcDbLine
 10
59.76470588235294
 20
246.0
 30
0.0
 11
59.47058823529412
 21
245.3333333333333
 31
0.0
  0
LINE
  5
14F
330
1F
100
AcDbEntity
  8
1
  6
Continuous
 62
     4
100
AcDbLine
 10
60.64705882352941
 20
246.6666666666667
 30
0.0
 11
59.76470588235294
 21
246.0
 31
0.0
  0
LINE
  5
150
330
1F
100
AcDbEntity
  8
1
  6
Continuous
 62
     4
100
AcDbLine
 10
61.8235294117647
 20
247.0
 30
0.0
 11
60.64705882352941
 21
246.6666666666667
 31
0.0
  0
LINE
  5
151
330
1F
100
AcDbEntity
  8
1
  6
Continuous
 62
     4
100
AcDbLine
 10
63.29411764705882
 20
246.6666666666667
 30
0.0
 11
61.8235294117647
 21
247.0
 31
0.0
  0
LINE
  5
152
330
1F
100
AcDbEntity
  8
1
  6
Continuous
 62
     4
100
AcDbLine
 10
63.88235294117647
 20
246.3333333333333
 30
0.0
 11
63.29411764705882
 21
246.6666666666667
 31
0.0
  0
LINE
  5
153
330
1F
100
AcDbEntity
  8
1
  6
Continuous
 62
     4
100
AcDbLine
 10
64.47058823529412
 20
245.6666666666667
 30
0.0
 11
63.88235294117647
 21
246.3333333333333
 31
0.0
  0
LINE
  5
154
330
1F
100
AcDbEntity
  8
1
  6
Continuous
 62
     4
100
AcDbLine
 10
65.05882352941177
 20
244.6666666666667
 30
0.0
 11
64.47058823529412
 21
245.6666666666667
 31
0.0
  0
LINE
  5
155
330
1F
100
AcDbEntity
  8
1
  6
Continuous
 62
     4
100
AcDbLine
 10
50.35294117647059
 20
242.0
 30
0.0
 11
55.64705882352941
 21
242.0
 31
0.0
  0
LINE
  5
156
330
1F
100
AcDbEntity
  8
1
  6
Continuous
 62
     4
100
AcDbLine
 10
41.82352941176471
 20
241.6666666666667
 30
0.0
 11
41.82352941176471
 21
237.0
 31
0.0
  0
LINE
  5
157
330
1F
100
AcDbEntity
  8
1
  6
Continuous
 62
     4
100
AcDbLine
 10
47.41176470588236
 20
241.6666666666667
 30
0.0
 11
47.41176470588236
 21
237.0
 31
0.0
  0
LINE
  5
158
330
1F
100
AcDbEntity
  8
1
  6
Continuous
 62
     4
100
AcDbLine
 10
47.41176470588236
 20
247.0
 30
0.0
 11
47.41176470588236
 21
241.6666666666667
 31
0.0
  0
LINE
  5
159
330
1F
100
AcDbEntity
  8
1
  6
Continuous
 62
     4
100
AcDbLine
 10
41.82352941176471
 20
241.6666666666667
 30
0.0
 11
47.41176470588236
 21
241.6666666666667
 31
0.0
  0
LINE
  5
15A
330
1F
100
AcDbEntity
  8
1
  6
Continuous
 62
     4
100
AcDbLine
 10
41.82352941176471
 20
247.0
 30
0.0
 11
41.82352941176471
 21
241.6666666666667
 31
0.0
  0
LINE
  5
15B
330
1F
100
AcDbEntity
  8
1
  6
Continuous
 62
     4
100
AcDbLine
 10
36.52941176470588
 20
237.0
 30
0.0
 11
33.0
 21
237.0
 31
0.0
  0
LINE
  5
15C
330
1F
100
AcDbEntity
  8
1
  6
Continuous
 62
     4
100
AcDbLine
 10
38.29411764705883
 20
237.6666666666667
 30
0.0
 11
36.52941176470588
 21
237.0
 31
0.0
  0
LINE
  5
15D
330
1F
100
AcDbEntity
  8
1
  6
Continuous
 62
     4
100
AcDbLine
 10
38.88235294117647
 20
239.3333333333333
 30
0.0
 11
38.29411764705883
 21
237.6666666666667
 31
0.0
  0
LINE
  5
15E
330
1F
100
AcDbEntity
  8
1
  6
Continuous
 62
     4
100
AcDbLine
 10
38.29411764705883
 20
241.0
 30
0.0
 11
38.88235294117647
 21
239.3333333333333
 31
0.0
  0
LINE
  5
15F
330
1F
100
AcDbEntity
  8
1
  6
Continuous
 62
     4
100
AcDbLine
 10
36.52941176470588
 20
241.6666666666667
 30
0.0
 11
38.29411764705883
 21
241.0
 31
0.0
  0
LINE
  5
160
330
1F
100
AcDbEntity
  8
1
  6
Continuous
 62
     4
100
AcDbLine
 10
33.0
 20
241.6666666666667
 30
0.0
 11
36.52941176470588
 21
241.6666666666667
 31
0.0
  0
LINE
  5
161
330
1F
100
AcDbEntity
  8
1
  6
Continuous
 62
     4
100
AcDbLine
 10
36.52941176470588
 20
241.6666666666667
 30
0.0
 11
33.0
 21
241.6666666666667
 31
0.0
  0
LINE
  5
162
330
1F
100
AcDbEntity
  8
1
  6
Continuous
 62
     4
100
AcDbLine
 10
38.0
 20
242.6666666666667
 30
0.0
 11
36.52941176470588
 21
241.6666666666667
 31
0.0
  0
LINE
  5
163
330
1F
100
AcDbEntity
  8
1
  6
Continuous
 62
     4
100
AcDbLine
 10
38.29411764705883
 20
244.0
 30
0.0
 11
38.0
 21
242.6666666666667
 31
0.0
  0
LINE
  5
164
330
1F
100
AcDbEntity
  8
1
  6
Continuous
 62
     4
100
AcDbLine
 10
38.0
 20
245.6666666666667
 30
0.0
 11
38.29411764705883
 21
244.0
 31
0.0
  0
LINE
  5
165
330
1F
100
AcDbEntity
  8
1
  6
Continuous
 62
     4
100
AcDbLine
 10
36.52941176470588
 20
246.3333333333333
 30
0.0
 11
38.0
 21
245.6666666666667
 31
0.0
  0
LINE
  5
166
330
1F
100
AcDbEntity
  8
1
  6
Continuous
 62
     4
100
AcDbLine
 10
33.0
 20
246.3333333333333
 30
0.0
 11
36.52941176470588
 21
246.3333333333333
 31
0.0
  0
LINE
  5
167
330
1F
100
AcDbEntity
  8
1
  6
Continuous
 62
     4
100
AcDbLine
 10
33.0
 20
237.0
 30
0.0
 11
33.0
 21
246.3333333333333
 31
0.0
  0
LINE
  5
168
330
1F
100
AcDbEntity
  8
1
  6
Continuous
 62
     4
100
AcDbLine
 10
66.99807829044724
 20
-66.0960470434498
 30
0.0
 11
72.17454887868253
 21
-66.0960470434498
 31
0.0
  0
LINE
  5
169
330
1F
100
AcDbEntity
  8
1
  6
Continuous
 62
     4
100
AcDbLine
 10
67.46866652574136
 20
-64.76271371011647
 30
0.0
 11
66.99807829044724
 21
-66.0960470434498
 31
0.0
  0
LINE
  5
16A
330
1F
100
AcDbEntity
  8
1
  6
Continuous
 62
     4
100
AcDbLine
 10
67.93925476103547
 20
-63.96271371011647
 30
0.0
 11
67.46866652574136
 21
-64.76271371011647
 31
0.0
  0
LINE
  5
16B
330
1F
100
AcDbEntity
  8
1
  6
Continuous
 62
     4
100
AcDbLine
 10
68.8804312316237
 20
-63.16271371011647
 30
0.0
 11
67.93925476103547
 21
-63.96271371011647
 31
0.0
  0
LINE
  5
16C
330
1F
100
AcDbEntity
  8
1
  6
Continuous
 62
     4
100
AcDbLine
 10
69.82160770221195
 20
-62.62938037678313
 30
0.0
 11
68.8804312316237
 21
-63.16271371011647
 31
0.0
  0
LINE
  5
16D
330
1F
100
AcDbEntity
  8
1
  6
Continuous
 62
     4
100
AcDbLine
 10
70.99807829044724
 20
-61.82938037678314
 30
0.0
 11
69.82160770221195
 21
-62.62938037678313
 31
0.0
  0
LINE
  5
16E
330
1F
100
AcDbEntity
  8
1
  6
Continuous
 62
     4
100
AcDbLine
 10
71.70396064338841
 20
-60.76271371011647
 30
0.0
 11
70.99807829044724
 21
-61.82938037678314
 31
0.0
  0
LINE
  5
16F
330
1F
100
AcDbEntity
  8
1
  6
Continuous
 62
     4
100
AcDbLine
 10
71.93925476103547
 20
-59.6960470434498
 30
0.0
 11
71.70396064338841
 21
-60.76271371011647
 31
0.0
  0
LINE
  5
170
330
1F
100
AcDbEntity
  8
1
  6
Continuous
 62
     4
100
AcDbLine
 10
70.99807829044724
 20
-58.62938037678313
 30
0.0
 11
71.93925476103547
 21
-59.6960470434498
 31
0.0
  0
LINE
  5
171
330
1F
100
AcDbEntity
  8
1
  6
Continuous
 62
     4
100
AcDbLine
 10
69.58631358456489
 20
-58.0960470434498
 30
0.0
 11
70.99807829044724
 21
-58.62938037678313
 31
0.0
  0
LINE
  5
172
330
1F
100
AcDbEntity
  8
1
  6
Continuous
 62
     4
100
AcDbLine
 10
68.17454887868253
 20
-58.62938037678313
 30
0.0
 11
69.58631358456489
 21
-58.0960470434498
 31
0.0
  0
LINE
  5
173
330
1F
100
AcDbEntity
  8
1
  6
Continuous
 62
     4
100
AcDbLine
 10
67.2333724080943
 20
-59.6960470434498
 30
0.0
 11
68.17454887868253
 21
-58.62938037678313
 31
0.0
  0
LINE
  5
174
330
1F
100
AcDbEntity
  8
1
  6
Continuous
 62
     4
100
AcDbLine
 10
64.64513711397665
 20
-58.8960470434498
 30
0.0
 11
59.70396064338841
 21
-64.76271371011647
 31
0.0
  0
LINE
  5
175
330
1F
100
AcDbEntity
  8
1
  6
Continuous
 62
     4
100
AcDbLine
 10
57.35101946691783
 20
-58.0960470434498
 30
0.0
 11
57.35101946691783
 21
-66.0960470434498
 31
0.0
  0
LINE
  5
176
330
1F
100
AcDbEntity
  8
1
  6
Continuous
 62
     4
100
AcDbLine
 10
56.17454887868253
 20
-58.8960470434498
 30
0.0
 11
57.35101946691783
 21
-58.0960470434498
 31
0.0
  0
LINE
  5
177
330
1F
100
AcDbEntity
  8
1
  6
Continuous
 62
     4
100
AcDbLine
 10
48.8804312316237
 20
-62.36271371011647
 30
0.0
 11
48.8804312316237
 21
-58.0960470434498
 31
0.0
  0
LINE
  5
178
330
1F
100
AcDbEntity
  8
1
  6
Continuous
 62
     4
100
AcDbLine
 10
51.93925476103547
 20
-62.36271371011647
 30
0.0
 11
53.82160770221194
 21
-66.0960470434498
 31
0.0
  0
LINE
  5
179
330
1F
100
AcDbEntity
  8
1
  6
Continuous
 62
     4
100
AcDbLine
 10
51.93925476103547
 20
-62.36271371011647
 30
0.0
 11
48.8804312316237
 21
-62.36271371011647
 31
0.0
  0
LINE
  5
17A
330
1F
100
AcDbEntity
  8
1
  6
Continuous
 62
     4
100
AcDbLine
 10
52.8804312316237
 20
-61.82938037678314
 30
0.0
 11
51.93925476103547
 21
-62.36271371011647
 31
0.0
  0
LINE
  5
17B
330
1F
100
AcDbEntity
  8
1
  6
Continuous
 62
     4
100
AcDbLine
 10
53.35101946691782
 20
-61.2960470434498
 30
0.0
 11
52.8804312316237
 21
-61.82938037678314
 31
0.0
  0
LINE
  5
17C
330
1F
100
AcDbEntity
  8
1
  6
Continuous
 62
     4
100
AcDbLine
 10
53.58631358456488
 20
-60.22938037678313
 30
0.0
 11
53.35101946691782
 21
-61.2960470434498
 31
0.0
  0
LINE
  5
17D
330
1F
100
AcDbEntity
  8
1
  6
Continuous
 62
     4
100
AcDbLine
 10
53.35101946691782
 20
-59.42938037678314
 30
0.0
 11
53.58631358456488
 21
-60.22938037678313
 31
0.0
  0
LINE
  5
17E
330
1F
100
AcDbEntity
  8
1
  6
Continuous
 62
     4
100
AcDbLine
 10
52.8804312316237
 20
-58.62938037678313
 30
0.0
 11
53.35101946691782
 21
-59.42938037678314
 31
0.0
  0
LINE
  5
17F
330
1F
100
AcDbEntity
  8
1
  6
Continuous
 62
     4
100
AcDbLine
 10
51.93925476103547
 20
-58.0960470434498
 30
0.0
 11
52.8804312316237
 21
-58.62938037678313
 31
0.0
  0
LINE
  5
180
330
1F
100
AcDbEntity
  8
1
  6
Continuous
 62
     4
100
AcDbLine
 10
48.8804312316237
 20
-58.0960470434498
 30
0.0
 11
51.93925476103547
 21
-58.0960470434498
 31
0.0
  0
LINE
  5
181
330
1F
100
AcDbEntity
  8
1
  6
Continuous
 62
     4
100
AcDbLine
 10
48.8804312316237
 20
-66.0960470434498
 30
0.0
 11
48.8804312316237
 21
-62.36271371011647
 31
0.0
  0
LINE
  5
182
330
1F
100
AcDbEntity
  8
1
  6
Continuous
 62
     4
100
AcDbLine
 10
23.76470588235294
 20
-81.0
 30
0.0
 11
22.35294117647059
 21
-82.06666666666666
 31
0.0
  0
LINE
  5
183
330
1F
100
AcDbEntity
  8
1
  6
Continuous
 62
     4
100
AcDbLine
 10
22.35294117647059
 20
-79.93333333333334
 30
0.0
 11
23.76470588235294
 21
-81.0
 31
0.0
  0
LINE
  5
184
330
1F
100
AcDbEntity
  8
1
  6
Continuous
 62
     4
100
AcDbLine
 10
18.58823529411765
 20
-81.0
 30
0.0
 11
23.76470588235294
 21
-81.0
 31
0.0
  0
LINE
  5
185
330
1F
100
AcDbEntity
  8
1
  6
Continuous
 62
     4
100
AcDbLine
 10
11.76470588235294
 20
-78.06666666666666
 30
0.0
 11
15.29411764705882
 21
-78.06666666666666
 31
0.0
  0
LINE
  5
186
330
1F
100
AcDbEntity
  8
1
  6
Continuous
 62
     4
100
AcDbLine
 10
10.11764705882353
 20
-83.13333333333334
 30
0.0
 11
10.11764705882353
 21
-79.4
 31
0.0
  0
LINE
  5
187
330
1F
100
AcDbEntity
  8
1
  6
Continuous
 62
     4
100
AcDbLine
 10
14.11764705882353
 20
-83.13333333333334
 30
0.0
 11
10.11764705882353
 21
-83.13333333333334
 31
0.0
  0
LINE
  5
188
330
1F
100
AcDbEntity
  8
1
  6
Continuous
 62
     4
100
AcDbLine
 10
14.11764705882353
 20
-79.4
 30
0.0
 11
14.11764705882353
 21
-83.13333333333334
 31
0.0
  0
LINE
  5
189
330
1F
100
AcDbEntity
  8
1
  6
Continuous
 62
     4
100
AcDbLine
 10
10.11764705882353
 20
-79.4
 30
0.0
 11
14.11764705882353
 21
-79.4
 31
0.0
  0
LINE
  5
18A
330
1F
100
AcDbEntity
  8
1
  6
Continuous
 62
     4
100
AcDbLine
 10
14.58823529411765
 20
-85.0
 30
0.0
 11
13.41176470588235
 21
-84.73333333333333
 31
0.0
  0
LINE
  5
18B
330
1F
100
AcDbEntity
  8
1
  6
Continuous
 62
     4
100
AcDbLine
 10
15.29411764705882
 20
-84.2
 30
0.0
 11
14.58823529411765
 21
-85.0
 31
0.0
  0
LINE
  5
18C
330
1F
100
AcDbEntity
  8
1
  6
Continuous
 62
     4
100
AcDbLine
 10
15.29411764705882
 20
-78.06666666666666
 30
0.0
 11
15.29411764705882
 21
-84.2
 31
0.0
  0
LINE
  5
18D
330
1F
100
AcDbEntity
  8
1
  6
Continuous
 62
     4
100
AcDbLine
 10
8.94117647058823
 20
-78.06666666666666
 30
0.0
 11
11.76470588235294
 21
-78.06666666666666
 31
0.0
  0
LINE
  5
18E
330
1F
100
AcDbEntity
  8
1
  6
Continuous
 62
     4
100
AcDbLine
 10
8.94117647058823
 20
-85.0
 30
0.0
 11
8.94117647058823
 21
-78.06666666666666
 31
0.0
  0
LINE
  5
18F
330
1F
100
AcDbEntity
  8
1
  6
Continuous
 62
     4
100
AcDbLine
 10
12.23529411764706
 20
-77.0
 30
0.0
 11
11.76470588235294
 21
-78.06666666666666
 31
0.0
  0
LINE
  5
190
330
1F
100
AcDbEntity
  8
1
  6
Continuous
 62
     4
100
AcDbLine
 10
1.1764705882353
 20
-78.06666666666666
 30
0.0
 11
6.11764705882353
 21
-78.06666666666666
 31
0.0
  0
LINE
  5
191
330
1F
100
AcDbEntity
  8
1
  6
Continuous
 62
     4
100
AcDbLine
 10
1.1764705882353
 20
-79.93333333333334
 30
0.0
 11
1.1764705882353
 21
-80.73333333333333
 31
0.0
  0
LINE
  5
192
330
1F
100
AcDbEntity
  8
1
  6
Continuous
 62
     4
100
AcDbLine
 10
4.23529411764706
 20
-85.0
 30
0.0
 11
2.11764705882353
 21
-84.73333333333333
 31
0.0
  0
LINE
  5
193
330
1F
100
AcDbEntity
  8
1
  6
Continuous
 62
     4
100
AcDbLine
 10
5.64705882352941
 20
-83.13333333333334
 30
0.0
 11
4.23529411764706
 21
-85.0
 31
0.0
  0
LINE
  5
194
330
1F
100
AcDbEntity
  8
1
  6
Continuous
 62
     4
100
AcDbLine
 10
5.64705882352941
 20
-79.93333333333334
 30
0.0
 11
5.64705882352941
 21
-83.13333333333334
 31
0.0
  0
LINE
  5
195
330
1F
100
AcDbEntity
  8
1
  6
Continuous
 62
     4
100
AcDbLine
 10
1.1764705882353
 20
-79.93333333333334
 30
0.0
 11
5.64705882352941
 21
-79.93333333333334
 31
0.0
  0
LINE
  5
196
330
1F
100
AcDbEntity
  8
1
  6
Continuous
 62
     4
100
AcDbLine
 10
0.47058823529412
 20
-83.13333333333334
 30
0.0
 11
-0.94117647058823
 21
-85.0
 31
0.0
  0
LINE
  5
197
330
1F
100
AcDbEntity
  8
1
  6
Continuous
 62
     4
100
AcDbLine
 10
1.1764705882353
 20
-80.73333333333333
 30
0.0
 11
0.47058823529412
 21
-83.13333333333334
 31
0.0
  0
LINE
  5
198
330
1F
100
AcDbEntity
  8
1
  6
Continuous
 62
     4
100
AcDbLine
 10
1.1764705882353
 20
-78.06666666666666
 30
0.0
 11
1.1764705882353
 21
-79.93333333333334
 31
0.0
  0
LINE
  5
199
330
1F
100
AcDbEntity
  8
1
  6
Continuous
 62
     4
100
AcDbLine
 10
-0.94117647058823
 20
-78.06666666666666
 30
0.0
 11
1.1764705882353
 21
-78.06666666666666
 31
0.0
  0
LINE
  5
19A
330
1F
100
AcDbEntity
  8
1
  6
Continuous
 62
     4
100
AcDbLine
 10
2.82352941176471
 20
-77.0
 30
0.0
 11
2.82352941176471
 21
-78.06666666666666
 31
0.0
  0
LINE
  5
19B
330
1F
100
AcDbEntity
  8
1
  6
Continuous
 62
     4
100
AcDbLine
 10
-6.82352941176471
 20
-77.8
 30
0.0
 11
-6.82352941176471
 21
-85.26666666666667
 31
0.0
  0
LINE
  5
19C
330
1F
100
AcDbEntity
  8
1
  6
Continuous
 62
     4
100
AcDbLine
 10
-4.70588235294118
 20
-82.86666666666666
 30
0.0
 11
-3.05882352941176
 21
-84.73333333333333
 31
0.0
  0
LINE
  5
19D
330
1F
100
AcDbEntity
  8
1
  6
Continuous
 62
     4
100
AcDbLine
 10
-5.88235294117647
 20
-80.73333333333333
 30
0.0
 11
-4.70588235294118
 21
-82.86666666666666
 31
0.0
  0
LINE
  5
19E
330
1F
100
AcDbEntity
  8
1
  6
Continuous
 62
     4
100
AcDbLine
 10
-6.82352941176471
 20
-77.8
 30
0.0
 11
-5.88235294117647
 21
-80.73333333333333
 31
0.0
  0
LINE
  5
19F
330
1F
100
AcDbEntity
  8
1
  6
Continuous
 62
     4
100
AcDbLine
 10
-3.52941176470588
 20
-77.8
 30
0.0
 11
-5.41176470588235
 21
-80.46666666666667
 31
0.0
  0
LINE
  5
1A0
330
1F
100
AcDbEntity
  8
1
  6
Continuous
 62
     4
100
AcDbLine
 10
-8.94117647058824
 20
-82.6
 30
0.0
 11
-10.35294117647059
 21
-84.46666666666667
 31
0.0
  0
LINE
  5
1A1
330
1F
100
AcDbEntity
  8
1
  6
Continuous
 62
     4
100
AcDbLine
 10
-8.23529411764706
 20
-80.73333333333333
 30
0.0
 11
-8.94117647058824
 21
-82.6
 31
0.0
  0
LINE
  5
1A2
330
1F
100
AcDbEntity
  8
1
  6
Continuous
 62
     4
100
AcDbLine
 10
-8.0
 20
-78.6
 30
0.0
 11
-8.23529411764706
 21
-80.73333333333333
 31
0.0
  0
LINE
  5
1A3
330
1F
100
AcDbEntity
  8
1
  6
Continuous
 62
     4
100
AcDbLine
 10
-10.35294117647059
 20
-78.6
 30
0.0
 11
-8.0
 21
-78.6
 31
0.0
  0
LINE
  5
1A4
330
1F
100
AcDbEntity
  8
1
  6
Continuous
 62
     4
100
AcDbLine
 10
-6.82352941176471
 20
-85.26666666666667
 30
0.0
 11
-8.47058823529412
 21
-84.2
 31
0.0
  0
LINE
  5
1A5
330
1F
100
AcDbEntity
  8
1
  6
Continuous
 62
     4
100
AcDbLine
 10
-6.82352941176471
 20
-77.0
 30
0.0
 11
-6.82352941176471
 21
-77.8
 31
0.0
  0
LINE
  5
1A6
330
1F
100
AcDbEntity
  8
1
  6
Continuous
 62
     4
100
AcDbLine
 10
-15.52941176470588
 20
-77.8
 30
0.0
 11
-12.94117647058824
 21
-77.8
 31
0.0
  0
LINE
  5
1A7
330
1F
100
AcDbEntity
  8
1
  6
Continuous
 62
     4
100
AcDbLine
 10
-12.70588235294118
 20
-85.0
 30
0.0
 11
-12.70588235294118
 21
-83.13333333333334
 31
0.0
  0
LINE
  5
1A8
330
1F
100
AcDbEntity
  8
1
  6
Continuous
 62
     4
100
AcDbLine
 10
-13.88235294117647
 20
-85.0
 30
0.0
 11
-12.70588235294118
 21
-85.0
 31
0.0
  0
LINE
  5
1A9
330
1F
100
AcDbEntity
  8
1
  6
Continuous
 62
     4
100
AcDbLine
 10
-13.88235294117647
 20
-80.73333333333333
 30
0.0
 11
-13.88235294117647
 21
-85.0
 31
0.0
  0
LINE
  5
1AA
330
1F
100
AcDbEntity
  8
1
  6
Continuous
 62
     4
100
AcDbLine
 10
-15.52941176470588
 20
-80.73333333333333
 30
0.0
 11
-15.52941176470588
 21
-85.0
 31
0.0
  0
LINE
  5
1AB
330
1F
100
AcDbEntity
  8
1
  6
Continuous
 62
     4
100
AcDbLine
 10
-17.64705882352941
 20
-83.66666666666667
 30
0.0
 11
-18.58823529411765
 21
-85.0
 31
0.0
  0
LINE
  5
1AC
330
1F
100
AcDbEntity
  8
1
  6
Continuous
 62
     4
100
AcDbLine
 10
-17.17647058823529
 20
-82.33333333333333
 30
0.0
 11
-17.64705882352941
 21
-83.66666666666667
 31
0.0
  0
LINE
  5
1AD
330
1F
100
AcDbEntity
  8
1
  6
Continuous
 62
     4
100
AcDbLine
 10
-16.94117647058824
 20
-80.73333333333333
 30
0.0
 11
-17.17647058823529
 21
-82.33333333333333
 31
0.0
  0
LINE
  5
1AE
330
1F
100
AcDbEntity
  8
1
  6
Continuous
 62
     4
100
AcDbLine
 10
-13.17647058823529
 20
-80.46666666666667
 30
0.0
 11
-12.70588235294118
 21
-81.53333333333333
 31
0.0
  0
LINE
  5
1AF
330
1F
100
AcDbEntity
  8
1
  6
Continuous
 62
     4
100
AcDbLine
 10
-14.11764705882353
 20
-78.86666666666666
 30
0.0
 11
-13.17647058823529
 21
-80.46666666666667
 31
0.0
  0
LINE
  5
1B0
330
1F
100
AcDbEntity
  8
1
  6
Continuous
 62
     4
100
AcDbLine
 10
-17.41176470588235
 20
-80.73333333333333
 30
0.0
 11
-13.17647058823529
 21
-80.46666666666667
 31
0.0
  0
LINE
  5
1B1
330
1F
100
AcDbEntity
  8
1
  6
Continuous
 62
     4
100
AcDbLine
 10
-18.11764705882353
 20
-80.73333333333333
 30
0.0
 11
-17.41176470588235
 21
-80.73333333333333
 31
0.0
  0
LINE
  5
1B2
330
1F
100
AcDbEntity
  8
1
  6
Continuous
 62
     4
100
AcDbLine
 10
-15.52941176470588
 20
-77.8
 30
0.0
 11
-17.41176470588235
 21
-80.73333333333333
 31
0.0
  0
LINE
  5
1B3
330
1F
100
AcDbEntity
  8
1
  6
Continuous
 62
     4
100
AcDbLine
 10
-15.52941176470588
 20
-76.73333333333333
 30
0.0
 11
-15.52941176470588
 21
-77.8
 31
0.0
  0
LINE
  5
1B4
330
1F
100
AcDbEntity
  8
1
  6
Continuous
 62
     4
100
AcDbLine
 10
-18.11764705882353
 20
-77.8
 30
0.0
 11
-15.52941176470588
 21
-77.8
 31
0.0
  0
LINE
  5
1B5
330
1F
100
AcDbEntity
  8
1
  6
Continuous
 62
     4
100
AcDbLine
 10
-19.52941176470588
 20
-85.0
 30
0.0
 11
-18.35294117647059
 21
-81.8
 31
0.0
  0
LINE
  5
1B6
330
1F
100
AcDbEntity
  8
1
  6
Continuous
 62
     4
100
AcDbLine
 10
-19.52941176470588
 20
-79.93333333333334
 30
0.0
 11
-18.35294117647059
 21
-81.0
 31
0.0
  0
LINE
  5
1B7
330
1F
100
AcDbEntity
  8
1
  6
Continuous
 62
     4
100
AcDbLine
 10
-19.29411764705882
 20
-77.53333333333333
 30
0.0
 11
-18.11764705882353
 21
-78.6
 31
0.0
  0
LINE
  5
1B8
330
1F
100
AcDbEntity
  8
2
  6
Continuous
 62
     3
100
AcDbLine
 10
209.15
 20
-50.49999906
 30
0.0
 11
200.0
 21
-50.49999906
 31
0.0
  0
LINE
  5
1B9
330
1F
100
AcDbEntity
  8
2
  6
Continuous
 62
     3
100
AcDbLine
 10
210.5
 20
-40.8999990599995
 30
0.0
 11
210.5
 21
-34.4999993514
 31
0.0
  0
LINE
  5
1BA
330
1F
100
AcDbEntity
  8
2
  6
Continuous
 62
     3
100
AcDbLine
 10
200.0
 20
-50.49999906
 30
0.0
 11
190.85
 21
-50.49999906
 31
0.0
  0
LINE
  5
1BB
330
1F
100
AcDbEntity
  8
1
  6
Continuous
 62
     3
100
AcDbLine
 10
209.405677700197
 20
-36.5686262473849
 30
0.0
 11
209.188603174603
 21
-50.4613958853968
 31
0.0
  0
LINE
  5
1BC
330
1F
100
AcDbEntity
  8
1
  6
Continuous
 62
     3
100
AcDbLine
 10
210.369047619048
 20
-49.2809514409523
 30
0.0
 11
210.5
 21
-40.8999990599995
 31
0.0
  0
LINE
  5
1BD
330
1F
100
AcDbEntity
  8
1
  6
Continuous
 62
     3
100
AcDbLine
 10
209.15
 20
-50.49999906
 30
0.0
 11
210.369047619048
 21
-49.2809514409523
 31
0.0
  0
LINE
  5
1BE
330
1F
100
AcDbEntity
  8
1
  6
Continuous
 62
     3
100
AcDbLine
 10
200.0
 20
-36.5686262473849
 30
0.0
 11
210.5
 21
-36.5686262473849
 31
0.0
  0
LINE
  5
1BF
330
1F
100
AcDbEntity
  8
1
  6
Continuous
 62
     3
100
AcDbLine
 10
189.5
 20
-36.5686262473849
 30
0.0
 11
200.0
 21
-36.5686262473849
 31
0.0
  0
LINE
  5
1C0
330
1F
100
AcDbEntity
  8
1
  6
Continuous
 62
     3
100
AcDbLine
 10
189.630952380952
 20
-49.2809514409523
 30
0.0
 11
190.85
 21
-50.49999906
 31
0.0
  0
LINE
  5
1C1
330
1F
100
AcDbEntity
  8
1
  6
Continuous
 62
     3
100
AcDbLine
 10
190.811396825397
 20
-50.4613958853968
 30
0.0
 11
190.594322299803
 21
-36.5686262473849
 31
0.0
  0
LINE
  5
1C2
330
1F
100
AcDbEntity
  8
2
  6
Continuous
 62
     3
100
AcDbLine
 10
189.5
 20
-34.4999993514
 30
0.0
 11
189.5
 21
-40.8999990599995
 31
0.0
  0
LINE
  5
1C3
330
1F
100
AcDbEntity
  8
1
  6
Continuous
 62
     3
100
AcDbLine
 10
189.5
 20
-40.8999990599995
 30
0.0
 11
189.630952380952
 21
-49.2809514409523
 31
0.0
  0
LINE
  5
1C4
330
1F
100
AcDbEntity
  8
2
  6
DASH_CENTER
 62
     1
100
AcDbLine
 10
-37.999999342
 20
175.0
 30
0.0
 11
37.999999342
 21
175.0
 31
0.0
  0
LINE
  5
1C5
330
1F
100
AcDbEntity
  8
100
  6
Continuous
 62
     3
100
AcDbLine
 10
186.5
 20
59.0484266569888
 30
0.0
 11
213.5
 21
59.0484266569889
 31
0.0
  0
LINE
  5
1C6
330
1F
100
AcDbEntity
  8
100
  6
Continuous
 62
     3
100
AcDbLine
 10
203.821320429557
 20
-16.0
 30
0.0
 11
213.0
 21
-16.0
 31
0.0
  0
LINE
  5
1C7
330
1F
100
AcDbEntity
  8
100
  6
Continuous
 62
     3
100
AcDbLine
 10
187.0
 20
-16.0
 30
0.0
 11
196.178679570443
 21
-16.0
 31
0.0
  0
LINE
  5
1C8
330
1F
100
AcDbEntity
  8
100
  6
Continuous
 62
     3
100
AcDbLine
 10
209.0
 20
72.0
 30
0.0
 11
209.0
 21
67.4000732012339
 31
0.0
  0
LINE
  5
1C9
330
1F
100
AcDbEntity
  8
100
  6
Continuous
 62
     3
100
AcDbLine
 10
207.0
 20
74.0
 30
0.0
 11
193.0
 21
74.0
 31
0.0
  0
LINE
  5
1CA
330
1F
100
AcDbEntity
  8
100
  6
Continuous
 62
     3
100
AcDbLine
 10
191.0
 20
72.0
 30
0.0
 11
191.0
 21
66.9302855497472
 31
0.0
  0
LINE
  5
1CB
330
1F
100
AcDbEntity
  8
100
  6
Continuous
 62
     3
100
AcDbLine
 10
213.5
 20
59.0484266569889
 30
0.0
 11
213.5
 21
44.0
 31
0.0
  0
LINE
  5
1CC
330
1F
100
AcDbEntity
  8
100
  6
Continuous
 62
     3
100
AcDbLine
 10
186.5
 20
59.0484266569888
 30
0.0
 11
186.5
 21
44.0
 31
0.0
  0
LINE
  5
1CD
330
1F
100
AcDbEntity
  8
100
  6
Continuous
 62
     3
100
AcDbLine
 10
186.0
 20
27.0
 30
0.0
 11
214.0
 21
27.0
 31
0.0
  0
LINE
  5
1CE
330
1F
100
AcDbEntity
  8
100
  6
Continuous
 62
     3
100
AcDbLine
 10
203.821320429557
 20
16.0
 30
0.0
 11
213.0
 21
16.0
 31
0.0
  0
LINE
  5
1CF
330
1F
100
AcDbEntity
  8
100
  6
Continuous
 62
     3
100
AcDbLine
 10
187.0
 20
16.0
 30
0.0
 11
196.178679570443
 21
16.0
 31
0.0
  0
LINE
  5
1D0
330
1F
100
AcDbEntity
  8
100
  6
Continuous
 62
     3
100
AcDbLine
 10
216.0
 20
40.5
 30
0.0
 11
216.0
 21
29.0
 31
0.0
  0
LINE
  5
1D1
330
1F
100
AcDbEntity
  8
100
  6
Continuous
 62
     3
100
AcDbLine
 10
184.0
 20
40.5
 30
0.0
 11
184.0
 21
29.0
 31
0.0
  0
LINE
  5
1D2
330
1F
100
AcDbEntity
  8
100
  6
Continuous
 62
     3
100
AcDbLine
 10
183.0
 20
40.5
 30
0.0
 11
217.0
 21
40.5
 31
0.0
  0
LINE
  5
1D3
330
1F
100
AcDbEntity
  8
2
  6
DASH_CENTER
 62
     1
100
AcDbLine
 10
223.0
 20
0.0
 30
0.0
 11
175.0
 21
0.0
 31
0.0
  0
LINE
  5
1D4
330
1F
100
AcDbEntity
  8
2
  6
DASH_CENTER
 62
     1
100
AcDbLine
 10
200.0
 20
115.0
 30
0.0
 11
200.0
 21
-53.49999906
 31
0.0
  0
LINE
  5
1D5
330
1F
100
AcDbEntity
  8
100
  6
Continuous
 62
     3
100
AcDbLine
 10
195.6
 20
92.0
 30
0.0
 11
195.6
 21
74.0
 31
0.0
  0
LINE
  5
1D6
330
1F
100
AcDbEntity
  8
100
  6
Continuous
 62
     3
100
AcDbLine
 10
226.744017307768
 20
107.7856795241
 30
0.0
 11
213.226673878237
 21
111.892058752349
 31
0.0
  0
LINE
  5
1D7
330
1F
100
AcDbEntity
  8
100
  6
Continuous
 62
     3
100
AcDbLine
 10
231.0
 20
94.0
 30
0.0
 11
231.0
 21
102.044738518463
 31
0.0
  0
LINE
  5
1D8
330
1F
100
AcDbEntity
  8
100
  6
Continuous
 62
     3
100
AcDbLine
 10
171.0
 20
92.0
 30
0.0
 11
229.0
 21
92.0
 31
0.0
  0
LINE
  5
1D9
330
1F
100
AcDbEntity
  8
100
  6
Continuous
 62
     3
100
AcDbLine
 10
169.0
 20
94.0
 30
0.0
 11
169.0
 21
102.044738518463
 31
0.0
  0
LINE
  5
1DA
330
1F
100
AcDbEntity
  8
100
  6
Continuous
 62
     3
100
AcDbLine
 10
212.5
 20
112.0
 30
0.0
 11
187.128646181994
 21
112.0
 31
0.0
  0
LINE
  5
1DB
330
1F
100
AcDbEntity
  8
100
  6
Continuous
 62
     3
100
AcDbLine
 10
173.255982692232
 20
107.7856795241
 30
0.0
 11
186.773326121763
 21
111.892058752349
 31
0.0
  0
LINE
  5
1DC
330
1F
100
AcDbEntity
  8
100
  6
Continuous
 62
     3
100
AcDbLine
 10
217.0
 20
40.5
 30
0.0
 11
217.0
 21
43.0
 31
0.0
  0
LINE
  5
1DD
330
1F
100
AcDbEntity
  8
100
  6
Continuous
 62
     3
100
AcDbLine
 10
184.0
 20
44.0
 30
0.0
 11
216.0
 21
44.0
 31
0.0
  0
LINE
  5
1DE
330
1F
100
AcDbEntity
  8
100
  6
Continuous
 62
     3
100
AcDbLine
 10
183.0
 20
40.5
 30
0.0
 11
183.0
 21
43.0
 31
0.0
  0
LINE
  5
1DF
330
1F
100
AcDbEntity
  8
100
  6
Continuous
 62
     3
100
AcDbLine
 10
183.0
 20
-22.0
 30
0.0
 11
183.0
 21
-34.5
 31
0.0
  0
LINE
  5
1E0
330
1F
100
AcDbEntity
  8
100
  6
Continuous
 62
     3
100
AcDbLine
 10
217.0
 20
-22.0
 30
0.0
 11
217.0
 21
-34.5
 31
0.0
  0
LINE
  5
1E1
330
1F
100
AcDbEntity
  8
100
  6
Continuous
 62
     3
100
AcDbLine
 10
183.0
 20
-34.5
 30
0.0
 11
217.0
 21
-34.5
 31
0.0
  0
LINE
  5
1E2
330
1F
100
AcDbEntity
  8
100
  6
Continuous
 62
     3
100
AcDbLine
 10
217.0
 20
-22.0
 30
0.0
 11
183.0
 21
-22.0
 31
0.0
  0
LINE
  5
1E3
330
1F
100
AcDbEntity
  8
100
  6
Continuous
 62
     3
100
AcDbLine
 10
184.0
 20
40.5
 30
0.0
 11
216.0
 21
40.5
 31
0.0
  0
LINE
  5
1E4
330
1F
100
AcDbEntity
  8
1
  6
Continuous
 62
     3
100
AcDbLine
 10
-15.5884572681198
 20
58.0
 30
0.0
 11
15.5884572681194
 21
58.0
 31
0.0
  0
LINE
  5
1E5
330
1F
100
AcDbEntity
  8
100
  6
Continuous
 62
     3
100
AcDbLine
 10
-14.999999718
 20
-21.9999995864
 30
0.0
 11
-16.9999996804
 21
-21.9999995864
 31
0.0
  0
LINE
  5
1E6
330
1F
100
AcDbEntity
  8
3
  6
Continuous
 62
     3
100
AcDbLine
 10
-17.5
 20
3.0
 30
0.0
 11
-17.5
 21
11.0
 31
0.0
  0
LINE
  5
1E7
330
1F
100
AcDbEntity
  8
3
  6
Continuous
 62
     3
100
AcDbLine
 10
-17.5
 20
-11.0
 30
0.0
 11
-17.5
 21
-3.0
 31
0.0
  0
LINE
  5
1E8
330
1F
100
AcDbEntity
  8
3
  6
Continuous
 62
     3
100
AcDbLine
 10
17.4999999999994
 20
3.0
 30
0.0
 11
17.4999999999994
 21
11.0
 31
0.0
  0
LINE
  5
1E9
330
1F
100
AcDbEntity
  8
3
  6
Continuous
 62
     3
100
AcDbLine
 10
17.4999999999994
 20
-11.0
 30
0.0
 11
17.4999999999994
 21
-3.0
 31
0.0
  0
LINE
  5
1EA
330
1F
100
AcDbEntity
  8
3
  6
Continuous
 62
     3
100
AcDbLine
 10
-12.499999765
 20
-16.0
 30
0.0
 11
12.499999765
 21
-16.0
 31
0.0
  0
LINE
  5
1EB
330
1F
100
AcDbEntity
  8
3
  6
Continuous
 62
     3
100
AcDbLine
 10
-12.499999765
 20
16.0
 30
0.0
 11
12.499999765
 21
16.0
 31
0.0
  0
LINE
  5
1EC
330
1F
100
AcDbEntity
  8
3
  6
PHANTOM
 62
     6
100
AcDbLine
 10
-31.0
 20
83.5
 30
0.0
 11
-31.0
 21
91.544738518464
 31
0.0
  0
LINE
  5
1ED
330
1F
100
AcDbEntity
  8
3
  6
PHANTOM
 62
     6
100
AcDbLine
 10
-26.7440173077684
 20
97.2856795241
 30
0.0
 11
-13.2266738782368
 21
101.39205875235
 31
0.0
  0
LINE
  5
1EE
330
1F
100
AcDbEntity
  8
3
  6
Continuous
 62
     3
100
AcDbLine
 10
-15.5884572681198
 20
44.0
 30
0.0
 11
-15.5884572681198
 21
58.0
 31
0.0
  0
LINE
  5
1EF
330
1F
100
AcDbEntity
  8
3
  6
Continuous
 62
     3
100
AcDbLine
 10
15.5884572681194
 20
44.0
 30
0.0
 11
15.5884572681194
 21
58.0
 31
0.0
  0
LINE
  5
1F0
330
1F
100
AcDbEntity
  8
3
  6
Continuous
 62
     3
100
AcDbLine
 10
9.0
 20
72.0
 30
0.0
 11
9.0
 21
67.400073201234
 31
0.0
  0
LINE
  5
1F1
330
1F
100
AcDbEntity
  8
3
  6
Continuous
 62
     3
100
AcDbLine
 10
7.0
 20
74.0
 30
0.0
 11
-7.0
 21
74.0
 31
0.0
  0
LINE
  5
1F2
330
1F
100
AcDbEntity
  8
3
  6
Continuous
 62
     3
100
AcDbLine
 10
-9.0
 20
72.0
 30
0.0
 11
-9.0
 21
67.400073201234
 31
0.0
  0
LINE
  5
1F3
330
1F
100
AcDbEntity
  8
3
  6
Continuous
 62
     3
100
AcDbLine
 10
16.9999999999994
 20
-34.4999999999994
 30
0.0
 11
18.4999999999994
 21
-32.9999999999994
 31
0.0
  0
LINE
  5
1F4
330
1F
100
AcDbEntity
  8
3
  6
Continuous
 62
     3
100
AcDbLine
 10
-17.0
 20
-34.4999999999994
 30
0.0
 11
16.9999999999994
 21
-34.4999999999994
 31
0.0
  0
LINE
  5
1F5
330
1F
100
AcDbEntity
  8
3
  6
Continuous
 62
     3
100
AcDbLine
 10
-18.5
 20
-32.9999999999994
 30
0.0
 11
-17.0
 21
-34.4999999999994
 31
0.0
  0
LINE
  5
1F6
330
1F
100
AcDbEntity
  8
3
  6
Continuous
 62
     3
100
AcDbLine
 10
-18.5
 20
-23.4999999999994
 30
0.0
 11
-18.5
 21
-32.9999999999994
 31
0.0
  0
LINE
  5
1F7
330
1F
100
AcDbEntity
  8
3
  6
Continuous
 62
     3
100
AcDbLine
 10
-17.0
 20
-21.9999999999994
 30
0.0
 11
-18.5
 21
-23.4999999999994
 31
0.0
  0
LINE
  5
1F8
330
1F
100
AcDbEntity
  8
3
  6
Continuous
 62
     3
100
AcDbLine
 10
16.9999999999994
 20
-21.9999999999994
 30
0.0
 11
-17.0
 21
-21.9999999999994
 31
0.0
  0
LINE
  5
1F9
330
1F
100
AcDbEntity
  8
3
  6
Continuous
 62
     3
100
AcDbLine
 10
18.4999999999994
 20
-23.4999999999994
 30
0.0
 11
16.9999999999994
 21
-21.9999999999994
 31
0.0
  0
LINE
  5
1FA
330
1F
100
AcDbEntity
  8
3
  6
Continuous
 62
     3
100
AcDbLine
 10
18.4999999999994
 20
-32.9999999999994
 30
0.0
 11
18.4999999999994
 21
-23.4999999999994
 31
0.0
  0
LINE
  5
1FB
330
1F
100
AcDbEntity
  8
3
  6
Continuous
 62
     3
100
AcDbLine
 10
-10.8452994616208
 20
0.0
 30
0.0
 11
14.8452994616214
 21
0.0
 31
0.0
  0
LINE
  5
1FC
330
1F
100
AcDbEntity
  8
3
  6
Continuous
 62
     3
100
AcDbLine
 10
-10.8452994616208
 20
-1.0
 30
0.0
 11
-10.8452994616208
 21
0.0
 31
0.0
  0
LINE
  5
1FD
330
1F
100
AcDbEntity
  8
3
  6
Continuous
 62
     3
100
AcDbLine
 10
-13.1547005383792
 20
-5.0
 30
0.0
 11
-10.8452994616208
 21
-1.0
 31
0.0
  0
LINE
  5
1FE
330
1F
100
AcDbEntity
  8
3
  6
Continuous
 62
     3
100
AcDbLine
 10
-3.91709623134523
 20
-5.0
 30
0.0
 11
-13.1547005383792
 21
-5.0
 31
0.0
  0
LINE
  5
1FF
330
1F
100
AcDbEntity
  8
3
  6
Continuous
 62
     3
100
AcDbLine
 10
-1.60769515458685
 20
-1.0
 30
0.0
 11
-3.91709623134523
 21
-5.0
 31
0.0
  0
LINE
  5
200
330
1F
100
AcDbEntity
  8
3
  6
Continuous
 62
     3
100
AcDbLine
 10
10.3452994616214
 20
-1.0
 30
0.0
 11
-1.60769515458685
 21
-1.0
 31
0.0
  0
LINE
  5
201
330
1F
100
AcDbEntity
  8
3
  6
Continuous
 62
     3
100
AcDbLine
 10
8.88653149864956
 20
-5.0
 30
0.0
 11
10.3452994616214
 21
-1.0
 31
0.0
  0
LINE
  5
202
330
1F
100
AcDbEntity
  8
3
  6
Continuous
 62
     3
100
AcDbLine
 10
14.8452994616214
 20
0.0
 30
0.0
 11
8.88653149864956
 21
-5.0
 31
0.0
  0
LINE
  5
203
330
1F
100
AcDbEntity
  8
3
  6
Continuous
 62
     3
100
AcDbLine
 10
13.9999999999994
 20
27.0
 30
0.0
 11
-14.0
 21
27.0
 31
0.0
  0
LINE
  5
204
330
1F
100
AcDbEntity
  8
3
  6
Continuous
 62
     3
100
AcDbLine
 10
-16.0
 20
40.5
 30
0.0
 11
-16.0
 21
29.0
 31
0.0
  0
LINE
  5
205
330
1F
100
AcDbEntity
  8
3
  6
Continuous
 62
     3
100
AcDbLine
 10
15.9999999999994
 20
40.5
 30
0.0
 11
15.9999999999994
 21
29.0
 31
0.0
  0
LINE
  5
206
330
1F
100
AcDbEntity
  8
3
  6
Continuous
 62
     3
100
AcDbLine
 10
-16.0
 20
44.0
 30
0.0
 11
15.9999999999994
 21
44.0
 31
0.0
  0
LINE
  5
207
330
1F
100
AcDbEntity
  8
3
  6
Continuous
 62
     3
100
AcDbLine
 10
16.9999999999994
 20
40.5
 30
0.0
 11
16.9999999999994
 21
43.0
 31
0.0
  0
LINE
  5
208
330
1F
100
AcDbEntity
  8
3
  6
Continuous
 62
     3
100
AcDbLine
 10
-17.0
 20
40.5
 30
0.0
 11
-17.0
 21
43.0
 31
0.0
  0
LINE
  5
209
330
1F
100
AcDbEntity
  8
3
  6
Continuous
 62
     3
100
AcDbLine
 10
-31.0
 20
94.0
 30
0.0
 11
-31.0
 21
102.044738518464
 31
0.0
  0
LINE
  5
20A
330
1F
100
AcDbEntity
  8
3
  6
Continuous
 62
     3
100
AcDbLine
 10
-26.7440173077682
 20
107.7856795241
 30
0.0
 11
-13.2266738782368
 21
111.89205875235
 31
0.0
  0
LINE
  5
20B
330
1F
100
AcDbEntity
  8
3
  6
PHANTOM
 62
     6
100
AcDbLine
 10
12.4999999999994
 20
101.5
 30
0.0
 11
-12.5
 21
101.5
 31
0.0
  0
LINE
  5
20C
330
1F
100
AcDbEntity
  8
3
  6
PHANTOM
 62
     6
100
AcDbLine
 10
26.7440173077674
 20
97.2856795241
 30
0.0
 11
13.2266738782374
 21
101.39205875235
 31
0.0
  0
LINE
  5
20D
330
1F
100
AcDbEntity
  8
3
  6
PHANTOM
 62
     6
100
AcDbLine
 10
30.9999999999994
 20
83.5
 30
0.0
 11
30.9999999999994
 21
91.544738518464
 31
0.0
  0
LINE
  5
20E
330
1F
100
AcDbEntity
  8
3
  6
PHANTOM
 62
     6
100
AcDbLine
 10
-29.0
 20
81.5
 30
0.0
 11
28.9999999999994
 21
81.5
 31
0.0
  0
LINE
  5
20F
330
1F
100
AcDbEntity
  8
3
  6
Continuous
 62
     3
100
AcDbLine
 10
12.4999999999994
 20
112.0
 30
0.0
 11
-12.8713538180056
 21
112.0
 31
0.0
  0
LINE
  5
210
330
1F
100
AcDbEntity
  8
3
  6
Continuous
 62
     3
100
AcDbLine
 10
26.7440173077674
 20
107.7856795241
 30
0.0
 11
13.2266738782374
 21
111.89205875235
 31
0.0
  0
LINE
  5
211
330
1F
100
AcDbEntity
  8
3
  6
Continuous
 62
     3
100
AcDbLine
 10
30.9999999999994
 20
94.0
 30
0.0
 11
30.9999999999994
 21
102.044738518464
 31
0.0
  0
LINE
  5
212
330
1F
100
AcDbEntity
  8
3
  6
Continuous
 62
     3
100
AcDbLine
 10
-29.0
 20
92.0
 30
0.0
 11
28.9999999999994
 21
92.0
 31
0.0
  0
LINE
  5
213
330
1F
100
AcDbEntity
  8
3
  6
Continuous
 62
     3
100
AcDbLine
 10
-4.39999999999998
 20
92.0
 30
0.0
 11
-4.39999999999998
 21
74.0
 31
0.0
  0
LINE
  5
214
330
1F
100
AcDbEntity
  8
3
  6
Continuous
 62
     3
100
AcDbLine
 10
-17.0
 20
40.5
 30
0.0
 11
16.9999999999994
 21
40.5
 31
0.0
  0
LINE
  5
215
330
1F
100
AcDbEntity
  8
3
  6
Continuous
 62
     3
100
AcDbLine
 10
13.4999999999994
 20
40.5
 30
0.0
 11
14.9999999999994
 21
40.5
 31
0.0
  0
LINE
  5
216
330
1F
100
AcDbEntity
  8
3
  6
Continuous
 62
     3
100
AcDbLine
 10
-15.0
 20
40.5
 30
0.0
 11
-13.6
 21
40.5
 31
0.0
  0
LINE
  5
217
330
1F
100
AcDbEntity
  8
3
  6
DASH_CENTER
 62
     1
100
AcDbLine
 10
17.9999999999994
 20
0.0
 30
0.0
 11
37.999999342
 21
0.0
 31
0.0
  0
LINE
  5
218
330
1F
100
AcDbEntity
  8
3
  6
DASH_CENTER
 62
     1
100
AcDbLine
 10
-37.999999342
 20
0.0
 30
0.0
 11
-18.0
 21
0.0
 31
0.0
  0
LINE
  5
219
330
1F
100
AcDbEntity
  8
3
  6
DASH_CENTER
 62
     1
100
AcDbLine
 10
0.0
 20
-53.49999906
 30
0.0
 11
0.0
 21
115.0
 31
0.0
  0
LINE
  5
21A
330
1F
100
AcDbEntity
  8
1
  6
Continuous
 62
     3
100
AcDbLine
 10
-10.5
 20
-40.8999990599995
 30
0.0
 11
-10.3690476190476
 21
-49.2809514409523
 31
0.0
  0
LINE
  5
21B
330
1F
100
AcDbEntity
  8
2
  6
Continuous
 62
     3
100
AcDbLine
 10
-10.5000000000001
 20
-34.4999993514
 30
0.0
 11
-10.5
 21
-40.8999990599995
 31
0.0
  0
LINE
  5
21C
330
1F
100
AcDbEntity
  8
1
  6
Continuous
 62
     3
100
AcDbLine
 10
-9.1886031746032
 20
-50.4613958853968
 30
0.0
 11
-9.40567770019709
 21
-36.5686262473849
 31
0.0
  0
LINE
  5
21D
330
1F
100
AcDbEntity
  8
1
  6
Continuous
 62
     3
100
AcDbLine
 10
-10.3690476190476
 20
-49.2809514409523
 30
0.0
 11
-9.14999999999998
 21
-50.49999906
 31
0.0
  0
LINE
  5
21E
330
1F
100
AcDbEntity
  8
1
  6
Continuous
 62
     3
100
AcDbLine
 10
-10.5
 20
-36.5686262473849
 30
0.0
 11
0.0
 21
-36.5686262473849
 31
0.0
  0
LINE
  5
21F
330
1F
100
AcDbEntity
  8
1
  6
Continuous
 62
     3
100
AcDbLine
 10
0.0
 20
-36.5686262473849
 30
0.0
 11
10.5
 21
-36.5686262473849
 31
0.0
  0
LINE
  5
220
330
1F
100
AcDbEntity
  8
1
  6
Continuous
 62
     3
100
AcDbLine
 10
9.14999999999998
 20
-50.49999906
 30
0.0
 11
10.3690476190476
 21
-49.2809514409523
 31
0.0
  0
LINE
  5
221
330
1F
100
AcDbEntity
  8
1
  6
Continuous
 62
     3
100
AcDbLine
 10
10.3690476190476
 20
-49.2809514409523
 30
0.0
 11
10.5
 21
-40.8999990599995
 31
0.0
  0
LINE
  5
222
330
1F
100
AcDbEntity
  8
1
  6
Continuous
 62
     3
100
AcDbLine
 10
9.40567770019709
 20
-36.5686262473849
 30
0.0
 11
9.18860317460326
 21
-50.4613958853968
 31
0.0
  0
LINE
  5
223
330
1F
100
AcDbEntity
  8
2
  6
Continuous
 62
     3
100
AcDbLine
 10
0.0
 20
-50.49999906
 30
0.0
 11
-9.14999999999998
 21
-50.49999906
 31
0.0
  0
LINE
  5
224
330
1F
100
AcDbEntity
  8
2
  6
Continuous
 62
     3
100
AcDbLine
 10
10.5
 20
-40.8999990599995
 30
0.0
 11
10.5
 21
-34.4999993514
 31
0.0
  0
LINE
  5
225
330
1F
100
AcDbEntity
  8
2
  6
Continuous
 62
     3
100
AcDbLine
 10
9.14999999999998
 20
-50.49999906
 30
0.0
 11
0.0
 21
-50.49999906
 31
0.0
  0
LINE
  5
226
330
1F
100
AcDbEntity
  8
2
  6
DASH_CENTER
 62
     1
100
AcDbLine
 10
0.0
 20
210.111161852992
 30
0.0
 11
0.0
 21
136.439071422666
 31
0.0
  0
LINE
  5
227
330
1F
100
AcDbEntity
  8
1
  6
Continuous
 62
     4
100
AcDbLine
 10
10.4671874853125
 20
-43.0
 30
0.0
 11
15.37126538627559
 21
-44.65678579918998
 31
0.0
  0
LINE
  5
228
330
1F
100
AcDbEntity
  8
1
  6
Continuous
 62
     4
100
AcDbLine
 10
10.4671874853125
 20
-43.0
 30
0.0
 11
13.88585063008942
 21
-46.88685754120942
 31
0.0
  0
LINE
  5
229
330
1F
100
AcDbEntity
  8
1
  6
Continuous
 62
     4
100
AcDbLine
 10
28.0
 20
13.09999999999999
 30
0.0
 11
29.50299127924938
 21
18.02512217917626
 31
0.0
  0
LINE
  5
22A
330
1F
100
AcDbEntity
  8
1
  6
Continuous
 62
     4
100
AcDbLine
 10
28.0
 20
13.09999999999999
 30
0.0
 11
31.80550344023564
 21
16.65235070108147
 31
0.0
  0
LINE
  5
24D
330
1F
100
AcDbEntity
  8
1
  6
Continuous
 62
     3
100
AcDbLine
 10
-3.0
 20
11.0
 30
0.0
 11
-3.0
 21
2.0
 31
0.0
  0
LINE
  5
24E
330
1F
100
AcDbEntity
  8
1
  6
Continuous
 62
     3
100
AcDbLine
 10
188.0
 20
25.0
 30
0.0
 11
188.0
 21
16.936491673104
 31
0.0
  0
LINE
  5
24F
330
1F
100
AcDbEntity
  8
1
  6
Continuous
 62
     3
100
AcDbLine
 10
186.5
 20
15.0
 30
0.0
 11
186.5
 21
-15.67989116975571
 31
0.0
  0
LINE
  5
250
330
1F
100
AcDbEntity
  8
1
  6
Continuous
 62
     3
100
AcDbLine
 10
212.0
 20
25.0
 30
0.0
 11
212.0
 21
17.0
 31
0.0
  0
LINE
  5
251
330
1F
100
AcDbEntity
  8
1
  6
Continuous
 62
     3
100
AcDbLine
 10
213.5
 20
15.063508326896
 30
0.0
 11
213.5
 21
-15.65446441665318
 31
0.0
  0
LINE
  5
252
330
1F
100
AcDbEntity
  8
1
  6
Continuous
 62
     3
100
AcDbLine
 10
188.0
 20
-18.27796738110897
 30
0.0
 11
188.0
 21
-19.0
 31
0.0
  0
LINE
  5
253
330
1F
100
AcDbEntity
  8
1
  6
Continuous
 62
     3
100
AcDbLine
 10
212.0
 20
-19.0
 30
0.0
 11
212.0
 21
-18.27796738110897
 31
0.0
  0
LINE
  5
254
330
1F
100
AcDbEntity
  8
1
  6
Continuous
 62
     4
100
AcDbLine
 10
-27.0
 20
13.1
 30
0.0
 11
-30.6276596051627
 21
16.78848028894006
 31
0.0
  0
LINE
  5
255
330
1F
100
AcDbEntity
  8
1
  6
Continuous
 62
     4
100
AcDbLine
 10
-27.0
 20
13.1
 30
0.0
 11
-28.2988713716591
 21
18.11380692589333
 31
0.0
  0
LINE
  5
256
330
1F
100
AcDbEntity
  8
1
  6
Continuous
 62
     3
100
AcDbLine
 10
12.0
 20
25.0
 30
0.0
 11
12.0
 21
19.44491845277301
 31
0.0
  0
LINE
  5
257
330
1F
100
AcDbEntity
  8
1
  6
Continuous
 62
     3
100
AcDbLine
 10
16.31099030456403
 20
12.797101485931
 30
0.0
 11
13.314229298996
 21
16.06629531018601
 31
0.0
  0
LINE
  5
258
330
1F
100
AcDbEntity
  8
1
  6
Continuous
 62
     3
100
AcDbLine
 10
20.5
 20
13.09999999999999
 30
0.0
 11
31.30000000000001
 21
13.09999999999999
 31
0.0
  0
LINE
  5
259
330
1F
100
AcDbEntity
  8
1
  6
Continuous
 62
     3
100
AcDbLine
 10
19.53417419769971
 20
11.938
 30
0.0
 11
32.46199999999999
 21
11.938
 31
0.0
  0
LINE
  5
25A
330
1F
100
AcDbEntity
  8
1
  6
Continuous
 62
     3
100
AcDbLine
 10
31.30000000000001
 20
13.09999999999999
 30
0.0
 11
32.5
 21
11.90000000000001
 31
0.0
  0
LINE
  5
25B
330
1F
100
AcDbEntity
  8
1
  6
Continuous
 62
     3
100
AcDbLine
 10
32.5
 20
-11.90000000000001
 30
0.0
 11
32.5
 21
11.90000000000001
 31
0.0
  0
LINE
  5
25C
330
1F
100
AcDbEntity
  8
1
  6
Continuous
 62
     3
100
AcDbLine
 10
19.53417419769983
 20
-11.938
 30
0.0
 11
32.46199999999999
 21
-11.938
 31
0.0
  0
LINE
  5
25D
330
1F
100
AcDbEntity
  8
1
  6
Continuous
 62
     3
100
AcDbLine
 10
31.30000000000001
 20
-13.09999999999997
 30
0.0
 11
32.5
 21
-11.90000000000001
 31
0.0
  0
LINE
  5
25E
330
1F
100
AcDbEntity
  8
1
  6
Continuous
 62
     3
100
AcDbLine
 10
20.5
 20
-13.09999999999997
 30
0.0
 11
31.30000000000001
 21
-13.09999999999997
 31
0.0
  0
LINE
  5
25F
330
1F
100
AcDbEntity
  8
1
  6
Continuous
 62
     3
100
AcDbLine
 10
16.31099030456403
 20
-12.79710148593097
 30
0.0
 11
12.52569171959897
 21
-16.92651812407428
 31
0.0
  0
LINE
  5
260
330
1F
100
AcDbEntity
  8
1
  6
Continuous
 62
     3
100
AcDbLine
 10
12.0
 20
-18.27796738110897
 30
0.0
 11
12.0
 21
-19.0
 31
0.0
  0
LINE
  5
261
330
1F
100
AcDbEntity
  8
1
  6
Continuous
 62
     3
100
AcDbLine
 10
-12.0
 20
-18.27796738110897
 30
0.0
 11
-12.0
 21
-19.0
 31
0.0
  0
LINE
  5
262
330
1F
100
AcDbEntity
  8
1
  6
Continuous
 62
     3
100
AcDbLine
 10
-16.31099030456358
 20
-12.79710148593097
 30
0.0
 11
-12.52569171959851
 21
-16.92651812407428
 31
0.0
  0
LINE
  5
263
330
1F
100
AcDbEntity
  8
1
  6
Continuous
 62
     3
100
AcDbLine
 10
-32.46199999999999
 20
-11.938
 30
0.0
 11
-19.53417419770074
 21
-11.938
 31
0.0
  0
LINE
  5
264
330
1F
100
AcDbEntity
  8
1
  6
Continuous
 62
     3
100
AcDbLine
 10
-31.30000000000001
 20
-13.09999999999997
 30
0.0
 11
-20.42292689804651
 21
-13.09999999999997
 31
0.0
  0
LINE
  5
265
330
1F
100
AcDbEntity
  8
1
  6
Continuous
 62
     3
100
AcDbLine
 10
-31.30000000000001
 20
-13.09999999999997
 30
0.0
 11
-32.5
 21
-11.90000000000001
 31
0.0
  0
LINE
  5
266
330
1F
100
AcDbEntity
  8
1
  6
Continuous
 62
     3
100
AcDbLine
 10
-32.5
 20
-11.90000000000001
 30
0.0
 11
-32.5
 21
11.90000000000001
 31
0.0
  0
LINE
  5
267
330
1F
100
AcDbEntity
  8
1
  6
Continuous
 62
     3
100
AcDbLine
 10
-32.5
 20
11.90000000000001
 30
0.0
 11
-31.30000000000001
 21
13.09999999999999
 31
0.0
  0
LINE
  5
268
330
1F
100
AcDbEntity
  8
1
  6
Continuous
 62
     3
100
AcDbLine
 10
-19.53417419769949
 20
11.938
 30
0.0
 11
-32.46199999999999
 21
11.938
 31
0.0
  0
LINE
  5
269
330
1F
100
AcDbEntity
  8
1
  6
Continuous
 62
     3
100
AcDbLine
 10
-31.30000000000001
 20
13.09999999999999
 30
0.0
 11
-20.42292689804651
 21
13.09999999999999
 31
0.0
  0
LINE
  5
26A
330
1F
100
AcDbEntity
  8
1
  6
Continuous
 62
     3
100
AcDbLine
 10
-16.31099030456358
 20
12.797101485931
 30
0.0
 11
-13.31422929899628
 21
16.06629531018601
 31
0.0
  0
LINE
  5
26B
330
1F
100
AcDbEntity
  8
1
  6
Continuous
 62
     3
100
AcDbLine
 10
-12.0
 20
25.0
 30
0.0
 11
-12.0
 21
19.44491845277301
 31
0.0
  0
LINE
  5
26C
330
1F
100
AcDbEntity
  8
1
  6
Continuous
 62
     3
100
AcDbLine
 10
20.5
 20
13.09999999999999
 30
0.0
 11
20.5
 21
-13.09999999999997
 31
0.0
  0
LINE
  5
26D
330
1F
100
AcDbEntity
  8
1
  6
Continuous
 62
     3
100
AcDbLine
 10
-20.42292689804651
 20
13.09999999999999
 30
0.0
 11
-20.42292689804651
 21
-13.09999999999997
 31
0.0
  0
LINE
  5
26E
330
1F
100
AcDbEntity
  8
1
  6
Continuous
 62
     3
100
AcDbLine
 10
31.30000000000001
 20
161.9
 30
0.0
 11
32.5
 21
163.1
 31
0.0
  0
LINE
  5
26F
330
1F
100
AcDbEntity
  8
1
  6
Continuous
 62
     3
100
AcDbLine
 10
32.5
 20
163.1
 30
0.0
 11
32.5
 21
186.9
 31
0.0
  0
LINE
  5
270
330
1F
100
AcDbEntity
  8
1
  6
Continuous
 62
     3
100
AcDbLine
 10
31.30000000000001
 20
188.1
 30
0.0
 11
32.5
 21
186.9
 31
0.0
  0
LINE
  5
271
330
1F
100
AcDbEntity
  8
1
  6
Continuous
 62
     3
100
AcDbLine
 10
23.44235228777609
 20
188.1
 30
0.0
 11
31.30000000000001
 21
188.1
 31
0.0
  0
LINE
  5
272
330
1F
100
AcDbEntity
  8
1
  6
Continuous
 62
     3
100
AcDbLine
 10
23.51600227628345
 20
186.938
 30
0.0
 11
32.46199999999999
 21
186.938
 31
0.0
  0
LINE
  5
273
330
1F
100
AcDbEntity
  8
1
  6
Continuous
 62
     3
100
AcDbLine
 10
23.5160022762839
 20
163.062
 30
0.0
 11
32.46199999999999
 21
163.062
 31
0.0
  0
LINE
  5
274
330
1F
100
AcDbEntity
  8
1
  6
Continuous
 62
     3
100
AcDbLine
 10
23.44235228777653
 20
161.9
 30
0.0
 11
31.30000000000001
 21
161.9
 31
0.0
  0
LINE
  5
275
330
1F
100
AcDbEntity
  8
1
  6
Continuous
 62
     3
100
AcDbLine
 10
-32.5
 20
186.9
 30
0.0
 11
-31.30000000000001
 21
188.1
 31
0.0
  0
LINE
  5
276
330
1F
100
AcDbEntity
  8
1
  6
Continuous
 62
     3
100
AcDbLine
 10
-32.5
 20
163.1
 30
0.0
 11
-32.5
 21
186.9
 31
0.0
  0
LINE
  5
277
330
1F
100
AcDbEntity
  8
1
  6
Continuous
 62
     3
100
AcDbLine
 10
-31.30000000000001
 20
161.9
 30
0.0
 11
-32.5
 21
163.1
 31
0.0
  0
LINE
  5
278
330
1F
100
AcDbEntity
  8
1
  6
Continuous
 62
     3
100
AcDbLine
 10
-31.30000000000001
 20
188.1
 30
0.0
 11
-23.44235991717124
 21
188.1
 31
0.0
  0
LINE
  5
279
330
1F
100
AcDbEntity
  8
1
  6
Continuous
 62
     3
100
AcDbLine
 10
-23.5160099056786
 20
186.938
 30
0.0
 11
-32.46199999999999
 21
186.938
 31
0.0
  0
LINE
  5
27A
330
1F
100
AcDbEntity
  8
1
  6
Continuous
 62
     3
100
AcDbLine
 10
-32.46199999999999
 20
163.062
 30
0.0
 11
-23.5160099056782
 21
163.062
 31
0.0
  0
LINE
  5
27B
330
1F
100
AcDbEntity
  8
1
  6
Continuous
 62
     3
100
AcDbLine
 10
-31.30000000000001
 20
161.9
 30
0.0
 11
-23.44235991717084
 21
161.9
 31
0.0
  0
LINE
  5
27C
330
1F
100
AcDbEntity
  8
3
  6
Continuous
 62
     3
100
AcDbLine
 10
-11.07380198450397
 20
-34.4999999999994
 30
0.0
 11
-11.07380198450397
 21
-21.9999999999994
 31
0.0
  0
LINE
  5
27D
330
1F
100
AcDbEntity
  8
3
  6
Continuous
 62
     3
100
AcDbLine
 10
-7.29725975966321
 20
-34.4999999999994
 30
0.0
 11
-7.29725975966321
 21
-21.9999999999994
 31
0.0
  0
LINE
  5
27E
330
1F
100
AcDbEntity
  8
3
  6
Continuous
 62
     3
100
AcDbLine
 10
7.29725975966321
 20
-34.4999999999994
 30
0.0
 11
7.29725975966321
 21
-21.9999999999994
 31
0.0
  0
LINE
  5
27F
330
1F
100
AcDbEntity
  8
3
  6
Continuous
 62
     3
100
AcDbLine
 10
11.0738019845034
 20
-34.4999999999994
 30
0.0
 11
11.07380198450341
 21
-21.9999999999994
 31
0.0
  0
LINE
  5
280
330
1F
100
AcDbEntity
  8
3
  6
Continuous
 62
     3
100
AcDbLine
 10
-7.79422863406
 20
44.0
 30
0.0
 11
-7.79422863406
 21
58.0
 31
0.0
  0
LINE
  5
281
330
1F
100
AcDbEntity
  8
3
  6
Continuous
 62
     3
100
AcDbLine
 10
7.79422863406
 20
44.0
 30
0.0
 11
7.79422863406
 21
58.0
 31
0.0
  0
LINE
  5
282
330
1F
100
AcDbEntity
  8
1
  6
Continuous
 62
     3
100
AcDbLine
 10
200.0
 20
59.04842665698885
 30
0.0
 11
200.0
 21
44.0
 31
0.0
  0
LINE
  5
283
330
1F
100
AcDbEntity
  8
100
  6
Continuous
 62
     3
100
AcDbLine
 10
185.1803876701177
 20
-22.0
 30
0.0
 11
185.1803876701177
 21
-34.5
 31
0.0
  0
LINE
  5
284
330
1F
100
AcDbEntity
  8
100
  6
Continuous
 62
     3
100
AcDbLine
 10
197.8196123298823
 20
-22.0
 30
0.0
 11
197.8196123298823
 21
-34.5
 31
0.0
  0
LINE
  5
285
330
1F
100
AcDbEntity
  8
100
  6
Continuous
 62
     3
100
AcDbLine
 10
202.1803876701177
 20
-34.5
 30
0.0
 11
202.1803876701177
 21
-22.0
 31
0.0
  0
LINE
  5
286
330
1F
100
AcDbEntity
  8
100
  6
Continuous
 62
     3
100
AcDbLine
 10
214.8196123298823
 20
-34.5
 30
0.0
 11
214.8196123298823
 21
-22.0
 31
0.0
  0
ARC
  5
287
330
1F
100
AcDbEntity
  8
100
  6
Continuous
 62
     3
100
AcDbCircle
 10
181.0
 20
67.4000732012339
 30
0.0
 40
10.00000000000005
100
AcDbArc
 50
303.3670129692316
 51
0.0
  0
ARC
  5
288
330
1F
100
AcDbEntity
  8
100
  6
Continuous
 62
     3
100
AcDbCircle
 10
219.0
 20
67.4000732012339
 30
0.0
 40
10.0
100
AcDbArc
 50
180.0
 51
236.6329870307681
  0
ARC
  5
289
330
1F
100
AcDbEntity
  8
100
  6
Continuous
 62
     3
100
AcDbCircle
 10
212.5
 20
109.5
 30
0.0
 40
2.500000000000291
100
AcDbArc
 50
73.10195467180058
 51
90.0
  0
ARC
  5
28A
330
1F
100
AcDbEntity
  8
100
  6
Continuous
 62
     3
100
AcDbCircle
 10
225.0
 20
102.044738518463
 30
0.0
 40
6.0
100
AcDbArc
 50
0.0
 51
73.1019546718062
  0
ARC
  5
28B
330
1F
100
AcDbEntity
  8
100
  6
Continuous
 62
     3
100
AcDbCircle
 10
229.0
 20
94.0
 30
0.0
 40
2.0
100
AcDbArc
 50
270.0
 51
0.0
  0
ARC
  5
28C
330
1F
100
AcDbEntity
  8
100
  6
Continuous
 62
     3
100
AcDbCircle
 10
171.0
 20
94.0
 30
0.0
 40
2.0
100
AcDbArc
 50
180.0
 51
270.0
  0
ARC
  5
28D
330
1F
100
AcDbEntity
  8
100
  6
Continuous
 62
     3
100
AcDbCircle
 10
175.0
 20
102.044738518463
 30
0.0
 40
5.999999999999887
100
AcDbArc
 50
106.8980453281938
 51
180.0
  0
ARC
  5
28E
330
1F
100
AcDbEntity
  8
100
  6
Continuous
 62
     3
100
AcDbCircle
 10
187.5
 20
109.5
 30
0.0
 40
2.5
100
AcDbArc
 50
90.0
 51
106.8980453281994
  0
ARC
  5
28F
330
1F
100
AcDbEntity
  8
3
  6
CENTER
 62
     6
100
AcDbCircle
 10
-29.0
 20
83.5
 30
0.0
 40
2.0
100
AcDbArc
 50
180.0
 51
270.0
  0
ARC
  5
290
330
1F
100
AcDbEntity
  8
3
  6
PHANTOM
 62
     6
100
AcDbCircle
 10
-12.5
 20
99.0
 30
0.0
 40
2.5
100
AcDbArc
 50
90.0
 51
106.8980453281886
  0
ARC
  5
291
330
1F
100
AcDbEntity
  8
3
  6
PHANTOM
 62
     6
100
AcDbCircle
 10
-25.0
 20
91.544738518464
 30
0.0
 40
5.999999999999054
100
AcDbArc
 50
106.8980453282003
 51
180.0
  0
ARC
  5
292
330
1F
100
AcDbEntity
  8
3
  6
Continuous
 62
     3
100
AcDbCircle
 10
-19.0
 20
67.400073201234
 30
0.0
 40
10.00000000000011
100
AcDbArc
 50
289.9472142336069
 51
0.0
  0
ARC
  5
293
330
1F
100
AcDbEntity
  8
3
  6
Continuous
 62
     3
100
AcDbCircle
 10
18.9999999999994
 20
67.400073201234
 30
0.0
 40
9.9999999999994
100
AcDbArc
 50
180.0
 51
250.0527857663941
  0
ARC
  5
294
330
1F
100
AcDbEntity
  8
3
  6
Continuous
 62
     3
100
AcDbCircle
 10
7.0
 20
72.0
 30
0.0
 40
2.0
100
AcDbArc
 50
0.0
 51
90.0
  0
ARC
  5
295
330
1F
100
AcDbEntity
  8
3
  6
Continuous
 62
     3
100
AcDbCircle
 10
-7.0
 20
72.0
 30
0.0
 40
2.0
100
AcDbArc
 50
90.0
 51
180.0
  0
ARC
  5
296
330
1F
100
AcDbEntity
  8
3
  6
Continuous
 62
     3
100
AcDbCircle
 10
15.9999999999994
 20
43.0
 30
0.0
 40
1.0
100
AcDbArc
 50
0.0
 51
90.0
  0
ARC
  5
297
330
1F
100
AcDbEntity
  8
3
  6
Continuous
 62
     3
100
AcDbCircle
 10
-16.0
 20
43.0
 30
0.0
 40
1.0
100
AcDbArc
 50
90.0
 51
180.0
  0
ARC
  5
298
330
1F
100
AcDbEntity
  8
3
  6
Continuous
 62
     3
100
AcDbCircle
 10
13.9999999999994
 20
29.0
 30
0.0
 40
2.0
100
AcDbArc
 50
270.0
 51
0.0
  0
ARC
  5
299
330
1F
100
AcDbEntity
  8
3
  6
Continuous
 62
     3
100
AcDbCircle
 10
-14.0
 20
29.0
 30
0.0
 40
2.0
100
AcDbArc
 50
180.0
 51
270.0
  0
ARC
  5
29A
330
1F
100
AcDbEntity
  8
3
  6
Continuous
 62
     3
100
AcDbCircle
 10
-29.0
 20
94.0
 30
0.0
 40
2.0
100
AcDbArc
 50
180.0
 51
270.0
  0
ARC
  5
29B
330
1F
100
AcDbEntity
  8
3
  6
Continuous
 62
     3
100
AcDbCircle
 10
-25.0
 20
102.044738518464
 30
0.0
 40
5.999999999998996
100
AcDbArc
 50
106.8980453281985
 51
180.0
  0
ARC
  5
29C
330
1F
100
AcDbEntity
  8
3
  6
Continuous
 62
     3
100
AcDbCircle
 10
-12.5
 20
109.5
 30
0.0
 40
2.5
100
AcDbArc
 50
90.0
 51
106.8980453281886
  0
ARC
  5
29D
330
1F
100
AcDbEntity
  8
3
  6
PHANTOM
 62
     6
100
AcDbCircle
 10
12.4999999999994
 20
99.0
 30
0.0
 40
2.500000000001535
100
AcDbArc
 50
73.10195467178517
 51
90.0
  0
ARC
  5
29E
330
1F
100
AcDbEntity
  8
3
  6
PHANTOM
 62
     6
100
AcDbCircle
 10
24.9999999999994
 20
91.544738518464
 30
0.0
 40
6.0
100
AcDbArc
 50
0.0
 51
73.10195467180333
  0
ARC
  5
29F
330
1F
100
AcDbEntity
  8
3
  6
PHANTOM
 62
     6
100
AcDbCircle
 10
28.9999999999994
 20
83.5
 30
0.0
 40
2.0
100
AcDbArc
 50
270.0
 51
0.0
  0
ARC
  5
2A0
330
1F
100
AcDbEntity
  8
3
  6
Continuous
 62
     3
100
AcDbCircle
 10
12.4999999999994
 20
109.5
 30
0.0
 40
2.500000000001535
100
AcDbArc
 50
73.10195467178517
 51
90.0
  0
ARC
  5
2A1
330
1F
100
AcDbEntity
  8
3
  6
Continuous
 62
     3
100
AcDbCircle
 10
24.9999999999994
 20
102.044738518464
 30
0.0
 40
6.0
100
AcDbArc
 50
0.0
 51
73.10195467180333
  0
ARC
  5
2A2
330
1F
100
AcDbEntity
  8
3
  6
Continuous
 62
     3
100
AcDbCircle
 10
28.9999999999994
 20
94.0
 30
0.0
 40
2.0
100
AcDbArc
 50
270.0
 51
0.0
  0
ARC
  5
2A3
330
1F
100
AcDbEntity
  8
100
  6
Continuous
 62
     3
100
AcDbCircle
 10
16.9705589337798
 20
158.029437251523
 30
0.0
 40
7.000000000000168
100
AcDbArc
 50
254.7444772579391
 51
15.25552274205839
  0
ARC
  5
2A4
330
1F
100
AcDbEntity
  8
100
  6
Continuous
 62
     3
100
AcDbCircle
 10
31.4419884201729
 20
161.976300388287
 30
0.0
 40
8.000000000000133
100
AcDbArc
 50
119.7444772579379
 51
195.2555227420626
  0
ARC
  5
2A5
330
1F
100
AcDbEntity
  8
100
  6
Continuous
 62
     3
100
AcDbCircle
 10
23.9999961853028
 20
175.0
 30
0.0
 40
6.999999999999874
100
AcDbArc
 50
299.7444772579364
 51
60.25552274206282
  0
ARC
  5
2A6
330
1F
100
AcDbEntity
  8
100
  6
Continuous
 62
     3
100
AcDbCircle
 10
31.4419884201729
 20
188.023699611713
 30
0.0
 40
8.000000000000027
100
AcDbArc
 50
164.7444772579382
 51
240.2555227420627
  0
ARC
  5
2A7
330
1F
100
AcDbEntity
  8
100
  6
Continuous
 62
     3
100
AcDbCircle
 10
16.9705589337798
 20
191.970562748477
 30
0.0
 40
6.999999999999781
100
AcDbArc
 50
344.7444772579407
 51
105.2555227420601
  0
ARC
  5
2A8
330
1F
100
AcDbEntity
  8
100
  6
Continuous
 62
     3
100
AcDbCircle
 10
13.0236957970155
 20
206.441992234871
 30
0.0
 40
8.00000000000035
100
AcDbArc
 50
209.7444772579436
 51
285.2555227420614
  0
ARC
  5
2A9
330
1F
100
AcDbEntity
  8
100
  6
Continuous
 62
     3
100
AcDbCircle
 10
-13.0237034264102
 20
206.441992234871
 30
0.0
 40
8.000000000000576
100
AcDbArc
 50
254.7444772579399
 51
330.2555227420573
  0
ARC
  5
2AA
330
1F
100
AcDbEntity
  8
100
  6
Continuous
 62
     3
100
AcDbCircle
 10
-16.9705665631745
 20
191.970562748477
 30
0.0
 40
7.000000000000194
100
AcDbArc
 50
74.7444772579383
 51
195.2555227420584
  0
ARC
  5
2AB
330
1F
100
AcDbEntity
  8
100
  6
Continuous
 62
     3
100
AcDbCircle
 10
-31.4419960495678
 20
188.023699611713
 30
0.0
 40
8.000000000000181
100
AcDbArc
 50
299.7444772579385
 51
15.2555227420622
  0
ARC
  5
2AC
330
1F
100
AcDbEntity
  8
100
  6
Continuous
 62
     3
100
AcDbCircle
 10
-24.0000038146973
 20
175.0
 30
0.0
 40
7.000000000000022
100
AcDbArc
 50
119.7444772579386
 51
240.2555227420607
  0
ARC
  5
2AD
330
1F
100
AcDbEntity
  8
100
  6
Continuous
 62
     3
100
AcDbCircle
 10
-31.4419960495676
 20
161.976300388287
 30
0.0
 40
7.999999999999928
100
AcDbArc
 50
344.744477257938
 51
60.25552274206333
  0
ARC
  5
2AE
330
1F
100
AcDbEntity
  8
100
  6
Continuous
 62
     3
100
AcDbCircle
 10
-16.9705665631744
 20
158.029437251523
 30
0.0
 40
6.999999999999972
100
AcDbArc
 50
164.7444772579412
 51
285.2555227420593
  0
ARC
  5
2AF
330
1F
100
AcDbEntity
  8
100
  6
Continuous
 62
     3
100
AcDbCircle
 10
-13.0237034264102
 20
143.558007765129
 30
0.0
 40
8.000000000000497
100
AcDbArc
 50
29.74447725794303
 51
105.2555227420614
  0
ARC
  5
2B0
330
1F
100
AcDbEntity
  8
100
  6
Continuous
 62
     3
100
AcDbCircle
 10
-0.00000381469727
 20
151.0
 30
0.0
 40
6.9999999999999
100
AcDbArc
 50
209.7444772579373
 51
330.2555227420629
  0
ARC
  5
2B1
330
1F
100
AcDbEntity
  8
100
  6
Continuous
 62
     3
100
AcDbCircle
 10
13.0236957970155
 20
143.55800776513
 30
0.0
 40
7.999999999999642
100
AcDbArc
 50
74.74447725793738
 51
150.2555227420624
  0
ARC
  5
2B2
330
1F
100
AcDbEntity
  8
100
  6
Continuous
 62
     3
100
AcDbCircle
 10
-0.00000381469727
 20
199.0
 30
0.0
 40
6.999999999999909
100
AcDbArc
 50
29.74447725793729
 51
150.2555227420623
  0
ARC
  5
2B3
330
1F
100
AcDbEntity
  8
1
  6
Continuous
 62
     3
100
AcDbCircle
 10
214.0
 20
29.0
 30
0.0
 40
1.999999999999958
100
AcDbArc
 50
277.1807557814585
 51
0.0
  0
ARC
  5
2B4
330
1F
100
AcDbEntity
  8
1
  6
Continuous
 62
     3
100
AcDbCircle
 10
186.0
 20
29.0
 30
0.0
 40
2.0
100
AcDbArc
 50
180.0
 51
262.8192442185415
  0
ARC
  5
2B5
330
1F
100
AcDbEntity
  8
1
  6
Continuous
 62
     3
100
AcDbCircle
 10
216.0
 20
43.0
 30
0.0
 40
1.0
100
AcDbArc
 50
0.0
 51
90.0
  0
ARC
  5
2B6
330
1F
100
AcDbEntity
  8
1
  6
Continuous
 62
     3
100
AcDbCircle
 10
184.0
 20
43.0
 30
0.0
 40
1.0
100
AcDbArc
 50
90.0
 51
180.0
  0
ARC
  5
2BF
330
1F
100
AcDbEntity
  8
1
  6
Continuous
 62
     3
100
AcDbCircle
 10
186.0
 20
25.0
 30
0.0
 40
2.0
100
AcDbArc
 50
0.0
 51
90.0
  0
ARC
  5
2C0
330
1F
100
AcDbEntity
  8
1
  6
Continuous
 62
     3
100
AcDbCircle
 10
187.0
 20
16.936491673104
 30
0.0
 40
1.000000000000023
100
AcDbArc
 50
290.5295130670761
 51
0.0
  0
ARC
  5
2C1
330
1F
100
AcDbEntity
  8
1
  6
Continuous
 62
     3
100
AcDbCircle
 10
187.5
 20
15.0
 30
0.0
 40
1.000000000000142
100
AcDbArc
 50
104.4775121859278
 51
180.0
  0
ARC
  5
2C2
330
1F
100
AcDbEntity
  8
1
  6
Continuous
 62
     3
100
AcDbCircle
 10
214.0
 20
25.0
 30
0.0
 40
2.0
100
AcDbArc
 50
90.0
 51
180.0
  0
ARC
  5
2C3
330
1F
100
AcDbEntity
  8
1
  6
Continuous
 62
     3
100
AcDbCircle
 10
213.0
 20
16.936491673104
 30
0.0
 40
1.0
100
AcDbArc
 50
180.0
 51
255.5224878140722
  0
ARC
  5
2C4
330
1F
100
AcDbEntity
  8
1
  6
Continuous
 62
     3
100
AcDbCircle
 10
212.5
 20
15.0
 30
0.0
 40
1.0
100
AcDbArc
 50
0.0
 51
75.52248781407218
  0
ARC
  5
2C5
330
1F
100
AcDbEntity
  8
1
  6
Continuous
 62
     3
100
AcDbCircle
 10
187.5
 20
-15.67989116975571
 30
0.0
 40
1.0
100
AcDbArc
 50
180.0
 51
240.0000000000009
  0
ARC
  5
2C6
330
1F
100
AcDbEntity
  8
1
  6
Continuous
 62
     3
100
AcDbCircle
 10
186.0
 20
-18.27796738110897
 30
0.0
 40
2.0
100
AcDbArc
 50
0.0
 51
59.99999999999875
  0
ARC
  5
2C7
330
1F
100
AcDbEntity
  8
1
  6
Continuous
 62
     3
100
AcDbCircle
 10
214.0
 20
-18.27796738110897
 30
0.0
 40
1.999999999999924
100
AcDbArc
 50
120.0000000000013
 51
180.0
  0
ARC
  5
2C8
330
1F
100
AcDbEntity
  8
1
  6
Continuous
 62
     3
100
AcDbCircle
 10
212.5
 20
-15.67989116975571
 30
0.0
 40
1.000000000000027
100
AcDbArc
 50
299.9999999999991
 51
0.0
  0
ARC
  5
2C9
330
1F
100
AcDbEntity
  8
1
  6
Continuous
 62
     3
100
AcDbCircle
 10
185.0
 20
-19.0
 30
0.0
 40
3.0
100
AcDbArc
 50
270.0
 51
0.0
  0
ARC
  5
2CA
330
1F
100
AcDbEntity
  8
1
  6
Continuous
 62
     3
100
AcDbCircle
 10
215.0
 20
-19.0
 30
0.0
 40
3.0
100
AcDbArc
 50
180.0
 51
270.0
  0
ARC
  5
2CB
330
1F
100
AcDbEntity
  8
1
  6
Continuous
 62
     3
100
AcDbCircle
 10
14.0
 20
25.0
 30
0.0
 40
2.0
100
AcDbArc
 50
90.00000000001721
 51
180.0
  0
ARC
  5
2CC
330
1F
100
AcDbEntity
  8
1
  6
Continuous
 62
     3
100
AcDbCircle
 10
17.0
 20
19.44491845277301
 30
0.0
 40
5.0
100
AcDbArc
 50
180.0
 51
222.5104470780008
  0
ARC
  5
2CD
330
1F
100
AcDbEntity
  8
1
  6
Continuous
 62
     3
100
AcDbCircle
 10
19.25960686536701
 20
15.5
 30
0.0
 40
3.999999999999752
100
AcDbArc
 50
222.5104470779966
 51
247.6784926402127
  0
ARC
  5
2CE
330
1F
100
AcDbEntity
  8
1
  6
Continuous
 62
     3
100
AcDbCircle
 10
18.5
 20
13.64986556972499
 30
0.0
 40
1.999999999999487
100
AcDbArc
 50
247.6784926402073
 51
344.0419913791161
  0
ARC
  5
2CF
330
1F
100
AcDbEntity
  8
1
  6
Continuous
 62
     3
100
AcDbCircle
 10
18.5
 20
-13.64986556972497
 30
0.0
 40
1.999999999999453
100
AcDbArc
 50
15.9580086208839
 51
112.321507359793
  0
ARC
  5
2D0
330
1F
100
AcDbEntity
  8
1
  6
Continuous
 62
     3
100
AcDbCircle
 10
19.25960686536701
 20
-15.5
 30
0.0
 40
3.999999999999919
100
AcDbArc
 50
112.3215073597873
 51
137.4895529220031
  0
ARC
  5
2D1
330
1F
100
AcDbEntity
  8
1
  6
Continuous
 62
     3
100
AcDbCircle
 10
14.0
 20
-18.27796738110897
 30
0.0
 40
1.999999999999662
100
AcDbArc
 50
137.4895529219905
 51
180.0
  0
ARC
  5
2D2
330
1F
100
AcDbEntity
  8
1
  6
Continuous
 62
     3
100
AcDbCircle
 10
15.0
 20
-19.0
 30
0.0
 40
3.0
100
AcDbArc
 50
180.0
 51
270.0
  0
ARC
  5
2D3
330
1F
100
AcDbEntity
  8
1
  6
Continuous
 62
     3
100
AcDbCircle
 10
-15.0
 20
-19.0
 30
0.0
 40
3.0
100
AcDbArc
 50
270.0
 51
0.0
  0
ARC
  5
2D4
330
1F
100
AcDbEntity
  8
1
  6
Continuous
 62
     3
100
AcDbCircle
 10
-14.0
 20
-18.27796738110897
 30
0.0
 40
2.0
100
AcDbArc
 50
0.0
 51
42.51044707800061
  0
ARC
  5
2D5
330
1F
100
AcDbEntity
  8
1
  6
Continuous
 62
     3
100
AcDbCircle
 10
-19.25960686536661
 20
-15.5
 30
0.0
 40
3.999999999999809
100
AcDbArc
 50
42.51044707799646
 51
67.67849264022317
  0
ARC
  5
2D6
330
1F
100
AcDbEntity
  8
1
  6
Continuous
 62
     3
100
AcDbCircle
 10
-18.5
 20
-13.64986556972497
 30
0.0
 40
1.999999999999319
100
AcDbArc
 50
67.67849264021741
 51
164.0419913791201
  0
ARC
  5
2D7
330
1F
100
AcDbEntity
  8
1
  6
Continuous
 62
     3
100
AcDbCircle
 10
-18.5
 20
13.64986556972499
 30
0.0
 40
1.999999999999942
100
AcDbArc
 50
195.9580086208799
 51
292.3215073597823
  0
ARC
  5
2D8
330
1F
100
AcDbEntity
  8
1
  6
Continuous
 62
     3
100
AcDbCircle
 10
-19.25960686536661
 20
15.5
 30
0.0
 40
3.999999999999619
100
AcDbArc
 50
292.3215073597768
 51
317.4895529220038
  0
ARC
  5
2D9
330
1F
100
AcDbEntity
  8
1
  6
Continuous
 62
     3
100
AcDbCircle
 10
-17.0
 20
19.44491845277301
 30
0.0
 40
5.000000000000191
100
AcDbArc
 50
317.489552921997
 51
0.0
  0
ARC
  5
2DA
330
1F
100
AcDbEntity
  8
1
  6
Continuous
 62
     3
100
AcDbCircle
 10
-14.0
 20
25.0
 30
0.0
 40
2.0
100
AcDbArc
 50
0.0
 51
90.0
  0
CIRCLE
  5
2DB
330
1F
100
AcDbEntity
  8
100
  6
Continuous
 62
     3
100
AcDbCircle
 10
0.00000388179046
 20
175.0
 30
0.0
 40
10.00000000000004
  0
CIRCLE
  5
2DC
330
1F
100
AcDbEntity
  8
1
  6
Continuous
 62
     3
100
AcDbCircle
 10
200.0
 20
0.0
 30
0.0
 40
7.5
  0
CIRCLE
  5
2DD
330
1F
100
AcDbEntity
  8
1
  6
Continuous
 62
     3
100
AcDbCircle
 10
200.0
 20
0.0
 30
0.0
 40
11.93799999999999
  0
CIRCLE
  5
2DE
330
1F
100
AcDbEntity
  8
1
  6
Continuous
 62
     3
100
AcDbCircle
 10
200.0
 20
0.0
 30
0.0
 40
13.09999999999999
  0
ARC
  5
2DF
330
1F
100
AcDbEntity
  8
1
  6
Continuous
 62
     3
100
AcDbCircle
 10
193.0
 20
72.0
 30
0.0
 40
2.0
100
AcDbArc
 50
90.0
 51
180.0
  0
ARC
  5
2E0
330
1F
100
AcDbEntity
  8
1
  6
Continuous
 62
     3
100
AcDbCircle
 10
207.0
 20
72.0
 30
0.0
 40
2.0
100
AcDbArc
 50
0.0
 51
90.0
  0
LWPOLYLINE
  5
2E1
330
1F
100
AcDbEntity
  8
100
  6
Continuous
 62
     3
100
AcDbPolyline
 90
        4
 70
     0
 43
0.0
 10
222.05095597478
 20
92.0
 42
0.4142135623731
 10
224.05095597478
 20
94.0
 10
224.05095597478
 20
102.044738518463
 42
0.26230105055342
 10
221.159963834967
 20
107.1764117470781
  0
LWPOLYLINE
  5
2E2
330
1F
100
AcDbEntity
  8
100
  6
Continuous
 62
     3
100
AcDbPolyline
 90
        2
 70
     0
 43
0.0
 10
204.4
 20
74.0
 10
204.4
 20
92.0000006061333
  0
LWPOLYLINE
  5
2E3
330
1F
100
AcDbEntity
  8
100
  6
Continuous
 62
     3
100
AcDbPolyline
 90
        4
 70
     0
 43
0.0
 10
178.840036165033
 20
107.176411747079
 42
0.26230105055346
 10
175.9490440252201
 20
102.044738518463
 10
175.94904402522
 20
94.0
 42
0.4142135623731
 10
177.94904402522
 20
92.0
  0
LWPOLYLINE
  5
2E4
330
1F
100
AcDbEntity
  8
3
  6
Continuous
 62
     3
100
AcDbPolyline
 90
        4
 70
     0
 43
0.0
 10
22.0509559747794
 20
92.0
 42
0.4142135623731
 10
24.0509559747794
 20
94.0
 10
24.0509559747794
 20
102.044738518464
 42
0.26230105055337
 10
21.1599638349664
 20
107.1764117470782
  0
LWPOLYLINE
  5
2E5
330
1F
100
AcDbEntity
  8
3
  6
Continuous
 62
     3
100
AcDbPolyline
 90
        2
 70
     0
 43
0.0
 10
4.39999999999998
 20
74.0
 10
4.39999999999998
 20
92.000000606134
  0
LWPOLYLINE
  5
2E6
330
1F
100
AcDbEntity
  8
3
  6
Continuous
 62
     3
100
AcDbPolyline
 90
        4
 70
     0
 43
0.0
 10
-21.1599638349666
 20
107.17641174708
 42
0.26230105055339
 10
-24.05095597478082
 20
102.044738518464
 10
-24.05095597478
 20
94.0
 42
0.4142135623731
 10
-22.0509559747802
 20
92.0000000000002
  0
LWPOLYLINE
  5
2E7
330
1F
100
AcDbEntity
  8
3
  6
Continuous
 62
     3
100
AcDbPolyline
 90
        8
 70
     0
 43
0.0
 10
2.0
 20
15.743261940674
 10
3.64996321836304
 20
15.175407000232
 10
5.3570447381976
 20
14.285576057342
 10
7.12072098507883
 20
13.074073204294
 10
8.94168127364958
 20
11.54043619093
 10
10.7921903541994
 20
9.71448936080199
 10
12.7103852030134
 20
7.56468453961199
 10
16.9999999999994
 20
2.0
  0
LWPOLYLINE
  5
2E8
330
1F
100
AcDbEntity
  8
3
  6
Continuous
 62
     3
100
AcDbPolyline
 90
        8
 70
     0
 43
0.0
 10
-17.0
 20
2.0
 10
-12.7103852030178
 20
7.56468453961
 10
-10.7921903542034
 20
9.7144893608
 10
-8.94168127365197
 20
11.54043619093
 10
-7.12072098508042
 20
13.074073204294
 10
-5.35704473819897
 20
14.285576057344
 10
-3.64996321836384
 20
15.175407000232
 10
-2.0
 20
15.743261940674
  0
LWPOLYLINE
  5
2E9
330
1F
100
AcDbEntity
  8
3
  6
Continuous
 62
     3
100
AcDbPolyline
 90
        8
 70
     0
 43
0.0
 10
2.0
 20
-15.743261940672
 10
3.64996321836304
 20
-15.17540700023
 10
5.3570447381976
 20
-14.285576057342
 10
7.12072098507883
 20
-13.074073204292
 10
8.94168127364958
 20
-11.540436190928
 10
10.7921903541994
 20
-9.7144893608
 10
12.7103852030134
 20
-7.56468453961
 10
16.9999999999994
 20
-2.0
  0
LWPOLYLINE
  5
2EA
330
1F
100
AcDbEntity
  8
3
  6
Continuous
 62
     3
100
AcDbPolyline
 90
        8
 70
     0
 43
0.0
 10
-17.0
 20
-2.0
 10
-12.7103852030178
 20
-7.56468453961
 10
-10.7921903542034
 20
-9.7144893608
 10
-8.94168127365197
 20
-11.540436190928
 10
-7.12072098508042
 20
-13.074073204292
 10
-5.35704473819897
 20
-14.285576057342
 10
-3.64996321836384
 20
-15.17540700023
 10
-2.0
 20
-15.743261940674
  0
LEADER
  5
2EB
330
1F
100
AcDbEntity
  8
1
  6
Continuous
 62
     4
100
AcDbLeader
  3
Standard
 71
     0
 76
     3
 10
10.4671874853125
 20
-43.0
 30
0.0
 10
48.0
 20
-68.0
 30
0.0
 10
73.0
 20
-68.0
 30
0.0
  0
LEADER
  5
2EC
330
1F
100
AcDbEntity
  8
1
  6
Continuous
 62
     4
100
AcDbLeader
  3
Standard
 71
     0
 76
     3
 10
-27.0
 20
13.1
 30
0.0
 10
-48.0
 20
50.0
 30
0.0
 10
-78.0
 20
50.0
 30
0.0
  0
LEADER
  5
2ED
330
1F
100
AcDbEntity
  8
1
  6
Continuous
 62
     4
100
AcDbLeader
  3
Standard
 71
     0
 76
     3
 10
28.0
 20
13.09999999999999
 30
0.0
 10
50.0
 20
50.0
 30
0.0
 10
80.0
 20
50.0
 30
0.0
  0
ENDSEC
  0
SECTION
  2
OBJECTS
  0
DICTIONARY
  5
C
330
0
100
AcDbDictionary
281
     1
  3
ACAD_GROUP
350
D
  3
ACAD_LAYOUT
350
1A
  3
ACAD_MATERIAL
350
3B
  3
ACAD_MLEADERSTYLE
350
2F0
  3
ACAD_MLINESTYLE
350
17
  3
ACAD_PLOTSETTINGS
350
19
  3
ACAD_PLOTSTYLENAME
350
E
  3
ACAD_VISUALSTYLE
350
2A
  3
AcDbVariableDictionary
350
2EE
  0
DICTIONARY
  5
D
102
{ACAD_REACTORS
330
C
102
}
330
C
100
AcDbDictionary
281
     1
  0
DICTIONARY
  5
1A
102
{ACAD_REACTORS
330
C
102
}
330
C
100
AcDbDictionary
281
     1
  3
Layout1
350
1E
  3
Layout2
350
26
  3
Model
350
22
  0
DICTIONARY
  5
3B
102
{ACAD_REACTORS
330
C
102
}
330
C
100
AcDbDictionary
281
     1
  3
ByBlock
350
3D
  3
ByLayer
350
3C
  3
Global
350
3E
  0
DICTIONARY
  5
2F0
102
{ACAD_REACTORS
330
C
102
}
330
C
100
AcDbDictionary
281
     1
  0
DICTIONARY
  5
17
102
{ACAD_REACTORS
330
C
102
}
330
C
100
AcDbDictionary
281
     1
  3
Standard
350
18
  0
DICTIONARY
  5
19
102
{ACAD_REACTORS
330
C
102
}
330
C
100
AcDbDictionary
281
     1
  0
ACDBDICTIONARYWDFLT
  5
E
102
{ACAD_REACTORS
330
C
102
}
330
C
100
AcDbDictionary
281
     1
  3
Normal
350
F
100
AcDbDictionaryWithDefault
340
F
  0
DICTIONARY
  5
2A
102
{ACAD_REACTORS
330
C
102
}
330
C
100
AcDbDictionary
281
     1
  3
2dWireframe
350
2F
  3
3D Hidden
350
31
  3
3dWireframe
350
30
  3
Basic
350
32
  3
Brighten
350
36
  3
ColorChange
350
3A
  3
Conceptual
350
34
  3
Dim
350
35
  3
Facepattern
350
39
  3
Flat
350
2B
  3
FlatWithEdges
350
2C
  3
Gouraud
350
2D
  3
GouraudWithEdges
350
2E
  3
Linepattern
350
38
  3
Realistic
350
33
  3
Thicken
350
37
  0
DICTIONARY
  5
2EE
102
{ACAD_REACTORS
330
C
102
}
330
C
100
AcDbDictionary
281
     1
  3
DIMASSOC
350
2F1
  3
HIDETEXT
350
2F2
  0
LAYOUT
  5
1E
102
{ACAD_REACTORS
330
1A
102
}
330
1A
100
AcDbPlotSettings
  1

  2
none_device
  4

  6

 40
0.0
 41
0.0
 42
0.0
 43
0.0
 44
0.0
 45
0.0
 46
0.0
 47
0.0
 48
0.0
 49
0.0
140
0.0
141
0.0
142
1.0
143
1.0
 70
   688
 72
     0
 73
     0
 74
     5
  7

 75
    16
147
1.0
148
0.0
149
0.0
100
AcDbLayout
  1
Layout1
 70
     1
 71
     1
 10
0.0
 20
0.0
 11
12.0
 21
9.0
 12
0.0
 22
0.0
 32
0.0
 14
1.00000000000000E+20
 24
1.00000000000000E+20
 34
1.00000000000000E+20
 15
-1.00000000000000E+20
 25
-1.00000000000000E+20
 35
-1.00000000000000E+20
146
0.0
 13
0.0
 23
0.0
 33
0.0
 16
1.0
 26
0.0
 36
0.0
 17
0.0
 27
1.0
 37
0.0
 76
     0
330
1B
  0
LAYOUT
  5
26
102
{ACAD_REACTORS
330
1A
102
}
330
1A
100
AcDbPlotSettings
  1

  2
none_device
  4

  6

 40
0.0
 41
0.0
 42
0.0
 43
0.0
 44
0.0
 45
0.0
 46
0.0
 47
0.0
 48
0.0
 49
0.0
140
0.0
141
0.0
142
1.0
143
1.0
 70
   688
 72
     0
 73
     0
 74
     5
  7

 75
    16
147
1.0
148
0.0
149
0.0
100
AcDbLayout
  1
Layout2
 70
     1
 71
     2
 10
0.0
 20
0.0
 11
0.0
 21
0.0
 12
0.0
 22
0.0
 32
0.0
 14
0.0
 24
0.0
 34
0.0
 15
0.0
 25
0.0
 35
0.0
146
0.0
 13
0.0
 23
0.0
 33
0.0
 16
1.0
 26
0.0
 36
0.0
 17
0.0
 27
1.0
 37
0.0
 76
     0
330
23
  0
LAYOUT
  5
22
102
{ACAD_REACTORS
330
1A
102
}
330
1A
100
AcDbPlotSettings
  1

  2
none_device
  4

  6

 40
0.0
 41
0.0
 42
0.0
 43
0.0
 44
0.0
 45
0.0
 46
0.0
 47
0.0
 48
0.0
 49
0.0
140
0.0
141
0.0
142
1.0
143
1.0
 70
  1712
 72
     0
 73
     0
 74
     0
  7

 75
     0
147
1.0
148
0.0
149
0.0
100
AcDbLayout
  1
Model
 70
     1
 71
     0
 10
0.0
 20
0.0
 11
12.0
 21
9.0
 12
0.0
 22
0.0
 32
0.0
 14
-78.0
 24
-85.26666666666667
 34
0.0
 15
231.0
 25
247.0
 35
0.0
146
0.0
 13
0.0
 23
0.0
 33
0.0
 16
1.0
 26
0.0
 36
0.0
 17
0.0
 27
1.0
 37
0.0
 76
     0
330
1F
331
29
  0
MATERIAL
  5
3D
102
{ACAD_REACTORS
330
3B
102
}
102
{ACAD_XDICTIONARY
360
315
102
}
330
3B
100
AcDbMaterial
  1
ByBlock
  0
MATERIAL
  5
3C
102
{ACAD_REACTORS
330
3B
102
}
102
{ACAD_XDICTIONARY
360
313
102
}
330
3B
100
AcDbMaterial
  1
ByLayer
  0
MATERIAL
  5
3E
102
{ACAD_REACTORS
330
3B
102
}
102
{ACAD_XDICTIONARY
360
317
102
}
330
3B
100
AcDbMaterial
  1
Global
  0
MLINESTYLE
  5
18
102
{ACAD_REACTORS
330
17
102
}
330
17
100
AcDbMlineStyle
  2
Standard
 70
     0
  3

 62
   256
 51
90.0
 52
90.0
 71
     2
 49
0.5
 62
   256
  6
BYLAYER
 49
-0.5
 62
   256
  6
BYLAYER
  0
ACDBPLACEHOLDER
  5
F
102
{ACAD_REACTORS
330
E
102
}
330
E
  0
VISUALSTYLE
  5
2F
102
{ACAD_REACTORS
330
2A
102
}
102
{ACAD_XDICTIONARY
360
2FB
102
}
330
2A
100
AcDbVisualStyle
  2
2dWireframe
 70
     4
 71
     0
 72
     2
 73
     0
 90
        0
 40
-0.6
 41
-30.0
 62
     5
 63
     7
 74
     1
 91
        4
 64
     7
 65
   257
 75
     1
175
     1
 42
1.0
 92
        0
 66
   257
 43
1.0
 76
     1
 77
     6
 78
     2
 67
     7
 79
     5
170
     0
171
     0
290
     0
174
     0
 93
        1
 44
0.0
173
     0
291
     0
 45
0.0
1001
ACAD
1000
AcDbSavedByObjectVersion
1070
     0
  0
VISUALSTYLE
  5
31
102
{ACAD_REACTORS
330
2A
102
}
102
{ACAD_XDICTIONARY
360
2FF
102
}
330
2A
100
AcDbVisualStyle
  2
3D Hidden
 70
     6
 71
     1
 72
     2
 73
     2
 90
        0
 40
-0.6
 41
-30.0
 62
     5
 63
     7
 74
     2
 91
        2
 64
     7
 65
   257
 75
     2
175
     1
 42
40.0
 92
        0
 66
   257
 43
1.0
 76
     1
 77
     6
 78
     2
 67
     7
 79
     3
170
     0
171
     0
290
     0
174
     0
 93
        1
 44
0.0
173
     0
291
     0
 45
0.0
1001
ACAD
1000
AcDbSavedByObjectVersion
1070
     0
  0
VISUALSTYLE
  5
30
102
{ACAD_REACTORS
330
2A
102
}
102
{ACAD_XDICTIONARY
360
2FD
102
}
330
2A
100
AcDbVisualStyle
  2
3dWireframe
 70
     5
 71
     0
 72
     2
 73
     0
 90
        0
 40
-0.6
 41
-30.0
 62
     5
 63
     7
 74
     1
 91
        4
 64
     7
 65
   257
 75
     1
175
     1
 42
1.0
 92
        0
 66
   257
 43
1.0
 76
     1
 77
     6
 78
     2
 67
     7
 79
     5
170
     0
171
     0
290
     0
174
     0
 93
        1
 44
0.0
173
     0
291
     0
 45
0.0
1001
ACAD
1000
AcDbSavedByObjectVersion
1070
     0
  0
VISUALSTYLE
  5
32
102
{ACAD_REACTORS
330
2A
102
}
102
{ACAD_XDICTIONARY
360
301
102
}
330
2A
100
AcDbVisualStyle
  2
Basic
 70
     7
 71
     1
 72
     0
 73
     1
 90
        0
 40
-0.6
 41
-30.0
 62
     5
 63
     7
 74
     0
 91
        4
 64
     7
 65
   257
 75
     1
175
     1
 42
1.0
 92
        8
 66
     7
 43
1.0
 76
     1
 77
     6
 78
     2
 67
     7
 79
     5
170
     0
171
     0
290
     0
174
     0
 93
        1
 44
0.0
173
     0
291
     1
 45
0.0
1001
ACAD
1000
AcDbSavedByObjectVersion
1070
     0
  0
VISUALSTYLE
  5
36
102
{ACAD_REACTORS
330
2A
102
}
102
{ACAD_XDICTIONARY
360
309
102
}
330
2A
100
AcDbVisualStyle
  2
Brighten
 70
    12
 71
     2
 72
     2
 73
     0
 90
        0
 40
-0.6
 41
-30.0
 62
     5
 63
     7
 74
     1
 91
        4
 64
     7
 65
   257
 75
     1
175
     1
 42
1.0
 92
        8
 66
     7
 43
1.0
 76
     1
 77
     6
 78
     2
 67
     7
 79
     5
170
     0
171
     0
290
     0
174
     0
 93
        1
 44
50.0
173
     0
291
     1
 45
0.0
1001
ACAD
1000
AcDbSavedByObjectVersion
1070
     0
  0
VISUALSTYLE
  5
3A
102
{ACAD_REACTORS
330
2A
102
}
102
{ACAD_XDICTIONARY
360
311
102
}
330
2A
100
AcDbVisualStyle
  2
ColorChange
 70
    16
 71
     2
 72
     2
 73
     3
 90
        0
 40
-0.6
 41
-30.0
 62
     5
 63
     8
 74
     1
 91
        4
 64
     7
 65
   257
 75
     1
175
     1
 42
1.0
 92
        8
 66
     8
 43
1.0
 76
     1
 77
     6
 78
     2
 67
     7
 79
     5
170
     0
171
     0
290
     0
174
     0
 93
        1
 44
0.0
173
     0
291
     1
 45
0.0
1001
ACAD
1000
AcDbSavedByObjectVersion
1070
     0
  0
VISUALSTYLE
  5
34
102
{ACAD_REACTORS
330
2A
102
}
102
{ACAD_XDICTIONARY
360
305
102
}
330
2A
100
AcDbVisualStyle
  2
Conceptual
 70
     9
 71
     3
 72
     2
 73
     0
 90
        0
 40
-0.6
 41
-30.0
 62
     5
 63
     7
 74
     2
 91
        2
 64
     7
 65
   257
 75
     1
175
     1
 42
40.0
 92
        8
 66
     7
 43
1.0
 76
     1
 77
     6
 78
     2
 67
     7
 79
     3
170
     0
171
     0
290
     0
174
     0
 93
        1
 44
0.0
173
     0
291
     0
 45
0.0
1001
ACAD
1000
AcDbSavedByObjectVersion
1070
     0
  0
VISUALSTYLE
  5
35
102
{ACAD_REACTORS
330
2A
102
}
102
{ACAD_XDICTIONARY
360
307
102
}
330
2A
100
AcDbVisualStyle
  2
Dim
 70
    11
 71
     2
 72
     2
 73
     0
 90
        0
 40
-0.6
 41
-30.0
 62
     5
 63
     7
 74
     1
 91
        4
 64
     7
 65
   257
 75
     1
175
     1
 42
1.0
 92
        8
 66
     7
 43
1.0
 76
     1
 77
     6
 78
     2
 67
     7
 79
     5
170
     0
171
     0
290
     0
174
     0
 93
        1
 44
-50.0
173
     0
291
     1
 45
0.0
1001
ACAD
1000
AcDbSavedByObjectVersion
1070
     0
  0
VISUALSTYLE
  5
39
102
{ACAD_REACTORS
330
2A
102
}
102
{ACAD_XDICTIONARY
360
30F
102
}
330
2A
100
AcDbVisualStyle
  2
Facepattern
 70
    15
 71
     2
 72
     2
 73
     0
 90
        0
 40
-0.6
 41
-30.0
 62
     5
 63
     7
 74
     1
 91
        4
 64
     7
 65
   257
 75
     1
175
     1
 42
1.0
 92
        8
 66
     7
 43
1.0
 76
     1
 77
     6
 78
     2
 67
     7
 79
     5
170
     0
171
     0
290
     0
174
     0
 93
        1
 44
0.0
173
     0
291
     1
 45
0.0
1001
ACAD
1000
AcDbSavedByObjectVersion
1070
     0
  0
VISUALSTYLE
  5
2B
102
{ACAD_REACTORS
330
2A
102
}
102
{ACAD_XDICTIONARY
360
2F3
102
}
330
2A
100
AcDbVisualStyle
  2
Flat
 70
     0
 71
     2
 72
     1
 73
     1
 90
        2
 40
-0.6
 41
30.0
 62
     5
 63
     7
 74
     0
 91
        4
 64
     7
 65
   257
 75
     1
175
     1
 42
1.0
 92
        8
 66
     7
 43
1.0
 76
     1
 77
     6
 78
     2
 67
     7
 79
     5
170
     0
171
     0
290
     0
174
     0
 93
       13
 44
0.0
173
     0
291
     1
 45
0.0
1001
ACAD
1000
AcDbSavedByObjectVersion
1070
     0
  0
VISUALSTYLE
  5
2C
102
{ACAD_REACTORS
330
2A
102
}
102
{ACAD_XDICTIONARY
360
2F5
102
}
330
2A
100
AcDbVisualStyle
  2
FlatWithEdges
 70
     1
 71
     2
 72
     1
 73
     1
 90
        2
 40
-0.6
 41
30.0
 62
     5
 63
     7
 74
     1
 91
        4
 64
     7
 65
   257
 75
     1
175
     1
 42
1.0
 92
        0
 66
   257
 43
1.0
 76
     1
 77
     6
 78
     2
 67
     7
 79
     5
170
     0
171
     0
290
     0
174
     0
 93
       13
 44
0.0
173
     0
291
     1
 45
0.0
1001
ACAD
1000
AcDbSavedByObjectVersion
1070
     0
  0
VISUALSTYLE
  5
2D
102
{ACAD_REACTORS
330
2A
102
}
102
{ACAD_XDICTIONARY
360
2F7
102
}
330
2A
100
AcDbVisualStyle
  2
Gouraud
 70
     2
 71
     2
 72
     2
 73
     1
 90
        2
 40
-0.6
 41
30.0
 62
     5
 63
     7
 74
     0
 91
        4
 64
     7
 65
   257
 75
     1
175
     1
 42
1.0
 92
        0
 66
     7
 43
1.0
 76
     1
 77
     6
 78
     2
 67
     7
 79
     5
170
     0
171
     0
290
     0
174
     0
 93
       13
 44
0.0
173
     0
291
     1
 45
0.0
1001
ACAD
1000
AcDbSavedByObjectVersion
1070
     0
  0
VISUALSTYLE
  5
2E
102
{ACAD_REACTORS
330
2A
102
}
102
{ACAD_XDICTIONARY
360
2F9
102
}
330
2A
100
AcDbVisualStyle
  2
GouraudWithEdges
 70
     3
 71
     2
 72
     2
 73
     1
 90
        2
 40
-0.6
 41
30.0
 62
     5
 63
     7
 74
     1
 91
        4
 64
     7
 65
   257
 75
     1
175
     1
 42
1.0
 92
        0
 66
   257
 43
1.0
 76
     1
 77
     6
 78
     2
 67
     7
 79
     5
170
     0
171
     0
290
     0
174
     0
 93
       13
 44
0.0
173
     0
291
     1
 45
0.0
1001
ACAD
1000
AcDbSavedByObjectVersion
1070
     0
  0
VISUALSTYLE
  5
38
102
{ACAD_REACTORS
330
2A
102
}
102
{ACAD_XDICTIONARY
360
30D
102
}
330
2A
100
AcDbVisualStyle
  2
Linepattern
 70
    14
 71
     2
 72
     2
 73
     0
 90
        0
 40
-0.6
 41
-30.0
 62
     5
 63
     7
 74
     1
 91
        4
 64
     7
 65
   257
 75
     7
175
     7
 42
1.0
 92
        8
 66
     7
 43
1.0
 76
     1
 77
     6
 78
     2
 67
     7
 79
     5
170
     0
171
     0
290
     0
174
     0
 93
        1
 44
0.0
173
     0
291
     1
 45
0.0
1001
ACAD
1000
AcDbSavedByObjectVersion
1070
     0
  0
VISUALSTYLE
  5
33
102
{ACAD_REACTORS
330
2A
102
}
102
{ACAD_XDICTIONARY
360
303
102
}
330
2A
100
AcDbVisualStyle
  2
Realistic
 70
     8
 71
     2
 72
     2
 73
     0
 90
        0
 40
-0.6
 41
-30.0
 62
     5
 63
     7
 74
     1
 91
        0
 64
     7
 65
   257
 75
     1
175
     1
 42
1.0
 92
        8
 66
     8
 43
1.0
 76
     1
 77
     6
 78
     2
 67
     7
 79
     5
170
     0
171
     0
290
     0
174
     0
 93
       13
 44
0.0
173
     0
291
     0
 45
0.0
1001
ACAD
1000
AcDbSavedByObjectVersion
1070
     0
  0
VISUALSTYLE
  5
37
102
{ACAD_REACTORS
330
2A
102
}
102
{ACAD_XDICTIONARY
360
30B
102
}
330
2A
100
AcDbVisualStyle
  2
Thicken
 70
    13
 71
     2
 72
     2
 73
     0
 90
        0
 40
-0.6
 41
-30.0
 62
     5
 63
     7
 74
     1
 91
        4
 64
     7
 65
   257
 75
     1
175
     1
 42
1.0
 92
       12
 66
     7
 43
1.0
 76
     1
 77
     6
 78
     2
 67
     7
 79
     5
170
     0
171
     0
290
     0
174
     0
 93
        1
 44
0.0
173
     0
291
     1
 45
0.0
1001
ACAD
1000
AcDbSavedByObjectVersion
1070
     0
  0
DICTIONARYVAR
  5
2F1
102
{ACAD_REACTORS
330
2EE
102
}
330
2EE
100
DictionaryVariables
280
     0
  1
2
  0
DICTIONARYVAR
  5
2F2
102
{ACAD_REACTORS
330
2EE
102
}
330
2EE
100
DictionaryVariables
280
     0
  1
1
  0
DICTIONARY
  5
315
330
3D
100
AcDbDictionary
280
     1
281
     1
  3
ACAD_XREC_ROUNDTRIP
360
316
  0
DICTIONARY
  5
313
330
3C
100
AcDbDictionary
280
     1
281
     1
  3
ACAD_XREC_ROUNDTRIP
360
314
  0
DICTIONARY
  5
317
330
3E
100
AcDbDictionary
280
     1
281
     1
  3
ACAD_XREC_ROUNDTRIP
360
318
  0
DICTIONARY
  5
2FB
330
2F
100
AcDbDictionary
280
     1
281
     1
  3
ACAD_XREC_ROUNDTRIP
360
2FC
  0
DICTIONARY
  5
2FF
330
31
100
AcDbDictionary
280
     1
281
     1
  3
ACAD_XREC_ROUNDTRIP
360
300
  0
DICTIONARY
  5
2FD
330
30
100
AcDbDictionary
280
     1
281
     1
  3
ACAD_XREC_ROUNDTRIP
360
2FE
  0
DICTIONARY
  5
301
330
32
100
AcDbDictionary
280
     1
281
     1
  3
ACAD_XREC_ROUNDTRIP
360
302
  0
DICTIONARY
  5
309
330
36
100
AcDbDictionary
280
     1
281
     1
  3
ACAD_XREC_ROUNDTRIP
360
30A
  0
DICTIONARY
  5
311
330
3A
100
AcDbDictionary
280
     1
281
     1
  3
ACAD_XREC_ROUNDTRIP
360
312
  0
DICTIONARY
  5
305
330
34
100
AcDbDictionary
280
     1
281
     1
  3
ACAD_XREC_ROUNDTRIP
360
306
  0
DICTIONARY
  5
307
330
35
100
AcDbDictionary
280
     1
281
     1
  3
ACAD_XREC_ROUNDTRIP
360
308
  0
DICTIONARY
  5
30F
330
39
100
AcDbDictionary
280
     1
281
     1
  3
ACAD_XREC_ROUNDTRIP
360
310
  0
DICTIONARY
  5
2F3
330
2B
100
AcDbDictionary
280
     1
281
     1
  3
ACAD_XREC_ROUNDTRIP
360
2F4
  0
DICTIONARY
  5
2F5
330
2C
100
AcDbDictionary
280
     1
281
     1
  3
ACAD_XREC_ROUNDTRIP
360
2F6
  0
DICTIONARY
  5
2F7
330
2D
100
AcDbDictionary
280
     1
281
     1
  3
ACAD_XREC_ROUNDTRIP
360
2F8
  0
DICTIONARY
  5
2F9
330
2E
100
AcDbDictionary
280
     1
281
     1
  3
ACAD_XREC_ROUNDTRIP
360
2FA
  0
DICTIONARY
  5
30D
330
38
100
AcDbDictionary
280
     1
281
     1
  3
ACAD_XREC_ROUNDTRIP
360
30E
  0
DICTIONARY
  5
303
330
33
100
AcDbDictionary
280
     1
281
     1
  3
ACAD_XREC_ROUNDTRIP
360
304
  0
DICTIONARY
  5
30B
330
37
100
AcDbDictionary
280
     1
281
     1
  3
ACAD_XREC_ROUNDTRIP
360
30C
  0
XRECORD
  5
316
102
{ACAD_REACTORS
330
315
102
}
330
315
100
AcDbXrecord
280
     1
102
MATERIAL
148
0.0
149
0.0
149
0.0
 93
        0
 94
      127
282
     0
 72
     1
 77
     1
171
     1
175
     1
179
     1
273
     0
  0
XRECORD
  5
314
102
{ACAD_REACTORS
330
313
102
}
330
313
100
AcDbXrecord
280
     1
102
MATERIAL
148
0.0
149
0.0
149
0.0
 93
        0
 94
      127
282
     0
 72
     1
 77
     1
171
     1
175
     1
179
     1
273
     0
  0
XRECORD
  5
318
102
{ACAD_REACTORS
330
317
102
}
330
317
100
AcDbXrecord
280
     1
102
MATERIAL
148
0.0
149
0.0
149
0.0
 93
        0
 94
      127
282
     0
 72
     1
 77
     1
171
     1
175
     1
179
     1
273
     0
  0
XRECORD
  5
2FC
102
{ACAD_REACTORS
330
2FB
102
}
330
2FB
100
AcDbXrecord
280
     1
102
RTVSPropertyOp0
 70
     1
102
RTVSPropertyOp1
 70
     1
102
RTVSPropertyOp2
 70
     1
102
RTVSPropertyOp3
 70
     1
102
RTVSPropertyOp4
 70
     1
102
RTVSPropertyOp5
 70
     1
102
RTVSPropertyOp6
 70
     1
102
RTVSPropertyOp7
 70
     1
102
RTVSPropertyOp8
 70
     1
102
RTVSPropertyOp9
 70
     1
102
RTVSPropertyOp10
 70
     1
102
RTVSPropertyOp11
 70
     1
102
RTVSPropertyOp12
 70
     1
102
RTVSPropertyOp13
 70
     1
102
RTVSPropertyOp14
 70
     1
102
RTVSPropertyOp15
 70
     1
102
RTVSPropertyOp16
 70
     1
102
RTVSPropertyOp17
 70
     1
102
RTVSPropertyOp18
 70
     1
102
RTVSPropertyOp19
 70
     1
102
RTVSPropertyOp20
 70
     1
102
RTVSPropertyOp21
 70
     1
102
RTVSPropertyOp22
 70
     1
102
RTVSPropertyOp23
 70
     1
102
RTVSPropertyOp24
 70
     1
102
RTVSPropertyOp25
 70
     1
102
RTVSPropertyOp26
 70
     1
102
RTVSPropertyOp27
 70
     1
  0
XRECORD
  5
300
102
{ACAD_REACTORS
330
2FF
102
}
330
2FF
100
AcDbXrecord
280
     1
102
RTVSPropertyOp0
 70
     1
102
RTVSPropertyOp1
 70
     1
102
RTVSPropertyOp2
 70
     1
102
RTVSPropertyOp3
 70
     1
102
RTVSPropertyOp4
 70
     1
102
RTVSPropertyOp5
 70
     1
102
RTVSPropertyOp6
 70
     1
102
RTVSPropertyOp7
 70
     1
102
RTVSPropertyOp8
 70
     1
102
RTVSPropertyOp9
 70
     1
102
RTVSPropertyOp10
 70
     1
102
RTVSPropertyOp11
 70
     1
102
RTVSPropertyOp12
 70
     1
102
RTVSPropertyOp13
 70
     1
102
RTVSPropertyOp14
 70
     1
102
RTVSPropertyOp15
 70
     1
102
RTVSPropertyOp16
 70
     1
102
RTVSPropertyOp17
 70
     1
102
RTVSPropertyOp18
 70
     1
102
RTVSPropertyOp19
 70
     1
102
RTVSPropertyOp20
 70
     1
102
RTVSPropertyOp21
 70
     1
102
RTVSPropertyOp22
 70
     1
102
RTVSPropertyOp23
 70
     1
102
RTVSPropertyOp24
 70
     1
102
RTVSPropertyOp25
 70
     1
102
RTVSPropertyOp26
 70
     1
102
RTVSPropertyOp27
 70
     1
  0
XRECORD
  5
2FE
102
{ACAD_REACTORS
330
2FD
102
}
330
2FD
100
AcDbXrecord
280
     1
102
RTVSPropertyOp0
 70
     1
102
RTVSPropertyOp1
 70
     1
102
RTVSPropertyOp2
 70
     1
102
RTVSPropertyOp3
 70
     1
102
RTVSPropertyOp4
 70
     1
102
RTVSPropertyOp5
 70
     1
102
RTVSPropertyOp6
 70
     1
102
RTVSPropertyOp7
 70
     1
102
RTVSPropertyOp8
 70
     1
102
RTVSPropertyOp9
 70
     1
102
RTVSPropertyOp10
 70
     1
102
RTVSPropertyOp11
 70
     1
102
RTVSPropertyOp12
 70
     1
102
RTVSPropertyOp13
 70
     1
102
RTVSPropertyOp14
 70
     1
102
RTVSPropertyOp15
 70
     1
102
RTVSPropertyOp16
 70
     1
102
RTVSPropertyOp17
 70
     1
102
RTVSPropertyOp18
 70
     1
102
RTVSPropertyOp19
 70
     1
102
RTVSPropertyOp20
 70
     1
102
RTVSPropertyOp21
 70
     1
102
RTVSPropertyOp22
 70
     1
102
RTVSPropertyOp23
 70
     1
102
RTVSPropertyOp24
 70
     1
102
RTVSPropertyOp25
 70
     1
102
RTVSPropertyOp26
 70
     1
102
RTVSPropertyOp27
 70
     1
  0
XRECORD
  5
302
102
{ACAD_REACTORS
330
301
102
}
330
301
100
AcDbXrecord
280
     1
102
RTVSPropertyOp0
 70
     1
102
RTVSPropertyOp1
 70
     1
102
RTVSPropertyOp2
 70
     1
102
RTVSPropertyOp3
 70
     1
102
RTVSPropertyOp4
 70
     1
102
RTVSPropertyOp5
 70
     1
102
RTVSPropertyOp6
 70
     1
102
RTVSPropertyOp7
 70
     1
102
RTVSPropertyOp8
 70
     1
102
RTVSPropertyOp9
 70
     1
102
RTVSPropertyOp10
 70
     1
102
RTVSPropertyOp11
 70
     1
102
RTVSPropertyOp12
 70
     1
102
RTVSPropertyOp13
 70
     1
102
RTVSPropertyOp14
 70
     1
102
RTVSPropertyOp15
 70
     1
102
RTVSPropertyOp16
 70
     1
102
RTVSPropertyOp17
 70
     1
102
RTVSPropertyOp18
 70
     1
102
RTVSPropertyOp19
 70
     1
102
RTVSPropertyOp20
 70
     1
102
RTVSPropertyOp21
 70
     1
102
RTVSPropertyOp22
 70
     1
102
RTVSPropertyOp23
 70
     1
102
RTVSPropertyOp24
 70
     1
102
RTVSPropertyOp25
 70
     1
102
RTVSPropertyOp26
 70
     1
102
RTVSPropertyOp27
 70
     1
  0
XRECORD
  5
30A
102
{ACAD_REACTORS
330
309
102
}
330
309
100
AcDbXrecord
280
     1
102
RTVSPropertyOp0
 70
     1
102
RTVSPropertyOp1
 70
     1
102
RTVSPropertyOp2
 70
     1
102
RTVSPropertyOp3
 70
     1
102
RTVSPropertyOp4
 70
     1
102
RTVSPropertyOp5
 70
     1
102
RTVSPropertyOp6
 70
     1
102
RTVSPropertyOp7
 70
     1
102
RTVSPropertyOp8
 70
     1
102
RTVSPropertyOp9
 70
     1
102
RTVSPropertyOp10
 70
     1
102
RTVSPropertyOp11
 70
     1
102
RTVSPropertyOp12
 70
     1
102
RTVSPropertyOp13
 70
     1
102
RTVSPropertyOp14
 70
     1
102
RTVSPropertyOp15
 70
     1
102
RTVSPropertyOp16
 70
     1
102
RTVSPropertyOp17
 70
     1
102
RTVSPropertyOp18
 70
     1
102
RTVSPropertyOp19
 70
     1
102
RTVSPropertyOp20
 70
     1
102
RTVSPropertyOp21
 70
     1
102
RTVSPropertyOp22
 70
     1
102
RTVSPropertyOp23
 70
     1
102
RTVSPropertyOp24
 70
     1
102
RTVSPropertyOp25
 70
     1
102
RTVSPropertyOp26
 70
     1
102
RTVSPropertyOp27
 70
     1
  0
XRECORD
  5
312
102
{ACAD_REACTORS
330
311
102
}
330
311
100
AcDbXrecord
280
     1
102
RTVSPropertyOp0
 70
     1
102
RTVSPropertyOp1
 70
     1
102
RTVSPropertyOp2
 70
     1
102
RTVSPropertyOp3
 70
     1
102
RTVSPropertyOp4
 70
     1
102
RTVSPropertyOp5
 70
     1
102
RTVSPropertyOp6
 70
     1
102
RTVSPropertyOp7
 70
     1
102
RTVSPropertyOp8
 70
     1
102
RTVSPropertyOp9
 70
     1
102
RTVSPropertyOp10
 70
     1
102
RTVSPropertyOp11
 70
     1
102
RTVSPropertyOp12
 70
     1
102
RTVSPropertyOp13
 70
     1
102
RTVSPropertyOp14
 70
     1
102
RTVSPropertyOp15
 70
     1
102
RTVSPropertyOp16
 70
     1
102
RTVSPropertyOp17
 70
     1
102
RTVSPropertyOp18
 70
     1
102
RTVSPropertyOp19
 70
     1
102
RTVSPropertyOp20
 70
     1
102
RTVSPropertyOp21
 70
     1
102
RTVSPropertyOp22
 70
     1
102
RTVSPropertyOp23
 70
     1
102
RTVSPropertyOp24
 70
     1
102
RTVSPropertyOp25
 70
     1
102
RTVSPropertyOp26
 70
     1
102
RTVSPropertyOp27
 70
     1
  0
XRECORD
  5
306
102
{ACAD_REACTORS
330
305
102
}
330
305
100
AcDbXrecord
280
     1
102
RTVSPropertyOp0
 70
     1
102
RTVSPropertyOp1
 70
     1
102
RTVSPropertyOp2
 70
     1
102
RTVSPropertyOp3
 70
     1
102
RTVSPropertyOp4
 70
     1
102
RTVSPropertyOp5
 70
     1
102
RTVSPropertyOp6
 70
     1
102
RTVSPropertyOp7
 70
     1
102
RTVSPropertyOp8
 70
     1
102
RTVSPropertyOp9
 70
     1
102
RTVSPropertyOp10
 70
     1
102
RTVSPropertyOp11
 70
     1
102
RTVSPropertyOp12
 70
     1
102
RTVSPropertyOp13
 70
     1
102
RTVSPropertyOp14
 70
     1
102
RTVSPropertyOp15
 70
     1
102
RTVSPropertyOp16
 70
     1
102
RTVSPropertyOp17
 70
     1
102
RTVSPropertyOp18
 70
     1
102
RTVSPropertyOp19
 70
     1
102
RTVSPropertyOp20
 70
     1
102
RTVSPropertyOp21
 70
     1
102
RTVSPropertyOp22
 70
     1
102
RTVSPropertyOp23
 70
     1
102
RTVSPropertyOp24
 70
     1
102
RTVSPropertyOp25
 70
     1
102
RTVSPropertyOp26
 70
     1
102
RTVSPropertyOp27
 70
     1
  0
XRECORD
  5
308
102
{ACAD_REACTORS
330
307
102
}
330
307
100
AcDbXrecord
280
     1
102
RTVSPropertyOp0
 70
     1
102
RTVSPropertyOp1
 70
     1
102
RTVSPropertyOp2
 70
     1
102
RTVSPropertyOp3
 70
     1
102
RTVSPropertyOp4
 70
     1
102
RTVSPropertyOp5
 70
     1
102
RTVSPropertyOp6
 70
     1
102
RTVSPropertyOp7
 70
     1
102
RTVSPropertyOp8
 70
     1
102
RTVSPropertyOp9
 70
     1
102
RTVSPropertyOp10
 70
     1
102
RTVSPropertyOp11
 70
     1
102
RTVSPropertyOp12
 70
     1
102
RTVSPropertyOp13
 70
     1
102
RTVSPropertyOp14
 70
     1
102
RTVSPropertyOp15
 70
     1
102
RTVSPropertyOp16
 70
     1
102
RTVSPropertyOp17
 70
     1
102
RTVSPropertyOp18
 70
     1
102
RTVSPropertyOp19
 70
     1
102
RTVSPropertyOp20
 70
     1
102
RTVSPropertyOp21
 70
     1
102
RTVSPropertyOp22
 70
     1
102
RTVSPropertyOp23
 70
     1
102
RTVSPropertyOp24
 70
     1
102
RTVSPropertyOp25
 70
     1
102
RTVSPropertyOp26
 70
     1
102
RTVSPropertyOp27
 70
     1
  0
XRECORD
  5
310
102
{ACAD_REACTORS
330
30F
102
}
330
30F
100
AcDbXrecord
280
     1
102
RTVSPropertyOp0
 70
     1
102
RTVSPropertyOp1
 70
     1
102
RTVSPropertyOp2
 70
     1
102
RTVSPropertyOp3
 70
     1
102
RTVSPropertyOp4
 70
     1
102
RTVSPropertyOp5
 70
     1
102
RTVSPropertyOp6
 70
     1
102
RTVSPropertyOp7
 70
     1
102
RTVSPropertyOp8
 70
     1
102
RTVSPropertyOp9
 70
     1
102
RTVSPropertyOp10
 70
     1
102
RTVSPropertyOp11
 70
     1
102
RTVSPropertyOp12
 70
     1
102
RTVSPropertyOp13
 70
     1
102
RTVSPropertyOp14
 70
     1
102
RTVSPropertyOp15
 70
     1
102
RTVSPropertyOp16
 70
     1
102
RTVSPropertyOp17
 70
     1
102
RTVSPropertyOp18
 70
     1
102
RTVSPropertyOp19
 70
     1
102
RTVSPropertyOp20
 70
     1
102
RTVSPropertyOp21
 70
     1
102
RTVSPropertyOp22
 70
     1
102
RTVSPropertyOp23
 70
     1
102
RTVSPropertyOp24
 70
     1
102
RTVSPropertyOp25
 70
     1
102
RTVSPropertyOp26
 70
     1
102
RTVSPropertyOp27
 70
     1
  0
XRECORD
  5
2F4
102
{ACAD_REACTORS
330
2F3
102
}
330
2F3
100
AcDbXrecord
280
     1
102
RTVSPropertyOp0
 70
     1
102
RTVSPropertyOp1
 70
     1
102
RTVSPropertyOp2
 70
     1
102
RTVSPropertyOp3
 70
     1
102
RTVSPropertyOp4
 70
     1
102
RTVSPropertyOp5
 70
     1
102
RTVSPropertyOp6
 70
     1
102
RTVSPropertyOp7
 70
     1
102
RTVSPropertyOp8
 70
     1
102
RTVSPropertyOp9
 70
     1
102
RTVSPropertyOp10
 70
     1
102
RTVSPropertyOp11
 70
     1
102
RTVSPropertyOp12
 70
     1
102
RTVSPropertyOp13
 70
     1
102
RTVSPropertyOp14
 70
     1
102
RTVSPropertyOp15
 70
     1
102
RTVSPropertyOp16
 70
     1
102
RTVSPropertyOp17
 70
     1
102
RTVSPropertyOp18
 70
     1
102
RTVSPropertyOp19
 70
     1
102
RTVSPropertyOp20
 70
     1
102
RTVSPropertyOp21
 70
     1
102
RTVSPropertyOp22
 70
     1
102
RTVSPropertyOp23
 70
     1
102
RTVSPropertyOp24
 70
     1
102
RTVSPropertyOp25
 70
     1
102
RTVSPropertyOp26
 70
     1
102
RTVSPropertyOp27
 70
     1
  0
XRECORD
  5
2F6
102
{ACAD_REACTORS
330
2F5
102
}
330
2F5
100
AcDbXrecord
280
     1
102
RTVSPropertyOp0
 70
     1
102
RTVSPropertyOp1
 70
     1
102
RTVSPropertyOp2
 70
     1
102
RTVSPropertyOp3
 70
     1
102
RTVSPropertyOp4
 70
     1
102
RTVSPropertyOp5
 70
     1
102
RTVSPropertyOp6
 70
     1
102
RTVSPropertyOp7
 70
     1
102
RTVSPropertyOp8
 70
     1
102
RTVSPropertyOp9
 70
     1
102
RTVSPropertyOp10
 70
     1
102
RTVSPropertyOp11
 70
     1
102
RTVSPropertyOp12
 70
     1
102
RTVSPropertyOp13
 70
     1
102
RTVSPropertyOp14
 70
     1
102
RTVSPropertyOp15
 70
     1
102
RTVSPropertyOp16
 70
     1
102
RTVSPropertyOp17
 70
     1
102
RTVSPropertyOp18
 70
     1
102
RTVSPropertyOp19
 70
     1
102
RTVSPropertyOp20
 70
     1
102
RTVSPropertyOp21
 70
     1
102
RTVSPropertyOp22
 70
     1
102
RTVSPropertyOp23
 70
     1
102
RTVSPropertyOp24
 70
     1
102
RTVSPropertyOp25
 70
     1
102
RTVSPropertyOp26
 70
     1
102
RTVSPropertyOp27
 70
     1
  0
XRECORD
  5
2F8
102
{ACAD_REACTORS
330
2F7
102
}
330
2F7
100
AcDbXrecord
280
     1
102
RTVSPropertyOp0
 70
     1
102
RTVSPropertyOp1
 70
     1
102
RTVSPropertyOp2
 70
     1
102
RTVSPropertyOp3
 70
     1
102
RTVSPropertyOp4
 70
     1
102
RTVSPropertyOp5
 70
     1
102
RTVSPropertyOp6
 70
     1
102
RTVSPropertyOp7
 70
     1
102
RTVSPropertyOp8
 70
     1
102
RTVSPropertyOp9
 70
     1
102
RTVSPropertyOp10
 70
     1
102
RTVSPropertyOp11
 70
     1
102
RTVSPropertyOp12
 70
     1
102
RTVSPropertyOp13
 70
     1
102
RTVSPropertyOp14
 70
     1
102
RTVSPropertyOp15
 70
     1
102
RTVSPropertyOp16
 70
     1
102
RTVSPropertyOp17
 70
     1
102
RTVSPropertyOp18
 70
     1
102
RTVSPropertyOp19
 70
     1
102
RTVSPropertyOp20
 70
     1
102
RTVSPropertyOp21
 70
     1
102
RTVSPropertyOp22
 70
     1
102
RTVSPropertyOp23
 70
     1
102
RTVSPropertyOp24
 70
     1
102
RTVSPropertyOp25
 70
     1
102
RTVSPropertyOp26
 70
     1
102
RTVSPropertyOp27
 70
     1
  0
XRECORD
  5
2FA
102
{ACAD_REACTORS
330
2F9
102
}
330
2F9
100
AcDbXrecord
280
     1
102
RTVSPropertyOp0
 70
     1
102
RTVSPropertyOp1
 70
     1
102
RTVSPropertyOp2
 70
     1
102
RTVSPropertyOp3
 70
     1
102
RTVSPropertyOp4
 70
     1
102
RTVSPropertyOp5
 70
     1
102
RTVSPropertyOp6
 70
     1
102
RTVSPropertyOp7
 70
     1
102
RTVSPropertyOp8
 70
     1
102
RTVSPropertyOp9
 70
     1
102
RTVSPropertyOp10
 70
     1
102
RTVSPropertyOp11
 70
     1
102
RTVSPropertyOp12
 70
     1
102
RTVSPropertyOp13
 70
     1
102
RTVSPropertyOp14
 70
     1
102
RTVSPropertyOp15
 70
     1
102
RTVSPropertyOp16
 70
     1
102
RTVSPropertyOp17
 70
     1
102
RTVSPropertyOp18
 70
     1
102
RTVSPropertyOp19
 70
     1
102
RTVSPropertyOp20
 70
     1
102
RTVSPropertyOp21
 70
     1
102
RTVSPropertyOp22
 70
     1
102
RTVSPropertyOp23
 70
     1
102
RTVSPropertyOp24
 70
     1
102
RTVSPropertyOp25
 70
     1
102
RTVSPropertyOp26
 70
     1
102
RTVSPropertyOp27
 70
     1
  0
XRECORD
  5
30E
102
{ACAD_REACTORS
330
30D
102
}
330
30D
100
AcDbXrecord
280
     1
102
RTVSPropertyOp0
 70
     1
102
RTVSPropertyOp1
 70
     1
102
RTVSPropertyOp2
 70
     1
102
RTVSPropertyOp3
 70
     1
102
RTVSPropertyOp4
 70
     1
102
RTVSPropertyOp5
 70
     1
102
RTVSPropertyOp6
 70
     1
102
RTVSPropertyOp7
 70
     1
102
RTVSPropertyOp8
 70
     1
102
RTVSPropertyOp9
 70
     1
102
RTVSPropertyOp10
 70
     1
102
RTVSPropertyOp11
 70
     1
102
RTVSPropertyOp12
 70
     1
102
RTVSPropertyOp13
 70
     1
102
RTVSPropertyOp14
 70
     1
102
RTVSPropertyOp15
 70
     1
102
RTVSPropertyOp16
 70
     1
102
RTVSPropertyOp17
 70
     1
102
RTVSPropertyOp18
 70
     1
102
RTVSPropertyOp19
 70
     1
102
RTVSPropertyOp20
 70
     1
102
RTVSPropertyOp21
 70
     1
102
RTVSPropertyOp22
 70
     1
102
RTVSPropertyOp23
 70
     1
102
RTVSPropertyOp24
 70
     1
102
RTVSPropertyOp25
 70
     1
102
RTVSPropertyOp26
 70
     1
102
RTVSPropertyOp27
 70
     1
  0
XRECORD
  5
304
102
{ACAD_REACTORS
330
303
102
}
330
303
100
AcDbXrecord
280
     1
102
RTVSPropertyOp0
 70
     1
102
RTVSPropertyOp1
 70
     1
102
RTVSPropertyOp2
 70
     1
102
RTVSPropertyOp3
 70
     1
102
RTVSPropertyOp4
 70
     1
102
RTVSPropertyOp5
 70
     1
102
RTVSPropertyOp6
 70
     1
102
RTVSPropertyOp7
 70
     1
102
RTVSPropertyOp8
 70
     1
102
RTVSPropertyOp9
 70
     1
102
RTVSPropertyOp10
 70
     1
102
RTVSPropertyOp11
 70
     1
102
RTVSPropertyOp12
 70
     1
102
RTVSPropertyOp13
 70
     1
102
RTVSPropertyOp14
 70
     1
102
RTVSPropertyOp15
 70
     1
102
RTVSPropertyOp16
 70
     1
102
RTVSPropertyOp17
 70
     1
102
RTVSPropertyOp18
 70
     1
102
RTVSPropertyOp19
 70
     1
102
RTVSPropertyOp20
 70
     1
102
RTVSPropertyOp21
 70
     1
102
RTVSPropertyOp22
 70
     1
102
RTVSPropertyOp23
 70
     1
102
RTVSPropertyOp24
 70
     1
102
RTVSPropertyOp25
 70
     1
102
RTVSPropertyOp26
 70
     1
102
RTVSPropertyOp27
 70
     1
  0
XRECORD
  5
30C
102
{ACAD_REACTORS
330
30B
102
}
330
30B
100
AcDbXrecord
280
     1
102
RTVSPropertyOp0
 70
     1
102
RTVSPropertyOp1
 70
     1
102
RTVSPropertyOp2
 70
     1
102
RTVSPropertyOp3
 70
     1
102
RTVSPropertyOp4
 70
     1
102
RTVSPropertyOp5
 70
     1
102
RTVSPropertyOp6
 70
     1
102
RTVSPropertyOp7
 70
     1
102
RTVSPropertyOp8
 70
     1
102
RTVSPropertyOp9
 70
     1
102
RTVSPropertyOp10
 70
     1
102
RTVSPropertyOp11
 70
     1
102
RTVSPropertyOp12
 70
     1
102
RTVSPropertyOp13
 70
     1
102
RTVSPropertyOp14
 70
     1
102
RTVSPropertyOp15
 70
     1
102
RTVSPropertyOp16
 70
     1
102
RTVSPropertyOp17
 70
     1
102
RTVSPropertyOp18
 70
     1
102
RTVSPropertyOp19
 70
     1
102
RTVSPropertyOp20
 70
     1
102
RTVSPropertyOp21
 70
     1
102
RTVSPropertyOp22
 70
     1
102
RTVSPropertyOp23
 70
     1
102
RTVSPropertyOp24
 70
     1
102
RTVSPropertyOp25
 70
     1
102
RTVSPropertyOp26
 70
     1
102
RTVSPropertyOp27
 70
     1
  0
ENDSEC
  0
EOF
