  0
SECTION
  2
HEADER
  9
$ACADVER
  1
AC1015
  9
$ACADMAINTVER
 70
     6
  9
$DWGCODEPAGE
  3
ANSI_932
  9
$INSBASE
 10
0.0
 20
0.0
 30
0.0
  9
$EXTMIN
 10
-211.0
 20
-119.036887370042
 30
0.0
  9
$EXTMAX
 10
224.837903540621
 20
389.0
 30
0.0
  9
$LIMMIN
 10
0.0
 20
0.0
  9
$LIMMAX
 10
12.0
 20
9.0
  9
$ORTHOMODE
 70
     0
  9
$REGENMODE
 70
     1
  9
$FILLMODE
 70
     1
  9
$QTEXTMODE
 70
     0
  9
$MIRRTEXT
 70
     1
  9
$LTSCALE
 40
1.0
  9
$ATTMODE
 70
     1
  9
$TEXTSIZE
 40
0.2
  9
$TRACEWID
 40
0.05
  9
$TEXTSTYLE
  7
Standard
  9
$CLAYER
  8
0
  9
$CELTYPE
  6
ByLayer
  9
$CECOLOR
 62
   256
  9
$CELTSCALE
 40
1.0
  9
$DISPSILH
 70
     0
  9
$DIMSCALE
 40
1.0
  9
$DIMASZ
 40
0.18
  9
$DIMEXO
 40
0.0625
  9
$DIMDLI
 40
0.38
  9
$DIMRND
 40
0.0
  9
$DIMDLE
 40
0.0
  9
$DIMEXE
 40
0.18
  9
$DIMTP
 40
0.0
  9
$DIMTM
 40
0.0
  9
$DIMTXT
 40
0.18
  9
$DIMCEN
 40
0.09
  9
$DIMTSZ
 40
0.0
  9
$DIMTOL
 70
     0
  9
$DIMLIM
 70
     0
  9
$DIMTIH
 70
     1
  9
$DIMTOH
 70
     1
  9
$DIMSE1
 70
     0
  9
$DIMSE2
 70
     0
  9
$DIMTAD
 70
     0
  9
$DIMZIN
 70
     0
  9
$DIMBLK
  1

  9
$DIMASO
 70
     1
  9
$DIMSHO
 70
     1
  9
$DIMPOST
  1

  9
$DIMAPOST
  1

  9
$DIMALT
 70
     0
  9
$DIMALTD
 70
     2
  9
$DIMALTF
 40
25.4
  9
$DIMLFAC
 40
1.0
  9
$DIMTOFL
 70
     0
  9
$DIMTVP
 40
0.0
  9
$DIMTIX
 70
     0
  9
$DIMSOXD
 70
     0
  9
$DIMSAH
 70
     0
  9
$DIMBLK1
  1

  9
$DIMBLK2
  1

  9
$DIMSTYLE
  2
Standard
  9
$DIMCLRD
 70
     0
  9
$DIMCLRE
 70
     0
  9
$DIMCLRT
 70
     0
  9
$DIMTFAC
 40
1.0
  9
$DIMGAP
 40
0.09
  9
$DIMJUST
 70
     0
  9
$DIMSD1
 70
     0
  9
$DIMSD2
 70
     0
  9
$DIMTOLJ
 70
     1
  9
$DIMTZIN
 70
     0
  9
$DIMALTZ
 70
     0
  9
$DIMALTTZ
 70
     0
  9
$DIMUPT
 70
     0
  9
$DIMDEC
 70
     4
  9
$DIMTDEC
 70
     4
  9
$DIMALTU
 70
     2
  9
$DIMALTTD
 70
     2
  9
$DIMTXSTY
  7
Standard
  9
$DIMAUNIT
 70
     0
  9
$DIMADEC
 70
     0
  9
$DIMALTRND
 40
0.0
  9
$DIMAZIN
 70
     0
  9
$DIMDSEP
 70
    46
  9
$DIMATFIT
 70
     3
  9
$DIMFRAC
 70
     0
  9
$DIMLDRBLK
  1

  9
$DIMLUNIT
 70
     2
  9
$DIMLWD
 70
    -2
  9
$DIMLWE
 70
    -2
  9
$DIMTMOVE
 70
     0
  9
$LUNITS
 70
     2
  9
$LUPREC
 70
     4
  9
$SKETCHINC
 40
0.1
  9
$FILLETRAD
 40
0.5
  9
$AUNITS
 70
     0
  9
$AUPREC
 70
     0
  9
$MENU
  1
.
  9
$ELEVATION
 40
0.0
  9
$PELEVATION
 40
0.0
  9
$THICKNESS
 40
0.0
  9
$LIMCHECK
 70
     0
  9
$CHAMFERA
 40
0.5
  9
$CHAMFERB
 40
0.5
  9
$CHAMFERC
 40
1.0
  9
$CHAMFERD
 40
0.0
  9
$SKPOLY
 70
     0
  9
$TDCREATE
 40
2457624.696484456
  9
$TDUCREATE
 40
2457624.321484456
  9
$TDUPDATE
 40
2457624.696484467
  9
$TDUUPDATE
 40
2457624.321484467
  9
$TDINDWG
 40
0.0000000116
  9
$TDUSRTIMER
 40
0.0000000116
  9
$USRTIMER
 70
     1
  9
$ANGBASE
 50
0.0
  9
$ANGDIR
 70
     0
  9
$PDMODE
 70
     0
  9
$PDSIZE
 40
0.0
  9
$PLINEWID
 40
0.0
  9
$SPLFRAME
 70
     0
  9
$SPLINETYPE
 70
     6
  9
$SPLINESEGS
 70
     8
  9
$HANDSEED
  5
686
  9
$SURFTAB1
 70
     6
  9
$SURFTAB2
 70
     6
  9
$SURFTYPE
 70
     6
  9
$SURFU
 70
     6
  9
$SURFV
 70
     6
  9
$UCSBASE
  2

  9
$UCSNAME
  2

  9
$UCSORG
 10
0.0
 20
0.0
 30
0.0
  9
$UCSXDIR
 10
1.0
 20
0.0
 30
0.0
  9
$UCSYDIR
 10
0.0
 20
1.0
 30
0.0
  9
$UCSORTHOREF
  2

  9
$UCSORTHOVIEW
 70
     0
  9
$UCSORGTOP
 10
0.0
 20
0.0
 30
0.0
  9
$UCSORGBOTTOM
 10
0.0
 20
0.0
 30
0.0
  9
$UCSORGLEFT
 10
0.0
 20
0.0
 30
0.0
  9
$UCSORGRIGHT
 10
0.0
 20
0.0
 30
0.0
  9
$UCSORGFRONT
 10
0.0
 20
0.0
 30
0.0
  9
$UCSORGBACK
 10
0.0
 20
0.0
 30
0.0
  9
$PUCSBASE
  2

  9
$PUCSNAME
  2

  9
$PUCSORG
 10
0.0
 20
0.0
 30
0.0
  9
$PUCSXDIR
 10
1.0
 20
0.0
 30
0.0
  9
$PUCSYDIR
 10
0.0
 20
1.0
 30
0.0
  9
$PUCSORTHOREF
  2

  9
$PUCSORTHOVIEW
 70
     0
  9
$PUCSORGTOP
 10
0.0
 20
0.0
 30
0.0
  9
$PUCSORGBOTTOM
 10
0.0
 20
0.0
 30
0.0
  9
$PUCSORGLEFT
 10
0.0
 20
0.0
 30
0.0
  9
$PUCSORGRIGHT
 10
0.0
 20
0.0
 30
0.0
  9
$PUCSORGFRONT
 10
0.0
 20
0.0
 30
0.0
  9
$PUCSORGBACK
 10
0.0
 20
0.0
 30
0.0
  9
$USERI1
 70
     0
  9
$USERI2
 70
     0
  9
$USERI3
 70
     0
  9
$USERI4
 70
     0
  9
$USERI5
 70
     0
  9
$USERR1
 40
18.0
  9
$USERR2
 40
0.0
  9
$USERR3
 40
0.0
  9
$USERR4
 40
0.0
  9
$USERR5
 40
0.0
  9
$WORLDVIEW
 70
     1
  9
$SHADEDGE
 70
     3
  9
$SHADEDIF
 70
    70
  9
$TILEMODE
 70
     1
  9
$MAXACTVP
 70
    64
  9
$PINSBASE
 10
0.0
 20
0.0
 30
0.0
  9
$PLIMCHECK
 70
     0
  9
$PEXTMIN
 10
1.00000000000000E+20
 20
1.00000000000000E+20
 30
1.00000000000000E+20
  9
$PEXTMAX
 10
-1.00000000000000E+20
 20
-1.00000000000000E+20
 30
-1.00000000000000E+20
  9
$PLIMMIN
 10
0.0
 20
0.0
  9
$PLIMMAX
 10
12.0
 20
9.0
  9
$UNITMODE
 70
     0
  9
$VISRETAIN
 70
     1
  9
$PLINEGEN
 70
     0
  9
$PSLTSCALE
 70
     1
  9
$TREEDEPTH
 70
  3020
  9
$CMLSTYLE
  2
Standard
  9
$CMLJUST
 70
     0
  9
$CMLSCALE
 40
1.0
  9
$PROXYGRAPHICS
 70
     1
  9
$MEASUREMENT
 70
     1
  9
$CELWEIGHT
370
    -1
  9
$ENDCAPS
280
     0
  9
$JOINSTYLE
280
     0
  9
$LWDISPLAY
290
     0
  9
$INSUNITS
 70
     1
  9
$HYPERLINKBASE
  1

  9
$STYLESHEET
  1

  9
$XEDIT
290
     1
  9
$CEPSNTYPE
380
     0
  9
$PSTYLEMODE
290
     1
  9
$FINGERPRINTGUID
  2
{55D82897-3D32-49C8-B6DB-908BEA7C22C1}
  9
$VERSIONGUID
  2
{FAEB1C32-E019-11D5-929B-00C0DF256EC4}
  9
$EXTNAMES
290
     1
  9
$PSVPSCALE
 40
0.0
  9
$OLESTARTUP
290
     0
  0
ENDSEC
  0
SECTION
  2
CLASSES
  0
CLASS
  1
ACDBDICTIONARYWDFLT
  2
AcDbDictionaryWithDefault
  3
ObjectDBX Classes
 90
        0
280
     0
281
     0
  0
CLASS
  1
VISUALSTYLE
  2
AcDbVisualStyle
  3
ObjectDBX Classes
 90
     4095
280
     0
281
     0
  0
CLASS
  1
MATERIAL
  2
AcDbMaterial
  3
ObjectDBX Classes
 90
     1153
280
     0
281
     0
  0
CLASS
  1

  2
exOdDbCircle
  3

 90
        0
280
     0
281
     1
  0
CLASS
  1

  2
exOdDbPolyline
  3

 90
        0
280
     0
281
     1
  0
CLASS
  1
DICTIONARYVAR
  2
AcDbDictionaryVar
  3
ObjectDBX Classes
 90
        0
280
     0
281
     0
  0
CLASS
  1
ACDBPLACEHOLDER
  2
AcDbPlaceHolder
  3
ObjectDBX Classes
 90
        0
280
     0
281
     0
  0
CLASS
  1
LAYOUT
  2
AcDbLayout
  3
ObjectDBX Classes
 90
        0
280
     0
281
     0
  0
ENDSEC
  0
SECTION
  2
TABLES
  0
TABLE
  2
VPORT
  5
8
330
0
100
AcDbSymbolTable
 70
     1
  0
VPORT
  5
29
330
8
100
AcDbSymbolTableRecord
100
AcDbViewportTableRecord
  2
*Active
 70
     0
 10
0.0
 20
0.0
 11
1.0
 21
1.0
 12
6.9189517703105
 22
134.981556314979
 13
0.0
 23
0.0
 14
0.5
 24
0.5
 15
0.5
 25
0.5
 16
0.0
 26
0.0
 36
1.0
 17
0.0
 27
0.0
 37
0.0
 40
558.8405761070462
 41
1.60267857142857
 42
50.0
 43
0.0
 44
0.0
 50
0.0
 51
0.0
 71
     0
 72
   100
 73
     1
 74
     3
 75
     0
 76
     0
 77
     0
 78
     0
281
     0
 65
     1
110
0.0
120
0.0
130
0.0
111
1.0
121
0.0
131
0.0
112
0.0
122
1.0
132
0.0
 79
     0
146
0.0
  0
ENDTAB
  0
TABLE
  2
LTYPE
  5
5
330
0
100
AcDbSymbolTable
 70
     9
  0
LTYPE
  5
14
330
5
100
AcDbSymbolTableRecord
100
AcDbLinetypeTableRecord
  2
ByBlock
 70
     0
  3

 72
    65
 73
     0
 40
0.0
  0
LTYPE
  5
15
330
5
100
AcDbSymbolTableRecord
100
AcDbLinetypeTableRecord
  2
ByLayer
 70
     0
  3

 72
    65
 73
     0
 40
0.0
  0
LTYPE
  5
16
330
5
100
AcDbSymbolTableRecord
100
AcDbLinetypeTableRecord
  2
Continuous
 70
     0
  3
Solid line
 72
    65
 73
     0
 40
0.0
  0
LTYPE
  5
3F
330
5
100
AcDbSymbolTableRecord
100
AcDbLinetypeTableRecord
  2
DASHED
 70
     0
  3
Dashed
 72
    65
 73
     2
 40
15.0
 49
7.0
 74
     0
 49
-8.0
 74
     0
  0
LTYPE
  5
40
330
5
100
AcDbSymbolTableRecord
100
AcDbLinetypeTableRecord
  2
DOTTED
 70
     0
  3
Dotted
 72
    65
 73
     2
 40
1.0
 49
0.0
 74
     0
 49
-1.0
 74
     0
  0
LTYPE
  5
41
330
5
100
AcDbSymbolTableRecord
100
AcDbLinetypeTableRecord
  2
DOT_CENTER
 70
     0
  3
Dot_Center
 72
    65
 73
     4
 40
14.0
 49
12.0
 74
     0
 49
-1.0
 74
     0
 49
0.0
 74
     0
 49
-1.0
 74
     0
  0
LTYPE
  5
42
330
5
100
AcDbSymbolTableRecord
100
AcDbLinetypeTableRecord
  2
LONG_DASHED
 70
     0
  3
Long_Dashed
 72
    65
 73
     2
 40
15.0
 49
10.0
 74
     0
 49
-5.0
 74
     0
  0
LTYPE
  5
43
330
5
100
AcDbSymbolTableRecord
100
AcDbLinetypeTableRecord
  2
DASH_CENTER
 70
     0
  3
Dash_Center
 72
    65
 73
     4
 40
14.0
 49
11.0
 74
     0
 49
-1.0
 74
     0
 49
1.0
 74
     0
 49
-1.0
 74
     0
  0
LTYPE
  5
44
330
5
100
AcDbSymbolTableRecord
100
AcDbLinetypeTableRecord
  2
PHANTOM
 70
     0
  3
Phantom
 72
    65
 73
     6
 40
13.0
 49
10.0
 74
     0
 49
-1.0
 74
     0
 49
0.0
 74
     0
 49
-1.0
 74
     0
 49
0.0
 74
     0
 49
-1.0
 74
     0
  0
LTYPE
  5
45
330
5
100
AcDbSymbolTableRecord
100
AcDbLinetypeTableRecord
  2
CENTER_DASH_DASH
 70
     0
  3
Center_Dash_Dash
 72
    65
 73
     6
 40
14.0
 49
9.0
 74
     0
 49
-1.0
 74
     0
 49
1.0
 74
     0
 49
-1.0
 74
     0
 49
1.0
 74
     0
 49
-1.0
 74
     0
  0
LTYPE
  5
46
330
5
100
AcDbSymbolTableRecord
100
AcDbLinetypeTableRecord
  2
CENTER
 70
     0
  3
CENTER
 72
    65
 73
     4
 40
6.0
 49
3.0
 74
     0
 49
-1.0
 74
     0
 49
1.0
 74
     0
 49
-1.0
 74
     0
  0
ENDTAB
  0
TABLE
  2
LAYER
  5
2
330
0
100
AcDbSymbolTable
 70
     4
  0
LAYER
  5
10
330
2
100
AcDbSymbolTableRecord
100
AcDbLayerTableRecord
  2
0
 70
     0
 62
     7
  6
Continuous
370
    -3
390
F
  0
LAYER
  5
47
330
2
100
AcDbSymbolTableRecord
100
AcDbLayerTableRecord
  2
1
 70
     0
 62
     7
  6
Continuous
370
    -3
390
F
  0
LAYER
  5
48
330
2
100
AcDbSymbolTableRecord
100
AcDbLayerTableRecord
  2
100
 70
     0
 62
     7
  6
Continuous
370
    -3
390
F
  0
LAYER
  5
49
330
2
100
AcDbSymbolTableRecord
100
AcDbLayerTableRecord
  2
2
 70
     0
 62
     7
  6
Continuous
370
    -3
390
F
  0
ENDTAB
  0
TABLE
  2
STYLE
  5
3
330
0
100
AcDbSymbolTable
 70
     1
  0
STYLE
  5
11
330
3
100
AcDbSymbolTableRecord
100
AcDbTextStyleTableRecord
  2
Standard
 70
     0
 40
0.0
 41
1.0
 50
0.0
 71
     0
 42
0.2
  3
txt
  4

  0
ENDTAB
  0
TABLE
  2
VIEW
  5
6
330
0
100
AcDbSymbolTable
 70
     0
  0
ENDTAB
  0
TABLE
  2
UCS
  5
7
330
0
100
AcDbSymbolTable
 70
     0
  0
ENDTAB
  0
TABLE
  2
APPID
  5
9
330
0
100
AcDbSymbolTable
 70
     1
  0
APPID
  5
12
330
9
100
AcDbSymbolTableRecord
100
AcDbRegAppTableRecord
  2
ACAD
 70
     0
  0
ENDTAB
  0
TABLE
  2
DIMSTYLE
  5
A
330
0
100
AcDbSymbolTable
 70
     1
100
AcDbDimStyleTable
  0
DIMSTYLE
105
27
330
A
100
AcDbSymbolTableRecord
100
AcDbDimStyleTableRecord
  2
Standard
 70
     0
340
11
  0
ENDTAB
  0
TABLE
  2
BLOCK_RECORD
  5
1
330
0
100
AcDbSymbolTable
 70
     1
  0
BLOCK_RECORD
  5
1F
330
1
100
AcDbSymbolTableRecord
100
AcDbBlockTableRecord
  2
*Model_Space
340
22
  0
BLOCK_RECORD
  5
1B
330
1
100
AcDbSymbolTableRecord
100
AcDbBlockTableRecord
  2
*Paper_Space
340
1E
  0
BLOCK_RECORD
  5
23
330
1
100
AcDbSymbolTableRecord
100
AcDbBlockTableRecord
  2
*Paper_Space0
340
26
  0
ENDTAB
  0
ENDSEC
  0
SECTION
  2
BLOCKS
  0
BLOCK
  5
20
330
1F
100
AcDbEntity
  8
0
100
AcDbBlockBegin
  2
*Model_Space
 70
     0
 10
0.0
 20
0.0
 30
0.0
  3
*Model_Space
  1

  0
ENDBLK
  5
21
330
1F
100
AcDbEntity
  8
0
100
AcDbBlockEnd
  0
BLOCK
  5
1C
330
1B
100
AcDbEntity
 67
     1
  8
0
100
AcDbBlockBegin
  2
*Paper_Space
 70
     0
 10
0.0
 20
0.0
 30
0.0
  3
*Paper_Space
  1

  0
ENDBLK
  5
1D
330
1B
100
AcDbEntity
 67
     1
  8
0
100
AcDbBlockEnd
  0
BLOCK
  5
24
330
23
100
AcDbEntity
  8
0
100
AcDbBlockBegin
  2
*Paper_Space0
 70
     0
 10
0.0
 20
0.0
 30
0.0
  3
*Paper_Space0
  1

  0
ENDBLK
  5
25
330
23
100
AcDbEntity
  8
0
100
AcDbBlockEnd
  0
ENDSEC
  0
SECTION
  2
ENTITIES
  0
LINE
  5
4A
330
1F
100
AcDbEntity
  8
1
  6
Continuous
 62
     4
100
AcDbLine
 10
-4.6409733944252
 20
-116.536887370042
 30
0.0
 11
-5.1409733944252
 21
-117.161887370042
 31
0.0
  0
LINE
  5
4B
330
1F
100
AcDbEntity
  8
1
  6
Continuous
 62
     4
100
AcDbLine
 10
-5.1409733944252
 20
-115.911887370042
 30
0.0
 11
-4.6409733944252
 21
-116.536887370042
 31
0.0
  0
LINE
  5
4C
330
1F
100
AcDbEntity
  8
1
  6
Continuous
 62
     4
100
AcDbLine
 10
-8.3909733944252
 20
-116.536887370042
 30
0.0
 11
-4.6409733944252
 21
-116.536887370042
 31
0.0
  0
LINE
  5
4D
330
1F
100
AcDbEntity
  8
1
  6
Continuous
 62
     4
100
AcDbLine
 10
-12.5159733944252
 20
-115.099387370042
 30
0.0
 11
-9.6409733944252
 21
-115.099387370042
 31
0.0
  0
LINE
  5
4E
330
1F
100
AcDbEntity
  8
1
  6
Continuous
 62
     4
100
AcDbLine
 10
-12.5159733944252
 20
-115.099387370042
 30
0.0
 11
-11.8284733944252
 21
-114.161887370042
 31
0.0
  0
LINE
  5
4F
330
1F
100
AcDbEntity
  8
1
  6
Continuous
 62
     4
100
AcDbLine
 10
-10.8909733944252
 20
-117.474387370042
 30
0.0
 11
-11.9534733944252
 21
-117.474387370042
 31
0.0
  0
LINE
  5
50
330
1F
100
AcDbEntity
  8
1
  6
Continuous
 62
     4
100
AcDbLine
 10
-10.8909733944252
 20
-116.224387370042
 30
0.0
 11
-10.8909733944252
 21
-117.474387370042
 31
0.0
  0
LINE
  5
51
330
1F
100
AcDbEntity
  8
1
  6
Continuous
 62
     4
100
AcDbLine
 10
-11.9534733944252
 20
-116.224387370042
 30
0.0
 11
-10.8909733944252
 21
-116.224387370042
 31
0.0
  0
LINE
  5
52
330
1F
100
AcDbEntity
  8
1
  6
Continuous
 62
     4
100
AcDbLine
 10
-11.9534733944252
 20
-117.474387370042
 30
0.0
 11
-11.9534733944252
 21
-116.224387370042
 31
0.0
  0
LINE
  5
53
330
1F
100
AcDbEntity
  8
1
  6
Continuous
 62
     4
100
AcDbLine
 10
-9.6409733944252
 20
-118.849387370042
 30
0.0
 11
-10.3284733944252
 21
-118.849387370042
 31
0.0
  0
LINE
  5
54
330
1F
100
AcDbEntity
  8
1
  6
Continuous
 62
     4
100
AcDbLine
 10
-9.6409733944252
 20
-115.099387370042
 30
0.0
 11
-9.6409733944252
 21
-118.849387370042
 31
0.0
  0
LINE
  5
55
330
1F
100
AcDbEntity
  8
1
  6
Continuous
 62
     4
100
AcDbLine
 10
-13.2034733944252
 20
-115.099387370042
 30
0.0
 11
-12.5159733944252
 21
-115.099387370042
 31
0.0
  0
LINE
  5
56
330
1F
100
AcDbEntity
  8
1
  6
Continuous
 62
     4
100
AcDbLine
 10
-13.2034733944252
 20
-118.849387370042
 30
0.0
 11
-13.2034733944252
 21
-115.099387370042
 31
0.0
  0
LINE
  5
57
330
1F
100
AcDbEntity
  8
1
  6
Continuous
 62
     4
100
AcDbLine
 10
-15.8909733944252
 20
-119.036887370042
 30
0.0
 11
-16.3909733944252
 21
-118.724387370042
 31
0.0
  0
LINE
  5
58
330
1F
100
AcDbEntity
  8
1
  6
Continuous
 62
     4
100
AcDbLine
 10
-15.5784733944252
 20
-118.536887370042
 30
0.0
 11
-15.8909733944252
 21
-119.036887370042
 31
0.0
  0
LINE
  5
59
330
1F
100
AcDbEntity
  8
1
  6
Continuous
 62
     4
100
AcDbLine
 10
-15.3284733944252
 20
-117.786887370042
 30
0.0
 11
-15.5784733944252
 21
-118.536887370042
 31
0.0
  0
LINE
  5
5A
330
1F
100
AcDbEntity
  8
1
  6
Continuous
 62
     4
100
AcDbLine
 10
-15.0159733944252
 20
-116.661887370042
 30
0.0
 11
-15.3284733944252
 21
-117.786887370042
 31
0.0
  0
LINE
  5
5B
330
1F
100
AcDbEntity
  8
1
  6
Continuous
 62
     4
100
AcDbLine
 10
-15.0159733944252
 20
-116.224387370042
 30
0.0
 11
-15.0159733944252
 21
-116.661887370042
 31
0.0
  0
LINE
  5
5C
330
1F
100
AcDbEntity
  8
1
  6
Continuous
 62
     4
100
AcDbLine
 10
-16.8284733944252
 20
-116.224387370042
 30
0.0
 11
-15.0159733944252
 21
-116.224387370042
 31
0.0
  0
LINE
  5
5D
330
1F
100
AcDbEntity
  8
1
  6
Continuous
 62
     4
100
AcDbLine
 10
-18.5159733944252
 20
-114.974387370042
 30
0.0
 11
-14.3284733944252
 21
-114.974387370042
 31
0.0
  0
LINE
  5
5E
330
1F
100
AcDbEntity
  8
1
  6
Continuous
 62
     4
100
AcDbLine
 10
-16.7034733944252
 20
-115.411887370042
 30
0.0
 11
-16.5784733944252
 21
-114.161887370042
 31
0.0
  0
LINE
  5
5F
330
1F
100
AcDbEntity
  8
1
  6
Continuous
 62
     4
100
AcDbLine
 10
-16.9534733944252
 20
-116.661887370042
 30
0.0
 11
-16.7034733944252
 21
-115.411887370042
 31
0.0
  0
LINE
  5
60
330
1F
100
AcDbEntity
  8
1
  6
Continuous
 62
     4
100
AcDbLine
 10
-17.2659733944252
 20
-117.474387370042
 30
0.0
 11
-16.9534733944252
 21
-116.661887370042
 31
0.0
  0
LINE
  5
61
330
1F
100
AcDbEntity
  8
1
  6
Continuous
 62
     4
100
AcDbLine
 10
-17.6409733944252
 20
-118.224387370042
 30
0.0
 11
-17.2659733944252
 21
-117.474387370042
 31
0.0
  0
LINE
  5
62
330
1F
100
AcDbEntity
  8
1
  6
Continuous
 62
     4
100
AcDbLine
 10
-18.2034733944252
 20
-118.849387370042
 30
0.0
 11
-17.6409733944252
 21
-118.224387370042
 31
0.0
  0
LINE
  5
63
330
1F
100
AcDbEntity
  8
1
  6
Continuous
 62
     4
100
AcDbLine
 10
-19.8909733944252
 20
-117.474387370042
 30
0.0
 11
-19.2034733944252
 21
-118.224387370042
 31
0.0
  0
LINE
  5
64
330
1F
100
AcDbEntity
  8
1
  6
Continuous
 62
     4
100
AcDbLine
 10
-20.4534733944252
 20
-116.536887370042
 30
0.0
 11
-19.8909733944252
 21
-117.474387370042
 31
0.0
  0
LINE
  5
65
330
1F
100
AcDbEntity
  8
1
  6
Continuous
 62
     4
100
AcDbLine
 10
-20.8909733944252
 20
-115.411887370042
 30
0.0
 11
-20.4534733944252
 21
-116.536887370042
 31
0.0
  0
LINE
  5
66
330
1F
100
AcDbEntity
  8
1
  6
Continuous
 62
     4
100
AcDbLine
 10
-19.6409733944252
 20
-115.286887370042
 30
0.0
 11
-20.5784733944252
 21
-116.036887370042
 31
0.0
  0
LINE
  5
67
330
1F
100
AcDbEntity
  8
1
  6
Continuous
 62
     4
100
AcDbLine
 10
-21.2659733944252
 20
-119.036887370042
 30
0.0
 11
-21.7034733944252
 21
-118.849387370042
 31
0.0
  0
LINE
  5
68
330
1F
100
AcDbEntity
  8
1
  6
Continuous
 62
     4
100
AcDbLine
 10
-21.2659733944252
 20
-114.161887370042
 30
0.0
 11
-21.2659733944252
 21
-119.036887370042
 31
0.0
  0
LINE
  5
69
330
1F
100
AcDbEntity
  8
1
  6
Continuous
 62
     4
100
AcDbLine
 10
-21.9534733944252
 20
-115.724387370042
 30
0.0
 11
-23.3909733944252
 21
-115.724387370042
 31
0.0
  0
LINE
  5
6A
330
1F
100
AcDbEntity
  8
1
  6
Continuous
 62
     4
100
AcDbLine
 10
-22.2659733944252
 20
-116.661887370042
 30
0.0
 11
-21.9534733944252
 21
-115.724387370042
 31
0.0
  0
LINE
  5
6B
330
1F
100
AcDbEntity
  8
1
  6
Continuous
 62
     4
100
AcDbLine
 10
-22.8284733944252
 20
-117.599387370042
 30
0.0
 11
-22.2659733944252
 21
-116.661887370042
 31
0.0
  0
LINE
  5
6C
330
1F
100
AcDbEntity
  8
1
  6
Continuous
 62
     4
100
AcDbLine
 10
-23.3909733944252
 20
-118.224387370042
 30
0.0
 11
-22.8284733944252
 21
-117.599387370042
 31
0.0
  0
LINE
  5
6D
330
1F
100
AcDbEntity
  8
1
  6
Continuous
 62
     4
100
AcDbLine
 10
-26.1409733944252
 20
-114.786887370042
 30
0.0
 11
-24.4534733944252
 21
-114.786887370042
 31
0.0
  0
LINE
  5
6E
330
1F
100
AcDbEntity
  8
1
  6
Continuous
 62
     4
100
AcDbLine
 10
-24.2034733944252
 20
-118.536887370042
 30
0.0
 11
-24.2034733944252
 21
-118.224387370042
 31
0.0
  0
LINE
  5
6F
330
1F
100
AcDbEntity
  8
1
  6
Continuous
 62
     4
100
AcDbLine
 10
-24.4534733944252
 20
-118.849387370042
 30
0.0
 11
-24.2034733944252
 21
-118.536887370042
 31
0.0
  0
LINE
  5
70
330
1F
100
AcDbEntity
  8
1
  6
Continuous
 62
     4
100
AcDbLine
 10
-25.0159733944252
 20
-118.849387370042
 30
0.0
 11
-24.4534733944252
 21
-118.849387370042
 31
0.0
  0
LINE
  5
71
330
1F
100
AcDbEntity
  8
1
  6
Continuous
 62
     4
100
AcDbLine
 10
-25.3284733944252
 20
-118.411887370042
 30
0.0
 11
-25.0159733944252
 21
-118.849387370042
 31
0.0
  0
LINE
  5
72
330
1F
100
AcDbEntity
  8
1
  6
Continuous
 62
     4
100
AcDbLine
 10
-25.3284733944252
 20
-116.849387370042
 30
0.0
 11
-25.3284733944252
 21
-118.411887370042
 31
0.0
  0
LINE
  5
73
330
1F
100
AcDbEntity
  8
1
  6
Continuous
 62
     4
100
AcDbLine
 10
-26.1409733944252
 20
-118.849387370042
 30
0.0
 11
-26.1409733944252
 21
-116.849387370042
 31
0.0
  0
LINE
  5
74
330
1F
100
AcDbEntity
  8
1
  6
Continuous
 62
     4
100
AcDbLine
 10
-27.3909733944252
 20
-118.724387370042
 30
0.0
 11
-27.8284733944252
 21
-119.036887370042
 31
0.0
  0
LINE
  5
75
330
1F
100
AcDbEntity
  8
1
  6
Continuous
 62
     4
100
AcDbLine
 10
-27.1409733944252
 20
-118.411887370042
 30
0.0
 11
-27.3909733944252
 21
-118.724387370042
 31
0.0
  0
LINE
  5
76
330
1F
100
AcDbEntity
  8
1
  6
Continuous
 62
     4
100
AcDbLine
 10
-26.9534733944252
 20
-117.911887370042
 30
0.0
 11
-27.1409733944252
 21
-118.411887370042
 31
0.0
  0
LINE
  5
77
330
1F
100
AcDbEntity
  8
1
  6
Continuous
 62
     4
100
AcDbLine
 10
-26.8284733944252
 20
-116.849387370042
 30
0.0
 11
-26.9534733944252
 21
-117.911887370042
 31
0.0
  0
LINE
  5
78
330
1F
100
AcDbEntity
  8
1
  6
Continuous
 62
     4
100
AcDbLine
 10
-25.4534733944252
 20
-115.286887370042
 30
0.0
 11
-24.8909733944252
 21
-116.349387370042
 31
0.0
  0
LINE
  5
79
330
1F
100
AcDbEntity
  8
1
  6
Continuous
 62
     4
100
AcDbLine
 10
-27.2659733944252
 20
-116.036887370042
 30
0.0
 11
-25.1409733944252
 21
-115.911887370042
 31
0.0
  0
LINE
  5
7A
330
1F
100
AcDbEntity
  8
1
  6
Continuous
 62
     4
100
AcDbLine
 10
-26.1409733944252
 20
-114.786887370042
 30
0.0
 11
-26.7034733944252
 21
-116.036887370042
 31
0.0
  0
LINE
  5
7B
330
1F
100
AcDbEntity
  8
1
  6
Continuous
 62
     4
100
AcDbLine
 10
-26.0159733944252
 20
-114.036887370042
 30
0.0
 11
-26.0159733944252
 21
-114.786887370042
 31
0.0
  0
LINE
  5
7C
330
1F
100
AcDbEntity
  8
1
  6
Continuous
 62
     4
100
AcDbLine
 10
-27.5159733944252
 20
-114.786887370042
 30
0.0
 11
-26.1409733944252
 21
-114.786887370042
 31
0.0
  0
LINE
  5
7D
330
1F
100
AcDbEntity
  8
1
  6
Continuous
 62
     4
100
AcDbLine
 10
-28.5159733944252
 20
-118.849387370042
 30
0.0
 11
-27.9534733944252
 21
-116.849387370042
 31
0.0
  0
LINE
  5
7E
330
1F
100
AcDbEntity
  8
1
  6
Continuous
 62
     4
100
AcDbLine
 10
-28.6409733944252
 20
-115.599387370042
 30
0.0
 11
-28.2034733944252
 21
-116.036887370042
 31
0.0
  0
LINE
  5
7F
330
1F
100
AcDbEntity
  8
1
  6
Continuous
 62
     4
100
AcDbLine
 10
-28.2034733944252
 20
-114.161887370042
 30
0.0
 11
-27.9534733944252
 21
-114.661887370042
 31
0.0
  0
LINE
  5
80
330
1F
100
AcDbEntity
  8
1
  6
Continuous
 62
     4
100
AcDbLine
 10
54.214054107666
 20
-96.48477935791
 30
0.0
 11
55.214054107666
 21
-97.10977935791
 31
0.0
  0
LINE
  5
81
330
1F
100
AcDbEntity
  8
1
  6
Continuous
 62
     4
100
AcDbLine
 10
55.589054107666
 20
-96.17227935791
 30
0.0
 11
54.776554107666
 21
-95.54727935791
 31
0.0
  0
LINE
  5
82
330
1F
100
AcDbEntity
  8
1
  6
Continuous
 62
     4
100
AcDbLine
 10
56.276554107666
 20
-95.42227935791
 30
0.0
 11
56.714054107666
 21
-95.85977935791
 31
0.0
  0
LINE
  5
83
330
1F
100
AcDbEntity
  8
1
  6
Continuous
 62
     4
100
AcDbLine
 10
57.026554107666
 20
-95.54727935791
 30
0.0
 11
56.589054107666
 21
-95.10977935791
 31
0.0
  0
LINE
  5
84
330
1F
100
AcDbEntity
  8
1
  6
Continuous
 62
     4
100
AcDbLine
 10
56.714054107666
 20
-97.42227935791
 30
0.0
 11
57.401554107666
 21
-96.48477935791
 31
0.0
  0
LINE
  5
85
330
1F
100
AcDbEntity
  8
1
  6
Continuous
 62
     4
100
AcDbLine
 10
55.589054107666
 20
-98.35977935791
 30
0.0
 11
56.714054107666
 21
-97.42227935791
 31
0.0
  0
LINE
  5
86
330
1F
100
AcDbEntity
  8
1
  6
Continuous
 62
     4
100
AcDbLine
 10
54.526554107666
 20
-98.98477935791
 30
0.0
 11
55.589054107666
 21
-98.35977935791
 31
0.0
  0
LINE
  5
87
330
1F
100
AcDbEntity
  8
1
  6
Continuous
 62
     4
100
AcDbLine
 10
51.839054107666
 20
-97.60977935791
 30
0.0
 11
52.276554107666
 21
-98.23477935791
 31
0.0
  0
LINE
  5
88
330
1F
100
AcDbEntity
  8
1
  6
Continuous
 62
     4
100
AcDbLine
 10
51.276554107666
 20
-97.10977935791
 30
0.0
 11
51.839054107666
 21
-97.60977935791
 31
0.0
  0
LINE
  5
89
330
1F
100
AcDbEntity
  8
1
  6
Continuous
 62
     4
100
AcDbLine
 10
50.901554107666
 20
-95.10977935791
 30
0.0
 11
51.151554107666
 21
-95.42227935791
 31
0.0
  0
LINE
  5
8A
330
1F
100
AcDbEntity
  8
1
  6
Continuous
 62
     4
100
AcDbLine
 10
50.339054107666
 20
-94.79727935791
 30
0.0
 11
50.901554107666
 21
-95.10977935791
 31
0.0
  0
LINE
  5
8B
330
1F
100
AcDbEntity
  8
1
  6
Continuous
 62
     4
100
AcDbLine
 10
51.589054107666
 20
-96.04727935791
 30
0.0
 11
49.651554107666
 21
-96.04727935791
 31
0.0
  0
LINE
  5
8C
330
1F
100
AcDbEntity
  8
1
  6
Continuous
 62
     4
100
AcDbLine
 10
50.589054107666
 20
-97.10977935791
 30
0.0
 11
51.589054107666
 21
-96.04727935791
 31
0.0
  0
LINE
  5
8D
330
1F
100
AcDbEntity
  8
1
  6
Continuous
 62
     4
100
AcDbLine
 10
49.214054107666
 20
-98.04727935791
 30
0.0
 11
50.589054107666
 21
-97.10977935791
 31
0.0
  0
LINE
  5
8E
330
1F
100
AcDbEntity
  8
1
  6
Continuous
 62
     4
100
AcDbLine
 10
50.776554107666
 20
-98.98477935791
 30
0.0
 11
50.776554107666
 21
-96.98477935791
 31
0.0
  0
LINE
  5
8F
330
1F
100
AcDbEntity
  8
1
  6
Continuous
 62
     4
100
AcDbLine
 10
46.276554107666
 20
-97.48477935791
 30
0.0
 11
46.276554107666
 21
-99.48477935791
 31
0.0
  0
LINE
  5
90
330
1F
100
AcDbEntity
  8
1
  6
Continuous
 62
     4
100
AcDbLine
 10
44.026554107666
 20
-98.48477935791
 30
0.0
 11
47.026554107666
 21
-98.48477935791
 31
0.0
  0
LINE
  5
91
330
1F
100
AcDbEntity
  8
1
  6
Continuous
 62
     4
100
AcDbLine
 10
46.276554107666
 20
-94.48477935791
 30
0.0
 11
44.026554107666
 21
-98.48477935791
 31
0.0
  0
LINE
  5
92
330
1F
100
AcDbEntity
  8
1
  6
Continuous
 62
     4
100
AcDbLine
 10
40.526554107666
 20
-99.48477935791
 30
0.0
 11
42.526554107666
 21
-94.48477935791
 31
0.0
  0
LINE
  5
93
330
1F
100
AcDbEntity
  8
1
  6
Continuous
 62
     4
100
AcDbLine
 10
37.901554107666
 20
-99.48477935791
 30
0.0
 11
36.026554107666
 21
-99.48477935791
 31
0.0
  0
LINE
  5
94
330
1F
100
AcDbEntity
  8
1
  6
Continuous
 62
     4
100
AcDbLine
 10
38.276554107666
 20
-99.35977935791
 30
0.0
 11
37.901554107666
 21
-99.48477935791
 31
0.0
  0
LINE
  5
95
330
1F
100
AcDbEntity
  8
1
  6
Continuous
 62
     4
100
AcDbLine
 10
38.651554107666
 20
-99.10977935791
 30
0.0
 11
38.276554107666
 21
-99.35977935791
 31
0.0
  0
LINE
  5
96
330
1F
100
AcDbEntity
  8
1
  6
Continuous
 62
     4
100
AcDbLine
 10
38.901554107666
 20
-98.73477935791
 30
0.0
 11
38.651554107666
 21
-99.10977935791
 31
0.0
  0
LINE
  5
97
330
1F
100
AcDbEntity
  8
1
  6
Continuous
 62
     4
100
AcDbLine
 10
39.026554107666
 20
-98.23477935791
 30
0.0
 11
38.901554107666
 21
-98.73477935791
 31
0.0
  0
LINE
  5
98
330
1F
100
AcDbEntity
  8
1
  6
Continuous
 62
     4
100
AcDbLine
 10
39.026554107666
 20
-97.60977935791
 30
0.0
 11
39.026554107666
 21
-98.23477935791
 31
0.0
  0
LINE
  5
99
330
1F
100
AcDbEntity
  8
1
  6
Continuous
 62
     4
100
AcDbLine
 10
38.901554107666
 20
-97.10977935791
 30
0.0
 11
39.026554107666
 21
-97.60977935791
 31
0.0
  0
LINE
  5
9A
330
1F
100
AcDbEntity
  8
1
  6
Continuous
 62
     4
100
AcDbLine
 10
38.776554107666
 20
-96.85977935791
 30
0.0
 11
38.901554107666
 21
-97.10977935791
 31
0.0
  0
LINE
  5
9B
330
1F
100
AcDbEntity
  8
1
  6
Continuous
 62
     4
100
AcDbLine
 10
38.526554107666
 20
-96.60977935791
 30
0.0
 11
38.776554107666
 21
-96.85977935791
 31
0.0
  0
LINE
  5
9C
330
1F
100
AcDbEntity
  8
1
  6
Continuous
 62
     4
100
AcDbLine
 10
38.026554107666
 20
-96.48477935791
 30
0.0
 11
38.526554107666
 21
-96.60977935791
 31
0.0
  0
LINE
  5
9D
330
1F
100
AcDbEntity
  8
1
  6
Continuous
 62
     4
100
AcDbLine
 10
38.401554107666
 20
-96.35977935791
 30
0.0
 11
38.026554107666
 21
-96.48477935791
 31
0.0
  0
LINE
  5
9E
330
1F
100
AcDbEntity
  8
1
  6
Continuous
 62
     4
100
AcDbLine
 10
38.651554107666
 20
-96.23477935791
 30
0.0
 11
38.401554107666
 21
-96.35977935791
 31
0.0
  0
LINE
  5
9F
330
1F
100
AcDbEntity
  8
1
  6
Continuous
 62
     4
100
AcDbLine
 10
38.901554107666
 20
-95.98477935791
 30
0.0
 11
38.651554107666
 21
-96.23477935791
 31
0.0
  0
LINE
  5
A0
330
1F
100
AcDbEntity
  8
1
  6
Continuous
 62
     4
100
AcDbLine
 10
39.026554107666
 20
-95.60977935791
 30
0.0
 11
38.901554107666
 21
-95.98477935791
 31
0.0
  0
LINE
  5
A1
330
1F
100
AcDbEntity
  8
1
  6
Continuous
 62
     4
100
AcDbLine
 10
39.026554107666
 20
-95.23477935791
 30
0.0
 11
39.026554107666
 21
-95.60977935791
 31
0.0
  0
LINE
  5
A2
330
1F
100
AcDbEntity
  8
1
  6
Continuous
 62
     4
100
AcDbLine
 10
38.901554107666
 20
-94.85977935791
 30
0.0
 11
39.026554107666
 21
-95.23477935791
 31
0.0
  0
LINE
  5
A3
330
1F
100
AcDbEntity
  8
1
  6
Continuous
 62
     4
100
AcDbLine
 10
38.526554107666
 20
-94.60977935791
 30
0.0
 11
38.901554107666
 21
-94.85977935791
 31
0.0
  0
LINE
  5
A4
330
1F
100
AcDbEntity
  8
1
  6
Continuous
 62
     4
100
AcDbLine
 10
37.901554107666
 20
-94.48477935791
 30
0.0
 11
38.526554107666
 21
-94.60977935791
 31
0.0
  0
LINE
  5
A5
330
1F
100
AcDbEntity
  8
1
  6
Continuous
 62
     4
100
AcDbLine
 10
36.026554107666
 20
-94.48477935791
 30
0.0
 11
37.901554107666
 21
-94.48477935791
 31
0.0
  0
LINE
  5
A6
330
1F
100
AcDbEntity
  8
1
  6
Continuous
 62
     4
100
AcDbLine
 10
36.776554107666
 20
-96.48477935791
 30
0.0
 11
38.026554107666
 21
-96.48477935791
 31
0.0
  0
LINE
  5
A7
330
1F
100
AcDbEntity
  8
1
  6
Continuous
 62
     4
100
AcDbLine
 10
31.026554107666
 20
-99.48477935791
 30
0.0
 11
31.026554107666
 21
-96.98477935791
 31
0.0
  0
LINE
  5
A8
330
1F
100
AcDbEntity
  8
1
  6
Continuous
 62
     4
100
AcDbLine
 10
33.026554107666
 20
-96.98477935791
 30
0.0
 11
34.526554107666
 21
-99.48477935791
 31
0.0
  0
LINE
  5
A9
330
1F
100
AcDbEntity
  8
1
  6
Continuous
 62
     4
100
AcDbLine
 10
33.401554107666
 20
-96.98477935791
 30
0.0
 11
33.026554107666
 21
-96.98477935791
 31
0.0
  0
LINE
  5
AA
330
1F
100
AcDbEntity
  8
1
  6
Continuous
 62
     4
100
AcDbLine
 10
33.901554107666
 20
-96.85977935791
 30
0.0
 11
33.401554107666
 21
-96.98477935791
 31
0.0
  0
LINE
  5
AB
330
1F
100
AcDbEntity
  8
1
  6
Continuous
 62
     4
100
AcDbLine
 10
34.276554107666
 20
-96.60977935791
 30
0.0
 11
33.901554107666
 21
-96.85977935791
 31
0.0
  0
LINE
  5
AC
330
1F
100
AcDbEntity
  8
1
  6
Continuous
 62
     4
100
AcDbLine
 10
34.401554107666
 20
-96.35977935791
 30
0.0
 11
34.276554107666
 21
-96.60977935791
 31
0.0
  0
LINE
  5
AD
330
1F
100
AcDbEntity
  8
1
  6
Continuous
 62
     4
100
AcDbLine
 10
34.526554107666
 20
-95.98477935791
 30
0.0
 11
34.401554107666
 21
-96.35977935791
 31
0.0
  0
LINE
  5
AE
330
1F
100
AcDbEntity
  8
1
  6
Continuous
 62
     4
100
AcDbLine
 10
34.526554107666
 20
-95.48477935791
 30
0.0
 11
34.526554107666
 21
-95.98477935791
 31
0.0
  0
LINE
  5
AF
330
1F
100
AcDbEntity
  8
1
  6
Continuous
 62
     4
100
AcDbLine
 10
34.401554107666
 20
-95.10977935791
 30
0.0
 11
34.526554107666
 21
-95.48477935791
 31
0.0
  0
LINE
  5
B0
330
1F
100
AcDbEntity
  8
1
  6
Continuous
 62
     4
100
AcDbLine
 10
34.276554107666
 20
-94.85977935791
 30
0.0
 11
34.401554107666
 21
-95.10977935791
 31
0.0
  0
LINE
  5
B1
330
1F
100
AcDbEntity
  8
1
  6
Continuous
 62
     4
100
AcDbLine
 10
33.901554107666
 20
-94.60977935791
 30
0.0
 11
34.276554107666
 21
-94.85977935791
 31
0.0
  0
LINE
  5
B2
330
1F
100
AcDbEntity
  8
1
  6
Continuous
 62
     4
100
AcDbLine
 10
33.401554107666
 20
-94.48477935791
 30
0.0
 11
33.901554107666
 21
-94.60977935791
 31
0.0
  0
LINE
  5
B3
330
1F
100
AcDbEntity
  8
1
  6
Continuous
 62
     4
100
AcDbLine
 10
31.026554107666
 20
-94.48477935791
 30
0.0
 11
33.401554107666
 21
-94.48477935791
 31
0.0
  0
LINE
  5
B4
330
1F
100
AcDbEntity
  8
1
  6
Continuous
 62
     4
100
AcDbLine
 10
31.026554107666
 20
-96.98477935791
 30
0.0
 11
31.026554107666
 21
-94.48477935791
 31
0.0
  0
LINE
  5
B5
330
1F
100
AcDbEntity
  8
1
  6
Continuous
 62
     4
100
AcDbLine
 10
33.026554107666
 20
-96.98477935791
 30
0.0
 11
31.026554107666
 21
-96.98477935791
 31
0.0
  0
LINE
  5
B6
330
1F
100
AcDbEntity
  8
1
  6
Continuous
 62
     4
100
AcDbLine
 10
-114.631240844727
 20
-27.3499984741211
 30
0.0
 11
-113.631240844727
 21
-27.9749984741211
 31
0.0
  0
LINE
  5
B7
330
1F
100
AcDbEntity
  8
1
  6
Continuous
 62
     4
100
AcDbLine
 10
-113.256240844727
 20
-27.0374984741211
 30
0.0
 11
-114.068740844727
 21
-26.4124984741211
 31
0.0
  0
LINE
  5
B8
330
1F
100
AcDbEntity
  8
1
  6
Continuous
 62
     4
100
AcDbLine
 10
-112.568740844727
 20
-26.2874984741211
 30
0.0
 11
-112.131240844727
 21
-26.7249984741211
 31
0.0
  0
LINE
  5
B9
330
1F
100
AcDbEntity
  8
1
  6
Continuous
 62
     4
100
AcDbLine
 10
-111.818740844727
 20
-26.4124984741211
 30
0.0
 11
-112.256240844727
 21
-25.9749984741211
 31
0.0
  0
LINE
  5
BA
330
1F
100
AcDbEntity
  8
1
  6
Continuous
 62
     4
100
AcDbLine
 10
-112.131240844727
 20
-28.2874984741211
 30
0.0
 11
-111.443740844727
 21
-27.3499984741211
 31
0.0
  0
LINE
  5
BB
330
1F
100
AcDbEntity
  8
1
  6
Continuous
 62
     4
100
AcDbLine
 10
-113.256240844727
 20
-29.2249984741211
 30
0.0
 11
-112.131240844727
 21
-28.2874984741211
 31
0.0
  0
LINE
  5
BC
330
1F
100
AcDbEntity
  8
1
  6
Continuous
 62
     4
100
AcDbLine
 10
-114.318740844727
 20
-29.8499984741211
 30
0.0
 11
-113.256240844727
 21
-29.2249984741211
 31
0.0
  0
LINE
  5
BD
330
1F
100
AcDbEntity
  8
1
  6
Continuous
 62
     4
100
AcDbLine
 10
-117.006240844727
 20
-28.4749984741211
 30
0.0
 11
-116.568740844727
 21
-29.0999984741211
 31
0.0
  0
LINE
  5
BE
330
1F
100
AcDbEntity
  8
1
  6
Continuous
 62
     4
100
AcDbLine
 10
-117.568740844727
 20
-27.9749984741211
 30
0.0
 11
-117.006240844727
 21
-28.4749984741211
 31
0.0
  0
LINE
  5
BF
330
1F
100
AcDbEntity
  8
1
  6
Continuous
 62
     4
100
AcDbLine
 10
-117.943740844727
 20
-25.9749984741211
 30
0.0
 11
-117.693740844727
 21
-26.2874984741211
 31
0.0
  0
LINE
  5
C0
330
1F
100
AcDbEntity
  8
1
  6
Continuous
 62
     4
100
AcDbLine
 10
-118.506240844727
 20
-25.6624984741211
 30
0.0
 11
-117.943740844727
 21
-25.9749984741211
 31
0.0
  0
LINE
  5
C1
330
1F
100
AcDbEntity
  8
1
  6
Continuous
 62
     4
100
AcDbLine
 10
-117.256240844727
 20
-26.9124984741211
 30
0.0
 11
-119.193740844727
 21
-26.9124984741211
 31
0.0
  0
LINE
  5
C2
330
1F
100
AcDbEntity
  8
1
  6
Continuous
 62
     4
100
AcDbLine
 10
-118.256240844727
 20
-27.9749984741211
 30
0.0
 11
-117.256240844727
 21
-26.9124984741211
 31
0.0
  0
LINE
  5
C3
330
1F
100
AcDbEntity
  8
1
  6
Continuous
 62
     4
100
AcDbLine
 10
-119.631240844727
 20
-28.9124984741211
 30
0.0
 11
-118.256240844727
 21
-27.9749984741211
 31
0.0
  0
LINE
  5
C4
330
1F
100
AcDbEntity
  8
1
  6
Continuous
 62
     4
100
AcDbLine
 10
-118.068740844727
 20
-29.8499984741211
 30
0.0
 11
-118.068740844727
 21
-27.8499984741211
 31
0.0
  0
LINE
  5
C5
330
1F
100
AcDbEntity
  8
1
  6
Continuous
 62
     4
100
AcDbLine
 10
-122.568740844727
 20
-28.3499984741211
 30
0.0
 11
-122.568740844727
 21
-30.3499984741211
 31
0.0
  0
LINE
  5
C6
330
1F
100
AcDbEntity
  8
1
  6
Continuous
 62
     4
100
AcDbLine
 10
-124.818740844727
 20
-29.3499984741211
 30
0.0
 11
-121.818740844727
 21
-29.3499984741211
 31
0.0
  0
LINE
  5
C7
330
1F
100
AcDbEntity
  8
1
  6
Continuous
 62
     4
100
AcDbLine
 10
-122.568740844727
 20
-25.3499984741211
 30
0.0
 11
-124.818740844727
 21
-29.3499984741211
 31
0.0
  0
LINE
  5
C8
330
1F
100
AcDbEntity
  8
1
  6
Continuous
 62
     4
100
AcDbLine
 10
-128.318740844727
 20
-30.3499984741211
 30
0.0
 11
-126.318740844727
 21
-25.3499984741211
 31
0.0
  0
LINE
  5
C9
330
1F
100
AcDbEntity
  8
1
  6
Continuous
 62
     4
100
AcDbLine
 10
-130.943740844727
 20
-30.3499984741211
 30
0.0
 11
-132.818740844727
 21
-30.3499984741211
 31
0.0
  0
LINE
  5
CA
330
1F
100
AcDbEntity
  8
1
  6
Continuous
 62
     4
100
AcDbLine
 10
-130.568740844727
 20
-30.2249984741211
 30
0.0
 11
-130.943740844727
 21
-30.3499984741211
 31
0.0
  0
LINE
  5
CB
330
1F
100
AcDbEntity
  8
1
  6
Continuous
 62
     4
100
AcDbLine
 10
-130.193740844727
 20
-29.9749984741211
 30
0.0
 11
-130.568740844727
 21
-30.2249984741211
 31
0.0
  0
LINE
  5
CC
330
1F
100
AcDbEntity
  8
1
  6
Continuous
 62
     4
100
AcDbLine
 10
-129.943740844727
 20
-29.5999984741211
 30
0.0
 11
-130.193740844727
 21
-29.9749984741211
 31
0.0
  0
LINE
  5
CD
330
1F
100
AcDbEntity
  8
1
  6
Continuous
 62
     4
100
AcDbLine
 10
-129.818740844727
 20
-29.0999984741211
 30
0.0
 11
-129.943740844727
 21
-29.5999984741211
 31
0.0
  0
LINE
  5
CE
330
1F
100
AcDbEntity
  8
1
  6
Continuous
 62
     4
100
AcDbLine
 10
-129.818740844727
 20
-28.4749984741211
 30
0.0
 11
-129.818740844727
 21
-29.0999984741211
 31
0.0
  0
LINE
  5
CF
330
1F
100
AcDbEntity
  8
1
  6
Continuous
 62
     4
100
AcDbLine
 10
-129.943740844727
 20
-27.9749984741211
 30
0.0
 11
-129.818740844727
 21
-28.4749984741211
 31
0.0
  0
LINE
  5
D0
330
1F
100
AcDbEntity
  8
1
  6
Continuous
 62
     4
100
AcDbLine
 10
-130.068740844727
 20
-27.7249984741211
 30
0.0
 11
-129.943740844727
 21
-27.9749984741211
 31
0.0
  0
LINE
  5
D1
330
1F
100
AcDbEntity
  8
1
  6
Continuous
 62
     4
100
AcDbLine
 10
-130.318740844727
 20
-27.4749984741211
 30
0.0
 11
-130.068740844727
 21
-27.7249984741211
 31
0.0
  0
LINE
  5
D2
330
1F
100
AcDbEntity
  8
1
  6
Continuous
 62
     4
100
AcDbLine
 10
-130.818740844727
 20
-27.3499984741211
 30
0.0
 11
-130.318740844727
 21
-27.4749984741211
 31
0.0
  0
LINE
  5
D3
330
1F
100
AcDbEntity
  8
1
  6
Continuous
 62
     4
100
AcDbLine
 10
-130.443740844727
 20
-27.2249984741211
 30
0.0
 11
-130.818740844727
 21
-27.3499984741211
 31
0.0
  0
LINE
  5
D4
330
1F
100
AcDbEntity
  8
1
  6
Continuous
 62
     4
100
AcDbLine
 10
-130.193740844727
 20
-27.0999984741211
 30
0.0
 11
-130.443740844727
 21
-27.2249984741211
 31
0.0
  0
LINE
  5
D5
330
1F
100
AcDbEntity
  8
1
  6
Continuous
 62
     4
100
AcDbLine
 10
-129.943740844727
 20
-26.8499984741211
 30
0.0
 11
-130.193740844727
 21
-27.0999984741211
 31
0.0
  0
LINE
  5
D6
330
1F
100
AcDbEntity
  8
1
  6
Continuous
 62
     4
100
AcDbLine
 10
-129.818740844727
 20
-26.4749984741211
 30
0.0
 11
-129.943740844727
 21
-26.8499984741211
 31
0.0
  0
LINE
  5
D7
330
1F
100
AcDbEntity
  8
1
  6
Continuous
 62
     4
100
AcDbLine
 10
-129.818740844727
 20
-26.0999984741211
 30
0.0
 11
-129.818740844727
 21
-26.4749984741211
 31
0.0
  0
LINE
  5
D8
330
1F
100
AcDbEntity
  8
1
  6
Continuous
 62
     4
100
AcDbLine
 10
-129.943740844727
 20
-25.7249984741211
 30
0.0
 11
-129.818740844727
 21
-26.0999984741211
 31
0.0
  0
LINE
  5
D9
330
1F
100
AcDbEntity
  8
1
  6
Continuous
 62
     4
100
AcDbLine
 10
-130.318740844727
 20
-25.4749984741211
 30
0.0
 11
-129.943740844727
 21
-25.7249984741211
 31
0.0
  0
LINE
  5
DA
330
1F
100
AcDbEntity
  8
1
  6
Continuous
 62
     4
100
AcDbLine
 10
-130.943740844727
 20
-25.3499984741211
 30
0.0
 11
-130.318740844727
 21
-25.4749984741211
 31
0.0
  0
LINE
  5
DB
330
1F
100
AcDbEntity
  8
1
  6
Continuous
 62
     4
100
AcDbLine
 10
-132.818740844727
 20
-25.3499984741211
 30
0.0
 11
-130.943740844727
 21
-25.3499984741211
 31
0.0
  0
LINE
  5
DC
330
1F
100
AcDbEntity
  8
1
  6
Continuous
 62
     4
100
AcDbLine
 10
-132.068740844727
 20
-27.3499984741211
 30
0.0
 11
-130.818740844727
 21
-27.3499984741211
 31
0.0
  0
LINE
  5
DD
330
1F
100
AcDbEntity
  8
1
  6
Continuous
 62
     4
100
AcDbLine
 10
-137.818740844727
 20
-30.3499984741211
 30
0.0
 11
-137.818740844727
 21
-27.8499984741211
 31
0.0
  0
LINE
  5
DE
330
1F
100
AcDbEntity
  8
1
  6
Continuous
 62
     4
100
AcDbLine
 10
-135.818740844727
 20
-27.8499984741211
 30
0.0
 11
-134.318740844727
 21
-30.3499984741211
 31
0.0
  0
LINE
  5
DF
330
1F
100
AcDbEntity
  8
1
  6
Continuous
 62
     4
100
AcDbLine
 10
-135.443740844727
 20
-27.8499984741211
 30
0.0
 11
-135.818740844727
 21
-27.8499984741211
 31
0.0
  0
LINE
  5
E0
330
1F
100
AcDbEntity
  8
1
  6
Continuous
 62
     4
100
AcDbLine
 10
-134.943740844727
 20
-27.7249984741211
 30
0.0
 11
-135.443740844727
 21
-27.8499984741211
 31
0.0
  0
LINE
  5
E1
330
1F
100
AcDbEntity
  8
1
  6
Continuous
 62
     4
100
AcDbLine
 10
-134.568740844727
 20
-27.4749984741211
 30
0.0
 11
-134.943740844727
 21
-27.7249984741211
 31
0.0
  0
LINE
  5
E2
330
1F
100
AcDbEntity
  8
1
  6
Continuous
 62
     4
100
AcDbLine
 10
-134.443740844727
 20
-27.2249984741211
 30
0.0
 11
-134.568740844727
 21
-27.4749984741211
 31
0.0
  0
LINE
  5
E3
330
1F
100
AcDbEntity
  8
1
  6
Continuous
 62
     4
100
AcDbLine
 10
-134.318740844727
 20
-26.8499984741211
 30
0.0
 11
-134.443740844727
 21
-27.2249984741211
 31
0.0
  0
LINE
  5
E4
330
1F
100
AcDbEntity
  8
1
  6
Continuous
 62
     4
100
AcDbLine
 10
-134.318740844727
 20
-26.3499984741211
 30
0.0
 11
-134.318740844727
 21
-26.8499984741211
 31
0.0
  0
LINE
  5
E5
330
1F
100
AcDbEntity
  8
1
  6
Continuous
 62
     4
100
AcDbLine
 10
-134.443740844727
 20
-25.9749984741211
 30
0.0
 11
-134.318740844727
 21
-26.3499984741211
 31
0.0
  0
LINE
  5
E6
330
1F
100
AcDbEntity
  8
1
  6
Continuous
 62
     4
100
AcDbLine
 10
-134.568740844727
 20
-25.7249984741211
 30
0.0
 11
-134.443740844727
 21
-25.9749984741211
 31
0.0
  0
LINE
  5
E7
330
1F
100
AcDbEntity
  8
1
  6
Continuous
 62
     4
100
AcDbLine
 10
-134.943740844727
 20
-25.4749984741211
 30
0.0
 11
-134.568740844727
 21
-25.7249984741211
 31
0.0
  0
LINE
  5
E8
330
1F
100
AcDbEntity
  8
1
  6
Continuous
 62
     4
100
AcDbLine
 10
-135.443740844727
 20
-25.3499984741211
 30
0.0
 11
-134.943740844727
 21
-25.4749984741211
 31
0.0
  0
LINE
  5
E9
330
1F
100
AcDbEntity
  8
1
  6
Continuous
 62
     4
100
AcDbLine
 10
-137.818740844727
 20
-25.3499984741211
 30
0.0
 11
-135.443740844727
 21
-25.3499984741211
 31
0.0
  0
LINE
  5
EA
330
1F
100
AcDbEntity
  8
1
  6
Continuous
 62
     4
100
AcDbLine
 10
-137.818740844727
 20
-27.8499984741211
 30
0.0
 11
-137.818740844727
 21
-25.3499984741211
 31
0.0
  0
LINE
  5
EB
330
1F
100
AcDbEntity
  8
1
  6
Continuous
 62
     4
100
AcDbLine
 10
-135.818740844727
 20
-27.8499984741211
 30
0.0
 11
-137.818740844727
 21
-27.8499984741211
 31
0.0
  0
LINE
  5
EC
330
1F
100
AcDbEntity
  8
1
  6
Continuous
 62
     4
100
AcDbLine
 10
224.837903540621
 20
85.6676130869523
 30
0.0
 11
224.837903540621
 21
84.4176130869523
 31
0.0
  0
LINE
  5
ED
330
1F
100
AcDbEntity
  8
1
  6
Continuous
 62
     4
100
AcDbLine
 10
224.712903540621
 20
86.4176130869523
 30
0.0
 11
224.837903540621
 21
85.6676130869523
 31
0.0
  0
LINE
  5
EE
330
1F
100
AcDbEntity
  8
1
  6
Continuous
 62
     4
100
AcDbLine
 10
224.462903540621
 20
86.9176130869523
 30
0.0
 11
224.712903540621
 21
86.4176130869523
 31
0.0
  0
LINE
  5
EF
330
1F
100
AcDbEntity
  8
1
  6
Continuous
 62
     4
100
AcDbLine
 10
224.212903540621
 20
87.1676130869523
 30
0.0
 11
224.462903540621
 21
86.9176130869523
 31
0.0
  0
LINE
  5
F0
330
1F
100
AcDbEntity
  8
1
  6
Continuous
 62
     4
100
AcDbLine
 10
223.837903540621
 20
87.4176130869523
 30
0.0
 11
224.212903540621
 21
87.1676130869523
 31
0.0
  0
LINE
  5
F1
330
1F
100
AcDbEntity
  8
1
  6
Continuous
 62
     4
100
AcDbLine
 10
223.462903540621
 20
87.5426130869523
 30
0.0
 11
223.837903540621
 21
87.4176130869523
 31
0.0
  0
LINE
  5
F2
330
1F
100
AcDbEntity
  8
1
  6
Continuous
 62
     4
100
AcDbLine
 10
223.212903540621
 20
87.5426130869523
 30
0.0
 11
223.462903540621
 21
87.5426130869523
 31
0.0
  0
LINE
  5
F3
330
1F
100
AcDbEntity
  8
1
  6
Continuous
 62
     4
100
AcDbLine
 10
222.837903540621
 20
87.4176130869523
 30
0.0
 11
223.212903540621
 21
87.5426130869523
 31
0.0
  0
LINE
  5
F4
330
1F
100
AcDbEntity
  8
1
  6
Continuous
 62
     4
100
AcDbLine
 10
222.462903540621
 20
87.1676130869523
 30
0.0
 11
222.837903540621
 21
87.4176130869523
 31
0.0
  0
LINE
  5
F5
330
1F
100
AcDbEntity
  8
1
  6
Continuous
 62
     4
100
AcDbLine
 10
222.212903540621
 20
86.9176130869523
 30
0.0
 11
222.462903540621
 21
87.1676130869523
 31
0.0
  0
LINE
  5
F6
330
1F
100
AcDbEntity
  8
1
  6
Continuous
 62
     4
100
AcDbLine
 10
221.962903540621
 20
86.4176130869523
 30
0.0
 11
222.212903540621
 21
86.9176130869523
 31
0.0
  0
LINE
  5
F7
330
1F
100
AcDbEntity
  8
1
  6
Continuous
 62
     4
100
AcDbLine
 10
221.837903540621
 20
85.6676130869523
 30
0.0
 11
221.962903540621
 21
86.4176130869523
 31
0.0
  0
LINE
  5
F8
330
1F
100
AcDbEntity
  8
1
  6
Continuous
 62
     4
100
AcDbLine
 10
221.837903540621
 20
84.4176130869523
 30
0.0
 11
221.837903540621
 21
85.6676130869523
 31
0.0
  0
LINE
  5
F9
330
1F
100
AcDbEntity
  8
1
  6
Continuous
 62
     4
100
AcDbLine
 10
221.962903540621
 20
83.6676130869523
 30
0.0
 11
221.837903540621
 21
84.4176130869523
 31
0.0
  0
LINE
  5
FA
330
1F
100
AcDbEntity
  8
1
  6
Continuous
 62
     4
100
AcDbLine
 10
222.212903540621
 20
83.1676130869523
 30
0.0
 11
221.962903540621
 21
83.6676130869523
 31
0.0
  0
LINE
  5
FB
330
1F
100
AcDbEntity
  8
1
  6
Continuous
 62
     4
100
AcDbLine
 10
222.462903540621
 20
82.9176130869523
 30
0.0
 11
222.212903540621
 21
83.1676130869523
 31
0.0
  0
LINE
  5
FC
330
1F
100
AcDbEntity
  8
1
  6
Continuous
 62
     4
100
AcDbLine
 10
222.837903540621
 20
82.6676130869523
 30
0.0
 11
222.462903540621
 21
82.9176130869523
 31
0.0
  0
LINE
  5
FD
330
1F
100
AcDbEntity
  8
1
  6
Continuous
 62
     4
100
AcDbLine
 10
223.212903540621
 20
82.5426130869523
 30
0.0
 11
222.837903540621
 21
82.6676130869523
 31
0.0
  0
LINE
  5
FE
330
1F
100
AcDbEntity
  8
1
  6
Continuous
 62
     4
100
AcDbLine
 10
223.462903540621
 20
82.5426130869523
 30
0.0
 11
223.212903540621
 21
82.5426130869523
 31
0.0
  0
LINE
  5
FF
330
1F
100
AcDbEntity
  8
1
  6
Continuous
 62
     4
100
AcDbLine
 10
223.837903540621
 20
82.6676130869523
 30
0.0
 11
223.462903540621
 21
82.5426130869523
 31
0.0
  0
LINE
  5
100
330
1F
100
AcDbEntity
  8
1
  6
Continuous
 62
     4
100
AcDbLine
 10
224.212903540621
 20
82.9176130869523
 30
0.0
 11
223.837903540621
 21
82.6676130869523
 31
0.0
  0
LINE
  5
101
330
1F
100
AcDbEntity
  8
1
  6
Continuous
 62
     4
100
AcDbLine
 10
224.462903540621
 20
83.1676130869523
 30
0.0
 11
224.212903540621
 21
82.9176130869523
 31
0.0
  0
LINE
  5
102
330
1F
100
AcDbEntity
  8
1
  6
Continuous
 62
     4
100
AcDbLine
 10
224.712903540621
 20
83.6676130869523
 30
0.0
 11
224.462903540621
 21
83.1676130869523
 31
0.0
  0
LINE
  5
103
330
1F
100
AcDbEntity
  8
1
  6
Continuous
 62
     4
100
AcDbLine
 10
224.837903540621
 20
84.4176130869523
 30
0.0
 11
224.712903540621
 21
83.6676130869523
 31
0.0
  0
LINE
  5
104
330
1F
100
AcDbEntity
  8
1
  6
Continuous
 62
     4
100
AcDbLine
 10
220.337903540621
 20
85.6676130869523
 30
0.0
 11
220.337903540621
 21
84.4176130869523
 31
0.0
  0
LINE
  5
105
330
1F
100
AcDbEntity
  8
1
  6
Continuous
 62
     4
100
AcDbLine
 10
220.212903540621
 20
86.4176130869523
 30
0.0
 11
220.337903540621
 21
85.6676130869523
 31
0.0
  0
LINE
  5
106
330
1F
100
AcDbEntity
  8
1
  6
Continuous
 62
     4
100
AcDbLine
 10
219.962903540621
 20
86.9176130869523
 30
0.0
 11
220.212903540621
 21
86.4176130869523
 31
0.0
  0
LINE
  5
107
330
1F
100
AcDbEntity
  8
1
  6
Continuous
 62
     4
100
AcDbLine
 10
219.712903540621
 20
87.1676130869523
 30
0.0
 11
219.962903540621
 21
86.9176130869523
 31
0.0
  0
LINE
  5
108
330
1F
100
AcDbEntity
  8
1
  6
Continuous
 62
     4
100
AcDbLine
 10
219.337903540621
 20
87.4176130869523
 30
0.0
 11
219.712903540621
 21
87.1676130869523
 31
0.0
  0
LINE
  5
109
330
1F
100
AcDbEntity
  8
1
  6
Continuous
 62
     4
100
AcDbLine
 10
218.962903540621
 20
87.5426130869523
 30
0.0
 11
219.337903540621
 21
87.4176130869523
 31
0.0
  0
LINE
  5
10A
330
1F
100
AcDbEntity
  8
1
  6
Continuous
 62
     4
100
AcDbLine
 10
218.712903540621
 20
87.5426130869523
 30
0.0
 11
218.962903540621
 21
87.5426130869523
 31
0.0
  0
LINE
  5
10B
330
1F
100
AcDbEntity
  8
1
  6
Continuous
 62
     4
100
AcDbLine
 10
218.337903540621
 20
87.4176130869523
 30
0.0
 11
218.712903540621
 21
87.5426130869523
 31
0.0
  0
LINE
  5
10C
330
1F
100
AcDbEntity
  8
1
  6
Continuous
 62
     4
100
AcDbLine
 10
217.962903540621
 20
87.1676130869523
 30
0.0
 11
218.337903540621
 21
87.4176130869523
 31
0.0
  0
LINE
  5
10D
330
1F
100
AcDbEntity
  8
1
  6
Continuous
 62
     4
100
AcDbLine
 10
217.712903540621
 20
86.9176130869523
 30
0.0
 11
217.962903540621
 21
87.1676130869523
 31
0.0
  0
LINE
  5
10E
330
1F
100
AcDbEntity
  8
1
  6
Continuous
 62
     4
100
AcDbLine
 10
217.462903540621
 20
86.4176130869523
 30
0.0
 11
217.712903540621
 21
86.9176130869523
 31
0.0
  0
LINE
  5
10F
330
1F
100
AcDbEntity
  8
1
  6
Continuous
 62
     4
100
AcDbLine
 10
217.337903540621
 20
85.6676130869523
 30
0.0
 11
217.462903540621
 21
86.4176130869523
 31
0.0
  0
LINE
  5
110
330
1F
100
AcDbEntity
  8
1
  6
Continuous
 62
     4
100
AcDbLine
 10
217.337903540621
 20
84.4176130869523
 30
0.0
 11
217.337903540621
 21
85.6676130869523
 31
0.0
  0
LINE
  5
111
330
1F
100
AcDbEntity
  8
1
  6
Continuous
 62
     4
100
AcDbLine
 10
217.462903540621
 20
83.6676130869523
 30
0.0
 11
217.337903540621
 21
84.4176130869523
 31
0.0
  0
LINE
  5
112
330
1F
100
AcDbEntity
  8
1
  6
Continuous
 62
     4
100
AcDbLine
 10
217.712903540621
 20
83.1676130869523
 30
0.0
 11
217.462903540621
 21
83.6676130869523
 31
0.0
  0
LINE
  5
113
330
1F
100
AcDbEntity
  8
1
  6
Continuous
 62
     4
100
AcDbLine
 10
217.962903540621
 20
82.9176130869523
 30
0.0
 11
217.712903540621
 21
83.1676130869523
 31
0.0
  0
LINE
  5
114
330
1F
100
AcDbEntity
  8
1
  6
Continuous
 62
     4
100
AcDbLine
 10
218.337903540621
 20
82.6676130869523
 30
0.0
 11
217.962903540621
 21
82.9176130869523
 31
0.0
  0
LINE
  5
115
330
1F
100
AcDbEntity
  8
1
  6
Continuous
 62
     4
100
AcDbLine
 10
218.712903540621
 20
82.5426130869523
 30
0.0
 11
218.337903540621
 21
82.6676130869523
 31
0.0
  0
LINE
  5
116
330
1F
100
AcDbEntity
  8
1
  6
Continuous
 62
     4
100
AcDbLine
 10
218.962903540621
 20
82.5426130869523
 30
0.0
 11
218.712903540621
 21
82.5426130869523
 31
0.0
  0
LINE
  5
117
330
1F
100
AcDbEntity
  8
1
  6
Continuous
 62
     4
100
AcDbLine
 10
219.337903540621
 20
82.6676130869523
 30
0.0
 11
218.962903540621
 21
82.5426130869523
 31
0.0
  0
LINE
  5
118
330
1F
100
AcDbEntity
  8
1
  6
Continuous
 62
     4
100
AcDbLine
 10
219.712903540621
 20
82.9176130869523
 30
0.0
 11
219.337903540621
 21
82.6676130869523
 31
0.0
  0
LINE
  5
119
330
1F
100
AcDbEntity
  8
1
  6
Continuous
 62
     4
100
AcDbLine
 10
219.962903540621
 20
83.1676130869523
 30
0.0
 11
219.712903540621
 21
82.9176130869523
 31
0.0
  0
LINE
  5
11A
330
1F
100
AcDbEntity
  8
1
  6
Continuous
 62
     4
100
AcDbLine
 10
220.212903540621
 20
83.6676130869523
 30
0.0
 11
219.962903540621
 21
83.1676130869523
 31
0.0
  0
LINE
  5
11B
330
1F
100
AcDbEntity
  8
1
  6
Continuous
 62
     4
100
AcDbLine
 10
220.337903540621
 20
84.4176130869523
 30
0.0
 11
220.212903540621
 21
83.6676130869523
 31
0.0
  0
LINE
  5
11C
330
1F
100
AcDbEntity
  8
1
  6
Continuous
 62
     4
100
AcDbLine
 10
215.837903540621
 20
85.6676130869523
 30
0.0
 11
215.837903540621
 21
84.4176130869523
 31
0.0
  0
LINE
  5
11D
330
1F
100
AcDbEntity
  8
1
  6
Continuous
 62
     4
100
AcDbLine
 10
215.712903540621
 20
86.4176130869523
 30
0.0
 11
215.837903540621
 21
85.6676130869523
 31
0.0
  0
LINE
  5
11E
330
1F
100
AcDbEntity
  8
1
  6
Continuous
 62
     4
100
AcDbLine
 10
215.462903540621
 20
86.9176130869523
 30
0.0
 11
215.712903540621
 21
86.4176130869523
 31
0.0
  0
LINE
  5
11F
330
1F
100
AcDbEntity
  8
1
  6
Continuous
 62
     4
100
AcDbLine
 10
215.212903540621
 20
87.1676130869523
 30
0.0
 11
215.462903540621
 21
86.9176130869523
 31
0.0
  0
LINE
  5
120
330
1F
100
AcDbEntity
  8
1
  6
Continuous
 62
     4
100
AcDbLine
 10
214.837903540621
 20
87.4176130869523
 30
0.0
 11
215.212903540621
 21
87.1676130869523
 31
0.0
  0
LINE
  5
121
330
1F
100
AcDbEntity
  8
1
  6
Continuous
 62
     4
100
AcDbLine
 10
214.462903540621
 20
87.5426130869523
 30
0.0
 11
214.837903540621
 21
87.4176130869523
 31
0.0
  0
LINE
  5
122
330
1F
100
AcDbEntity
  8
1
  6
Continuous
 62
     4
100
AcDbLine
 10
214.212903540621
 20
87.5426130869523
 30
0.0
 11
214.462903540621
 21
87.5426130869523
 31
0.0
  0
LINE
  5
123
330
1F
100
AcDbEntity
  8
1
  6
Continuous
 62
     4
100
AcDbLine
 10
213.837903540621
 20
87.4176130869523
 30
0.0
 11
214.212903540621
 21
87.5426130869523
 31
0.0
  0
LINE
  5
124
330
1F
100
AcDbEntity
  8
1
  6
Continuous
 62
     4
100
AcDbLine
 10
213.462903540621
 20
87.1676130869523
 30
0.0
 11
213.837903540621
 21
87.4176130869523
 31
0.0
  0
LINE
  5
125
330
1F
100
AcDbEntity
  8
1
  6
Continuous
 62
     4
100
AcDbLine
 10
213.212903540621
 20
86.9176130869523
 30
0.0
 11
213.462903540621
 21
87.1676130869523
 31
0.0
  0
LINE
  5
126
330
1F
100
AcDbEntity
  8
1
  6
Continuous
 62
     4
100
AcDbLine
 10
212.962903540621
 20
86.4176130869523
 30
0.0
 11
213.212903540621
 21
86.9176130869523
 31
0.0
  0
LINE
  5
127
330
1F
100
AcDbEntity
  8
1
  6
Continuous
 62
     4
100
AcDbLine
 10
212.837903540621
 20
85.6676130869523
 30
0.0
 11
212.962903540621
 21
86.4176130869523
 31
0.0
  0
LINE
  5
128
330
1F
100
AcDbEntity
  8
1
  6
Continuous
 62
     4
100
AcDbLine
 10
212.837903540621
 20
84.4176130869523
 30
0.0
 11
212.837903540621
 21
85.6676130869523
 31
0.0
  0
LINE
  5
129
330
1F
100
AcDbEntity
  8
1
  6
Continuous
 62
     4
100
AcDbLine
 10
212.962903540621
 20
83.6676130869523
 30
0.0
 11
212.837903540621
 21
84.4176130869523
 31
0.0
  0
LINE
  5
12A
330
1F
100
AcDbEntity
  8
1
  6
Continuous
 62
     4
100
AcDbLine
 10
213.212903540621
 20
83.1676130869523
 30
0.0
 11
212.962903540621
 21
83.6676130869523
 31
0.0
  0
LINE
  5
12B
330
1F
100
AcDbEntity
  8
1
  6
Continuous
 62
     4
100
AcDbLine
 10
213.462903540621
 20
82.9176130869523
 30
0.0
 11
213.212903540621
 21
83.1676130869523
 31
0.0
  0
LINE
  5
12C
330
1F
100
AcDbEntity
  8
1
  6
Continuous
 62
     4
100
AcDbLine
 10
213.837903540621
 20
82.6676130869523
 30
0.0
 11
213.462903540621
 21
82.9176130869523
 31
0.0
  0
LINE
  5
12D
330
1F
100
AcDbEntity
  8
1
  6
Continuous
 62
     4
100
AcDbLine
 10
214.212903540621
 20
82.5426130869523
 30
0.0
 11
213.837903540621
 21
82.6676130869523
 31
0.0
  0
LINE
  5
12E
330
1F
100
AcDbEntity
  8
1
  6
Continuous
 62
     4
100
AcDbLine
 10
214.462903540621
 20
82.5426130869523
 30
0.0
 11
214.212903540621
 21
82.5426130869523
 31
0.0
  0
LINE
  5
12F
330
1F
100
AcDbEntity
  8
1
  6
Continuous
 62
     4
100
AcDbLine
 10
214.837903540621
 20
82.6676130869523
 30
0.0
 11
214.462903540621
 21
82.5426130869523
 31
0.0
  0
LINE
  5
130
330
1F
100
AcDbEntity
  8
1
  6
Continuous
 62
     4
100
AcDbLine
 10
215.212903540621
 20
82.9176130869523
 30
0.0
 11
214.837903540621
 21
82.6676130869523
 31
0.0
  0
LINE
  5
131
330
1F
100
AcDbEntity
  8
1
  6
Continuous
 62
     4
100
AcDbLine
 10
215.462903540621
 20
83.1676130869523
 30
0.0
 11
215.212903540621
 21
82.9176130869523
 31
0.0
  0
LINE
  5
132
330
1F
100
AcDbEntity
  8
1
  6
Continuous
 62
     4
100
AcDbLine
 10
215.712903540621
 20
83.6676130869523
 30
0.0
 11
215.462903540621
 21
83.1676130869523
 31
0.0
  0
LINE
  5
133
330
1F
100
AcDbEntity
  8
1
  6
Continuous
 62
     4
100
AcDbLine
 10
215.837903540621
 20
84.4176130869523
 30
0.0
 11
215.712903540621
 21
83.6676130869523
 31
0.0
  0
LINE
  5
134
330
1F
100
AcDbEntity
  8
1
  6
Continuous
 62
     4
100
AcDbLine
 10
211.337903540621
 20
87.5426130869523
 30
0.0
 11
211.337903540621
 21
82.5426130869523
 31
0.0
  0
LINE
  5
135
330
1F
100
AcDbEntity
  8
1
  6
Continuous
 62
     4
100
AcDbLine
 10
209.837903540621
 20
86.0426130869523
 30
0.0
 11
211.337903540621
 21
87.5426130869523
 31
0.0
  0
LINE
  5
136
330
1F
100
AcDbEntity
  8
1
  6
Continuous
 62
     4
100
AcDbLine
 10
198.337903540621
 20
85.6676130869523
 30
0.0
 11
198.337903540621
 21
84.4176130869523
 31
0.0
  0
LINE
  5
137
330
1F
100
AcDbEntity
  8
1
  6
Continuous
 62
     4
100
AcDbLine
 10
198.212903540621
 20
86.4176130869523
 30
0.0
 11
198.337903540621
 21
85.6676130869523
 31
0.0
  0
LINE
  5
138
330
1F
100
AcDbEntity
  8
1
  6
Continuous
 62
     4
100
AcDbLine
 10
197.962903540621
 20
86.9176130869523
 30
0.0
 11
198.212903540621
 21
86.4176130869523
 31
0.0
  0
LINE
  5
139
330
1F
100
AcDbEntity
  8
1
  6
Continuous
 62
     4
100
AcDbLine
 10
197.712903540621
 20
87.1676130869523
 30
0.0
 11
197.962903540621
 21
86.9176130869523
 31
0.0
  0
LINE
  5
13A
330
1F
100
AcDbEntity
  8
1
  6
Continuous
 62
     4
100
AcDbLine
 10
197.337903540621
 20
87.4176130869523
 30
0.0
 11
197.712903540621
 21
87.1676130869523
 31
0.0
  0
LINE
  5
13B
330
1F
100
AcDbEntity
  8
1
  6
Continuous
 62
     4
100
AcDbLine
 10
196.962903540621
 20
87.5426130869523
 30
0.0
 11
197.337903540621
 21
87.4176130869523
 31
0.0
  0
LINE
  5
13C
330
1F
100
AcDbEntity
  8
1
  6
Continuous
 62
     4
100
AcDbLine
 10
196.712903540621
 20
87.5426130869523
 30
0.0
 11
196.962903540621
 21
87.5426130869523
 31
0.0
  0
LINE
  5
13D
330
1F
100
AcDbEntity
  8
1
  6
Continuous
 62
     4
100
AcDbLine
 10
196.337903540621
 20
87.4176130869523
 30
0.0
 11
196.712903540621
 21
87.5426130869523
 31
0.0
  0
LINE
  5
13E
330
1F
100
AcDbEntity
  8
1
  6
Continuous
 62
     4
100
AcDbLine
 10
195.962903540621
 20
87.1676130869523
 30
0.0
 11
196.337903540621
 21
87.4176130869523
 31
0.0
  0
LINE
  5
13F
330
1F
100
AcDbEntity
  8
1
  6
Continuous
 62
     4
100
AcDbLine
 10
195.712903540621
 20
86.9176130869523
 30
0.0
 11
195.962903540621
 21
87.1676130869523
 31
0.0
  0
LINE
  5
140
330
1F
100
AcDbEntity
  8
1
  6
Continuous
 62
     4
100
AcDbLine
 10
195.462903540621
 20
86.4176130869523
 30
0.0
 11
195.712903540621
 21
86.9176130869523
 31
0.0
  0
LINE
  5
141
330
1F
100
AcDbEntity
  8
1
  6
Continuous
 62
     4
100
AcDbLine
 10
195.337903540621
 20
85.6676130869523
 30
0.0
 11
195.462903540621
 21
86.4176130869523
 31
0.0
  0
LINE
  5
142
330
1F
100
AcDbEntity
  8
1
  6
Continuous
 62
     4
100
AcDbLine
 10
195.337903540621
 20
84.4176130869523
 30
0.0
 11
195.337903540621
 21
85.6676130869523
 31
0.0
  0
LINE
  5
143
330
1F
100
AcDbEntity
  8
1
  6
Continuous
 62
     4
100
AcDbLine
 10
195.462903540621
 20
83.6676130869523
 30
0.0
 11
195.337903540621
 21
84.4176130869523
 31
0.0
  0
LINE
  5
144
330
1F
100
AcDbEntity
  8
1
  6
Continuous
 62
     4
100
AcDbLine
 10
195.712903540621
 20
83.1676130869523
 30
0.0
 11
195.462903540621
 21
83.6676130869523
 31
0.0
  0
LINE
  5
145
330
1F
100
AcDbEntity
  8
1
  6
Continuous
 62
     4
100
AcDbLine
 10
195.962903540621
 20
82.9176130869523
 30
0.0
 11
195.712903540621
 21
83.1676130869523
 31
0.0
  0
LINE
  5
146
330
1F
100
AcDbEntity
  8
1
  6
Continuous
 62
     4
100
AcDbLine
 10
196.337903540621
 20
82.6676130869523
 30
0.0
 11
195.962903540621
 21
82.9176130869523
 31
0.0
  0
LINE
  5
147
330
1F
100
AcDbEntity
  8
1
  6
Continuous
 62
     4
100
AcDbLine
 10
196.712903540621
 20
82.5426130869523
 30
0.0
 11
196.337903540621
 21
82.6676130869523
 31
0.0
  0
LINE
  5
148
330
1F
100
AcDbEntity
  8
1
  6
Continuous
 62
     4
100
AcDbLine
 10
196.962903540621
 20
82.5426130869523
 30
0.0
 11
196.712903540621
 21
82.5426130869523
 31
0.0
  0
LINE
  5
149
330
1F
100
AcDbEntity
  8
1
  6
Continuous
 62
     4
100
AcDbLine
 10
197.337903540621
 20
82.6676130869523
 30
0.0
 11
196.962903540621
 21
82.5426130869523
 31
0.0
  0
LINE
  5
14A
330
1F
100
AcDbEntity
  8
1
  6
Continuous
 62
     4
100
AcDbLine
 10
197.712903540621
 20
82.9176130869523
 30
0.0
 11
197.337903540621
 21
82.6676130869523
 31
0.0
  0
LINE
  5
14B
330
1F
100
AcDbEntity
  8
1
  6
Continuous
 62
     4
100
AcDbLine
 10
197.962903540621
 20
83.1676130869523
 30
0.0
 11
197.712903540621
 21
82.9176130869523
 31
0.0
  0
LINE
  5
14C
330
1F
100
AcDbEntity
  8
1
  6
Continuous
 62
     4
100
AcDbLine
 10
198.212903540621
 20
83.6676130869523
 30
0.0
 11
197.962903540621
 21
83.1676130869523
 31
0.0
  0
LINE
  5
14D
330
1F
100
AcDbEntity
  8
1
  6
Continuous
 62
     4
100
AcDbLine
 10
198.337903540621
 20
84.4176130869523
 30
0.0
 11
198.212903540621
 21
83.6676130869523
 31
0.0
  0
LINE
  5
14E
330
1F
100
AcDbEntity
  8
1
  6
Continuous
 62
     4
100
AcDbLine
 10
193.962903540621
 20
82.7926130869523
 30
0.0
 11
193.962903540621
 21
82.6676130869523
 31
0.0
  0
LINE
  5
14F
330
1F
100
AcDbEntity
  8
1
  6
Continuous
 62
     4
100
AcDbLine
 10
193.837903540621
 20
82.7926130869523
 30
0.0
 11
193.962903540621
 21
82.7926130869523
 31
0.0
  0
LINE
  5
150
330
1F
100
AcDbEntity
  8
1
  6
Continuous
 62
     4
100
AcDbLine
 10
193.837903540621
 20
82.6676130869523
 30
0.0
 11
193.837903540621
 21
82.7926130869523
 31
0.0
  0
LINE
  5
151
330
1F
100
AcDbEntity
  8
1
  6
Continuous
 62
     4
100
AcDbLine
 10
193.962903540621
 20
82.6676130869523
 30
0.0
 11
193.837903540621
 21
82.6676130869523
 31
0.0
  0
LINE
  5
152
330
1F
100
AcDbEntity
  8
1
  6
Continuous
 62
     4
100
AcDbLine
 10
194.087903540621
 20
82.9176130869523
 30
0.0
 11
194.087903540621
 21
82.5426130869523
 31
0.0
  0
LINE
  5
153
330
1F
100
AcDbEntity
  8
1
  6
Continuous
 62
     4
100
AcDbLine
 10
193.712903540621
 20
82.9176130869523
 30
0.0
 11
194.087903540621
 21
82.9176130869523
 31
0.0
  0
LINE
  5
154
330
1F
100
AcDbEntity
  8
1
  6
Continuous
 62
     4
100
AcDbLine
 10
193.712903540621
 20
82.5426130869523
 30
0.0
 11
193.712903540621
 21
82.9176130869523
 31
0.0
  0
LINE
  5
155
330
1F
100
AcDbEntity
  8
1
  6
Continuous
 62
     4
100
AcDbLine
 10
194.087903540621
 20
82.5426130869523
 30
0.0
 11
193.712903540621
 21
82.5426130869523
 31
0.0
  0
LINE
  5
156
330
1F
100
AcDbEntity
  8
1
  6
Continuous
 62
     4
100
AcDbLine
 10
192.212903540621
 20
87.5426130869523
 30
0.0
 11
192.212903540621
 21
82.5426130869523
 31
0.0
  0
LINE
  5
157
330
1F
100
AcDbEntity
  8
1
  6
Continuous
 62
     4
100
AcDbLine
 10
190.712903540621
 20
86.0426130869523
 30
0.0
 11
192.212903540621
 21
87.5426130869523
 31
0.0
  0
LINE
  5
158
330
1F
100
AcDbEntity
  8
1
  6
Continuous
 62
     4
100
AcDbLine
 10
223.337903540621
 20
93.9976130869523
 30
0.0
 11
223.337903540621
 21
92.7476130869523
 31
0.0
  0
LINE
  5
159
330
1F
100
AcDbEntity
  8
1
  6
Continuous
 62
     4
100
AcDbLine
 10
223.212903540621
 20
94.7476130869523
 30
0.0
 11
223.337903540621
 21
93.9976130869523
 31
0.0
  0
LINE
  5
15A
330
1F
100
AcDbEntity
  8
1
  6
Continuous
 62
     4
100
AcDbLine
 10
222.962903540621
 20
95.2476130869523
 30
0.0
 11
223.212903540621
 21
94.7476130869523
 31
0.0
  0
LINE
  5
15B
330
1F
100
AcDbEntity
  8
1
  6
Continuous
 62
     4
100
AcDbLine
 10
222.712903540621
 20
95.4976130869523
 30
0.0
 11
222.962903540621
 21
95.2476130869523
 31
0.0
  0
LINE
  5
15C
330
1F
100
AcDbEntity
  8
1
  6
Continuous
 62
     4
100
AcDbLine
 10
222.337903540621
 20
95.7476130869523
 30
0.0
 11
222.712903540621
 21
95.4976130869523
 31
0.0
  0
LINE
  5
15D
330
1F
100
AcDbEntity
  8
1
  6
Continuous
 62
     4
100
AcDbLine
 10
221.962903540621
 20
95.8726130869523
 30
0.0
 11
222.337903540621
 21
95.7476130869523
 31
0.0
  0
LINE
  5
15E
330
1F
100
AcDbEntity
  8
1
  6
Continuous
 62
     4
100
AcDbLine
 10
221.712903540621
 20
95.8726130869523
 30
0.0
 11
221.962903540621
 21
95.8726130869523
 31
0.0
  0
LINE
  5
15F
330
1F
100
AcDbEntity
  8
1
  6
Continuous
 62
     4
100
AcDbLine
 10
221.337903540621
 20
95.7476130869523
 30
0.0
 11
221.712903540621
 21
95.8726130869523
 31
0.0
  0
LINE
  5
160
330
1F
100
AcDbEntity
  8
1
  6
Continuous
 62
     4
100
AcDbLine
 10
220.962903540621
 20
95.4976130869523
 30
0.0
 11
221.337903540621
 21
95.7476130869523
 31
0.0
  0
LINE
  5
161
330
1F
100
AcDbEntity
  8
1
  6
Continuous
 62
     4
100
AcDbLine
 10
220.712903540621
 20
95.2476130869523
 30
0.0
 11
220.962903540621
 21
95.4976130869523
 31
0.0
  0
LINE
  5
162
330
1F
100
AcDbEntity
  8
1
  6
Continuous
 62
     4
100
AcDbLine
 10
220.462903540621
 20
94.7476130869523
 30
0.0
 11
220.712903540621
 21
95.2476130869523
 31
0.0
  0
LINE
  5
163
330
1F
100
AcDbEntity
  8
1
  6
Continuous
 62
     4
100
AcDbLine
 10
220.337903540621
 20
93.9976130869523
 30
0.0
 11
220.462903540621
 21
94.7476130869523
 31
0.0
  0
LINE
  5
164
330
1F
100
AcDbEntity
  8
1
  6
Continuous
 62
     4
100
AcDbLine
 10
220.337903540621
 20
92.7476130869523
 30
0.0
 11
220.337903540621
 21
93.9976130869523
 31
0.0
  0
LINE
  5
165
330
1F
100
AcDbEntity
  8
1
  6
Continuous
 62
     4
100
AcDbLine
 10
220.462903540621
 20
91.9976130869523
 30
0.0
 11
220.337903540621
 21
92.7476130869523
 31
0.0
  0
LINE
  5
166
330
1F
100
AcDbEntity
  8
1
  6
Continuous
 62
     4
100
AcDbLine
 10
220.712903540621
 20
91.4976130869523
 30
0.0
 11
220.462903540621
 21
91.9976130869523
 31
0.0
  0
LINE
  5
167
330
1F
100
AcDbEntity
  8
1
  6
Continuous
 62
     4
100
AcDbLine
 10
220.962903540621
 20
91.2476130869523
 30
0.0
 11
220.712903540621
 21
91.4976130869523
 31
0.0
  0
LINE
  5
168
330
1F
100
AcDbEntity
  8
1
  6
Continuous
 62
     4
100
AcDbLine
 10
221.337903540621
 20
90.9976130869523
 30
0.0
 11
220.962903540621
 21
91.2476130869523
 31
0.0
  0
LINE
  5
169
330
1F
100
AcDbEntity
  8
1
  6
Continuous
 62
     4
100
AcDbLine
 10
221.712903540621
 20
90.8726130869523
 30
0.0
 11
221.337903540621
 21
90.9976130869523
 31
0.0
  0
LINE
  5
16A
330
1F
100
AcDbEntity
  8
1
  6
Continuous
 62
     4
100
AcDbLine
 10
221.962903540621
 20
90.8726130869523
 30
0.0
 11
221.712903540621
 21
90.8726130869523
 31
0.0
  0
LINE
  5
16B
330
1F
100
AcDbEntity
  8
1
  6
Continuous
 62
     4
100
AcDbLine
 10
222.337903540621
 20
90.9976130869523
 30
0.0
 11
221.962903540621
 21
90.8726130869523
 31
0.0
  0
LINE
  5
16C
330
1F
100
AcDbEntity
  8
1
  6
Continuous
 62
     4
100
AcDbLine
 10
222.712903540621
 20
91.2476130869523
 30
0.0
 11
222.337903540621
 21
90.9976130869523
 31
0.0
  0
LINE
  5
16D
330
1F
100
AcDbEntity
  8
1
  6
Continuous
 62
     4
100
AcDbLine
 10
222.962903540621
 20
91.4976130869523
 30
0.0
 11
222.712903540621
 21
91.2476130869523
 31
0.0
  0
LINE
  5
16E
330
1F
100
AcDbEntity
  8
1
  6
Continuous
 62
     4
100
AcDbLine
 10
223.212903540621
 20
91.9976130869523
 30
0.0
 11
222.962903540621
 21
91.4976130869523
 31
0.0
  0
LINE
  5
16F
330
1F
100
AcDbEntity
  8
1
  6
Continuous
 62
     4
100
AcDbLine
 10
223.337903540621
 20
92.7476130869523
 30
0.0
 11
223.212903540621
 21
91.9976130869523
 31
0.0
  0
LINE
  5
170
330
1F
100
AcDbEntity
  8
1
  6
Continuous
 62
     4
100
AcDbLine
 10
218.837903540621
 20
93.9976130869523
 30
0.0
 11
218.837903540621
 21
92.7476130869523
 31
0.0
  0
LINE
  5
171
330
1F
100
AcDbEntity
  8
1
  6
Continuous
 62
     4
100
AcDbLine
 10
218.712903540621
 20
94.7476130869523
 30
0.0
 11
218.837903540621
 21
93.9976130869523
 31
0.0
  0
LINE
  5
172
330
1F
100
AcDbEntity
  8
1
  6
Continuous
 62
     4
100
AcDbLine
 10
218.462903540621
 20
95.2476130869523
 30
0.0
 11
218.712903540621
 21
94.7476130869523
 31
0.0
  0
LINE
  5
173
330
1F
100
AcDbEntity
  8
1
  6
Continuous
 62
     4
100
AcDbLine
 10
218.212903540621
 20
95.4976130869523
 30
0.0
 11
218.462903540621
 21
95.2476130869523
 31
0.0
  0
LINE
  5
174
330
1F
100
AcDbEntity
  8
1
  6
Continuous
 62
     4
100
AcDbLine
 10
217.837903540621
 20
95.7476130869523
 30
0.0
 11
218.212903540621
 21
95.4976130869523
 31
0.0
  0
LINE
  5
175
330
1F
100
AcDbEntity
  8
1
  6
Continuous
 62
     4
100
AcDbLine
 10
217.462903540621
 20
95.8726130869523
 30
0.0
 11
217.837903540621
 21
95.7476130869523
 31
0.0
  0
LINE
  5
176
330
1F
100
AcDbEntity
  8
1
  6
Continuous
 62
     4
100
AcDbLine
 10
217.212903540621
 20
95.8726130869523
 30
0.0
 11
217.462903540621
 21
95.8726130869523
 31
0.0
  0
LINE
  5
177
330
1F
100
AcDbEntity
  8
1
  6
Continuous
 62
     4
100
AcDbLine
 10
216.837903540621
 20
95.7476130869523
 30
0.0
 11
217.212903540621
 21
95.8726130869523
 31
0.0
  0
LINE
  5
178
330
1F
100
AcDbEntity
  8
1
  6
Continuous
 62
     4
100
AcDbLine
 10
216.462903540621
 20
95.4976130869523
 30
0.0
 11
216.837903540621
 21
95.7476130869523
 31
0.0
  0
LINE
  5
179
330
1F
100
AcDbEntity
  8
1
  6
Continuous
 62
     4
100
AcDbLine
 10
216.212903540621
 20
95.2476130869523
 30
0.0
 11
216.462903540621
 21
95.4976130869523
 31
0.0
  0
LINE
  5
17A
330
1F
100
AcDbEntity
  8
1
  6
Continuous
 62
     4
100
AcDbLine
 10
215.962903540621
 20
94.7476130869523
 30
0.0
 11
216.212903540621
 21
95.2476130869523
 31
0.0
  0
LINE
  5
17B
330
1F
100
AcDbEntity
  8
1
  6
Continuous
 62
     4
100
AcDbLine
 10
215.837903540621
 20
93.9976130869523
 30
0.0
 11
215.962903540621
 21
94.7476130869523
 31
0.0
  0
LINE
  5
17C
330
1F
100
AcDbEntity
  8
1
  6
Continuous
 62
     4
100
AcDbLine
 10
215.837903540621
 20
92.7476130869523
 30
0.0
 11
215.837903540621
 21
93.9976130869523
 31
0.0
  0
LINE
  5
17D
330
1F
100
AcDbEntity
  8
1
  6
Continuous
 62
     4
100
AcDbLine
 10
215.962903540621
 20
91.9976130869523
 30
0.0
 11
215.837903540621
 21
92.7476130869523
 31
0.0
  0
LINE
  5
17E
330
1F
100
AcDbEntity
  8
1
  6
Continuous
 62
     4
100
AcDbLine
 10
216.212903540621
 20
91.4976130869523
 30
0.0
 11
215.962903540621
 21
91.9976130869523
 31
0.0
  0
LINE
  5
17F
330
1F
100
AcDbEntity
  8
1
  6
Continuous
 62
     4
100
AcDbLine
 10
216.462903540621
 20
91.2476130869523
 30
0.0
 11
216.212903540621
 21
91.4976130869523
 31
0.0
  0
LINE
  5
180
330
1F
100
AcDbEntity
  8
1
  6
Continuous
 62
     4
100
AcDbLine
 10
216.837903540621
 20
90.9976130869523
 30
0.0
 11
216.462903540621
 21
91.2476130869523
 31
0.0
  0
LINE
  5
181
330
1F
100
AcDbEntity
  8
1
  6
Continuous
 62
     4
100
AcDbLine
 10
217.212903540621
 20
90.8726130869523
 30
0.0
 11
216.837903540621
 21
90.9976130869523
 31
0.0
  0
LINE
  5
182
330
1F
100
AcDbEntity
  8
1
  6
Continuous
 62
     4
100
AcDbLine
 10
217.462903540621
 20
90.8726130869523
 30
0.0
 11
217.212903540621
 21
90.8726130869523
 31
0.0
  0
LINE
  5
183
330
1F
100
AcDbEntity
  8
1
  6
Continuous
 62
     4
100
AcDbLine
 10
217.837903540621
 20
90.9976130869523
 30
0.0
 11
217.462903540621
 21
90.8726130869523
 31
0.0
  0
LINE
  5
184
330
1F
100
AcDbEntity
  8
1
  6
Continuous
 62
     4
100
AcDbLine
 10
218.212903540621
 20
91.2476130869523
 30
0.0
 11
217.837903540621
 21
90.9976130869523
 31
0.0
  0
LINE
  5
185
330
1F
100
AcDbEntity
  8
1
  6
Continuous
 62
     4
100
AcDbLine
 10
218.462903540621
 20
91.4976130869523
 30
0.0
 11
218.212903540621
 21
91.2476130869523
 31
0.0
  0
LINE
  5
186
330
1F
100
AcDbEntity
  8
1
  6
Continuous
 62
     4
100
AcDbLine
 10
218.712903540621
 20
91.9976130869523
 30
0.0
 11
218.462903540621
 21
91.4976130869523
 31
0.0
  0
LINE
  5
187
330
1F
100
AcDbEntity
  8
1
  6
Continuous
 62
     4
100
AcDbLine
 10
218.837903540621
 20
92.7476130869523
 30
0.0
 11
218.712903540621
 21
91.9976130869523
 31
0.0
  0
LINE
  5
188
330
1F
100
AcDbEntity
  8
1
  6
Continuous
 62
     4
100
AcDbLine
 10
211.837903540621
 20
95.4976130869523
 30
0.0
 11
212.212903540621
 21
95.7476130869523
 31
0.0
  0
LINE
  5
189
330
1F
100
AcDbEntity
  8
1
  6
Continuous
 62
     4
100
AcDbLine
 10
211.587903540621
 20
95.1226130869523
 30
0.0
 11
211.837903540621
 21
95.4976130869523
 31
0.0
  0
LINE
  5
18A
330
1F
100
AcDbEntity
  8
1
  6
Continuous
 62
     4
100
AcDbLine
 10
211.587903540621
 20
94.6226130869523
 30
0.0
 11
211.587903540621
 21
95.1226130869523
 31
0.0
  0
LINE
  5
18B
330
1F
100
AcDbEntity
  8
1
  6
Continuous
 62
     4
100
AcDbLine
 10
211.837903540621
 20
94.2476130869523
 30
0.0
 11
211.587903540621
 21
94.6226130869523
 31
0.0
  0
LINE
  5
18C
330
1F
100
AcDbEntity
  8
1
  6
Continuous
 62
     4
100
AcDbLine
 10
212.212903540621
 20
93.9976130869523
 30
0.0
 11
211.837903540621
 21
94.2476130869523
 31
0.0
  0
LINE
  5
18D
330
1F
100
AcDbEntity
  8
1
  6
Continuous
 62
     4
100
AcDbLine
 10
212.587903540621
 20
93.8726130869523
 30
0.0
 11
212.212903540621
 21
93.9976130869523
 31
0.0
  0
LINE
  5
18E
330
1F
100
AcDbEntity
  8
1
  6
Continuous
 62
     4
100
AcDbLine
 10
213.087903540621
 20
93.8726130869523
 30
0.0
 11
212.587903540621
 21
93.8726130869523
 31
0.0
  0
LINE
  5
18F
330
1F
100
AcDbEntity
  8
1
  6
Continuous
 62
     4
100
AcDbLine
 10
213.462903540621
 20
93.9976130869523
 30
0.0
 11
213.087903540621
 21
93.8726130869523
 31
0.0
  0
LINE
  5
190
330
1F
100
AcDbEntity
  8
1
  6
Continuous
 62
     4
100
AcDbLine
 10
213.837903540621
 20
94.2476130869523
 30
0.0
 11
213.462903540621
 21
93.9976130869523
 31
0.0
  0
LINE
  5
191
330
1F
100
AcDbEntity
  8
1
  6
Continuous
 62
     4
100
AcDbLine
 10
214.087903540621
 20
94.6226130869523
 30
0.0
 11
213.837903540621
 21
94.2476130869523
 31
0.0
  0
LINE
  5
192
330
1F
100
AcDbEntity
  8
1
  6
Continuous
 62
     4
100
AcDbLine
 10
214.087903540621
 20
95.1226130869523
 30
0.0
 11
214.087903540621
 21
94.6226130869523
 31
0.0
  0
LINE
  5
193
330
1F
100
AcDbEntity
  8
1
  6
Continuous
 62
     4
100
AcDbLine
 10
213.837903540621
 20
95.4976130869523
 30
0.0
 11
214.087903540621
 21
95.1226130869523
 31
0.0
  0
LINE
  5
194
330
1F
100
AcDbEntity
  8
1
  6
Continuous
 62
     4
100
AcDbLine
 10
213.462903540621
 20
95.7476130869523
 30
0.0
 11
213.837903540621
 21
95.4976130869523
 31
0.0
  0
LINE
  5
195
330
1F
100
AcDbEntity
  8
1
  6
Continuous
 62
     4
100
AcDbLine
 10
213.087903540621
 20
95.8726130869523
 30
0.0
 11
213.462903540621
 21
95.7476130869523
 31
0.0
  0
LINE
  5
196
330
1F
100
AcDbEntity
  8
1
  6
Continuous
 62
     4
100
AcDbLine
 10
212.587903540621
 20
95.8726130869523
 30
0.0
 11
213.087903540621
 21
95.8726130869523
 31
0.0
  0
LINE
  5
197
330
1F
100
AcDbEntity
  8
1
  6
Continuous
 62
     4
100
AcDbLine
 10
212.212903540621
 20
95.7476130869523
 30
0.0
 11
212.587903540621
 21
95.8726130869523
 31
0.0
  0
LINE
  5
198
330
1F
100
AcDbEntity
  8
1
  6
Continuous
 62
     4
100
AcDbLine
 10
213.712903540621
 20
93.6226130869523
 30
0.0
 11
213.087903540621
 21
93.8726130869523
 31
0.0
  0
LINE
  5
199
330
1F
100
AcDbEntity
  8
1
  6
Continuous
 62
     4
100
AcDbLine
 10
214.087903540621
 20
93.2476130869523
 30
0.0
 11
213.712903540621
 21
93.6226130869523
 31
0.0
  0
LINE
  5
19A
330
1F
100
AcDbEntity
  8
1
  6
Continuous
 62
     4
100
AcDbLine
 10
214.337903540621
 20
92.7476130869523
 30
0.0
 11
214.087903540621
 21
93.2476130869523
 31
0.0
  0
LINE
  5
19B
330
1F
100
AcDbEntity
  8
1
  6
Continuous
 62
     4
100
AcDbLine
 10
214.337903540621
 20
91.9976130869523
 30
0.0
 11
214.337903540621
 21
92.7476130869523
 31
0.0
  0
LINE
  5
19C
330
1F
100
AcDbEntity
  8
1
  6
Continuous
 62
     4
100
AcDbLine
 10
214.087903540621
 20
91.4976130869523
 30
0.0
 11
214.337903540621
 21
91.9976130869523
 31
0.0
  0
LINE
  5
19D
330
1F
100
AcDbEntity
  8
1
  6
Continuous
 62
     4
100
AcDbLine
 10
213.712903540621
 20
91.1226130869523
 30
0.0
 11
214.087903540621
 21
91.4976130869523
 31
0.0
  0
LINE
  5
19E
330
1F
100
AcDbEntity
  8
1
  6
Continuous
 62
     4
100
AcDbLine
 10
213.212903540621
 20
90.8726130869523
 30
0.0
 11
213.712903540621
 21
91.1226130869523
 31
0.0
  0
LINE
  5
19F
330
1F
100
AcDbEntity
  8
1
  6
Continuous
 62
     4
100
AcDbLine
 10
212.462903540621
 20
90.8726130869523
 30
0.0
 11
213.212903540621
 21
90.8726130869523
 31
0.0
  0
LINE
  5
1A0
330
1F
100
AcDbEntity
  8
1
  6
Continuous
 62
     4
100
AcDbLine
 10
211.962903540621
 20
91.1226130869523
 30
0.0
 11
212.462903540621
 21
90.8726130869523
 31
0.0
  0
LINE
  5
1A1
330
1F
100
AcDbEntity
  8
1
  6
Continuous
 62
     4
100
AcDbLine
 10
211.587903540621
 20
91.4976130869523
 30
0.0
 11
211.962903540621
 21
91.1226130869523
 31
0.0
  0
LINE
  5
1A2
330
1F
100
AcDbEntity
  8
1
  6
Continuous
 62
     4
100
AcDbLine
 10
211.337903540621
 20
91.9976130869523
 30
0.0
 11
211.587903540621
 21
91.4976130869523
 31
0.0
  0
LINE
  5
1A3
330
1F
100
AcDbEntity
  8
1
  6
Continuous
 62
     4
100
AcDbLine
 10
211.337903540621
 20
92.7476130869523
 30
0.0
 11
211.337903540621
 21
91.9976130869523
 31
0.0
  0
LINE
  5
1A4
330
1F
100
AcDbEntity
  8
1
  6
Continuous
 62
     4
100
AcDbLine
 10
211.587903540621
 20
93.2476130869523
 30
0.0
 11
211.337903540621
 21
92.7476130869523
 31
0.0
  0
LINE
  5
1A5
330
1F
100
AcDbEntity
  8
1
  6
Continuous
 62
     4
100
AcDbLine
 10
211.962903540621
 20
93.6226130869523
 30
0.0
 11
211.587903540621
 21
93.2476130869523
 31
0.0
  0
LINE
  5
1A6
330
1F
100
AcDbEntity
  8
1
  6
Continuous
 62
     4
100
AcDbLine
 10
212.587903540621
 20
93.8726130869523
 30
0.0
 11
211.962903540621
 21
93.6226130869523
 31
0.0
  0
LINE
  5
1A7
330
1F
100
AcDbEntity
  8
1
  6
Continuous
 62
     4
100
AcDbLine
 10
197.337903540621
 20
95.4976130869523
 30
0.0
 11
197.712903540621
 21
95.7476130869523
 31
0.0
  0
LINE
  5
1A8
330
1F
100
AcDbEntity
  8
1
  6
Continuous
 62
     4
100
AcDbLine
 10
197.087903540621
 20
95.1226130869523
 30
0.0
 11
197.337903540621
 21
95.4976130869523
 31
0.0
  0
LINE
  5
1A9
330
1F
100
AcDbEntity
  8
1
  6
Continuous
 62
     4
100
AcDbLine
 10
197.087903540621
 20
94.6226130869523
 30
0.0
 11
197.087903540621
 21
95.1226130869523
 31
0.0
  0
LINE
  5
1AA
330
1F
100
AcDbEntity
  8
1
  6
Continuous
 62
     4
100
AcDbLine
 10
197.337903540621
 20
94.2476130869523
 30
0.0
 11
197.087903540621
 21
94.6226130869523
 31
0.0
  0
LINE
  5
1AB
330
1F
100
AcDbEntity
  8
1
  6
Continuous
 62
     4
100
AcDbLine
 10
197.712903540621
 20
93.9976130869523
 30
0.0
 11
197.337903540621
 21
94.2476130869523
 31
0.0
  0
LINE
  5
1AC
330
1F
100
AcDbEntity
  8
1
  6
Continuous
 62
     4
100
AcDbLine
 10
198.087903540621
 20
93.8726130869523
 30
0.0
 11
197.712903540621
 21
93.9976130869523
 31
0.0
  0
LINE
  5
1AD
330
1F
100
AcDbEntity
  8
1
  6
Continuous
 62
     4
100
AcDbLine
 10
198.587903540621
 20
93.8726130869523
 30
0.0
 11
198.087903540621
 21
93.8726130869523
 31
0.0
  0
LINE
  5
1AE
330
1F
100
AcDbEntity
  8
1
  6
Continuous
 62
     4
100
AcDbLine
 10
198.962903540621
 20
93.9976130869523
 30
0.0
 11
198.587903540621
 21
93.8726130869523
 31
0.0
  0
LINE
  5
1AF
330
1F
100
AcDbEntity
  8
1
  6
Continuous
 62
     4
100
AcDbLine
 10
199.337903540621
 20
94.2476130869523
 30
0.0
 11
198.962903540621
 21
93.9976130869523
 31
0.0
  0
LINE
  5
1B0
330
1F
100
AcDbEntity
  8
1
  6
Continuous
 62
     4
100
AcDbLine
 10
199.587903540621
 20
94.6226130869523
 30
0.0
 11
199.337903540621
 21
94.2476130869523
 31
0.0
  0
LINE
  5
1B1
330
1F
100
AcDbEntity
  8
1
  6
Continuous
 62
     4
100
AcDbLine
 10
199.587903540621
 20
95.1226130869523
 30
0.0
 11
199.587903540621
 21
94.6226130869523
 31
0.0
  0
LINE
  5
1B2
330
1F
100
AcDbEntity
  8
1
  6
Continuous
 62
     4
100
AcDbLine
 10
199.337903540621
 20
95.4976130869523
 30
0.0
 11
199.587903540621
 21
95.1226130869523
 31
0.0
  0
LINE
  5
1B3
330
1F
100
AcDbEntity
  8
1
  6
Continuous
 62
     4
100
AcDbLine
 10
198.962903540621
 20
95.7476130869523
 30
0.0
 11
199.337903540621
 21
95.4976130869523
 31
0.0
  0
LINE
  5
1B4
330
1F
100
AcDbEntity
  8
1
  6
Continuous
 62
     4
100
AcDbLine
 10
198.587903540621
 20
95.8726130869523
 30
0.0
 11
198.962903540621
 21
95.7476130869523
 31
0.0
  0
LINE
  5
1B5
330
1F
100
AcDbEntity
  8
1
  6
Continuous
 62
     4
100
AcDbLine
 10
198.087903540621
 20
95.8726130869523
 30
0.0
 11
198.587903540621
 21
95.8726130869523
 31
0.0
  0
LINE
  5
1B6
330
1F
100
AcDbEntity
  8
1
  6
Continuous
 62
     4
100
AcDbLine
 10
197.712903540621
 20
95.7476130869523
 30
0.0
 11
198.087903540621
 21
95.8726130869523
 31
0.0
  0
LINE
  5
1B7
330
1F
100
AcDbEntity
  8
1
  6
Continuous
 62
     4
100
AcDbLine
 10
199.212903540621
 20
93.6226130869523
 30
0.0
 11
198.587903540621
 21
93.8726130869523
 31
0.0
  0
LINE
  5
1B8
330
1F
100
AcDbEntity
  8
1
  6
Continuous
 62
     4
100
AcDbLine
 10
199.587903540621
 20
93.2476130869523
 30
0.0
 11
199.212903540621
 21
93.6226130869523
 31
0.0
  0
LINE
  5
1B9
330
1F
100
AcDbEntity
  8
1
  6
Continuous
 62
     4
100
AcDbLine
 10
199.837903540621
 20
92.7476130869523
 30
0.0
 11
199.587903540621
 21
93.2476130869523
 31
0.0
  0
LINE
  5
1BA
330
1F
100
AcDbEntity
  8
1
  6
Continuous
 62
     4
100
AcDbLine
 10
199.837903540621
 20
91.9976130869523
 30
0.0
 11
199.837903540621
 21
92.7476130869523
 31
0.0
  0
LINE
  5
1BB
330
1F
100
AcDbEntity
  8
1
  6
Continuous
 62
     4
100
AcDbLine
 10
199.587903540621
 20
91.4976130869523
 30
0.0
 11
199.837903540621
 21
91.9976130869523
 31
0.0
  0
LINE
  5
1BC
330
1F
100
AcDbEntity
  8
1
  6
Continuous
 62
     4
100
AcDbLine
 10
199.212903540621
 20
91.1226130869523
 30
0.0
 11
199.587903540621
 21
91.4976130869523
 31
0.0
  0
LINE
  5
1BD
330
1F
100
AcDbEntity
  8
1
  6
Continuous
 62
     4
100
AcDbLine
 10
198.712903540621
 20
90.8726130869523
 30
0.0
 11
199.212903540621
 21
91.1226130869523
 31
0.0
  0
LINE
  5
1BE
330
1F
100
AcDbEntity
  8
1
  6
Continuous
 62
     4
100
AcDbLine
 10
197.962903540621
 20
90.8726130869523
 30
0.0
 11
198.712903540621
 21
90.8726130869523
 31
0.0
  0
LINE
  5
1BF
330
1F
100
AcDbEntity
  8
1
  6
Continuous
 62
     4
100
AcDbLine
 10
197.462903540621
 20
91.1226130869523
 30
0.0
 11
197.962903540621
 21
90.8726130869523
 31
0.0
  0
LINE
  5
1C0
330
1F
100
AcDbEntity
  8
1
  6
Continuous
 62
     4
100
AcDbLine
 10
197.087903540621
 20
91.4976130869523
 30
0.0
 11
197.462903540621
 21
91.1226130869523
 31
0.0
  0
LINE
  5
1C1
330
1F
100
AcDbEntity
  8
1
  6
Continuous
 62
     4
100
AcDbLine
 10
196.837903540621
 20
91.9976130869523
 30
0.0
 11
197.087903540621
 21
91.4976130869523
 31
0.0
  0
LINE
  5
1C2
330
1F
100
AcDbEntity
  8
1
  6
Continuous
 62
     4
100
AcDbLine
 10
196.837903540621
 20
92.7476130869523
 30
0.0
 11
196.837903540621
 21
91.9976130869523
 31
0.0
  0
LINE
  5
1C3
330
1F
100
AcDbEntity
  8
1
  6
Continuous
 62
     4
100
AcDbLine
 10
197.087903540621
 20
93.2476130869523
 30
0.0
 11
196.837903540621
 21
92.7476130869523
 31
0.0
  0
LINE
  5
1C4
330
1F
100
AcDbEntity
  8
1
  6
Continuous
 62
     4
100
AcDbLine
 10
197.462903540621
 20
93.6226130869523
 30
0.0
 11
197.087903540621
 21
93.2476130869523
 31
0.0
  0
LINE
  5
1C5
330
1F
100
AcDbEntity
  8
1
  6
Continuous
 62
     4
100
AcDbLine
 10
198.087903540621
 20
93.8726130869523
 30
0.0
 11
197.462903540621
 21
93.6226130869523
 31
0.0
  0
LINE
  5
1C6
330
1F
100
AcDbEntity
  8
1
  6
Continuous
 62
     4
100
AcDbLine
 10
195.462903540621
 20
91.1226130869523
 30
0.0
 11
195.462903540621
 21
90.9976130869523
 31
0.0
  0
LINE
  5
1C7
330
1F
100
AcDbEntity
  8
1
  6
Continuous
 62
     4
100
AcDbLine
 10
195.337903540621
 20
91.1226130869523
 30
0.0
 11
195.462903540621
 21
91.1226130869523
 31
0.0
  0
LINE
  5
1C8
330
1F
100
AcDbEntity
  8
1
  6
Continuous
 62
     4
100
AcDbLine
 10
195.337903540621
 20
90.9976130869523
 30
0.0
 11
195.337903540621
 21
91.1226130869523
 31
0.0
  0
LINE
  5
1C9
330
1F
100
AcDbEntity
  8
1
  6
Continuous
 62
     4
100
AcDbLine
 10
195.462903540621
 20
90.9976130869523
 30
0.0
 11
195.337903540621
 21
90.9976130869523
 31
0.0
  0
LINE
  5
1CA
330
1F
100
AcDbEntity
  8
1
  6
Continuous
 62
     4
100
AcDbLine
 10
195.587903540621
 20
91.2476130869523
 30
0.0
 11
195.587903540621
 21
90.8726130869523
 31
0.0
  0
LINE
  5
1CB
330
1F
100
AcDbEntity
  8
1
  6
Continuous
 62
     4
100
AcDbLine
 10
195.212903540621
 20
91.2476130869523
 30
0.0
 11
195.587903540621
 21
91.2476130869523
 31
0.0
  0
LINE
  5
1CC
330
1F
100
AcDbEntity
  8
1
  6
Continuous
 62
     4
100
AcDbLine
 10
195.212903540621
 20
90.8726130869523
 30
0.0
 11
195.212903540621
 21
91.2476130869523
 31
0.0
  0
LINE
  5
1CD
330
1F
100
AcDbEntity
  8
1
  6
Continuous
 62
     4
100
AcDbLine
 10
195.587903540621
 20
90.8726130869523
 30
0.0
 11
195.212903540621
 21
90.8726130869523
 31
0.0
  0
LINE
  5
1CE
330
1F
100
AcDbEntity
  8
1
  6
Continuous
 62
     4
100
AcDbLine
 10
193.712903540621
 20
93.9976130869523
 30
0.0
 11
193.712903540621
 21
92.7476130869523
 31
0.0
  0
LINE
  5
1CF
330
1F
100
AcDbEntity
  8
1
  6
Continuous
 62
     4
100
AcDbLine
 10
193.587903540621
 20
94.7476130869523
 30
0.0
 11
193.712903540621
 21
93.9976130869523
 31
0.0
  0
LINE
  5
1D0
330
1F
100
AcDbEntity
  8
1
  6
Continuous
 62
     4
100
AcDbLine
 10
193.337903540621
 20
95.2476130869523
 30
0.0
 11
193.587903540621
 21
94.7476130869523
 31
0.0
  0
LINE
  5
1D1
330
1F
100
AcDbEntity
  8
1
  6
Continuous
 62
     4
100
AcDbLine
 10
193.087903540621
 20
95.4976130869523
 30
0.0
 11
193.337903540621
 21
95.2476130869523
 31
0.0
  0
LINE
  5
1D2
330
1F
100
AcDbEntity
  8
1
  6
Continuous
 62
     4
100
AcDbLine
 10
192.712903540621
 20
95.7476130869523
 30
0.0
 11
193.087903540621
 21
95.4976130869523
 31
0.0
  0
LINE
  5
1D3
330
1F
100
AcDbEntity
  8
1
  6
Continuous
 62
     4
100
AcDbLine
 10
192.337903540621
 20
95.8726130869523
 30
0.0
 11
192.712903540621
 21
95.7476130869523
 31
0.0
  0
LINE
  5
1D4
330
1F
100
AcDbEntity
  8
1
  6
Continuous
 62
     4
100
AcDbLine
 10
192.087903540621
 20
95.8726130869523
 30
0.0
 11
192.337903540621
 21
95.8726130869523
 31
0.0
  0
LINE
  5
1D5
330
1F
100
AcDbEntity
  8
1
  6
Continuous
 62
     4
100
AcDbLine
 10
191.712903540621
 20
95.7476130869523
 30
0.0
 11
192.087903540621
 21
95.8726130869523
 31
0.0
  0
LINE
  5
1D6
330
1F
100
AcDbEntity
  8
1
  6
Continuous
 62
     4
100
AcDbLine
 10
191.337903540621
 20
95.4976130869523
 30
0.0
 11
191.712903540621
 21
95.7476130869523
 31
0.0
  0
LINE
  5
1D7
330
1F
100
AcDbEntity
  8
1
  6
Continuous
 62
     4
100
AcDbLine
 10
191.087903540621
 20
95.2476130869523
 30
0.0
 11
191.337903540621
 21
95.4976130869523
 31
0.0
  0
LINE
  5
1D8
330
1F
100
AcDbEntity
  8
1
  6
Continuous
 62
     4
100
AcDbLine
 10
190.837903540621
 20
94.7476130869523
 30
0.0
 11
191.087903540621
 21
95.2476130869523
 31
0.0
  0
LINE
  5
1D9
330
1F
100
AcDbEntity
  8
1
  6
Continuous
 62
     4
100
AcDbLine
 10
190.712903540621
 20
93.9976130869523
 30
0.0
 11
190.837903540621
 21
94.7476130869523
 31
0.0
  0
LINE
  5
1DA
330
1F
100
AcDbEntity
  8
1
  6
Continuous
 62
     4
100
AcDbLine
 10
190.712903540621
 20
92.7476130869523
 30
0.0
 11
190.712903540621
 21
93.9976130869523
 31
0.0
  0
LINE
  5
1DB
330
1F
100
AcDbEntity
  8
1
  6
Continuous
 62
     4
100
AcDbLine
 10
190.837903540621
 20
91.9976130869523
 30
0.0
 11
190.712903540621
 21
92.7476130869523
 31
0.0
  0
LINE
  5
1DC
330
1F
100
AcDbEntity
  8
1
  6
Continuous
 62
     4
100
AcDbLine
 10
191.087903540621
 20
91.4976130869523
 30
0.0
 11
190.837903540621
 21
91.9976130869523
 31
0.0
  0
LINE
  5
1DD
330
1F
100
AcDbEntity
  8
1
  6
Continuous
 62
     4
100
AcDbLine
 10
191.337903540621
 20
91.2476130869523
 30
0.0
 11
191.087903540621
 21
91.4976130869523
 31
0.0
  0
LINE
  5
1DE
330
1F
100
AcDbEntity
  8
1
  6
Continuous
 62
     4
100
AcDbLine
 10
191.712903540621
 20
90.9976130869523
 30
0.0
 11
191.337903540621
 21
91.2476130869523
 31
0.0
  0
LINE
  5
1DF
330
1F
100
AcDbEntity
  8
1
  6
Continuous
 62
     4
100
AcDbLine
 10
192.087903540621
 20
90.8726130869523
 30
0.0
 11
191.712903540621
 21
90.9976130869523
 31
0.0
  0
LINE
  5
1E0
330
1F
100
AcDbEntity
  8
1
  6
Continuous
 62
     4
100
AcDbLine
 10
192.337903540621
 20
90.8726130869523
 30
0.0
 11
192.087903540621
 21
90.8726130869523
 31
0.0
  0
LINE
  5
1E1
330
1F
100
AcDbEntity
  8
1
  6
Continuous
 62
     4
100
AcDbLine
 10
192.712903540621
 20
90.9976130869523
 30
0.0
 11
192.337903540621
 21
90.8726130869523
 31
0.0
  0
LINE
  5
1E2
330
1F
100
AcDbEntity
  8
1
  6
Continuous
 62
     4
100
AcDbLine
 10
193.087903540621
 20
91.2476130869523
 30
0.0
 11
192.712903540621
 21
90.9976130869523
 31
0.0
  0
LINE
  5
1E3
330
1F
100
AcDbEntity
  8
1
  6
Continuous
 62
     4
100
AcDbLine
 10
193.337903540621
 20
91.4976130869523
 30
0.0
 11
193.087903540621
 21
91.2476130869523
 31
0.0
  0
LINE
  5
1E4
330
1F
100
AcDbEntity
  8
1
  6
Continuous
 62
     4
100
AcDbLine
 10
193.587903540621
 20
91.9976130869523
 30
0.0
 11
193.337903540621
 21
91.4976130869523
 31
0.0
  0
LINE
  5
1E5
330
1F
100
AcDbEntity
  8
1
  6
Continuous
 62
     4
100
AcDbLine
 10
193.712903540621
 20
92.7476130869523
 30
0.0
 11
193.587903540621
 21
91.9976130869523
 31
0.0
  0
LINE
  5
1E6
330
1F
100
AcDbEntity
  8
1
  6
Continuous
 62
     4
100
AcDbLine
 10
223.337903540621
 20
102.3276130869523
 30
0.0
 11
223.337903540621
 21
101.0776130869523
 31
0.0
  0
LINE
  5
1E7
330
1F
100
AcDbEntity
  8
1
  6
Continuous
 62
     4
100
AcDbLine
 10
223.212903540621
 20
103.0776130869523
 30
0.0
 11
223.337903540621
 21
102.3276130869523
 31
0.0
  0
LINE
  5
1E8
330
1F
100
AcDbEntity
  8
1
  6
Continuous
 62
     4
100
AcDbLine
 10
222.962903540621
 20
103.5776130869523
 30
0.0
 11
223.212903540621
 21
103.0776130869523
 31
0.0
  0
LINE
  5
1E9
330
1F
100
AcDbEntity
  8
1
  6
Continuous
 62
     4
100
AcDbLine
 10
222.712903540621
 20
103.8276130869523
 30
0.0
 11
222.962903540621
 21
103.5776130869523
 31
0.0
  0
LINE
  5
1EA
330
1F
100
AcDbEntity
  8
1
  6
Continuous
 62
     4
100
AcDbLine
 10
222.337903540621
 20
104.0776130869523
 30
0.0
 11
222.712903540621
 21
103.8276130869523
 31
0.0
  0
LINE
  5
1EB
330
1F
100
AcDbEntity
  8
1
  6
Continuous
 62
     4
100
AcDbLine
 10
221.962903540621
 20
104.2026130869523
 30
0.0
 11
222.337903540621
 21
104.0776130869523
 31
0.0
  0
LINE
  5
1EC
330
1F
100
AcDbEntity
  8
1
  6
Continuous
 62
     4
100
AcDbLine
 10
221.712903540621
 20
104.2026130869523
 30
0.0
 11
221.962903540621
 21
104.2026130869523
 31
0.0
  0
LINE
  5
1ED
330
1F
100
AcDbEntity
  8
1
  6
Continuous
 62
     4
100
AcDbLine
 10
221.337903540621
 20
104.0776130869523
 30
0.0
 11
221.712903540621
 21
104.2026130869523
 31
0.0
  0
LINE
  5
1EE
330
1F
100
AcDbEntity
  8
1
  6
Continuous
 62
     4
100
AcDbLine
 10
220.962903540621
 20
103.8276130869523
 30
0.0
 11
221.337903540621
 21
104.0776130869523
 31
0.0
  0
LINE
  5
1EF
330
1F
100
AcDbEntity
  8
1
  6
Continuous
 62
     4
100
AcDbLine
 10
220.712903540621
 20
103.5776130869523
 30
0.0
 11
220.962903540621
 21
103.8276130869523
 31
0.0
  0
LINE
  5
1F0
330
1F
100
AcDbEntity
  8
1
  6
Continuous
 62
     4
100
AcDbLine
 10
220.462903540621
 20
103.0776130869523
 30
0.0
 11
220.712903540621
 21
103.5776130869523
 31
0.0
  0
LINE
  5
1F1
330
1F
100
AcDbEntity
  8
1
  6
Continuous
 62
     4
100
AcDbLine
 10
220.337903540621
 20
102.3276130869523
 30
0.0
 11
220.462903540621
 21
103.0776130869523
 31
0.0
  0
LINE
  5
1F2
330
1F
100
AcDbEntity
  8
1
  6
Continuous
 62
     4
100
AcDbLine
 10
220.337903540621
 20
101.0776130869523
 30
0.0
 11
220.337903540621
 21
102.3276130869523
 31
0.0
  0
LINE
  5
1F3
330
1F
100
AcDbEntity
  8
1
  6
Continuous
 62
     4
100
AcDbLine
 10
220.462903540621
 20
100.3276130869523
 30
0.0
 11
220.337903540621
 21
101.0776130869523
 31
0.0
  0
LINE
  5
1F4
330
1F
100
AcDbEntity
  8
1
  6
Continuous
 62
     4
100
AcDbLine
 10
220.712903540621
 20
99.8276130869523
 30
0.0
 11
220.462903540621
 21
100.3276130869523
 31
0.0
  0
LINE
  5
1F5
330
1F
100
AcDbEntity
  8
1
  6
Continuous
 62
     4
100
AcDbLine
 10
220.962903540621
 20
99.5776130869523
 30
0.0
 11
220.712903540621
 21
99.8276130869523
 31
0.0
  0
LINE
  5
1F6
330
1F
100
AcDbEntity
  8
1
  6
Continuous
 62
     4
100
AcDbLine
 10
221.337903540621
 20
99.3276130869523
 30
0.0
 11
220.962903540621
 21
99.5776130869523
 31
0.0
  0
LINE
  5
1F7
330
1F
100
AcDbEntity
  8
1
  6
Continuous
 62
     4
100
AcDbLine
 10
221.712903540621
 20
99.2026130869523
 30
0.0
 11
221.337903540621
 21
99.3276130869523
 31
0.0
  0
LINE
  5
1F8
330
1F
100
AcDbEntity
  8
1
  6
Continuous
 62
     4
100
AcDbLine
 10
221.962903540621
 20
99.2026130869523
 30
0.0
 11
221.712903540621
 21
99.2026130869523
 31
0.0
  0
LINE
  5
1F9
330
1F
100
AcDbEntity
  8
1
  6
Continuous
 62
     4
100
AcDbLine
 10
222.337903540621
 20
99.3276130869523
 30
0.0
 11
221.962903540621
 21
99.2026130869523
 31
0.0
  0
LINE
  5
1FA
330
1F
100
AcDbEntity
  8
1
  6
Continuous
 62
     4
100
AcDbLine
 10
222.712903540621
 20
99.5776130869523
 30
0.0
 11
222.337903540621
 21
99.3276130869523
 31
0.0
  0
LINE
  5
1FB
330
1F
100
AcDbEntity
  8
1
  6
Continuous
 62
     4
100
AcDbLine
 10
222.962903540621
 20
99.8276130869523
 30
0.0
 11
222.712903540621
 21
99.5776130869523
 31
0.0
  0
LINE
  5
1FC
330
1F
100
AcDbEntity
  8
1
  6
Continuous
 62
     4
100
AcDbLine
 10
223.212903540621
 20
100.3276130869523
 30
0.0
 11
222.962903540621
 21
99.8276130869523
 31
0.0
  0
LINE
  5
1FD
330
1F
100
AcDbEntity
  8
1
  6
Continuous
 62
     4
100
AcDbLine
 10
223.337903540621
 20
101.0776130869523
 30
0.0
 11
223.212903540621
 21
100.3276130869523
 31
0.0
  0
LINE
  5
1FE
330
1F
100
AcDbEntity
  8
1
  6
Continuous
 62
     4
100
AcDbLine
 10
218.837903540621
 20
102.3276130869523
 30
0.0
 11
218.837903540621
 21
101.0776130869523
 31
0.0
  0
LINE
  5
1FF
330
1F
100
AcDbEntity
  8
1
  6
Continuous
 62
     4
100
AcDbLine
 10
218.712903540621
 20
103.0776130869523
 30
0.0
 11
218.837903540621
 21
102.3276130869523
 31
0.0
  0
LINE
  5
200
330
1F
100
AcDbEntity
  8
1
  6
Continuous
 62
     4
100
AcDbLine
 10
218.462903540621
 20
103.5776130869523
 30
0.0
 11
218.712903540621
 21
103.0776130869523
 31
0.0
  0
LINE
  5
201
330
1F
100
AcDbEntity
  8
1
  6
Continuous
 62
     4
100
AcDbLine
 10
218.212903540621
 20
103.8276130869523
 30
0.0
 11
218.462903540621
 21
103.5776130869523
 31
0.0
  0
LINE
  5
202
330
1F
100
AcDbEntity
  8
1
  6
Continuous
 62
     4
100
AcDbLine
 10
217.837903540621
 20
104.0776130869523
 30
0.0
 11
218.212903540621
 21
103.8276130869523
 31
0.0
  0
LINE
  5
203
330
1F
100
AcDbEntity
  8
1
  6
Continuous
 62
     4
100
AcDbLine
 10
217.462903540621
 20
104.2026130869523
 30
0.0
 11
217.837903540621
 21
104.0776130869523
 31
0.0
  0
LINE
  5
204
330
1F
100
AcDbEntity
  8
1
  6
Continuous
 62
     4
100
AcDbLine
 10
217.212903540621
 20
104.2026130869523
 30
0.0
 11
217.462903540621
 21
104.2026130869523
 31
0.0
  0
LINE
  5
205
330
1F
100
AcDbEntity
  8
1
  6
Continuous
 62
     4
100
AcDbLine
 10
216.837903540621
 20
104.0776130869523
 30
0.0
 11
217.212903540621
 21
104.2026130869523
 31
0.0
  0
LINE
  5
206
330
1F
100
AcDbEntity
  8
1
  6
Continuous
 62
     4
100
AcDbLine
 10
216.462903540621
 20
103.8276130869523
 30
0.0
 11
216.837903540621
 21
104.0776130869523
 31
0.0
  0
LINE
  5
207
330
1F
100
AcDbEntity
  8
1
  6
Continuous
 62
     4
100
AcDbLine
 10
216.212903540621
 20
103.5776130869523
 30
0.0
 11
216.462903540621
 21
103.8276130869523
 31
0.0
  0
LINE
  5
208
330
1F
100
AcDbEntity
  8
1
  6
Continuous
 62
     4
100
AcDbLine
 10
215.962903540621
 20
103.0776130869523
 30
0.0
 11
216.212903540621
 21
103.5776130869523
 31
0.0
  0
LINE
  5
209
330
1F
100
AcDbEntity
  8
1
  6
Continuous
 62
     4
100
AcDbLine
 10
215.837903540621
 20
102.3276130869523
 30
0.0
 11
215.962903540621
 21
103.0776130869523
 31
0.0
  0
LINE
  5
20A
330
1F
100
AcDbEntity
  8
1
  6
Continuous
 62
     4
100
AcDbLine
 10
215.837903540621
 20
101.0776130869523
 30
0.0
 11
215.837903540621
 21
102.3276130869523
 31
0.0
  0
LINE
  5
20B
330
1F
100
AcDbEntity
  8
1
  6
Continuous
 62
     4
100
AcDbLine
 10
215.962903540621
 20
100.3276130869523
 30
0.0
 11
215.837903540621
 21
101.0776130869523
 31
0.0
  0
LINE
  5
20C
330
1F
100
AcDbEntity
  8
1
  6
Continuous
 62
     4
100
AcDbLine
 10
216.212903540621
 20
99.8276130869523
 30
0.0
 11
215.962903540621
 21
100.3276130869523
 31
0.0
  0
LINE
  5
20D
330
1F
100
AcDbEntity
  8
1
  6
Continuous
 62
     4
100
AcDbLine
 10
216.462903540621
 20
99.5776130869523
 30
0.0
 11
216.212903540621
 21
99.8276130869523
 31
0.0
  0
LINE
  5
20E
330
1F
100
AcDbEntity
  8
1
  6
Continuous
 62
     4
100
AcDbLine
 10
216.837903540621
 20
99.3276130869523
 30
0.0
 11
216.462903540621
 21
99.5776130869523
 31
0.0
  0
LINE
  5
20F
330
1F
100
AcDbEntity
  8
1
  6
Continuous
 62
     4
100
AcDbLine
 10
217.212903540621
 20
99.2026130869523
 30
0.0
 11
216.837903540621
 21
99.3276130869523
 31
0.0
  0
LINE
  5
210
330
1F
100
AcDbEntity
  8
1
  6
Continuous
 62
     4
100
AcDbLine
 10
217.462903540621
 20
99.2026130869523
 30
0.0
 11
217.212903540621
 21
99.2026130869523
 31
0.0
  0
LINE
  5
211
330
1F
100
AcDbEntity
  8
1
  6
Continuous
 62
     4
100
AcDbLine
 10
217.837903540621
 20
99.3276130869523
 30
0.0
 11
217.462903540621
 21
99.2026130869523
 31
0.0
  0
LINE
  5
212
330
1F
100
AcDbEntity
  8
1
  6
Continuous
 62
     4
100
AcDbLine
 10
218.212903540621
 20
99.5776130869523
 30
0.0
 11
217.837903540621
 21
99.3276130869523
 31
0.0
  0
LINE
  5
213
330
1F
100
AcDbEntity
  8
1
  6
Continuous
 62
     4
100
AcDbLine
 10
218.462903540621
 20
99.8276130869523
 30
0.0
 11
218.212903540621
 21
99.5776130869523
 31
0.0
  0
LINE
  5
214
330
1F
100
AcDbEntity
  8
1
  6
Continuous
 62
     4
100
AcDbLine
 10
218.712903540621
 20
100.3276130869523
 30
0.0
 11
218.462903540621
 21
99.8276130869523
 31
0.0
  0
LINE
  5
215
330
1F
100
AcDbEntity
  8
1
  6
Continuous
 62
     4
100
AcDbLine
 10
218.837903540621
 20
101.0776130869523
 30
0.0
 11
218.712903540621
 21
100.3276130869523
 31
0.0
  0
LINE
  5
216
330
1F
100
AcDbEntity
  8
1
  6
Continuous
 62
     4
100
AcDbLine
 10
214.337903540621
 20
104.2026130869523
 30
0.0
 11
211.837903540621
 21
99.2026130869523
 31
0.0
  0
LINE
  5
217
330
1F
100
AcDbEntity
  8
1
  6
Continuous
 62
     4
100
AcDbLine
 10
211.337903540621
 20
104.2026130869523
 30
0.0
 11
214.337903540621
 21
104.2026130869523
 31
0.0
  0
LINE
  5
218
330
1F
100
AcDbEntity
  8
1
  6
Continuous
 62
     4
100
AcDbLine
 10
211.337903540621
 20
103.7026130869523
 30
0.0
 11
211.337903540621
 21
104.2026130869523
 31
0.0
  0
LINE
  5
219
330
1F
100
AcDbEntity
  8
1
  6
Continuous
 62
     4
100
AcDbLine
 10
199.837903540621
 20
104.2026130869523
 30
0.0
 11
197.337903540621
 21
99.2026130869523
 31
0.0
  0
LINE
  5
21A
330
1F
100
AcDbEntity
  8
1
  6
Continuous
 62
     4
100
AcDbLine
 10
196.837903540621
 20
104.2026130869523
 30
0.0
 11
199.837903540621
 21
104.2026130869523
 31
0.0
  0
LINE
  5
21B
330
1F
100
AcDbEntity
  8
1
  6
Continuous
 62
     4
100
AcDbLine
 10
196.837903540621
 20
103.7026130869523
 30
0.0
 11
196.837903540621
 21
104.2026130869523
 31
0.0
  0
LINE
  5
21C
330
1F
100
AcDbEntity
  8
1
  6
Continuous
 62
     4
100
AcDbLine
 10
195.462903540621
 20
99.4526130869523
 30
0.0
 11
195.462903540621
 21
99.3276130869523
 31
0.0
  0
LINE
  5
21D
330
1F
100
AcDbEntity
  8
1
  6
Continuous
 62
     4
100
AcDbLine
 10
195.337903540621
 20
99.4526130869523
 30
0.0
 11
195.462903540621
 21
99.4526130869523
 31
0.0
  0
LINE
  5
21E
330
1F
100
AcDbEntity
  8
1
  6
Continuous
 62
     4
100
AcDbLine
 10
195.337903540621
 20
99.3276130869523
 30
0.0
 11
195.337903540621
 21
99.4526130869523
 31
0.0
  0
LINE
  5
21F
330
1F
100
AcDbEntity
  8
1
  6
Continuous
 62
     4
100
AcDbLine
 10
195.462903540621
 20
99.3276130869523
 30
0.0
 11
195.337903540621
 21
99.3276130869523
 31
0.0
  0
LINE
  5
220
330
1F
100
AcDbEntity
  8
1
  6
Continuous
 62
     4
100
AcDbLine
 10
195.587903540621
 20
99.5776130869523
 30
0.0
 11
195.587903540621
 21
99.2026130869523
 31
0.0
  0
LINE
  5
221
330
1F
100
AcDbEntity
  8
1
  6
Continuous
 62
     4
100
AcDbLine
 10
195.212903540621
 20
99.5776130869523
 30
0.0
 11
195.587903540621
 21
99.5776130869523
 31
0.0
  0
LINE
  5
222
330
1F
100
AcDbEntity
  8
1
  6
Continuous
 62
     4
100
AcDbLine
 10
195.212903540621
 20
99.2026130869523
 30
0.0
 11
195.212903540621
 21
99.5776130869523
 31
0.0
  0
LINE
  5
223
330
1F
100
AcDbEntity
  8
1
  6
Continuous
 62
     4
100
AcDbLine
 10
195.587903540621
 20
99.2026130869523
 30
0.0
 11
195.212903540621
 21
99.2026130869523
 31
0.0
  0
LINE
  5
224
330
1F
100
AcDbEntity
  8
1
  6
Continuous
 62
     4
100
AcDbLine
 10
193.712903540621
 20
102.3276130869523
 30
0.0
 11
193.712903540621
 21
101.0776130869523
 31
0.0
  0
LINE
  5
225
330
1F
100
AcDbEntity
  8
1
  6
Continuous
 62
     4
100
AcDbLine
 10
193.587903540621
 20
103.0776130869523
 30
0.0
 11
193.712903540621
 21
102.3276130869523
 31
0.0
  0
LINE
  5
226
330
1F
100
AcDbEntity
  8
1
  6
Continuous
 62
     4
100
AcDbLine
 10
193.337903540621
 20
103.5776130869523
 30
0.0
 11
193.587903540621
 21
103.0776130869523
 31
0.0
  0
LINE
  5
227
330
1F
100
AcDbEntity
  8
1
  6
Continuous
 62
     4
100
AcDbLine
 10
193.087903540621
 20
103.8276130869523
 30
0.0
 11
193.337903540621
 21
103.5776130869523
 31
0.0
  0
LINE
  5
228
330
1F
100
AcDbEntity
  8
1
  6
Continuous
 62
     4
100
AcDbLine
 10
192.712903540621
 20
104.0776130869523
 30
0.0
 11
193.087903540621
 21
103.8276130869523
 31
0.0
  0
LINE
  5
229
330
1F
100
AcDbEntity
  8
1
  6
Continuous
 62
     4
100
AcDbLine
 10
192.337903540621
 20
104.2026130869523
 30
0.0
 11
192.712903540621
 21
104.0776130869523
 31
0.0
  0
LINE
  5
22A
330
1F
100
AcDbEntity
  8
1
  6
Continuous
 62
     4
100
AcDbLine
 10
192.087903540621
 20
104.2026130869523
 30
0.0
 11
192.337903540621
 21
104.2026130869523
 31
0.0
  0
LINE
  5
22B
330
1F
100
AcDbEntity
  8
1
  6
Continuous
 62
     4
100
AcDbLine
 10
191.712903540621
 20
104.0776130869523
 30
0.0
 11
192.087903540621
 21
104.2026130869523
 31
0.0
  0
LINE
  5
22C
330
1F
100
AcDbEntity
  8
1
  6
Continuous
 62
     4
100
AcDbLine
 10
191.337903540621
 20
103.8276130869523
 30
0.0
 11
191.712903540621
 21
104.0776130869523
 31
0.0
  0
LINE
  5
22D
330
1F
100
AcDbEntity
  8
1
  6
Continuous
 62
     4
100
AcDbLine
 10
191.087903540621
 20
103.5776130869523
 30
0.0
 11
191.337903540621
 21
103.8276130869523
 31
0.0
  0
LINE
  5
22E
330
1F
100
AcDbEntity
  8
1
  6
Continuous
 62
     4
100
AcDbLine
 10
190.837903540621
 20
103.0776130869523
 30
0.0
 11
191.087903540621
 21
103.5776130869523
 31
0.0
  0
LINE
  5
22F
330
1F
100
AcDbEntity
  8
1
  6
Continuous
 62
     4
100
AcDbLine
 10
190.712903540621
 20
102.3276130869523
 30
0.0
 11
190.837903540621
 21
103.0776130869523
 31
0.0
  0
LINE
  5
230
330
1F
100
AcDbEntity
  8
1
  6
Continuous
 62
     4
100
AcDbLine
 10
190.712903540621
 20
101.0776130869523
 30
0.0
 11
190.712903540621
 21
102.3276130869523
 31
0.0
  0
LINE
  5
231
330
1F
100
AcDbEntity
  8
1
  6
Continuous
 62
     4
100
AcDbLine
 10
190.837903540621
 20
100.3276130869523
 30
0.0
 11
190.712903540621
 21
101.0776130869523
 31
0.0
  0
LINE
  5
232
330
1F
100
AcDbEntity
  8
1
  6
Continuous
 62
     4
100
AcDbLine
 10
191.087903540621
 20
99.8276130869523
 30
0.0
 11
190.837903540621
 21
100.3276130869523
 31
0.0
  0
LINE
  5
233
330
1F
100
AcDbEntity
  8
1
  6
Continuous
 62
     4
100
AcDbLine
 10
191.337903540621
 20
99.5776130869523
 30
0.0
 11
191.087903540621
 21
99.8276130869523
 31
0.0
  0
LINE
  5
234
330
1F
100
AcDbEntity
  8
1
  6
Continuous
 62
     4
100
AcDbLine
 10
191.712903540621
 20
99.3276130869523
 30
0.0
 11
191.337903540621
 21
99.5776130869523
 31
0.0
  0
LINE
  5
235
330
1F
100
AcDbEntity
  8
1
  6
Continuous
 62
     4
100
AcDbLine
 10
192.087903540621
 20
99.2026130869523
 30
0.0
 11
191.712903540621
 21
99.3276130869523
 31
0.0
  0
LINE
  5
236
330
1F
100
AcDbEntity
  8
1
  6
Continuous
 62
     4
100
AcDbLine
 10
192.337903540621
 20
99.2026130869523
 30
0.0
 11
192.087903540621
 21
99.2026130869523
 31
0.0
  0
LINE
  5
237
330
1F
100
AcDbEntity
  8
1
  6
Continuous
 62
     4
100
AcDbLine
 10
192.712903540621
 20
99.3276130869523
 30
0.0
 11
192.337903540621
 21
99.2026130869523
 31
0.0
  0
LINE
  5
238
330
1F
100
AcDbEntity
  8
1
  6
Continuous
 62
     4
100
AcDbLine
 10
193.087903540621
 20
99.5776130869523
 30
0.0
 11
192.712903540621
 21
99.3276130869523
 31
0.0
  0
LINE
  5
239
330
1F
100
AcDbEntity
  8
1
  6
Continuous
 62
     4
100
AcDbLine
 10
193.337903540621
 20
99.8276130869523
 30
0.0
 11
193.087903540621
 21
99.5776130869523
 31
0.0
  0
LINE
  5
23A
330
1F
100
AcDbEntity
  8
1
  6
Continuous
 62
     4
100
AcDbLine
 10
193.587903540621
 20
100.3276130869523
 30
0.0
 11
193.337903540621
 21
99.8276130869523
 31
0.0
  0
LINE
  5
23B
330
1F
100
AcDbEntity
  8
1
  6
Continuous
 62
     4
100
AcDbLine
 10
193.712903540621
 20
101.0776130869523
 30
0.0
 11
193.587903540621
 21
100.3276130869523
 31
0.0
  0
LINE
  5
23C
330
1F
100
AcDbEntity
  8
1
  6
Continuous
 62
     4
100
AcDbLine
 10
223.337903540621
 20
110.6576130869523
 30
0.0
 11
223.337903540621
 21
109.4076130869523
 31
0.0
  0
LINE
  5
23D
330
1F
100
AcDbEntity
  8
1
  6
Continuous
 62
     4
100
AcDbLine
 10
223.212903540621
 20
111.4076130869523
 30
0.0
 11
223.337903540621
 21
110.6576130869523
 31
0.0
  0
LINE
  5
23E
330
1F
100
AcDbEntity
  8
1
  6
Continuous
 62
     4
100
AcDbLine
 10
222.962903540621
 20
111.9076130869523
 30
0.0
 11
223.212903540621
 21
111.4076130869523
 31
0.0
  0
LINE
  5
23F
330
1F
100
AcDbEntity
  8
1
  6
Continuous
 62
     4
100
AcDbLine
 10
222.712903540621
 20
112.1576130869523
 30
0.0
 11
222.962903540621
 21
111.9076130869523
 31
0.0
  0
LINE
  5
240
330
1F
100
AcDbEntity
  8
1
  6
Continuous
 62
     4
100
AcDbLine
 10
222.337903540621
 20
112.4076130869523
 30
0.0
 11
222.712903540621
 21
112.1576130869523
 31
0.0
  0
LINE
  5
241
330
1F
100
AcDbEntity
  8
1
  6
Continuous
 62
     4
100
AcDbLine
 10
221.962903540621
 20
112.5326130869523
 30
0.0
 11
222.337903540621
 21
112.4076130869523
 31
0.0
  0
LINE
  5
242
330
1F
100
AcDbEntity
  8
1
  6
Continuous
 62
     4
100
AcDbLine
 10
221.712903540621
 20
112.5326130869523
 30
0.0
 11
221.962903540621
 21
112.5326130869523
 31
0.0
  0
LINE
  5
243
330
1F
100
AcDbEntity
  8
1
  6
Continuous
 62
     4
100
AcDbLine
 10
221.337903540621
 20
112.4076130869523
 30
0.0
 11
221.712903540621
 21
112.5326130869523
 31
0.0
  0
LINE
  5
244
330
1F
100
AcDbEntity
  8
1
  6
Continuous
 62
     4
100
AcDbLine
 10
220.962903540621
 20
112.1576130869523
 30
0.0
 11
221.337903540621
 21
112.4076130869523
 31
0.0
  0
LINE
  5
245
330
1F
100
AcDbEntity
  8
1
  6
Continuous
 62
     4
100
AcDbLine
 10
220.712903540621
 20
111.9076130869523
 30
0.0
 11
220.962903540621
 21
112.1576130869523
 31
0.0
  0
LINE
  5
246
330
1F
100
AcDbEntity
  8
1
  6
Continuous
 62
     4
100
AcDbLine
 10
220.462903540621
 20
111.4076130869523
 30
0.0
 11
220.712903540621
 21
111.9076130869523
 31
0.0
  0
LINE
  5
247
330
1F
100
AcDbEntity
  8
1
  6
Continuous
 62
     4
100
AcDbLine
 10
220.337903540621
 20
110.6576130869523
 30
0.0
 11
220.462903540621
 21
111.4076130869523
 31
0.0
  0
LINE
  5
248
330
1F
100
AcDbEntity
  8
1
  6
Continuous
 62
     4
100
AcDbLine
 10
220.337903540621
 20
109.4076130869523
 30
0.0
 11
220.337903540621
 21
110.6576130869523
 31
0.0
  0
LINE
  5
249
330
1F
100
AcDbEntity
  8
1
  6
Continuous
 62
     4
100
AcDbLine
 10
220.462903540621
 20
108.6576130869523
 30
0.0
 11
220.337903540621
 21
109.4076130869523
 31
0.0
  0
LINE
  5
24A
330
1F
100
AcDbEntity
  8
1
  6
Continuous
 62
     4
100
AcDbLine
 10
220.712903540621
 20
108.1576130869523
 30
0.0
 11
220.462903540621
 21
108.6576130869523
 31
0.0
  0
LINE
  5
24B
330
1F
100
AcDbEntity
  8
1
  6
Continuous
 62
     4
100
AcDbLine
 10
220.962903540621
 20
107.9076130869523
 30
0.0
 11
220.712903540621
 21
108.1576130869523
 31
0.0
  0
LINE
  5
24C
330
1F
100
AcDbEntity
  8
1
  6
Continuous
 62
     4
100
AcDbLine
 10
221.337903540621
 20
107.6576130869523
 30
0.0
 11
220.962903540621
 21
107.9076130869523
 31
0.0
  0
LINE
  5
24D
330
1F
100
AcDbEntity
  8
1
  6
Continuous
 62
     4
100
AcDbLine
 10
221.712903540621
 20
107.5326130869523
 30
0.0
 11
221.337903540621
 21
107.6576130869523
 31
0.0
  0
LINE
  5
24E
330
1F
100
AcDbEntity
  8
1
  6
Continuous
 62
     4
100
AcDbLine
 10
221.962903540621
 20
107.5326130869523
 30
0.0
 11
221.712903540621
 21
107.5326130869523
 31
0.0
  0
LINE
  5
24F
330
1F
100
AcDbEntity
  8
1
  6
Continuous
 62
     4
100
AcDbLine
 10
222.337903540621
 20
107.6576130869523
 30
0.0
 11
221.962903540621
 21
107.5326130869523
 31
0.0
  0
LINE
  5
250
330
1F
100
AcDbEntity
  8
1
  6
Continuous
 62
     4
100
AcDbLine
 10
222.712903540621
 20
107.9076130869523
 30
0.0
 11
222.337903540621
 21
107.6576130869523
 31
0.0
  0
LINE
  5
251
330
1F
100
AcDbEntity
  8
1
  6
Continuous
 62
     4
100
AcDbLine
 10
222.962903540621
 20
108.1576130869523
 30
0.0
 11
222.712903540621
 21
107.9076130869523
 31
0.0
  0
LINE
  5
252
330
1F
100
AcDbEntity
  8
1
  6
Continuous
 62
     4
100
AcDbLine
 10
223.212903540621
 20
108.6576130869523
 30
0.0
 11
222.962903540621
 21
108.1576130869523
 31
0.0
  0
LINE
  5
253
330
1F
100
AcDbEntity
  8
1
  6
Continuous
 62
     4
100
AcDbLine
 10
223.337903540621
 20
109.4076130869523
 30
0.0
 11
223.212903540621
 21
108.6576130869523
 31
0.0
  0
LINE
  5
254
330
1F
100
AcDbEntity
  8
1
  6
Continuous
 62
     4
100
AcDbLine
 10
218.837903540621
 20
110.6576130869523
 30
0.0
 11
218.837903540621
 21
109.4076130869523
 31
0.0
  0
LINE
  5
255
330
1F
100
AcDbEntity
  8
1
  6
Continuous
 62
     4
100
AcDbLine
 10
218.712903540621
 20
111.4076130869523
 30
0.0
 11
218.837903540621
 21
110.6576130869523
 31
0.0
  0
LINE
  5
256
330
1F
100
AcDbEntity
  8
1
  6
Continuous
 62
     4
100
AcDbLine
 10
218.462903540621
 20
111.9076130869523
 30
0.0
 11
218.712903540621
 21
111.4076130869523
 31
0.0
  0
LINE
  5
257
330
1F
100
AcDbEntity
  8
1
  6
Continuous
 62
     4
100
AcDbLine
 10
218.212903540621
 20
112.1576130869523
 30
0.0
 11
218.462903540621
 21
111.9076130869523
 31
0.0
  0
LINE
  5
258
330
1F
100
AcDbEntity
  8
1
  6
Continuous
 62
     4
100
AcDbLine
 10
217.837903540621
 20
112.4076130869523
 30
0.0
 11
218.212903540621
 21
112.1576130869523
 31
0.0
  0
LINE
  5
259
330
1F
100
AcDbEntity
  8
1
  6
Continuous
 62
     4
100
AcDbLine
 10
217.462903540621
 20
112.5326130869523
 30
0.0
 11
217.837903540621
 21
112.4076130869523
 31
0.0
  0
LINE
  5
25A
330
1F
100
AcDbEntity
  8
1
  6
Continuous
 62
     4
100
AcDbLine
 10
217.212903540621
 20
112.5326130869523
 30
0.0
 11
217.462903540621
 21
112.5326130869523
 31
0.0
  0
LINE
  5
25B
330
1F
100
AcDbEntity
  8
1
  6
Continuous
 62
     4
100
AcDbLine
 10
216.837903540621
 20
112.4076130869523
 30
0.0
 11
217.212903540621
 21
112.5326130869523
 31
0.0
  0
LINE
  5
25C
330
1F
100
AcDbEntity
  8
1
  6
Continuous
 62
     4
100
AcDbLine
 10
216.462903540621
 20
112.1576130869523
 30
0.0
 11
216.837903540621
 21
112.4076130869523
 31
0.0
  0
LINE
  5
25D
330
1F
100
AcDbEntity
  8
1
  6
Continuous
 62
     4
100
AcDbLine
 10
216.212903540621
 20
111.9076130869523
 30
0.0
 11
216.462903540621
 21
112.1576130869523
 31
0.0
  0
LINE
  5
25E
330
1F
100
AcDbEntity
  8
1
  6
Continuous
 62
     4
100
AcDbLine
 10
215.962903540621
 20
111.4076130869523
 30
0.0
 11
216.212903540621
 21
111.9076130869523
 31
0.0
  0
LINE
  5
25F
330
1F
100
AcDbEntity
  8
1
  6
Continuous
 62
     4
100
AcDbLine
 10
215.837903540621
 20
110.6576130869523
 30
0.0
 11
215.962903540621
 21
111.4076130869523
 31
0.0
  0
LINE
  5
260
330
1F
100
AcDbEntity
  8
1
  6
Continuous
 62
     4
100
AcDbLine
 10
215.837903540621
 20
109.4076130869523
 30
0.0
 11
215.837903540621
 21
110.6576130869523
 31
0.0
  0
LINE
  5
261
330
1F
100
AcDbEntity
  8
1
  6
Continuous
 62
     4
100
AcDbLine
 10
215.962903540621
 20
108.6576130869523
 30
0.0
 11
215.837903540621
 21
109.4076130869523
 31
0.0
  0
LINE
  5
262
330
1F
100
AcDbEntity
  8
1
  6
Continuous
 62
     4
100
AcDbLine
 10
216.212903540621
 20
108.1576130869523
 30
0.0
 11
215.962903540621
 21
108.6576130869523
 31
0.0
  0
LINE
  5
263
330
1F
100
AcDbEntity
  8
1
  6
Continuous
 62
     4
100
AcDbLine
 10
216.462903540621
 20
107.9076130869523
 30
0.0
 11
216.212903540621
 21
108.1576130869523
 31
0.0
  0
LINE
  5
264
330
1F
100
AcDbEntity
  8
1
  6
Continuous
 62
     4
100
AcDbLine
 10
216.837903540621
 20
107.6576130869523
 30
0.0
 11
216.462903540621
 21
107.9076130869523
 31
0.0
  0
LINE
  5
265
330
1F
100
AcDbEntity
  8
1
  6
Continuous
 62
     4
100
AcDbLine
 10
217.212903540621
 20
107.5326130869523
 30
0.0
 11
216.837903540621
 21
107.6576130869523
 31
0.0
  0
LINE
  5
266
330
1F
100
AcDbEntity
  8
1
  6
Continuous
 62
     4
100
AcDbLine
 10
217.462903540621
 20
107.5326130869523
 30
0.0
 11
217.212903540621
 21
107.5326130869523
 31
0.0
  0
LINE
  5
267
330
1F
100
AcDbEntity
  8
1
  6
Continuous
 62
     4
100
AcDbLine
 10
217.837903540621
 20
107.6576130869523
 30
0.0
 11
217.462903540621
 21
107.5326130869523
 31
0.0
  0
LINE
  5
268
330
1F
100
AcDbEntity
  8
1
  6
Continuous
 62
     4
100
AcDbLine
 10
218.212903540621
 20
107.9076130869523
 30
0.0
 11
217.837903540621
 21
107.6576130869523
 31
0.0
  0
LINE
  5
269
330
1F
100
AcDbEntity
  8
1
  6
Continuous
 62
     4
100
AcDbLine
 10
218.462903540621
 20
108.1576130869523
 30
0.0
 11
218.212903540621
 21
107.9076130869523
 31
0.0
  0
LINE
  5
26A
330
1F
100
AcDbEntity
  8
1
  6
Continuous
 62
     4
100
AcDbLine
 10
218.712903540621
 20
108.6576130869523
 30
0.0
 11
218.462903540621
 21
108.1576130869523
 31
0.0
  0
LINE
  5
26B
330
1F
100
AcDbEntity
  8
1
  6
Continuous
 62
     4
100
AcDbLine
 10
218.837903540621
 20
109.4076130869523
 30
0.0
 11
218.712903540621
 21
108.6576130869523
 31
0.0
  0
LINE
  5
26C
330
1F
100
AcDbEntity
  8
1
  6
Continuous
 62
     4
100
AcDbLine
 10
212.212903540621
 20
111.4076130869523
 30
0.0
 11
213.587903540621
 21
112.5326130869523
 31
0.0
  0
LINE
  5
26D
330
1F
100
AcDbEntity
  8
1
  6
Continuous
 62
     4
100
AcDbLine
 10
211.712903540621
 20
110.7826130869523
 30
0.0
 11
212.212903540621
 21
111.4076130869523
 31
0.0
  0
LINE
  5
26E
330
1F
100
AcDbEntity
  8
1
  6
Continuous
 62
     4
100
AcDbLine
 10
211.462903540621
 20
110.2826130869523
 30
0.0
 11
211.712903540621
 21
110.7826130869523
 31
0.0
  0
LINE
  5
26F
330
1F
100
AcDbEntity
  8
1
  6
Continuous
 62
     4
100
AcDbLine
 10
211.337903540621
 20
109.2826130869523
 30
0.0
 11
211.462903540621
 21
110.2826130869523
 31
0.0
  0
LINE
  5
270
330
1F
100
AcDbEntity
  8
1
  6
Continuous
 62
     4
100
AcDbLine
 10
211.337903540621
 20
108.7826130869523
 30
0.0
 11
211.337903540621
 21
109.2826130869523
 31
0.0
  0
LINE
  5
271
330
1F
100
AcDbEntity
  8
1
  6
Continuous
 62
     4
100
AcDbLine
 10
211.462903540621
 20
108.2826130869523
 30
0.0
 11
211.337903540621
 21
108.7826130869523
 31
0.0
  0
LINE
  5
272
330
1F
100
AcDbEntity
  8
1
  6
Continuous
 62
     4
100
AcDbLine
 10
211.712903540621
 20
107.9076130869523
 30
0.0
 11
211.462903540621
 21
108.2826130869523
 31
0.0
  0
LINE
  5
273
330
1F
100
AcDbEntity
  8
1
  6
Continuous
 62
     4
100
AcDbLine
 10
212.087903540621
 20
107.6576130869523
 30
0.0
 11
211.712903540621
 21
107.9076130869523
 31
0.0
  0
LINE
  5
274
330
1F
100
AcDbEntity
  8
1
  6
Continuous
 62
     4
100
AcDbLine
 10
212.462903540621
 20
107.5326130869523
 30
0.0
 11
212.087903540621
 21
107.6576130869523
 31
0.0
  0
LINE
  5
275
330
1F
100
AcDbEntity
  8
1
  6
Continuous
 62
     4
100
AcDbLine
 10
213.212903540621
 20
107.5326130869523
 30
0.0
 11
212.462903540621
 21
107.5326130869523
 31
0.0
  0
LINE
  5
276
330
1F
100
AcDbEntity
  8
1
  6
Continuous
 62
     4
100
AcDbLine
 10
213.587903540621
 20
107.6576130869523
 30
0.0
 11
213.212903540621
 21
107.5326130869523
 31
0.0
  0
LINE
  5
277
330
1F
100
AcDbEntity
  8
1
  6
Continuous
 62
     4
100
AcDbLine
 10
213.962903540621
 20
107.9076130869523
 30
0.0
 11
213.587903540621
 21
107.6576130869523
 31
0.0
  0
LINE
  5
278
330
1F
100
AcDbEntity
  8
1
  6
Continuous
 62
     4
100
AcDbLine
 10
214.212903540621
 20
108.2826130869523
 30
0.0
 11
213.962903540621
 21
107.9076130869523
 31
0.0
  0
LINE
  5
279
330
1F
100
AcDbEntity
  8
1
  6
Continuous
 62
     4
100
AcDbLine
 10
214.337903540621
 20
108.7826130869523
 30
0.0
 11
214.212903540621
 21
108.2826130869523
 31
0.0
  0
LINE
  5
27A
330
1F
100
AcDbEntity
  8
1
  6
Continuous
 62
     4
100
AcDbLine
 10
214.337903540621
 20
109.2826130869523
 30
0.0
 11
214.337903540621
 21
108.7826130869523
 31
0.0
  0
LINE
  5
27B
330
1F
100
AcDbEntity
  8
1
  6
Continuous
 62
     4
100
AcDbLine
 10
214.212903540621
 20
109.7826130869523
 30
0.0
 11
214.337903540621
 21
109.2826130869523
 31
0.0
  0
LINE
  5
27C
330
1F
100
AcDbEntity
  8
1
  6
Continuous
 62
     4
100
AcDbLine
 10
213.962903540621
 20
110.1576130869523
 30
0.0
 11
214.212903540621
 21
109.7826130869523
 31
0.0
  0
LINE
  5
27D
330
1F
100
AcDbEntity
  8
1
  6
Continuous
 62
     4
100
AcDbLine
 10
213.587903540621
 20
110.4076130869523
 30
0.0
 11
213.962903540621
 21
110.1576130869523
 31
0.0
  0
LINE
  5
27E
330
1F
100
AcDbEntity
  8
1
  6
Continuous
 62
     4
100
AcDbLine
 10
213.212903540621
 20
110.5326130869523
 30
0.0
 11
213.587903540621
 21
110.4076130869523
 31
0.0
  0
LINE
  5
27F
330
1F
100
AcDbEntity
  8
1
  6
Continuous
 62
     4
100
AcDbLine
 10
212.462903540621
 20
110.5326130869523
 30
0.0
 11
213.212903540621
 21
110.5326130869523
 31
0.0
  0
LINE
  5
280
330
1F
100
AcDbEntity
  8
1
  6
Continuous
 62
     4
100
AcDbLine
 10
212.087903540621
 20
110.4076130869523
 30
0.0
 11
212.462903540621
 21
110.5326130869523
 31
0.0
  0
LINE
  5
281
330
1F
100
AcDbEntity
  8
1
  6
Continuous
 62
     4
100
AcDbLine
 10
211.712903540621
 20
110.1576130869523
 30
0.0
 11
212.087903540621
 21
110.4076130869523
 31
0.0
  0
LINE
  5
282
330
1F
100
AcDbEntity
  8
1
  6
Continuous
 62
     4
100
AcDbLine
 10
211.462903540621
 20
109.7826130869523
 30
0.0
 11
211.712903540621
 21
110.1576130869523
 31
0.0
  0
LINE
  5
283
330
1F
100
AcDbEntity
  8
1
  6
Continuous
 62
     4
100
AcDbLine
 10
211.337903540621
 20
109.2826130869523
 30
0.0
 11
211.462903540621
 21
109.7826130869523
 31
0.0
  0
LINE
  5
284
330
1F
100
AcDbEntity
  8
1
  6
Continuous
 62
     4
100
AcDbLine
 10
197.712903540621
 20
111.4076130869523
 30
0.0
 11
199.087903540621
 21
112.5326130869523
 31
0.0
  0
LINE
  5
285
330
1F
100
AcDbEntity
  8
1
  6
Continuous
 62
     4
100
AcDbLine
 10
197.212903540621
 20
110.7826130869523
 30
0.0
 11
197.712903540621
 21
111.4076130869523
 31
0.0
  0
LINE
  5
286
330
1F
100
AcDbEntity
  8
1
  6
Continuous
 62
     4
100
AcDbLine
 10
196.962903540621
 20
110.2826130869523
 30
0.0
 11
197.212903540621
 21
110.7826130869523
 31
0.0
  0
LINE
  5
287
330
1F
100
AcDbEntity
  8
1
  6
Continuous
 62
     4
100
AcDbLine
 10
196.837903540621
 20
109.2826130869523
 30
0.0
 11
196.962903540621
 21
110.2826130869523
 31
0.0
  0
LINE
  5
288
330
1F
100
AcDbEntity
  8
1
  6
Continuous
 62
     4
100
AcDbLine
 10
196.837903540621
 20
108.7826130869523
 30
0.0
 11
196.837903540621
 21
109.2826130869523
 31
0.0
  0
LINE
  5
289
330
1F
100
AcDbEntity
  8
1
  6
Continuous
 62
     4
100
AcDbLine
 10
196.962903540621
 20
108.2826130869523
 30
0.0
 11
196.837903540621
 21
108.7826130869523
 31
0.0
  0
LINE
  5
28A
330
1F
100
AcDbEntity
  8
1
  6
Continuous
 62
     4
100
AcDbLine
 10
197.212903540621
 20
107.9076130869523
 30
0.0
 11
196.962903540621
 21
108.2826130869523
 31
0.0
  0
LINE
  5
28B
330
1F
100
AcDbEntity
  8
1
  6
Continuous
 62
     4
100
AcDbLine
 10
197.587903540621
 20
107.6576130869523
 30
0.0
 11
197.212903540621
 21
107.9076130869523
 31
0.0
  0
LINE
  5
28C
330
1F
100
AcDbEntity
  8
1
  6
Continuous
 62
     4
100
AcDbLine
 10
197.962903540621
 20
107.5326130869523
 30
0.0
 11
197.587903540621
 21
107.6576130869523
 31
0.0
  0
LINE
  5
28D
330
1F
100
AcDbEntity
  8
1
  6
Continuous
 62
     4
100
AcDbLine
 10
198.712903540621
 20
107.5326130869523
 30
0.0
 11
197.962903540621
 21
107.5326130869523
 31
0.0
  0
LINE
  5
28E
330
1F
100
AcDbEntity
  8
1
  6
Continuous
 62
     4
100
AcDbLine
 10
199.087903540621
 20
107.6576130869523
 30
0.0
 11
198.712903540621
 21
107.5326130869523
 31
0.0
  0
LINE
  5
28F
330
1F
100
AcDbEntity
  8
1
  6
Continuous
 62
     4
100
AcDbLine
 10
199.462903540621
 20
107.9076130869523
 30
0.0
 11
199.087903540621
 21
107.6576130869523
 31
0.0
  0
LINE
  5
290
330
1F
100
AcDbEntity
  8
1
  6
Continuous
 62
     4
100
AcDbLine
 10
199.712903540621
 20
108.2826130869523
 30
0.0
 11
199.462903540621
 21
107.9076130869523
 31
0.0
  0
LINE
  5
291
330
1F
100
AcDbEntity
  8
1
  6
Continuous
 62
     4
100
AcDbLine
 10
199.837903540621
 20
108.7826130869523
 30
0.0
 11
199.712903540621
 21
108.2826130869523
 31
0.0
  0
LINE
  5
292
330
1F
100
AcDbEntity
  8
1
  6
Continuous
 62
     4
100
AcDbLine
 10
199.837903540621
 20
109.2826130869523
 30
0.0
 11
199.837903540621
 21
108.7826130869523
 31
0.0
  0
LINE
  5
293
330
1F
100
AcDbEntity
  8
1
  6
Continuous
 62
     4
100
AcDbLine
 10
199.712903540621
 20
109.7826130869523
 30
0.0
 11
199.837903540621
 21
109.2826130869523
 31
0.0
  0
LINE
  5
294
330
1F
100
AcDbEntity
  8
1
  6
Continuous
 62
     4
100
AcDbLine
 10
199.462903540621
 20
110.1576130869523
 30
0.0
 11
199.712903540621
 21
109.7826130869523
 31
0.0
  0
LINE
  5
295
330
1F
100
AcDbEntity
  8
1
  6
Continuous
 62
     4
100
AcDbLine
 10
199.087903540621
 20
110.4076130869523
 30
0.0
 11
199.462903540621
 21
110.1576130869523
 31
0.0
  0
LINE
  5
296
330
1F
100
AcDbEntity
  8
1
  6
Continuous
 62
     4
100
AcDbLine
 10
198.712903540621
 20
110.5326130869523
 30
0.0
 11
199.087903540621
 21
110.4076130869523
 31
0.0
  0
LINE
  5
297
330
1F
100
AcDbEntity
  8
1
  6
Continuous
 62
     4
100
AcDbLine
 10
197.962903540621
 20
110.5326130869523
 30
0.0
 11
198.712903540621
 21
110.5326130869523
 31
0.0
  0
LINE
  5
298
330
1F
100
AcDbEntity
  8
1
  6
Continuous
 62
     4
100
AcDbLine
 10
197.587903540621
 20
110.4076130869523
 30
0.0
 11
197.962903540621
 21
110.5326130869523
 31
0.0
  0
LINE
  5
299
330
1F
100
AcDbEntity
  8
1
  6
Continuous
 62
     4
100
AcDbLine
 10
197.212903540621
 20
110.1576130869523
 30
0.0
 11
197.587903540621
 21
110.4076130869523
 31
0.0
  0
LINE
  5
29A
330
1F
100
AcDbEntity
  8
1
  6
Continuous
 62
     4
100
AcDbLine
 10
196.962903540621
 20
109.7826130869523
 30
0.0
 11
197.212903540621
 21
110.1576130869523
 31
0.0
  0
LINE
  5
29B
330
1F
100
AcDbEntity
  8
1
  6
Continuous
 62
     4
100
AcDbLine
 10
196.837903540621
 20
109.2826130869523
 30
0.0
 11
196.962903540621
 21
109.7826130869523
 31
0.0
  0
LINE
  5
29C
330
1F
100
AcDbEntity
  8
1
  6
Continuous
 62
     4
100
AcDbLine
 10
195.462903540621
 20
107.7826130869523
 30
0.0
 11
195.462903540621
 21
107.6576130869523
 31
0.0
  0
LINE
  5
29D
330
1F
100
AcDbEntity
  8
1
  6
Continuous
 62
     4
100
AcDbLine
 10
195.337903540621
 20
107.7826130869523
 30
0.0
 11
195.462903540621
 21
107.7826130869523
 31
0.0
  0
LINE
  5
29E
330
1F
100
AcDbEntity
  8
1
  6
Continuous
 62
     4
100
AcDbLine
 10
195.337903540621
 20
107.6576130869523
 30
0.0
 11
195.337903540621
 21
107.7826130869523
 31
0.0
  0
LINE
  5
29F
330
1F
100
AcDbEntity
  8
1
  6
Continuous
 62
     4
100
AcDbLine
 10
195.462903540621
 20
107.6576130869523
 30
0.0
 11
195.337903540621
 21
107.6576130869523
 31
0.0
  0
LINE
  5
2A0
330
1F
100
AcDbEntity
  8
1
  6
Continuous
 62
     4
100
AcDbLine
 10
195.587903540621
 20
107.9076130869523
 30
0.0
 11
195.587903540621
 21
107.5326130869523
 31
0.0
  0
LINE
  5
2A1
330
1F
100
AcDbEntity
  8
1
  6
Continuous
 62
     4
100
AcDbLine
 10
195.212903540621
 20
107.9076130869523
 30
0.0
 11
195.587903540621
 21
107.9076130869523
 31
0.0
  0
LINE
  5
2A2
330
1F
100
AcDbEntity
  8
1
  6
Continuous
 62
     4
100
AcDbLine
 10
195.212903540621
 20
107.5326130869523
 30
0.0
 11
195.212903540621
 21
107.9076130869523
 31
0.0
  0
LINE
  5
2A3
330
1F
100
AcDbEntity
  8
1
  6
Continuous
 62
     4
100
AcDbLine
 10
195.587903540621
 20
107.5326130869523
 30
0.0
 11
195.212903540621
 21
107.5326130869523
 31
0.0
  0
LINE
  5
2A4
330
1F
100
AcDbEntity
  8
1
  6
Continuous
 62
     4
100
AcDbLine
 10
193.712903540621
 20
110.6576130869523
 30
0.0
 11
193.712903540621
 21
109.4076130869523
 31
0.0
  0
LINE
  5
2A5
330
1F
100
AcDbEntity
  8
1
  6
Continuous
 62
     4
100
AcDbLine
 10
193.587903540621
 20
111.4076130869523
 30
0.0
 11
193.712903540621
 21
110.6576130869523
 31
0.0
  0
LINE
  5
2A6
330
1F
100
AcDbEntity
  8
1
  6
Continuous
 62
     4
100
AcDbLine
 10
193.337903540621
 20
111.9076130869523
 30
0.0
 11
193.587903540621
 21
111.4076130869523
 31
0.0
  0
LINE
  5
2A7
330
1F
100
AcDbEntity
  8
1
  6
Continuous
 62
     4
100
AcDbLine
 10
193.087903540621
 20
112.1576130869523
 30
0.0
 11
193.337903540621
 21
111.9076130869523
 31
0.0
  0
LINE
  5
2A8
330
1F
100
AcDbEntity
  8
1
  6
Continuous
 62
     4
100
AcDbLine
 10
192.712903540621
 20
112.4076130869523
 30
0.0
 11
193.087903540621
 21
112.1576130869523
 31
0.0
  0
LINE
  5
2A9
330
1F
100
AcDbEntity
  8
1
  6
Continuous
 62
     4
100
AcDbLine
 10
192.337903540621
 20
112.5326130869523
 30
0.0
 11
192.712903540621
 21
112.4076130869523
 31
0.0
  0
LINE
  5
2AA
330
1F
100
AcDbEntity
  8
1
  6
Continuous
 62
     4
100
AcDbLine
 10
192.087903540621
 20
112.5326130869523
 30
0.0
 11
192.337903540621
 21
112.5326130869523
 31
0.0
  0
LINE
  5
2AB
330
1F
100
AcDbEntity
  8
1
  6
Continuous
 62
     4
100
AcDbLine
 10
191.712903540621
 20
112.4076130869523
 30
0.0
 11
192.087903540621
 21
112.5326130869523
 31
0.0
  0
LINE
  5
2AC
330
1F
100
AcDbEntity
  8
1
  6
Continuous
 62
     4
100
AcDbLine
 10
191.337903540621
 20
112.1576130869523
 30
0.0
 11
191.712903540621
 21
112.4076130869523
 31
0.0
  0
LINE
  5
2AD
330
1F
100
AcDbEntity
  8
1
  6
Continuous
 62
     4
100
AcDbLine
 10
191.087903540621
 20
111.9076130869523
 30
0.0
 11
191.337903540621
 21
112.1576130869523
 31
0.0
  0
LINE
  5
2AE
330
1F
100
AcDbEntity
  8
1
  6
Continuous
 62
     4
100
AcDbLine
 10
190.837903540621
 20
111.4076130869523
 30
0.0
 11
191.087903540621
 21
111.9076130869523
 31
0.0
  0
LINE
  5
2AF
330
1F
100
AcDbEntity
  8
1
  6
Continuous
 62
     4
100
AcDbLine
 10
190.712903540621
 20
110.6576130869523
 30
0.0
 11
190.837903540621
 21
111.4076130869523
 31
0.0
  0
LINE
  5
2B0
330
1F
100
AcDbEntity
  8
1
  6
Continuous
 62
     4
100
AcDbLine
 10
190.712903540621
 20
109.4076130869523
 30
0.0
 11
190.712903540621
 21
110.6576130869523
 31
0.0
  0
LINE
  5
2B1
330
1F
100
AcDbEntity
  8
1
  6
Continuous
 62
     4
100
AcDbLine
 10
190.837903540621
 20
108.6576130869523
 30
0.0
 11
190.712903540621
 21
109.4076130869523
 31
0.0
  0
LINE
  5
2B2
330
1F
100
AcDbEntity
  8
1
  6
Continuous
 62
     4
100
AcDbLine
 10
191.087903540621
 20
108.1576130869523
 30
0.0
 11
190.837903540621
 21
108.6576130869523
 31
0.0
  0
LINE
  5
2B3
330
1F
100
AcDbEntity
  8
1
  6
Continuous
 62
     4
100
AcDbLine
 10
191.337903540621
 20
107.9076130869523
 30
0.0
 11
191.087903540621
 21
108.1576130869523
 31
0.0
  0
LINE
  5
2B4
330
1F
100
AcDbEntity
  8
1
  6
Continuous
 62
     4
100
AcDbLine
 10
191.712903540621
 20
107.6576130869523
 30
0.0
 11
191.337903540621
 21
107.9076130869523
 31
0.0
  0
LINE
  5
2B5
330
1F
100
AcDbEntity
  8
1
  6
Continuous
 62
     4
100
AcDbLine
 10
192.087903540621
 20
107.5326130869523
 30
0.0
 11
191.712903540621
 21
107.6576130869523
 31
0.0
  0
LINE
  5
2B6
330
1F
100
AcDbEntity
  8
1
  6
Continuous
 62
     4
100
AcDbLine
 10
192.337903540621
 20
107.5326130869523
 30
0.0
 11
192.087903540621
 21
107.5326130869523
 31
0.0
  0
LINE
  5
2B7
330
1F
100
AcDbEntity
  8
1
  6
Continuous
 62
     4
100
AcDbLine
 10
192.712903540621
 20
107.6576130869523
 30
0.0
 11
192.337903540621
 21
107.5326130869523
 31
0.0
  0
LINE
  5
2B8
330
1F
100
AcDbEntity
  8
1
  6
Continuous
 62
     4
100
AcDbLine
 10
193.087903540621
 20
107.9076130869523
 30
0.0
 11
192.712903540621
 21
107.6576130869523
 31
0.0
  0
LINE
  5
2B9
330
1F
100
AcDbEntity
  8
1
  6
Continuous
 62
     4
100
AcDbLine
 10
193.337903540621
 20
108.1576130869523
 30
0.0
 11
193.087903540621
 21
107.9076130869523
 31
0.0
  0
LINE
  5
2BA
330
1F
100
AcDbEntity
  8
1
  6
Continuous
 62
     4
100
AcDbLine
 10
193.587903540621
 20
108.6576130869523
 30
0.0
 11
193.337903540621
 21
108.1576130869523
 31
0.0
  0
LINE
  5
2BB
330
1F
100
AcDbEntity
  8
1
  6
Continuous
 62
     4
100
AcDbLine
 10
193.712903540621
 20
109.4076130869523
 30
0.0
 11
193.587903540621
 21
108.6576130869523
 31
0.0
  0
LINE
  5
2BC
330
1F
100
AcDbEntity
  8
1
  6
Continuous
 62
     4
100
AcDbLine
 10
223.337903540621
 20
118.9876130869523
 30
0.0
 11
223.337903540621
 21
117.7376130869523
 31
0.0
  0
LINE
  5
2BD
330
1F
100
AcDbEntity
  8
1
  6
Continuous
 62
     4
100
AcDbLine
 10
223.212903540621
 20
119.7376130869523
 30
0.0
 11
223.337903540621
 21
118.9876130869523
 31
0.0
  0
LINE
  5
2BE
330
1F
100
AcDbEntity
  8
1
  6
Continuous
 62
     4
100
AcDbLine
 10
222.962903540621
 20
120.2376130869523
 30
0.0
 11
223.212903540621
 21
119.7376130869523
 31
0.0
  0
LINE
  5
2BF
330
1F
100
AcDbEntity
  8
1
  6
Continuous
 62
     4
100
AcDbLine
 10
222.712903540621
 20
120.4876130869523
 30
0.0
 11
222.962903540621
 21
120.2376130869523
 31
0.0
  0
LINE
  5
2C0
330
1F
100
AcDbEntity
  8
1
  6
Continuous
 62
     4
100
AcDbLine
 10
222.337903540621
 20
120.7376130869523
 30
0.0
 11
222.712903540621
 21
120.4876130869523
 31
0.0
  0
LINE
  5
2C1
330
1F
100
AcDbEntity
  8
1
  6
Continuous
 62
     4
100
AcDbLine
 10
221.962903540621
 20
120.8626130869523
 30
0.0
 11
222.337903540621
 21
120.7376130869523
 31
0.0
  0
LINE
  5
2C2
330
1F
100
AcDbEntity
  8
1
  6
Continuous
 62
     4
100
AcDbLine
 10
221.712903540621
 20
120.8626130869523
 30
0.0
 11
221.962903540621
 21
120.8626130869523
 31
0.0
  0
LINE
  5
2C3
330
1F
100
AcDbEntity
  8
1
  6
Continuous
 62
     4
100
AcDbLine
 10
221.337903540621
 20
120.7376130869523
 30
0.0
 11
221.712903540621
 21
120.8626130869523
 31
0.0
  0
LINE
  5
2C4
330
1F
100
AcDbEntity
  8
1
  6
Continuous
 62
     4
100
AcDbLine
 10
220.962903540621
 20
120.4876130869523
 30
0.0
 11
221.337903540621
 21
120.7376130869523
 31
0.0
  0
LINE
  5
2C5
330
1F
100
AcDbEntity
  8
1
  6
Continuous
 62
     4
100
AcDbLine
 10
220.712903540621
 20
120.2376130869523
 30
0.0
 11
220.962903540621
 21
120.4876130869523
 31
0.0
  0
LINE
  5
2C6
330
1F
100
AcDbEntity
  8
1
  6
Continuous
 62
     4
100
AcDbLine
 10
220.462903540621
 20
119.7376130869523
 30
0.0
 11
220.712903540621
 21
120.2376130869523
 31
0.0
  0
LINE
  5
2C7
330
1F
100
AcDbEntity
  8
1
  6
Continuous
 62
     4
100
AcDbLine
 10
220.337903540621
 20
118.9876130869523
 30
0.0
 11
220.462903540621
 21
119.7376130869523
 31
0.0
  0
LINE
  5
2C8
330
1F
100
AcDbEntity
  8
1
  6
Continuous
 62
     4
100
AcDbLine
 10
220.337903540621
 20
117.7376130869523
 30
0.0
 11
220.337903540621
 21
118.9876130869523
 31
0.0
  0
LINE
  5
2C9
330
1F
100
AcDbEntity
  8
1
  6
Continuous
 62
     4
100
AcDbLine
 10
220.462903540621
 20
116.9876130869523
 30
0.0
 11
220.337903540621
 21
117.7376130869523
 31
0.0
  0
LINE
  5
2CA
330
1F
100
AcDbEntity
  8
1
  6
Continuous
 62
     4
100
AcDbLine
 10
220.712903540621
 20
116.4876130869523
 30
0.0
 11
220.462903540621
 21
116.9876130869523
 31
0.0
  0
LINE
  5
2CB
330
1F
100
AcDbEntity
  8
1
  6
Continuous
 62
     4
100
AcDbLine
 10
220.962903540621
 20
116.2376130869523
 30
0.0
 11
220.712903540621
 21
116.4876130869523
 31
0.0
  0
LINE
  5
2CC
330
1F
100
AcDbEntity
  8
1
  6
Continuous
 62
     4
100
AcDbLine
 10
221.337903540621
 20
115.9876130869523
 30
0.0
 11
220.962903540621
 21
116.2376130869523
 31
0.0
  0
LINE
  5
2CD
330
1F
100
AcDbEntity
  8
1
  6
Continuous
 62
     4
100
AcDbLine
 10
221.712903540621
 20
115.8626130869523
 30
0.0
 11
221.337903540621
 21
115.9876130869523
 31
0.0
  0
LINE
  5
2CE
330
1F
100
AcDbEntity
  8
1
  6
Continuous
 62
     4
100
AcDbLine
 10
221.962903540621
 20
115.8626130869523
 30
0.0
 11
221.712903540621
 21
115.8626130869523
 31
0.0
  0
LINE
  5
2CF
330
1F
100
AcDbEntity
  8
1
  6
Continuous
 62
     4
100
AcDbLine
 10
222.337903540621
 20
115.9876130869523
 30
0.0
 11
221.962903540621
 21
115.8626130869523
 31
0.0
  0
LINE
  5
2D0
330
1F
100
AcDbEntity
  8
1
  6
Continuous
 62
     4
100
AcDbLine
 10
222.712903540621
 20
116.2376130869523
 30
0.0
 11
222.337903540621
 21
115.9876130869523
 31
0.0
  0
LINE
  5
2D1
330
1F
100
AcDbEntity
  8
1
  6
Continuous
 62
     4
100
AcDbLine
 10
222.962903540621
 20
116.4876130869523
 30
0.0
 11
222.712903540621
 21
116.2376130869523
 31
0.0
  0
LINE
  5
2D2
330
1F
100
AcDbEntity
  8
1
  6
Continuous
 62
     4
100
AcDbLine
 10
223.212903540621
 20
116.9876130869523
 30
0.0
 11
222.962903540621
 21
116.4876130869523
 31
0.0
  0
LINE
  5
2D3
330
1F
100
AcDbEntity
  8
1
  6
Continuous
 62
     4
100
AcDbLine
 10
223.337903540621
 20
117.7376130869523
 30
0.0
 11
223.212903540621
 21
116.9876130869523
 31
0.0
  0
LINE
  5
2D4
330
1F
100
AcDbEntity
  8
1
  6
Continuous
 62
     4
100
AcDbLine
 10
218.837903540621
 20
118.9876130869523
 30
0.0
 11
218.837903540621
 21
117.7376130869523
 31
0.0
  0
LINE
  5
2D5
330
1F
100
AcDbEntity
  8
1
  6
Continuous
 62
     4
100
AcDbLine
 10
218.712903540621
 20
119.7376130869523
 30
0.0
 11
218.837903540621
 21
118.9876130869523
 31
0.0
  0
LINE
  5
2D6
330
1F
100
AcDbEntity
  8
1
  6
Continuous
 62
     4
100
AcDbLine
 10
218.462903540621
 20
120.2376130869523
 30
0.0
 11
218.712903540621
 21
119.7376130869523
 31
0.0
  0
LINE
  5
2D7
330
1F
100
AcDbEntity
  8
1
  6
Continuous
 62
     4
100
AcDbLine
 10
218.212903540621
 20
120.4876130869523
 30
0.0
 11
218.462903540621
 21
120.2376130869523
 31
0.0
  0
LINE
  5
2D8
330
1F
100
AcDbEntity
  8
1
  6
Continuous
 62
     4
100
AcDbLine
 10
217.837903540621
 20
120.7376130869523
 30
0.0
 11
218.212903540621
 21
120.4876130869523
 31
0.0
  0
LINE
  5
2D9
330
1F
100
AcDbEntity
  8
1
  6
Continuous
 62
     4
100
AcDbLine
 10
217.462903540621
 20
120.8626130869523
 30
0.0
 11
217.837903540621
 21
120.7376130869523
 31
0.0
  0
LINE
  5
2DA
330
1F
100
AcDbEntity
  8
1
  6
Continuous
 62
     4
100
AcDbLine
 10
217.212903540621
 20
120.8626130869523
 30
0.0
 11
217.462903540621
 21
120.8626130869523
 31
0.0
  0
LINE
  5
2DB
330
1F
100
AcDbEntity
  8
1
  6
Continuous
 62
     4
100
AcDbLine
 10
216.837903540621
 20
120.7376130869523
 30
0.0
 11
217.212903540621
 21
120.8626130869523
 31
0.0
  0
LINE
  5
2DC
330
1F
100
AcDbEntity
  8
1
  6
Continuous
 62
     4
100
AcDbLine
 10
216.462903540621
 20
120.4876130869523
 30
0.0
 11
216.837903540621
 21
120.7376130869523
 31
0.0
  0
LINE
  5
2DD
330
1F
100
AcDbEntity
  8
1
  6
Continuous
 62
     4
100
AcDbLine
 10
216.212903540621
 20
120.2376130869523
 30
0.0
 11
216.462903540621
 21
120.4876130869523
 31
0.0
  0
LINE
  5
2DE
330
1F
100
AcDbEntity
  8
1
  6
Continuous
 62
     4
100
AcDbLine
 10
215.962903540621
 20
119.7376130869523
 30
0.0
 11
216.212903540621
 21
120.2376130869523
 31
0.0
  0
LINE
  5
2DF
330
1F
100
AcDbEntity
  8
1
  6
Continuous
 62
     4
100
AcDbLine
 10
215.837903540621
 20
118.9876130869523
 30
0.0
 11
215.962903540621
 21
119.7376130869523
 31
0.0
  0
LINE
  5
2E0
330
1F
100
AcDbEntity
  8
1
  6
Continuous
 62
     4
100
AcDbLine
 10
215.837903540621
 20
117.7376130869523
 30
0.0
 11
215.837903540621
 21
118.9876130869523
 31
0.0
  0
LINE
  5
2E1
330
1F
100
AcDbEntity
  8
1
  6
Continuous
 62
     4
100
AcDbLine
 10
215.962903540621
 20
116.9876130869523
 30
0.0
 11
215.837903540621
 21
117.7376130869523
 31
0.0
  0
LINE
  5
2E2
330
1F
100
AcDbEntity
  8
1
  6
Continuous
 62
     4
100
AcDbLine
 10
216.212903540621
 20
116.4876130869523
 30
0.0
 11
215.962903540621
 21
116.9876130869523
 31
0.0
  0
LINE
  5
2E3
330
1F
100
AcDbEntity
  8
1
  6
Continuous
 62
     4
100
AcDbLine
 10
216.462903540621
 20
116.2376130869523
 30
0.0
 11
216.212903540621
 21
116.4876130869523
 31
0.0
  0
LINE
  5
2E4
330
1F
100
AcDbEntity
  8
1
  6
Continuous
 62
     4
100
AcDbLine
 10
216.837903540621
 20
115.9876130869523
 30
0.0
 11
216.462903540621
 21
116.2376130869523
 31
0.0
  0
LINE
  5
2E5
330
1F
100
AcDbEntity
  8
1
  6
Continuous
 62
     4
100
AcDbLine
 10
217.212903540621
 20
115.8626130869523
 30
0.0
 11
216.837903540621
 21
115.9876130869523
 31
0.0
  0
LINE
  5
2E6
330
1F
100
AcDbEntity
  8
1
  6
Continuous
 62
     4
100
AcDbLine
 10
217.462903540621
 20
115.8626130869523
 30
0.0
 11
217.212903540621
 21
115.8626130869523
 31
0.0
  0
LINE
  5
2E7
330
1F
100
AcDbEntity
  8
1
  6
Continuous
 62
     4
100
AcDbLine
 10
217.837903540621
 20
115.9876130869523
 30
0.0
 11
217.462903540621
 21
115.8626130869523
 31
0.0
  0
LINE
  5
2E8
330
1F
100
AcDbEntity
  8
1
  6
Continuous
 62
     4
100
AcDbLine
 10
218.212903540621
 20
116.2376130869523
 30
0.0
 11
217.837903540621
 21
115.9876130869523
 31
0.0
  0
LINE
  5
2E9
330
1F
100
AcDbEntity
  8
1
  6
Continuous
 62
     4
100
AcDbLine
 10
218.462903540621
 20
116.4876130869523
 30
0.0
 11
218.212903540621
 21
116.2376130869523
 31
0.0
  0
LINE
  5
2EA
330
1F
100
AcDbEntity
  8
1
  6
Continuous
 62
     4
100
AcDbLine
 10
218.712903540621
 20
116.9876130869523
 30
0.0
 11
218.462903540621
 21
116.4876130869523
 31
0.0
  0
LINE
  5
2EB
330
1F
100
AcDbEntity
  8
1
  6
Continuous
 62
     4
100
AcDbLine
 10
218.837903540621
 20
117.7376130869523
 30
0.0
 11
218.712903540621
 21
116.9876130869523
 31
0.0
  0
LINE
  5
2EC
330
1F
100
AcDbEntity
  8
1
  6
Continuous
 62
     4
100
AcDbLine
 10
213.212903540621
 20
115.8626130869523
 30
0.0
 11
211.337903540621
 21
115.8626130869523
 31
0.0
  0
LINE
  5
2ED
330
1F
100
AcDbEntity
  8
1
  6
Continuous
 62
     4
100
AcDbLine
 10
213.587903540621
 20
115.9876130869523
 30
0.0
 11
213.212903540621
 21
115.8626130869523
 31
0.0
  0
LINE
  5
2EE
330
1F
100
AcDbEntity
  8
1
  6
Continuous
 62
     4
100
AcDbLine
 10
213.962903540621
 20
116.2376130869523
 30
0.0
 11
213.587903540621
 21
115.9876130869523
 31
0.0
  0
LINE
  5
2EF
330
1F
100
AcDbEntity
  8
1
  6
Continuous
 62
     4
100
AcDbLine
 10
214.212903540621
 20
116.6126130869523
 30
0.0
 11
213.962903540621
 21
116.2376130869523
 31
0.0
  0
LINE
  5
2F0
330
1F
100
AcDbEntity
  8
1
  6
Continuous
 62
     4
100
AcDbLine
 10
214.337903540621
 20
117.1126130869523
 30
0.0
 11
214.212903540621
 21
116.6126130869523
 31
0.0
  0
LINE
  5
2F1
330
1F
100
AcDbEntity
  8
1
  6
Continuous
 62
     4
100
AcDbLine
 10
214.337903540621
 20
117.8626130869523
 30
0.0
 11
214.337903540621
 21
117.1126130869523
 31
0.0
  0
LINE
  5
2F2
330
1F
100
AcDbEntity
  8
1
  6
Continuous
 62
     4
100
AcDbLine
 10
214.212903540621
 20
118.3626130869523
 30
0.0
 11
214.337903540621
 21
117.8626130869523
 31
0.0
  0
LINE
  5
2F3
330
1F
100
AcDbEntity
  8
1
  6
Continuous
 62
     4
100
AcDbLine
 10
213.837903540621
 20
118.7376130869523
 30
0.0
 11
214.212903540621
 21
118.3626130869523
 31
0.0
  0
LINE
  5
2F4
330
1F
100
AcDbEntity
  8
1
  6
Continuous
 62
     4
100
AcDbLine
 10
213.212903540621
 20
118.8626130869523
 30
0.0
 11
213.837903540621
 21
118.7376130869523
 31
0.0
  0
LINE
  5
2F5
330
1F
100
AcDbEntity
  8
1
  6
Continuous
 62
     4
100
AcDbLine
 10
211.337903540621
 20
118.8626130869523
 30
0.0
 11
213.212903540621
 21
118.8626130869523
 31
0.0
  0
LINE
  5
2F6
330
1F
100
AcDbEntity
  8
1
  6
Continuous
 62
     4
100
AcDbLine
 10
211.337903540621
 20
120.8626130869523
 30
0.0
 11
211.337903540621
 21
118.8626130869523
 31
0.0
  0
LINE
  5
2F7
330
1F
100
AcDbEntity
  8
1
  6
Continuous
 62
     4
100
AcDbLine
 10
214.087903540621
 20
120.8626130869523
 30
0.0
 11
211.337903540621
 21
120.8626130869523
 31
0.0
  0
LINE
  5
2F8
330
1F
100
AcDbEntity
  8
1
  6
Continuous
 62
     4
100
AcDbLine
 10
198.712903540621
 20
115.8626130869523
 30
0.0
 11
196.837903540621
 21
115.8626130869523
 31
0.0
  0
LINE
  5
2F9
330
1F
100
AcDbEntity
  8
1
  6
Continuous
 62
     4
100
AcDbLine
 10
199.087903540621
 20
115.9876130869523
 30
0.0
 11
198.712903540621
 21
115.8626130869523
 31
0.0
  0
LINE
  5
2FA
330
1F
100
AcDbEntity
  8
1
  6
Continuous
 62
     4
100
AcDbLine
 10
199.462903540621
 20
116.2376130869523
 30
0.0
 11
199.087903540621
 21
115.9876130869523
 31
0.0
  0
LINE
  5
2FB
330
1F
100
AcDbEntity
  8
1
  6
Continuous
 62
     4
100
AcDbLine
 10
199.712903540621
 20
116.6126130869523
 30
0.0
 11
199.462903540621
 21
116.2376130869523
 31
0.0
  0
LINE
  5
2FC
330
1F
100
AcDbEntity
  8
1
  6
Continuous
 62
     4
100
AcDbLine
 10
199.837903540621
 20
117.1126130869523
 30
0.0
 11
199.712903540621
 21
116.6126130869523
 31
0.0
  0
LINE
  5
2FD
330
1F
100
AcDbEntity
  8
1
  6
Continuous
 62
     4
100
AcDbLine
 10
199.837903540621
 20
117.8626130869523
 30
0.0
 11
199.837903540621
 21
117.1126130869523
 31
0.0
  0
LINE
  5
2FE
330
1F
100
AcDbEntity
  8
1
  6
Continuous
 62
     4
100
AcDbLine
 10
199.712903540621
 20
118.3626130869523
 30
0.0
 11
199.837903540621
 21
117.8626130869523
 31
0.0
  0
LINE
  5
2FF
330
1F
100
AcDbEntity
  8
1
  6
Continuous
 62
     4
100
AcDbLine
 10
199.337903540621
 20
118.7376130869523
 30
0.0
 11
199.712903540621
 21
118.3626130869523
 31
0.0
  0
LINE
  5
300
330
1F
100
AcDbEntity
  8
1
  6
Continuous
 62
     4
100
AcDbLine
 10
198.712903540621
 20
118.8626130869523
 30
0.0
 11
199.337903540621
 21
118.7376130869523
 31
0.0
  0
LINE
  5
301
330
1F
100
AcDbEntity
  8
1
  6
Continuous
 62
     4
100
AcDbLine
 10
196.837903540621
 20
118.8626130869523
 30
0.0
 11
198.712903540621
 21
118.8626130869523
 31
0.0
  0
LINE
  5
302
330
1F
100
AcDbEntity
  8
1
  6
Continuous
 62
     4
100
AcDbLine
 10
196.837903540621
 20
120.8626130869523
 30
0.0
 11
196.837903540621
 21
118.8626130869523
 31
0.0
  0
LINE
  5
303
330
1F
100
AcDbEntity
  8
1
  6
Continuous
 62
     4
100
AcDbLine
 10
199.587903540621
 20
120.8626130869523
 30
0.0
 11
196.837903540621
 21
120.8626130869523
 31
0.0
  0
LINE
  5
304
330
1F
100
AcDbEntity
  8
1
  6
Continuous
 62
     4
100
AcDbLine
 10
195.462903540621
 20
116.1126130869523
 30
0.0
 11
195.462903540621
 21
115.9876130869523
 31
0.0
  0
LINE
  5
305
330
1F
100
AcDbEntity
  8
1
  6
Continuous
 62
     4
100
AcDbLine
 10
195.337903540621
 20
116.1126130869523
 30
0.0
 11
195.462903540621
 21
116.1126130869523
 31
0.0
  0
LINE
  5
306
330
1F
100
AcDbEntity
  8
1
  6
Continuous
 62
     4
100
AcDbLine
 10
195.337903540621
 20
115.9876130869523
 30
0.0
 11
195.337903540621
 21
116.1126130869523
 31
0.0
  0
LINE
  5
307
330
1F
100
AcDbEntity
  8
1
  6
Continuous
 62
     4
100
AcDbLine
 10
195.462903540621
 20
115.9876130869523
 30
0.0
 11
195.337903540621
 21
115.9876130869523
 31
0.0
  0
LINE
  5
308
330
1F
100
AcDbEntity
  8
1
  6
Continuous
 62
     4
100
AcDbLine
 10
195.587903540621
 20
116.2376130869523
 30
0.0
 11
195.587903540621
 21
115.8626130869523
 31
0.0
  0
LINE
  5
309
330
1F
100
AcDbEntity
  8
1
  6
Continuous
 62
     4
100
AcDbLine
 10
195.212903540621
 20
116.2376130869523
 30
0.0
 11
195.587903540621
 21
116.2376130869523
 31
0.0
  0
LINE
  5
30A
330
1F
100
AcDbEntity
  8
1
  6
Continuous
 62
     4
100
AcDbLine
 10
195.212903540621
 20
115.8626130869523
 30
0.0
 11
195.212903540621
 21
116.2376130869523
 31
0.0
  0
LINE
  5
30B
330
1F
100
AcDbEntity
  8
1
  6
Continuous
 62
     4
100
AcDbLine
 10
195.587903540621
 20
115.8626130869523
 30
0.0
 11
195.212903540621
 21
115.8626130869523
 31
0.0
  0
LINE
  5
30C
330
1F
100
AcDbEntity
  8
1
  6
Continuous
 62
     4
100
AcDbLine
 10
193.712903540621
 20
118.9876130869523
 30
0.0
 11
193.712903540621
 21
117.7376130869523
 31
0.0
  0
LINE
  5
30D
330
1F
100
AcDbEntity
  8
1
  6
Continuous
 62
     4
100
AcDbLine
 10
193.587903540621
 20
119.7376130869523
 30
0.0
 11
193.712903540621
 21
118.9876130869523
 31
0.0
  0
LINE
  5
30E
330
1F
100
AcDbEntity
  8
1
  6
Continuous
 62
     4
100
AcDbLine
 10
193.337903540621
 20
120.2376130869523
 30
0.0
 11
193.587903540621
 21
119.7376130869523
 31
0.0
  0
LINE
  5
30F
330
1F
100
AcDbEntity
  8
1
  6
Continuous
 62
     4
100
AcDbLine
 10
193.087903540621
 20
120.4876130869523
 30
0.0
 11
193.337903540621
 21
120.2376130869523
 31
0.0
  0
LINE
  5
310
330
1F
100
AcDbEntity
  8
1
  6
Continuous
 62
     4
100
AcDbLine
 10
192.712903540621
 20
120.7376130869523
 30
0.0
 11
193.087903540621
 21
120.4876130869523
 31
0.0
  0
LINE
  5
311
330
1F
100
AcDbEntity
  8
1
  6
Continuous
 62
     4
100
AcDbLine
 10
192.337903540621
 20
120.8626130869523
 30
0.0
 11
192.712903540621
 21
120.7376130869523
 31
0.0
  0
LINE
  5
312
330
1F
100
AcDbEntity
  8
1
  6
Continuous
 62
     4
100
AcDbLine
 10
192.087903540621
 20
120.8626130869523
 30
0.0
 11
192.337903540621
 21
120.8626130869523
 31
0.0
  0
LINE
  5
313
330
1F
100
AcDbEntity
  8
1
  6
Continuous
 62
     4
100
AcDbLine
 10
191.712903540621
 20
120.7376130869523
 30
0.0
 11
192.087903540621
 21
120.8626130869523
 31
0.0
  0
LINE
  5
314
330
1F
100
AcDbEntity
  8
1
  6
Continuous
 62
     4
100
AcDbLine
 10
191.337903540621
 20
120.4876130869523
 30
0.0
 11
191.712903540621
 21
120.7376130869523
 31
0.0
  0
LINE
  5
315
330
1F
100
AcDbEntity
  8
1
  6
Continuous
 62
     4
100
AcDbLine
 10
191.087903540621
 20
120.2376130869523
 30
0.0
 11
191.337903540621
 21
120.4876130869523
 31
0.0
  0
LINE
  5
316
330
1F
100
AcDbEntity
  8
1
  6
Continuous
 62
     4
100
AcDbLine
 10
190.837903540621
 20
119.7376130869523
 30
0.0
 11
191.087903540621
 21
120.2376130869523
 31
0.0
  0
LINE
  5
317
330
1F
100
AcDbEntity
  8
1
  6
Continuous
 62
     4
100
AcDbLine
 10
190.712903540621
 20
118.9876130869523
 30
0.0
 11
190.837903540621
 21
119.7376130869523
 31
0.0
  0
LINE
  5
318
330
1F
100
AcDbEntity
  8
1
  6
Continuous
 62
     4
100
AcDbLine
 10
190.712903540621
 20
117.7376130869523
 30
0.0
 11
190.712903540621
 21
118.9876130869523
 31
0.0
  0
LINE
  5
319
330
1F
100
AcDbEntity
  8
1
  6
Continuous
 62
     4
100
AcDbLine
 10
190.837903540621
 20
116.9876130869523
 30
0.0
 11
190.712903540621
 21
117.7376130869523
 31
0.0
  0
LINE
  5
31A
330
1F
100
AcDbEntity
  8
1
  6
Continuous
 62
     4
100
AcDbLine
 10
191.087903540621
 20
116.4876130869523
 30
0.0
 11
190.837903540621
 21
116.9876130869523
 31
0.0
  0
LINE
  5
31B
330
1F
100
AcDbEntity
  8
1
  6
Continuous
 62
     4
100
AcDbLine
 10
191.337903540621
 20
116.2376130869523
 30
0.0
 11
191.087903540621
 21
116.4876130869523
 31
0.0
  0
LINE
  5
31C
330
1F
100
AcDbEntity
  8
1
  6
Continuous
 62
     4
100
AcDbLine
 10
191.712903540621
 20
115.9876130869523
 30
0.0
 11
191.337903540621
 21
116.2376130869523
 31
0.0
  0
LINE
  5
31D
330
1F
100
AcDbEntity
  8
1
  6
Continuous
 62
     4
100
AcDbLine
 10
192.087903540621
 20
115.8626130869523
 30
0.0
 11
191.712903540621
 21
115.9876130869523
 31
0.0
  0
LINE
  5
31E
330
1F
100
AcDbEntity
  8
1
  6
Continuous
 62
     4
100
AcDbLine
 10
192.337903540621
 20
115.8626130869523
 30
0.0
 11
192.087903540621
 21
115.8626130869523
 31
0.0
  0
LINE
  5
31F
330
1F
100
AcDbEntity
  8
1
  6
Continuous
 62
     4
100
AcDbLine
 10
192.712903540621
 20
115.9876130869523
 30
0.0
 11
192.337903540621
 21
115.8626130869523
 31
0.0
  0
LINE
  5
320
330
1F
100
AcDbEntity
  8
1
  6
Continuous
 62
     4
100
AcDbLine
 10
193.087903540621
 20
116.2376130869523
 30
0.0
 11
192.712903540621
 21
115.9876130869523
 31
0.0
  0
LINE
  5
321
330
1F
100
AcDbEntity
  8
1
  6
Continuous
 62
     4
100
AcDbLine
 10
193.337903540621
 20
116.4876130869523
 30
0.0
 11
193.087903540621
 21
116.2376130869523
 31
0.0
  0
LINE
  5
322
330
1F
100
AcDbEntity
  8
1
  6
Continuous
 62
     4
100
AcDbLine
 10
193.587903540621
 20
116.9876130869523
 30
0.0
 11
193.337903540621
 21
116.4876130869523
 31
0.0
  0
LINE
  5
323
330
1F
100
AcDbEntity
  8
1
  6
Continuous
 62
     4
100
AcDbLine
 10
193.712903540621
 20
117.7376130869523
 30
0.0
 11
193.587903540621
 21
116.9876130869523
 31
0.0
  0
LINE
  5
324
330
1F
100
AcDbEntity
  8
1
  6
Continuous
 62
     4
100
AcDbLine
 10
223.337903540621
 20
127.3176130869523
 30
0.0
 11
223.337903540621
 21
126.0676130869523
 31
0.0
  0
LINE
  5
325
330
1F
100
AcDbEntity
  8
1
  6
Continuous
 62
     4
100
AcDbLine
 10
223.212903540621
 20
128.0676130869523
 30
0.0
 11
223.337903540621
 21
127.3176130869523
 31
0.0
  0
LINE
  5
326
330
1F
100
AcDbEntity
  8
1
  6
Continuous
 62
     4
100
AcDbLine
 10
222.962903540621
 20
128.5676130869523
 30
0.0
 11
223.212903540621
 21
128.0676130869523
 31
0.0
  0
LINE
  5
327
330
1F
100
AcDbEntity
  8
1
  6
Continuous
 62
     4
100
AcDbLine
 10
222.712903540621
 20
128.8176130869523
 30
0.0
 11
222.962903540621
 21
128.5676130869523
 31
0.0
  0
LINE
  5
328
330
1F
100
AcDbEntity
  8
1
  6
Continuous
 62
     4
100
AcDbLine
 10
222.337903540621
 20
129.0676130869523
 30
0.0
 11
222.712903540621
 21
128.8176130869523
 31
0.0
  0
LINE
  5
329
330
1F
100
AcDbEntity
  8
1
  6
Continuous
 62
     4
100
AcDbLine
 10
221.962903540621
 20
129.1926130869523
 30
0.0
 11
222.337903540621
 21
129.0676130869523
 31
0.0
  0
LINE
  5
32A
330
1F
100
AcDbEntity
  8
1
  6
Continuous
 62
     4
100
AcDbLine
 10
221.712903540621
 20
129.1926130869523
 30
0.0
 11
221.962903540621
 21
129.1926130869523
 31
0.0
  0
LINE
  5
32B
330
1F
100
AcDbEntity
  8
1
  6
Continuous
 62
     4
100
AcDbLine
 10
221.337903540621
 20
129.0676130869523
 30
0.0
 11
221.712903540621
 21
129.1926130869523
 31
0.0
  0
LINE
  5
32C
330
1F
100
AcDbEntity
  8
1
  6
Continuous
 62
     4
100
AcDbLine
 10
220.962903540621
 20
128.8176130869523
 30
0.0
 11
221.337903540621
 21
129.0676130869523
 31
0.0
  0
LINE
  5
32D
330
1F
100
AcDbEntity
  8
1
  6
Continuous
 62
     4
100
AcDbLine
 10
220.712903540621
 20
128.5676130869523
 30
0.0
 11
220.962903540621
 21
128.8176130869523
 31
0.0
  0
LINE
  5
32E
330
1F
100
AcDbEntity
  8
1
  6
Continuous
 62
     4
100
AcDbLine
 10
220.462903540621
 20
128.0676130869523
 30
0.0
 11
220.712903540621
 21
128.5676130869523
 31
0.0
  0
LINE
  5
32F
330
1F
100
AcDbEntity
  8
1
  6
Continuous
 62
     4
100
AcDbLine
 10
220.337903540621
 20
127.3176130869523
 30
0.0
 11
220.462903540621
 21
128.0676130869523
 31
0.0
  0
LINE
  5
330
330
1F
100
AcDbEntity
  8
1
  6
Continuous
 62
     4
100
AcDbLine
 10
220.337903540621
 20
126.0676130869523
 30
0.0
 11
220.337903540621
 21
127.3176130869523
 31
0.0
  0
LINE
  5
331
330
1F
100
AcDbEntity
  8
1
  6
Continuous
 62
     4
100
AcDbLine
 10
220.462903540621
 20
125.3176130869523
 30
0.0
 11
220.337903540621
 21
126.0676130869523
 31
0.0
  0
LINE
  5
332
330
1F
100
AcDbEntity
  8
1
  6
Continuous
 62
     4
100
AcDbLine
 10
220.712903540621
 20
124.8176130869523
 30
0.0
 11
220.462903540621
 21
125.3176130869523
 31
0.0
  0
LINE
  5
333
330
1F
100
AcDbEntity
  8
1
  6
Continuous
 62
     4
100
AcDbLine
 10
220.962903540621
 20
124.5676130869523
 30
0.0
 11
220.712903540621
 21
124.8176130869523
 31
0.0
  0
LINE
  5
334
330
1F
100
AcDbEntity
  8
1
  6
Continuous
 62
     4
100
AcDbLine
 10
221.337903540621
 20
124.3176130869523
 30
0.0
 11
220.962903540621
 21
124.5676130869523
 31
0.0
  0
LINE
  5
335
330
1F
100
AcDbEntity
  8
1
  6
Continuous
 62
     4
100
AcDbLine
 10
221.712903540621
 20
124.1926130869523
 30
0.0
 11
221.337903540621
 21
124.3176130869523
 31
0.0
  0
LINE
  5
336
330
1F
100
AcDbEntity
  8
1
  6
Continuous
 62
     4
100
AcDbLine
 10
221.962903540621
 20
124.1926130869523
 30
0.0
 11
221.712903540621
 21
124.1926130869523
 31
0.0
  0
LINE
  5
337
330
1F
100
AcDbEntity
  8
1
  6
Continuous
 62
     4
100
AcDbLine
 10
222.337903540621
 20
124.3176130869523
 30
0.0
 11
221.962903540621
 21
124.1926130869523
 31
0.0
  0
LINE
  5
338
330
1F
100
AcDbEntity
  8
1
  6
Continuous
 62
     4
100
AcDbLine
 10
222.712903540621
 20
124.5676130869523
 30
0.0
 11
222.337903540621
 21
124.3176130869523
 31
0.0
  0
LINE
  5
339
330
1F
100
AcDbEntity
  8
1
  6
Continuous
 62
     4
100
AcDbLine
 10
222.962903540621
 20
124.8176130869523
 30
0.0
 11
222.712903540621
 21
124.5676130869523
 31
0.0
  0
LINE
  5
33A
330
1F
100
AcDbEntity
  8
1
  6
Continuous
 62
     4
100
AcDbLine
 10
223.212903540621
 20
125.3176130869523
 30
0.0
 11
222.962903540621
 21
124.8176130869523
 31
0.0
  0
LINE
  5
33B
330
1F
100
AcDbEntity
  8
1
  6
Continuous
 62
     4
100
AcDbLine
 10
223.337903540621
 20
126.0676130869523
 30
0.0
 11
223.212903540621
 21
125.3176130869523
 31
0.0
  0
LINE
  5
33C
330
1F
100
AcDbEntity
  8
1
  6
Continuous
 62
     4
100
AcDbLine
 10
218.837903540621
 20
127.3176130869523
 30
0.0
 11
218.837903540621
 21
126.0676130869523
 31
0.0
  0
LINE
  5
33D
330
1F
100
AcDbEntity
  8
1
  6
Continuous
 62
     4
100
AcDbLine
 10
218.712903540621
 20
128.0676130869523
 30
0.0
 11
218.837903540621
 21
127.3176130869523
 31
0.0
  0
LINE
  5
33E
330
1F
100
AcDbEntity
  8
1
  6
Continuous
 62
     4
100
AcDbLine
 10
218.462903540621
 20
128.5676130869523
 30
0.0
 11
218.712903540621
 21
128.0676130869523
 31
0.0
  0
LINE
  5
33F
330
1F
100
AcDbEntity
  8
1
  6
Continuous
 62
     4
100
AcDbLine
 10
218.212903540621
 20
128.8176130869523
 30
0.0
 11
218.462903540621
 21
128.5676130869523
 31
0.0
  0
LINE
  5
340
330
1F
100
AcDbEntity
  8
1
  6
Continuous
 62
     4
100
AcDbLine
 10
217.837903540621
 20
129.0676130869523
 30
0.0
 11
218.212903540621
 21
128.8176130869523
 31
0.0
  0
LINE
  5
341
330
1F
100
AcDbEntity
  8
1
  6
Continuous
 62
     4
100
AcDbLine
 10
217.462903540621
 20
129.1926130869523
 30
0.0
 11
217.837903540621
 21
129.0676130869523
 31
0.0
  0
LINE
  5
342
330
1F
100
AcDbEntity
  8
1
  6
Continuous
 62
     4
100
AcDbLine
 10
217.212903540621
 20
129.1926130869523
 30
0.0
 11
217.462903540621
 21
129.1926130869523
 31
0.0
  0
LINE
  5
343
330
1F
100
AcDbEntity
  8
1
  6
Continuous
 62
     4
100
AcDbLine
 10
216.837903540621
 20
129.0676130869523
 30
0.0
 11
217.212903540621
 21
129.1926130869523
 31
0.0
  0
LINE
  5
344
330
1F
100
AcDbEntity
  8
1
  6
Continuous
 62
     4
100
AcDbLine
 10
216.462903540621
 20
128.8176130869523
 30
0.0
 11
216.837903540621
 21
129.0676130869523
 31
0.0
  0
LINE
  5
345
330
1F
100
AcDbEntity
  8
1
  6
Continuous
 62
     4
100
AcDbLine
 10
216.212903540621
 20
128.5676130869523
 30
0.0
 11
216.462903540621
 21
128.8176130869523
 31
0.0
  0
LINE
  5
346
330
1F
100
AcDbEntity
  8
1
  6
Continuous
 62
     4
100
AcDbLine
 10
215.962903540621
 20
128.0676130869523
 30
0.0
 11
216.212903540621
 21
128.5676130869523
 31
0.0
  0
LINE
  5
347
330
1F
100
AcDbEntity
  8
1
  6
Continuous
 62
     4
100
AcDbLine
 10
215.837903540621
 20
127.3176130869523
 30
0.0
 11
215.962903540621
 21
128.0676130869523
 31
0.0
  0
LINE
  5
348
330
1F
100
AcDbEntity
  8
1
  6
Continuous
 62
     4
100
AcDbLine
 10
215.837903540621
 20
126.0676130869523
 30
0.0
 11
215.837903540621
 21
127.3176130869523
 31
0.0
  0
LINE
  5
349
330
1F
100
AcDbEntity
  8
1
  6
Continuous
 62
     4
100
AcDbLine
 10
215.962903540621
 20
125.3176130869523
 30
0.0
 11
215.837903540621
 21
126.0676130869523
 31
0.0
  0
LINE
  5
34A
330
1F
100
AcDbEntity
  8
1
  6
Continuous
 62
     4
100
AcDbLine
 10
216.212903540621
 20
124.8176130869523
 30
0.0
 11
215.962903540621
 21
125.3176130869523
 31
0.0
  0
LINE
  5
34B
330
1F
100
AcDbEntity
  8
1
  6
Continuous
 62
     4
100
AcDbLine
 10
216.462903540621
 20
124.5676130869523
 30
0.0
 11
216.212903540621
 21
124.8176130869523
 31
0.0
  0
LINE
  5
34C
330
1F
100
AcDbEntity
  8
1
  6
Continuous
 62
     4
100
AcDbLine
 10
216.837903540621
 20
124.3176130869523
 30
0.0
 11
216.462903540621
 21
124.5676130869523
 31
0.0
  0
LINE
  5
34D
330
1F
100
AcDbEntity
  8
1
  6
Continuous
 62
     4
100
AcDbLine
 10
217.212903540621
 20
124.1926130869523
 30
0.0
 11
216.837903540621
 21
124.3176130869523
 31
0.0
  0
LINE
  5
34E
330
1F
100
AcDbEntity
  8
1
  6
Continuous
 62
     4
100
AcDbLine
 10
217.462903540621
 20
124.1926130869523
 30
0.0
 11
217.212903540621
 21
124.1926130869523
 31
0.0
  0
LINE
  5
34F
330
1F
100
AcDbEntity
  8
1
  6
Continuous
 62
     4
100
AcDbLine
 10
217.837903540621
 20
124.3176130869523
 30
0.0
 11
217.462903540621
 21
124.1926130869523
 31
0.0
  0
LINE
  5
350
330
1F
100
AcDbEntity
  8
1
  6
Continuous
 62
     4
100
AcDbLine
 10
218.212903540621
 20
124.5676130869523
 30
0.0
 11
217.837903540621
 21
124.3176130869523
 31
0.0
  0
LINE
  5
351
330
1F
100
AcDbEntity
  8
1
  6
Continuous
 62
     4
100
AcDbLine
 10
218.462903540621
 20
124.8176130869523
 30
0.0
 11
218.212903540621
 21
124.5676130869523
 31
0.0
  0
LINE
  5
352
330
1F
100
AcDbEntity
  8
1
  6
Continuous
 62
     4
100
AcDbLine
 10
218.712903540621
 20
125.3176130869523
 30
0.0
 11
218.462903540621
 21
124.8176130869523
 31
0.0
  0
LINE
  5
353
330
1F
100
AcDbEntity
  8
1
  6
Continuous
 62
     4
100
AcDbLine
 10
218.837903540621
 20
126.0676130869523
 30
0.0
 11
218.712903540621
 21
125.3176130869523
 31
0.0
  0
LINE
  5
354
330
1F
100
AcDbEntity
  8
1
  6
Continuous
 62
     4
100
AcDbLine
 10
213.587903540621
 20
126.1926130869523
 30
0.0
 11
213.587903540621
 21
124.1926130869523
 31
0.0
  0
LINE
  5
355
330
1F
100
AcDbEntity
  8
1
  6
Continuous
 62
     4
100
AcDbLine
 10
211.337903540621
 20
125.1926130869523
 30
0.0
 11
214.337903540621
 21
125.1926130869523
 31
0.0
  0
LINE
  5
356
330
1F
100
AcDbEntity
  8
1
  6
Continuous
 62
     4
100
AcDbLine
 10
213.587903540621
 20
129.1926130869523
 30
0.0
 11
211.337903540621
 21
125.1926130869523
 31
0.0
  0
LINE
  5
357
330
1F
100
AcDbEntity
  8
1
  6
Continuous
 62
     4
100
AcDbLine
 10
199.087903540621
 20
126.1926130869523
 30
0.0
 11
199.087903540621
 21
124.1926130869523
 31
0.0
  0
LINE
  5
358
330
1F
100
AcDbEntity
  8
1
  6
Continuous
 62
     4
100
AcDbLine
 10
196.837903540621
 20
125.1926130869523
 30
0.0
 11
199.837903540621
 21
125.1926130869523
 31
0.0
  0
LINE
  5
359
330
1F
100
AcDbEntity
  8
1
  6
Continuous
 62
     4
100
AcDbLine
 10
199.087903540621
 20
129.1926130869523
 30
0.0
 11
196.837903540621
 21
125.1926130869523
 31
0.0
  0
LINE
  5
35A
330
1F
100
AcDbEntity
  8
1
  6
Continuous
 62
     4
100
AcDbLine
 10
195.462903540621
 20
124.4426130869523
 30
0.0
 11
195.462903540621
 21
124.3176130869523
 31
0.0
  0
LINE
  5
35B
330
1F
100
AcDbEntity
  8
1
  6
Continuous
 62
     4
100
AcDbLine
 10
195.337903540621
 20
124.4426130869523
 30
0.0
 11
195.462903540621
 21
124.4426130869523
 31
0.0
  0
LINE
  5
35C
330
1F
100
AcDbEntity
  8
1
  6
Continuous
 62
     4
100
AcDbLine
 10
195.337903540621
 20
124.3176130869523
 30
0.0
 11
195.337903540621
 21
124.4426130869523
 31
0.0
  0
LINE
  5
35D
330
1F
100
AcDbEntity
  8
1
  6
Continuous
 62
     4
100
AcDbLine
 10
195.462903540621
 20
124.3176130869523
 30
0.0
 11
195.337903540621
 21
124.3176130869523
 31
0.0
  0
LINE
  5
35E
330
1F
100
AcDbEntity
  8
1
  6
Continuous
 62
     4
100
AcDbLine
 10
195.587903540621
 20
124.5676130869523
 30
0.0
 11
195.587903540621
 21
124.1926130869523
 31
0.0
  0
LINE
  5
35F
330
1F
100
AcDbEntity
  8
1
  6
Continuous
 62
     4
100
AcDbLine
 10
195.212903540621
 20
124.5676130869523
 30
0.0
 11
195.587903540621
 21
124.5676130869523
 31
0.0
  0
LINE
  5
360
330
1F
100
AcDbEntity
  8
1
  6
Continuous
 62
     4
100
AcDbLine
 10
195.212903540621
 20
124.1926130869523
 30
0.0
 11
195.212903540621
 21
124.5676130869523
 31
0.0
  0
LINE
  5
361
330
1F
100
AcDbEntity
  8
1
  6
Continuous
 62
     4
100
AcDbLine
 10
195.587903540621
 20
124.1926130869523
 30
0.0
 11
195.212903540621
 21
124.1926130869523
 31
0.0
  0
LINE
  5
362
330
1F
100
AcDbEntity
  8
1
  6
Continuous
 62
     4
100
AcDbLine
 10
193.712903540621
 20
127.3176130869523
 30
0.0
 11
193.712903540621
 21
126.0676130869523
 31
0.0
  0
LINE
  5
363
330
1F
100
AcDbEntity
  8
1
  6
Continuous
 62
     4
100
AcDbLine
 10
193.587903540621
 20
128.0676130869523
 30
0.0
 11
193.712903540621
 21
127.3176130869523
 31
0.0
  0
LINE
  5
364
330
1F
100
AcDbEntity
  8
1
  6
Continuous
 62
     4
100
AcDbLine
 10
193.337903540621
 20
128.5676130869523
 30
0.0
 11
193.587903540621
 21
128.0676130869523
 31
0.0
  0
LINE
  5
365
330
1F
100
AcDbEntity
  8
1
  6
Continuous
 62
     4
100
AcDbLine
 10
193.087903540621
 20
128.8176130869523
 30
0.0
 11
193.337903540621
 21
128.5676130869523
 31
0.0
  0
LINE
  5
366
330
1F
100
AcDbEntity
  8
1
  6
Continuous
 62
     4
100
AcDbLine
 10
192.712903540621
 20
129.0676130869523
 30
0.0
 11
193.087903540621
 21
128.8176130869523
 31
0.0
  0
LINE
  5
367
330
1F
100
AcDbEntity
  8
1
  6
Continuous
 62
     4
100
AcDbLine
 10
192.337903540621
 20
129.1926130869523
 30
0.0
 11
192.712903540621
 21
129.0676130869523
 31
0.0
  0
LINE
  5
368
330
1F
100
AcDbEntity
  8
1
  6
Continuous
 62
     4
100
AcDbLine
 10
192.087903540621
 20
129.1926130869523
 30
0.0
 11
192.337903540621
 21
129.1926130869523
 31
0.0
  0
LINE
  5
369
330
1F
100
AcDbEntity
  8
1
  6
Continuous
 62
     4
100
AcDbLine
 10
191.712903540621
 20
129.0676130869523
 30
0.0
 11
192.087903540621
 21
129.1926130869523
 31
0.0
  0
LINE
  5
36A
330
1F
100
AcDbEntity
  8
1
  6
Continuous
 62
     4
100
AcDbLine
 10
191.337903540621
 20
128.8176130869523
 30
0.0
 11
191.712903540621
 21
129.0676130869523
 31
0.0
  0
LINE
  5
36B
330
1F
100
AcDbEntity
  8
1
  6
Continuous
 62
     4
100
AcDbLine
 10
191.087903540621
 20
128.5676130869523
 30
0.0
 11
191.337903540621
 21
128.8176130869523
 31
0.0
  0
LINE
  5
36C
330
1F
100
AcDbEntity
  8
1
  6
Continuous
 62
     4
100
AcDbLine
 10
190.837903540621
 20
128.0676130869523
 30
0.0
 11
191.087903540621
 21
128.5676130869523
 31
0.0
  0
LINE
  5
36D
330
1F
100
AcDbEntity
  8
1
  6
Continuous
 62
     4
100
AcDbLine
 10
190.712903540621
 20
127.3176130869523
 30
0.0
 11
190.837903540621
 21
128.0676130869523
 31
0.0
  0
LINE
  5
36E
330
1F
100
AcDbEntity
  8
1
  6
Continuous
 62
     4
100
AcDbLine
 10
190.712903540621
 20
126.0676130869523
 30
0.0
 11
190.712903540621
 21
127.3176130869523
 31
0.0
  0
LINE
  5
36F
330
1F
100
AcDbEntity
  8
1
  6
Continuous
 62
     4
100
AcDbLine
 10
190.837903540621
 20
125.3176130869523
 30
0.0
 11
190.712903540621
 21
126.0676130869523
 31
0.0
  0
LINE
  5
370
330
1F
100
AcDbEntity
  8
1
  6
Continuous
 62
     4
100
AcDbLine
 10
191.087903540621
 20
124.8176130869523
 30
0.0
 11
190.837903540621
 21
125.3176130869523
 31
0.0
  0
LINE
  5
371
330
1F
100
AcDbEntity
  8
1
  6
Continuous
 62
     4
100
AcDbLine
 10
191.337903540621
 20
124.5676130869523
 30
0.0
 11
191.087903540621
 21
124.8176130869523
 31
0.0
  0
LINE
  5
372
330
1F
100
AcDbEntity
  8
1
  6
Continuous
 62
     4
100
AcDbLine
 10
191.712903540621
 20
124.3176130869523
 30
0.0
 11
191.337903540621
 21
124.5676130869523
 31
0.0
  0
LINE
  5
373
330
1F
100
AcDbEntity
  8
1
  6
Continuous
 62
     4
100
AcDbLine
 10
192.087903540621
 20
124.1926130869523
 30
0.0
 11
191.712903540621
 21
124.3176130869523
 31
0.0
  0
LINE
  5
374
330
1F
100
AcDbEntity
  8
1
  6
Continuous
 62
     4
100
AcDbLine
 10
192.337903540621
 20
124.1926130869523
 30
0.0
 11
192.087903540621
 21
124.1926130869523
 31
0.0
  0
LINE
  5
375
330
1F
100
AcDbEntity
  8
1
  6
Continuous
 62
     4
100
AcDbLine
 10
192.712903540621
 20
124.3176130869523
 30
0.0
 11
192.337903540621
 21
124.1926130869523
 31
0.0
  0
LINE
  5
376
330
1F
100
AcDbEntity
  8
1
  6
Continuous
 62
     4
100
AcDbLine
 10
193.087903540621
 20
124.5676130869523
 30
0.0
 11
192.712903540621
 21
124.3176130869523
 31
0.0
  0
LINE
  5
377
330
1F
100
AcDbEntity
  8
1
  6
Continuous
 62
     4
100
AcDbLine
 10
193.337903540621
 20
124.8176130869523
 30
0.0
 11
193.087903540621
 21
124.5676130869523
 31
0.0
  0
LINE
  5
378
330
1F
100
AcDbEntity
  8
1
  6
Continuous
 62
     4
100
AcDbLine
 10
193.587903540621
 20
125.3176130869523
 30
0.0
 11
193.337903540621
 21
124.8176130869523
 31
0.0
  0
LINE
  5
379
330
1F
100
AcDbEntity
  8
1
  6
Continuous
 62
     4
100
AcDbLine
 10
193.712903540621
 20
126.0676130869523
 30
0.0
 11
193.587903540621
 21
125.3176130869523
 31
0.0
  0
LINE
  5
37A
330
1F
100
AcDbEntity
  8
1
  6
Continuous
 62
     4
100
AcDbLine
 10
223.337903540621
 20
135.6476130869523
 30
0.0
 11
223.337903540621
 21
134.3976130869523
 31
0.0
  0
LINE
  5
37B
330
1F
100
AcDbEntity
  8
1
  6
Continuous
 62
     4
100
AcDbLine
 10
223.212903540621
 20
136.3976130869523
 30
0.0
 11
223.337903540621
 21
135.6476130869523
 31
0.0
  0
LINE
  5
37C
330
1F
100
AcDbEntity
  8
1
  6
Continuous
 62
     4
100
AcDbLine
 10
222.962903540621
 20
136.8976130869523
 30
0.0
 11
223.212903540621
 21
136.3976130869523
 31
0.0
  0
LINE
  5
37D
330
1F
100
AcDbEntity
  8
1
  6
Continuous
 62
     4
100
AcDbLine
 10
222.712903540621
 20
137.1476130869523
 30
0.0
 11
222.962903540621
 21
136.8976130869523
 31
0.0
  0
LINE
  5
37E
330
1F
100
AcDbEntity
  8
1
  6
Continuous
 62
     4
100
AcDbLine
 10
222.337903540621
 20
137.3976130869523
 30
0.0
 11
222.712903540621
 21
137.1476130869523
 31
0.0
  0
LINE
  5
37F
330
1F
100
AcDbEntity
  8
1
  6
Continuous
 62
     4
100
AcDbLine
 10
221.962903540621
 20
137.5226130869523
 30
0.0
 11
222.337903540621
 21
137.3976130869523
 31
0.0
  0
LINE
  5
380
330
1F
100
AcDbEntity
  8
1
  6
Continuous
 62
     4
100
AcDbLine
 10
221.712903540621
 20
137.5226130869523
 30
0.0
 11
221.962903540621
 21
137.5226130869523
 31
0.0
  0
LINE
  5
381
330
1F
100
AcDbEntity
  8
1
  6
Continuous
 62
     4
100
AcDbLine
 10
221.337903540621
 20
137.3976130869523
 30
0.0
 11
221.712903540621
 21
137.5226130869523
 31
0.0
  0
LINE
  5
382
330
1F
100
AcDbEntity
  8
1
  6
Continuous
 62
     4
100
AcDbLine
 10
220.962903540621
 20
137.1476130869523
 30
0.0
 11
221.337903540621
 21
137.3976130869523
 31
0.0
  0
LINE
  5
383
330
1F
100
AcDbEntity
  8
1
  6
Continuous
 62
     4
100
AcDbLine
 10
220.712903540621
 20
136.8976130869523
 30
0.0
 11
220.962903540621
 21
137.1476130869523
 31
0.0
  0
LINE
  5
384
330
1F
100
AcDbEntity
  8
1
  6
Continuous
 62
     4
100
AcDbLine
 10
220.462903540621
 20
136.3976130869523
 30
0.0
 11
220.712903540621
 21
136.8976130869523
 31
0.0
  0
LINE
  5
385
330
1F
100
AcDbEntity
  8
1
  6
Continuous
 62
     4
100
AcDbLine
 10
220.337903540621
 20
135.6476130869523
 30
0.0
 11
220.462903540621
 21
136.3976130869523
 31
0.0
  0
LINE
  5
386
330
1F
100
AcDbEntity
  8
1
  6
Continuous
 62
     4
100
AcDbLine
 10
220.337903540621
 20
134.3976130869523
 30
0.0
 11
220.337903540621
 21
135.6476130869523
 31
0.0
  0
LINE
  5
387
330
1F
100
AcDbEntity
  8
1
  6
Continuous
 62
     4
100
AcDbLine
 10
220.462903540621
 20
133.6476130869523
 30
0.0
 11
220.337903540621
 21
134.3976130869523
 31
0.0
  0
LINE
  5
388
330
1F
100
AcDbEntity
  8
1
  6
Continuous
 62
     4
100
AcDbLine
 10
220.712903540621
 20
133.1476130869523
 30
0.0
 11
220.462903540621
 21
133.6476130869523
 31
0.0
  0
LINE
  5
389
330
1F
100
AcDbEntity
  8
1
  6
Continuous
 62
     4
100
AcDbLine
 10
220.962903540621
 20
132.8976130869523
 30
0.0
 11
220.712903540621
 21
133.1476130869523
 31
0.0
  0
LINE
  5
38A
330
1F
100
AcDbEntity
  8
1
  6
Continuous
 62
     4
100
AcDbLine
 10
221.337903540621
 20
132.6476130869523
 30
0.0
 11
220.962903540621
 21
132.8976130869523
 31
0.0
  0
LINE
  5
38B
330
1F
100
AcDbEntity
  8
1
  6
Continuous
 62
     4
100
AcDbLine
 10
221.712903540621
 20
132.5226130869523
 30
0.0
 11
221.337903540621
 21
132.6476130869523
 31
0.0
  0
LINE
  5
38C
330
1F
100
AcDbEntity
  8
1
  6
Continuous
 62
     4
100
AcDbLine
 10
221.962903540621
 20
132.5226130869523
 30
0.0
 11
221.712903540621
 21
132.5226130869523
 31
0.0
  0
LINE
  5
38D
330
1F
100
AcDbEntity
  8
1
  6
Continuous
 62
     4
100
AcDbLine
 10
222.337903540621
 20
132.6476130869523
 30
0.0
 11
221.962903540621
 21
132.5226130869523
 31
0.0
  0
LINE
  5
38E
330
1F
100
AcDbEntity
  8
1
  6
Continuous
 62
     4
100
AcDbLine
 10
222.712903540621
 20
132.8976130869523
 30
0.0
 11
222.337903540621
 21
132.6476130869523
 31
0.0
  0
LINE
  5
38F
330
1F
100
AcDbEntity
  8
1
  6
Continuous
 62
     4
100
AcDbLine
 10
222.962903540621
 20
133.1476130869523
 30
0.0
 11
222.712903540621
 21
132.8976130869523
 31
0.0
  0
LINE
  5
390
330
1F
100
AcDbEntity
  8
1
  6
Continuous
 62
     4
100
AcDbLine
 10
223.212903540621
 20
133.6476130869523
 30
0.0
 11
222.962903540621
 21
133.1476130869523
 31
0.0
  0
LINE
  5
391
330
1F
100
AcDbEntity
  8
1
  6
Continuous
 62
     4
100
AcDbLine
 10
223.337903540621
 20
134.3976130869523
 30
0.0
 11
223.212903540621
 21
133.6476130869523
 31
0.0
  0
LINE
  5
392
330
1F
100
AcDbEntity
  8
1
  6
Continuous
 62
     4
100
AcDbLine
 10
218.837903540621
 20
135.6476130869523
 30
0.0
 11
218.837903540621
 21
134.3976130869523
 31
0.0
  0
LINE
  5
393
330
1F
100
AcDbEntity
  8
1
  6
Continuous
 62
     4
100
AcDbLine
 10
218.712903540621
 20
136.3976130869523
 30
0.0
 11
218.837903540621
 21
135.6476130869523
 31
0.0
  0
LINE
  5
394
330
1F
100
AcDbEntity
  8
1
  6
Continuous
 62
     4
100
AcDbLine
 10
218.462903540621
 20
136.8976130869523
 30
0.0
 11
218.712903540621
 21
136.3976130869523
 31
0.0
  0
LINE
  5
395
330
1F
100
AcDbEntity
  8
1
  6
Continuous
 62
     4
100
AcDbLine
 10
218.212903540621
 20
137.1476130869523
 30
0.0
 11
218.462903540621
 21
136.8976130869523
 31
0.0
  0
LINE
  5
396
330
1F
100
AcDbEntity
  8
1
  6
Continuous
 62
     4
100
AcDbLine
 10
217.837903540621
 20
137.3976130869523
 30
0.0
 11
218.212903540621
 21
137.1476130869523
 31
0.0
  0
LINE
  5
397
330
1F
100
AcDbEntity
  8
1
  6
Continuous
 62
     4
100
AcDbLine
 10
217.462903540621
 20
137.5226130869523
 30
0.0
 11
217.837903540621
 21
137.3976130869523
 31
0.0
  0
LINE
  5
398
330
1F
100
AcDbEntity
  8
1
  6
Continuous
 62
     4
100
AcDbLine
 10
217.212903540621
 20
137.5226130869523
 30
0.0
 11
217.462903540621
 21
137.5226130869523
 31
0.0
  0
LINE
  5
399
330
1F
100
AcDbEntity
  8
1
  6
Continuous
 62
     4
100
AcDbLine
 10
216.837903540621
 20
137.3976130869523
 30
0.0
 11
217.212903540621
 21
137.5226130869523
 31
0.0
  0
LINE
  5
39A
330
1F
100
AcDbEntity
  8
1
  6
Continuous
 62
     4
100
AcDbLine
 10
216.462903540621
 20
137.1476130869523
 30
0.0
 11
216.837903540621
 21
137.3976130869523
 31
0.0
  0
LINE
  5
39B
330
1F
100
AcDbEntity
  8
1
  6
Continuous
 62
     4
100
AcDbLine
 10
216.212903540621
 20
136.8976130869523
 30
0.0
 11
216.462903540621
 21
137.1476130869523
 31
0.0
  0
LINE
  5
39C
330
1F
100
AcDbEntity
  8
1
  6
Continuous
 62
     4
100
AcDbLine
 10
215.962903540621
 20
136.3976130869523
 30
0.0
 11
216.212903540621
 21
136.8976130869523
 31
0.0
  0
LINE
  5
39D
330
1F
100
AcDbEntity
  8
1
  6
Continuous
 62
     4
100
AcDbLine
 10
215.837903540621
 20
135.6476130869523
 30
0.0
 11
215.962903540621
 21
136.3976130869523
 31
0.0
  0
LINE
  5
39E
330
1F
100
AcDbEntity
  8
1
  6
Continuous
 62
     4
100
AcDbLine
 10
215.837903540621
 20
134.3976130869523
 30
0.0
 11
215.837903540621
 21
135.6476130869523
 31
0.0
  0
LINE
  5
39F
330
1F
100
AcDbEntity
  8
1
  6
Continuous
 62
     4
100
AcDbLine
 10
215.962903540621
 20
133.6476130869523
 30
0.0
 11
215.837903540621
 21
134.3976130869523
 31
0.0
  0
LINE
  5
3A0
330
1F
100
AcDbEntity
  8
1
  6
Continuous
 62
     4
100
AcDbLine
 10
216.212903540621
 20
133.1476130869523
 30
0.0
 11
215.962903540621
 21
133.6476130869523
 31
0.0
  0
LINE
  5
3A1
330
1F
100
AcDbEntity
  8
1
  6
Continuous
 62
     4
100
AcDbLine
 10
216.462903540621
 20
132.8976130869523
 30
0.0
 11
216.212903540621
 21
133.1476130869523
 31
0.0
  0
LINE
  5
3A2
330
1F
100
AcDbEntity
  8
1
  6
Continuous
 62
     4
100
AcDbLine
 10
216.837903540621
 20
132.6476130869523
 30
0.0
 11
216.462903540621
 21
132.8976130869523
 31
0.0
  0
LINE
  5
3A3
330
1F
100
AcDbEntity
  8
1
  6
Continuous
 62
     4
100
AcDbLine
 10
217.212903540621
 20
132.5226130869523
 30
0.0
 11
216.837903540621
 21
132.6476130869523
 31
0.0
  0
LINE
  5
3A4
330
1F
100
AcDbEntity
  8
1
  6
Continuous
 62
     4
100
AcDbLine
 10
217.462903540621
 20
132.5226130869523
 30
0.0
 11
217.212903540621
 21
132.5226130869523
 31
0.0
  0
LINE
  5
3A5
330
1F
100
AcDbEntity
  8
1
  6
Continuous
 62
     4
100
AcDbLine
 10
217.837903540621
 20
132.6476130869523
 30
0.0
 11
217.462903540621
 21
132.5226130869523
 31
0.0
  0
LINE
  5
3A6
330
1F
100
AcDbEntity
  8
1
  6
Continuous
 62
     4
100
AcDbLine
 10
218.212903540621
 20
132.8976130869523
 30
0.0
 11
217.837903540621
 21
132.6476130869523
 31
0.0
  0
LINE
  5
3A7
330
1F
100
AcDbEntity
  8
1
  6
Continuous
 62
     4
100
AcDbLine
 10
218.462903540621
 20
133.1476130869523
 30
0.0
 11
218.212903540621
 21
132.8976130869523
 31
0.0
  0
LINE
  5
3A8
330
1F
100
AcDbEntity
  8
1
  6
Continuous
 62
     4
100
AcDbLine
 10
218.712903540621
 20
133.6476130869523
 30
0.0
 11
218.462903540621
 21
133.1476130869523
 31
0.0
  0
LINE
  5
3A9
330
1F
100
AcDbEntity
  8
1
  6
Continuous
 62
     4
100
AcDbLine
 10
218.837903540621
 20
134.3976130869523
 30
0.0
 11
218.712903540621
 21
133.6476130869523
 31
0.0
  0
LINE
  5
3AA
330
1F
100
AcDbEntity
  8
1
  6
Continuous
 62
     4
100
AcDbLine
 10
213.212903540621
 20
132.5226130869523
 30
0.0
 11
211.337903540621
 21
132.5226130869523
 31
0.0
  0
LINE
  5
3AB
330
1F
100
AcDbEntity
  8
1
  6
Continuous
 62
     4
100
AcDbLine
 10
213.587903540621
 20
132.6476130869523
 30
0.0
 11
213.212903540621
 21
132.5226130869523
 31
0.0
  0
LINE
  5
3AC
330
1F
100
AcDbEntity
  8
1
  6
Continuous
 62
     4
100
AcDbLine
 10
213.962903540621
 20
132.8976130869523
 30
0.0
 11
213.587903540621
 21
132.6476130869523
 31
0.0
  0
LINE
  5
3AD
330
1F
100
AcDbEntity
  8
1
  6
Continuous
 62
     4
100
AcDbLine
 10
214.212903540621
 20
133.2726130869523
 30
0.0
 11
213.962903540621
 21
132.8976130869523
 31
0.0
  0
LINE
  5
3AE
330
1F
100
AcDbEntity
  8
1
  6
Continuous
 62
     4
100
AcDbLine
 10
214.337903540621
 20
133.7726130869523
 30
0.0
 11
214.212903540621
 21
133.2726130869523
 31
0.0
  0
LINE
  5
3AF
330
1F
100
AcDbEntity
  8
1
  6
Continuous
 62
     4
100
AcDbLine
 10
214.337903540621
 20
134.3976130869523
 30
0.0
 11
214.337903540621
 21
133.7726130869523
 31
0.0
  0
LINE
  5
3B0
330
1F
100
AcDbEntity
  8
1
  6
Continuous
 62
     4
100
AcDbLine
 10
214.212903540621
 20
134.8976130869523
 30
0.0
 11
214.337903540621
 21
134.3976130869523
 31
0.0
  0
LINE
  5
3B1
330
1F
100
AcDbEntity
  8
1
  6
Continuous
 62
     4
100
AcDbLine
 10
214.087903540621
 20
135.1476130869523
 30
0.0
 11
214.212903540621
 21
134.8976130869523
 31
0.0
  0
LINE
  5
3B2
330
1F
100
AcDbEntity
  8
1
  6
Continuous
 62
     4
100
AcDbLine
 10
213.837903540621
 20
135.3976130869523
 30
0.0
 11
214.087903540621
 21
135.1476130869523
 31
0.0
  0
LINE
  5
3B3
330
1F
100
AcDbEntity
  8
1
  6
Continuous
 62
     4
100
AcDbLine
 10
213.337903540621
 20
135.5226130869523
 30
0.0
 11
213.837903540621
 21
135.3976130869523
 31
0.0
  0
LINE
  5
3B4
330
1F
100
AcDbEntity
  8
1
  6
Continuous
 62
     4
100
AcDbLine
 10
213.712903540621
 20
135.6476130869523
 30
0.0
 11
213.337903540621
 21
135.5226130869523
 31
0.0
  0
LINE
  5
3B5
330
1F
100
AcDbEntity
  8
1
  6
Continuous
 62
     4
100
AcDbLine
 10
213.962903540621
 20
135.7726130869523
 30
0.0
 11
213.712903540621
 21
135.6476130869523
 31
0.0
  0
LINE
  5
3B6
330
1F
100
AcDbEntity
  8
1
  6
Continuous
 62
     4
100
AcDbLine
 10
214.212903540621
 20
136.0226130869523
 30
0.0
 11
213.962903540621
 21
135.7726130869523
 31
0.0
  0
LINE
  5
3B7
330
1F
100
AcDbEntity
  8
1
  6
Continuous
 62
     4
100
AcDbLine
 10
214.337903540621
 20
136.3976130869523
 30
0.0
 11
214.212903540621
 21
136.0226130869523
 31
0.0
  0
LINE
  5
3B8
330
1F
100
AcDbEntity
  8
1
  6
Continuous
 62
     4
100
AcDbLine
 10
214.337903540621
 20
136.7726130869523
 30
0.0
 11
214.337903540621
 21
136.3976130869523
 31
0.0
  0
LINE
  5
3B9
330
1F
100
AcDbEntity
  8
1
  6
Continuous
 62
     4
100
AcDbLine
 10
214.212903540621
 20
137.1476130869523
 30
0.0
 11
214.337903540621
 21
136.7726130869523
 31
0.0
  0
LINE
  5
3BA
330
1F
100
AcDbEntity
  8
1
  6
Continuous
 62
     4
100
AcDbLine
 10
213.837903540621
 20
137.3976130869523
 30
0.0
 11
214.212903540621
 21
137.1476130869523
 31
0.0
  0
LINE
  5
3BB
330
1F
100
AcDbEntity
  8
1
  6
Continuous
 62
     4
100
AcDbLine
 10
213.212903540621
 20
137.5226130869523
 30
0.0
 11
213.837903540621
 21
137.3976130869523
 31
0.0
  0
LINE
  5
3BC
330
1F
100
AcDbEntity
  8
1
  6
Continuous
 62
     4
100
AcDbLine
 10
211.337903540621
 20
137.5226130869523
 30
0.0
 11
213.212903540621
 21
137.5226130869523
 31
0.0
  0
LINE
  5
3BD
330
1F
100
AcDbEntity
  8
1
  6
Continuous
 62
     4
100
AcDbLine
 10
212.087903540621
 20
135.5226130869523
 30
0.0
 11
213.337903540621
 21
135.5226130869523
 31
0.0
  0
LINE
  5
3BE
330
1F
100
AcDbEntity
  8
1
  6
Continuous
 62
     4
100
AcDbLine
 10
198.712903540621
 20
132.5226130869523
 30
0.0
 11
196.837903540621
 21
132.5226130869523
 31
0.0
  0
LINE
  5
3BF
330
1F
100
AcDbEntity
  8
1
  6
Continuous
 62
     4
100
AcDbLine
 10
199.087903540621
 20
132.6476130869523
 30
0.0
 11
198.712903540621
 21
132.5226130869523
 31
0.0
  0
LINE
  5
3C0
330
1F
100
AcDbEntity
  8
1
  6
Continuous
 62
     4
100
AcDbLine
 10
199.462903540621
 20
132.8976130869523
 30
0.0
 11
199.087903540621
 21
132.6476130869523
 31
0.0
  0
LINE
  5
3C1
330
1F
100
AcDbEntity
  8
1
  6
Continuous
 62
     4
100
AcDbLine
 10
199.712903540621
 20
133.2726130869523
 30
0.0
 11
199.462903540621
 21
132.8976130869523
 31
0.0
  0
LINE
  5
3C2
330
1F
100
AcDbEntity
  8
1
  6
Continuous
 62
     4
100
AcDbLine
 10
199.837903540621
 20
133.7726130869523
 30
0.0
 11
199.712903540621
 21
133.2726130869523
 31
0.0
  0
LINE
  5
3C3
330
1F
100
AcDbEntity
  8
1
  6
Continuous
 62
     4
100
AcDbLine
 10
199.837903540621
 20
134.3976130869523
 30
0.0
 11
199.837903540621
 21
133.7726130869523
 31
0.0
  0
LINE
  5
3C4
330
1F
100
AcDbEntity
  8
1
  6
Continuous
 62
     4
100
AcDbLine
 10
199.712903540621
 20
134.8976130869523
 30
0.0
 11
199.837903540621
 21
134.3976130869523
 31
0.0
  0
LINE
  5
3C5
330
1F
100
AcDbEntity
  8
1
  6
Continuous
 62
     4
100
AcDbLine
 10
199.587903540621
 20
135.1476130869523
 30
0.0
 11
199.712903540621
 21
134.8976130869523
 31
0.0
  0
LINE
  5
3C6
330
1F
100
AcDbEntity
  8
1
  6
Continuous
 62
     4
100
AcDbLine
 10
199.337903540621
 20
135.3976130869523
 30
0.0
 11
199.587903540621
 21
135.1476130869523
 31
0.0
  0
LINE
  5
3C7
330
1F
100
AcDbEntity
  8
1
  6
Continuous
 62
     4
100
AcDbLine
 10
198.837903540621
 20
135.5226130869523
 30
0.0
 11
199.337903540621
 21
135.3976130869523
 31
0.0
  0
LINE
  5
3C8
330
1F
100
AcDbEntity
  8
1
  6
Continuous
 62
     4
100
AcDbLine
 10
199.212903540621
 20
135.6476130869523
 30
0.0
 11
198.837903540621
 21
135.5226130869523
 31
0.0
  0
LINE
  5
3C9
330
1F
100
AcDbEntity
  8
1
  6
Continuous
 62
     4
100
AcDbLine
 10
199.462903540621
 20
135.7726130869523
 30
0.0
 11
199.212903540621
 21
135.6476130869523
 31
0.0
  0
LINE
  5
3CA
330
1F
100
AcDbEntity
  8
1
  6
Continuous
 62
     4
100
AcDbLine
 10
199.712903540621
 20
136.0226130869523
 30
0.0
 11
199.462903540621
 21
135.7726130869523
 31
0.0
  0
LINE
  5
3CB
330
1F
100
AcDbEntity
  8
1
  6
Continuous
 62
     4
100
AcDbLine
 10
199.837903540621
 20
136.3976130869523
 30
0.0
 11
199.712903540621
 21
136.0226130869523
 31
0.0
  0
LINE
  5
3CC
330
1F
100
AcDbEntity
  8
1
  6
Continuous
 62
     4
100
AcDbLine
 10
199.837903540621
 20
136.7726130869523
 30
0.0
 11
199.837903540621
 21
136.3976130869523
 31
0.0
  0
LINE
  5
3CD
330
1F
100
AcDbEntity
  8
1
  6
Continuous
 62
     4
100
AcDbLine
 10
199.712903540621
 20
137.1476130869523
 30
0.0
 11
199.837903540621
 21
136.7726130869523
 31
0.0
  0
LINE
  5
3CE
330
1F
100
AcDbEntity
  8
1
  6
Continuous
 62
     4
100
AcDbLine
 10
199.337903540621
 20
137.3976130869523
 30
0.0
 11
199.712903540621
 21
137.1476130869523
 31
0.0
  0
LINE
  5
3CF
330
1F
100
AcDbEntity
  8
1
  6
Continuous
 62
     4
100
AcDbLine
 10
198.712903540621
 20
137.5226130869523
 30
0.0
 11
199.337903540621
 21
137.3976130869523
 31
0.0
  0
LINE
  5
3D0
330
1F
100
AcDbEntity
  8
1
  6
Continuous
 62
     4
100
AcDbLine
 10
196.837903540621
 20
137.5226130869523
 30
0.0
 11
198.712903540621
 21
137.5226130869523
 31
0.0
  0
LINE
  5
3D1
330
1F
100
AcDbEntity
  8
1
  6
Continuous
 62
     4
100
AcDbLine
 10
197.587903540621
 20
135.5226130869523
 30
0.0
 11
198.837903540621
 21
135.5226130869523
 31
0.0
  0
LINE
  5
3D2
330
1F
100
AcDbEntity
  8
1
  6
Continuous
 62
     4
100
AcDbLine
 10
195.462903540621
 20
132.7726130869523
 30
0.0
 11
195.462903540621
 21
132.6476130869523
 31
0.0
  0
LINE
  5
3D3
330
1F
100
AcDbEntity
  8
1
  6
Continuous
 62
     4
100
AcDbLine
 10
195.337903540621
 20
132.7726130869523
 30
0.0
 11
195.462903540621
 21
132.7726130869523
 31
0.0
  0
LINE
  5
3D4
330
1F
100
AcDbEntity
  8
1
  6
Continuous
 62
     4
100
AcDbLine
 10
195.337903540621
 20
132.6476130869523
 30
0.0
 11
195.337903540621
 21
132.7726130869523
 31
0.0
  0
LINE
  5
3D5
330
1F
100
AcDbEntity
  8
1
  6
Continuous
 62
     4
100
AcDbLine
 10
195.462903540621
 20
132.6476130869523
 30
0.0
 11
195.337903540621
 21
132.6476130869523
 31
0.0
  0
LINE
  5
3D6
330
1F
100
AcDbEntity
  8
1
  6
Continuous
 62
     4
100
AcDbLine
 10
195.587903540621
 20
132.8976130869523
 30
0.0
 11
195.587903540621
 21
132.5226130869523
 31
0.0
  0
LINE
  5
3D7
330
1F
100
AcDbEntity
  8
1
  6
Continuous
 62
     4
100
AcDbLine
 10
195.212903540621
 20
132.8976130869523
 30
0.0
 11
195.587903540621
 21
132.8976130869523
 31
0.0
  0
LINE
  5
3D8
330
1F
100
AcDbEntity
  8
1
  6
Continuous
 62
     4
100
AcDbLine
 10
195.212903540621
 20
132.5226130869523
 30
0.0
 11
195.212903540621
 21
132.8976130869523
 31
0.0
  0
LINE
  5
3D9
330
1F
100
AcDbEntity
  8
1
  6
Continuous
 62
     4
100
AcDbLine
 10
195.587903540621
 20
132.5226130869523
 30
0.0
 11
195.212903540621
 21
132.5226130869523
 31
0.0
  0
LINE
  5
3DA
330
1F
100
AcDbEntity
  8
1
  6
Continuous
 62
     4
100
AcDbLine
 10
193.712903540621
 20
135.6476130869523
 30
0.0
 11
193.712903540621
 21
134.3976130869523
 31
0.0
  0
LINE
  5
3DB
330
1F
100
AcDbEntity
  8
1
  6
Continuous
 62
     4
100
AcDbLine
 10
193.587903540621
 20
136.3976130869523
 30
0.0
 11
193.712903540621
 21
135.6476130869523
 31
0.0
  0
LINE
  5
3DC
330
1F
100
AcDbEntity
  8
1
  6
Continuous
 62
     4
100
AcDbLine
 10
193.337903540621
 20
136.8976130869523
 30
0.0
 11
193.587903540621
 21
136.3976130869523
 31
0.0
  0
LINE
  5
3DD
330
1F
100
AcDbEntity
  8
1
  6
Continuous
 62
     4
100
AcDbLine
 10
193.087903540621
 20
137.1476130869523
 30
0.0
 11
193.337903540621
 21
136.8976130869523
 31
0.0
  0
LINE
  5
3DE
330
1F
100
AcDbEntity
  8
1
  6
Continuous
 62
     4
100
AcDbLine
 10
192.712903540621
 20
137.3976130869523
 30
0.0
 11
193.087903540621
 21
137.1476130869523
 31
0.0
  0
LINE
  5
3DF
330
1F
100
AcDbEntity
  8
1
  6
Continuous
 62
     4
100
AcDbLine
 10
192.337903540621
 20
137.5226130869523
 30
0.0
 11
192.712903540621
 21
137.3976130869523
 31
0.0
  0
LINE
  5
3E0
330
1F
100
AcDbEntity
  8
1
  6
Continuous
 62
     4
100
AcDbLine
 10
192.087903540621
 20
137.5226130869523
 30
0.0
 11
192.337903540621
 21
137.5226130869523
 31
0.0
  0
LINE
  5
3E1
330
1F
100
AcDbEntity
  8
1
  6
Continuous
 62
     4
100
AcDbLine
 10
191.712903540621
 20
137.3976130869523
 30
0.0
 11
192.087903540621
 21
137.5226130869523
 31
0.0
  0
LINE
  5
3E2
330
1F
100
AcDbEntity
  8
1
  6
Continuous
 62
     4
100
AcDbLine
 10
191.337903540621
 20
137.1476130869523
 30
0.0
 11
191.712903540621
 21
137.3976130869523
 31
0.0
  0
LINE
  5
3E3
330
1F
100
AcDbEntity
  8
1
  6
Continuous
 62
     4
100
AcDbLine
 10
191.087903540621
 20
136.8976130869523
 30
0.0
 11
191.337903540621
 21
137.1476130869523
 31
0.0
  0
LINE
  5
3E4
330
1F
100
AcDbEntity
  8
1
  6
Continuous
 62
     4
100
AcDbLine
 10
190.837903540621
 20
136.3976130869523
 30
0.0
 11
191.087903540621
 21
136.8976130869523
 31
0.0
  0
LINE
  5
3E5
330
1F
100
AcDbEntity
  8
1
  6
Continuous
 62
     4
100
AcDbLine
 10
190.712903540621
 20
135.6476130869523
 30
0.0
 11
190.837903540621
 21
136.3976130869523
 31
0.0
  0
LINE
  5
3E6
330
1F
100
AcDbEntity
  8
1
  6
Continuous
 62
     4
100
AcDbLine
 10
190.712903540621
 20
134.3976130869523
 30
0.0
 11
190.712903540621
 21
135.6476130869523
 31
0.0
  0
LINE
  5
3E7
330
1F
100
AcDbEntity
  8
1
  6
Continuous
 62
     4
100
AcDbLine
 10
190.837903540621
 20
133.6476130869523
 30
0.0
 11
190.712903540621
 21
134.3976130869523
 31
0.0
  0
LINE
  5
3E8
330
1F
100
AcDbEntity
  8
1
  6
Continuous
 62
     4
100
AcDbLine
 10
191.087903540621
 20
133.1476130869523
 30
0.0
 11
190.837903540621
 21
133.6476130869523
 31
0.0
  0
LINE
  5
3E9
330
1F
100
AcDbEntity
  8
1
  6
Continuous
 62
     4
100
AcDbLine
 10
191.337903540621
 20
132.8976130869523
 30
0.0
 11
191.087903540621
 21
133.1476130869523
 31
0.0
  0
LINE
  5
3EA
330
1F
100
AcDbEntity
  8
1
  6
Continuous
 62
     4
100
AcDbLine
 10
191.712903540621
 20
132.6476130869523
 30
0.0
 11
191.337903540621
 21
132.8976130869523
 31
0.0
  0
LINE
  5
3EB
330
1F
100
AcDbEntity
  8
1
  6
Continuous
 62
     4
100
AcDbLine
 10
192.087903540621
 20
132.5226130869523
 30
0.0
 11
191.712903540621
 21
132.6476130869523
 31
0.0
  0
LINE
  5
3EC
330
1F
100
AcDbEntity
  8
1
  6
Continuous
 62
     4
100
AcDbLine
 10
192.337903540621
 20
132.5226130869523
 30
0.0
 11
192.087903540621
 21
132.5226130869523
 31
0.0
  0
LINE
  5
3ED
330
1F
100
AcDbEntity
  8
1
  6
Continuous
 62
     4
100
AcDbLine
 10
192.712903540621
 20
132.6476130869523
 30
0.0
 11
192.337903540621
 21
132.5226130869523
 31
0.0
  0
LINE
  5
3EE
330
1F
100
AcDbEntity
  8
1
  6
Continuous
 62
     4
100
AcDbLine
 10
193.087903540621
 20
132.8976130869523
 30
0.0
 11
192.712903540621
 21
132.6476130869523
 31
0.0
  0
LINE
  5
3EF
330
1F
100
AcDbEntity
  8
1
  6
Continuous
 62
     4
100
AcDbLine
 10
193.337903540621
 20
133.1476130869523
 30
0.0
 11
193.087903540621
 21
132.8976130869523
 31
0.0
  0
LINE
  5
3F0
330
1F
100
AcDbEntity
  8
1
  6
Continuous
 62
     4
100
AcDbLine
 10
193.587903540621
 20
133.6476130869523
 30
0.0
 11
193.337903540621
 21
133.1476130869523
 31
0.0
  0
LINE
  5
3F1
330
1F
100
AcDbEntity
  8
1
  6
Continuous
 62
     4
100
AcDbLine
 10
193.712903540621
 20
134.3976130869523
 30
0.0
 11
193.587903540621
 21
133.6476130869523
 31
0.0
  0
LINE
  5
3F2
330
1F
100
AcDbEntity
  8
1
  6
Continuous
 62
     4
100
AcDbLine
 10
220.212903540621
 20
140.8526130869523
 30
0.0
 11
220.212903540621
 21
145.8526130869523
 31
0.0
  0
LINE
  5
3F3
330
1F
100
AcDbEntity
  8
1
  6
Continuous
 62
     4
100
AcDbLine
 10
223.212903540621
 20
140.8526130869523
 30
0.0
 11
220.212903540621
 21
140.8526130869523
 31
0.0
  0
LINE
  5
3F4
330
1F
100
AcDbEntity
  8
1
  6
Continuous
 62
     4
100
AcDbLine
 10
208.462903540621
 20
141.8526130869523
 30
0.0
 11
207.962903540621
 21
140.8526130869523
 31
0.0
  0
LINE
  5
3F5
330
1F
100
AcDbEntity
  8
1
  6
Continuous
 62
     4
100
AcDbLine
 10
208.712903540621
 20
142.8526130869523
 30
0.0
 11
208.462903540621
 21
141.8526130869523
 31
0.0
  0
LINE
  5
3F6
330
1F
100
AcDbEntity
  8
1
  6
Continuous
 62
     4
100
AcDbLine
 10
208.712903540621
 20
143.8526130869523
 30
0.0
 11
208.712903540621
 21
142.8526130869523
 31
0.0
  0
LINE
  5
3F7
330
1F
100
AcDbEntity
  8
1
  6
Continuous
 62
     4
100
AcDbLine
 10
208.462903540621
 20
144.8526130869523
 30
0.0
 11
208.712903540621
 21
143.8526130869523
 31
0.0
  0
LINE
  5
3F8
330
1F
100
AcDbEntity
  8
1
  6
Continuous
 62
     4
100
AcDbLine
 10
207.962903540621
 20
145.8526130869523
 30
0.0
 11
208.462903540621
 21
144.8526130869523
 31
0.0
  0
LINE
  5
3F9
330
1F
100
AcDbEntity
  8
1
  6
Continuous
 62
     4
100
AcDbLine
 10
204.712903540621
 20
144.3526130869523
 30
0.0
 11
205.712903540621
 21
144.3526130869523
 31
0.0
  0
LINE
  5
3FA
330
1F
100
AcDbEntity
  8
1
  6
Continuous
 62
     4
100
AcDbLine
 10
204.712903540621
 20
144.3526130869523
 30
0.0
 11
204.712903540621
 21
140.8526130869523
 31
0.0
  0
LINE
  5
3FB
330
1F
100
AcDbEntity
  8
1
  6
Continuous
 62
     4
100
AcDbLine
 10
206.462903540621
 20
143.7276130869523
 30
0.0
 11
206.462903540621
 21
140.8526130869523
 31
0.0
  0
LINE
  5
3FC
330
1F
100
AcDbEntity
  8
1
  6
Continuous
 62
     4
100
AcDbLine
 10
206.337903540621
 20
143.9776130869523
 30
0.0
 11
206.462903540621
 21
143.7276130869523
 31
0.0
  0
LINE
  5
3FD
330
1F
100
AcDbEntity
  8
1
  6
Continuous
 62
     4
100
AcDbLine
 10
206.087903540621
 20
144.2276130869523
 30
0.0
 11
206.337903540621
 21
143.9776130869523
 31
0.0
  0
LINE
  5
3FE
330
1F
100
AcDbEntity
  8
1
  6
Continuous
 62
     4
100
AcDbLine
 10
205.712903540621
 20
144.3526130869523
 30
0.0
 11
206.087903540621
 21
144.2276130869523
 31
0.0
  0
LINE
  5
3FF
330
1F
100
AcDbEntity
  8
1
  6
Continuous
 62
     4
100
AcDbLine
 10
202.962903540621
 20
144.3526130869523
 30
0.0
 11
204.712903540621
 21
144.3526130869523
 31
0.0
  0
LINE
  5
400
330
1F
100
AcDbEntity
  8
1
  6
Continuous
 62
     4
100
AcDbLine
 10
202.962903540621
 20
140.8526130869523
 30
0.0
 11
202.962903540621
 21
144.3526130869523
 31
0.0
  0
LINE
  5
401
330
1F
100
AcDbEntity
  8
1
  6
Continuous
 62
     4
100
AcDbLine
 10
200.962903540621
 20
141.8526130869523
 30
0.0
 11
201.462903540621
 21
140.8526130869523
 31
0.0
  0
LINE
  5
402
330
1F
100
AcDbEntity
  8
1
  6
Continuous
 62
     4
100
AcDbLine
 10
200.712903540621
 20
142.8526130869523
 30
0.0
 11
200.962903540621
 21
141.8526130869523
 31
0.0
  0
LINE
  5
403
330
1F
100
AcDbEntity
  8
1
  6
Continuous
 62
     4
100
AcDbLine
 10
200.712903540621
 20
143.8526130869523
 30
0.0
 11
200.712903540621
 21
142.8526130869523
 31
0.0
  0
LINE
  5
404
330
1F
100
AcDbEntity
  8
1
  6
Continuous
 62
     4
100
AcDbLine
 10
200.962903540621
 20
144.8526130869523
 30
0.0
 11
200.712903540621
 21
143.8526130869523
 31
0.0
  0
LINE
  5
405
330
1F
100
AcDbEntity
  8
1
  6
Continuous
 62
     4
100
AcDbLine
 10
201.462903540621
 20
145.8526130869523
 30
0.0
 11
200.962903540621
 21
144.8526130869523
 31
0.0
  0
LINE
  5
406
330
1F
100
AcDbEntity
  8
1
  6
Continuous
 62
     4
100
AcDbLine
 10
197.775403540621
 20
141.4776130869523
 30
0.0
 11
198.650403540621
 21
141.3526130869523
 31
0.0
  0
LINE
  5
407
330
1F
100
AcDbEntity
  8
1
  6
Continuous
 62
     4
100
AcDbLine
 10
197.212903540621
 20
141.7901130869523
 30
0.0
 11
197.775403540621
 21
141.4776130869523
 31
0.0
  0
LINE
  5
408
330
1F
100
AcDbEntity
  8
1
  6
Continuous
 62
     4
100
AcDbLine
 10
196.962903540621
 20
142.2901130869523
 30
0.0
 11
197.212903540621
 21
141.7901130869523
 31
0.0
  0
LINE
  5
409
330
1F
100
AcDbEntity
  8
1
  6
Continuous
 62
     4
100
AcDbLine
 10
197.212903540621
 20
142.7276130869523
 30
0.0
 11
196.962903540621
 21
142.2901130869523
 31
0.0
  0
LINE
  5
40A
330
1F
100
AcDbEntity
  8
1
  6
Continuous
 62
     4
100
AcDbLine
 10
198.087903540621
 20
143.0401130869523
 30
0.0
 11
197.212903540621
 21
142.7276130869523
 31
0.0
  0
LINE
  5
40B
330
1F
100
AcDbEntity
  8
1
  6
Continuous
 62
     4
100
AcDbLine
 10
199.025403540621
 20
142.9151130869523
 30
0.0
 11
198.087903540621
 21
143.0401130869523
 31
0.0
  0
LINE
  5
40C
330
1F
100
AcDbEntity
  8
1
  6
Continuous
 62
     4
100
AcDbLine
 10
198.462903540621
 20
143.9776130869523
 30
0.0
 11
199.025403540621
 21
142.9151130869523
 31
0.0
  0
LINE
  5
40D
330
1F
100
AcDbEntity
  8
1
  6
Continuous
 62
     4
100
AcDbLine
 10
197.525403540621
 20
145.4151130869523
 30
0.0
 11
198.462903540621
 21
143.9776130869523
 31
0.0
  0
LINE
  5
40E
330
1F
100
AcDbEntity
  8
1
  6
Continuous
 62
     4
100
AcDbLine
 10
197.962903540621
 20
144.4776130869523
 30
0.0
 11
198.900403540621
 21
144.9151130869523
 31
0.0
  0
LINE
  5
40F
330
1F
100
AcDbEntity
  8
1
  6
Continuous
 62
     4
100
AcDbLine
 10
196.837903540621
 20
144.1651130869523
 30
0.0
 11
197.962903540621
 21
144.4776130869523
 31
0.0
  0
LINE
  5
410
330
1F
100
AcDbEntity
  8
1
  6
Continuous
 62
     4
100
AcDbLine
 10
191.962903540621
 20
144.9151130869523
 30
0.0
 11
191.962903540621
 21
141.3526130869523
 31
0.0
  0
LINE
  5
411
330
1F
100
AcDbEntity
  8
1
  6
Continuous
 62
     4
100
AcDbLine
 10
193.900403540621
 20
141.4776130869523
 30
0.0
 11
195.025403540621
 21
141.0401130869523
 31
0.0
  0
LINE
  5
412
330
1F
100
AcDbEntity
  8
1
  6
Continuous
 62
     4
100
AcDbLine
 10
193.337903540621
 20
142.1026130869523
 30
0.0
 11
193.900403540621
 21
141.4776130869523
 31
0.0
  0
LINE
  5
413
330
1F
100
AcDbEntity
  8
1
  6
Continuous
 62
     4
100
AcDbLine
 10
192.775403540621
 20
143.0401130869523
 30
0.0
 11
193.337903540621
 21
142.1026130869523
 31
0.0
  0
LINE
  5
414
330
1F
100
AcDbEntity
  8
1
  6
Continuous
 62
     4
100
AcDbLine
 10
191.962903540621
 20
145.7276130869523
 30
0.0
 11
191.962903540621
 21
144.9151130869523
 31
0.0
  0
LINE
  5
415
330
1F
100
AcDbEntity
  8
1
  6
Continuous
 62
     4
100
AcDbLine
 10
194.212903540621
 20
145.7276130869523
 30
0.0
 11
191.962903540621
 21
145.7276130869523
 31
0.0
  0
LINE
  5
416
330
1F
100
AcDbEntity
  8
1
  6
Continuous
 62
     4
100
AcDbLine
 10
194.025403540621
 20
144.9151130869523
 30
0.0
 11
191.962903540621
 21
144.9151130869523
 31
0.0
  0
LINE
  5
417
330
1F
100
AcDbEntity
  8
1
  6
Continuous
 62
     4
100
AcDbLine
 10
191.962903540621
 20
144.1651130869523
 30
0.0
 11
194.025403540621
 21
144.1651130869523
 31
0.0
  0
LINE
  5
418
330
1F
100
AcDbEntity
  8
1
  6
Continuous
 62
     4
100
AcDbLine
 10
195.025403540621
 20
143.3526130869523
 30
0.0
 11
190.837903540621
 21
143.3526130869523
 31
0.0
  0
LINE
  5
419
330
1F
100
AcDbEntity
  8
1
  6
Continuous
 62
     4
100
AcDbLine
 10
193.337903540621
 20
142.2901130869523
 30
0.0
 11
194.337903540621
 21
142.9151130869523
 31
0.0
  0
LINE
  5
41A
330
1F
100
AcDbEntity
  8
1
  6
Continuous
 62
     4
100
AcDbLine
 10
191.150403540621
 20
141.0401130869523
 30
0.0
 11
192.962903540621
 21
141.7901130869523
 31
0.0
  0
LINE
  5
41B
330
1F
100
AcDbEntity
  8
1
  6
Continuous
 62
     4
100
AcDbLine
 10
189.712903540621
 20
145.1026130869523
 30
0.0
 11
190.150403540621
 21
144.6026130869523
 31
0.0
  0
LINE
  5
41C
330
1F
100
AcDbEntity
  8
1
  6
Continuous
 62
     4
100
AcDbLine
 10
189.337903540621
 20
144.7901130869523
 30
0.0
 11
189.712903540621
 21
144.2901130869523
 31
0.0
  0
LINE
  5
41D
330
1F
100
AcDbEntity
  8
1
  6
Continuous
 62
     4
100
AcDbLine
 10
188.775403540621
 20
143.5401130869523
 30
0.0
 11
189.337903540621
 21
142.2901130869523
 31
0.0
  0
LINE
  5
41E
330
1F
100
AcDbEntity
  8
1
  6
Continuous
 62
     4
100
AcDbLine
 10
188.650403540621
 20
144.6026130869523
 30
0.0
 11
188.775403540621
 21
143.5401130869523
 31
0.0
  0
LINE
  5
41F
330
1F
100
AcDbEntity
  8
1
  6
Continuous
 62
     4
100
AcDbLine
 10
188.650403540621
 20
143.6651130869523
 30
0.0
 11
188.650403540621
 21
144.6026130869523
 31
0.0
  0
LINE
  5
420
330
1F
100
AcDbEntity
  8
1
  6
Continuous
 62
     4
100
AcDbLine
 10
188.462903540621
 20
142.7276130869523
 30
0.0
 11
188.650403540621
 21
143.6651130869523
 31
0.0
  0
LINE
  5
421
330
1F
100
AcDbEntity
  8
1
  6
Continuous
 62
     4
100
AcDbLine
 10
188.087903540621
 20
141.7901130869523
 30
0.0
 11
188.462903540621
 21
142.7276130869523
 31
0.0
  0
LINE
  5
422
330
1F
100
AcDbEntity
  8
1
  6
Continuous
 62
     4
100
AcDbLine
 10
187.525403540621
 20
141.3526130869523
 30
0.0
 11
188.087903540621
 21
141.7901130869523
 31
0.0
  0
LINE
  5
423
330
1F
100
AcDbEntity
  8
1
  6
Continuous
 62
     4
100
AcDbLine
 10
186.962903540621
 20
141.1651130869523
 30
0.0
 11
187.525403540621
 21
141.3526130869523
 31
0.0
  0
LINE
  5
424
330
1F
100
AcDbEntity
  8
1
  6
Continuous
 62
     4
100
AcDbLine
 10
186.400403540621
 20
141.3526130869523
 30
0.0
 11
186.962903540621
 21
141.1651130869523
 31
0.0
  0
LINE
  5
425
330
1F
100
AcDbEntity
  8
1
  6
Continuous
 62
     4
100
AcDbLine
 10
186.150403540621
 20
141.7901130869523
 30
0.0
 11
186.400403540621
 21
141.3526130869523
 31
0.0
  0
LINE
  5
426
330
1F
100
AcDbEntity
  8
1
  6
Continuous
 62
     4
100
AcDbLine
 10
186.150403540621
 20
142.4151130869523
 30
0.0
 11
186.150403540621
 21
141.7901130869523
 31
0.0
  0
LINE
  5
427
330
1F
100
AcDbEntity
  8
1
  6
Continuous
 62
     4
100
AcDbLine
 10
186.400403540621
 20
143.2276130869523
 30
0.0
 11
186.150403540621
 21
142.4151130869523
 31
0.0
  0
LINE
  5
428
330
1F
100
AcDbEntity
  8
1
  6
Continuous
 62
     4
100
AcDbLine
 10
186.837903540621
 20
143.8526130869523
 30
0.0
 11
186.400403540621
 21
143.2276130869523
 31
0.0
  0
LINE
  5
429
330
1F
100
AcDbEntity
  8
1
  6
Continuous
 62
     4
100
AcDbLine
 10
187.400403540621
 20
144.4776130869523
 30
0.0
 11
186.837903540621
 21
143.8526130869523
 31
0.0
  0
LINE
  5
42A
330
1F
100
AcDbEntity
  8
1
  6
Continuous
 62
     4
100
AcDbLine
 10
186.837903540621
 20
144.2901130869523
 30
0.0
 11
187.400403540621
 21
144.4776130869523
 31
0.0
  0
LINE
  5
42B
330
1F
100
AcDbEntity
  8
1
  6
Continuous
 62
     4
100
AcDbLine
 10
186.150403540621
 20
144.1651130869523
 30
0.0
 11
186.837903540621
 21
144.2901130869523
 31
0.0
  0
LINE
  5
42C
330
1F
100
AcDbEntity
  8
1
  6
Continuous
 62
     4
100
AcDbLine
 10
183.775403540621
 20
141.0401130869523
 30
0.0
 11
183.212903540621
 21
141.0401130869523
 31
0.0
  0
LINE
  5
42D
330
1F
100
AcDbEntity
  8
1
  6
Continuous
 62
     4
100
AcDbLine
 10
183.775403540621
 20
145.1026130869523
 30
0.0
 11
183.775403540621
 21
141.0401130869523
 31
0.0
  0
LINE
  5
42E
330
1F
100
AcDbEntity
  8
1
  6
Continuous
 62
     4
100
AcDbLine
 10
182.650403540621
 20
144.6026130869523
 30
0.0
 11
183.087903540621
 21
143.6651130869523
 31
0.0
  0
LINE
  5
42F
330
1F
100
AcDbEntity
  8
1
  6
Continuous
 62
     4
100
AcDbLine
 10
183.462903540621
 20
145.4151130869523
 30
0.0
 11
182.775403540621
 21
145.2276130869523
 31
0.0
  0
LINE
  5
430
330
1F
100
AcDbEntity
  8
1
  6
Continuous
 62
     4
100
AcDbLine
 10
184.462903540621
 20
145.7276130869523
 30
0.0
 11
183.462903540621
 21
145.4151130869523
 31
0.0
  0
LINE
  5
431
330
1F
100
AcDbEntity
  8
1
  6
Continuous
 62
     4
100
AcDbLine
 10
184.337903540621
 20
143.6651130869523
 30
0.0
 11
184.712903540621
 21
144.6026130869523
 31
0.0
  0
LINE
  5
432
330
1F
100
AcDbEntity
  8
1
  6
Continuous
 62
     4
100
AcDbLine
 10
182.400403540621
 20
143.0401130869523
 30
0.0
 11
185.150403540621
 21
143.0401130869523
 31
0.0
  0
LINE
  5
433
330
1F
100
AcDbEntity
  8
1
  6
Continuous
 62
     4
100
AcDbLine
 10
180.962903540621
 20
145.1026130869523
 30
0.0
 11
180.962903540621
 21
142.4151130869523
 31
0.0
  0
LINE
  5
434
330
1F
100
AcDbEntity
  8
1
  6
Continuous
 62
     4
100
AcDbLine
 10
181.962903540621
 20
145.1026130869523
 30
0.0
 11
180.962903540621
 21
145.1026130869523
 31
0.0
  0
LINE
  5
435
330
1F
100
AcDbEntity
  8
1
  6
Continuous
 62
     4
100
AcDbLine
 10
181.962903540621
 20
142.4151130869523
 30
0.0
 11
181.962903540621
 21
145.1026130869523
 31
0.0
  0
LINE
  5
436
330
1F
100
AcDbEntity
  8
1
  6
Continuous
 62
     4
100
AcDbLine
 10
180.962903540621
 20
142.4151130869523
 30
0.0
 11
181.962903540621
 21
142.4151130869523
 31
0.0
  0
LINE
  5
437
330
1F
100
AcDbEntity
  8
1
  6
Continuous
 62
     4
100
AcDbLine
 10
215.962903540621
 20
160.6376130869523
 30
0.0
 11
215.962903540621
 21
159.3876130869523
 31
0.0
  0
LINE
  5
438
330
1F
100
AcDbEntity
  8
1
  6
Continuous
 62
     4
100
AcDbLine
 10
215.837903540621
 20
161.3876130869523
 30
0.0
 11
215.962903540621
 21
160.6376130869523
 31
0.0
  0
LINE
  5
439
330
1F
100
AcDbEntity
  8
1
  6
Continuous
 62
     4
100
AcDbLine
 10
215.587903540621
 20
161.8876130869523
 30
0.0
 11
215.837903540621
 21
161.3876130869523
 31
0.0
  0
LINE
  5
43A
330
1F
100
AcDbEntity
  8
1
  6
Continuous
 62
     4
100
AcDbLine
 10
215.337903540621
 20
162.1376130869523
 30
0.0
 11
215.587903540621
 21
161.8876130869523
 31
0.0
  0
LINE
  5
43B
330
1F
100
AcDbEntity
  8
1
  6
Continuous
 62
     4
100
AcDbLine
 10
214.962903540621
 20
162.3876130869523
 30
0.0
 11
215.337903540621
 21
162.1376130869523
 31
0.0
  0
LINE
  5
43C
330
1F
100
AcDbEntity
  8
1
  6
Continuous
 62
     4
100
AcDbLine
 10
214.587903540621
 20
162.5126130869523
 30
0.0
 11
214.962903540621
 21
162.3876130869523
 31
0.0
  0
LINE
  5
43D
330
1F
100
AcDbEntity
  8
1
  6
Continuous
 62
     4
100
AcDbLine
 10
214.337903540621
 20
162.5126130869523
 30
0.0
 11
214.587903540621
 21
162.5126130869523
 31
0.0
  0
LINE
  5
43E
330
1F
100
AcDbEntity
  8
1
  6
Continuous
 62
     4
100
AcDbLine
 10
213.962903540621
 20
162.3876130869523
 30
0.0
 11
214.337903540621
 21
162.5126130869523
 31
0.0
  0
LINE
  5
43F
330
1F
100
AcDbEntity
  8
1
  6
Continuous
 62
     4
100
AcDbLine
 10
213.587903540621
 20
162.1376130869523
 30
0.0
 11
213.962903540621
 21
162.3876130869523
 31
0.0
  0
LINE
  5
440
330
1F
100
AcDbEntity
  8
1
  6
Continuous
 62
     4
100
AcDbLine
 10
213.337903540621
 20
161.8876130869523
 30
0.0
 11
213.587903540621
 21
162.1376130869523
 31
0.0
  0
LINE
  5
441
330
1F
100
AcDbEntity
  8
1
  6
Continuous
 62
     4
100
AcDbLine
 10
213.087903540621
 20
161.3876130869523
 30
0.0
 11
213.337903540621
 21
161.8876130869523
 31
0.0
  0
LINE
  5
442
330
1F
100
AcDbEntity
  8
1
  6
Continuous
 62
     4
100
AcDbLine
 10
212.962903540621
 20
160.6376130869523
 30
0.0
 11
213.087903540621
 21
161.3876130869523
 31
0.0
  0
LINE
  5
443
330
1F
100
AcDbEntity
  8
1
  6
Continuous
 62
     4
100
AcDbLine
 10
212.962903540621
 20
159.3876130869523
 30
0.0
 11
212.962903540621
 21
160.6376130869523
 31
0.0
  0
LINE
  5
444
330
1F
100
AcDbEntity
  8
1
  6
Continuous
 62
     4
100
AcDbLine
 10
213.087903540621
 20
158.6376130869523
 30
0.0
 11
212.962903540621
 21
159.3876130869523
 31
0.0
  0
LINE
  5
445
330
1F
100
AcDbEntity
  8
1
  6
Continuous
 62
     4
100
AcDbLine
 10
213.337903540621
 20
158.1376130869523
 30
0.0
 11
213.087903540621
 21
158.6376130869523
 31
0.0
  0
LINE
  5
446
330
1F
100
AcDbEntity
  8
1
  6
Continuous
 62
     4
100
AcDbLine
 10
213.587903540621
 20
157.8876130869523
 30
0.0
 11
213.337903540621
 21
158.1376130869523
 31
0.0
  0
LINE
  5
447
330
1F
100
AcDbEntity
  8
1
  6
Continuous
 62
     4
100
AcDbLine
 10
213.962903540621
 20
157.6376130869523
 30
0.0
 11
213.587903540621
 21
157.8876130869523
 31
0.0
  0
LINE
  5
448
330
1F
100
AcDbEntity
  8
1
  6
Continuous
 62
     4
100
AcDbLine
 10
214.337903540621
 20
157.5126130869523
 30
0.0
 11
213.962903540621
 21
157.6376130869523
 31
0.0
  0
LINE
  5
449
330
1F
100
AcDbEntity
  8
1
  6
Continuous
 62
     4
100
AcDbLine
 10
214.587903540621
 20
157.5126130869523
 30
0.0
 11
214.337903540621
 21
157.5126130869523
 31
0.0
  0
LINE
  5
44A
330
1F
100
AcDbEntity
  8
1
  6
Continuous
 62
     4
100
AcDbLine
 10
214.962903540621
 20
157.6376130869523
 30
0.0
 11
214.587903540621
 21
157.5126130869523
 31
0.0
  0
LINE
  5
44B
330
1F
100
AcDbEntity
  8
1
  6
Continuous
 62
     4
100
AcDbLine
 10
215.337903540621
 20
157.8876130869523
 30
0.0
 11
214.962903540621
 21
157.6376130869523
 31
0.0
  0
LINE
  5
44C
330
1F
100
AcDbEntity
  8
1
  6
Continuous
 62
     4
100
AcDbLine
 10
215.587903540621
 20
158.1376130869523
 30
0.0
 11
215.337903540621
 21
157.8876130869523
 31
0.0
  0
LINE
  5
44D
330
1F
100
AcDbEntity
  8
1
  6
Continuous
 62
     4
100
AcDbLine
 10
215.837903540621
 20
158.6376130869523
 30
0.0
 11
215.587903540621
 21
158.1376130869523
 31
0.0
  0
LINE
  5
44E
330
1F
100
AcDbEntity
  8
1
  6
Continuous
 62
     4
100
AcDbLine
 10
215.962903540621
 20
159.3876130869523
 30
0.0
 11
215.837903540621
 21
158.6376130869523
 31
0.0
  0
LINE
  5
44F
330
1F
100
AcDbEntity
  8
1
  6
Continuous
 62
     4
100
AcDbLine
 10
208.462903540621
 20
157.5126130869523
 30
0.0
 11
211.462903540621
 21
157.5126130869523
 31
0.0
  0
LINE
  5
450
330
1F
100
AcDbEntity
  8
1
  6
Continuous
 62
     4
100
AcDbLine
 10
211.212903540621
 20
160.7626130869523
 30
0.0
 11
208.462903540621
 21
157.5126130869523
 31
0.0
  0
LINE
  5
451
330
1F
100
AcDbEntity
  8
1
  6
Continuous
 62
     4
100
AcDbLine
 10
211.462903540621
 20
161.2626130869523
 30
0.0
 11
211.212903540621
 21
160.7626130869523
 31
0.0
  0
LINE
  5
452
330
1F
100
AcDbEntity
  8
1
  6
Continuous
 62
     4
100
AcDbLine
 10
211.462903540621
 20
161.7626130869523
 30
0.0
 11
211.462903540621
 21
161.2626130869523
 31
0.0
  0
LINE
  5
453
330
1F
100
AcDbEntity
  8
1
  6
Continuous
 62
     4
100
AcDbLine
 10
211.212903540621
 20
162.1376130869523
 30
0.0
 11
211.462903540621
 21
161.7626130869523
 31
0.0
  0
LINE
  5
454
330
1F
100
AcDbEntity
  8
1
  6
Continuous
 62
     4
100
AcDbLine
 10
210.837903540621
 20
162.3876130869523
 30
0.0
 11
211.212903540621
 21
162.1376130869523
 31
0.0
  0
LINE
  5
455
330
1F
100
AcDbEntity
  8
1
  6
Continuous
 62
     4
100
AcDbLine
 10
210.337903540621
 20
162.5126130869523
 30
0.0
 11
210.837903540621
 21
162.3876130869523
 31
0.0
  0
LINE
  5
456
330
1F
100
AcDbEntity
  8
1
  6
Continuous
 62
     4
100
AcDbLine
 10
209.587903540621
 20
162.5126130869523
 30
0.0
 11
210.337903540621
 21
162.5126130869523
 31
0.0
  0
LINE
  5
457
330
1F
100
AcDbEntity
  8
1
  6
Continuous
 62
     4
100
AcDbLine
 10
209.087903540621
 20
162.3876130869523
 30
0.0
 11
209.587903540621
 21
162.5126130869523
 31
0.0
  0
LINE
  5
458
330
1F
100
AcDbEntity
  8
1
  6
Continuous
 62
     4
100
AcDbLine
 10
208.712903540621
 20
162.1376130869523
 30
0.0
 11
209.087903540621
 21
162.3876130869523
 31
0.0
  0
LINE
  5
459
330
1F
100
AcDbEntity
  8
1
  6
Continuous
 62
     4
100
AcDbLine
 10
208.462903540621
 20
161.7626130869523
 30
0.0
 11
208.712903540621
 21
162.1376130869523
 31
0.0
  0
LINE
  5
45A
330
1F
100
AcDbEntity
  8
1
  6
Continuous
 62
     4
100
AcDbLine
 10
204.462903540621
 20
159.2626130869523
 30
0.0
 11
206.962903540621
 21
159.2626130869523
 31
0.0
  0
LINE
  5
45B
330
1F
100
AcDbEntity
  8
1
  6
Continuous
 62
     4
100
AcDbLine
 10
199.712903540621
 20
157.8876130869523
 30
0.0
 11
199.462903540621
 21
158.1376130869523
 31
0.0
  0
LINE
  5
45C
330
1F
100
AcDbEntity
  8
1
  6
Continuous
 62
     4
100
AcDbLine
 10
200.212903540621
 20
157.6376130869523
 30
0.0
 11
199.712903540621
 21
157.8876130869523
 31
0.0
  0
LINE
  5
45D
330
1F
100
AcDbEntity
  8
1
  6
Continuous
 62
     4
100
AcDbLine
 10
200.837903540621
 20
157.5126130869523
 30
0.0
 11
200.212903540621
 21
157.6376130869523
 31
0.0
  0
LINE
  5
45E
330
1F
100
AcDbEntity
  8
1
  6
Continuous
 62
     4
100
AcDbLine
 10
201.587903540621
 20
157.5126130869523
 30
0.0
 11
200.837903540621
 21
157.5126130869523
 31
0.0
  0
LINE
  5
45F
330
1F
100
AcDbEntity
  8
1
  6
Continuous
 62
     4
100
AcDbLine
 10
202.212903540621
 20
157.6376130869523
 30
0.0
 11
201.587903540621
 21
157.5126130869523
 31
0.0
  0
LINE
  5
460
330
1F
100
AcDbEntity
  8
1
  6
Continuous
 62
     4
100
AcDbLine
 10
202.587903540621
 20
157.8876130869523
 30
0.0
 11
202.212903540621
 21
157.6376130869523
 31
0.0
  0
LINE
  5
461
330
1F
100
AcDbEntity
  8
1
  6
Continuous
 62
     4
100
AcDbLine
 10
202.837903540621
 20
158.2626130869523
 30
0.0
 11
202.587903540621
 21
157.8876130869523
 31
0.0
  0
LINE
  5
462
330
1F
100
AcDbEntity
  8
1
  6
Continuous
 62
     4
100
AcDbLine
 10
202.962903540621
 20
158.6376130869523
 30
0.0
 11
202.837903540621
 21
158.2626130869523
 31
0.0
  0
LINE
  5
463
330
1F
100
AcDbEntity
  8
1
  6
Continuous
 62
     4
100
AcDbLine
 10
202.962903540621
 20
158.8876130869523
 30
0.0
 11
202.962903540621
 21
158.6376130869523
 31
0.0
  0
LINE
  5
464
330
1F
100
AcDbEntity
  8
1
  6
Continuous
 62
     4
100
AcDbLine
 10
202.837903540621
 20
159.2626130869523
 30
0.0
 11
202.962903540621
 21
158.8876130869523
 31
0.0
  0
LINE
  5
465
330
1F
100
AcDbEntity
  8
1
  6
Continuous
 62
     4
100
AcDbLine
 10
202.587903540621
 20
159.6376130869523
 30
0.0
 11
202.837903540621
 21
159.2626130869523
 31
0.0
  0
LINE
  5
466
330
1F
100
AcDbEntity
  8
1
  6
Continuous
 62
     4
100
AcDbLine
 10
202.212903540621
 20
159.8876130869523
 30
0.0
 11
202.587903540621
 21
159.6376130869523
 31
0.0
  0
LINE
  5
467
330
1F
100
AcDbEntity
  8
1
  6
Continuous
 62
     4
100
AcDbLine
 10
200.087903540621
 20
160.7626130869523
 30
0.0
 11
202.212903540621
 21
159.8876130869523
 31
0.0
  0
LINE
  5
468
330
1F
100
AcDbEntity
  8
1
  6
Continuous
 62
     4
100
AcDbLine
 10
199.712903540621
 20
161.0126130869523
 30
0.0
 11
200.087903540621
 21
160.7626130869523
 31
0.0
  0
LINE
  5
469
330
1F
100
AcDbEntity
  8
1
  6
Continuous
 62
     4
100
AcDbLine
 10
199.587903540621
 20
161.3876130869523
 30
0.0
 11
199.712903540621
 21
161.0126130869523
 31
0.0
  0
LINE
  5
46A
330
1F
100
AcDbEntity
  8
1
  6
Continuous
 62
     4
100
AcDbLine
 10
199.587903540621
 20
161.6376130869523
 30
0.0
 11
199.587903540621
 21
161.3876130869523
 31
0.0
  0
LINE
  5
46B
330
1F
100
AcDbEntity
  8
1
  6
Continuous
 62
     4
100
AcDbLine
 10
199.712903540621
 20
162.0126130869523
 30
0.0
 11
199.587903540621
 21
161.6376130869523
 31
0.0
  0
LINE
  5
46C
330
1F
100
AcDbEntity
  8
1
  6
Continuous
 62
     4
100
AcDbLine
 10
200.087903540621
 20
162.2626130869523
 30
0.0
 11
199.712903540621
 21
162.0126130869523
 31
0.0
  0
LINE
  5
46D
330
1F
100
AcDbEntity
  8
1
  6
Continuous
 62
     4
100
AcDbLine
 10
200.462903540621
 20
162.3876130869523
 30
0.0
 11
200.087903540621
 21
162.2626130869523
 31
0.0
  0
LINE
  5
46E
330
1F
100
AcDbEntity
  8
1
  6
Continuous
 62
     4
100
AcDbLine
 10
200.962903540621
 20
162.5126130869523
 30
0.0
 11
200.462903540621
 21
162.3876130869523
 31
0.0
  0
LINE
  5
46F
330
1F
100
AcDbEntity
  8
1
  6
Continuous
 62
     4
100
AcDbLine
 10
201.462903540621
 20
162.5126130869523
 30
0.0
 11
200.962903540621
 21
162.5126130869523
 31
0.0
  0
LINE
  5
470
330
1F
100
AcDbEntity
  8
1
  6
Continuous
 62
     4
100
AcDbLine
 10
202.087903540621
 20
162.3876130869523
 30
0.0
 11
201.462903540621
 21
162.5126130869523
 31
0.0
  0
LINE
  5
471
330
1F
100
AcDbEntity
  8
1
  6
Continuous
 62
     4
100
AcDbLine
 10
202.462903540621
 20
162.2626130869523
 30
0.0
 11
202.087903540621
 21
162.3876130869523
 31
0.0
  0
LINE
  5
472
330
1F
100
AcDbEntity
  8
1
  6
Continuous
 62
     4
100
AcDbLine
 10
202.837903540621
 20
162.0126130869523
 30
0.0
 11
202.462903540621
 21
162.2626130869523
 31
0.0
  0
LINE
  5
473
330
1F
100
AcDbEntity
  8
1
  6
Continuous
 62
     4
100
AcDbLine
 10
197.837903540621
 20
161.5126130869523
 30
0.0
 11
197.962903540621
 21
161.0126130869523
 31
0.0
  0
LINE
  5
474
330
1F
100
AcDbEntity
  8
1
  6
Continuous
 62
     4
100
AcDbLine
 10
197.587903540621
 20
161.8876130869523
 30
0.0
 11
197.837903540621
 21
161.5126130869523
 31
0.0
  0
LINE
  5
475
330
1F
100
AcDbEntity
  8
1
  6
Continuous
 62
     4
100
AcDbLine
 10
197.337903540621
 20
162.1376130869523
 30
0.0
 11
197.587903540621
 21
161.8876130869523
 31
0.0
  0
LINE
  5
476
330
1F
100
AcDbEntity
  8
1
  6
Continuous
 62
     4
100
AcDbLine
 10
196.962903540621
 20
162.3876130869523
 30
0.0
 11
197.337903540621
 21
162.1376130869523
 31
0.0
  0
LINE
  5
477
330
1F
100
AcDbEntity
  8
1
  6
Continuous
 62
     4
100
AcDbLine
 10
196.462903540621
 20
162.5126130869523
 30
0.0
 11
196.962903540621
 21
162.3876130869523
 31
0.0
  0
LINE
  5
478
330
1F
100
AcDbEntity
  8
1
  6
Continuous
 62
     4
100
AcDbLine
 10
194.462903540621
 20
162.5126130869523
 30
0.0
 11
196.462903540621
 21
162.5126130869523
 31
0.0
  0
LINE
  5
479
330
1F
100
AcDbEntity
  8
1
  6
Continuous
 62
     4
100
AcDbLine
 10
194.462903540621
 20
157.5126130869523
 30
0.0
 11
194.462903540621
 21
162.5126130869523
 31
0.0
  0
LINE
  5
47A
330
1F
100
AcDbEntity
  8
1
  6
Continuous
 62
     4
100
AcDbLine
 10
196.462903540621
 20
157.5126130869523
 30
0.0
 11
194.462903540621
 21
157.5126130869523
 31
0.0
  0
LINE
  5
47B
330
1F
100
AcDbEntity
  8
1
  6
Continuous
 62
     4
100
AcDbLine
 10
196.962903540621
 20
157.6376130869523
 30
0.0
 11
196.462903540621
 21
157.5126130869523
 31
0.0
  0
LINE
  5
47C
330
1F
100
AcDbEntity
  8
1
  6
Continuous
 62
     4
100
AcDbLine
 10
197.337903540621
 20
157.8876130869523
 30
0.0
 11
196.962903540621
 21
157.6376130869523
 31
0.0
  0
LINE
  5
47D
330
1F
100
AcDbEntity
  8
1
  6
Continuous
 62
     4
100
AcDbLine
 10
197.587903540621
 20
158.1376130869523
 30
0.0
 11
197.337903540621
 21
157.8876130869523
 31
0.0
  0
LINE
  5
47E
330
1F
100
AcDbEntity
  8
1
  6
Continuous
 62
     4
100
AcDbLine
 10
197.837903540621
 20
158.5126130869523
 30
0.0
 11
197.587903540621
 21
158.1376130869523
 31
0.0
  0
LINE
  5
47F
330
1F
100
AcDbEntity
  8
1
  6
Continuous
 62
     4
100
AcDbLine
 10
197.962903540621
 20
159.0126130869523
 30
0.0
 11
197.837903540621
 21
158.5126130869523
 31
0.0
  0
LINE
  5
480
330
1F
100
AcDbEntity
  8
1
  6
Continuous
 62
     4
100
AcDbLine
 10
197.962903540621
 20
161.0126130869523
 30
0.0
 11
197.962903540621
 21
159.0126130869523
 31
0.0
  0
LINE
  5
481
330
1F
100
AcDbEntity
  8
1
  6
Continuous
 62
     4
100
AcDbLine
 10
190.462903540621
 20
159.2626130869523
 30
0.0
 11
192.962903540621
 21
159.2626130869523
 31
0.0
  0
LINE
  5
482
330
1F
100
AcDbEntity
  8
1
  6
Continuous
 62
     4
100
AcDbLine
 10
185.462903540621
 20
160.2626130869523
 30
0.0
 11
185.462903540621
 21
160.0126130869523
 31
0.0
  0
LINE
  5
483
330
1F
100
AcDbEntity
  8
1
  6
Continuous
 62
     4
100
AcDbLine
 10
188.962903540621
 20
160.2626130869523
 30
0.0
 11
188.962903540621
 21
157.5126130869523
 31
0.0
  0
LINE
  5
484
330
1F
100
AcDbEntity
  8
1
  6
Continuous
 62
     4
100
AcDbLine
 10
185.462903540621
 20
160.0126130869523
 30
0.0
 11
185.462903540621
 21
157.5126130869523
 31
0.0
  0
LINE
  5
485
330
1F
100
AcDbEntity
  8
1
  6
Continuous
 62
     4
100
AcDbLine
 10
185.462903540621
 20
162.5126130869523
 30
0.0
 11
185.462903540621
 21
160.2626130869523
 31
0.0
  0
LINE
  5
486
330
1F
100
AcDbEntity
  8
1
  6
Continuous
 62
     4
100
AcDbLine
 10
185.462903540621
 20
160.2626130869523
 30
0.0
 11
188.962903540621
 21
160.2626130869523
 31
0.0
  0
LINE
  5
487
330
1F
100
AcDbEntity
  8
1
  6
Continuous
 62
     4
100
AcDbLine
 10
188.962903540621
 20
162.5126130869523
 30
0.0
 11
188.962903540621
 21
160.2626130869523
 31
0.0
  0
LINE
  5
488
330
1F
100
AcDbEntity
  8
1
  6
Continuous
 62
     4
100
AcDbLine
 10
180.712903540621
 20
160.2626130869523
 30
0.0
 11
180.712903540621
 21
162.5126130869523
 31
0.0
  0
LINE
  5
489
330
1F
100
AcDbEntity
  8
1
  6
Continuous
 62
     4
100
AcDbLine
 10
183.087903540621
 20
160.3876130869523
 30
0.0
 11
182.712903540621
 21
160.2626130869523
 31
0.0
  0
LINE
  5
48A
330
1F
100
AcDbEntity
  8
1
  6
Continuous
 62
     4
100
AcDbLine
 10
183.462903540621
 20
160.6376130869523
 30
0.0
 11
183.087903540621
 21
160.3876130869523
 31
0.0
  0
LINE
  5
48B
330
1F
100
AcDbEntity
  8
1
  6
Continuous
 62
     4
100
AcDbLine
 10
183.712903540621
 20
161.1376130869523
 30
0.0
 11
183.462903540621
 21
160.6376130869523
 31
0.0
  0
LINE
  5
48C
330
1F
100
AcDbEntity
  8
1
  6
Continuous
 62
     4
100
AcDbLine
 10
183.712903540621
 20
161.5126130869523
 30
0.0
 11
183.712903540621
 21
161.1376130869523
 31
0.0
  0
LINE
  5
48D
330
1F
100
AcDbEntity
  8
1
  6
Continuous
 62
     4
100
AcDbLine
 10
183.587903540621
 20
162.0126130869523
 30
0.0
 11
183.712903540621
 21
161.5126130869523
 31
0.0
  0
LINE
  5
48E
330
1F
100
AcDbEntity
  8
1
  6
Continuous
 62
     4
100
AcDbLine
 10
183.212903540621
 20
162.3876130869523
 30
0.0
 11
183.587903540621
 21
162.0126130869523
 31
0.0
  0
LINE
  5
48F
330
1F
100
AcDbEntity
  8
1
  6
Continuous
 62
     4
100
AcDbLine
 10
182.587903540621
 20
162.5126130869523
 30
0.0
 11
183.212903540621
 21
162.3876130869523
 31
0.0
  0
LINE
  5
490
330
1F
100
AcDbEntity
  8
1
  6
Continuous
 62
     4
100
AcDbLine
 10
180.712903540621
 20
162.5126130869523
 30
0.0
 11
182.587903540621
 21
162.5126130869523
 31
0.0
  0
LINE
  5
491
330
1F
100
AcDbEntity
  8
1
  6
Continuous
 62
     4
100
AcDbLine
 10
180.712903540621
 20
157.5126130869523
 30
0.0
 11
180.712903540621
 21
160.2626130869523
 31
0.0
  0
LINE
  5
492
330
1F
100
AcDbEntity
  8
1
  6
Continuous
 62
     4
100
AcDbLine
 10
182.962903540621
 20
157.5126130869523
 30
0.0
 11
180.712903540621
 21
157.5126130869523
 31
0.0
  0
LINE
  5
493
330
1F
100
AcDbEntity
  8
1
  6
Continuous
 62
     4
100
AcDbLine
 10
183.462903540621
 20
157.7626130869523
 30
0.0
 11
182.962903540621
 21
157.5126130869523
 31
0.0
  0
LINE
  5
494
330
1F
100
AcDbEntity
  8
1
  6
Continuous
 62
     4
100
AcDbLine
 10
183.712903540621
 20
158.0126130869523
 30
0.0
 11
183.462903540621
 21
157.7626130869523
 31
0.0
  0
LINE
  5
495
330
1F
100
AcDbEntity
  8
1
  6
Continuous
 62
     4
100
AcDbLine
 10
183.962903540621
 20
158.5126130869523
 30
0.0
 11
183.712903540621
 21
158.0126130869523
 31
0.0
  0
LINE
  5
496
330
1F
100
AcDbEntity
  8
1
  6
Continuous
 62
     4
100
AcDbLine
 10
183.962903540621
 20
159.1376130869523
 30
0.0
 11
183.962903540621
 21
158.5126130869523
 31
0.0
  0
LINE
  5
497
330
1F
100
AcDbEntity
  8
1
  6
Continuous
 62
     4
100
AcDbLine
 10
183.712903540621
 20
159.7626130869523
 30
0.0
 11
183.962903540621
 21
159.1376130869523
 31
0.0
  0
LINE
  5
498
330
1F
100
AcDbEntity
  8
1
  6
Continuous
 62
     4
100
AcDbLine
 10
183.462903540621
 20
160.0126130869523
 30
0.0
 11
183.712903540621
 21
159.7626130869523
 31
0.0
  0
LINE
  5
499
330
1F
100
AcDbEntity
  8
1
  6
Continuous
 62
     4
100
AcDbLine
 10
182.962903540621
 20
160.2626130869523
 30
0.0
 11
183.462903540621
 21
160.0126130869523
 31
0.0
  0
LINE
  5
49A
330
1F
100
AcDbEntity
  8
1
  6
Continuous
 62
     4
100
AcDbLine
 10
182.712903540621
 20
160.2626130869523
 30
0.0
 11
182.962903540621
 21
160.2626130869523
 31
0.0
  0
LINE
  5
49B
330
1F
100
AcDbEntity
  8
1
  6
Continuous
 62
     4
100
AcDbLine
 10
180.712903540621
 20
160.2626130869523
 30
0.0
 11
182.712903540621
 21
160.2626130869523
 31
0.0
  0
LINE
  5
531
330
1F
100
AcDbEntity
  8
2
  6
Continuous
 62
     2
100
AcDbLine
 10
13.5
 20
300.0
 30
0.0
 11
56.0
 21
300.0
 31
0.0
  0
LINE
  5
532
330
1F
100
AcDbEntity
  8
2
  6
Continuous
 62
     2
100
AcDbLine
 10
1.0
 20
0.0
 30
0.0
 11
56.0
 21
0.0
 31
0.0
  0
LINE
  5
533
330
1F
100
AcDbEntity
  8
2
  6
Continuous
 62
     2
100
AcDbLine
 10
55.0
 20
300.0
 30
0.0
 11
55.0
 21
190.5
 31
0.0
  0
LINE
  5
534
330
1F
100
AcDbEntity
  8
2
  6
Continuous
 62
     2
100
AcDbLine
 10
55.0
 20
0.0
 30
0.0
 11
55.0
 21
190.5
 31
0.0
  0
LINE
  5
535
330
1F
100
AcDbEntity
  8
1
  6
Continuous
 62
     4
100
AcDbLine
 10
-86.4699935913086
 20
-13.0999994277954
 30
0.0
 11
-88.9662613443474
 21
-14.9479221081744
 31
0.0
  0
LINE
  5
536
330
1F
100
AcDbEntity
  8
1
  6
Continuous
 62
     4
100
AcDbLine
 10
-86.4699935913086
 20
-13.0999994277954
 30
0.0
 11
-87.7078635398986
 21
-15.9484812897524
 31
0.0
  0
LINE
  5
537
330
1F
100
AcDbEntity
  8
1
  6
Continuous
 62
     4
100
AcDbLine
 10
13.1
 20
-83.5256124752824
 30
0.0
 11
14.4026568601204
 21
-86.3450549790944
 31
0.0
  0
LINE
  5
538
330
1F
100
AcDbEntity
  8
1
  6
Continuous
 62
     4
100
AcDbLine
 10
13.1
 20
-83.5256124752824
 30
0.0
 11
15.6378551851844
 21
-85.315992878033
 31
0.0
  0
LINE
  5
539
330
1F
100
AcDbEntity
  8
100
  6
Continuous
 62
     3
100
AcDbLine
 10
-4.39999999999998
 20
280.0
 30
0.0
 11
-4.39999999999998
 21
262.0
 31
0.0
  0
LINE
  5
53A
330
1F
100
AcDbEntity
  8
100
  6
Continuous
 62
     3
100
AcDbLine
 10
-17.0
 20
228.5
 30
0.0
 11
-17.0
 21
232.0
 31
0.0
  0
LINE
  5
53B
330
1F
100
AcDbEntity
  8
100
  6
Continuous
 62
     3
100
AcDbLine
 10
17.0
 20
228.5
 30
0.0
 11
17.0
 21
232.0
 31
0.0
  0
LINE
  5
53C
330
1F
100
AcDbEntity
  8
100
  6
Continuous
 62
     3
100
AcDbLine
 10
-17.0
 20
232.0
 30
0.0
 11
17.0
 21
232.0
 31
0.0
  0
LINE
  5
53D
330
1F
100
AcDbEntity
  8
100
  6
Continuous
 62
     3
100
AcDbLine
 10
-9.0
 20
262.0
 30
0.0
 11
-9.0
 21
255.400073201234
 31
0.0
  0
LINE
  5
53E
330
1F
100
AcDbEntity
  8
100
  6
Continuous
 62
     3
100
AcDbLine
 10
9.0
 20
262.0
 30
0.0
 11
-9.0
 21
262.0
 31
0.0
  0
LINE
  5
53F
330
1F
100
AcDbEntity
  8
100
  6
Continuous
 62
     3
100
AcDbLine
 10
9.0
 20
262.0
 30
0.0
 11
9.0
 21
255.400073201234
 31
0.0
  0
LINE
  5
540
330
1F
100
AcDbEntity
  8
100
  6
Continuous
 62
     3
100
AcDbLine
 10
15.5884572681199
 20
232.0
 30
0.0
 11
15.5884572681199
 21
246.0
 31
0.0
  0
LINE
  5
541
330
1F
100
AcDbEntity
  8
100
  6
Continuous
 62
     3
100
AcDbLine
 10
-15.5884572681199
 20
232.0
 30
0.0
 11
-15.5884572681199
 21
246.0
 31
0.0
  0
LINE
  5
542
330
1F
100
AcDbEntity
  8
100
  6
Continuous
 62
     3
100
AcDbLine
 10
-17.5
 20
228.5
 30
0.0
 11
17.5
 21
228.5
 31
0.0
  0
LINE
  5
543
330
1F
100
AcDbEntity
  8
100
  6
Continuous
 62
     3
100
AcDbLine
 10
-26.0785819226449
 20
372.1245
 30
0.0
 11
-28.5
 21
372.1245
 31
0.0
  0
LINE
  5
544
330
1F
100
AcDbEntity
  8
100
  6
Continuous
 62
     3
100
AcDbLine
 10
-26.0785819226449
 20
338.8755
 30
0.0
 11
-28.5
 21
338.8755
 31
0.0
  0
LINE
  5
545
330
1F
100
AcDbEntity
  8
100
  6
Continuous
 62
     3
100
AcDbLine
 10
-28.0525588832576
 20
280.0
 30
0.0
 11
28.0525588832576
 21
280.0
 31
0.0
  0
LINE
  5
546
330
1F
100
AcDbEntity
  8
2
  6
CENTER
 62
     6
100
AcDbLine
 10
-28.0525588832576
 20
273.449797977851
 30
0.0
 11
28.0525588832576
 21
273.449797977851
 31
0.0
  0
LINE
  5
547
330
1F
100
AcDbEntity
  8
100
  6
Continuous
 62
     3
100
AcDbLine
 10
12.5
 20
300.0
 30
0.0
 11
-12.5
 21
300.0
 31
0.0
  0
LINE
  5
548
330
1F
100
AcDbEntity
  8
100
  6
Continuous
 62
     3
100
AcDbLine
 10
28.0525588832576
 20
290.924100393325
 30
0.0
 11
28.0525588832576
 21
280.0
 31
0.0
  0
LINE
  5
549
330
1F
100
AcDbEntity
  8
100
  6
Continuous
 62
     3
100
AcDbLine
 10
13.229992139124
 20
299.891048196256
 30
0.0
 11
23.8045400171553
 21
296.662616064339
 31
0.0
  0
LINE
  5
54A
330
1F
100
AcDbEntity
  8
100
  6
Continuous
 62
     3
100
AcDbLine
 10
-13.229992139124
 20
299.891048196256
 30
0.0
 11
-23.8045400171553
 21
296.662616064339
 31
0.0
  0
LINE
  5
54B
330
1F
100
AcDbEntity
  8
100
  6
Continuous
 62
     3
100
AcDbLine
 10
-28.0525588832576
 20
290.924100393325
 30
0.0
 11
-28.0525588832576
 21
280.0
 31
0.0
  0
LINE
  5
54C
330
1F
100
AcDbEntity
  8
2
  6
CENTER
 62
     6
100
AcDbLine
 10
-28.0525588832576
 20
284.373898371176
 30
0.0
 11
-28.0525588832576
 21
273.449797977851
 31
0.0
  0
LINE
  5
54D
330
1F
100
AcDbEntity
  8
2
  6
CENTER
 62
     6
100
AcDbLine
 10
-13.229992139124
 20
293.340846174107
 30
0.0
 11
-23.8045400171553
 21
290.11241404219
 31
0.0
  0
LINE
  5
54E
330
1F
100
AcDbEntity
  8
2
  6
CENTER
 62
     6
100
AcDbLine
 10
12.5
 20
293.449797977851
 30
0.0
 11
-12.5
 21
293.449797977851
 31
0.0
  0
LINE
  5
54F
330
1F
100
AcDbEntity
  8
2
  6
CENTER
 62
     6
100
AcDbLine
 10
13.229992139124
 20
293.340846174107
 30
0.0
 11
23.8045400171553
 21
290.11241404219
 31
0.0
  0
LINE
  5
550
330
1F
100
AcDbEntity
  8
2
  6
CENTER
 62
     6
100
AcDbLine
 10
28.0525588832576
 20
284.373898371176
 30
0.0
 11
28.0525588832576
 21
273.449797977851
 31
0.0
  0
LINE
  5
551
330
1F
100
AcDbEntity
  8
2
  6
DOT_CENTER
 62
     1
100
AcDbLine
 10
0.0
 20
389.0
 30
0.0
 11
0.0
 21
322.0
 31
0.0
  0
LINE
  5
552
330
1F
100
AcDbEntity
  8
2
  6
DOT_CENTER
 62
     1
100
AcDbLine
 10
-100.814985429781
 20
355.5
 30
0.0
 11
37.1990540540541
 21
355.5
 31
0.0
  0
LINE
  5
553
330
1F
100
AcDbEntity
  8
2
  6
DOT_CENTER
 62
     1
100
AcDbLine
 10
-101.985212461792
 20
0.0
 30
0.0
 11
-22.3669376719184
 21
0.0
 31
0.0
  0
LINE
  5
554
330
1F
100
AcDbEntity
  8
100
  6
Continuous
 62
     3
100
AcDbLine
 10
-13.75
 20
10.0
 30
0.0
 11
-21.1753431417533
 21
10.0
 31
0.0
  0
LINE
  5
555
330
1F
100
AcDbEntity
  8
100
  6
Continuous
 62
     3
100
AcDbLine
 10
-16.0
 20
12.0
 30
0.0
 11
16.0
 21
12.0
 31
0.0
  0
LINE
  5
556
330
1F
100
AcDbEntity
  8
100
  6
Continuous
 62
     3
100
AcDbLine
 10
-16.0
 20
26.0
 30
0.0
 11
-16.0
 21
12.0
 31
0.0
  0
LINE
  5
557
330
1F
100
AcDbEntity
  8
100
  6
Continuous
 62
     3
100
AcDbLine
 10
0.0
 20
5.0
 30
0.0
 11
13.5
 21
5.0
 31
0.0
  0
LINE
  5
558
330
1F
100
AcDbEntity
  8
100
  6
Continuous
 62
     3
100
AcDbLine
 10
16.0
 20
26.0
 30
0.0
 11
16.0
 21
12.0
 31
0.0
  0
LINE
  5
559
330
1F
100
AcDbEntity
  8
100
  6
Continuous
 62
     3
100
AcDbLine
 10
12.75
 20
12.0
 30
0.0
 11
12.75
 21
5.0
 31
0.0
  0
LINE
  5
55A
330
1F
100
AcDbEntity
  8
100
  6
Continuous
 62
     3
100
AcDbLine
 10
13.5
 20
5.0
 30
0.0
 11
13.5
 21
-13.0
 31
0.0
  0
LINE
  5
55B
330
1F
100
AcDbEntity
  8
100
  6
Continuous
 62
     3
100
AcDbLine
 10
-9.66069504254902
 20
-13.0
 30
0.0
 11
13.5
 21
-13.0
 31
0.0
  0
LINE
  5
55C
330
1F
100
AcDbEntity
  8
100
  6
Continuous
 62
     3
100
AcDbLine
 10
-196.0
 20
26.0
 30
0.0
 11
-196.0
 21
12.7017059221718
 31
0.0
  0
LINE
  5
55D
330
1F
100
AcDbEntity
  8
2
  6
DOT_CENTER
 62
     1
100
AcDbLine
 10
-155.0
 20
0.0
 30
0.0
 11
-205.0
 21
0.0
 31
0.0
  0
LINE
  5
55E
330
1F
100
AcDbEntity
  8
100
  6
Continuous
 62
     3
100
AcDbLine
 10
-164.0
 20
26.0
 30
0.0
 11
-164.0
 21
12.7017059221718
 31
0.0
  0
LINE
  5
55F
330
1F
100
AcDbEntity
  8
100
  6
Continuous
 62
     3
100
AcDbLine
 10
16.6245
 20
-23.0
 30
0.0
 11
16.6245
 21
-26.5
 31
0.0
  0
LINE
  5
560
330
1F
100
AcDbEntity
  8
100
  6
Continuous
 62
     3
100
AcDbLine
 10
-16.6245
 20
-23.0
 30
0.0
 11
-16.6245
 21
-26.5
 31
0.0
  0
LINE
  5
561
330
1F
100
AcDbEntity
  8
100
  6
Continuous
 62
     3
100
AcDbLine
 10
-25.0
 20
-16.6245
 30
0.0
 11
-28.5
 21
-16.6245
 31
0.0
  0
LINE
  5
562
330
1F
100
AcDbEntity
  8
100
  6
Continuous
 62
     3
100
AcDbLine
 10
-25.0
 20
16.6245
 30
0.0
 11
-28.5
 21
16.6245
 31
0.0
  0
LINE
  5
563
330
1F
100
AcDbEntity
  8
100
  6
Continuous
 62
     3
100
AcDbLine
 10
11.0
 20
-19.7526934109429
 30
0.0
 11
16.6245
 21
-23.0
 31
0.0
  0
LINE
  5
564
330
1F
100
AcDbEntity
  8
100
  6
Continuous
 62
     3
100
AcDbLine
 10
-16.6245
 20
-23.0
 30
0.0
 11
-11.0
 21
-19.752693410943
 31
0.0
  0
LINE
  5
565
330
1F
100
AcDbEntity
  8
100
  6
Continuous
 62
     3
100
AcDbLine
 10
-25.0
 20
16.6245
 30
0.0
 11
-21.1753431417533
 21
10.0
 31
0.0
  0
LINE
  5
566
330
1F
100
AcDbEntity
  8
100
  6
Continuous
 62
     3
100
AcDbLine
 10
-25.0
 20
-16.6245
 30
0.0
 11
-23.7734193531066
 21
-14.5
 31
0.0
  0
LINE
  5
567
330
1F
100
AcDbEntity
  8
100
  6
Continuous
 62
     3
100
AcDbLine
 10
-23.7734193531066
 20
-14.5
 30
0.0
 11
-11.0
 21
-14.5
 31
0.0
  0
LINE
  5
568
330
1F
100
AcDbEntity
  8
100
  6
Continuous
 62
     3
100
AcDbLine
 10
11.0
 20
-13.0
 30
0.0
 11
11.0
 21
-19.7526934109429
 31
0.0
  0
LINE
  5
569
330
1F
100
AcDbEntity
  8
100
  6
Continuous
 62
     3
100
AcDbLine
 10
-11.0
 20
-14.5
 30
0.0
 11
-11.0
 21
-19.752693410943
 31
0.0
  0
LINE
  5
56A
330
1F
100
AcDbEntity
  8
100
  6
Continuous
 62
     3
100
AcDbLine
 10
-4.0
 20
-1.5
 30
0.0
 11
-1.0
 21
0.0
 31
0.0
  0
LINE
  5
56B
330
1F
100
AcDbEntity
  8
100
  6
Continuous
 62
     3
100
AcDbLine
 10
-1.0
 20
0.0
 30
0.0
 11
-4.0
 21
1.5
 31
0.0
  0
LINE
  5
56C
330
1F
100
AcDbEntity
  8
100
  6
Continuous
 62
     3
100
AcDbLine
 10
-11.0
 20
-19.752693410943
 30
0.0
 11
11.0
 21
-19.7526934109429
 31
0.0
  0
LINE
  5
56D
330
1F
100
AcDbEntity
  8
100
  6
Continuous
 62
     3
100
AcDbLine
 10
-16.0
 20
26.0
 30
0.0
 11
16.0
 21
26.0
 31
0.0
  0
LINE
  5
56E
330
1F
100
AcDbEntity
  8
100
  6
Continuous
 62
     3
100
AcDbLine
 10
-17.5
 20
203.5
 30
0.0
 11
17.5
 21
203.5
 31
0.0
  0
LINE
  5
56F
330
1F
100
AcDbEntity
  8
100
  6
Continuous
 62
     3
100
AcDbLine
 10
-17.5
 20
203.5
 30
0.0
 11
-17.5
 21
228.5
 31
0.0
  0
LINE
  5
570
330
1F
100
AcDbEntity
  8
100
  6
Continuous
 62
     3
100
AcDbLine
 10
17.5
 20
203.5
 30
0.0
 11
17.5
 21
228.5
 31
0.0
  0
LINE
  5
571
330
1F
100
AcDbEntity
  8
100
  6
Continuous
 62
     3
100
AcDbLine
 10
-164.0
 20
26.0
 30
0.0
 11
-196.0
 21
26.0
 31
0.0
  0
LINE
  5
572
330
1F
100
AcDbEntity
  8
2
  6
DOT_CENTER
 62
     1
100
AcDbLine
 10
-180.0
 20
308.862631418334
 30
0.0
 11
-180.0
 21
-105.784800721018
 31
0.0
  0
LINE
  5
573
330
1F
100
AcDbEntity
  8
100
  6
Continuous
 62
     3
100
AcDbLine
 10
-166.4
 20
75.0000000000007
 30
0.0
 11
-166.4
 21
26.0
 31
0.0
  0
LINE
  5
574
330
1F
100
AcDbEntity
  8
100
  6
Continuous
 62
     3
100
AcDbLine
 10
-193.6
 20
26.0
 30
0.0
 11
-193.6
 21
76.6889311249324
 31
0.0
  0
LINE
  5
575
330
1F
100
AcDbEntity
  8
100
  6
Continuous
 62
     3
100
AcDbLine
 10
13.6
 20
79.9497979778518
 30
0.0
 11
13.6
 21
203.5
 31
0.0
  0
LINE
  5
576
330
1F
100
AcDbEntity
  8
100
  6
Continuous
 62
     3
100
AcDbLine
 10
13.6
 20
75.0000000000007
 30
0.0
 11
13.6
 21
26.0
 31
0.0
  0
LINE
  5
577
330
1F
100
AcDbEntity
  8
100
  6
Continuous
 62
     3
100
AcDbLine
 10
-13.6
 20
81.6387291027835
 30
0.0
 11
-13.6
 21
203.5
 31
0.0
  0
LINE
  5
578
330
1F
100
AcDbEntity
  8
100
  6
Continuous
 62
     3
100
AcDbLine
 10
-13.6
 20
26.0
 30
0.0
 11
-13.6
 21
76.6889311249324
 31
0.0
  0
LINE
  5
579
330
1F
100
AcDbEntity
  8
2
  6
DOT_CENTER
 62
     1
100
AcDbLine
 10
0.0
 20
310.5
 30
0.0
 11
0.0
 21
7.52726414833438
 31
0.0
  0
LINE
  5
57A
330
1F
100
AcDbEntity
  8
2
  6
DOT_CENTER
 62
     1
100
AcDbLine
 10
0.0
 20
-8.33641289754873
 30
0.0
 11
0.0
 21
-99.626791701098
 31
0.0
  0
LINE
  5
57B
330
1F
100
AcDbEntity
  8
2
  6
DOT_CENTER
 62
     1
100
AcDbLine
 10
79.7269144061337
 20
0.0
 30
0.0
 11
138.541899835915
 21
0.0
 31
0.0
  0
LINE
  5
57C
330
1F
100
AcDbEntity
  8
100
  6
Continuous
 62
     3
100
AcDbLine
 10
126.6245
 20
-23.0
 30
0.0
 11
126.6245
 21
-26.5
 31
0.0
  0
LINE
  5
57D
330
1F
100
AcDbEntity
  8
100
  6
Continuous
 62
     3
100
AcDbLine
 10
121.0
 20
-19.7526934109429
 30
0.0
 11
126.6245
 21
-23.0
 31
0.0
  0
LINE
  5
57E
330
1F
100
AcDbEntity
  8
100
  6
Continuous
 62
     3
100
AcDbLine
 10
121.0
 20
-13.0
 30
0.0
 11
121.0
 21
-19.7526934109429
 31
0.0
  0
LINE
  5
57F
330
1F
100
AcDbEntity
  8
100
  6
Continuous
 62
     3
100
AcDbLine
 10
123.5
 20
5.0
 30
0.0
 11
123.5
 21
-13.0
 31
0.0
  0
LINE
  5
580
330
1F
100
AcDbEntity
  8
100
  6
Continuous
 62
     3
100
AcDbLine
 10
96.5
 20
-13.0
 30
0.0
 11
123.5
 21
-13.0
 31
0.0
  0
LINE
  5
581
330
1F
100
AcDbEntity
  8
100
  6
Continuous
 62
     3
100
AcDbLine
 10
122.75
 20
12.0
 30
0.0
 11
122.75
 21
5.0
 31
0.0
  0
LINE
  5
582
330
1F
100
AcDbEntity
  8
100
  6
Continuous
 62
     3
100
AcDbLine
 10
96.5
 20
5.0
 30
0.0
 11
123.5
 21
5.0
 31
0.0
  0
LINE
  5
583
330
1F
100
AcDbEntity
  8
100
  6
Continuous
 62
     3
100
AcDbLine
 10
94.0
 20
12.0
 30
0.0
 11
126.0
 21
12.0
 31
0.0
  0
LINE
  5
584
330
1F
100
AcDbEntity
  8
100
  6
Continuous
 62
     3
100
AcDbLine
 10
126.0
 20
26.0
 30
0.0
 11
126.0
 21
12.0
 31
0.0
  0
LINE
  5
585
330
1F
100
AcDbEntity
  8
100
  6
Continuous
 62
     3
100
AcDbLine
 10
94.0
 20
26.0
 30
0.0
 11
94.0
 21
12.0
 31
0.0
  0
LINE
  5
586
330
1F
100
AcDbEntity
  8
100
  6
Continuous
 62
     3
100
AcDbLine
 10
97.25
 20
12.0
 30
0.0
 11
97.25
 21
5.0
 31
0.0
  0
LINE
  5
587
330
1F
100
AcDbEntity
  8
100
  6
Continuous
 62
     3
100
AcDbLine
 10
96.5
 20
5.0
 30
0.0
 11
96.5
 21
-13.0
 31
0.0
  0
LINE
  5
588
330
1F
100
AcDbEntity
  8
100
  6
Continuous
 62
     3
100
AcDbLine
 10
99.0
 20
-13.0
 30
0.0
 11
99.0
 21
-19.7526934109429
 31
0.0
  0
LINE
  5
589
330
1F
100
AcDbEntity
  8
100
  6
Continuous
 62
     3
100
AcDbLine
 10
99.0
 20
-19.7526934109429
 30
0.0
 11
93.3755
 21
-23.0
 31
0.0
  0
LINE
  5
58A
330
1F
100
AcDbEntity
  8
100
  6
Continuous
 62
     3
100
AcDbLine
 10
93.3755
 20
-23.0
 30
0.0
 11
93.3755
 21
-26.5
 31
0.0
  0
LINE
  5
58B
330
1F
100
AcDbEntity
  8
100
  6
Continuous
 62
     3
100
AcDbLine
 10
93.0
 20
228.5
 30
0.0
 11
93.0
 21
232.0
 31
0.0
  0
LINE
  5
58C
330
1F
100
AcDbEntity
  8
100
  6
Continuous
 62
     3
100
AcDbLine
 10
93.0
 20
232.0
 30
0.0
 11
127.0
 21
232.0
 31
0.0
  0
LINE
  5
58D
330
1F
100
AcDbEntity
  8
100
  6
Continuous
 62
     3
100
AcDbLine
 10
127.0
 20
228.5
 30
0.0
 11
127.0
 21
232.0
 31
0.0
  0
LINE
  5
58E
330
1F
100
AcDbEntity
  8
100
  6
Continuous
 62
     3
100
AcDbLine
 10
105.6
 20
280.0
 30
0.0
 11
105.6
 21
262.0
 31
0.0
  0
LINE
  5
58F
330
1F
100
AcDbEntity
  8
2
  6
DOT_CENTER
 62
     1
100
AcDbLine
 10
110.0
 20
310.5
 30
0.0
 11
110.0
 21
-104.251339557821
 31
0.0
  0
LINE
  5
590
330
1F
100
AcDbEntity
  8
100
  6
Continuous
 62
     3
100
AcDbLine
 10
119.0
 20
262.0
 30
0.0
 11
101.0
 21
262.0
 31
0.0
  0
LINE
  5
591
330
1F
100
AcDbEntity
  8
100
  6
Continuous
 62
     3
100
AcDbLine
 10
123.5
 20
247.048426656989
 30
0.0
 11
123.5
 21
232.0
 31
0.0
  0
LINE
  5
592
330
1F
100
AcDbEntity
  8
100
  6
Continuous
 62
     3
100
AcDbLine
 10
119.0
 20
262.0
 30
0.0
 11
119.0
 21
254.930285549747
 31
0.0
  0
LINE
  5
593
330
1F
100
AcDbEntity
  8
100
  6
Continuous
 62
     3
100
AcDbLine
 10
96.5
 20
247.048426656989
 30
0.0
 11
96.5
 21
232.0
 31
0.0
  0
LINE
  5
594
330
1F
100
AcDbEntity
  8
100
  6
Continuous
 62
     3
100
AcDbLine
 10
101.0
 20
262.0
 30
0.0
 11
101.0
 21
254.930285549747
 31
0.0
  0
LINE
  5
595
330
1F
100
AcDbEntity
  8
100
  6
Continuous
 62
     3
100
AcDbLine
 10
93.0
 20
228.5
 30
0.0
 11
127.0
 21
228.5
 31
0.0
  0
LINE
  5
596
330
1F
100
AcDbEntity
  8
100
  6
Continuous
 62
     3
100
AcDbLine
 10
123.6
 20
81.6889311249324
 30
0.0
 11
123.6
 21
203.5
 31
0.0
  0
LINE
  5
597
330
1F
100
AcDbEntity
  8
100
  6
Continuous
 62
     3
100
AcDbLine
 10
96.4
 20
80.0000000000007
 30
0.0
 11
96.4
 21
203.5
 31
0.0
  0
LINE
  5
598
330
1F
100
AcDbEntity
  8
100
  6
Continuous
 62
     3
100
AcDbLine
 10
94.0
 20
203.5
 30
0.0
 11
126.0
 21
203.5
 31
0.0
  0
LINE
  5
599
330
1F
100
AcDbEntity
  8
100
  6
Continuous
 62
     3
100
AcDbLine
 10
94.0
 20
203.5
 30
0.0
 11
94.0
 21
228.5
 31
0.0
  0
LINE
  5
59A
330
1F
100
AcDbEntity
  8
100
  6
Continuous
 62
     3
100
AcDbLine
 10
126.0
 20
203.5
 30
0.0
 11
126.0
 21
228.5
 31
0.0
  0
LINE
  5
59B
330
1F
100
AcDbEntity
  8
100
  6
Continuous
 62
     3
100
AcDbLine
 10
94.0
 20
26.0
 30
0.0
 11
126.0
 21
26.0
 31
0.0
  0
LINE
  5
59C
330
1F
100
AcDbEntity
  8
100
  6
Continuous
 62
     3
100
AcDbLine
 10
123.6
 20
26.0
 30
0.0
 11
123.6
 21
76.6889311249324
 31
0.0
  0
LINE
  5
59D
330
1F
100
AcDbEntity
  8
100
  6
Continuous
 62
     3
100
AcDbLine
 10
96.4
 20
75.0000000000007
 30
0.0
 11
96.4
 21
26.0
 31
0.0
  0
LINE
  5
59E
330
1F
100
AcDbEntity
  8
100
  6
Continuous
 62
     3
100
AcDbLine
 10
79.0
 20
280.0
 30
0.0
 11
141.0
 21
280.0
 31
0.0
  0
LINE
  5
59F
330
1F
100
AcDbEntity
  8
100
  6
Continuous
 62
     3
100
AcDbLine
 10
96.770007860876
 20
299.891048196256
 30
0.0
 11
83.2480188661024
 21
295.762755974056
 31
0.0
  0
LINE
  5
5A0
330
1F
100
AcDbEntity
  8
100
  6
Continuous
 62
     3
100
AcDbLine
 10
79.0
 20
290.024240303043
 30
0.0
 11
79.0
 21
280.0
 31
0.0
  0
LINE
  5
5A1
330
1F
100
AcDbEntity
  8
100
  6
Continuous
 62
     3
100
AcDbLine
 10
122.5
 20
300.0
 30
0.0
 11
97.5
 21
300.0
 31
0.0
  0
LINE
  5
5A2
330
1F
100
AcDbEntity
  8
100
  6
Continuous
 62
     3
100
AcDbLine
 10
90.0034571207873
 20
290.044738518463
 30
0.0
 11
90.0034571207873
 21
282.0
 31
0.0
  0
LINE
  5
5A3
330
1F
100
AcDbEntity
  8
100
  6
Continuous
 62
     3
100
AcDbLine
 10
129.996542879213
 20
290.044738518463
 30
0.0
 11
129.996542879213
 21
282.0
 31
0.0
  0
LINE
  5
5A4
330
1F
100
AcDbEntity
  8
100
  6
Continuous
 62
     3
100
AcDbLine
 10
141.0
 20
290.024240303043
 30
0.0
 11
141.0
 21
280.0
 31
0.0
  0
LINE
  5
5A5
330
1F
100
AcDbEntity
  8
100
  6
Continuous
 62
     3
100
AcDbLine
 10
123.229992139124
 20
299.891048196256
 30
0.0
 11
136.751981133898
 21
295.762755974056
 31
0.0
  0
LINE
  5
5A6
330
1F
100
AcDbEntity
  8
100
  6
Continuous
 62
     3
100
AcDbLine
 10
-6.5
 20
0.0
 30
0.0
 11
-1.0
 21
0.0
 31
0.0
  0
LINE
  5
5A7
330
1F
100
AcDbEntity
  8
100
  6
Continuous
 62
     3
100
AcDbLine
 10
-17.0
 20
0.0
 30
0.0
 11
-21.0
 21
0.0
 31
0.0
  0
LINE
  5
5A8
330
1F
100
AcDbEntity
  8
100
  6
Continuous
 62
     3
100
AcDbLine
 10
-196.6245
 20
-23.0
 30
0.0
 11
-196.6245
 21
-26.5
 31
0.0
  0
LINE
  5
5A9
330
1F
100
AcDbEntity
  8
100
  6
Continuous
 62
     3
100
AcDbLine
 10
-191.0
 20
-19.7526934109429
 30
0.0
 11
-196.6245
 21
-23.0
 31
0.0
  0
LINE
  5
5AA
330
1F
100
AcDbEntity
  8
100
  6
Continuous
 62
     3
100
AcDbLine
 10
-191.0
 20
-15.5884572681199
 30
0.0
 11
-191.0
 21
-19.7526934109429
 31
0.0
  0
LINE
  5
5AB
330
1F
100
AcDbEntity
  8
100
  6
Continuous
 62
     3
100
AcDbLine
 10
-169.0
 20
-15.5884572681199
 30
0.0
 11
-169.0
 21
-19.7526934109429
 31
0.0
  0
LINE
  5
5AC
330
1F
100
AcDbEntity
  8
100
  6
Continuous
 62
     3
100
AcDbLine
 10
-169.0
 20
-19.7526934109429
 30
0.0
 11
-163.3755
 21
-23.0
 31
0.0
  0
LINE
  5
5AD
330
1F
100
AcDbEntity
  8
100
  6
Continuous
 62
     3
100
AcDbLine
 10
-163.3755
 20
-23.0
 30
0.0
 11
-163.3755
 21
-26.5
 31
0.0
  0
LINE
  5
5AE
330
1F
100
AcDbEntity
  8
2
  6
Continuous
 62
     3
100
AcDbLine
 10
-77.0
 20
367.8544375
 30
0.0
 11
-75.7086478697819
 21
368.6
 31
0.0
  0
LINE
  5
5AF
330
1F
100
AcDbEntity
  8
100
  6
Continuous
 62
     3
100
AcDbLine
 10
-77.0
 20
342.4
 30
0.0
 11
-77.0
 21
368.6
 31
0.0
  0
LINE
  5
5B0
330
1F
100
AcDbEntity
  8
2
  6
Continuous
 62
     3
100
AcDbLine
 10
-77.0
 20
343.1455625
 30
0.0
 11
-75.7086478697819
 21
342.4
 31
0.0
  0
LINE
  5
5B1
330
1F
100
AcDbEntity
  8
100
  6
Continuous
 62
     3
100
AcDbLine
 10
-96.0
 20
368.4226875
 30
0.0
 11
-90.3260000000002
 21
368.6
 31
0.0
  0
LINE
  5
5B2
330
1F
100
AcDbEntity
  8
100
  6
Continuous
 62
     3
100
AcDbLine
 10
-96.0
 20
342.5773125
 30
0.0
 11
-96.0
 21
368.4226875
 31
0.0
  0
LINE
  5
5B3
330
1F
100
AcDbEntity
  8
100
  6
Continuous
 62
     3
100
AcDbLine
 10
-96.0
 20
342.5773125
 30
0.0
 11
-90.3260000000002
 21
342.4
 31
0.0
  0
LINE
  5
5B4
330
1F
100
AcDbEntity
  8
2
  6
Continuous
 62
     1
100
AcDbLine
 10
-77.0
 20
343.1455625
 30
0.0
 11
-96.0
 21
343.7393125
 31
0.0
  0
LINE
  5
5B5
330
1F
100
AcDbEntity
  8
2
  6
Continuous
 62
     1
100
AcDbLine
 10
-77.0
 20
367.8544375
 30
0.0
 11
-96.0
 21
367.2606875
 31
0.0
  0
LINE
  5
5B6
330
1F
100
AcDbEntity
  8
100
  6
Continuous
 62
     3
100
AcDbLine
 10
-50.5
 20
336.5
 30
0.0
 11
-50.5
 21
374.5
 31
0.0
  0
LINE
  5
5B7
330
1F
100
AcDbEntity
  8
100
  6
Continuous
 62
     3
100
AcDbLine
 10
-28.5
 20
336.5
 30
0.0
 11
-28.5
 21
374.5
 31
0.0
  0
LINE
  5
5B8
330
1F
100
AcDbEntity
  8
100
  6
Continuous
 62
     3
100
AcDbLine
 10
-90.3260000000002
 20
368.6
 30
0.0
 11
-50.5
 21
368.6
 31
0.0
  0
LINE
  5
5B9
330
1F
100
AcDbEntity
  8
100
  6
Continuous
 62
     3
100
AcDbLine
 10
-90.3260000000002
 20
342.4
 30
0.0
 11
-50.5
 21
342.4
 31
0.0
  0
LINE
  5
5BA
330
1F
100
AcDbEntity
  8
100
  6
Continuous
 62
     3
100
AcDbLine
 10
-50.5
 20
336.5
 30
0.0
 11
-28.5
 21
336.5
 31
0.0
  0
LINE
  5
5BB
330
1F
100
AcDbEntity
  8
100
  6
Continuous
 62
     3
100
AcDbLine
 10
-50.5
 20
374.5
 30
0.0
 11
-28.5
 21
374.5
 31
0.0
  0
LINE
  5
5BC
330
1F
100
AcDbEntity
  8
100
  6
Continuous
 62
     3
100
AcDbLine
 10
-50.5
 20
355.5
 30
0.0
 11
-28.5
 21
355.5
 31
0.0
  0
LINE
  5
5BD
330
1F
100
AcDbEntity
  8
100
  6
Continuous
 62
     3
100
AcDbLine
 10
-161.0
 20
10.9696551146029
 30
0.0
 11
-180.0
 21
21.9393102292058
 31
0.0
  0
LINE
  5
5BE
330
1F
100
AcDbEntity
  8
100
  6
Continuous
 62
     3
100
AcDbLine
 10
-180.0
 20
21.9393102292058
 30
0.0
 11
-199.0
 21
10.9696551146029
 31
0.0
  0
LINE
  5
5BF
330
1F
100
AcDbEntity
  8
100
  6
Continuous
 62
     3
100
AcDbLine
 10
-199.0
 20
10.9696551146029
 30
0.0
 11
-199.0
 21
-10.9696551146029
 31
0.0
  0
LINE
  5
5C0
330
1F
100
AcDbEntity
  8
100
  6
Continuous
 62
     3
100
AcDbLine
 10
-199.0
 20
-10.9696551146029
 30
0.0
 11
-180.0
 21
-21.9393102292058
 31
0.0
  0
LINE
  5
5C1
330
1F
100
AcDbEntity
  8
100
  6
Continuous
 62
     3
100
AcDbLine
 10
-180.0
 20
-21.9393102292058
 30
0.0
 11
-161.0
 21
-10.9696551146029
 31
0.0
  0
LINE
  5
5C2
330
1F
100
AcDbEntity
  8
100
  6
Continuous
 62
     3
100
AcDbLine
 10
-161.0
 20
-10.9696551146029
 30
0.0
 11
-161.0
 21
10.9696551146029
 31
0.0
  0
LINE
  5
5C3
330
1F
100
AcDbEntity
  8
100
  6
Continuous
 62
     3
100
AcDbLine
 10
-77.0
 20
-13.1
 30
0.0
 11
-77.0
 21
13.1
 31
0.0
  0
LINE
  5
5C4
330
1F
100
AcDbEntity
  8
2
  6
Continuous
 62
     3
100
AcDbLine
 10
-77.0
 20
12.3544375
 30
0.0
 11
-75.7086478697819
 21
13.1
 31
0.0
  0
LINE
  5
5C5
330
1F
100
AcDbEntity
  8
2
  6
Continuous
 62
     3
100
AcDbLine
 10
-77.0
 20
-12.3544375
 30
0.0
 11
-75.7086478697819
 21
-13.1
 31
0.0
  0
LINE
  5
5C6
330
1F
100
AcDbEntity
  8
100
  6
Continuous
 62
     3
100
AcDbLine
 10
-90.3260000000002
 20
13.1
 30
0.0
 11
-50.5
 21
13.1
 31
0.0
  0
LINE
  5
5C7
330
1F
100
AcDbEntity
  8
100
  6
Continuous
 62
     3
100
AcDbLine
 10
-90.3260000000002
 20
-13.1
 30
0.0
 11
-50.5
 21
-13.1
 31
0.0
  0
LINE
  5
5C8
330
1F
100
AcDbEntity
  8
100
  6
Continuous
 62
     3
100
AcDbLine
 10
-96.0
 20
12.9226875
 30
0.0
 11
-90.3260000000002
 21
13.1
 31
0.0
  0
LINE
  5
5C9
330
1F
100
AcDbEntity
  8
2
  6
Continuous
 62
     1
100
AcDbLine
 10
-77.0
 20
12.3544375
 30
0.0
 11
-96.0
 21
11.7606875
 31
0.0
  0
LINE
  5
5CA
330
1F
100
AcDbEntity
  8
100
  6
Continuous
 62
     3
100
AcDbLine
 10
-96.0
 20
-12.9226875
 30
0.0
 11
-90.3260000000002
 21
-13.1
 31
0.0
  0
LINE
  5
5CB
330
1F
100
AcDbEntity
  8
2
  6
Continuous
 62
     1
100
AcDbLine
 10
-77.0
 20
-12.3544375
 30
0.0
 11
-96.0
 21
-11.7606875
 31
0.0
  0
LINE
  5
5CC
330
1F
100
AcDbEntity
  8
100
  6
Continuous
 62
     3
100
AcDbLine
 10
-96.0
 20
-12.9226875
 30
0.0
 11
-96.0
 21
12.9226875
 31
0.0
  0
LINE
  5
5CD
330
1F
100
AcDbEntity
  8
100
  6
Continuous
 62
     3
100
AcDbLine
 10
-50.5
 20
-21.9393102292058
 30
0.0
 11
-50.5
 21
21.9393102292058
 31
0.0
  0
LINE
  5
5CE
330
1F
100
AcDbEntity
  8
100
  6
Continuous
 62
     3
100
AcDbLine
 10
-28.5
 20
-21.9393102292058
 30
0.0
 11
-28.5
 21
21.9393102292058
 31
0.0
  0
LINE
  5
5CF
330
1F
100
AcDbEntity
  8
100
  6
Continuous
 62
     3
100
AcDbLine
 10
-50.5
 20
10.9696551146029
 30
0.0
 11
-28.5
 21
10.9696551146029
 31
0.0
  0
LINE
  5
5D0
330
1F
100
AcDbEntity
  8
100
  6
Continuous
 62
     3
100
AcDbLine
 10
-50.5
 20
-10.9696551146029
 30
0.0
 11
-28.5
 21
-10.9696551146029
 31
0.0
  0
LINE
  5
5D1
330
1F
100
AcDbEntity
  8
100
  6
Continuous
 62
     3
100
AcDbLine
 10
-50.5
 20
-21.9393102292058
 30
0.0
 11
-28.5
 21
-21.9393102292058
 31
0.0
  0
LINE
  5
5D2
330
1F
100
AcDbEntity
  8
100
  6
Continuous
 62
     3
100
AcDbLine
 10
-50.5
 20
21.9393102292058
 30
0.0
 11
-28.5
 21
21.9393102292058
 31
0.0
  0
LINE
  5
5D3
330
1F
100
AcDbEntity
  8
100
  6
Continuous
 62
     3
100
AcDbLine
 10
129.0
 20
10.9696551146029
 30
0.0
 11
126.0
 21
12.7017059221718
 31
0.0
  0
LINE
  5
5D4
330
1F
100
AcDbEntity
  8
100
  6
Continuous
 62
     3
100
AcDbLine
 10
129.0
 20
-10.9696551146029
 30
0.0
 11
129.0
 21
10.9696551146029
 31
0.0
  0
LINE
  5
5D5
330
1F
100
AcDbEntity
  8
100
  6
Continuous
 62
     3
100
AcDbLine
 10
121.0
 20
-15.5884572681199
 30
0.0
 11
129.0
 21
-10.9696551146029
 31
0.0
  0
LINE
  5
5D6
330
1F
100
AcDbEntity
  8
100
  6
Continuous
 62
     3
100
AcDbLine
 10
91.0
 20
-10.9696551146029
 30
0.0
 11
99.0
 21
-15.5884572681199
 31
0.0
  0
LINE
  5
5D7
330
1F
100
AcDbEntity
  8
100
  6
Continuous
 62
     3
100
AcDbLine
 10
91.0
 20
10.9696551146029
 30
0.0
 11
91.0
 21
-10.9696551146029
 31
0.0
  0
LINE
  5
5D8
330
1F
100
AcDbEntity
  8
100
  6
Continuous
 62
     3
100
AcDbLine
 10
94.0
 20
12.7017059221718
 30
0.0
 11
91.0
 21
10.9696551146029
 31
0.0
  0
LINE
  5
5D9
330
1F
100
AcDbEntity
  8
2
  6
Continuous
 62
     3
100
AcDbLine
 10
-192.3544375
 20
-75.0
 30
0.0
 11
-193.1
 21
-73.7086478697819
 31
0.0
  0
LINE
  5
5DA
330
1F
100
AcDbEntity
  8
100
  6
Continuous
 62
     3
100
AcDbLine
 10
-166.9
 20
-75.0
 30
0.0
 11
-193.1
 21
-75.0
 31
0.0
  0
LINE
  5
5DB
330
1F
100
AcDbEntity
  8
2
  6
Continuous
 62
     3
100
AcDbLine
 10
-167.6455625
 20
-75.0
 30
0.0
 11
-166.9
 21
-73.7086478697819
 31
0.0
  0
LINE
  5
5DC
330
1F
100
AcDbEntity
  8
100
  6
Continuous
 62
     3
100
AcDbLine
 10
-161.0
 20
-48.5
 30
0.0
 11
-199.0
 21
-48.5
 31
0.0
  0
LINE
  5
5DD
330
1F
100
AcDbEntity
  8
100
  6
Continuous
 62
     3
100
AcDbLine
 10
-161.0
 20
-26.5
 30
0.0
 11
-199.0
 21
-26.5
 31
0.0
  0
LINE
  5
5DE
330
1F
100
AcDbEntity
  8
100
  6
Continuous
 62
     3
100
AcDbLine
 10
-193.1
 20
-88.3260000000002
 30
0.0
 11
-193.1
 21
-48.5
 31
0.0
  0
LINE
  5
5DF
330
1F
100
AcDbEntity
  8
100
  6
Continuous
 62
     3
100
AcDbLine
 10
-166.9
 20
-88.3260000000002
 30
0.0
 11
-166.9
 21
-48.5
 31
0.0
  0
LINE
  5
5E0
330
1F
100
AcDbEntity
  8
100
  6
Continuous
 62
     3
100
AcDbLine
 10
-192.9226875
 20
-94.0
 30
0.0
 11
-193.1
 21
-88.3260000000002
 31
0.0
  0
LINE
  5
5E1
330
1F
100
AcDbEntity
  8
100
  6
Continuous
 62
     3
100
AcDbLine
 10
-167.0773125
 20
-94.0
 30
0.0
 11
-166.9
 21
-88.3260000000002
 31
0.0
  0
LINE
  5
5E2
330
1F
100
AcDbEntity
  8
2
  6
Continuous
 62
     1
100
AcDbLine
 10
-167.6455625
 20
-75.0
 30
0.0
 11
-168.2393125
 21
-94.0
 31
0.0
  0
LINE
  5
5E3
330
1F
100
AcDbEntity
  8
2
  6
Continuous
 62
     1
100
AcDbLine
 10
-192.3544375
 20
-75.0
 30
0.0
 11
-191.7606875
 21
-94.0
 31
0.0
  0
LINE
  5
5E4
330
1F
100
AcDbEntity
  8
100
  6
Continuous
 62
     3
100
AcDbLine
 10
-167.0773125
 20
-94.0
 30
0.0
 11
-192.9226875
 21
-94.0
 31
0.0
  0
LINE
  5
5E5
330
1F
100
AcDbEntity
  8
100
  6
Continuous
 62
     3
100
AcDbLine
 10
-161.0
 20
-48.5
 30
0.0
 11
-161.0
 21
-26.5
 31
0.0
  0
LINE
  5
5E6
330
1F
100
AcDbEntity
  8
100
  6
Continuous
 62
     3
100
AcDbLine
 10
-199.0
 20
-48.5
 30
0.0
 11
-199.0
 21
-26.5
 31
0.0
  0
LINE
  5
5E7
330
1F
100
AcDbEntity
  8
100
  6
Continuous
 62
     3
100
AcDbLine
 10
-180.0
 20
-48.5
 30
0.0
 11
-180.0
 21
-26.5
 31
0.0
  0
LINE
  5
5E8
330
1F
100
AcDbEntity
  8
2
  6
Continuous
 62
     3
100
AcDbLine
 10
97.6455625000001
 20
-75.0
 30
0.0
 11
96.9000000000001
 21
-73.7086478697819
 31
0.0
  0
LINE
  5
5E9
330
1F
100
AcDbEntity
  8
100
  6
Continuous
 62
     3
100
AcDbLine
 10
123.1
 20
-75.0
 30
0.0
 11
96.9000000000001
 21
-75.0
 31
0.0
  0
LINE
  5
5EA
330
1F
100
AcDbEntity
  8
2
  6
Continuous
 62
     3
100
AcDbLine
 10
122.3544375
 20
-75.0
 30
0.0
 11
123.1
 21
-73.7086478697819
 31
0.0
  0
LINE
  5
5EB
330
1F
100
AcDbEntity
  8
100
  6
Continuous
 62
     3
100
AcDbLine
 10
129.0
 20
-48.5
 30
0.0
 11
91.0000000000001
 21
-48.5
 31
0.0
  0
LINE
  5
5EC
330
1F
100
AcDbEntity
  8
100
  6
Continuous
 62
     3
100
AcDbLine
 10
129.0
 20
-26.5
 30
0.0
 11
91.0000000000001
 21
-26.5
 31
0.0
  0
LINE
  5
5ED
330
1F
100
AcDbEntity
  8
100
  6
Continuous
 62
     3
100
AcDbLine
 10
96.9000000000001
 20
-88.3260000000002
 30
0.0
 11
96.9000000000001
 21
-48.5
 31
0.0
  0
LINE
  5
5EE
330
1F
100
AcDbEntity
  8
100
  6
Continuous
 62
     3
100
AcDbLine
 10
123.1
 20
-88.3260000000002
 30
0.0
 11
123.1
 21
-48.5
 31
0.0
  0
LINE
  5
5EF
330
1F
100
AcDbEntity
  8
100
  6
Continuous
 62
     3
100
AcDbLine
 10
97.0773125000001
 20
-94.0
 30
0.0
 11
96.9000000000001
 21
-88.3260000000002
 31
0.0
  0
LINE
  5
5F0
330
1F
100
AcDbEntity
  8
100
  6
Continuous
 62
     3
100
AcDbLine
 10
122.9226875
 20
-94.0
 30
0.0
 11
123.1
 21
-88.3260000000002
 31
0.0
  0
LINE
  5
5F1
330
1F
100
AcDbEntity
  8
2
  6
Continuous
 62
     1
100
AcDbLine
 10
122.3544375
 20
-75.0
 30
0.0
 11
121.7606875
 21
-94.0
 31
0.0
  0
LINE
  5
5F2
330
1F
100
AcDbEntity
  8
2
  6
Continuous
 62
     1
100
AcDbLine
 10
97.6455625000001
 20
-75.0
 30
0.0
 11
98.2393125
 21
-94.0
 31
0.0
  0
LINE
  5
5F3
330
1F
100
AcDbEntity
  8
100
  6
Continuous
 62
     3
100
AcDbLine
 10
122.9226875
 20
-94.0
 30
0.0
 11
97.0773125000001
 21
-94.0
 31
0.0
  0
LINE
  5
5F4
330
1F
100
AcDbEntity
  8
100
  6
Continuous
 62
     3
100
AcDbLine
 10
129.0
 20
-48.5
 30
0.0
 11
129.0
 21
-26.5
 31
0.0
  0
LINE
  5
5F5
330
1F
100
AcDbEntity
  8
100
  6
Continuous
 62
     3
100
AcDbLine
 10
91.0000000000001
 20
-48.5
 30
0.0
 11
91.0000000000001
 21
-26.5
 31
0.0
  0
LINE
  5
5F6
330
1F
100
AcDbEntity
  8
100
  6
Continuous
 62
     3
100
AcDbLine
 10
110.0
 20
-48.5
 30
0.0
 11
110.0
 21
-26.5
 31
0.0
  0
LINE
  5
5F7
330
1F
100
AcDbEntity
  8
100
  6
Continuous
 62
     3
100
AcDbLine
 10
13.1
 20
-75.0
 30
0.0
 11
-13.1
 21
-75.0
 31
0.0
  0
LINE
  5
5F8
330
1F
100
AcDbEntity
  8
2
  6
Continuous
 62
     3
100
AcDbLine
 10
-12.3544375
 20
-75.0
 30
0.0
 11
-13.1
 21
-73.7086478697819
 31
0.0
  0
LINE
  5
5F9
330
1F
100
AcDbEntity
  8
2
  6
Continuous
 62
     3
100
AcDbLine
 10
12.3544375
 20
-75.0
 30
0.0
 11
13.1
 21
-73.7086478697819
 31
0.0
  0
LINE
  5
5FA
330
1F
100
AcDbEntity
  8
100
  6
Continuous
 62
     3
100
AcDbLine
 10
-13.1
 20
-88.3260000000002
 30
0.0
 11
-13.1
 21
-48.5
 31
0.0
  0
LINE
  5
5FB
330
1F
100
AcDbEntity
  8
100
  6
Continuous
 62
     3
100
AcDbLine
 10
13.1
 20
-88.3260000000002
 30
0.0
 11
13.1
 21
-48.5
 31
0.0
  0
LINE
  5
5FC
330
1F
100
AcDbEntity
  8
100
  6
Continuous
 62
     3
100
AcDbLine
 10
-12.9226875
 20
-94.0
 30
0.0
 11
-13.1
 21
-88.3260000000002
 31
0.0
  0
LINE
  5
5FD
330
1F
100
AcDbEntity
  8
2
  6
Continuous
 62
     1
100
AcDbLine
 10
-12.3544375
 20
-75.0
 30
0.0
 11
-11.7606875
 21
-94.0
 31
0.0
  0
LINE
  5
5FE
330
1F
100
AcDbEntity
  8
100
  6
Continuous
 62
     3
100
AcDbLine
 10
12.9226875000001
 20
-94.0
 30
0.0
 11
13.1
 21
-88.3260000000002
 31
0.0
  0
LINE
  5
5FF
330
1F
100
AcDbEntity
  8
2
  6
Continuous
 62
     1
100
AcDbLine
 10
12.3544375
 20
-75.0
 30
0.0
 11
11.7606875
 21
-94.0
 31
0.0
  0
LINE
  5
600
330
1F
100
AcDbEntity
  8
100
  6
Continuous
 62
     3
100
AcDbLine
 10
12.9226875000001
 20
-94.0
 30
0.0
 11
-12.9226875
 21
-94.0
 31
0.0
  0
LINE
  5
601
330
1F
100
AcDbEntity
  8
100
  6
Continuous
 62
     3
100
AcDbLine
 10
21.9393102292058
 20
-48.5
 30
0.0
 11
-21.9393102292058
 21
-48.5
 31
0.0
  0
LINE
  5
602
330
1F
100
AcDbEntity
  8
100
  6
Continuous
 62
     3
100
AcDbLine
 10
21.9393102292058
 20
-26.5
 30
0.0
 11
-21.9393102292058
 21
-26.5
 31
0.0
  0
LINE
  5
603
330
1F
100
AcDbEntity
  8
100
  6
Continuous
 62
     3
100
AcDbLine
 10
-21.9393102292058
 20
-48.5
 30
0.0
 11
-21.9393102292058
 21
-26.5
 31
0.0
  0
LINE
  5
604
330
1F
100
AcDbEntity
  8
100
  6
Continuous
 62
     3
100
AcDbLine
 10
-10.9696551146029
 20
-48.5
 30
0.0
 11
-10.9696551146029
 21
-26.5
 31
0.0
  0
LINE
  5
605
330
1F
100
AcDbEntity
  8
100
  6
Continuous
 62
     3
100
AcDbLine
 10
10.9696551146029
 20
-48.5
 30
0.0
 11
10.9696551146029
 21
-26.5
 31
0.0
  0
LINE
  5
606
330
1F
100
AcDbEntity
  8
100
  6
Continuous
 62
     3
100
AcDbLine
 10
21.9393102292058
 20
-48.5
 30
0.0
 11
21.9393102292058
 21
-26.5
 31
0.0
  0
LINE
  5
607
330
1F
100
AcDbEntity
  8
100
  6
Continuous
 62
     3
100
AcDbLine
 10
-166.770007860876
 20
299.891048196256
 30
0.0
 11
-153.248018866102
 21
295.762755974056
 31
0.0
  0
LINE
  5
608
330
1F
100
AcDbEntity
  8
100
  6
Continuous
 62
     3
100
AcDbLine
 10
-149.0
 20
290.024240303043
 30
0.0
 11
-149.0
 21
280.0
 31
0.0
  0
LINE
  5
609
330
1F
100
AcDbEntity
  8
100
  6
Continuous
 62
     3
100
AcDbLine
 10
-160.003457120787
 20
290.044738518463
 30
0.0
 11
-160.003457120787
 21
282.0
 31
0.0
  0
LINE
  5
60A
330
1F
100
AcDbEntity
  8
100
  6
Continuous
 62
     3
100
AcDbLine
 10
-199.996542879213
 20
290.044738518463
 30
0.0
 11
-199.996542879213
 21
282.0
 31
0.0
  0
LINE
  5
60B
330
1F
100
AcDbEntity
  8
100
  6
Continuous
 62
     3
100
AcDbLine
 10
-167.5
 20
300.0
 30
0.0
 11
-192.5
 21
300.0
 31
0.0
  0
LINE
  5
60C
330
1F
100
AcDbEntity
  8
100
  6
Continuous
 62
     3
100
AcDbLine
 10
-211.0
 20
290.024240303043
 30
0.0
 11
-211.0
 21
280.0
 31
0.0
  0
LINE
  5
60D
330
1F
100
AcDbEntity
  8
100
  6
Continuous
 62
     3
100
AcDbLine
 10
-193.229992139124
 20
299.891048196256
 30
0.0
 11
-206.751981133898
 21
295.762755974056
 31
0.0
  0
LINE
  5
60E
330
1F
100
AcDbEntity
  8
100
  6
Continuous
 62
     3
100
AcDbLine
 10
-211.0
 20
280.0
 30
0.0
 11
-149.0
 21
280.0
 31
0.0
  0
LINE
  5
60F
330
1F
100
AcDbEntity
  8
100
  6
Continuous
 62
     3
100
AcDbLine
 10
-164.0
 20
203.5
 30
0.0
 11
-164.0
 21
228.5
 31
0.0
  0
LINE
  5
610
330
1F
100
AcDbEntity
  8
100
  6
Continuous
 62
     3
100
AcDbLine
 10
-196.0
 20
203.5
 30
0.0
 11
-196.0
 21
228.5
 31
0.0
  0
LINE
  5
611
330
1F
100
AcDbEntity
  8
100
  6
Continuous
 62
     3
100
AcDbLine
 10
-196.0
 20
203.5
 30
0.0
 11
-164.0
 21
203.5
 31
0.0
  0
LINE
  5
612
330
1F
100
AcDbEntity
  8
100
  6
Continuous
 62
     3
100
AcDbLine
 10
-197.0
 20
228.5
 30
0.0
 11
-163.0
 21
228.5
 31
0.0
  0
LINE
  5
613
330
1F
100
AcDbEntity
  8
100
  6
Continuous
 62
     3
100
AcDbLine
 10
-189.0
 20
262.0
 30
0.0
 11
-189.0
 21
254.930285549747
 31
0.0
  0
LINE
  5
614
330
1F
100
AcDbEntity
  8
100
  6
Continuous
 62
     3
100
AcDbLine
 10
-193.5
 20
247.048426656989
 30
0.0
 11
-193.5
 21
232.0
 31
0.0
  0
LINE
  5
615
330
1F
100
AcDbEntity
  8
100
  6
Continuous
 62
     3
100
AcDbLine
 10
-171.0
 20
262.0
 30
0.0
 11
-171.0
 21
254.930285549747
 31
0.0
  0
LINE
  5
616
330
1F
100
AcDbEntity
  8
100
  6
Continuous
 62
     3
100
AcDbLine
 10
-166.5
 20
247.048426656989
 30
0.0
 11
-166.5
 21
232.0
 31
0.0
  0
LINE
  5
617
330
1F
100
AcDbEntity
  8
100
  6
Continuous
 62
     3
100
AcDbLine
 10
-171.0
 20
262.0
 30
0.0
 11
-189.0
 21
262.0
 31
0.0
  0
LINE
  5
618
330
1F
100
AcDbEntity
  8
100
  6
Continuous
 62
     3
100
AcDbLine
 10
-184.4
 20
280.0
 30
0.0
 11
-184.4
 21
262.0
 31
0.0
  0
LINE
  5
619
330
1F
100
AcDbEntity
  8
100
  6
Continuous
 62
     3
100
AcDbLine
 10
-163.0
 20
228.5
 30
0.0
 11
-163.0
 21
232.0
 31
0.0
  0
LINE
  5
61A
330
1F
100
AcDbEntity
  8
100
  6
Continuous
 62
     3
100
AcDbLine
 10
-197.0
 20
232.0
 30
0.0
 11
-163.0
 21
232.0
 31
0.0
  0
LINE
  5
61B
330
1F
100
AcDbEntity
  8
100
  6
Continuous
 62
     3
100
AcDbLine
 10
-197.0
 20
228.5
 30
0.0
 11
-197.0
 21
232.0
 31
0.0
  0
LINE
  5
61C
330
1F
100
AcDbEntity
  8
100
  6
Continuous
 62
     3
100
AcDbLine
 10
-193.6
 20
81.4929712367416
 30
0.0
 11
-193.6
 21
203.5
 31
0.0
  0
LINE
  5
61D
330
1F
100
AcDbEntity
  8
100
  6
Continuous
 62
     3
100
AcDbLine
 10
-166.4
 20
79.9497979778518
 30
0.0
 11
-166.4
 21
203.5
 31
0.0
  0
ARC
  5
61E
330
1F
100
AcDbEntity
  8
100
  6
Continuous
 62
     3
100
AcDbCircle
 10
19.0
 20
255.400073201234
 30
0.0
 40
10.0
100
AcDbArc
 50
180.0
 51
250.0527857663935
  0
ARC
  5
61F
330
1F
100
AcDbEntity
  8
100
  6
Continuous
 62
     3
100
AcDbCircle
 10
-19.0
 20
255.400073201234
 30
0.0
 40
10.00000000000007
100
AcDbArc
 50
289.9472142336065
 51
0.0
  0
ARC
  5
620
330
1F
100
AcDbEntity
  8
100
  6
Continuous
 62
     3
100
AcDbCircle
 10
-0.00000000000001
 20
377.5
 30
0.0
 40
8.999999999999998
100
AcDbArc
 50
28.41186449479876
 51
151.5881355052015
  0
ARC
  5
621
330
1F
100
AcDbEntity
  8
100
  6
Continuous
 62
     3
100
AcDbCircle
 10
19.0525588832576
 20
366.5
 30
0.0
 40
9.000000000000199
100
AcDbArc
 50
0.0
 51
91.58813550520077
  0
ARC
  5
622
330
1F
100
AcDbEntity
  8
100
  6
Continuous
 62
     3
100
AcDbCircle
 10
19.0525588832576
 20
366.5
 30
0.0
 40
9.000000000000172
100
AcDbArc
 50
328.4118644947973
 51
0.0
  0
ARC
  5
623
330
1F
100
AcDbEntity
  8
100
  6
Continuous
 62
     3
100
AcDbCircle
 10
36.941102703256
 20
355.5
 30
0.0
 40
11.9999999999999
100
AcDbArc
 50
148.4118644948002
 51
211.5881355052001
  0
ARC
  5
624
330
1F
100
AcDbEntity
  8
100
  6
Continuous
 62
     3
100
AcDbCircle
 10
18.470551351628
 20
387.49193338483
 30
0.0
 40
12.00000000000019
100
AcDbArc
 50
208.4118644948003
 51
271.5881355052011
  0
ARC
  5
625
330
1F
100
AcDbEntity
  8
100
  6
Continuous
 62
     3
100
AcDbCircle
 10
19.0525588832576
 20
344.5
 30
0.0
 40
9.000000000000279
100
AcDbArc
 50
268.4118644947993
 51
31.58813550520235
  0
ARC
  5
626
330
1F
100
AcDbEntity
  8
100
  6
Continuous
 62
     3
100
AcDbCircle
 10
18.470551351628
 20
323.50806661517
 30
0.0
 40
12.00000000000007
100
AcDbArc
 50
88.41186449479889
 51
151.5881355051997
  0
ARC
  5
627
330
1F
100
AcDbEntity
  8
100
  6
Continuous
 62
     3
100
AcDbCircle
 10
-0.00000000000001
 20
333.5
 30
0.0
 40
8.99999999999999
100
AcDbArc
 50
208.4118644947988
 51
331.5881355052013
  0
ARC
  5
628
330
1F
100
AcDbEntity
  8
100
  6
Continuous
 62
     3
100
AcDbCircle
 10
-19.0525588832577
 20
344.5
 30
0.0
 40
9.000000000000087
100
AcDbArc
 50
148.411864494797
 51
271.5881355052014
  0
ARC
  5
629
330
1F
100
AcDbEntity
  8
100
  6
Continuous
 62
     3
100
AcDbCircle
 10
-18.470551351628
 20
323.50806661517
 30
0.0
 40
12.00000000000018
100
AcDbArc
 50
28.41186449480033
 51
91.58813550520111
  0
ARC
  5
62A
330
1F
100
AcDbEntity
  8
100
  6
Continuous
 62
     3
100
AcDbCircle
 10
-36.941102703256
 20
355.5
 30
0.0
 40
11.9999999999999
100
AcDbArc
 50
328.4118644948002
 51
31.58813550520032
  0
ARC
  5
62B
330
1F
100
AcDbEntity
  8
100
  6
Continuous
 62
     3
100
AcDbCircle
 10
-19.0525588832577
 20
366.5
 30
0.0
 40
9.000000000000282
100
AcDbArc
 50
88.4118644947986
 51
211.5881355052023
  0
ARC
  5
62C
330
1F
100
AcDbEntity
  8
100
  6
Continuous
 62
     3
100
AcDbCircle
 10
-18.470551351628
 20
387.49193338483
 30
0.0
 40
12.00000000000007
100
AcDbArc
 50
268.4118644947989
 51
331.5881355051994
  0
ARC
  5
62D
330
1F
100
AcDbEntity
  8
100
  6
Continuous
 62
     3
100
AcDbCircle
 10
12.5
 20
297.5
 30
0.0
 40
2.500000000000389
100
AcDbArc
 50
73.02245725905647
 51
90.0
  0
ARC
  5
62E
330
1F
100
AcDbEntity
  8
100
  6
Continuous
 62
     3
100
AcDbCircle
 10
22.0525588832576
 20
290.924100393325
 30
0.0
 40
6.0
100
AcDbArc
 50
0.0
 51
73.02245725905439
  0
ARC
  5
62F
330
1F
100
AcDbEntity
  8
100
  6
Continuous
 62
     3
100
AcDbCircle
 10
-12.5
 20
297.5
 30
0.0
 40
2.5
100
AcDbArc
 50
90.0
 51
106.9775427409435
  0
ARC
  5
630
330
1F
100
AcDbEntity
  8
100
  6
Continuous
 62
     3
100
AcDbCircle
 10
-22.0525588832576
 20
290.924100393325
 30
0.0
 40
6.00000000000056
100
AcDbArc
 50
106.9775427409456
 51
180.0
  0
ARC
  5
631
330
1F
100
AcDbEntity
  8
2
  6
CENTER
 62
     6
100
AcDbCircle
 10
-22.0525588832576
 20
284.373898371176
 30
0.0
 40
6.00000000000056
100
AcDbArc
 50
106.9775427409456
 51
180.0
  0
ARC
  5
632
330
1F
100
AcDbEntity
  8
2
  6
CENTER
 62
     6
100
AcDbCircle
 10
-12.5
 20
290.949797977851
 30
0.0
 40
2.5
100
AcDbArc
 50
90.0
 51
106.9775427409435
  0
ARC
  5
633
330
1F
100
AcDbEntity
  8
2
  6
CENTER
 62
     6
100
AcDbCircle
 10
12.5
 20
290.949797977851
 30
0.0
 40
2.500000000000389
100
AcDbArc
 50
73.02245725905647
 51
90.0
  0
ARC
  5
634
330
1F
100
AcDbEntity
  8
2
  6
CENTER
 62
     6
100
AcDbCircle
 10
22.0525588832576
 20
284.373898371176
 30
0.0
 40
6.0
100
AcDbArc
 50
0.0
 51
73.02245725905439
  0
ARC
  5
635
330
1F
100
AcDbEntity
  8
100
  6
Continuous
 62
     3
100
AcDbCircle
 10
-13.75
 20
11.0
 30
0.0
 40
1.0
100
AcDbArc
 50
0.0
 51
90.0
  0
ARC
  5
636
330
1F
100
AcDbEntity
  8
100
  6
Continuous
 62
     3
100
AcDbCircle
 10
-13.75
 20
11.0
 30
0.0
 40
1.0
100
AcDbArc
 50
270.0
 51
0.0
  0
ARC
  5
637
330
1F
100
AcDbEntity
  8
100
  6
Continuous
 62
     3
100
AcDbCircle
 10
91.0
 20
255.400073201234
 30
0.0
 40
9.999999999999972
100
AcDbArc
 50
303.3670129692318
 51
0.0
  0
ARC
  5
638
330
1F
100
AcDbEntity
  8
100
  6
Continuous
 62
     3
100
AcDbCircle
 10
129.0
 20
255.400073201234
 30
0.0
 40
10.0
100
AcDbArc
 50
180.0
 51
236.6329870307681
  0
ARC
  5
639
330
1F
100
AcDbEntity
  8
100
  6
Continuous
 62
     3
100
AcDbCircle
 10
85.0
 20
290.024240303043
 30
0.0
 40
5.999999999999607
100
AcDbArc
 50
106.9775427409474
 51
180.0
  0
ARC
  5
63A
330
1F
100
AcDbEntity
  8
100
  6
Continuous
 62
     3
100
AcDbCircle
 10
97.5
 20
297.5
 30
0.0
 40
2.5
100
AcDbArc
 50
90.0
 51
106.9775427409434
  0
ARC
  5
63B
330
1F
100
AcDbEntity
  8
100
  6
Continuous
 62
     3
100
AcDbCircle
 10
96.0034571207873
 20
290.044738518463
 30
0.0
 40
5.999999999999661
100
AcDbArc
 50
121.2094430364642
 51
180.0
  0
ARC
  5
63C
330
1F
100
AcDbEntity
  8
100
  6
Continuous
 62
     3
100
AcDbCircle
 10
123.996542879213
 20
290.044738518463
 30
0.0
 40
6.0
100
AcDbArc
 50
0.0
 51
58.7905569635458
  0
ARC
  5
63D
330
1F
100
AcDbEntity
  8
100
  6
Continuous
 62
     3
100
AcDbCircle
 10
122.5
 20
297.5
 30
0.0
 40
2.500000000000387
100
AcDbArc
 50
73.02245725905664
 51
90.0
  0
ARC
  5
63E
330
1F
100
AcDbEntity
  8
100
  6
Continuous
 62
     3
100
AcDbCircle
 10
135.0
 20
290.024240303043
 30
0.0
 40
6.0
100
AcDbArc
 50
0.0
 51
73.02245725904896
  0
ARC
  5
63F
330
1F
100
AcDbEntity
  8
100
  6
Continuous
 62
     3
100
AcDbCircle
 10
-155.0
 20
290.024240303043
 30
0.0
 40
6.0
100
AcDbArc
 50
0.0
 51
73.02245725904896
  0
ARC
  5
640
330
1F
100
AcDbEntity
  8
100
  6
Continuous
 62
     3
100
AcDbCircle
 10
-167.5
 20
297.5
 30
0.0
 40
2.500000000000387
100
AcDbArc
 50
73.02245725905664
 51
90.0
  0
ARC
  5
641
330
1F
100
AcDbEntity
  8
100
  6
Continuous
 62
     3
100
AcDbCircle
 10
-166.003457120787
 20
290.044738518463
 30
0.0
 40
6.0
100
AcDbArc
 50
0.0
 51
58.7905569635458
  0
ARC
  5
642
330
1F
100
AcDbEntity
  8
100
  6
Continuous
 62
     3
100
AcDbCircle
 10
-193.996542879213
 20
290.044738518463
 30
0.0
 40
5.999999999999352
100
AcDbArc
 50
121.2094430364593
 51
180.0
  0
ARC
  5
643
330
1F
100
AcDbEntity
  8
100
  6
Continuous
 62
     3
100
AcDbCircle
 10
-192.5
 20
297.5
 30
0.0
 40
2.5
100
AcDbArc
 50
90.0
 51
106.9775427409434
  0
ARC
  5
644
330
1F
100
AcDbEntity
  8
100
  6
Continuous
 62
     3
100
AcDbCircle
 10
-205.0
 20
290.024240303043
 30
0.0
 40
5.999999999999724
100
AcDbArc
 50
106.977542740951
 51
180.0
  0
ARC
  5
645
330
1F
100
AcDbEntity
  8
100
  6
Continuous
 62
     3
100
AcDbCircle
 10
-161.0
 20
255.400073201234
 30
0.0
 40
10.0
100
AcDbArc
 50
180.0
 51
236.6329870307681
  0
ARC
  5
646
330
1F
100
AcDbEntity
  8
100
  6
Continuous
 62
     3
100
AcDbCircle
 10
-199.0
 20
255.400073201234
 30
0.0
 40
9.999999999999972
100
AcDbArc
 50
303.3670129692318
 51
0.0
  0
CIRCLE
  5
647
330
1F
100
AcDbEntity
  8
100
  6
Continuous
 62
     3
100
AcDbCircle
 10
0.0
 20
355.5
 30
0.0
 40
10.0
  0
CIRCLE
  5
648
330
1F
100
AcDbEntity
  8
100
  6
Continuous
 62
     3
100
AcDbCircle
 10
-180.0
 20
0.0
 30
0.0
 40
13.09999999999999
  0
CIRCLE
  5
649
330
1F
100
AcDbEntity
  8
2
  6
Continuous
 62
     3
100
AcDbCircle
 10
-180.0
 20
0.0
 30
0.0
 40
12.05850000000001
  0
CIRCLE
  5
64A
330
1F
100
AcDbEntity
  8
100
  6
Continuous
 62
     3
100
AcDbCircle
 10
-180.0
 20
0.0
 30
0.0
 40
10.0
  0
LWPOLYLINE
  5
64B
330
1F
100
AcDbEntity
  8
100
  6
Continuous
 62
     3
100
AcDbPolyline
 90
       20
 70
     1
 43
0.0
 10
-11.3789596557617
 20
-1.99890446662903
 10
-11.3789596557617
 20
-1.99890446662903
 10
-11.3789596557617
 20
1.75109553337097
 10
-11.2598657976809
 20
2.18792773820784
 10
-10.9891697928476
 20
2.55185476251538
 10
-10.6049110575425
 20
2.79251109972491
 10
-10.1602096557617
 20
2.87609553337097
 10
-9.71550825398097
 20
2.79251109972491
 10
-9.33124951867584
 20
2.55185476251538
 10
-9.0605535138425
 20
2.18792773820784
 10
-8.94145965576172
 20
1.75109553337097
 10
-8.94145965576172
 20
-1.99890446662903
 10
-9.0605535138425
 20
-2.4357366714659
 10
-9.33124951867584
 20
-2.79966369577343
 10
-9.71550825398097
 20
-3.04032003298297
 10
-10.1602096557617
 20
-3.12390446662903
 10
-10.6049110575425
 20
-3.04032003298297
 10
-10.9891697928476
 20
-2.79966369577343
 10
-11.2598657976809
 20
-2.4357366714659
 10
-11.3789596557617
 20
-1.99890446662903
  0
LWPOLYLINE
  5
64C
330
1F
100
AcDbEntity
  8
100
  6
Continuous
 62
     3
100
AcDbPolyline
 90
        8
 70
     0
 43
0.0
 10
-15.6914596557617
 20
1.75109553337097
 10
-14.7539596557617
 20
2.87609553337097
 10
-13.6289596557617
 20
2.87609553337097
 10
-12.6914596557617
 20
1.75109553337097
 10
-12.6914596557617
 20
0.25109553337097
 10
-15.6914596557617
 20
-2.37390446662903
 10
-15.6914596557617
 20
-3.12390446662903
 10
-12.6914596557617
 20
-3.12390446662903
  0
LWPOLYLINE
  5
64D
330
1F
100
AcDbEntity
  8
2
  6
Continuous
 62
     2
100
AcDbPolyline
 90
        3
 70
     0
 43
0.0
 10
46.2000007629395
 20
151.925003051758
 10
52.5
 20
151.925003051758
 10
52.5
 20
155.075004577637
  0
LWPOLYLINE
  5
64E
330
1F
100
AcDbEntity
  8
2
  6
Continuous
 62
     2
100
AcDbPolyline
 90
        3
 70
     0
 43
0.0
 10
54.25
 20
297.0
 10
55.0
 20
300.0
 10
55.75
 20
297.0
  0
LWPOLYLINE
  5
64F
330
1F
100
AcDbEntity
  8
2
  6
Continuous
 62
     2
100
AcDbPolyline
 90
        3
 70
     0
 43
0.0
 10
55.75
 20
3.0
 10
55.0
 20
0.0
 10
54.25
 20
3.0
  0
LWPOLYLINE
  5
650
330
1F
100
AcDbEntity
  8
100
  6
Continuous
 62
     3
100
AcDbPolyline
 90
        2
 70
     0
 43
0.0
 10
4.39999999999998
 20
262.0
 10
4.39999999999998
 20
280.0
  0
LWPOLYLINE
  5
651
330
1F
100
AcDbEntity
  8
2
  6
Continuous
 62
     1
100
AcDbPolyline
 90
       20
 70
     0
 43
0.0
 10
13.6
 20
79.9497979778518
 10
11.9738486969133
 20
80.5004907618049
 10
10.5057632179954
 20
80.8640470882947
 10
9.0819315735014
 20
81.0690862910119
 10
8.39323129560129
 20
81.1100799291069
 10
7.72045371349344
 20
81.1100246240112
 10
6.42928484184467
 20
80.9995166081763
 10
4.97807787476323
 20
80.7409210228124
 10
3.34631035895618
 20
80.3356479094906
 10
1.12341525626216
 20
79.681690053995
 10
-0.10437257233659
 20
79.3124293961853
 10
-2.32086542560122
 20
78.7311648636456
 10
-4.09224655625565
 20
78.448461818399
 10
-5.71562573590698
 20
78.4176665533852
 10
-7.25950651838843
 20
78.642737056407
 10
-7.9165873392892
 20
78.8192641458104
 10
-8.61037293177008
 20
79.0513667025172
 10
-10.1067036656296
 20
79.6818284463701
 10
-11.7279429424935
 20
80.5223800476955
 10
-13.6
 20
81.6387291027835
  0
LWPOLYLINE
  5
652
330
1F
100
AcDbEntity
  8
2
  6
Continuous
 62
     1
100
AcDbPolyline
 90
       20
 70
     0
 43
0.0
 10
13.6
 20
75.0000000000007
 10
11.9738486969133
 20
75.5506927839538
 10
10.5057632179954
 20
75.9142491104436
 10
9.0819315735014
 20
76.1192883131609
 10
8.39323129560129
 20
76.1602819512559
 10
7.72045371349344
 20
76.1602266461601
 10
6.42928484184467
 20
76.0497186303252
 10
4.97807787476323
 20
75.7911230449614
 10
3.34631035895618
 20
75.3858499316395
 10
1.12341525626216
 20
74.7318920761439
 10
-0.10437257233659
 20
74.3626314183342
 10
-2.32086542560122
 20
73.7813668857945
 10
-4.09224655625565
 20
73.4986638405479
 10
-5.71562573590698
 20
73.4678685755341
 10
-7.25950651838843
 20
73.692939078556
 10
-7.9165873392892
 20
73.8694661679593
 10
-8.61037293177008
 20
74.1015687246661
 10
-10.1067036656296
 20
74.732030468519
 10
-11.7279429424935
 20
75.5725820698445
 10
-13.6
 20
76.6889311249324
  0
LWPOLYLINE
  5
653
330
1F
100
AcDbEntity
  8
100
  6
Continuous
 62
     3
100
AcDbPolyline
 90
        2
 70
     0
 43
0.0
 10
114.4
 20
262.0
 10
114.4
 20
280.0
  0
LWPOLYLINE
  5
654
330
1F
100
AcDbEntity
  8
2
  6
Continuous
 62
     1
100
AcDbPolyline
 90
       20
 70
     0
 43
0.0
 10
96.4
 20
80.0000000000007
 10
98.0261513030867
 20
80.5506927839539
 10
99.4942367820046
 20
80.9142491104437
 10
100.918068426499
 20
81.1192883131609
 10
101.606768704399
 20
81.1602819512559
 10
102.279546286507
 20
81.1602266461601
 10
103.570715158155
 20
81.0497186303252
 10
105.021922125237
 20
80.7911230449614
 10
106.653689641044
 20
80.3858499316395
 10
108.876584743738
 20
79.7318920761439
 10
110.104372572337
 20
79.3626314183342
 10
112.320865425601
 20
78.7813668857945
 10
114.092246556256
 20
78.4986638405479
 10
115.715625735907
 20
78.4678685755341
 10
117.259506518388
 20
78.692939078556
 10
117.916587339289
 20
78.8694661679593
 10
118.61037293177
 20
79.1015687246662
 10
120.10670366563
 20
79.7320304685191
 10
121.727942942493
 20
80.5725820698445
 10
123.6
 20
81.6889311249324
  0
LWPOLYLINE
  5
655
330
1F
100
AcDbEntity
  8
2
  6
Continuous
 62
     1
100
AcDbPolyline
 90
       20
 70
     0
 43
0.0
 10
96.4
 20
75.0000000000007
 10
98.0261513030867
 20
75.5506927839539
 10
99.4942367820046
 20
75.9142491104437
 10
100.918068426499
 20
76.1192883131609
 10
101.606768704399
 20
76.1602819512559
 10
102.279546286507
 20
76.1602266461601
 10
103.570715158155
 20
76.0497186303252
 10
105.021922125237
 20
75.7911230449614
 10
106.653689641044
 20
75.3858499316395
 10
108.876584743738
 20
74.7318920761439
 10
110.104372572337
 20
74.3626314183342
 10
112.320865425601
 20
73.7813668857945
 10
114.092246556256
 20
73.4986638405479
 10
115.715625735907
 20
73.4678685755341
 10
117.259506518388
 20
73.692939078556
 10
117.916587339289
 20
73.8694661679593
 10
118.61037293177
 20
74.1015687246662
 10
120.10670366563
 20
74.7320304685191
 10
121.727942942493
 20
75.5725820698445
 10
123.6
 20
76.6889311249324
  0
LWPOLYLINE
  5
656
330
1F
100
AcDbEntity
  8
100
  6
Continuous
 62
     3
100
AcDbPolyline
 90
        2
 70
     0
 43
0.0
 10
-175.6
 20
262.0
 10
-175.6
 20
280.0
  0
LWPOLYLINE
  5
657
330
1F
100
AcDbEntity
  8
2
  6
Continuous
 62
     1
100
AcDbPolyline
 90
       20
 70
     0
 43
0.0
 10
-166.4
 20
75.0000000000007
 10
-168.026151303087
 20
75.5506927839538
 10
-169.494236782005
 20
75.9142491104436
 10
-170.918068426499
 20
76.1192883131609
 10
-171.606768704399
 20
76.1602819512559
 10
-172.279546286507
 20
76.1602266461601
 10
-173.570715158155
 20
76.0497186303252
 10
-175.021922125237
 20
75.7911230449614
 10
-176.653689641044
 20
75.3858499316395
 10
-178.876584743738
 20
74.7318920761439
 10
-180.104372572337
 20
74.3626314183342
 10
-182.320865425601
 20
73.7813668857945
 10
-184.092246556256
 20
73.4986638405479
 10
-185.715625735907
 20
73.4678685755341
 10
-187.259506518388
 20
73.692939078556
 10
-187.916587339289
 20
73.8694661679593
 10
-188.61037293177
 20
74.1015687246661
 10
-190.10670366563
 20
74.732030468519
 10
-191.727942942494
 20
75.5725820698445
 10
-193.6
 20
76.6889311249324
  0
LWPOLYLINE
  5
658
330
1F
100
AcDbEntity
  8
2
  6
Continuous
 62
     1
100
AcDbPolyline
 90
       20
 70
     0
 43
0.0
 10
-166.4
 20
79.9497979778518
 10
-168.026151303087
 20
80.5004907618049
 10
-169.494236782005
 20
80.8640470882947
 10
-170.918068426499
 20
81.0690862910119
 10
-171.606768704399
 20
81.1100799291069
 10
-172.279546286507
 20
81.1100246240112
 10
-173.570715158155
 20
80.9995166081763
 10
-175.021922125237
 20
80.7409210228124
 10
-176.653689641044
 20
80.3356479094906
 10
-178.876584743738
 20
79.681690053995
 10
-180.104372572337
 20
79.3124293961853
 10
-182.320865425601
 20
78.7311648636456
 10
-184.092246556256
 20
78.448461818399
 10
-185.715625735907
 20
78.4176665533852
 10
-187.259506518388
 20
78.642737056407
 10
-187.916587339289
 20
78.8192641458104
 10
-188.61037293177
 20
79.0513667025172
 10
-190.10670366563
 20
79.6818284463701
 10
-191.727942942494
 20
80.5223800476955
 10
-193.6
 20
81.6387291027835
  0
LEADER
  5
659
330
1F
100
AcDbEntity
  8
1
  6
Continuous
 62
     4
100
AcDbLeader
  3
Standard
 71
     0
 76
     3
 10
-86.4699935913086
 20
-13.0999994277954
 30
0.0
 10
-102.112697495863
 20
-32.7737424822409
 30
0.0
 10
-139.395525857131
 20
-32.7737424822409
 30
0.0
  0
LEADER
  5
65A
330
1F
100
AcDbEntity
  8
1
  6
Continuous
 62
     4
100
AcDbLeader
  3
Standard
 71
     0
 76
     3
 10
13.1
 20
-83.5256124752824
 30
0.0
 10
28.4944655669324
 20
-102.003815164815
 30
0.0
 10
68.1490155865035
 20
-102.003815164815
 30
0.0
  0
ENDSEC
  0
SECTION
  2
OBJECTS
  0
DICTIONARY
  5
C
330
0
100
AcDbDictionary
281
     1
  3
ACAD_GROUP
350
D
  3
ACAD_LAYOUT
350
1A
  3
ACAD_MATERIAL
350
3B
  3
ACAD_MLEADERSTYLE
350
65D
  3
ACAD_MLINESTYLE
350
17
  3
ACAD_PLOTSETTINGS
350
19
  3
ACAD_PLOTSTYLENAME
350
E
  3
ACAD_VISUALSTYLE
350
2A
  3
AcDbVariableDictionary
350
65B
  0
DICTIONARY
  5
D
102
{ACAD_REACTORS
330
C
102
}
330
C
100
AcDbDictionary
281
     1
  0
DICTIONARY
  5
1A
102
{ACAD_REACTORS
330
C
102
}
330
C
100
AcDbDictionary
281
     1
  3
Layout1
350
1E
  3
Layout2
350
26
  3
Model
350
22
  0
DICTIONARY
  5
3B
102
{ACAD_REACTORS
330
C
102
}
330
C
100
AcDbDictionary
281
     1
  3
ByBlock
350
3D
  3
ByLayer
350
3C
  3
Global
350
3E
  0
DICTIONARY
  5
65D
102
{ACAD_REACTORS
330
C
102
}
330
C
100
AcDbDictionary
281
     1
  0
DICTIONARY
  5
17
102
{ACAD_REACTORS
330
C
102
}
330
C
100
AcDbDictionary
281
     1
  3
Standard
350
18
  0
DICTIONARY
  5
19
102
{ACAD_REACTORS
330
C
102
}
330
C
100
AcDbDictionary
281
     1
  0
ACDBDICTIONARYWDFLT
  5
E
102
{ACAD_REACTORS
330
C
102
}
330
C
100
AcDbDictionary
281
     1
  3
Normal
350
F
100
AcDbDictionaryWithDefault
340
F
  0
DICTIONARY
  5
2A
102
{ACAD_REACTORS
330
C
102
}
330
C
100
AcDbDictionary
281
     1
  3
2dWireframe
350
2F
  3
3D Hidden
350
31
  3
3dWireframe
350
30
  3
Basic
350
32
  3
Brighten
350
36
  3
ColorChange
350
3A
  3
Conceptual
350
34
  3
Dim
350
35
  3
Facepattern
350
39
  3
Flat
350
2B
  3
FlatWithEdges
350
2C
  3
Gouraud
350
2D
  3
GouraudWithEdges
350
2E
  3
Linepattern
350
38
  3
Realistic
350
33
  3
Thicken
350
37
  0
DICTIONARY
  5
65B
102
{ACAD_REACTORS
330
C
102
}
330
C
100
AcDbDictionary
281
     1
  3
DIMASSOC
350
65E
  3
HIDETEXT
350
65F
  0
LAYOUT
  5
1E
102
{ACAD_REACTORS
330
1A
102
}
330
1A
100
AcDbPlotSettings
  1

  2
none_device
  4

  6

 40
0.0
 41
0.0
 42
0.0
 43
0.0
 44
0.0
 45
0.0
 46
0.0
 47
0.0
 48
0.0
 49
0.0
140
0.0
141
0.0
142
1.0
143
1.0
 70
   688
 72
     0
 73
     0
 74
     5
  7

 75
    16
147
1.0
148
0.0
149
0.0
100
AcDbLayout
  1
Layout1
 70
     1
 71
     1
 10
0.0
 20
0.0
 11
12.0
 21
9.0
 12
0.0
 22
0.0
 32
0.0
 14
1.00000000000000E+20
 24
1.00000000000000E+20
 34
1.00000000000000E+20
 15
-1.00000000000000E+20
 25
-1.00000000000000E+20
 35
-1.00000000000000E+20
146
0.0
 13
0.0
 23
0.0
 33
0.0
 16
1.0
 26
0.0
 36
0.0
 17
0.0
 27
1.0
 37
0.0
 76
     0
330
1B
  0
LAYOUT
  5
26
102
{ACAD_REACTORS
330
1A
102
}
330
1A
100
AcDbPlotSettings
  1

  2
none_device
  4

  6

 40
0.0
 41
0.0
 42
0.0
 43
0.0
 44
0.0
 45
0.0
 46
0.0
 47
0.0
 48
0.0
 49
0.0
140
0.0
141
0.0
142
1.0
143
1.0
 70
   688
 72
     0
 73
     0
 74
     5
  7

 75
    16
147
1.0
148
0.0
149
0.0
100
AcDbLayout
  1
Layout2
 70
     1
 71
     2
 10
0.0
 20
0.0
 11
0.0
 21
0.0
 12
0.0
 22
0.0
 32
0.0
 14
0.0
 24
0.0
 34
0.0
 15
0.0
 25
0.0
 35
0.0
146
0.0
 13
0.0
 23
0.0
 33
0.0
 16
1.0
 26
0.0
 36
0.0
 17
0.0
 27
1.0
 37
0.0
 76
     0
330
23
  0
LAYOUT
  5
22
102
{ACAD_REACTORS
330
1A
102
}
330
1A
100
AcDbPlotSettings
  1

  2
none_device
  4

  6

 40
0.0
 41
0.0
 42
0.0
 43
0.0
 44
0.0
 45
0.0
 46
0.0
 47
0.0
 48
0.0
 49
0.0
140
0.0
141
0.0
142
1.0
143
1.0
 70
  1712
 72
     0
 73
     0
 74
     0
  7

 75
     0
147
1.0
148
0.0
149
0.0
100
AcDbLayout
  1
Model
 70
     1
 71
     0
 10
0.0
 20
0.0
 11
12.0
 21
9.0
 12
0.0
 22
0.0
 32
0.0
 14
-211.0
 24
-119.036887370042
 34
0.0
 15
224.837903540621
 25
389.0
 35
0.0
146
0.0
 13
0.0
 23
0.0
 33
0.0
 16
1.0
 26
0.0
 36
0.0
 17
0.0
 27
1.0
 37
0.0
 76
     0
330
1F
331
29
  0
MATERIAL
  5
3D
102
{ACAD_REACTORS
330
3B
102
}
102
{ACAD_XDICTIONARY
360
682
102
}
330
3B
100
AcDbMaterial
  1
ByBlock
  0
MATERIAL
  5
3C
102
{ACAD_REACTORS
330
3B
102
}
102
{ACAD_XDICTIONARY
360
680
102
}
330
3B
100
AcDbMaterial
  1
ByLayer
  0
MATERIAL
  5
3E
102
{ACAD_REACTORS
330
3B
102
}
102
{ACAD_XDICTIONARY
360
684
102
}
330
3B
100
AcDbMaterial
  1
Global
  0
MLINESTYLE
  5
18
102
{ACAD_REACTORS
330
17
102
}
330
17
100
AcDbMlineStyle
  2
Standard
 70
     0
  3

 62
   256
 51
90.0
 52
90.0
 71
     2
 49
0.5
 62
   256
  6
BYLAYER
 49
-0.5
 62
   256
  6
BYLAYER
  0
ACDBPLACEHOLDER
  5
F
102
{ACAD_REACTORS
330
E
102
}
330
E
  0
VISUALSTYLE
  5
2F
102
{ACAD_REACTORS
330
2A
102
}
102
{ACAD_XDICTIONARY
360
668
102
}
330
2A
100
AcDbVisualStyle
  2
2dWireframe
 70
     4
 71
     0
 72
     2
 73
     0
 90
        0
 40
-0.6
 41
-30.0
 62
     5
 63
     7
 74
     1
 91
        4
 64
     7
 65
   257
 75
     1
175
     1
 42
1.0
 92
        0
 66
   257
 43
1.0
 76
     1
 77
     6
 78
     2
 67
     7
 79
     5
170
     0
171
     0
290
     0
174
     0
 93
        1
 44
0.0
173
     0
291
     0
 45
0.0
1001
ACAD
1000
AcDbSavedByObjectVersion
1070
     0
  0
VISUALSTYLE
  5
31
102
{ACAD_REACTORS
330
2A
102
}
102
{ACAD_XDICTIONARY
360
66C
102
}
330
2A
100
AcDbVisualStyle
  2
3D Hidden
 70
     6
 71
     1
 72
     2
 73
     2
 90
        0
 40
-0.6
 41
-30.0
 62
     5
 63
     7
 74
     2
 91
        2
 64
     7
 65
   257
 75
     2
175
     1
 42
40.0
 92
        0
 66
   257
 43
1.0
 76
     1
 77
     6
 78
     2
 67
     7
 79
     3
170
     0
171
     0
290
     0
174
     0
 93
        1
 44
0.0
173
     0
291
     0
 45
0.0
1001
ACAD
1000
AcDbSavedByObjectVersion
1070
     0
  0
VISUALSTYLE
  5
30
102
{ACAD_REACTORS
330
2A
102
}
102
{ACAD_XDICTIONARY
360
66A
102
}
330
2A
100
AcDbVisualStyle
  2
3dWireframe
 70
     5
 71
     0
 72
     2
 73
     0
 90
        0
 40
-0.6
 41
-30.0
 62
     5
 63
     7
 74
     1
 91
        4
 64
     7
 65
   257
 75
     1
175
     1
 42
1.0
 92
        0
 66
   257
 43
1.0
 76
     1
 77
     6
 78
     2
 67
     7
 79
     5
170
     0
171
     0
290
     0
174
     0
 93
        1
 44
0.0
173
     0
291
     0
 45
0.0
1001
ACAD
1000
AcDbSavedByObjectVersion
1070
     0
  0
VISUALSTYLE
  5
32
102
{ACAD_REACTORS
330
2A
102
}
102
{ACAD_XDICTIONARY
360
66E
102
}
330
2A
100
AcDbVisualStyle
  2
Basic
 70
     7
 71
     1
 72
     0
 73
     1
 90
        0
 40
-0.6
 41
-30.0
 62
     5
 63
     7
 74
     0
 91
        4
 64
     7
 65
   257
 75
     1
175
     1
 42
1.0
 92
        8
 66
     7
 43
1.0
 76
     1
 77
     6
 78
     2
 67
     7
 79
     5
170
     0
171
     0
290
     0
174
     0
 93
        1
 44
0.0
173
     0
291
     1
 45
0.0
1001
ACAD
1000
AcDbSavedByObjectVersion
1070
     0
  0
VISUALSTYLE
  5
36
102
{ACAD_REACTORS
330
2A
102
}
102
{ACAD_XDICTIONARY
360
676
102
}
330
2A
100
AcDbVisualStyle
  2
Brighten
 70
    12
 71
     2
 72
     2
 73
     0
 90
        0
 40
-0.6
 41
-30.0
 62
     5
 63
     7
 74
     1
 91
        4
 64
     7
 65
   257
 75
     1
175
     1
 42
1.0
 92
        8
 66
     7
 43
1.0
 76
     1
 77
     6
 78
     2
 67
     7
 79
     5
170
     0
171
     0
290
     0
174
     0
 93
        1
 44
50.0
173
     0
291
     1
 45
0.0
1001
ACAD
1000
AcDbSavedByObjectVersion
1070
     0
  0
VISUALSTYLE
  5
3A
102
{ACAD_REACTORS
330
2A
102
}
102
{ACAD_XDICTIONARY
360
67E
102
}
330
2A
100
AcDbVisualStyle
  2
ColorChange
 70
    16
 71
     2
 72
     2
 73
     3
 90
        0
 40
-0.6
 41
-30.0
 62
     5
 63
     8
 74
     1
 91
        4
 64
     7
 65
   257
 75
     1
175
     1
 42
1.0
 92
        8
 66
     8
 43
1.0
 76
     1
 77
     6
 78
     2
 67
     7
 79
     5
170
     0
171
     0
290
     0
174
     0
 93
        1
 44
0.0
173
     0
291
     1
 45
0.0
1001
ACAD
1000
AcDbSavedByObjectVersion
1070
     0
  0
VISUALSTYLE
  5
34
102
{ACAD_REACTORS
330
2A
102
}
102
{ACAD_XDICTIONARY
360
672
102
}
330
2A
100
AcDbVisualStyle
  2
Conceptual
 70
     9
 71
     3
 72
     2
 73
     0
 90
        0
 40
-0.6
 41
-30.0
 62
     5
 63
     7
 74
     2
 91
        2
 64
     7
 65
   257
 75
     1
175
     1
 42
40.0
 92
        8
 66
     7
 43
1.0
 76
     1
 77
     6
 78
     2
 67
     7
 79
     3
170
     0
171
     0
290
     0
174
     0
 93
        1
 44
0.0
173
     0
291
     0
 45
0.0
1001
ACAD
1000
AcDbSavedByObjectVersion
1070
     0
  0
VISUALSTYLE
  5
35
102
{ACAD_REACTORS
330
2A
102
}
102
{ACAD_XDICTIONARY
360
674
102
}
330
2A
100
AcDbVisualStyle
  2
Dim
 70
    11
 71
     2
 72
     2
 73
     0
 90
        0
 40
-0.6
 41
-30.0
 62
     5
 63
     7
 74
     1
 91
        4
 64
     7
 65
   257
 75
     1
175
     1
 42
1.0
 92
        8
 66
     7
 43
1.0
 76
     1
 77
     6
 78
     2
 67
     7
 79
     5
170
     0
171
     0
290
     0
174
     0
 93
        1
 44
-50.0
173
     0
291
     1
 45
0.0
1001
ACAD
1000
AcDbSavedByObjectVersion
1070
     0
  0
VISUALSTYLE
  5
39
102
{ACAD_REACTORS
330
2A
102
}
102
{ACAD_XDICTIONARY
360
67C
102
}
330
2A
100
AcDbVisualStyle
  2
Facepattern
 70
    15
 71
     2
 72
     2
 73
     0
 90
        0
 40
-0.6
 41
-30.0
 62
     5
 63
     7
 74
     1
 91
        4
 64
     7
 65
   257
 75
     1
175
     1
 42
1.0
 92
        8
 66
     7
 43
1.0
 76
     1
 77
     6
 78
     2
 67
     7
 79
     5
170
     0
171
     0
290
     0
174
     0
 93
        1
 44
0.0
173
     0
291
     1
 45
0.0
1001
ACAD
1000
AcDbSavedByObjectVersion
1070
     0
  0
VISUALSTYLE
  5
2B
102
{ACAD_REACTORS
330
2A
102
}
102
{ACAD_XDICTIONARY
360
660
102
}
330
2A
100
AcDbVisualStyle
  2
Flat
 70
     0
 71
     2
 72
     1
 73
     1
 90
        2
 40
-0.6
 41
30.0
 62
     5
 63
     7
 74
     0
 91
        4
 64
     7
 65
   257
 75
     1
175
     1
 42
1.0
 92
        8
 66
     7
 43
1.0
 76
     1
 77
     6
 78
     2
 67
     7
 79
     5
170
     0
171
     0
290
     0
174
     0
 93
       13
 44
0.0
173
     0
291
     1
 45
0.0
1001
ACAD
1000
AcDbSavedByObjectVersion
1070
     0
  0
VISUALSTYLE
  5
2C
102
{ACAD_REACTORS
330
2A
102
}
102
{ACAD_XDICTIONARY
360
662
102
}
330
2A
100
AcDbVisualStyle
  2
FlatWithEdges
 70
     1
 71
     2
 72
     1
 73
     1
 90
        2
 40
-0.6
 41
30.0
 62
     5
 63
     7
 74
     1
 91
        4
 64
     7
 65
   257
 75
     1
175
     1
 42
1.0
 92
        0
 66
   257
 43
1.0
 76
     1
 77
     6
 78
     2
 67
     7
 79
     5
170
     0
171
     0
290
     0
174
     0
 93
       13
 44
0.0
173
     0
291
     1
 45
0.0
1001
ACAD
1000
AcDbSavedByObjectVersion
1070
     0
  0
VISUALSTYLE
  5
2D
102
{ACAD_REACTORS
330
2A
102
}
102
{ACAD_XDICTIONARY
360
664
102
}
330
2A
100
AcDbVisualStyle
  2
Gouraud
 70
     2
 71
     2
 72
     2
 73
     1
 90
        2
 40
-0.6
 41
30.0
 62
     5
 63
     7
 74
     0
 91
        4
 64
     7
 65
   257
 75
     1
175
     1
 42
1.0
 92
        0
 66
     7
 43
1.0
 76
     1
 77
     6
 78
     2
 67
     7
 79
     5
170
     0
171
     0
290
     0
174
     0
 93
       13
 44
0.0
173
     0
291
     1
 45
0.0
1001
ACAD
1000
AcDbSavedByObjectVersion
1070
     0
  0
VISUALSTYLE
  5
2E
102
{ACAD_REACTORS
330
2A
102
}
102
{ACAD_XDICTIONARY
360
666
102
}
330
2A
100
AcDbVisualStyle
  2
GouraudWithEdges
 70
     3
 71
     2
 72
     2
 73
     1
 90
        2
 40
-0.6
 41
30.0
 62
     5
 63
     7
 74
     1
 91
        4
 64
     7
 65
   257
 75
     1
175
     1
 42
1.0
 92
        0
 66
   257
 43
1.0
 76
     1
 77
     6
 78
     2
 67
     7
 79
     5
170
     0
171
     0
290
     0
174
     0
 93
       13
 44
0.0
173
     0
291
     1
 45
0.0
1001
ACAD
1000
AcDbSavedByObjectVersion
1070
     0
  0
VISUALSTYLE
  5
38
102
{ACAD_REACTORS
330
2A
102
}
102
{ACAD_XDICTIONARY
360
67A
102
}
330
2A
100
AcDbVisualStyle
  2
Linepattern
 70
    14
 71
     2
 72
     2
 73
     0
 90
        0
 40
-0.6
 41
-30.0
 62
     5
 63
     7
 74
     1
 91
        4
 64
     7
 65
   257
 75
     7
175
     7
 42
1.0
 92
        8
 66
     7
 43
1.0
 76
     1
 77
     6
 78
     2
 67
     7
 79
     5
170
     0
171
     0
290
     0
174
     0
 93
        1
 44
0.0
173
     0
291
     1
 45
0.0
1001
ACAD
1000
AcDbSavedByObjectVersion
1070
     0
  0
VISUALSTYLE
  5
33
102
{ACAD_REACTORS
330
2A
102
}
102
{ACAD_XDICTIONARY
360
670
102
}
330
2A
100
AcDbVisualStyle
  2
Realistic
 70
     8
 71
     2
 72
     2
 73
     0
 90
        0
 40
-0.6
 41
-30.0
 62
     5
 63
     7
 74
     1
 91
        0
 64
     7
 65
   257
 75
     1
175
     1
 42
1.0
 92
        8
 66
     8
 43
1.0
 76
     1
 77
     6
 78
     2
 67
     7
 79
     5
170
     0
171
     0
290
     0
174
     0
 93
       13
 44
0.0
173
     0
291
     0
 45
0.0
1001
ACAD
1000
AcDbSavedByObjectVersion
1070
     0
  0
VISUALSTYLE
  5
37
102
{ACAD_REACTORS
330
2A
102
}
102
{ACAD_XDICTIONARY
360
678
102
}
330
2A
100
AcDbVisualStyle
  2
Thicken
 70
    13
 71
     2
 72
     2
 73
     0
 90
        0
 40
-0.6
 41
-30.0
 62
     5
 63
     7
 74
     1
 91
        4
 64
     7
 65
   257
 75
     1
175
     1
 42
1.0
 92
       12
 66
     7
 43
1.0
 76
     1
 77
     6
 78
     2
 67
     7
 79
     5
170
     0
171
     0
290
     0
174
     0
 93
        1
 44
0.0
173
     0
291
     1
 45
0.0
1001
ACAD
1000
AcDbSavedByObjectVersion
1070
     0
  0
DICTIONARYVAR
  5
65E
102
{ACAD_REACTORS
330
65B
102
}
330
65B
100
DictionaryVariables
280
     0
  1
2
  0
DICTIONARYVAR
  5
65F
102
{ACAD_REACTORS
330
65B
102
}
330
65B
100
DictionaryVariables
280
     0
  1
1
  0
DICTIONARY
  5
682
330
3D
100
AcDbDictionary
280
     1
281
     1
  3
ACAD_XREC_ROUNDTRIP
360
683
  0
DICTIONARY
  5
680
330
3C
100
AcDbDictionary
280
     1
281
     1
  3
ACAD_XREC_ROUNDTRIP
360
681
  0
DICTIONARY
  5
684
330
3E
100
AcDbDictionary
280
     1
281
     1
  3
ACAD_XREC_ROUNDTRIP
360
685
  0
DICTIONARY
  5
668
330
2F
100
AcDbDictionary
280
     1
281
     1
  3
ACAD_XREC_ROUNDTRIP
360
669
  0
DICTIONARY
  5
66C
330
31
100
AcDbDictionary
280
     1
281
     1
  3
ACAD_XREC_ROUNDTRIP
360
66D
  0
DICTIONARY
  5
66A
330
30
100
AcDbDictionary
280
     1
281
     1
  3
ACAD_XREC_ROUNDTRIP
360
66B
  0
DICTIONARY
  5
66E
330
32
100
AcDbDictionary
280
     1
281
     1
  3
ACAD_XREC_ROUNDTRIP
360
66F
  0
DICTIONARY
  5
676
330
36
100
AcDbDictionary
280
     1
281
     1
  3
ACAD_XREC_ROUNDTRIP
360
677
  0
DICTIONARY
  5
67E
330
3A
100
AcDbDictionary
280
     1
281
     1
  3
ACAD_XREC_ROUNDTRIP
360
67F
  0
DICTIONARY
  5
672
330
34
100
AcDbDictionary
280
     1
281
     1
  3
ACAD_XREC_ROUNDTRIP
360
673
  0
DICTIONARY
  5
674
330
35
100
AcDbDictionary
280
     1
281
     1
  3
ACAD_XREC_ROUNDTRIP
360
675
  0
DICTIONARY
  5
67C
330
39
100
AcDbDictionary
280
     1
281
     1
  3
ACAD_XREC_ROUNDTRIP
360
67D
  0
DICTIONARY
  5
660
330
2B
100
AcDbDictionary
280
     1
281
     1
  3
ACAD_XREC_ROUNDTRIP
360
661
  0
DICTIONARY
  5
662
330
2C
100
AcDbDictionary
280
     1
281
     1
  3
ACAD_XREC_ROUNDTRIP
360
663
  0
DICTIONARY
  5
664
330
2D
100
AcDbDictionary
280
     1
281
     1
  3
ACAD_XREC_ROUNDTRIP
360
665
  0
DICTIONARY
  5
666
330
2E
100
AcDbDictionary
280
     1
281
     1
  3
ACAD_XREC_ROUNDTRIP
360
667
  0
DICTIONARY
  5
67A
330
38
100
AcDbDictionary
280
     1
281
     1
  3
ACAD_XREC_ROUNDTRIP
360
67B
  0
DICTIONARY
  5
670
330
33
100
AcDbDictionary
280
     1
281
     1
  3
ACAD_XREC_ROUNDTRIP
360
671
  0
DICTIONARY
  5
678
330
37
100
AcDbDictionary
280
     1
281
     1
  3
ACAD_XREC_ROUNDTRIP
360
679
  0
XRECORD
  5
683
102
{ACAD_REACTORS
330
682
102
}
330
682
100
AcDbXrecord
280
     1
102
MATERIAL
148
0.0
149
0.0
149
0.0
 93
        0
 94
      127
282
     0
 72
     1
 77
     1
171
     1
175
     1
179
     1
273
     0
  0
XRECORD
  5
681
102
{ACAD_REACTORS
330
680
102
}
330
680
100
AcDbXrecord
280
     1
102
MATERIAL
148
0.0
149
0.0
149
0.0
 93
        0
 94
      127
282
     0
 72
     1
 77
     1
171
     1
175
     1
179
     1
273
     0
  0
XRECORD
  5
685
102
{ACAD_REACTORS
330
684
102
}
330
684
100
AcDbXrecord
280
     1
102
MATERIAL
148
0.0
149
0.0
149
0.0
 93
        0
 94
      127
282
     0
 72
     1
 77
     1
171
     1
175
     1
179
     1
273
     0
  0
XRECORD
  5
669
102
{ACAD_REACTORS
330
668
102
}
330
668
100
AcDbXrecord
280
     1
102
RTVSPropertyOp0
 70
     1
102
RTVSPropertyOp1
 70
     1
102
RTVSPropertyOp2
 70
     1
102
RTVSPropertyOp3
 70
     1
102
RTVSPropertyOp4
 70
     1
102
RTVSPropertyOp5
 70
     1
102
RTVSPropertyOp6
 70
     1
102
RTVSPropertyOp7
 70
     1
102
RTVSPropertyOp8
 70
     1
102
RTVSPropertyOp9
 70
     1
102
RTVSPropertyOp10
 70
     1
102
RTVSPropertyOp11
 70
     1
102
RTVSPropertyOp12
 70
     1
102
RTVSPropertyOp13
 70
     1
102
RTVSPropertyOp14
 70
     1
102
RTVSPropertyOp15
 70
     1
102
RTVSPropertyOp16
 70
     1
102
RTVSPropertyOp17
 70
     1
102
RTVSPropertyOp18
 70
     1
102
RTVSPropertyOp19
 70
     1
102
RTVSPropertyOp20
 70
     1
102
RTVSPropertyOp21
 70
     1
102
RTVSPropertyOp22
 70
     1
102
RTVSPropertyOp23
 70
     1
102
RTVSPropertyOp24
 70
     1
102
RTVSPropertyOp25
 70
     1
102
RTVSPropertyOp26
 70
     1
102
RTVSPropertyOp27
 70
     1
  0
XRECORD
  5
66D
102
{ACAD_REACTORS
330
66C
102
}
330
66C
100
AcDbXrecord
280
     1
102
RTVSPropertyOp0
 70
     1
102
RTVSPropertyOp1
 70
     1
102
RTVSPropertyOp2
 70
     1
102
RTVSPropertyOp3
 70
     1
102
RTVSPropertyOp4
 70
     1
102
RTVSPropertyOp5
 70
     1
102
RTVSPropertyOp6
 70
     1
102
RTVSPropertyOp7
 70
     1
102
RTVSPropertyOp8
 70
     1
102
RTVSPropertyOp9
 70
     1
102
RTVSPropertyOp10
 70
     1
102
RTVSPropertyOp11
 70
     1
102
RTVSPropertyOp12
 70
     1
102
RTVSPropertyOp13
 70
     1
102
RTVSPropertyOp14
 70
     1
102
RTVSPropertyOp15
 70
     1
102
RTVSPropertyOp16
 70
     1
102
RTVSPropertyOp17
 70
     1
102
RTVSPropertyOp18
 70
     1
102
RTVSPropertyOp19
 70
     1
102
RTVSPropertyOp20
 70
     1
102
RTVSPropertyOp21
 70
     1
102
RTVSPropertyOp22
 70
     1
102
RTVSPropertyOp23
 70
     1
102
RTVSPropertyOp24
 70
     1
102
RTVSPropertyOp25
 70
     1
102
RTVSPropertyOp26
 70
     1
102
RTVSPropertyOp27
 70
     1
  0
XRECORD
  5
66B
102
{ACAD_REACTORS
330
66A
102
}
330
66A
100
AcDbXrecord
280
     1
102
RTVSPropertyOp0
 70
     1
102
RTVSPropertyOp1
 70
     1
102
RTVSPropertyOp2
 70
     1
102
RTVSPropertyOp3
 70
     1
102
RTVSPropertyOp4
 70
     1
102
RTVSPropertyOp5
 70
     1
102
RTVSPropertyOp6
 70
     1
102
RTVSPropertyOp7
 70
     1
102
RTVSPropertyOp8
 70
     1
102
RTVSPropertyOp9
 70
     1
102
RTVSPropertyOp10
 70
     1
102
RTVSPropertyOp11
 70
     1
102
RTVSPropertyOp12
 70
     1
102
RTVSPropertyOp13
 70
     1
102
RTVSPropertyOp14
 70
     1
102
RTVSPropertyOp15
 70
     1
102
RTVSPropertyOp16
 70
     1
102
RTVSPropertyOp17
 70
     1
102
RTVSPropertyOp18
 70
     1
102
RTVSPropertyOp19
 70
     1
102
RTVSPropertyOp20
 70
     1
102
RTVSPropertyOp21
 70
     1
102
RTVSPropertyOp22
 70
     1
102
RTVSPropertyOp23
 70
     1
102
RTVSPropertyOp24
 70
     1
102
RTVSPropertyOp25
 70
     1
102
RTVSPropertyOp26
 70
     1
102
RTVSPropertyOp27
 70
     1
  0
XRECORD
  5
66F
102
{ACAD_REACTORS
330
66E
102
}
330
66E
100
AcDbXrecord
280
     1
102
RTVSPropertyOp0
 70
     1
102
RTVSPropertyOp1
 70
     1
102
RTVSPropertyOp2
 70
     1
102
RTVSPropertyOp3
 70
     1
102
RTVSPropertyOp4
 70
     1
102
RTVSPropertyOp5
 70
     1
102
RTVSPropertyOp6
 70
     1
102
RTVSPropertyOp7
 70
     1
102
RTVSPropertyOp8
 70
     1
102
RTVSPropertyOp9
 70
     1
102
RTVSPropertyOp10
 70
     1
102
RTVSPropertyOp11
 70
     1
102
RTVSPropertyOp12
 70
     1
102
RTVSPropertyOp13
 70
     1
102
RTVSPropertyOp14
 70
     1
102
RTVSPropertyOp15
 70
     1
102
RTVSPropertyOp16
 70
     1
102
RTVSPropertyOp17
 70
     1
102
RTVSPropertyOp18
 70
     1
102
RTVSPropertyOp19
 70
     1
102
RTVSPropertyOp20
 70
     1
102
RTVSPropertyOp21
 70
     1
102
RTVSPropertyOp22
 70
     1
102
RTVSPropertyOp23
 70
     1
102
RTVSPropertyOp24
 70
     1
102
RTVSPropertyOp25
 70
     1
102
RTVSPropertyOp26
 70
     1
102
RTVSPropertyOp27
 70
     1
  0
XRECORD
  5
677
102
{ACAD_REACTORS
330
676
102
}
330
676
100
AcDbXrecord
280
     1
102
RTVSPropertyOp0
 70
     1
102
RTVSPropertyOp1
 70
     1
102
RTVSPropertyOp2
 70
     1
102
RTVSPropertyOp3
 70
     1
102
RTVSPropertyOp4
 70
     1
102
RTVSPropertyOp5
 70
     1
102
RTVSPropertyOp6
 70
     1
102
RTVSPropertyOp7
 70
     1
102
RTVSPropertyOp8
 70
     1
102
RTVSPropertyOp9
 70
     1
102
RTVSPropertyOp10
 70
     1
102
RTVSPropertyOp11
 70
     1
102
RTVSPropertyOp12
 70
     1
102
RTVSPropertyOp13
 70
     1
102
RTVSPropertyOp14
 70
     1
102
RTVSPropertyOp15
 70
     1
102
RTVSPropertyOp16
 70
     1
102
RTVSPropertyOp17
 70
     1
102
RTVSPropertyOp18
 70
     1
102
RTVSPropertyOp19
 70
     1
102
RTVSPropertyOp20
 70
     1
102
RTVSPropertyOp21
 70
     1
102
RTVSPropertyOp22
 70
     1
102
RTVSPropertyOp23
 70
     1
102
RTVSPropertyOp24
 70
     1
102
RTVSPropertyOp25
 70
     1
102
RTVSPropertyOp26
 70
     1
102
RTVSPropertyOp27
 70
     1
  0
XRECORD
  5
67F
102
{ACAD_REACTORS
330
67E
102
}
330
67E
100
AcDbXrecord
280
     1
102
RTVSPropertyOp0
 70
     1
102
RTVSPropertyOp1
 70
     1
102
RTVSPropertyOp2
 70
     1
102
RTVSPropertyOp3
 70
     1
102
RTVSPropertyOp4
 70
     1
102
RTVSPropertyOp5
 70
     1
102
RTVSPropertyOp6
 70
     1
102
RTVSPropertyOp7
 70
     1
102
RTVSPropertyOp8
 70
     1
102
RTVSPropertyOp9
 70
     1
102
RTVSPropertyOp10
 70
     1
102
RTVSPropertyOp11
 70
     1
102
RTVSPropertyOp12
 70
     1
102
RTVSPropertyOp13
 70
     1
102
RTVSPropertyOp14
 70
     1
102
RTVSPropertyOp15
 70
     1
102
RTVSPropertyOp16
 70
     1
102
RTVSPropertyOp17
 70
     1
102
RTVSPropertyOp18
 70
     1
102
RTVSPropertyOp19
 70
     1
102
RTVSPropertyOp20
 70
     1
102
RTVSPropertyOp21
 70
     1
102
RTVSPropertyOp22
 70
     1
102
RTVSPropertyOp23
 70
     1
102
RTVSPropertyOp24
 70
     1
102
RTVSPropertyOp25
 70
     1
102
RTVSPropertyOp26
 70
     1
102
RTVSPropertyOp27
 70
     1
  0
XRECORD
  5
673
102
{ACAD_REACTORS
330
672
102
}
330
672
100
AcDbXrecord
280
     1
102
RTVSPropertyOp0
 70
     1
102
RTVSPropertyOp1
 70
     1
102
RTVSPropertyOp2
 70
     1
102
RTVSPropertyOp3
 70
     1
102
RTVSPropertyOp4
 70
     1
102
RTVSPropertyOp5
 70
     1
102
RTVSPropertyOp6
 70
     1
102
RTVSPropertyOp7
 70
     1
102
RTVSPropertyOp8
 70
     1
102
RTVSPropertyOp9
 70
     1
102
RTVSPropertyOp10
 70
     1
102
RTVSPropertyOp11
 70
     1
102
RTVSPropertyOp12
 70
     1
102
RTVSPropertyOp13
 70
     1
102
RTVSPropertyOp14
 70
     1
102
RTVSPropertyOp15
 70
     1
102
RTVSPropertyOp16
 70
     1
102
RTVSPropertyOp17
 70
     1
102
RTVSPropertyOp18
 70
     1
102
RTVSPropertyOp19
 70
     1
102
RTVSPropertyOp20
 70
     1
102
RTVSPropertyOp21
 70
     1
102
RTVSPropertyOp22
 70
     1
102
RTVSPropertyOp23
 70
     1
102
RTVSPropertyOp24
 70
     1
102
RTVSPropertyOp25
 70
     1
102
RTVSPropertyOp26
 70
     1
102
RTVSPropertyOp27
 70
     1
  0
XRECORD
  5
675
102
{ACAD_REACTORS
330
674
102
}
330
674
100
AcDbXrecord
280
     1
102
RTVSPropertyOp0
 70
     1
102
RTVSPropertyOp1
 70
     1
102
RTVSPropertyOp2
 70
     1
102
RTVSPropertyOp3
 70
     1
102
RTVSPropertyOp4
 70
     1
102
RTVSPropertyOp5
 70
     1
102
RTVSPropertyOp6
 70
     1
102
RTVSPropertyOp7
 70
     1
102
RTVSPropertyOp8
 70
     1
102
RTVSPropertyOp9
 70
     1
102
RTVSPropertyOp10
 70
     1
102
RTVSPropertyOp11
 70
     1
102
RTVSPropertyOp12
 70
     1
102
RTVSPropertyOp13
 70
     1
102
RTVSPropertyOp14
 70
     1
102
RTVSPropertyOp15
 70
     1
102
RTVSPropertyOp16
 70
     1
102
RTVSPropertyOp17
 70
     1
102
RTVSPropertyOp18
 70
     1
102
RTVSPropertyOp19
 70
     1
102
RTVSPropertyOp20
 70
     1
102
RTVSPropertyOp21
 70
     1
102
RTVSPropertyOp22
 70
     1
102
RTVSPropertyOp23
 70
     1
102
RTVSPropertyOp24
 70
     1
102
RTVSPropertyOp25
 70
     1
102
RTVSPropertyOp26
 70
     1
102
RTVSPropertyOp27
 70
     1
  0
XRECORD
  5
67D
102
{ACAD_REACTORS
330
67C
102
}
330
67C
100
AcDbXrecord
280
     1
102
RTVSPropertyOp0
 70
     1
102
RTVSPropertyOp1
 70
     1
102
RTVSPropertyOp2
 70
     1
102
RTVSPropertyOp3
 70
     1
102
RTVSPropertyOp4
 70
     1
102
RTVSPropertyOp5
 70
     1
102
RTVSPropertyOp6
 70
     1
102
RTVSPropertyOp7
 70
     1
102
RTVSPropertyOp8
 70
     1
102
RTVSPropertyOp9
 70
     1
102
RTVSPropertyOp10
 70
     1
102
RTVSPropertyOp11
 70
     1
102
RTVSPropertyOp12
 70
     1
102
RTVSPropertyOp13
 70
     1
102
RTVSPropertyOp14
 70
     1
102
RTVSPropertyOp15
 70
     1
102
RTVSPropertyOp16
 70
     1
102
RTVSPropertyOp17
 70
     1
102
RTVSPropertyOp18
 70
     1
102
RTVSPropertyOp19
 70
     1
102
RTVSPropertyOp20
 70
     1
102
RTVSPropertyOp21
 70
     1
102
RTVSPropertyOp22
 70
     1
102
RTVSPropertyOp23
 70
     1
102
RTVSPropertyOp24
 70
     1
102
RTVSPropertyOp25
 70
     1
102
RTVSPropertyOp26
 70
     1
102
RTVSPropertyOp27
 70
     1
  0
XRECORD
  5
661
102
{ACAD_REACTORS
330
660
102
}
330
660
100
AcDbXrecord
280
     1
102
RTVSPropertyOp0
 70
     1
102
RTVSPropertyOp1
 70
     1
102
RTVSPropertyOp2
 70
     1
102
RTVSPropertyOp3
 70
     1
102
RTVSPropertyOp4
 70
     1
102
RTVSPropertyOp5
 70
     1
102
RTVSPropertyOp6
 70
     1
102
RTVSPropertyOp7
 70
     1
102
RTVSPropertyOp8
 70
     1
102
RTVSPropertyOp9
 70
     1
102
RTVSPropertyOp10
 70
     1
102
RTVSPropertyOp11
 70
     1
102
RTVSPropertyOp12
 70
     1
102
RTVSPropertyOp13
 70
     1
102
RTVSPropertyOp14
 70
     1
102
RTVSPropertyOp15
 70
     1
102
RTVSPropertyOp16
 70
     1
102
RTVSPropertyOp17
 70
     1
102
RTVSPropertyOp18
 70
     1
102
RTVSPropertyOp19
 70
     1
102
RTVSPropertyOp20
 70
     1
102
RTVSPropertyOp21
 70
     1
102
RTVSPropertyOp22
 70
     1
102
RTVSPropertyOp23
 70
     1
102
RTVSPropertyOp24
 70
     1
102
RTVSPropertyOp25
 70
     1
102
RTVSPropertyOp26
 70
     1
102
RTVSPropertyOp27
 70
     1
  0
XRECORD
  5
663
102
{ACAD_REACTORS
330
662
102
}
330
662
100
AcDbXrecord
280
     1
102
RTVSPropertyOp0
 70
     1
102
RTVSPropertyOp1
 70
     1
102
RTVSPropertyOp2
 70
     1
102
RTVSPropertyOp3
 70
     1
102
RTVSPropertyOp4
 70
     1
102
RTVSPropertyOp5
 70
     1
102
RTVSPropertyOp6
 70
     1
102
RTVSPropertyOp7
 70
     1
102
RTVSPropertyOp8
 70
     1
102
RTVSPropertyOp9
 70
     1
102
RTVSPropertyOp10
 70
     1
102
RTVSPropertyOp11
 70
     1
102
RTVSPropertyOp12
 70
     1
102
RTVSPropertyOp13
 70
     1
102
RTVSPropertyOp14
 70
     1
102
RTVSPropertyOp15
 70
     1
102
RTVSPropertyOp16
 70
     1
102
RTVSPropertyOp17
 70
     1
102
RTVSPropertyOp18
 70
     1
102
RTVSPropertyOp19
 70
     1
102
RTVSPropertyOp20
 70
     1
102
RTVSPropertyOp21
 70
     1
102
RTVSPropertyOp22
 70
     1
102
RTVSPropertyOp23
 70
     1
102
RTVSPropertyOp24
 70
     1
102
RTVSPropertyOp25
 70
     1
102
RTVSPropertyOp26
 70
     1
102
RTVSPropertyOp27
 70
     1
  0
XRECORD
  5
665
102
{ACAD_REACTORS
330
664
102
}
330
664
100
AcDbXrecord
280
     1
102
RTVSPropertyOp0
 70
     1
102
RTVSPropertyOp1
 70
     1
102
RTVSPropertyOp2
 70
     1
102
RTVSPropertyOp3
 70
     1
102
RTVSPropertyOp4
 70
     1
102
RTVSPropertyOp5
 70
     1
102
RTVSPropertyOp6
 70
     1
102
RTVSPropertyOp7
 70
     1
102
RTVSPropertyOp8
 70
     1
102
RTVSPropertyOp9
 70
     1
102
RTVSPropertyOp10
 70
     1
102
RTVSPropertyOp11
 70
     1
102
RTVSPropertyOp12
 70
     1
102
RTVSPropertyOp13
 70
     1
102
RTVSPropertyOp14
 70
     1
102
RTVSPropertyOp15
 70
     1
102
RTVSPropertyOp16
 70
     1
102
RTVSPropertyOp17
 70
     1
102
RTVSPropertyOp18
 70
     1
102
RTVSPropertyOp19
 70
     1
102
RTVSPropertyOp20
 70
     1
102
RTVSPropertyOp21
 70
     1
102
RTVSPropertyOp22
 70
     1
102
RTVSPropertyOp23
 70
     1
102
RTVSPropertyOp24
 70
     1
102
RTVSPropertyOp25
 70
     1
102
RTVSPropertyOp26
 70
     1
102
RTVSPropertyOp27
 70
     1
  0
XRECORD
  5
667
102
{ACAD_REACTORS
330
666
102
}
330
666
100
AcDbXrecord
280
     1
102
RTVSPropertyOp0
 70
     1
102
RTVSPropertyOp1
 70
     1
102
RTVSPropertyOp2
 70
     1
102
RTVSPropertyOp3
 70
     1
102
RTVSPropertyOp4
 70
     1
102
RTVSPropertyOp5
 70
     1
102
RTVSPropertyOp6
 70
     1
102
RTVSPropertyOp7
 70
     1
102
RTVSPropertyOp8
 70
     1
102
RTVSPropertyOp9
 70
     1
102
RTVSPropertyOp10
 70
     1
102
RTVSPropertyOp11
 70
     1
102
RTVSPropertyOp12
 70
     1
102
RTVSPropertyOp13
 70
     1
102
RTVSPropertyOp14
 70
     1
102
RTVSPropertyOp15
 70
     1
102
RTVSPropertyOp16
 70
     1
102
RTVSPropertyOp17
 70
     1
102
RTVSPropertyOp18
 70
     1
102
RTVSPropertyOp19
 70
     1
102
RTVSPropertyOp20
 70
     1
102
RTVSPropertyOp21
 70
     1
102
RTVSPropertyOp22
 70
     1
102
RTVSPropertyOp23
 70
     1
102
RTVSPropertyOp24
 70
     1
102
RTVSPropertyOp25
 70
     1
102
RTVSPropertyOp26
 70
     1
102
RTVSPropertyOp27
 70
     1
  0
XRECORD
  5
67B
102
{ACAD_REACTORS
330
67A
102
}
330
67A
100
AcDbXrecord
280
     1
102
RTVSPropertyOp0
 70
     1
102
RTVSPropertyOp1
 70
     1
102
RTVSPropertyOp2
 70
     1
102
RTVSPropertyOp3
 70
     1
102
RTVSPropertyOp4
 70
     1
102
RTVSPropertyOp5
 70
     1
102
RTVSPropertyOp6
 70
     1
102
RTVSPropertyOp7
 70
     1
102
RTVSPropertyOp8
 70
     1
102
RTVSPropertyOp9
 70
     1
102
RTVSPropertyOp10
 70
     1
102
RTVSPropertyOp11
 70
     1
102
RTVSPropertyOp12
 70
     1
102
RTVSPropertyOp13
 70
     1
102
RTVSPropertyOp14
 70
     1
102
RTVSPropertyOp15
 70
     1
102
RTVSPropertyOp16
 70
     1
102
RTVSPropertyOp17
 70
     1
102
RTVSPropertyOp18
 70
     1
102
RTVSPropertyOp19
 70
     1
102
RTVSPropertyOp20
 70
     1
102
RTVSPropertyOp21
 70
     1
102
RTVSPropertyOp22
 70
     1
102
RTVSPropertyOp23
 70
     1
102
RTVSPropertyOp24
 70
     1
102
RTVSPropertyOp25
 70
     1
102
RTVSPropertyOp26
 70
     1
102
RTVSPropertyOp27
 70
     1
  0
XRECORD
  5
671
102
{ACAD_REACTORS
330
670
102
}
330
670
100
AcDbXrecord
280
     1
102
RTVSPropertyOp0
 70
     1
102
RTVSPropertyOp1
 70
     1
102
RTVSPropertyOp2
 70
     1
102
RTVSPropertyOp3
 70
     1
102
RTVSPropertyOp4
 70
     1
102
RTVSPropertyOp5
 70
     1
102
RTVSPropertyOp6
 70
     1
102
RTVSPropertyOp7
 70
     1
102
RTVSPropertyOp8
 70
     1
102
RTVSPropertyOp9
 70
     1
102
RTVSPropertyOp10
 70
     1
102
RTVSPropertyOp11
 70
     1
102
RTVSPropertyOp12
 70
     1
102
RTVSPropertyOp13
 70
     1
102
RTVSPropertyOp14
 70
     1
102
RTVSPropertyOp15
 70
     1
102
RTVSPropertyOp16
 70
     1
102
RTVSPropertyOp17
 70
     1
102
RTVSPropertyOp18
 70
     1
102
RTVSPropertyOp19
 70
     1
102
RTVSPropertyOp20
 70
     1
102
RTVSPropertyOp21
 70
     1
102
RTVSPropertyOp22
 70
     1
102
RTVSPropertyOp23
 70
     1
102
RTVSPropertyOp24
 70
     1
102
RTVSPropertyOp25
 70
     1
102
RTVSPropertyOp26
 70
     1
102
RTVSPropertyOp27
 70
     1
  0
XRECORD
  5
679
102
{ACAD_REACTORS
330
678
102
}
330
678
100
AcDbXrecord
280
     1
102
RTVSPropertyOp0
 70
     1
102
RTVSPropertyOp1
 70
     1
102
RTVSPropertyOp2
 70
     1
102
RTVSPropertyOp3
 70
     1
102
RTVSPropertyOp4
 70
     1
102
RTVSPropertyOp5
 70
     1
102
RTVSPropertyOp6
 70
     1
102
RTVSPropertyOp7
 70
     1
102
RTVSPropertyOp8
 70
     1
102
RTVSPropertyOp9
 70
     1
102
RTVSPropertyOp10
 70
     1
102
RTVSPropertyOp11
 70
     1
102
RTVSPropertyOp12
 70
     1
102
RTVSPropertyOp13
 70
     1
102
RTVSPropertyOp14
 70
     1
102
RTVSPropertyOp15
 70
     1
102
RTVSPropertyOp16
 70
     1
102
RTVSPropertyOp17
 70
     1
102
RTVSPropertyOp18
 70
     1
102
RTVSPropertyOp19
 70
     1
102
RTVSPropertyOp20
 70
     1
102
RTVSPropertyOp21
 70
     1
102
RTVSPropertyOp22
 70
     1
102
RTVSPropertyOp23
 70
     1
102
RTVSPropertyOp24
 70
     1
102
RTVSPropertyOp25
 70
     1
102
RTVSPropertyOp26
 70
     1
102
RTVSPropertyOp27
 70
     1
  0
ENDSEC
  0
EOF
