  0
SECTION
  2
HEADER
  9
$ACADVER
  1
AC1015
  9
$ACADMAINTVER
 70
     6
  9
$DWGCODEPAGE
  3
ANSI_932
  9
$INSBASE
 10
0.0
 20
0.0
 30
0.0
  9
$EXTMIN
 10
-191.0
 20
-110.799324111231
 30
0.0
  9
$EXTMAX
 10
221.813612792647
 20
389.0
 30
0.0
  9
$LIMMIN
 10
0.0
 20
0.0
  9
$LIMMAX
 10
12.0
 20
9.0
  9
$ORTHOMODE
 70
     0
  9
$REGENMODE
 70
     1
  9
$FILLMODE
 70
     1
  9
$QTEXTMODE
 70
     0
  9
$MIRRTEXT
 70
     1
  9
$LTSCALE
 40
1.0
  9
$ATTMODE
 70
     1
  9
$TEXTSIZE
 40
0.2
  9
$TRACEWID
 40
0.05
  9
$TEXTSTYLE
  7
Standard
  9
$CLAYER
  8
0
  9
$CELTYPE
  6
ByLayer
  9
$CECOLOR
 62
   256
  9
$CELTSCALE
 40
1.0
  9
$DISPSILH
 70
     0
  9
$DIMSCALE
 40
1.0
  9
$DIMASZ
 40
0.18
  9
$DIMEXO
 40
0.0625
  9
$DIMDLI
 40
0.38
  9
$DIMRND
 40
0.0
  9
$DIMDLE
 40
0.0
  9
$DIMEXE
 40
0.18
  9
$DIMTP
 40
0.0
  9
$DIMTM
 40
0.0
  9
$DIMTXT
 40
0.18
  9
$DIMCEN
 40
0.09
  9
$DIMTSZ
 40
0.0
  9
$DIMTOL
 70
     0
  9
$DIMLIM
 70
     0
  9
$DIMTIH
 70
     1
  9
$DIMTOH
 70
     1
  9
$DIMSE1
 70
     0
  9
$DIMSE2
 70
     0
  9
$DIMTAD
 70
     0
  9
$DIMZIN
 70
     0
  9
$DIMBLK
  1

  9
$DIMASO
 70
     1
  9
$DIMSHO
 70
     1
  9
$DIMPOST
  1

  9
$DIMAPOST
  1

  9
$DIMALT
 70
     0
  9
$DIMALTD
 70
     2
  9
$DIMALTF
 40
25.4
  9
$DIMLFAC
 40
1.0
  9
$DIMTOFL
 70
     0
  9
$DIMTVP
 40
0.0
  9
$DIMTIX
 70
     0
  9
$DIMSOXD
 70
     0
  9
$DIMSAH
 70
     0
  9
$DIMBLK1
  1

  9
$DIMBLK2
  1

  9
$DIMSTYLE
  2
Standard
  9
$DIMCLRD
 70
     0
  9
$DIMCLRE
 70
     0
  9
$DIMCLRT
 70
     0
  9
$DIMTFAC
 40
1.0
  9
$DIMGAP
 40
0.09
  9
$DIMJUST
 70
     0
  9
$DIMSD1
 70
     0
  9
$DIMSD2
 70
     0
  9
$DIMTOLJ
 70
     1
  9
$DIMTZIN
 70
     0
  9
$DIMALTZ
 70
     0
  9
$DIMALTTZ
 70
     0
  9
$DIMUPT
 70
     0
  9
$DIMDEC
 70
     4
  9
$DIMTDEC
 70
     4
  9
$DIMALTU
 70
     2
  9
$DIMALTTD
 70
     2
  9
$DIMTXSTY
  7
Standard
  9
$DIMAUNIT
 70
     0
  9
$DIMADEC
 70
     0
  9
$DIMALTRND
 40
0.0
  9
$DIMAZIN
 70
     0
  9
$DIMDSEP
 70
    46
  9
$DIMATFIT
 70
     3
  9
$DIMFRAC
 70
     0
  9
$DIMLDRBLK
  1

  9
$DIMLUNIT
 70
     2
  9
$DIMLWD
 70
    -2
  9
$DIMLWE
 70
    -2
  9
$DIMTMOVE
 70
     0
  9
$LUNITS
 70
     2
  9
$LUPREC
 70
     4
  9
$SKETCHINC
 40
0.1
  9
$FILLETRAD
 40
0.5
  9
$AUNITS
 70
     0
  9
$AUPREC
 70
     0
  9
$MENU
  1
.
  9
$ELEVATION
 40
0.0
  9
$PELEVATION
 40
0.0
  9
$THICKNESS
 40
0.0
  9
$LIMCHECK
 70
     0
  9
$CHAMFERA
 40
0.5
  9
$CHAMFERB
 40
0.5
  9
$CHAMFERC
 40
1.0
  9
$CHAMFERD
 40
0.0
  9
$SKPOLY
 70
     0
  9
$TDCREATE
 40
2457624.69596956
  9
$TDUCREATE
 40
2457624.32096956
  9
$TDUPDATE
 40
2457624.695969572
  9
$TDUUPDATE
 40
2457624.320969572
  9
$TDINDWG
 40
0.0000000116
  9
$TDUSRTIMER
 40
0.0000000116
  9
$USRTIMER
 70
     1
  9
$ANGBASE
 50
0.0
  9
$ANGDIR
 70
     0
  9
$PDMODE
 70
     0
  9
$PDSIZE
 40
0.0
  9
$PLINEWID
 40
0.0
  9
$SPLFRAME
 70
     0
  9
$SPLINETYPE
 70
     6
  9
$SPLINESEGS
 70
     8
  9
$HANDSEED
  5
661
  9
$SURFTAB1
 70
     6
  9
$SURFTAB2
 70
     6
  9
$SURFTYPE
 70
     6
  9
$SURFU
 70
     6
  9
$SURFV
 70
     6
  9
$UCSBASE
  2

  9
$UCSNAME
  2

  9
$UCSORG
 10
0.0
 20
0.0
 30
0.0
  9
$UCSXDIR
 10
1.0
 20
0.0
 30
0.0
  9
$UCSYDIR
 10
0.0
 20
1.0
 30
0.0
  9
$UCSORTHOREF
  2

  9
$UCSORTHOVIEW
 70
     0
  9
$UCSORGTOP
 10
0.0
 20
0.0
 30
0.0
  9
$UCSORGBOTTOM
 10
0.0
 20
0.0
 30
0.0
  9
$UCSORGLEFT
 10
0.0
 20
0.0
 30
0.0
  9
$UCSORGRIGHT
 10
0.0
 20
0.0
 30
0.0
  9
$UCSORGFRONT
 10
0.0
 20
0.0
 30
0.0
  9
$UCSORGBACK
 10
0.0
 20
0.0
 30
0.0
  9
$PUCSBASE
  2

  9
$PUCSNAME
  2

  9
$PUCSORG
 10
0.0
 20
0.0
 30
0.0
  9
$PUCSXDIR
 10
1.0
 20
0.0
 30
0.0
  9
$PUCSYDIR
 10
0.0
 20
1.0
 30
0.0
  9
$PUCSORTHOREF
  2

  9
$PUCSORTHOVIEW
 70
     0
  9
$PUCSORGTOP
 10
0.0
 20
0.0
 30
0.0
  9
$PUCSORGBOTTOM
 10
0.0
 20
0.0
 30
0.0
  9
$PUCSORGLEFT
 10
0.0
 20
0.0
 30
0.0
  9
$PUCSORGRIGHT
 10
0.0
 20
0.0
 30
0.0
  9
$PUCSORGFRONT
 10
0.0
 20
0.0
 30
0.0
  9
$PUCSORGBACK
 10
0.0
 20
0.0
 30
0.0
  9
$USERI1
 70
     0
  9
$USERI2
 70
     0
  9
$USERI3
 70
     0
  9
$USERI4
 70
     0
  9
$USERI5
 70
     0
  9
$USERR1
 40
18.0
  9
$USERR2
 40
0.0
  9
$USERR3
 40
0.0
  9
$USERR4
 40
0.0
  9
$USERR5
 40
0.0
  9
$WORLDVIEW
 70
     1
  9
$SHADEDGE
 70
     3
  9
$SHADEDIF
 70
    70
  9
$TILEMODE
 70
     1
  9
$MAXACTVP
 70
    64
  9
$PINSBASE
 10
0.0
 20
0.0
 30
0.0
  9
$PLIMCHECK
 70
     0
  9
$PEXTMIN
 10
1.00000000000000E+20
 20
1.00000000000000E+20
 30
1.00000000000000E+20
  9
$PEXTMAX
 10
-1.00000000000000E+20
 20
-1.00000000000000E+20
 30
-1.00000000000000E+20
  9
$PLIMMIN
 10
0.0
 20
0.0
  9
$PLIMMAX
 10
12.0
 20
9.0
  9
$UNITMODE
 70
     0
  9
$VISRETAIN
 70
     1
  9
$PLINEGEN
 70
     0
  9
$PSLTSCALE
 70
     1
  9
$TREEDEPTH
 70
  3020
  9
$CMLSTYLE
  2
Standard
  9
$CMLJUST
 70
     0
  9
$CMLSCALE
 40
1.0
  9
$PROXYGRAPHICS
 70
     1
  9
$MEASUREMENT
 70
     1
  9
$CELWEIGHT
370
    -1
  9
$ENDCAPS
280
     0
  9
$JOINSTYLE
280
     0
  9
$LWDISPLAY
290
     0
  9
$INSUNITS
 70
     1
  9
$HYPERLINKBASE
  1

  9
$STYLESHEET
  1

  9
$XEDIT
290
     1
  9
$CEPSNTYPE
380
     0
  9
$PSTYLEMODE
290
     1
  9
$FINGERPRINTGUID
  2
{14A0814D-3A61-45F0-9A6A-43E7FCC2A028}
  9
$VERSIONGUID
  2
{FAEB1C32-E019-11D5-929B-00C0DF256EC4}
  9
$EXTNAMES
290
     1
  9
$PSVPSCALE
 40
0.0
  9
$OLESTARTUP
290
     0
  0
ENDSEC
  0
SECTION
  2
CLASSES
  0
CLASS
  1
ACDBDICTIONARYWDFLT
  2
AcDbDictionaryWithDefault
  3
ObjectDBX Classes
 90
        0
280
     0
281
     0
  0
CLASS
  1
VISUALSTYLE
  2
AcDbVisualStyle
  3
ObjectDBX Classes
 90
     4095
280
     0
281
     0
  0
CLASS
  1
MATERIAL
  2
AcDbMaterial
  3
ObjectDBX Classes
 90
     1153
280
     0
281
     0
  0
CLASS
  1

  2
exOdDbCircle
  3

 90
        0
280
     0
281
     1
  0
CLASS
  1

  2
exOdDbPolyline
  3

 90
        0
280
     0
281
     1
  0
CLASS
  1
DICTIONARYVAR
  2
AcDbDictionaryVar
  3
ObjectDBX Classes
 90
        0
280
     0
281
     0
  0
CLASS
  1
ACDBPLACEHOLDER
  2
AcDbPlaceHolder
  3
ObjectDBX Classes
 90
        0
280
     0
281
     0
  0
CLASS
  1
LAYOUT
  2
AcDbLayout
  3
ObjectDBX Classes
 90
        0
280
     0
281
     0
  0
ENDSEC
  0
SECTION
  2
TABLES
  0
TABLE
  2
VPORT
  5
8
330
0
100
AcDbSymbolTable
 70
     1
  0
VPORT
  5
29
330
8
100
AcDbSymbolTableRecord
100
AcDbViewportTableRecord
  2
*Active
 70
     0
 10
0.0
 20
0.0
 11
1.0
 21
1.0
 12
15.4068063963235
 22
139.1003379443845
 13
0.0
 23
0.0
 14
0.5
 24
0.5
 15
0.5
 25
0.5
 16
0.0
 26
0.0
 36
1.0
 17
0.0
 27
0.0
 37
0.0
 40
549.7792565223541
 41
1.60267857142857
 42
50.0
 43
0.0
 44
0.0
 50
0.0
 51
0.0
 71
     0
 72
   100
 73
     1
 74
     3
 75
     0
 76
     0
 77
     0
 78
     0
281
     0
 65
     1
110
0.0
120
0.0
130
0.0
111
1.0
121
0.0
131
0.0
112
0.0
122
1.0
132
0.0
 79
     0
146
0.0
  0
ENDTAB
  0
TABLE
  2
LTYPE
  5
5
330
0
100
AcDbSymbolTable
 70
     9
  0
LTYPE
  5
14
330
5
100
AcDbSymbolTableRecord
100
AcDbLinetypeTableRecord
  2
ByBlock
 70
     0
  3

 72
    65
 73
     0
 40
0.0
  0
LTYPE
  5
15
330
5
100
AcDbSymbolTableRecord
100
AcDbLinetypeTableRecord
  2
ByLayer
 70
     0
  3

 72
    65
 73
     0
 40
0.0
  0
LTYPE
  5
16
330
5
100
AcDbSymbolTableRecord
100
AcDbLinetypeTableRecord
  2
Continuous
 70
     0
  3
Solid line
 72
    65
 73
     0
 40
0.0
  0
LTYPE
  5
3F
330
5
100
AcDbSymbolTableRecord
100
AcDbLinetypeTableRecord
  2
DASHED
 70
     0
  3
Dashed
 72
    65
 73
     2
 40
15.0
 49
7.0
 74
     0
 49
-8.0
 74
     0
  0
LTYPE
  5
40
330
5
100
AcDbSymbolTableRecord
100
AcDbLinetypeTableRecord
  2
DOTTED
 70
     0
  3
Dotted
 72
    65
 73
     2
 40
1.0
 49
0.0
 74
     0
 49
-1.0
 74
     0
  0
LTYPE
  5
41
330
5
100
AcDbSymbolTableRecord
100
AcDbLinetypeTableRecord
  2
DOT_CENTER
 70
     0
  3
Dot_Center
 72
    65
 73
     4
 40
14.0
 49
12.0
 74
     0
 49
-1.0
 74
     0
 49
0.0
 74
     0
 49
-1.0
 74
     0
  0
LTYPE
  5
42
330
5
100
AcDbSymbolTableRecord
100
AcDbLinetypeTableRecord
  2
LONG_DASHED
 70
     0
  3
Long_Dashed
 72
    65
 73
     2
 40
15.0
 49
10.0
 74
     0
 49
-5.0
 74
     0
  0
LTYPE
  5
43
330
5
100
AcDbSymbolTableRecord
100
AcDbLinetypeTableRecord
  2
DASH_CENTER
 70
     0
  3
Dash_Center
 72
    65
 73
     4
 40
14.0
 49
11.0
 74
     0
 49
-1.0
 74
     0
 49
1.0
 74
     0
 49
-1.0
 74
     0
  0
LTYPE
  5
44
330
5
100
AcDbSymbolTableRecord
100
AcDbLinetypeTableRecord
  2
PHANTOM
 70
     0
  3
Phantom
 72
    65
 73
     6
 40
13.0
 49
10.0
 74
     0
 49
-1.0
 74
     0
 49
0.0
 74
     0
 49
-1.0
 74
     0
 49
0.0
 74
     0
 49
-1.0
 74
     0
  0
LTYPE
  5
45
330
5
100
AcDbSymbolTableRecord
100
AcDbLinetypeTableRecord
  2
CENTER_DASH_DASH
 70
     0
  3
Center_Dash_Dash
 72
    65
 73
     6
 40
14.0
 49
9.0
 74
     0
 49
-1.0
 74
     0
 49
1.0
 74
     0
 49
-1.0
 74
     0
 49
1.0
 74
     0
 49
-1.0
 74
     0
  0
LTYPE
  5
46
330
5
100
AcDbSymbolTableRecord
100
AcDbLinetypeTableRecord
  2
CENTER
 70
     0
  3
CENTER
 72
    65
 73
     4
 40
6.0
 49
3.0
 74
     0
 49
-1.0
 74
     0
 49
1.0
 74
     0
 49
-1.0
 74
     0
  0
ENDTAB
  0
TABLE
  2
LAYER
  5
2
330
0
100
AcDbSymbolTable
 70
     4
  0
LAYER
  5
10
330
2
100
AcDbSymbolTableRecord
100
AcDbLayerTableRecord
  2
0
 70
     0
 62
     7
  6
Continuous
370
    -3
390
F
  0
LAYER
  5
47
330
2
100
AcDbSymbolTableRecord
100
AcDbLayerTableRecord
  2
1
 70
     0
 62
     7
  6
Continuous
370
    -3
390
F
  0
LAYER
  5
48
330
2
100
AcDbSymbolTableRecord
100
AcDbLayerTableRecord
  2
100
 70
     0
 62
     7
  6
Continuous
370
    -3
390
F
  0
LAYER
  5
49
330
2
100
AcDbSymbolTableRecord
100
AcDbLayerTableRecord
  2
2
 70
     0
 62
     7
  6
Continuous
370
    -3
390
F
  0
ENDTAB
  0
TABLE
  2
STYLE
  5
3
330
0
100
AcDbSymbolTable
 70
     1
  0
STYLE
  5
11
330
3
100
AcDbSymbolTableRecord
100
AcDbTextStyleTableRecord
  2
Standard
 70
     0
 40
0.0
 41
1.0
 50
0.0
 71
     0
 42
0.2
  3
txt
  4

  0
ENDTAB
  0
TABLE
  2
VIEW
  5
6
330
0
100
AcDbSymbolTable
 70
     0
  0
ENDTAB
  0
TABLE
  2
UCS
  5
7
330
0
100
AcDbSymbolTable
 70
     0
  0
ENDTAB
  0
TABLE
  2
APPID
  5
9
330
0
100
AcDbSymbolTable
 70
     1
  0
APPID
  5
12
330
9
100
AcDbSymbolTableRecord
100
AcDbRegAppTableRecord
  2
ACAD
 70
     0
  0
ENDTAB
  0
TABLE
  2
DIMSTYLE
  5
A
330
0
100
AcDbSymbolTable
 70
     1
100
AcDbDimStyleTable
  0
DIMSTYLE
105
27
330
A
100
AcDbSymbolTableRecord
100
AcDbDimStyleTableRecord
  2
Standard
 70
     0
340
11
  0
ENDTAB
  0
TABLE
  2
BLOCK_RECORD
  5
1
330
0
100
AcDbSymbolTable
 70
     1
  0
BLOCK_RECORD
  5
1F
330
1
100
AcDbSymbolTableRecord
100
AcDbBlockTableRecord
  2
*Model_Space
340
22
  0
BLOCK_RECORD
  5
1B
330
1
100
AcDbSymbolTableRecord
100
AcDbBlockTableRecord
  2
*Paper_Space
340
1E
  0
BLOCK_RECORD
  5
23
330
1
100
AcDbSymbolTableRecord
100
AcDbBlockTableRecord
  2
*Paper_Space0
340
26
  0
ENDTAB
  0
ENDSEC
  0
SECTION
  2
BLOCKS
  0
BLOCK
  5
20
330
1F
100
AcDbEntity
  8
0
100
AcDbBlockBegin
  2
*Model_Space
 70
     0
 10
0.0
 20
0.0
 30
0.0
  3
*Model_Space
  1

  0
ENDBLK
  5
21
330
1F
100
AcDbEntity
  8
0
100
AcDbBlockEnd
  0
BLOCK
  5
1C
330
1B
100
AcDbEntity
 67
     1
  8
0
100
AcDbBlockBegin
  2
*Paper_Space
 70
     0
 10
0.0
 20
0.0
 30
0.0
  3
*Paper_Space
  1

  0
ENDBLK
  5
1D
330
1B
100
AcDbEntity
 67
     1
  8
0
100
AcDbBlockEnd
  0
BLOCK
  5
24
330
23
100
AcDbEntity
  8
0
100
AcDbBlockBegin
  2
*Paper_Space0
 70
     0
 10
0.0
 20
0.0
 30
0.0
  3
*Paper_Space0
  1

  0
ENDBLK
  5
25
330
23
100
AcDbEntity
  8
0
100
AcDbBlockEnd
  0
ENDSEC
  0
SECTION
  2
ENTITIES
  0
LINE
  5
4A
330
1F
100
AcDbEntity
  8
1
  6
Continuous
 62
     4
100
AcDbLine
 10
43.8859002285258
 20
-86.8962332528577
 30
0.0
 11
44.8859002285258
 21
-87.5212332528577
 31
0.0
  0
LINE
  5
4B
330
1F
100
AcDbEntity
  8
1
  6
Continuous
 62
     4
100
AcDbLine
 10
45.2609002285258
 20
-86.5837332528577
 30
0.0
 11
44.4484002285258
 21
-85.9587332528577
 31
0.0
  0
LINE
  5
4C
330
1F
100
AcDbEntity
  8
1
  6
Continuous
 62
     4
100
AcDbLine
 10
45.9484002285258
 20
-85.8337332528577
 30
0.0
 11
46.3859002285258
 21
-86.2712332528577
 31
0.0
  0
LINE
  5
4D
330
1F
100
AcDbEntity
  8
1
  6
Continuous
 62
     4
100
AcDbLine
 10
46.6984002285258
 20
-85.9587332528577
 30
0.0
 11
46.2609002285258
 21
-85.5212332528577
 31
0.0
  0
LINE
  5
4E
330
1F
100
AcDbEntity
  8
1
  6
Continuous
 62
     4
100
AcDbLine
 10
46.3859002285258
 20
-87.8337332528577
 30
0.0
 11
47.0734002285258
 21
-86.8962332528577
 31
0.0
  0
LINE
  5
4F
330
1F
100
AcDbEntity
  8
1
  6
Continuous
 62
     4
100
AcDbLine
 10
45.2609002285258
 20
-88.7712332528577
 30
0.0
 11
46.3859002285258
 21
-87.8337332528577
 31
0.0
  0
LINE
  5
50
330
1F
100
AcDbEntity
  8
1
  6
Continuous
 62
     4
100
AcDbLine
 10
44.1984002285258
 20
-89.3962332528577
 30
0.0
 11
45.2609002285258
 21
-88.7712332528577
 31
0.0
  0
LINE
  5
51
330
1F
100
AcDbEntity
  8
1
  6
Continuous
 62
     4
100
AcDbLine
 10
41.5109002285258
 20
-88.0212332528577
 30
0.0
 11
41.9484002285258
 21
-88.6462332528577
 31
0.0
  0
LINE
  5
52
330
1F
100
AcDbEntity
  8
1
  6
Continuous
 62
     4
100
AcDbLine
 10
40.9484002285258
 20
-87.5212332528577
 30
0.0
 11
41.5109002285258
 21
-88.0212332528577
 31
0.0
  0
LINE
  5
53
330
1F
100
AcDbEntity
  8
1
  6
Continuous
 62
     4
100
AcDbLine
 10
40.5734002285258
 20
-85.5212332528577
 30
0.0
 11
40.8234002285258
 21
-85.8337332528577
 31
0.0
  0
LINE
  5
54
330
1F
100
AcDbEntity
  8
1
  6
Continuous
 62
     4
100
AcDbLine
 10
40.0109002285258
 20
-85.2087332528577
 30
0.0
 11
40.5734002285258
 21
-85.5212332528577
 31
0.0
  0
LINE
  5
55
330
1F
100
AcDbEntity
  8
1
  6
Continuous
 62
     4
100
AcDbLine
 10
41.2609002285258
 20
-86.4587332528577
 30
0.0
 11
39.3234002285258
 21
-86.4587332528577
 31
0.0
  0
LINE
  5
56
330
1F
100
AcDbEntity
  8
1
  6
Continuous
 62
     4
100
AcDbLine
 10
40.2609002285258
 20
-87.5212332528577
 30
0.0
 11
41.2609002285258
 21
-86.4587332528577
 31
0.0
  0
LINE
  5
57
330
1F
100
AcDbEntity
  8
1
  6
Continuous
 62
     4
100
AcDbLine
 10
38.8859002285258
 20
-88.4587332528577
 30
0.0
 11
40.2609002285258
 21
-87.5212332528577
 31
0.0
  0
LINE
  5
58
330
1F
100
AcDbEntity
  8
1
  6
Continuous
 62
     4
100
AcDbLine
 10
40.4484002285258
 20
-89.3962332528577
 30
0.0
 11
40.4484002285258
 21
-87.3962332528577
 31
0.0
  0
LINE
  5
59
330
1F
100
AcDbEntity
  8
1
  6
Continuous
 62
     4
100
AcDbLine
 10
33.6984002285258
 20
-89.8962332528577
 30
0.0
 11
36.6984002285258
 21
-89.8962332528577
 31
0.0
  0
LINE
  5
5A
330
1F
100
AcDbEntity
  8
1
  6
Continuous
 62
     4
100
AcDbLine
 10
36.4484002285258
 20
-86.6462332528577
 30
0.0
 11
33.6984002285258
 21
-89.8962332528577
 31
0.0
  0
LINE
  5
5B
330
1F
100
AcDbEntity
  8
1
  6
Continuous
 62
     4
100
AcDbLine
 10
36.6984002285258
 20
-86.1462332528577
 30
0.0
 11
36.4484002285258
 21
-86.6462332528577
 31
0.0
  0
LINE
  5
5C
330
1F
100
AcDbEntity
  8
1
  6
Continuous
 62
     4
100
AcDbLine
 10
36.6984002285258
 20
-85.6462332528577
 30
0.0
 11
36.6984002285258
 21
-86.1462332528577
 31
0.0
  0
LINE
  5
5D
330
1F
100
AcDbEntity
  8
1
  6
Continuous
 62
     4
100
AcDbLine
 10
36.4484002285258
 20
-85.2712332528577
 30
0.0
 11
36.6984002285258
 21
-85.6462332528577
 31
0.0
  0
LINE
  5
5E
330
1F
100
AcDbEntity
  8
1
  6
Continuous
 62
     4
100
AcDbLine
 10
36.0734002285258
 20
-85.0212332528577
 30
0.0
 11
36.4484002285258
 21
-85.2712332528577
 31
0.0
  0
LINE
  5
5F
330
1F
100
AcDbEntity
  8
1
  6
Continuous
 62
     4
100
AcDbLine
 10
35.5734002285258
 20
-84.8962332528577
 30
0.0
 11
36.0734002285258
 21
-85.0212332528577
 31
0.0
  0
LINE
  5
60
330
1F
100
AcDbEntity
  8
1
  6
Continuous
 62
     4
100
AcDbLine
 10
34.8234002285258
 20
-84.8962332528577
 30
0.0
 11
35.5734002285258
 21
-84.8962332528577
 31
0.0
  0
LINE
  5
61
330
1F
100
AcDbEntity
  8
1
  6
Continuous
 62
     4
100
AcDbLine
 10
34.3234002285258
 20
-85.0212332528577
 30
0.0
 11
34.8234002285258
 21
-84.8962332528577
 31
0.0
  0
LINE
  5
62
330
1F
100
AcDbEntity
  8
1
  6
Continuous
 62
     4
100
AcDbLine
 10
33.9484002285258
 20
-85.2712332528577
 30
0.0
 11
34.3234002285258
 21
-85.0212332528577
 31
0.0
  0
LINE
  5
63
330
1F
100
AcDbEntity
  8
1
  6
Continuous
 62
     4
100
AcDbLine
 10
33.6984002285258
 20
-85.6462332528577
 30
0.0
 11
33.9484002285258
 21
-85.2712332528577
 31
0.0
  0
LINE
  5
64
330
1F
100
AcDbEntity
  8
1
  6
Continuous
 62
     4
100
AcDbLine
 10
30.1984002285258
 20
-89.8962332528577
 30
0.0
 11
32.1984002285258
 21
-84.8962332528577
 31
0.0
  0
LINE
  5
65
330
1F
100
AcDbEntity
  8
1
  6
Continuous
 62
     4
100
AcDbLine
 10
28.6984002285258
 20
-84.8962332528577
 30
0.0
 11
28.6984002285258
 21
-89.8962332528577
 31
0.0
  0
LINE
  5
66
330
1F
100
AcDbEntity
  8
1
  6
Continuous
 62
     4
100
AcDbLine
 10
27.1984002285258
 20
-86.3962332528577
 30
0.0
 11
28.6984002285258
 21
-84.8962332528577
 31
0.0
  0
LINE
  5
67
330
1F
100
AcDbEntity
  8
1
  6
Continuous
 62
     4
100
AcDbLine
 10
22.1984002285258
 20
-89.8962332528577
 30
0.0
 11
22.1984002285258
 21
-87.3962332528577
 31
0.0
  0
LINE
  5
68
330
1F
100
AcDbEntity
  8
1
  6
Continuous
 62
     4
100
AcDbLine
 10
24.1984002285258
 20
-87.3962332528577
 30
0.0
 11
25.6984002285258
 21
-89.8962332528577
 31
0.0
  0
LINE
  5
69
330
1F
100
AcDbEntity
  8
1
  6
Continuous
 62
     4
100
AcDbLine
 10
24.5734002285258
 20
-87.3962332528577
 30
0.0
 11
24.1984002285258
 21
-87.3962332528577
 31
0.0
  0
LINE
  5
6A
330
1F
100
AcDbEntity
  8
1
  6
Continuous
 62
     4
100
AcDbLine
 10
25.0734002285258
 20
-87.2712332528577
 30
0.0
 11
24.5734002285258
 21
-87.3962332528577
 31
0.0
  0
LINE
  5
6B
330
1F
100
AcDbEntity
  8
1
  6
Continuous
 62
     4
100
AcDbLine
 10
25.4484002285258
 20
-87.0212332528577
 30
0.0
 11
25.0734002285258
 21
-87.2712332528577
 31
0.0
  0
LINE
  5
6C
330
1F
100
AcDbEntity
  8
1
  6
Continuous
 62
     4
100
AcDbLine
 10
25.5734002285258
 20
-86.7712332528577
 30
0.0
 11
25.4484002285258
 21
-87.0212332528577
 31
0.0
  0
LINE
  5
6D
330
1F
100
AcDbEntity
  8
1
  6
Continuous
 62
     4
100
AcDbLine
 10
25.6984002285258
 20
-86.3962332528577
 30
0.0
 11
25.5734002285258
 21
-86.7712332528577
 31
0.0
  0
LINE
  5
6E
330
1F
100
AcDbEntity
  8
1
  6
Continuous
 62
     4
100
AcDbLine
 10
25.6984002285258
 20
-85.8962332528577
 30
0.0
 11
25.6984002285258
 21
-86.3962332528577
 31
0.0
  0
LINE
  5
6F
330
1F
100
AcDbEntity
  8
1
  6
Continuous
 62
     4
100
AcDbLine
 10
25.5734002285258
 20
-85.5212332528577
 30
0.0
 11
25.6984002285258
 21
-85.8962332528577
 31
0.0
  0
LINE
  5
70
330
1F
100
AcDbEntity
  8
1
  6
Continuous
 62
     4
100
AcDbLine
 10
25.4484002285258
 20
-85.2712332528577
 30
0.0
 11
25.5734002285258
 21
-85.5212332528577
 31
0.0
  0
LINE
  5
71
330
1F
100
AcDbEntity
  8
1
  6
Continuous
 62
     4
100
AcDbLine
 10
25.0734002285258
 20
-85.0212332528577
 30
0.0
 11
25.4484002285258
 21
-85.2712332528577
 31
0.0
  0
LINE
  5
72
330
1F
100
AcDbEntity
  8
1
  6
Continuous
 62
     4
100
AcDbLine
 10
24.5734002285258
 20
-84.8962332528577
 30
0.0
 11
25.0734002285258
 21
-85.0212332528577
 31
0.0
  0
LINE
  5
73
330
1F
100
AcDbEntity
  8
1
  6
Continuous
 62
     4
100
AcDbLine
 10
22.1984002285258
 20
-84.8962332528577
 30
0.0
 11
24.5734002285258
 21
-84.8962332528577
 31
0.0
  0
LINE
  5
74
330
1F
100
AcDbEntity
  8
1
  6
Continuous
 62
     4
100
AcDbLine
 10
22.1984002285258
 20
-87.3962332528577
 30
0.0
 11
22.1984002285258
 21
-84.8962332528577
 31
0.0
  0
LINE
  5
75
330
1F
100
AcDbEntity
  8
1
  6
Continuous
 62
     4
100
AcDbLine
 10
24.1984002285258
 20
-87.3962332528577
 30
0.0
 11
22.1984002285258
 21
-87.3962332528577
 31
0.0
  0
LINE
  5
76
330
1F
100
AcDbEntity
  8
1
  6
Continuous
 62
     4
100
AcDbLine
 10
-94.250015258789
 20
-23.3500022888184
 30
0.0
 11
-93.250015258789
 21
-23.9750022888184
 31
0.0
  0
LINE
  5
77
330
1F
100
AcDbEntity
  8
1
  6
Continuous
 62
     4
100
AcDbLine
 10
-92.875015258789
 20
-23.0375022888184
 30
0.0
 11
-93.687515258789
 21
-22.4125022888184
 31
0.0
  0
LINE
  5
78
330
1F
100
AcDbEntity
  8
1
  6
Continuous
 62
     4
100
AcDbLine
 10
-92.187515258789
 20
-22.2875022888184
 30
0.0
 11
-91.750015258789
 21
-22.7250022888184
 31
0.0
  0
LINE
  5
79
330
1F
100
AcDbEntity
  8
1
  6
Continuous
 62
     4
100
AcDbLine
 10
-91.437515258789
 20
-22.4125022888184
 30
0.0
 11
-91.875015258789
 21
-21.9750022888184
 31
0.0
  0
LINE
  5
7A
330
1F
100
AcDbEntity
  8
1
  6
Continuous
 62
     4
100
AcDbLine
 10
-91.750015258789
 20
-24.2875022888184
 30
0.0
 11
-91.062515258789
 21
-23.3500022888184
 31
0.0
  0
LINE
  5
7B
330
1F
100
AcDbEntity
  8
1
  6
Continuous
 62
     4
100
AcDbLine
 10
-92.875015258789
 20
-25.2250022888184
 30
0.0
 11
-91.750015258789
 21
-24.2875022888184
 31
0.0
  0
LINE
  5
7C
330
1F
100
AcDbEntity
  8
1
  6
Continuous
 62
     4
100
AcDbLine
 10
-93.937515258789
 20
-25.8500022888184
 30
0.0
 11
-92.875015258789
 21
-25.2250022888184
 31
0.0
  0
LINE
  5
7D
330
1F
100
AcDbEntity
  8
1
  6
Continuous
 62
     4
100
AcDbLine
 10
-96.625015258789
 20
-24.4750022888184
 30
0.0
 11
-96.187515258789
 21
-25.1000022888184
 31
0.0
  0
LINE
  5
7E
330
1F
100
AcDbEntity
  8
1
  6
Continuous
 62
     4
100
AcDbLine
 10
-97.187515258789
 20
-23.9750022888184
 30
0.0
 11
-96.625015258789
 21
-24.4750022888184
 31
0.0
  0
LINE
  5
7F
330
1F
100
AcDbEntity
  8
1
  6
Continuous
 62
     4
100
AcDbLine
 10
-97.562515258789
 20
-21.9750022888184
 30
0.0
 11
-97.312515258789
 21
-22.2875022888184
 31
0.0
  0
LINE
  5
80
330
1F
100
AcDbEntity
  8
1
  6
Continuous
 62
     4
100
AcDbLine
 10
-98.125015258789
 20
-21.6625022888184
 30
0.0
 11
-97.562515258789
 21
-21.9750022888184
 31
0.0
  0
LINE
  5
81
330
1F
100
AcDbEntity
  8
1
  6
Continuous
 62
     4
100
AcDbLine
 10
-96.875015258789
 20
-22.9125022888184
 30
0.0
 11
-98.812515258789
 21
-22.9125022888184
 31
0.0
  0
LINE
  5
82
330
1F
100
AcDbEntity
  8
1
  6
Continuous
 62
     4
100
AcDbLine
 10
-97.875015258789
 20
-23.9750022888184
 30
0.0
 11
-96.875015258789
 21
-22.9125022888184
 31
0.0
  0
LINE
  5
83
330
1F
100
AcDbEntity
  8
1
  6
Continuous
 62
     4
100
AcDbLine
 10
-99.250015258789
 20
-24.9125022888184
 30
0.0
 11
-97.875015258789
 21
-23.9750022888184
 31
0.0
  0
LINE
  5
84
330
1F
100
AcDbEntity
  8
1
  6
Continuous
 62
     4
100
AcDbLine
 10
-97.687515258789
 20
-25.8500022888184
 30
0.0
 11
-97.687515258789
 21
-23.8500022888184
 31
0.0
  0
LINE
  5
85
330
1F
100
AcDbEntity
  8
1
  6
Continuous
 62
     4
100
AcDbLine
 10
-104.437515258789
 20
-26.3500022888184
 30
0.0
 11
-101.437515258789
 21
-26.3500022888184
 31
0.0
  0
LINE
  5
86
330
1F
100
AcDbEntity
  8
1
  6
Continuous
 62
     4
100
AcDbLine
 10
-101.687515258789
 20
-23.1000022888184
 30
0.0
 11
-104.437515258789
 21
-26.3500022888184
 31
0.0
  0
LINE
  5
87
330
1F
100
AcDbEntity
  8
1
  6
Continuous
 62
     4
100
AcDbLine
 10
-101.437515258789
 20
-22.6000022888184
 30
0.0
 11
-101.687515258789
 21
-23.1000022888184
 31
0.0
  0
LINE
  5
88
330
1F
100
AcDbEntity
  8
1
  6
Continuous
 62
     4
100
AcDbLine
 10
-101.437515258789
 20
-22.1000022888184
 30
0.0
 11
-101.437515258789
 21
-22.6000022888184
 31
0.0
  0
LINE
  5
89
330
1F
100
AcDbEntity
  8
1
  6
Continuous
 62
     4
100
AcDbLine
 10
-101.687515258789
 20
-21.7250022888184
 30
0.0
 11
-101.437515258789
 21
-22.1000022888184
 31
0.0
  0
LINE
  5
8A
330
1F
100
AcDbEntity
  8
1
  6
Continuous
 62
     4
100
AcDbLine
 10
-102.062515258789
 20
-21.4750022888184
 30
0.0
 11
-101.687515258789
 21
-21.7250022888184
 31
0.0
  0
LINE
  5
8B
330
1F
100
AcDbEntity
  8
1
  6
Continuous
 62
     4
100
AcDbLine
 10
-102.562515258789
 20
-21.3500022888184
 30
0.0
 11
-102.062515258789
 21
-21.4750022888184
 31
0.0
  0
LINE
  5
8C
330
1F
100
AcDbEntity
  8
1
  6
Continuous
 62
     4
100
AcDbLine
 10
-103.312515258789
 20
-21.3500022888184
 30
0.0
 11
-102.562515258789
 21
-21.3500022888184
 31
0.0
  0
LINE
  5
8D
330
1F
100
AcDbEntity
  8
1
  6
Continuous
 62
     4
100
AcDbLine
 10
-103.812515258789
 20
-21.4750022888184
 30
0.0
 11
-103.312515258789
 21
-21.3500022888184
 31
0.0
  0
LINE
  5
8E
330
1F
100
AcDbEntity
  8
1
  6
Continuous
 62
     4
100
AcDbLine
 10
-104.187515258789
 20
-21.7250022888184
 30
0.0
 11
-103.812515258789
 21
-21.4750022888184
 31
0.0
  0
LINE
  5
8F
330
1F
100
AcDbEntity
  8
1
  6
Continuous
 62
     4
100
AcDbLine
 10
-104.437515258789
 20
-22.1000022888184
 30
0.0
 11
-104.187515258789
 21
-21.7250022888184
 31
0.0
  0
LINE
  5
90
330
1F
100
AcDbEntity
  8
1
  6
Continuous
 62
     4
100
AcDbLine
 10
-107.937515258789
 20
-26.3500022888184
 30
0.0
 11
-105.937515258789
 21
-21.3500022888184
 31
0.0
  0
LINE
  5
91
330
1F
100
AcDbEntity
  8
1
  6
Continuous
 62
     4
100
AcDbLine
 10
-109.437515258789
 20
-21.3500022888184
 30
0.0
 11
-109.437515258789
 21
-26.3500022888184
 31
0.0
  0
LINE
  5
92
330
1F
100
AcDbEntity
  8
1
  6
Continuous
 62
     4
100
AcDbLine
 10
-110.937515258789
 20
-22.8500022888184
 30
0.0
 11
-109.437515258789
 21
-21.3500022888184
 31
0.0
  0
LINE
  5
93
330
1F
100
AcDbEntity
  8
1
  6
Continuous
 62
     4
100
AcDbLine
 10
-115.937515258789
 20
-26.3500022888184
 30
0.0
 11
-115.937515258789
 21
-23.8500022888184
 31
0.0
  0
LINE
  5
94
330
1F
100
AcDbEntity
  8
1
  6
Continuous
 62
     4
100
AcDbLine
 10
-113.937515258789
 20
-23.8500022888184
 30
0.0
 11
-112.437515258789
 21
-26.3500022888184
 31
0.0
  0
LINE
  5
95
330
1F
100
AcDbEntity
  8
1
  6
Continuous
 62
     4
100
AcDbLine
 10
-113.562515258789
 20
-23.8500022888184
 30
0.0
 11
-113.937515258789
 21
-23.8500022888184
 31
0.0
  0
LINE
  5
96
330
1F
100
AcDbEntity
  8
1
  6
Continuous
 62
     4
100
AcDbLine
 10
-113.062515258789
 20
-23.7250022888184
 30
0.0
 11
-113.562515258789
 21
-23.8500022888184
 31
0.0
  0
LINE
  5
97
330
1F
100
AcDbEntity
  8
1
  6
Continuous
 62
     4
100
AcDbLine
 10
-112.687515258789
 20
-23.4750022888184
 30
0.0
 11
-113.062515258789
 21
-23.7250022888184
 31
0.0
  0
LINE
  5
98
330
1F
100
AcDbEntity
  8
1
  6
Continuous
 62
     4
100
AcDbLine
 10
-112.562515258789
 20
-23.2250022888184
 30
0.0
 11
-112.687515258789
 21
-23.4750022888184
 31
0.0
  0
LINE
  5
99
330
1F
100
AcDbEntity
  8
1
  6
Continuous
 62
     4
100
AcDbLine
 10
-112.437515258789
 20
-22.8500022888184
 30
0.0
 11
-112.562515258789
 21
-23.2250022888184
 31
0.0
  0
LINE
  5
9A
330
1F
100
AcDbEntity
  8
1
  6
Continuous
 62
     4
100
AcDbLine
 10
-112.437515258789
 20
-22.3500022888184
 30
0.0
 11
-112.437515258789
 21
-22.8500022888184
 31
0.0
  0
LINE
  5
9B
330
1F
100
AcDbEntity
  8
1
  6
Continuous
 62
     4
100
AcDbLine
 10
-112.562515258789
 20
-21.9750022888184
 30
0.0
 11
-112.437515258789
 21
-22.3500022888184
 31
0.0
  0
LINE
  5
9C
330
1F
100
AcDbEntity
  8
1
  6
Continuous
 62
     4
100
AcDbLine
 10
-112.687515258789
 20
-21.7250022888184
 30
0.0
 11
-112.562515258789
 21
-21.9750022888184
 31
0.0
  0
LINE
  5
9D
330
1F
100
AcDbEntity
  8
1
  6
Continuous
 62
     4
100
AcDbLine
 10
-113.062515258789
 20
-21.4750022888184
 30
0.0
 11
-112.687515258789
 21
-21.7250022888184
 31
0.0
  0
LINE
  5
9E
330
1F
100
AcDbEntity
  8
1
  6
Continuous
 62
     4
100
AcDbLine
 10
-113.562515258789
 20
-21.3500022888184
 30
0.0
 11
-113.062515258789
 21
-21.4750022888184
 31
0.0
  0
LINE
  5
9F
330
1F
100
AcDbEntity
  8
1
  6
Continuous
 62
     4
100
AcDbLine
 10
-115.937515258789
 20
-21.3500022888184
 30
0.0
 11
-113.562515258789
 21
-21.3500022888184
 31
0.0
  0
LINE
  5
A0
330
1F
100
AcDbEntity
  8
1
  6
Continuous
 62
     4
100
AcDbLine
 10
-115.937515258789
 20
-23.8500022888184
 30
0.0
 11
-115.937515258789
 21
-21.3500022888184
 31
0.0
  0
LINE
  5
A1
330
1F
100
AcDbEntity
  8
1
  6
Continuous
 62
     4
100
AcDbLine
 10
-113.937515258789
 20
-23.8500022888184
 30
0.0
 11
-115.937515258789
 21
-23.8500022888184
 31
0.0
  0
LINE
  5
A2
330
1F
100
AcDbEntity
  8
1
  6
Continuous
 62
     4
100
AcDbLine
 10
-0.6652641423992
 20
-108.299324111231
 30
0.0
 11
-1.1652641423992
 21
-108.924324111231
 31
0.0
  0
LINE
  5
A3
330
1F
100
AcDbEntity
  8
1
  6
Continuous
 62
     4
100
AcDbLine
 10
-1.1652641423992
 20
-107.674324111231
 30
0.0
 11
-0.6652641423992
 21
-108.299324111231
 31
0.0
  0
LINE
  5
A4
330
1F
100
AcDbEntity
  8
1
  6
Continuous
 62
     4
100
AcDbLine
 10
-4.4152641423992
 20
-108.299324111231
 30
0.0
 11
-0.6652641423992
 21
-108.299324111231
 31
0.0
  0
LINE
  5
A5
330
1F
100
AcDbEntity
  8
1
  6
Continuous
 62
     4
100
AcDbLine
 10
-8.5402641423992
 20
-106.861824111231
 30
0.0
 11
-5.6652641423992
 21
-106.861824111231
 31
0.0
  0
LINE
  5
A6
330
1F
100
AcDbEntity
  8
1
  6
Continuous
 62
     4
100
AcDbLine
 10
-8.5402641423992
 20
-106.861824111231
 30
0.0
 11
-7.8527641423992
 21
-105.924324111231
 31
0.0
  0
LINE
  5
A7
330
1F
100
AcDbEntity
  8
1
  6
Continuous
 62
     4
100
AcDbLine
 10
-6.9152641423992
 20
-109.236824111231
 30
0.0
 11
-7.9777641423992
 21
-109.236824111231
 31
0.0
  0
LINE
  5
A8
330
1F
100
AcDbEntity
  8
1
  6
Continuous
 62
     4
100
AcDbLine
 10
-6.9152641423992
 20
-107.986824111231
 30
0.0
 11
-6.9152641423992
 21
-109.236824111231
 31
0.0
  0
LINE
  5
A9
330
1F
100
AcDbEntity
  8
1
  6
Continuous
 62
     4
100
AcDbLine
 10
-7.9777641423992
 20
-107.986824111231
 30
0.0
 11
-6.9152641423992
 21
-107.986824111231
 31
0.0
  0
LINE
  5
AA
330
1F
100
AcDbEntity
  8
1
  6
Continuous
 62
     4
100
AcDbLine
 10
-7.9777641423992
 20
-109.236824111231
 30
0.0
 11
-7.9777641423992
 21
-107.986824111231
 31
0.0
  0
LINE
  5
AB
330
1F
100
AcDbEntity
  8
1
  6
Continuous
 62
     4
100
AcDbLine
 10
-5.6652641423992
 20
-110.611824111231
 30
0.0
 11
-6.3527641423992
 21
-110.611824111231
 31
0.0
  0
LINE
  5
AC
330
1F
100
AcDbEntity
  8
1
  6
Continuous
 62
     4
100
AcDbLine
 10
-5.6652641423992
 20
-106.861824111231
 30
0.0
 11
-5.6652641423992
 21
-110.611824111231
 31
0.0
  0
LINE
  5
AD
330
1F
100
AcDbEntity
  8
1
  6
Continuous
 62
     4
100
AcDbLine
 10
-9.2277641423992
 20
-106.861824111231
 30
0.0
 11
-8.5402641423992
 21
-106.861824111231
 31
0.0
  0
LINE
  5
AE
330
1F
100
AcDbEntity
  8
1
  6
Continuous
 62
     4
100
AcDbLine
 10
-9.2277641423992
 20
-110.611824111231
 30
0.0
 11
-9.2277641423992
 21
-106.861824111231
 31
0.0
  0
LINE
  5
AF
330
1F
100
AcDbEntity
  8
1
  6
Continuous
 62
     4
100
AcDbLine
 10
-11.9152641423992
 20
-110.799324111231
 30
0.0
 11
-12.4152641423992
 21
-110.486824111231
 31
0.0
  0
LINE
  5
B0
330
1F
100
AcDbEntity
  8
1
  6
Continuous
 62
     4
100
AcDbLine
 10
-11.6027641423992
 20
-110.299324111231
 30
0.0
 11
-11.9152641423992
 21
-110.799324111231
 31
0.0
  0
LINE
  5
B1
330
1F
100
AcDbEntity
  8
1
  6
Continuous
 62
     4
100
AcDbLine
 10
-11.3527641423992
 20
-109.549324111231
 30
0.0
 11
-11.6027641423992
 21
-110.299324111231
 31
0.0
  0
LINE
  5
B2
330
1F
100
AcDbEntity
  8
1
  6
Continuous
 62
     4
100
AcDbLine
 10
-11.0402641423992
 20
-108.424324111231
 30
0.0
 11
-11.3527641423992
 21
-109.549324111231
 31
0.0
  0
LINE
  5
B3
330
1F
100
AcDbEntity
  8
1
  6
Continuous
 62
     4
100
AcDbLine
 10
-11.0402641423992
 20
-107.986824111231
 30
0.0
 11
-11.0402641423992
 21
-108.424324111231
 31
0.0
  0
LINE
  5
B4
330
1F
100
AcDbEntity
  8
1
  6
Continuous
 62
     4
100
AcDbLine
 10
-12.8527641423992
 20
-107.986824111231
 30
0.0
 11
-11.0402641423992
 21
-107.986824111231
 31
0.0
  0
LINE
  5
B5
330
1F
100
AcDbEntity
  8
1
  6
Continuous
 62
     4
100
AcDbLine
 10
-14.5402641423992
 20
-106.736824111231
 30
0.0
 11
-10.3527641423992
 21
-106.736824111231
 31
0.0
  0
LINE
  5
B6
330
1F
100
AcDbEntity
  8
1
  6
Continuous
 62
     4
100
AcDbLine
 10
-12.7277641423992
 20
-107.174324111231
 30
0.0
 11
-12.6027641423992
 21
-105.924324111231
 31
0.0
  0
LINE
  5
B7
330
1F
100
AcDbEntity
  8
1
  6
Continuous
 62
     4
100
AcDbLine
 10
-12.9777641423992
 20
-108.424324111231
 30
0.0
 11
-12.7277641423992
 21
-107.174324111231
 31
0.0
  0
LINE
  5
B8
330
1F
100
AcDbEntity
  8
1
  6
Continuous
 62
     4
100
AcDbLine
 10
-13.2902641423992
 20
-109.236824111231
 30
0.0
 11
-12.9777641423992
 21
-108.424324111231
 31
0.0
  0
LINE
  5
B9
330
1F
100
AcDbEntity
  8
1
  6
Continuous
 62
     4
100
AcDbLine
 10
-13.6652641423992
 20
-109.986824111231
 30
0.0
 11
-13.2902641423992
 21
-109.236824111231
 31
0.0
  0
LINE
  5
BA
330
1F
100
AcDbEntity
  8
1
  6
Continuous
 62
     4
100
AcDbLine
 10
-14.2277641423992
 20
-110.611824111231
 30
0.0
 11
-13.6652641423992
 21
-109.986824111231
 31
0.0
  0
LINE
  5
BB
330
1F
100
AcDbEntity
  8
1
  6
Continuous
 62
     4
100
AcDbLine
 10
-15.9152641423992
 20
-109.236824111231
 30
0.0
 11
-15.2277641423992
 21
-109.986824111231
 31
0.0
  0
LINE
  5
BC
330
1F
100
AcDbEntity
  8
1
  6
Continuous
 62
     4
100
AcDbLine
 10
-16.4777641423992
 20
-108.299324111231
 30
0.0
 11
-15.9152641423992
 21
-109.236824111231
 31
0.0
  0
LINE
  5
BD
330
1F
100
AcDbEntity
  8
1
  6
Continuous
 62
     4
100
AcDbLine
 10
-16.9152641423992
 20
-107.174324111231
 30
0.0
 11
-16.4777641423992
 21
-108.299324111231
 31
0.0
  0
LINE
  5
BE
330
1F
100
AcDbEntity
  8
1
  6
Continuous
 62
     4
100
AcDbLine
 10
-15.6652641423992
 20
-107.049324111231
 30
0.0
 11
-16.6027641423992
 21
-107.799324111231
 31
0.0
  0
LINE
  5
BF
330
1F
100
AcDbEntity
  8
1
  6
Continuous
 62
     4
100
AcDbLine
 10
-17.2902641423992
 20
-110.799324111231
 30
0.0
 11
-17.7277641423992
 21
-110.611824111231
 31
0.0
  0
LINE
  5
C0
330
1F
100
AcDbEntity
  8
1
  6
Continuous
 62
     4
100
AcDbLine
 10
-17.2902641423992
 20
-105.924324111231
 30
0.0
 11
-17.2902641423992
 21
-110.799324111231
 31
0.0
  0
LINE
  5
C1
330
1F
100
AcDbEntity
  8
1
  6
Continuous
 62
     4
100
AcDbLine
 10
-17.9777641423992
 20
-107.486824111231
 30
0.0
 11
-19.4152641423992
 21
-107.486824111231
 31
0.0
  0
LINE
  5
C2
330
1F
100
AcDbEntity
  8
1
  6
Continuous
 62
     4
100
AcDbLine
 10
-18.2902641423992
 20
-108.424324111231
 30
0.0
 11
-17.9777641423992
 21
-107.486824111231
 31
0.0
  0
LINE
  5
C3
330
1F
100
AcDbEntity
  8
1
  6
Continuous
 62
     4
100
AcDbLine
 10
-18.8527641423992
 20
-109.361824111231
 30
0.0
 11
-18.2902641423992
 21
-108.424324111231
 31
0.0
  0
LINE
  5
C4
330
1F
100
AcDbEntity
  8
1
  6
Continuous
 62
     4
100
AcDbLine
 10
-19.4152641423992
 20
-109.986824111231
 30
0.0
 11
-18.8527641423992
 21
-109.361824111231
 31
0.0
  0
LINE
  5
C5
330
1F
100
AcDbEntity
  8
1
  6
Continuous
 62
     4
100
AcDbLine
 10
-22.1652641423992
 20
-106.549324111231
 30
0.0
 11
-20.4777641423992
 21
-106.549324111231
 31
0.0
  0
LINE
  5
C6
330
1F
100
AcDbEntity
  8
1
  6
Continuous
 62
     4
100
AcDbLine
 10
-20.2277641423992
 20
-110.299324111231
 30
0.0
 11
-20.2277641423992
 21
-109.986824111231
 31
0.0
  0
LINE
  5
C7
330
1F
100
AcDbEntity
  8
1
  6
Continuous
 62
     4
100
AcDbLine
 10
-20.4777641423992
 20
-110.611824111231
 30
0.0
 11
-20.2277641423992
 21
-110.299324111231
 31
0.0
  0
LINE
  5
C8
330
1F
100
AcDbEntity
  8
1
  6
Continuous
 62
     4
100
AcDbLine
 10
-21.0402641423992
 20
-110.611824111231
 30
0.0
 11
-20.4777641423992
 21
-110.611824111231
 31
0.0
  0
LINE
  5
C9
330
1F
100
AcDbEntity
  8
1
  6
Continuous
 62
     4
100
AcDbLine
 10
-21.3527641423992
 20
-110.174324111231
 30
0.0
 11
-21.0402641423992
 21
-110.611824111231
 31
0.0
  0
LINE
  5
CA
330
1F
100
AcDbEntity
  8
1
  6
Continuous
 62
     4
100
AcDbLine
 10
-21.3527641423992
 20
-108.611824111231
 30
0.0
 11
-21.3527641423992
 21
-110.174324111231
 31
0.0
  0
LINE
  5
CB
330
1F
100
AcDbEntity
  8
1
  6
Continuous
 62
     4
100
AcDbLine
 10
-22.1652641423992
 20
-110.611824111231
 30
0.0
 11
-22.1652641423992
 21
-108.611824111231
 31
0.0
  0
LINE
  5
CC
330
1F
100
AcDbEntity
  8
1
  6
Continuous
 62
     4
100
AcDbLine
 10
-23.4152641423992
 20
-110.486824111231
 30
0.0
 11
-23.8527641423992
 21
-110.799324111231
 31
0.0
  0
LINE
  5
CD
330
1F
100
AcDbEntity
  8
1
  6
Continuous
 62
     4
100
AcDbLine
 10
-23.1652641423992
 20
-110.174324111231
 30
0.0
 11
-23.4152641423992
 21
-110.486824111231
 31
0.0
  0
LINE
  5
CE
330
1F
100
AcDbEntity
  8
1
  6
Continuous
 62
     4
100
AcDbLine
 10
-22.9777641423992
 20
-109.674324111231
 30
0.0
 11
-23.1652641423992
 21
-110.174324111231
 31
0.0
  0
LINE
  5
CF
330
1F
100
AcDbEntity
  8
1
  6
Continuous
 62
     4
100
AcDbLine
 10
-22.8527641423992
 20
-108.611824111231
 30
0.0
 11
-22.9777641423992
 21
-109.674324111231
 31
0.0
  0
LINE
  5
D0
330
1F
100
AcDbEntity
  8
1
  6
Continuous
 62
     4
100
AcDbLine
 10
-21.4777641423992
 20
-107.049324111231
 30
0.0
 11
-20.9152641423992
 21
-108.111824111231
 31
0.0
  0
LINE
  5
D1
330
1F
100
AcDbEntity
  8
1
  6
Continuous
 62
     4
100
AcDbLine
 10
-23.2902641423992
 20
-107.799324111231
 30
0.0
 11
-21.1652641423992
 21
-107.674324111231
 31
0.0
  0
LINE
  5
D2
330
1F
100
AcDbEntity
  8
1
  6
Continuous
 62
     4
100
AcDbLine
 10
-22.1652641423992
 20
-106.549324111231
 30
0.0
 11
-22.7277641423992
 21
-107.799324111231
 31
0.0
  0
LINE
  5
D3
330
1F
100
AcDbEntity
  8
1
  6
Continuous
 62
     4
100
AcDbLine
 10
-22.0402641423992
 20
-105.799324111231
 30
0.0
 11
-22.0402641423992
 21
-106.549324111231
 31
0.0
  0
LINE
  5
D4
330
1F
100
AcDbEntity
  8
1
  6
Continuous
 62
     4
100
AcDbLine
 10
-23.5402641423992
 20
-106.549324111231
 30
0.0
 11
-22.1652641423992
 21
-106.549324111231
 31
0.0
  0
LINE
  5
D5
330
1F
100
AcDbEntity
  8
1
  6
Continuous
 62
     4
100
AcDbLine
 10
-24.5402641423992
 20
-110.611824111231
 30
0.0
 11
-23.9777641423992
 21
-108.611824111231
 31
0.0
  0
LINE
  5
D6
330
1F
100
AcDbEntity
  8
1
  6
Continuous
 62
     4
100
AcDbLine
 10
-24.6652641423992
 20
-107.361824111231
 30
0.0
 11
-24.2277641423992
 21
-107.799324111231
 31
0.0
  0
LINE
  5
D7
330
1F
100
AcDbEntity
  8
1
  6
Continuous
 62
     4
100
AcDbLine
 10
-24.2277641423992
 20
-105.924324111231
 30
0.0
 11
-23.9777641423992
 21
-106.424324111231
 31
0.0
  0
LINE
  5
D8
330
1F
100
AcDbEntity
  8
1
  6
Continuous
 62
     4
100
AcDbLine
 10
221.813612792647
 20
89.9051763457633
 30
0.0
 11
221.813612792647
 21
88.6551763457633
 31
0.0
  0
LINE
  5
D9
330
1F
100
AcDbEntity
  8
1
  6
Continuous
 62
     4
100
AcDbLine
 10
221.688612792647
 20
90.6551763457633
 30
0.0
 11
221.813612792647
 21
89.9051763457633
 31
0.0
  0
LINE
  5
DA
330
1F
100
AcDbEntity
  8
1
  6
Continuous
 62
     4
100
AcDbLine
 10
221.438612792647
 20
91.1551763457633
 30
0.0
 11
221.688612792647
 21
90.6551763457633
 31
0.0
  0
LINE
  5
DB
330
1F
100
AcDbEntity
  8
1
  6
Continuous
 62
     4
100
AcDbLine
 10
221.188612792647
 20
91.4051763457633
 30
0.0
 11
221.438612792647
 21
91.1551763457633
 31
0.0
  0
LINE
  5
DC
330
1F
100
AcDbEntity
  8
1
  6
Continuous
 62
     4
100
AcDbLine
 10
220.813612792647
 20
91.6551763457633
 30
0.0
 11
221.188612792647
 21
91.4051763457633
 31
0.0
  0
LINE
  5
DD
330
1F
100
AcDbEntity
  8
1
  6
Continuous
 62
     4
100
AcDbLine
 10
220.438612792647
 20
91.7801763457633
 30
0.0
 11
220.813612792647
 21
91.6551763457633
 31
0.0
  0
LINE
  5
DE
330
1F
100
AcDbEntity
  8
1
  6
Continuous
 62
     4
100
AcDbLine
 10
220.188612792647
 20
91.7801763457633
 30
0.0
 11
220.438612792647
 21
91.7801763457633
 31
0.0
  0
LINE
  5
DF
330
1F
100
AcDbEntity
  8
1
  6
Continuous
 62
     4
100
AcDbLine
 10
219.813612792647
 20
91.6551763457633
 30
0.0
 11
220.188612792647
 21
91.7801763457633
 31
0.0
  0
LINE
  5
E0
330
1F
100
AcDbEntity
  8
1
  6
Continuous
 62
     4
100
AcDbLine
 10
219.438612792647
 20
91.4051763457633
 30
0.0
 11
219.813612792647
 21
91.6551763457633
 31
0.0
  0
LINE
  5
E1
330
1F
100
AcDbEntity
  8
1
  6
Continuous
 62
     4
100
AcDbLine
 10
219.188612792647
 20
91.1551763457633
 30
0.0
 11
219.438612792647
 21
91.4051763457633
 31
0.0
  0
LINE
  5
E2
330
1F
100
AcDbEntity
  8
1
  6
Continuous
 62
     4
100
AcDbLine
 10
218.938612792647
 20
90.6551763457633
 30
0.0
 11
219.188612792647
 21
91.1551763457633
 31
0.0
  0
LINE
  5
E3
330
1F
100
AcDbEntity
  8
1
  6
Continuous
 62
     4
100
AcDbLine
 10
218.813612792647
 20
89.9051763457633
 30
0.0
 11
218.938612792647
 21
90.6551763457633
 31
0.0
  0
LINE
  5
E4
330
1F
100
AcDbEntity
  8
1
  6
Continuous
 62
     4
100
AcDbLine
 10
218.813612792647
 20
88.6551763457633
 30
0.0
 11
218.813612792647
 21
89.9051763457633
 31
0.0
  0
LINE
  5
E5
330
1F
100
AcDbEntity
  8
1
  6
Continuous
 62
     4
100
AcDbLine
 10
218.938612792647
 20
87.9051763457633
 30
0.0
 11
218.813612792647
 21
88.6551763457633
 31
0.0
  0
LINE
  5
E6
330
1F
100
AcDbEntity
  8
1
  6
Continuous
 62
     4
100
AcDbLine
 10
219.188612792647
 20
87.4051763457633
 30
0.0
 11
218.938612792647
 21
87.9051763457633
 31
0.0
  0
LINE
  5
E7
330
1F
100
AcDbEntity
  8
1
  6
Continuous
 62
     4
100
AcDbLine
 10
219.438612792647
 20
87.1551763457633
 30
0.0
 11
219.188612792647
 21
87.4051763457633
 31
0.0
  0
LINE
  5
E8
330
1F
100
AcDbEntity
  8
1
  6
Continuous
 62
     4
100
AcDbLine
 10
219.813612792647
 20
86.9051763457633
 30
0.0
 11
219.438612792647
 21
87.1551763457633
 31
0.0
  0
LINE
  5
E9
330
1F
100
AcDbEntity
  8
1
  6
Continuous
 62
     4
100
AcDbLine
 10
220.188612792647
 20
86.7801763457633
 30
0.0
 11
219.813612792647
 21
86.9051763457633
 31
0.0
  0
LINE
  5
EA
330
1F
100
AcDbEntity
  8
1
  6
Continuous
 62
     4
100
AcDbLine
 10
220.438612792647
 20
86.7801763457633
 30
0.0
 11
220.188612792647
 21
86.7801763457633
 31
0.0
  0
LINE
  5
EB
330
1F
100
AcDbEntity
  8
1
  6
Continuous
 62
     4
100
AcDbLine
 10
220.813612792647
 20
86.9051763457633
 30
0.0
 11
220.438612792647
 21
86.7801763457633
 31
0.0
  0
LINE
  5
EC
330
1F
100
AcDbEntity
  8
1
  6
Continuous
 62
     4
100
AcDbLine
 10
221.188612792647
 20
87.1551763457633
 30
0.0
 11
220.813612792647
 21
86.9051763457633
 31
0.0
  0
LINE
  5
ED
330
1F
100
AcDbEntity
  8
1
  6
Continuous
 62
     4
100
AcDbLine
 10
221.438612792647
 20
87.4051763457633
 30
0.0
 11
221.188612792647
 21
87.1551763457633
 31
0.0
  0
LINE
  5
EE
330
1F
100
AcDbEntity
  8
1
  6
Continuous
 62
     4
100
AcDbLine
 10
221.688612792647
 20
87.9051763457633
 30
0.0
 11
221.438612792647
 21
87.4051763457633
 31
0.0
  0
LINE
  5
EF
330
1F
100
AcDbEntity
  8
1
  6
Continuous
 62
     4
100
AcDbLine
 10
221.813612792647
 20
88.6551763457633
 30
0.0
 11
221.688612792647
 21
87.9051763457633
 31
0.0
  0
LINE
  5
F0
330
1F
100
AcDbEntity
  8
1
  6
Continuous
 62
     4
100
AcDbLine
 10
217.313612792647
 20
89.9051763457633
 30
0.0
 11
217.313612792647
 21
88.6551763457633
 31
0.0
  0
LINE
  5
F1
330
1F
100
AcDbEntity
  8
1
  6
Continuous
 62
     4
100
AcDbLine
 10
217.188612792647
 20
90.6551763457633
 30
0.0
 11
217.313612792647
 21
89.9051763457633
 31
0.0
  0
LINE
  5
F2
330
1F
100
AcDbEntity
  8
1
  6
Continuous
 62
     4
100
AcDbLine
 10
216.938612792647
 20
91.1551763457633
 30
0.0
 11
217.188612792647
 21
90.6551763457633
 31
0.0
  0
LINE
  5
F3
330
1F
100
AcDbEntity
  8
1
  6
Continuous
 62
     4
100
AcDbLine
 10
216.688612792647
 20
91.4051763457633
 30
0.0
 11
216.938612792647
 21
91.1551763457633
 31
0.0
  0
LINE
  5
F4
330
1F
100
AcDbEntity
  8
1
  6
Continuous
 62
     4
100
AcDbLine
 10
216.313612792647
 20
91.6551763457633
 30
0.0
 11
216.688612792647
 21
91.4051763457633
 31
0.0
  0
LINE
  5
F5
330
1F
100
AcDbEntity
  8
1
  6
Continuous
 62
     4
100
AcDbLine
 10
215.938612792647
 20
91.7801763457633
 30
0.0
 11
216.313612792647
 21
91.6551763457633
 31
0.0
  0
LINE
  5
F6
330
1F
100
AcDbEntity
  8
1
  6
Continuous
 62
     4
100
AcDbLine
 10
215.688612792647
 20
91.7801763457633
 30
0.0
 11
215.938612792647
 21
91.7801763457633
 31
0.0
  0
LINE
  5
F7
330
1F
100
AcDbEntity
  8
1
  6
Continuous
 62
     4
100
AcDbLine
 10
215.313612792647
 20
91.6551763457633
 30
0.0
 11
215.688612792647
 21
91.7801763457633
 31
0.0
  0
LINE
  5
F8
330
1F
100
AcDbEntity
  8
1
  6
Continuous
 62
     4
100
AcDbLine
 10
214.938612792647
 20
91.4051763457633
 30
0.0
 11
215.313612792647
 21
91.6551763457633
 31
0.0
  0
LINE
  5
F9
330
1F
100
AcDbEntity
  8
1
  6
Continuous
 62
     4
100
AcDbLine
 10
214.688612792647
 20
91.1551763457633
 30
0.0
 11
214.938612792647
 21
91.4051763457633
 31
0.0
  0
LINE
  5
FA
330
1F
100
AcDbEntity
  8
1
  6
Continuous
 62
     4
100
AcDbLine
 10
214.438612792647
 20
90.6551763457633
 30
0.0
 11
214.688612792647
 21
91.1551763457633
 31
0.0
  0
LINE
  5
FB
330
1F
100
AcDbEntity
  8
1
  6
Continuous
 62
     4
100
AcDbLine
 10
214.313612792647
 20
89.9051763457633
 30
0.0
 11
214.438612792647
 21
90.6551763457633
 31
0.0
  0
LINE
  5
FC
330
1F
100
AcDbEntity
  8
1
  6
Continuous
 62
     4
100
AcDbLine
 10
214.313612792647
 20
88.6551763457633
 30
0.0
 11
214.313612792647
 21
89.9051763457633
 31
0.0
  0
LINE
  5
FD
330
1F
100
AcDbEntity
  8
1
  6
Continuous
 62
     4
100
AcDbLine
 10
214.438612792647
 20
87.9051763457633
 30
0.0
 11
214.313612792647
 21
88.6551763457633
 31
0.0
  0
LINE
  5
FE
330
1F
100
AcDbEntity
  8
1
  6
Continuous
 62
     4
100
AcDbLine
 10
214.688612792647
 20
87.4051763457633
 30
0.0
 11
214.438612792647
 21
87.9051763457633
 31
0.0
  0
LINE
  5
FF
330
1F
100
AcDbEntity
  8
1
  6
Continuous
 62
     4
100
AcDbLine
 10
214.938612792647
 20
87.1551763457633
 30
0.0
 11
214.688612792647
 21
87.4051763457633
 31
0.0
  0
LINE
  5
100
330
1F
100
AcDbEntity
  8
1
  6
Continuous
 62
     4
100
AcDbLine
 10
215.313612792647
 20
86.9051763457633
 30
0.0
 11
214.938612792647
 21
87.1551763457633
 31
0.0
  0
LINE
  5
101
330
1F
100
AcDbEntity
  8
1
  6
Continuous
 62
     4
100
AcDbLine
 10
215.688612792647
 20
86.7801763457633
 30
0.0
 11
215.313612792647
 21
86.9051763457633
 31
0.0
  0
LINE
  5
102
330
1F
100
AcDbEntity
  8
1
  6
Continuous
 62
     4
100
AcDbLine
 10
215.938612792647
 20
86.7801763457633
 30
0.0
 11
215.688612792647
 21
86.7801763457633
 31
0.0
  0
LINE
  5
103
330
1F
100
AcDbEntity
  8
1
  6
Continuous
 62
     4
100
AcDbLine
 10
216.313612792647
 20
86.9051763457633
 30
0.0
 11
215.938612792647
 21
86.7801763457633
 31
0.0
  0
LINE
  5
104
330
1F
100
AcDbEntity
  8
1
  6
Continuous
 62
     4
100
AcDbLine
 10
216.688612792647
 20
87.1551763457633
 30
0.0
 11
216.313612792647
 21
86.9051763457633
 31
0.0
  0
LINE
  5
105
330
1F
100
AcDbEntity
  8
1
  6
Continuous
 62
     4
100
AcDbLine
 10
216.938612792647
 20
87.4051763457633
 30
0.0
 11
216.688612792647
 21
87.1551763457633
 31
0.0
  0
LINE
  5
106
330
1F
100
AcDbEntity
  8
1
  6
Continuous
 62
     4
100
AcDbLine
 10
217.188612792647
 20
87.9051763457633
 30
0.0
 11
216.938612792647
 21
87.4051763457633
 31
0.0
  0
LINE
  5
107
330
1F
100
AcDbEntity
  8
1
  6
Continuous
 62
     4
100
AcDbLine
 10
217.313612792647
 20
88.6551763457633
 30
0.0
 11
217.188612792647
 21
87.9051763457633
 31
0.0
  0
LINE
  5
108
330
1F
100
AcDbEntity
  8
1
  6
Continuous
 62
     4
100
AcDbLine
 10
212.813612792647
 20
89.9051763457633
 30
0.0
 11
212.813612792647
 21
88.6551763457633
 31
0.0
  0
LINE
  5
109
330
1F
100
AcDbEntity
  8
1
  6
Continuous
 62
     4
100
AcDbLine
 10
212.688612792647
 20
90.6551763457633
 30
0.0
 11
212.813612792647
 21
89.9051763457633
 31
0.0
  0
LINE
  5
10A
330
1F
100
AcDbEntity
  8
1
  6
Continuous
 62
     4
100
AcDbLine
 10
212.438612792647
 20
91.1551763457633
 30
0.0
 11
212.688612792647
 21
90.6551763457633
 31
0.0
  0
LINE
  5
10B
330
1F
100
AcDbEntity
  8
1
  6
Continuous
 62
     4
100
AcDbLine
 10
212.188612792647
 20
91.4051763457633
 30
0.0
 11
212.438612792647
 21
91.1551763457633
 31
0.0
  0
LINE
  5
10C
330
1F
100
AcDbEntity
  8
1
  6
Continuous
 62
     4
100
AcDbLine
 10
211.813612792647
 20
91.6551763457633
 30
0.0
 11
212.188612792647
 21
91.4051763457633
 31
0.0
  0
LINE
  5
10D
330
1F
100
AcDbEntity
  8
1
  6
Continuous
 62
     4
100
AcDbLine
 10
211.438612792647
 20
91.7801763457633
 30
0.0
 11
211.813612792647
 21
91.6551763457633
 31
0.0
  0
LINE
  5
10E
330
1F
100
AcDbEntity
  8
1
  6
Continuous
 62
     4
100
AcDbLine
 10
211.188612792647
 20
91.7801763457633
 30
0.0
 11
211.438612792647
 21
91.7801763457633
 31
0.0
  0
LINE
  5
10F
330
1F
100
AcDbEntity
  8
1
  6
Continuous
 62
     4
100
AcDbLine
 10
210.813612792647
 20
91.6551763457633
 30
0.0
 11
211.188612792647
 21
91.7801763457633
 31
0.0
  0
LINE
  5
110
330
1F
100
AcDbEntity
  8
1
  6
Continuous
 62
     4
100
AcDbLine
 10
210.438612792647
 20
91.4051763457633
 30
0.0
 11
210.813612792647
 21
91.6551763457633
 31
0.0
  0
LINE
  5
111
330
1F
100
AcDbEntity
  8
1
  6
Continuous
 62
     4
100
AcDbLine
 10
210.188612792647
 20
91.1551763457633
 30
0.0
 11
210.438612792647
 21
91.4051763457633
 31
0.0
  0
LINE
  5
112
330
1F
100
AcDbEntity
  8
1
  6
Continuous
 62
     4
100
AcDbLine
 10
209.938612792647
 20
90.6551763457633
 30
0.0
 11
210.188612792647
 21
91.1551763457633
 31
0.0
  0
LINE
  5
113
330
1F
100
AcDbEntity
  8
1
  6
Continuous
 62
     4
100
AcDbLine
 10
209.813612792647
 20
89.9051763457633
 30
0.0
 11
209.938612792647
 21
90.6551763457633
 31
0.0
  0
LINE
  5
114
330
1F
100
AcDbEntity
  8
1
  6
Continuous
 62
     4
100
AcDbLine
 10
209.813612792647
 20
88.6551763457633
 30
0.0
 11
209.813612792647
 21
89.9051763457633
 31
0.0
  0
LINE
  5
115
330
1F
100
AcDbEntity
  8
1
  6
Continuous
 62
     4
100
AcDbLine
 10
209.938612792647
 20
87.9051763457633
 30
0.0
 11
209.813612792647
 21
88.6551763457633
 31
0.0
  0
LINE
  5
116
330
1F
100
AcDbEntity
  8
1
  6
Continuous
 62
     4
100
AcDbLine
 10
210.188612792647
 20
87.4051763457633
 30
0.0
 11
209.938612792647
 21
87.9051763457633
 31
0.0
  0
LINE
  5
117
330
1F
100
AcDbEntity
  8
1
  6
Continuous
 62
     4
100
AcDbLine
 10
210.438612792647
 20
87.1551763457633
 30
0.0
 11
210.188612792647
 21
87.4051763457633
 31
0.0
  0
LINE
  5
118
330
1F
100
AcDbEntity
  8
1
  6
Continuous
 62
     4
100
AcDbLine
 10
210.813612792647
 20
86.9051763457633
 30
0.0
 11
210.438612792647
 21
87.1551763457633
 31
0.0
  0
LINE
  5
119
330
1F
100
AcDbEntity
  8
1
  6
Continuous
 62
     4
100
AcDbLine
 10
211.188612792647
 20
86.7801763457633
 30
0.0
 11
210.813612792647
 21
86.9051763457633
 31
0.0
  0
LINE
  5
11A
330
1F
100
AcDbEntity
  8
1
  6
Continuous
 62
     4
100
AcDbLine
 10
211.438612792647
 20
86.7801763457633
 30
0.0
 11
211.188612792647
 21
86.7801763457633
 31
0.0
  0
LINE
  5
11B
330
1F
100
AcDbEntity
  8
1
  6
Continuous
 62
     4
100
AcDbLine
 10
211.813612792647
 20
86.9051763457633
 30
0.0
 11
211.438612792647
 21
86.7801763457633
 31
0.0
  0
LINE
  5
11C
330
1F
100
AcDbEntity
  8
1
  6
Continuous
 62
     4
100
AcDbLine
 10
212.188612792647
 20
87.1551763457633
 30
0.0
 11
211.813612792647
 21
86.9051763457633
 31
0.0
  0
LINE
  5
11D
330
1F
100
AcDbEntity
  8
1
  6
Continuous
 62
     4
100
AcDbLine
 10
212.438612792647
 20
87.4051763457633
 30
0.0
 11
212.188612792647
 21
87.1551763457633
 31
0.0
  0
LINE
  5
11E
330
1F
100
AcDbEntity
  8
1
  6
Continuous
 62
     4
100
AcDbLine
 10
212.688612792647
 20
87.9051763457633
 30
0.0
 11
212.438612792647
 21
87.4051763457633
 31
0.0
  0
LINE
  5
11F
330
1F
100
AcDbEntity
  8
1
  6
Continuous
 62
     4
100
AcDbLine
 10
212.813612792647
 20
88.6551763457633
 30
0.0
 11
212.688612792647
 21
87.9051763457633
 31
0.0
  0
LINE
  5
120
330
1F
100
AcDbEntity
  8
1
  6
Continuous
 62
     4
100
AcDbLine
 10
208.313612792647
 20
91.7801763457633
 30
0.0
 11
208.313612792647
 21
86.7801763457633
 31
0.0
  0
LINE
  5
121
330
1F
100
AcDbEntity
  8
1
  6
Continuous
 62
     4
100
AcDbLine
 10
206.813612792647
 20
90.2801763457633
 30
0.0
 11
208.313612792647
 21
91.7801763457633
 31
0.0
  0
LINE
  5
122
330
1F
100
AcDbEntity
  8
1
  6
Continuous
 62
     4
100
AcDbLine
 10
195.313612792647
 20
89.9051763457633
 30
0.0
 11
195.313612792647
 21
88.6551763457633
 31
0.0
  0
LINE
  5
123
330
1F
100
AcDbEntity
  8
1
  6
Continuous
 62
     4
100
AcDbLine
 10
195.188612792647
 20
90.6551763457633
 30
0.0
 11
195.313612792647
 21
89.9051763457633
 31
0.0
  0
LINE
  5
124
330
1F
100
AcDbEntity
  8
1
  6
Continuous
 62
     4
100
AcDbLine
 10
194.938612792647
 20
91.1551763457633
 30
0.0
 11
195.188612792647
 21
90.6551763457633
 31
0.0
  0
LINE
  5
125
330
1F
100
AcDbEntity
  8
1
  6
Continuous
 62
     4
100
AcDbLine
 10
194.688612792647
 20
91.4051763457633
 30
0.0
 11
194.938612792647
 21
91.1551763457633
 31
0.0
  0
LINE
  5
126
330
1F
100
AcDbEntity
  8
1
  6
Continuous
 62
     4
100
AcDbLine
 10
194.313612792647
 20
91.6551763457633
 30
0.0
 11
194.688612792647
 21
91.4051763457633
 31
0.0
  0
LINE
  5
127
330
1F
100
AcDbEntity
  8
1
  6
Continuous
 62
     4
100
AcDbLine
 10
193.938612792647
 20
91.7801763457633
 30
0.0
 11
194.313612792647
 21
91.6551763457633
 31
0.0
  0
LINE
  5
128
330
1F
100
AcDbEntity
  8
1
  6
Continuous
 62
     4
100
AcDbLine
 10
193.688612792647
 20
91.7801763457633
 30
0.0
 11
193.938612792647
 21
91.7801763457633
 31
0.0
  0
LINE
  5
129
330
1F
100
AcDbEntity
  8
1
  6
Continuous
 62
     4
100
AcDbLine
 10
193.313612792647
 20
91.6551763457633
 30
0.0
 11
193.688612792647
 21
91.7801763457633
 31
0.0
  0
LINE
  5
12A
330
1F
100
AcDbEntity
  8
1
  6
Continuous
 62
     4
100
AcDbLine
 10
192.938612792647
 20
91.4051763457633
 30
0.0
 11
193.313612792647
 21
91.6551763457633
 31
0.0
  0
LINE
  5
12B
330
1F
100
AcDbEntity
  8
1
  6
Continuous
 62
     4
100
AcDbLine
 10
192.688612792647
 20
91.1551763457633
 30
0.0
 11
192.938612792647
 21
91.4051763457633
 31
0.0
  0
LINE
  5
12C
330
1F
100
AcDbEntity
  8
1
  6
Continuous
 62
     4
100
AcDbLine
 10
192.438612792647
 20
90.6551763457633
 30
0.0
 11
192.688612792647
 21
91.1551763457633
 31
0.0
  0
LINE
  5
12D
330
1F
100
AcDbEntity
  8
1
  6
Continuous
 62
     4
100
AcDbLine
 10
192.313612792647
 20
89.9051763457633
 30
0.0
 11
192.438612792647
 21
90.6551763457633
 31
0.0
  0
LINE
  5
12E
330
1F
100
AcDbEntity
  8
1
  6
Continuous
 62
     4
100
AcDbLine
 10
192.313612792647
 20
88.6551763457633
 30
0.0
 11
192.313612792647
 21
89.9051763457633
 31
0.0
  0
LINE
  5
12F
330
1F
100
AcDbEntity
  8
1
  6
Continuous
 62
     4
100
AcDbLine
 10
192.438612792647
 20
87.9051763457633
 30
0.0
 11
192.313612792647
 21
88.6551763457633
 31
0.0
  0
LINE
  5
130
330
1F
100
AcDbEntity
  8
1
  6
Continuous
 62
     4
100
AcDbLine
 10
192.688612792647
 20
87.4051763457633
 30
0.0
 11
192.438612792647
 21
87.9051763457633
 31
0.0
  0
LINE
  5
131
330
1F
100
AcDbEntity
  8
1
  6
Continuous
 62
     4
100
AcDbLine
 10
192.938612792647
 20
87.1551763457633
 30
0.0
 11
192.688612792647
 21
87.4051763457633
 31
0.0
  0
LINE
  5
132
330
1F
100
AcDbEntity
  8
1
  6
Continuous
 62
     4
100
AcDbLine
 10
193.313612792647
 20
86.9051763457633
 30
0.0
 11
192.938612792647
 21
87.1551763457633
 31
0.0
  0
LINE
  5
133
330
1F
100
AcDbEntity
  8
1
  6
Continuous
 62
     4
100
AcDbLine
 10
193.688612792647
 20
86.7801763457633
 30
0.0
 11
193.313612792647
 21
86.9051763457633
 31
0.0
  0
LINE
  5
134
330
1F
100
AcDbEntity
  8
1
  6
Continuous
 62
     4
100
AcDbLine
 10
193.938612792647
 20
86.7801763457633
 30
0.0
 11
193.688612792647
 21
86.7801763457633
 31
0.0
  0
LINE
  5
135
330
1F
100
AcDbEntity
  8
1
  6
Continuous
 62
     4
100
AcDbLine
 10
194.313612792647
 20
86.9051763457633
 30
0.0
 11
193.938612792647
 21
86.7801763457633
 31
0.0
  0
LINE
  5
136
330
1F
100
AcDbEntity
  8
1
  6
Continuous
 62
     4
100
AcDbLine
 10
194.688612792647
 20
87.1551763457633
 30
0.0
 11
194.313612792647
 21
86.9051763457633
 31
0.0
  0
LINE
  5
137
330
1F
100
AcDbEntity
  8
1
  6
Continuous
 62
     4
100
AcDbLine
 10
194.938612792647
 20
87.4051763457633
 30
0.0
 11
194.688612792647
 21
87.1551763457633
 31
0.0
  0
LINE
  5
138
330
1F
100
AcDbEntity
  8
1
  6
Continuous
 62
     4
100
AcDbLine
 10
195.188612792647
 20
87.9051763457633
 30
0.0
 11
194.938612792647
 21
87.4051763457633
 31
0.0
  0
LINE
  5
139
330
1F
100
AcDbEntity
  8
1
  6
Continuous
 62
     4
100
AcDbLine
 10
195.313612792647
 20
88.6551763457633
 30
0.0
 11
195.188612792647
 21
87.9051763457633
 31
0.0
  0
LINE
  5
13A
330
1F
100
AcDbEntity
  8
1
  6
Continuous
 62
     4
100
AcDbLine
 10
190.938612792647
 20
87.0301763457633
 30
0.0
 11
190.938612792647
 21
86.9051763457633
 31
0.0
  0
LINE
  5
13B
330
1F
100
AcDbEntity
  8
1
  6
Continuous
 62
     4
100
AcDbLine
 10
190.813612792647
 20
87.0301763457633
 30
0.0
 11
190.938612792647
 21
87.0301763457633
 31
0.0
  0
LINE
  5
13C
330
1F
100
AcDbEntity
  8
1
  6
Continuous
 62
     4
100
AcDbLine
 10
190.813612792647
 20
86.9051763457633
 30
0.0
 11
190.813612792647
 21
87.0301763457633
 31
0.0
  0
LINE
  5
13D
330
1F
100
AcDbEntity
  8
1
  6
Continuous
 62
     4
100
AcDbLine
 10
190.938612792647
 20
86.9051763457633
 30
0.0
 11
190.813612792647
 21
86.9051763457633
 31
0.0
  0
LINE
  5
13E
330
1F
100
AcDbEntity
  8
1
  6
Continuous
 62
     4
100
AcDbLine
 10
191.063612792647
 20
87.1551763457633
 30
0.0
 11
191.063612792647
 21
86.7801763457633
 31
0.0
  0
LINE
  5
13F
330
1F
100
AcDbEntity
  8
1
  6
Continuous
 62
     4
100
AcDbLine
 10
190.688612792647
 20
87.1551763457633
 30
0.0
 11
191.063612792647
 21
87.1551763457633
 31
0.0
  0
LINE
  5
140
330
1F
100
AcDbEntity
  8
1
  6
Continuous
 62
     4
100
AcDbLine
 10
190.688612792647
 20
86.7801763457633
 30
0.0
 11
190.688612792647
 21
87.1551763457633
 31
0.0
  0
LINE
  5
141
330
1F
100
AcDbEntity
  8
1
  6
Continuous
 62
     4
100
AcDbLine
 10
191.063612792647
 20
86.7801763457633
 30
0.0
 11
190.688612792647
 21
86.7801763457633
 31
0.0
  0
LINE
  5
142
330
1F
100
AcDbEntity
  8
1
  6
Continuous
 62
     4
100
AcDbLine
 10
189.188612792647
 20
91.7801763457633
 30
0.0
 11
189.188612792647
 21
86.7801763457633
 31
0.0
  0
LINE
  5
143
330
1F
100
AcDbEntity
  8
1
  6
Continuous
 62
     4
100
AcDbLine
 10
187.688612792647
 20
90.2801763457633
 30
0.0
 11
189.188612792647
 21
91.7801763457633
 31
0.0
  0
LINE
  5
144
330
1F
100
AcDbEntity
  8
1
  6
Continuous
 62
     4
100
AcDbLine
 10
220.313612792647
 20
98.23517634576329
 30
0.0
 11
220.313612792647
 21
96.98517634576329
 31
0.0
  0
LINE
  5
145
330
1F
100
AcDbEntity
  8
1
  6
Continuous
 62
     4
100
AcDbLine
 10
220.188612792647
 20
98.98517634576329
 30
0.0
 11
220.313612792647
 21
98.23517634576329
 31
0.0
  0
LINE
  5
146
330
1F
100
AcDbEntity
  8
1
  6
Continuous
 62
     4
100
AcDbLine
 10
219.938612792647
 20
99.48517634576329
 30
0.0
 11
220.188612792647
 21
98.98517634576329
 31
0.0
  0
LINE
  5
147
330
1F
100
AcDbEntity
  8
1
  6
Continuous
 62
     4
100
AcDbLine
 10
219.688612792647
 20
99.73517634576329
 30
0.0
 11
219.938612792647
 21
99.48517634576329
 31
0.0
  0
LINE
  5
148
330
1F
100
AcDbEntity
  8
1
  6
Continuous
 62
     4
100
AcDbLine
 10
219.313612792647
 20
99.98517634576329
 30
0.0
 11
219.688612792647
 21
99.73517634576329
 31
0.0
  0
LINE
  5
149
330
1F
100
AcDbEntity
  8
1
  6
Continuous
 62
     4
100
AcDbLine
 10
218.938612792647
 20
100.1101763457633
 30
0.0
 11
219.313612792647
 21
99.98517634576329
 31
0.0
  0
LINE
  5
14A
330
1F
100
AcDbEntity
  8
1
  6
Continuous
 62
     4
100
AcDbLine
 10
218.688612792647
 20
100.1101763457633
 30
0.0
 11
218.938612792647
 21
100.1101763457633
 31
0.0
  0
LINE
  5
14B
330
1F
100
AcDbEntity
  8
1
  6
Continuous
 62
     4
100
AcDbLine
 10
218.313612792647
 20
99.98517634576329
 30
0.0
 11
218.688612792647
 21
100.1101763457633
 31
0.0
  0
LINE
  5
14C
330
1F
100
AcDbEntity
  8
1
  6
Continuous
 62
     4
100
AcDbLine
 10
217.938612792647
 20
99.73517634576329
 30
0.0
 11
218.313612792647
 21
99.98517634576329
 31
0.0
  0
LINE
  5
14D
330
1F
100
AcDbEntity
  8
1
  6
Continuous
 62
     4
100
AcDbLine
 10
217.688612792647
 20
99.48517634576329
 30
0.0
 11
217.938612792647
 21
99.73517634576329
 31
0.0
  0
LINE
  5
14E
330
1F
100
AcDbEntity
  8
1
  6
Continuous
 62
     4
100
AcDbLine
 10
217.438612792647
 20
98.98517634576329
 30
0.0
 11
217.688612792647
 21
99.48517634576329
 31
0.0
  0
LINE
  5
14F
330
1F
100
AcDbEntity
  8
1
  6
Continuous
 62
     4
100
AcDbLine
 10
217.313612792647
 20
98.23517634576329
 30
0.0
 11
217.438612792647
 21
98.98517634576329
 31
0.0
  0
LINE
  5
150
330
1F
100
AcDbEntity
  8
1
  6
Continuous
 62
     4
100
AcDbLine
 10
217.313612792647
 20
96.98517634576329
 30
0.0
 11
217.313612792647
 21
98.23517634576329
 31
0.0
  0
LINE
  5
151
330
1F
100
AcDbEntity
  8
1
  6
Continuous
 62
     4
100
AcDbLine
 10
217.438612792647
 20
96.23517634576329
 30
0.0
 11
217.313612792647
 21
96.98517634576329
 31
0.0
  0
LINE
  5
152
330
1F
100
AcDbEntity
  8
1
  6
Continuous
 62
     4
100
AcDbLine
 10
217.688612792647
 20
95.73517634576329
 30
0.0
 11
217.438612792647
 21
96.23517634576329
 31
0.0
  0
LINE
  5
153
330
1F
100
AcDbEntity
  8
1
  6
Continuous
 62
     4
100
AcDbLine
 10
217.938612792647
 20
95.48517634576329
 30
0.0
 11
217.688612792647
 21
95.73517634576329
 31
0.0
  0
LINE
  5
154
330
1F
100
AcDbEntity
  8
1
  6
Continuous
 62
     4
100
AcDbLine
 10
218.313612792647
 20
95.23517634576329
 30
0.0
 11
217.938612792647
 21
95.48517634576329
 31
0.0
  0
LINE
  5
155
330
1F
100
AcDbEntity
  8
1
  6
Continuous
 62
     4
100
AcDbLine
 10
218.688612792647
 20
95.11017634576329
 30
0.0
 11
218.313612792647
 21
95.23517634576329
 31
0.0
  0
LINE
  5
156
330
1F
100
AcDbEntity
  8
1
  6
Continuous
 62
     4
100
AcDbLine
 10
218.938612792647
 20
95.11017634576329
 30
0.0
 11
218.688612792647
 21
95.11017634576329
 31
0.0
  0
LINE
  5
157
330
1F
100
AcDbEntity
  8
1
  6
Continuous
 62
     4
100
AcDbLine
 10
219.313612792647
 20
95.23517634576329
 30
0.0
 11
218.938612792647
 21
95.11017634576329
 31
0.0
  0
LINE
  5
158
330
1F
100
AcDbEntity
  8
1
  6
Continuous
 62
     4
100
AcDbLine
 10
219.688612792647
 20
95.48517634576329
 30
0.0
 11
219.313612792647
 21
95.23517634576329
 31
0.0
  0
LINE
  5
159
330
1F
100
AcDbEntity
  8
1
  6
Continuous
 62
     4
100
AcDbLine
 10
219.938612792647
 20
95.73517634576329
 30
0.0
 11
219.688612792647
 21
95.48517634576329
 31
0.0
  0
LINE
  5
15A
330
1F
100
AcDbEntity
  8
1
  6
Continuous
 62
     4
100
AcDbLine
 10
220.188612792647
 20
96.23517634576329
 30
0.0
 11
219.938612792647
 21
95.73517634576329
 31
0.0
  0
LINE
  5
15B
330
1F
100
AcDbEntity
  8
1
  6
Continuous
 62
     4
100
AcDbLine
 10
220.313612792647
 20
96.98517634576329
 30
0.0
 11
220.188612792647
 21
96.23517634576329
 31
0.0
  0
LINE
  5
15C
330
1F
100
AcDbEntity
  8
1
  6
Continuous
 62
     4
100
AcDbLine
 10
215.813612792647
 20
98.23517634576329
 30
0.0
 11
215.813612792647
 21
96.98517634576329
 31
0.0
  0
LINE
  5
15D
330
1F
100
AcDbEntity
  8
1
  6
Continuous
 62
     4
100
AcDbLine
 10
215.688612792647
 20
98.98517634576329
 30
0.0
 11
215.813612792647
 21
98.23517634576329
 31
0.0
  0
LINE
  5
15E
330
1F
100
AcDbEntity
  8
1
  6
Continuous
 62
     4
100
AcDbLine
 10
215.438612792647
 20
99.48517634576329
 30
0.0
 11
215.688612792647
 21
98.98517634576329
 31
0.0
  0
LINE
  5
15F
330
1F
100
AcDbEntity
  8
1
  6
Continuous
 62
     4
100
AcDbLine
 10
215.188612792647
 20
99.73517634576329
 30
0.0
 11
215.438612792647
 21
99.48517634576329
 31
0.0
  0
LINE
  5
160
330
1F
100
AcDbEntity
  8
1
  6
Continuous
 62
     4
100
AcDbLine
 10
214.813612792647
 20
99.98517634576329
 30
0.0
 11
215.188612792647
 21
99.73517634576329
 31
0.0
  0
LINE
  5
161
330
1F
100
AcDbEntity
  8
1
  6
Continuous
 62
     4
100
AcDbLine
 10
214.438612792647
 20
100.1101763457633
 30
0.0
 11
214.813612792647
 21
99.98517634576329
 31
0.0
  0
LINE
  5
162
330
1F
100
AcDbEntity
  8
1
  6
Continuous
 62
     4
100
AcDbLine
 10
214.188612792647
 20
100.1101763457633
 30
0.0
 11
214.438612792647
 21
100.1101763457633
 31
0.0
  0
LINE
  5
163
330
1F
100
AcDbEntity
  8
1
  6
Continuous
 62
     4
100
AcDbLine
 10
213.813612792647
 20
99.98517634576329
 30
0.0
 11
214.188612792647
 21
100.1101763457633
 31
0.0
  0
LINE
  5
164
330
1F
100
AcDbEntity
  8
1
  6
Continuous
 62
     4
100
AcDbLine
 10
213.438612792647
 20
99.73517634576329
 30
0.0
 11
213.813612792647
 21
99.98517634576329
 31
0.0
  0
LINE
  5
165
330
1F
100
AcDbEntity
  8
1
  6
Continuous
 62
     4
100
AcDbLine
 10
213.188612792647
 20
99.48517634576329
 30
0.0
 11
213.438612792647
 21
99.73517634576329
 31
0.0
  0
LINE
  5
166
330
1F
100
AcDbEntity
  8
1
  6
Continuous
 62
     4
100
AcDbLine
 10
212.938612792647
 20
98.98517634576329
 30
0.0
 11
213.188612792647
 21
99.48517634576329
 31
0.0
  0
LINE
  5
167
330
1F
100
AcDbEntity
  8
1
  6
Continuous
 62
     4
100
AcDbLine
 10
212.813612792647
 20
98.23517634576329
 30
0.0
 11
212.938612792647
 21
98.98517634576329
 31
0.0
  0
LINE
  5
168
330
1F
100
AcDbEntity
  8
1
  6
Continuous
 62
     4
100
AcDbLine
 10
212.813612792647
 20
96.98517634576329
 30
0.0
 11
212.813612792647
 21
98.23517634576329
 31
0.0
  0
LINE
  5
169
330
1F
100
AcDbEntity
  8
1
  6
Continuous
 62
     4
100
AcDbLine
 10
212.938612792647
 20
96.23517634576329
 30
0.0
 11
212.813612792647
 21
96.98517634576329
 31
0.0
  0
LINE
  5
16A
330
1F
100
AcDbEntity
  8
1
  6
Continuous
 62
     4
100
AcDbLine
 10
213.188612792647
 20
95.73517634576329
 30
0.0
 11
212.938612792647
 21
96.23517634576329
 31
0.0
  0
LINE
  5
16B
330
1F
100
AcDbEntity
  8
1
  6
Continuous
 62
     4
100
AcDbLine
 10
213.438612792647
 20
95.48517634576329
 30
0.0
 11
213.188612792647
 21
95.73517634576329
 31
0.0
  0
LINE
  5
16C
330
1F
100
AcDbEntity
  8
1
  6
Continuous
 62
     4
100
AcDbLine
 10
213.813612792647
 20
95.23517634576329
 30
0.0
 11
213.438612792647
 21
95.48517634576329
 31
0.0
  0
LINE
  5
16D
330
1F
100
AcDbEntity
  8
1
  6
Continuous
 62
     4
100
AcDbLine
 10
214.188612792647
 20
95.11017634576329
 30
0.0
 11
213.813612792647
 21
95.23517634576329
 31
0.0
  0
LINE
  5
16E
330
1F
100
AcDbEntity
  8
1
  6
Continuous
 62
     4
100
AcDbLine
 10
214.438612792647
 20
95.11017634576329
 30
0.0
 11
214.188612792647
 21
95.11017634576329
 31
0.0
  0
LINE
  5
16F
330
1F
100
AcDbEntity
  8
1
  6
Continuous
 62
     4
100
AcDbLine
 10
214.813612792647
 20
95.23517634576329
 30
0.0
 11
214.438612792647
 21
95.11017634576329
 31
0.0
  0
LINE
  5
170
330
1F
100
AcDbEntity
  8
1
  6
Continuous
 62
     4
100
AcDbLine
 10
215.188612792647
 20
95.48517634576329
 30
0.0
 11
214.813612792647
 21
95.23517634576329
 31
0.0
  0
LINE
  5
171
330
1F
100
AcDbEntity
  8
1
  6
Continuous
 62
     4
100
AcDbLine
 10
215.438612792647
 20
95.73517634576329
 30
0.0
 11
215.188612792647
 21
95.48517634576329
 31
0.0
  0
LINE
  5
172
330
1F
100
AcDbEntity
  8
1
  6
Continuous
 62
     4
100
AcDbLine
 10
215.688612792647
 20
96.23517634576329
 30
0.0
 11
215.438612792647
 21
95.73517634576329
 31
0.0
  0
LINE
  5
173
330
1F
100
AcDbEntity
  8
1
  6
Continuous
 62
     4
100
AcDbLine
 10
215.813612792647
 20
96.98517634576329
 30
0.0
 11
215.688612792647
 21
96.23517634576329
 31
0.0
  0
LINE
  5
174
330
1F
100
AcDbEntity
  8
1
  6
Continuous
 62
     4
100
AcDbLine
 10
208.813612792647
 20
99.73517634576329
 30
0.0
 11
209.188612792647
 21
99.98517634576329
 31
0.0
  0
LINE
  5
175
330
1F
100
AcDbEntity
  8
1
  6
Continuous
 62
     4
100
AcDbLine
 10
208.563612792647
 20
99.36017634576329
 30
0.0
 11
208.813612792647
 21
99.73517634576329
 31
0.0
  0
LINE
  5
176
330
1F
100
AcDbEntity
  8
1
  6
Continuous
 62
     4
100
AcDbLine
 10
208.563612792647
 20
98.86017634576329
 30
0.0
 11
208.563612792647
 21
99.36017634576329
 31
0.0
  0
LINE
  5
177
330
1F
100
AcDbEntity
  8
1
  6
Continuous
 62
     4
100
AcDbLine
 10
208.813612792647
 20
98.48517634576329
 30
0.0
 11
208.563612792647
 21
98.86017634576329
 31
0.0
  0
LINE
  5
178
330
1F
100
AcDbEntity
  8
1
  6
Continuous
 62
     4
100
AcDbLine
 10
209.188612792647
 20
98.23517634576329
 30
0.0
 11
208.813612792647
 21
98.48517634576329
 31
0.0
  0
LINE
  5
179
330
1F
100
AcDbEntity
  8
1
  6
Continuous
 62
     4
100
AcDbLine
 10
209.563612792647
 20
98.11017634576329
 30
0.0
 11
209.188612792647
 21
98.23517634576329
 31
0.0
  0
LINE
  5
17A
330
1F
100
AcDbEntity
  8
1
  6
Continuous
 62
     4
100
AcDbLine
 10
210.063612792647
 20
98.11017634576329
 30
0.0
 11
209.563612792647
 21
98.11017634576329
 31
0.0
  0
LINE
  5
17B
330
1F
100
AcDbEntity
  8
1
  6
Continuous
 62
     4
100
AcDbLine
 10
210.438612792647
 20
98.23517634576329
 30
0.0
 11
210.063612792647
 21
98.11017634576329
 31
0.0
  0
LINE
  5
17C
330
1F
100
AcDbEntity
  8
1
  6
Continuous
 62
     4
100
AcDbLine
 10
210.813612792647
 20
98.48517634576329
 30
0.0
 11
210.438612792647
 21
98.23517634576329
 31
0.0
  0
LINE
  5
17D
330
1F
100
AcDbEntity
  8
1
  6
Continuous
 62
     4
100
AcDbLine
 10
211.063612792647
 20
98.86017634576329
 30
0.0
 11
210.813612792647
 21
98.48517634576329
 31
0.0
  0
LINE
  5
17E
330
1F
100
AcDbEntity
  8
1
  6
Continuous
 62
     4
100
AcDbLine
 10
211.063612792647
 20
99.36017634576329
 30
0.0
 11
211.063612792647
 21
98.86017634576329
 31
0.0
  0
LINE
  5
17F
330
1F
100
AcDbEntity
  8
1
  6
Continuous
 62
     4
100
AcDbLine
 10
210.813612792647
 20
99.73517634576329
 30
0.0
 11
211.063612792647
 21
99.36017634576329
 31
0.0
  0
LINE
  5
180
330
1F
100
AcDbEntity
  8
1
  6
Continuous
 62
     4
100
AcDbLine
 10
210.438612792647
 20
99.98517634576329
 30
0.0
 11
210.813612792647
 21
99.73517634576329
 31
0.0
  0
LINE
  5
181
330
1F
100
AcDbEntity
  8
1
  6
Continuous
 62
     4
100
AcDbLine
 10
210.063612792647
 20
100.1101763457633
 30
0.0
 11
210.438612792647
 21
99.98517634576329
 31
0.0
  0
LINE
  5
182
330
1F
100
AcDbEntity
  8
1
  6
Continuous
 62
     4
100
AcDbLine
 10
209.563612792647
 20
100.1101763457633
 30
0.0
 11
210.063612792647
 21
100.1101763457633
 31
0.0
  0
LINE
  5
183
330
1F
100
AcDbEntity
  8
1
  6
Continuous
 62
     4
100
AcDbLine
 10
209.188612792647
 20
99.98517634576329
 30
0.0
 11
209.563612792647
 21
100.1101763457633
 31
0.0
  0
LINE
  5
184
330
1F
100
AcDbEntity
  8
1
  6
Continuous
 62
     4
100
AcDbLine
 10
210.688612792647
 20
97.86017634576329
 30
0.0
 11
210.063612792647
 21
98.11017634576329
 31
0.0
  0
LINE
  5
185
330
1F
100
AcDbEntity
  8
1
  6
Continuous
 62
     4
100
AcDbLine
 10
211.063612792647
 20
97.48517634576329
 30
0.0
 11
210.688612792647
 21
97.86017634576329
 31
0.0
  0
LINE
  5
186
330
1F
100
AcDbEntity
  8
1
  6
Continuous
 62
     4
100
AcDbLine
 10
211.313612792647
 20
96.98517634576329
 30
0.0
 11
211.063612792647
 21
97.48517634576329
 31
0.0
  0
LINE
  5
187
330
1F
100
AcDbEntity
  8
1
  6
Continuous
 62
     4
100
AcDbLine
 10
211.313612792647
 20
96.23517634576329
 30
0.0
 11
211.313612792647
 21
96.98517634576329
 31
0.0
  0
LINE
  5
188
330
1F
100
AcDbEntity
  8
1
  6
Continuous
 62
     4
100
AcDbLine
 10
211.063612792647
 20
95.73517634576329
 30
0.0
 11
211.313612792647
 21
96.23517634576329
 31
0.0
  0
LINE
  5
189
330
1F
100
AcDbEntity
  8
1
  6
Continuous
 62
     4
100
AcDbLine
 10
210.688612792647
 20
95.36017634576329
 30
0.0
 11
211.063612792647
 21
95.73517634576329
 31
0.0
  0
LINE
  5
18A
330
1F
100
AcDbEntity
  8
1
  6
Continuous
 62
     4
100
AcDbLine
 10
210.188612792647
 20
95.11017634576329
 30
0.0
 11
210.688612792647
 21
95.36017634576329
 31
0.0
  0
LINE
  5
18B
330
1F
100
AcDbEntity
  8
1
  6
Continuous
 62
     4
100
AcDbLine
 10
209.438612792647
 20
95.11017634576329
 30
0.0
 11
210.188612792647
 21
95.11017634576329
 31
0.0
  0
LINE
  5
18C
330
1F
100
AcDbEntity
  8
1
  6
Continuous
 62
     4
100
AcDbLine
 10
208.938612792647
 20
95.36017634576329
 30
0.0
 11
209.438612792647
 21
95.11017634576329
 31
0.0
  0
LINE
  5
18D
330
1F
100
AcDbEntity
  8
1
  6
Continuous
 62
     4
100
AcDbLine
 10
208.563612792647
 20
95.73517634576329
 30
0.0
 11
208.938612792647
 21
95.36017634576329
 31
0.0
  0
LINE
  5
18E
330
1F
100
AcDbEntity
  8
1
  6
Continuous
 62
     4
100
AcDbLine
 10
208.313612792647
 20
96.23517634576329
 30
0.0
 11
208.563612792647
 21
95.73517634576329
 31
0.0
  0
LINE
  5
18F
330
1F
100
AcDbEntity
  8
1
  6
Continuous
 62
     4
100
AcDbLine
 10
208.313612792647
 20
96.98517634576329
 30
0.0
 11
208.313612792647
 21
96.23517634576329
 31
0.0
  0
LINE
  5
190
330
1F
100
AcDbEntity
  8
1
  6
Continuous
 62
     4
100
AcDbLine
 10
208.563612792647
 20
97.48517634576329
 30
0.0
 11
208.313612792647
 21
96.98517634576329
 31
0.0
  0
LINE
  5
191
330
1F
100
AcDbEntity
  8
1
  6
Continuous
 62
     4
100
AcDbLine
 10
208.938612792647
 20
97.86017634576329
 30
0.0
 11
208.563612792647
 21
97.48517634576329
 31
0.0
  0
LINE
  5
192
330
1F
100
AcDbEntity
  8
1
  6
Continuous
 62
     4
100
AcDbLine
 10
209.563612792647
 20
98.11017634576329
 30
0.0
 11
208.938612792647
 21
97.86017634576329
 31
0.0
  0
LINE
  5
193
330
1F
100
AcDbEntity
  8
1
  6
Continuous
 62
     4
100
AcDbLine
 10
194.313612792647
 20
99.73517634576329
 30
0.0
 11
194.688612792647
 21
99.98517634576329
 31
0.0
  0
LINE
  5
194
330
1F
100
AcDbEntity
  8
1
  6
Continuous
 62
     4
100
AcDbLine
 10
194.063612792647
 20
99.36017634576329
 30
0.0
 11
194.313612792647
 21
99.73517634576329
 31
0.0
  0
LINE
  5
195
330
1F
100
AcDbEntity
  8
1
  6
Continuous
 62
     4
100
AcDbLine
 10
194.063612792647
 20
98.86017634576329
 30
0.0
 11
194.063612792647
 21
99.36017634576329
 31
0.0
  0
LINE
  5
196
330
1F
100
AcDbEntity
  8
1
  6
Continuous
 62
     4
100
AcDbLine
 10
194.313612792647
 20
98.48517634576329
 30
0.0
 11
194.063612792647
 21
98.86017634576329
 31
0.0
  0
LINE
  5
197
330
1F
100
AcDbEntity
  8
1
  6
Continuous
 62
     4
100
AcDbLine
 10
194.688612792647
 20
98.23517634576329
 30
0.0
 11
194.313612792647
 21
98.48517634576329
 31
0.0
  0
LINE
  5
198
330
1F
100
AcDbEntity
  8
1
  6
Continuous
 62
     4
100
AcDbLine
 10
195.063612792647
 20
98.11017634576329
 30
0.0
 11
194.688612792647
 21
98.23517634576329
 31
0.0
  0
LINE
  5
199
330
1F
100
AcDbEntity
  8
1
  6
Continuous
 62
     4
100
AcDbLine
 10
195.563612792647
 20
98.11017634576329
 30
0.0
 11
195.063612792647
 21
98.11017634576329
 31
0.0
  0
LINE
  5
19A
330
1F
100
AcDbEntity
  8
1
  6
Continuous
 62
     4
100
AcDbLine
 10
195.938612792647
 20
98.23517634576329
 30
0.0
 11
195.563612792647
 21
98.11017634576329
 31
0.0
  0
LINE
  5
19B
330
1F
100
AcDbEntity
  8
1
  6
Continuous
 62
     4
100
AcDbLine
 10
196.313612792647
 20
98.48517634576329
 30
0.0
 11
195.938612792647
 21
98.23517634576329
 31
0.0
  0
LINE
  5
19C
330
1F
100
AcDbEntity
  8
1
  6
Continuous
 62
     4
100
AcDbLine
 10
196.563612792647
 20
98.86017634576329
 30
0.0
 11
196.313612792647
 21
98.48517634576329
 31
0.0
  0
LINE
  5
19D
330
1F
100
AcDbEntity
  8
1
  6
Continuous
 62
     4
100
AcDbLine
 10
196.563612792647
 20
99.36017634576329
 30
0.0
 11
196.563612792647
 21
98.86017634576329
 31
0.0
  0
LINE
  5
19E
330
1F
100
AcDbEntity
  8
1
  6
Continuous
 62
     4
100
AcDbLine
 10
196.313612792647
 20
99.73517634576329
 30
0.0
 11
196.563612792647
 21
99.36017634576329
 31
0.0
  0
LINE
  5
19F
330
1F
100
AcDbEntity
  8
1
  6
Continuous
 62
     4
100
AcDbLine
 10
195.938612792647
 20
99.98517634576329
 30
0.0
 11
196.313612792647
 21
99.73517634576329
 31
0.0
  0
LINE
  5
1A0
330
1F
100
AcDbEntity
  8
1
  6
Continuous
 62
     4
100
AcDbLine
 10
195.563612792647
 20
100.1101763457633
 30
0.0
 11
195.938612792647
 21
99.98517634576329
 31
0.0
  0
LINE
  5
1A1
330
1F
100
AcDbEntity
  8
1
  6
Continuous
 62
     4
100
AcDbLine
 10
195.063612792647
 20
100.1101763457633
 30
0.0
 11
195.563612792647
 21
100.1101763457633
 31
0.0
  0
LINE
  5
1A2
330
1F
100
AcDbEntity
  8
1
  6
Continuous
 62
     4
100
AcDbLine
 10
194.688612792647
 20
99.98517634576329
 30
0.0
 11
195.063612792647
 21
100.1101763457633
 31
0.0
  0
LINE
  5
1A3
330
1F
100
AcDbEntity
  8
1
  6
Continuous
 62
     4
100
AcDbLine
 10
196.188612792647
 20
97.86017634576329
 30
0.0
 11
195.563612792647
 21
98.11017634576329
 31
0.0
  0
LINE
  5
1A4
330
1F
100
AcDbEntity
  8
1
  6
Continuous
 62
     4
100
AcDbLine
 10
196.563612792647
 20
97.48517634576329
 30
0.0
 11
196.188612792647
 21
97.86017634576329
 31
0.0
  0
LINE
  5
1A5
330
1F
100
AcDbEntity
  8
1
  6
Continuous
 62
     4
100
AcDbLine
 10
196.813612792647
 20
96.98517634576329
 30
0.0
 11
196.563612792647
 21
97.48517634576329
 31
0.0
  0
LINE
  5
1A6
330
1F
100
AcDbEntity
  8
1
  6
Continuous
 62
     4
100
AcDbLine
 10
196.813612792647
 20
96.23517634576329
 30
0.0
 11
196.813612792647
 21
96.98517634576329
 31
0.0
  0
LINE
  5
1A7
330
1F
100
AcDbEntity
  8
1
  6
Continuous
 62
     4
100
AcDbLine
 10
196.563612792647
 20
95.73517634576329
 30
0.0
 11
196.813612792647
 21
96.23517634576329
 31
0.0
  0
LINE
  5
1A8
330
1F
100
AcDbEntity
  8
1
  6
Continuous
 62
     4
100
AcDbLine
 10
196.188612792647
 20
95.36017634576329
 30
0.0
 11
196.563612792647
 21
95.73517634576329
 31
0.0
  0
LINE
  5
1A9
330
1F
100
AcDbEntity
  8
1
  6
Continuous
 62
     4
100
AcDbLine
 10
195.688612792647
 20
95.11017634576329
 30
0.0
 11
196.188612792647
 21
95.36017634576329
 31
0.0
  0
LINE
  5
1AA
330
1F
100
AcDbEntity
  8
1
  6
Continuous
 62
     4
100
AcDbLine
 10
194.938612792647
 20
95.11017634576329
 30
0.0
 11
195.688612792647
 21
95.11017634576329
 31
0.0
  0
LINE
  5
1AB
330
1F
100
AcDbEntity
  8
1
  6
Continuous
 62
     4
100
AcDbLine
 10
194.438612792647
 20
95.36017634576329
 30
0.0
 11
194.938612792647
 21
95.11017634576329
 31
0.0
  0
LINE
  5
1AC
330
1F
100
AcDbEntity
  8
1
  6
Continuous
 62
     4
100
AcDbLine
 10
194.063612792647
 20
95.73517634576329
 30
0.0
 11
194.438612792647
 21
95.36017634576329
 31
0.0
  0
LINE
  5
1AD
330
1F
100
AcDbEntity
  8
1
  6
Continuous
 62
     4
100
AcDbLine
 10
193.813612792647
 20
96.23517634576329
 30
0.0
 11
194.063612792647
 21
95.73517634576329
 31
0.0
  0
LINE
  5
1AE
330
1F
100
AcDbEntity
  8
1
  6
Continuous
 62
     4
100
AcDbLine
 10
193.813612792647
 20
96.98517634576329
 30
0.0
 11
193.813612792647
 21
96.23517634576329
 31
0.0
  0
LINE
  5
1AF
330
1F
100
AcDbEntity
  8
1
  6
Continuous
 62
     4
100
AcDbLine
 10
194.063612792647
 20
97.48517634576329
 30
0.0
 11
193.813612792647
 21
96.98517634576329
 31
0.0
  0
LINE
  5
1B0
330
1F
100
AcDbEntity
  8
1
  6
Continuous
 62
     4
100
AcDbLine
 10
194.438612792647
 20
97.86017634576329
 30
0.0
 11
194.063612792647
 21
97.48517634576329
 31
0.0
  0
LINE
  5
1B1
330
1F
100
AcDbEntity
  8
1
  6
Continuous
 62
     4
100
AcDbLine
 10
195.063612792647
 20
98.11017634576329
 30
0.0
 11
194.438612792647
 21
97.86017634576329
 31
0.0
  0
LINE
  5
1B2
330
1F
100
AcDbEntity
  8
1
  6
Continuous
 62
     4
100
AcDbLine
 10
192.438612792647
 20
95.36017634576329
 30
0.0
 11
192.438612792647
 21
95.23517634576329
 31
0.0
  0
LINE
  5
1B3
330
1F
100
AcDbEntity
  8
1
  6
Continuous
 62
     4
100
AcDbLine
 10
192.313612792647
 20
95.36017634576329
 30
0.0
 11
192.438612792647
 21
95.36017634576329
 31
0.0
  0
LINE
  5
1B4
330
1F
100
AcDbEntity
  8
1
  6
Continuous
 62
     4
100
AcDbLine
 10
192.313612792647
 20
95.23517634576329
 30
0.0
 11
192.313612792647
 21
95.36017634576329
 31
0.0
  0
LINE
  5
1B5
330
1F
100
AcDbEntity
  8
1
  6
Continuous
 62
     4
100
AcDbLine
 10
192.438612792647
 20
95.23517634576329
 30
0.0
 11
192.313612792647
 21
95.23517634576329
 31
0.0
  0
LINE
  5
1B6
330
1F
100
AcDbEntity
  8
1
  6
Continuous
 62
     4
100
AcDbLine
 10
192.563612792647
 20
95.48517634576329
 30
0.0
 11
192.563612792647
 21
95.11017634576329
 31
0.0
  0
LINE
  5
1B7
330
1F
100
AcDbEntity
  8
1
  6
Continuous
 62
     4
100
AcDbLine
 10
192.188612792647
 20
95.48517634576329
 30
0.0
 11
192.563612792647
 21
95.48517634576329
 31
0.0
  0
LINE
  5
1B8
330
1F
100
AcDbEntity
  8
1
  6
Continuous
 62
     4
100
AcDbLine
 10
192.188612792647
 20
95.11017634576329
 30
0.0
 11
192.188612792647
 21
95.48517634576329
 31
0.0
  0
LINE
  5
1B9
330
1F
100
AcDbEntity
  8
1
  6
Continuous
 62
     4
100
AcDbLine
 10
192.563612792647
 20
95.11017634576329
 30
0.0
 11
192.188612792647
 21
95.11017634576329
 31
0.0
  0
LINE
  5
1BA
330
1F
100
AcDbEntity
  8
1
  6
Continuous
 62
     4
100
AcDbLine
 10
190.688612792647
 20
98.23517634576329
 30
0.0
 11
190.688612792647
 21
96.98517634576329
 31
0.0
  0
LINE
  5
1BB
330
1F
100
AcDbEntity
  8
1
  6
Continuous
 62
     4
100
AcDbLine
 10
190.563612792647
 20
98.98517634576329
 30
0.0
 11
190.688612792647
 21
98.23517634576329
 31
0.0
  0
LINE
  5
1BC
330
1F
100
AcDbEntity
  8
1
  6
Continuous
 62
     4
100
AcDbLine
 10
190.313612792647
 20
99.48517634576329
 30
0.0
 11
190.563612792647
 21
98.98517634576329
 31
0.0
  0
LINE
  5
1BD
330
1F
100
AcDbEntity
  8
1
  6
Continuous
 62
     4
100
AcDbLine
 10
190.063612792647
 20
99.73517634576329
 30
0.0
 11
190.313612792647
 21
99.48517634576329
 31
0.0
  0
LINE
  5
1BE
330
1F
100
AcDbEntity
  8
1
  6
Continuous
 62
     4
100
AcDbLine
 10
189.688612792647
 20
99.98517634576329
 30
0.0
 11
190.063612792647
 21
99.73517634576329
 31
0.0
  0
LINE
  5
1BF
330
1F
100
AcDbEntity
  8
1
  6
Continuous
 62
     4
100
AcDbLine
 10
189.313612792647
 20
100.1101763457633
 30
0.0
 11
189.688612792647
 21
99.98517634576329
 31
0.0
  0
LINE
  5
1C0
330
1F
100
AcDbEntity
  8
1
  6
Continuous
 62
     4
100
AcDbLine
 10
189.063612792647
 20
100.1101763457633
 30
0.0
 11
189.313612792647
 21
100.1101763457633
 31
0.0
  0
LINE
  5
1C1
330
1F
100
AcDbEntity
  8
1
  6
Continuous
 62
     4
100
AcDbLine
 10
188.688612792647
 20
99.98517634576329
 30
0.0
 11
189.063612792647
 21
100.1101763457633
 31
0.0
  0
LINE
  5
1C2
330
1F
100
AcDbEntity
  8
1
  6
Continuous
 62
     4
100
AcDbLine
 10
188.313612792647
 20
99.73517634576329
 30
0.0
 11
188.688612792647
 21
99.98517634576329
 31
0.0
  0
LINE
  5
1C3
330
1F
100
AcDbEntity
  8
1
  6
Continuous
 62
     4
100
AcDbLine
 10
188.063612792647
 20
99.48517634576329
 30
0.0
 11
188.313612792647
 21
99.73517634576329
 31
0.0
  0
LINE
  5
1C4
330
1F
100
AcDbEntity
  8
1
  6
Continuous
 62
     4
100
AcDbLine
 10
187.813612792647
 20
98.98517634576329
 30
0.0
 11
188.063612792647
 21
99.48517634576329
 31
0.0
  0
LINE
  5
1C5
330
1F
100
AcDbEntity
  8
1
  6
Continuous
 62
     4
100
AcDbLine
 10
187.688612792647
 20
98.23517634576329
 30
0.0
 11
187.813612792647
 21
98.98517634576329
 31
0.0
  0
LINE
  5
1C6
330
1F
100
AcDbEntity
  8
1
  6
Continuous
 62
     4
100
AcDbLine
 10
187.688612792647
 20
96.98517634576329
 30
0.0
 11
187.688612792647
 21
98.23517634576329
 31
0.0
  0
LINE
  5
1C7
330
1F
100
AcDbEntity
  8
1
  6
Continuous
 62
     4
100
AcDbLine
 10
187.813612792647
 20
96.23517634576329
 30
0.0
 11
187.688612792647
 21
96.98517634576329
 31
0.0
  0
LINE
  5
1C8
330
1F
100
AcDbEntity
  8
1
  6
Continuous
 62
     4
100
AcDbLine
 10
188.063612792647
 20
95.73517634576329
 30
0.0
 11
187.813612792647
 21
96.23517634576329
 31
0.0
  0
LINE
  5
1C9
330
1F
100
AcDbEntity
  8
1
  6
Continuous
 62
     4
100
AcDbLine
 10
188.313612792647
 20
95.48517634576329
 30
0.0
 11
188.063612792647
 21
95.73517634576329
 31
0.0
  0
LINE
  5
1CA
330
1F
100
AcDbEntity
  8
1
  6
Continuous
 62
     4
100
AcDbLine
 10
188.688612792647
 20
95.23517634576329
 30
0.0
 11
188.313612792647
 21
95.48517634576329
 31
0.0
  0
LINE
  5
1CB
330
1F
100
AcDbEntity
  8
1
  6
Continuous
 62
     4
100
AcDbLine
 10
189.063612792647
 20
95.11017634576329
 30
0.0
 11
188.688612792647
 21
95.23517634576329
 31
0.0
  0
LINE
  5
1CC
330
1F
100
AcDbEntity
  8
1
  6
Continuous
 62
     4
100
AcDbLine
 10
189.313612792647
 20
95.11017634576329
 30
0.0
 11
189.063612792647
 21
95.11017634576329
 31
0.0
  0
LINE
  5
1CD
330
1F
100
AcDbEntity
  8
1
  6
Continuous
 62
     4
100
AcDbLine
 10
189.688612792647
 20
95.23517634576329
 30
0.0
 11
189.313612792647
 21
95.11017634576329
 31
0.0
  0
LINE
  5
1CE
330
1F
100
AcDbEntity
  8
1
  6
Continuous
 62
     4
100
AcDbLine
 10
190.063612792647
 20
95.48517634576329
 30
0.0
 11
189.688612792647
 21
95.23517634576329
 31
0.0
  0
LINE
  5
1CF
330
1F
100
AcDbEntity
  8
1
  6
Continuous
 62
     4
100
AcDbLine
 10
190.313612792647
 20
95.73517634576329
 30
0.0
 11
190.063612792647
 21
95.48517634576329
 31
0.0
  0
LINE
  5
1D0
330
1F
100
AcDbEntity
  8
1
  6
Continuous
 62
     4
100
AcDbLine
 10
190.563612792647
 20
96.23517634576329
 30
0.0
 11
190.313612792647
 21
95.73517634576329
 31
0.0
  0
LINE
  5
1D1
330
1F
100
AcDbEntity
  8
1
  6
Continuous
 62
     4
100
AcDbLine
 10
190.688612792647
 20
96.98517634576329
 30
0.0
 11
190.563612792647
 21
96.23517634576329
 31
0.0
  0
LINE
  5
1D2
330
1F
100
AcDbEntity
  8
1
  6
Continuous
 62
     4
100
AcDbLine
 10
220.313612792647
 20
106.5651763457633
 30
0.0
 11
220.313612792647
 21
105.3151763457633
 31
0.0
  0
LINE
  5
1D3
330
1F
100
AcDbEntity
  8
1
  6
Continuous
 62
     4
100
AcDbLine
 10
220.188612792647
 20
107.3151763457633
 30
0.0
 11
220.313612792647
 21
106.5651763457633
 31
0.0
  0
LINE
  5
1D4
330
1F
100
AcDbEntity
  8
1
  6
Continuous
 62
     4
100
AcDbLine
 10
219.938612792647
 20
107.8151763457633
 30
0.0
 11
220.188612792647
 21
107.3151763457633
 31
0.0
  0
LINE
  5
1D5
330
1F
100
AcDbEntity
  8
1
  6
Continuous
 62
     4
100
AcDbLine
 10
219.688612792647
 20
108.0651763457633
 30
0.0
 11
219.938612792647
 21
107.8151763457633
 31
0.0
  0
LINE
  5
1D6
330
1F
100
AcDbEntity
  8
1
  6
Continuous
 62
     4
100
AcDbLine
 10
219.313612792647
 20
108.3151763457633
 30
0.0
 11
219.688612792647
 21
108.0651763457633
 31
0.0
  0
LINE
  5
1D7
330
1F
100
AcDbEntity
  8
1
  6
Continuous
 62
     4
100
AcDbLine
 10
218.938612792647
 20
108.4401763457633
 30
0.0
 11
219.313612792647
 21
108.3151763457633
 31
0.0
  0
LINE
  5
1D8
330
1F
100
AcDbEntity
  8
1
  6
Continuous
 62
     4
100
AcDbLine
 10
218.688612792647
 20
108.4401763457633
 30
0.0
 11
218.938612792647
 21
108.4401763457633
 31
0.0
  0
LINE
  5
1D9
330
1F
100
AcDbEntity
  8
1
  6
Continuous
 62
     4
100
AcDbLine
 10
218.313612792647
 20
108.3151763457633
 30
0.0
 11
218.688612792647
 21
108.4401763457633
 31
0.0
  0
LINE
  5
1DA
330
1F
100
AcDbEntity
  8
1
  6
Continuous
 62
     4
100
AcDbLine
 10
217.938612792647
 20
108.0651763457633
 30
0.0
 11
218.313612792647
 21
108.3151763457633
 31
0.0
  0
LINE
  5
1DB
330
1F
100
AcDbEntity
  8
1
  6
Continuous
 62
     4
100
AcDbLine
 10
217.688612792647
 20
107.8151763457633
 30
0.0
 11
217.938612792647
 21
108.0651763457633
 31
0.0
  0
LINE
  5
1DC
330
1F
100
AcDbEntity
  8
1
  6
Continuous
 62
     4
100
AcDbLine
 10
217.438612792647
 20
107.3151763457633
 30
0.0
 11
217.688612792647
 21
107.8151763457633
 31
0.0
  0
LINE
  5
1DD
330
1F
100
AcDbEntity
  8
1
  6
Continuous
 62
     4
100
AcDbLine
 10
217.313612792647
 20
106.5651763457633
 30
0.0
 11
217.438612792647
 21
107.3151763457633
 31
0.0
  0
LINE
  5
1DE
330
1F
100
AcDbEntity
  8
1
  6
Continuous
 62
     4
100
AcDbLine
 10
217.313612792647
 20
105.3151763457633
 30
0.0
 11
217.313612792647
 21
106.5651763457633
 31
0.0
  0
LINE
  5
1DF
330
1F
100
AcDbEntity
  8
1
  6
Continuous
 62
     4
100
AcDbLine
 10
217.438612792647
 20
104.5651763457633
 30
0.0
 11
217.313612792647
 21
105.3151763457633
 31
0.0
  0
LINE
  5
1E0
330
1F
100
AcDbEntity
  8
1
  6
Continuous
 62
     4
100
AcDbLine
 10
217.688612792647
 20
104.0651763457633
 30
0.0
 11
217.438612792647
 21
104.5651763457633
 31
0.0
  0
LINE
  5
1E1
330
1F
100
AcDbEntity
  8
1
  6
Continuous
 62
     4
100
AcDbLine
 10
217.938612792647
 20
103.8151763457633
 30
0.0
 11
217.688612792647
 21
104.0651763457633
 31
0.0
  0
LINE
  5
1E2
330
1F
100
AcDbEntity
  8
1
  6
Continuous
 62
     4
100
AcDbLine
 10
218.313612792647
 20
103.5651763457633
 30
0.0
 11
217.938612792647
 21
103.8151763457633
 31
0.0
  0
LINE
  5
1E3
330
1F
100
AcDbEntity
  8
1
  6
Continuous
 62
     4
100
AcDbLine
 10
218.688612792647
 20
103.4401763457633
 30
0.0
 11
218.313612792647
 21
103.5651763457633
 31
0.0
  0
LINE
  5
1E4
330
1F
100
AcDbEntity
  8
1
  6
Continuous
 62
     4
100
AcDbLine
 10
218.938612792647
 20
103.4401763457633
 30
0.0
 11
218.688612792647
 21
103.4401763457633
 31
0.0
  0
LINE
  5
1E5
330
1F
100
AcDbEntity
  8
1
  6
Continuous
 62
     4
100
AcDbLine
 10
219.313612792647
 20
103.5651763457633
 30
0.0
 11
218.938612792647
 21
103.4401763457633
 31
0.0
  0
LINE
  5
1E6
330
1F
100
AcDbEntity
  8
1
  6
Continuous
 62
     4
100
AcDbLine
 10
219.688612792647
 20
103.8151763457633
 30
0.0
 11
219.313612792647
 21
103.5651763457633
 31
0.0
  0
LINE
  5
1E7
330
1F
100
AcDbEntity
  8
1
  6
Continuous
 62
     4
100
AcDbLine
 10
219.938612792647
 20
104.0651763457633
 30
0.0
 11
219.688612792647
 21
103.8151763457633
 31
0.0
  0
LINE
  5
1E8
330
1F
100
AcDbEntity
  8
1
  6
Continuous
 62
     4
100
AcDbLine
 10
220.188612792647
 20
104.5651763457633
 30
0.0
 11
219.938612792647
 21
104.0651763457633
 31
0.0
  0
LINE
  5
1E9
330
1F
100
AcDbEntity
  8
1
  6
Continuous
 62
     4
100
AcDbLine
 10
220.313612792647
 20
105.3151763457633
 30
0.0
 11
220.188612792647
 21
104.5651763457633
 31
0.0
  0
LINE
  5
1EA
330
1F
100
AcDbEntity
  8
1
  6
Continuous
 62
     4
100
AcDbLine
 10
215.813612792647
 20
106.5651763457633
 30
0.0
 11
215.813612792647
 21
105.3151763457633
 31
0.0
  0
LINE
  5
1EB
330
1F
100
AcDbEntity
  8
1
  6
Continuous
 62
     4
100
AcDbLine
 10
215.688612792647
 20
107.3151763457633
 30
0.0
 11
215.813612792647
 21
106.5651763457633
 31
0.0
  0
LINE
  5
1EC
330
1F
100
AcDbEntity
  8
1
  6
Continuous
 62
     4
100
AcDbLine
 10
215.438612792647
 20
107.8151763457633
 30
0.0
 11
215.688612792647
 21
107.3151763457633
 31
0.0
  0
LINE
  5
1ED
330
1F
100
AcDbEntity
  8
1
  6
Continuous
 62
     4
100
AcDbLine
 10
215.188612792647
 20
108.0651763457633
 30
0.0
 11
215.438612792647
 21
107.8151763457633
 31
0.0
  0
LINE
  5
1EE
330
1F
100
AcDbEntity
  8
1
  6
Continuous
 62
     4
100
AcDbLine
 10
214.813612792647
 20
108.3151763457633
 30
0.0
 11
215.188612792647
 21
108.0651763457633
 31
0.0
  0
LINE
  5
1EF
330
1F
100
AcDbEntity
  8
1
  6
Continuous
 62
     4
100
AcDbLine
 10
214.438612792647
 20
108.4401763457633
 30
0.0
 11
214.813612792647
 21
108.3151763457633
 31
0.0
  0
LINE
  5
1F0
330
1F
100
AcDbEntity
  8
1
  6
Continuous
 62
     4
100
AcDbLine
 10
214.188612792647
 20
108.4401763457633
 30
0.0
 11
214.438612792647
 21
108.4401763457633
 31
0.0
  0
LINE
  5
1F1
330
1F
100
AcDbEntity
  8
1
  6
Continuous
 62
     4
100
AcDbLine
 10
213.813612792647
 20
108.3151763457633
 30
0.0
 11
214.188612792647
 21
108.4401763457633
 31
0.0
  0
LINE
  5
1F2
330
1F
100
AcDbEntity
  8
1
  6
Continuous
 62
     4
100
AcDbLine
 10
213.438612792647
 20
108.0651763457633
 30
0.0
 11
213.813612792647
 21
108.3151763457633
 31
0.0
  0
LINE
  5
1F3
330
1F
100
AcDbEntity
  8
1
  6
Continuous
 62
     4
100
AcDbLine
 10
213.188612792647
 20
107.8151763457633
 30
0.0
 11
213.438612792647
 21
108.0651763457633
 31
0.0
  0
LINE
  5
1F4
330
1F
100
AcDbEntity
  8
1
  6
Continuous
 62
     4
100
AcDbLine
 10
212.938612792647
 20
107.3151763457633
 30
0.0
 11
213.188612792647
 21
107.8151763457633
 31
0.0
  0
LINE
  5
1F5
330
1F
100
AcDbEntity
  8
1
  6
Continuous
 62
     4
100
AcDbLine
 10
212.813612792647
 20
106.5651763457633
 30
0.0
 11
212.938612792647
 21
107.3151763457633
 31
0.0
  0
LINE
  5
1F6
330
1F
100
AcDbEntity
  8
1
  6
Continuous
 62
     4
100
AcDbLine
 10
212.813612792647
 20
105.3151763457633
 30
0.0
 11
212.813612792647
 21
106.5651763457633
 31
0.0
  0
LINE
  5
1F7
330
1F
100
AcDbEntity
  8
1
  6
Continuous
 62
     4
100
AcDbLine
 10
212.938612792647
 20
104.5651763457633
 30
0.0
 11
212.813612792647
 21
105.3151763457633
 31
0.0
  0
LINE
  5
1F8
330
1F
100
AcDbEntity
  8
1
  6
Continuous
 62
     4
100
AcDbLine
 10
213.188612792647
 20
104.0651763457633
 30
0.0
 11
212.938612792647
 21
104.5651763457633
 31
0.0
  0
LINE
  5
1F9
330
1F
100
AcDbEntity
  8
1
  6
Continuous
 62
     4
100
AcDbLine
 10
213.438612792647
 20
103.8151763457633
 30
0.0
 11
213.188612792647
 21
104.0651763457633
 31
0.0
  0
LINE
  5
1FA
330
1F
100
AcDbEntity
  8
1
  6
Continuous
 62
     4
100
AcDbLine
 10
213.813612792647
 20
103.5651763457633
 30
0.0
 11
213.438612792647
 21
103.8151763457633
 31
0.0
  0
LINE
  5
1FB
330
1F
100
AcDbEntity
  8
1
  6
Continuous
 62
     4
100
AcDbLine
 10
214.188612792647
 20
103.4401763457633
 30
0.0
 11
213.813612792647
 21
103.5651763457633
 31
0.0
  0
LINE
  5
1FC
330
1F
100
AcDbEntity
  8
1
  6
Continuous
 62
     4
100
AcDbLine
 10
214.438612792647
 20
103.4401763457633
 30
0.0
 11
214.188612792647
 21
103.4401763457633
 31
0.0
  0
LINE
  5
1FD
330
1F
100
AcDbEntity
  8
1
  6
Continuous
 62
     4
100
AcDbLine
 10
214.813612792647
 20
103.5651763457633
 30
0.0
 11
214.438612792647
 21
103.4401763457633
 31
0.0
  0
LINE
  5
1FE
330
1F
100
AcDbEntity
  8
1
  6
Continuous
 62
     4
100
AcDbLine
 10
215.188612792647
 20
103.8151763457633
 30
0.0
 11
214.813612792647
 21
103.5651763457633
 31
0.0
  0
LINE
  5
1FF
330
1F
100
AcDbEntity
  8
1
  6
Continuous
 62
     4
100
AcDbLine
 10
215.438612792647
 20
104.0651763457633
 30
0.0
 11
215.188612792647
 21
103.8151763457633
 31
0.0
  0
LINE
  5
200
330
1F
100
AcDbEntity
  8
1
  6
Continuous
 62
     4
100
AcDbLine
 10
215.688612792647
 20
104.5651763457633
 30
0.0
 11
215.438612792647
 21
104.0651763457633
 31
0.0
  0
LINE
  5
201
330
1F
100
AcDbEntity
  8
1
  6
Continuous
 62
     4
100
AcDbLine
 10
215.813612792647
 20
105.3151763457633
 30
0.0
 11
215.688612792647
 21
104.5651763457633
 31
0.0
  0
LINE
  5
202
330
1F
100
AcDbEntity
  8
1
  6
Continuous
 62
     4
100
AcDbLine
 10
211.313612792647
 20
108.4401763457633
 30
0.0
 11
208.813612792647
 21
103.4401763457633
 31
0.0
  0
LINE
  5
203
330
1F
100
AcDbEntity
  8
1
  6
Continuous
 62
     4
100
AcDbLine
 10
208.313612792647
 20
108.4401763457633
 30
0.0
 11
211.313612792647
 21
108.4401763457633
 31
0.0
  0
LINE
  5
204
330
1F
100
AcDbEntity
  8
1
  6
Continuous
 62
     4
100
AcDbLine
 10
208.313612792647
 20
107.9401763457633
 30
0.0
 11
208.313612792647
 21
108.4401763457633
 31
0.0
  0
LINE
  5
205
330
1F
100
AcDbEntity
  8
1
  6
Continuous
 62
     4
100
AcDbLine
 10
196.813612792647
 20
108.4401763457633
 30
0.0
 11
194.313612792647
 21
103.4401763457633
 31
0.0
  0
LINE
  5
206
330
1F
100
AcDbEntity
  8
1
  6
Continuous
 62
     4
100
AcDbLine
 10
193.813612792647
 20
108.4401763457633
 30
0.0
 11
196.813612792647
 21
108.4401763457633
 31
0.0
  0
LINE
  5
207
330
1F
100
AcDbEntity
  8
1
  6
Continuous
 62
     4
100
AcDbLine
 10
193.813612792647
 20
107.9401763457633
 30
0.0
 11
193.813612792647
 21
108.4401763457633
 31
0.0
  0
LINE
  5
208
330
1F
100
AcDbEntity
  8
1
  6
Continuous
 62
     4
100
AcDbLine
 10
192.438612792647
 20
103.6901763457633
 30
0.0
 11
192.438612792647
 21
103.5651763457633
 31
0.0
  0
LINE
  5
209
330
1F
100
AcDbEntity
  8
1
  6
Continuous
 62
     4
100
AcDbLine
 10
192.313612792647
 20
103.6901763457633
 30
0.0
 11
192.438612792647
 21
103.6901763457633
 31
0.0
  0
LINE
  5
20A
330
1F
100
AcDbEntity
  8
1
  6
Continuous
 62
     4
100
AcDbLine
 10
192.313612792647
 20
103.5651763457633
 30
0.0
 11
192.313612792647
 21
103.6901763457633
 31
0.0
  0
LINE
  5
20B
330
1F
100
AcDbEntity
  8
1
  6
Continuous
 62
     4
100
AcDbLine
 10
192.438612792647
 20
103.5651763457633
 30
0.0
 11
192.313612792647
 21
103.5651763457633
 31
0.0
  0
LINE
  5
20C
330
1F
100
AcDbEntity
  8
1
  6
Continuous
 62
     4
100
AcDbLine
 10
192.563612792647
 20
103.8151763457633
 30
0.0
 11
192.563612792647
 21
103.4401763457633
 31
0.0
  0
LINE
  5
20D
330
1F
100
AcDbEntity
  8
1
  6
Continuous
 62
     4
100
AcDbLine
 10
192.188612792647
 20
103.8151763457633
 30
0.0
 11
192.563612792647
 21
103.8151763457633
 31
0.0
  0
LINE
  5
20E
330
1F
100
AcDbEntity
  8
1
  6
Continuous
 62
     4
100
AcDbLine
 10
192.188612792647
 20
103.4401763457633
 30
0.0
 11
192.188612792647
 21
103.8151763457633
 31
0.0
  0
LINE
  5
20F
330
1F
100
AcDbEntity
  8
1
  6
Continuous
 62
     4
100
AcDbLine
 10
192.563612792647
 20
103.4401763457633
 30
0.0
 11
192.188612792647
 21
103.4401763457633
 31
0.0
  0
LINE
  5
210
330
1F
100
AcDbEntity
  8
1
  6
Continuous
 62
     4
100
AcDbLine
 10
190.688612792647
 20
106.5651763457633
 30
0.0
 11
190.688612792647
 21
105.3151763457633
 31
0.0
  0
LINE
  5
211
330
1F
100
AcDbEntity
  8
1
  6
Continuous
 62
     4
100
AcDbLine
 10
190.563612792647
 20
107.3151763457633
 30
0.0
 11
190.688612792647
 21
106.5651763457633
 31
0.0
  0
LINE
  5
212
330
1F
100
AcDbEntity
  8
1
  6
Continuous
 62
     4
100
AcDbLine
 10
190.313612792647
 20
107.8151763457633
 30
0.0
 11
190.563612792647
 21
107.3151763457633
 31
0.0
  0
LINE
  5
213
330
1F
100
AcDbEntity
  8
1
  6
Continuous
 62
     4
100
AcDbLine
 10
190.063612792647
 20
108.0651763457633
 30
0.0
 11
190.313612792647
 21
107.8151763457633
 31
0.0
  0
LINE
  5
214
330
1F
100
AcDbEntity
  8
1
  6
Continuous
 62
     4
100
AcDbLine
 10
189.688612792647
 20
108.3151763457633
 30
0.0
 11
190.063612792647
 21
108.0651763457633
 31
0.0
  0
LINE
  5
215
330
1F
100
AcDbEntity
  8
1
  6
Continuous
 62
     4
100
AcDbLine
 10
189.313612792647
 20
108.4401763457633
 30
0.0
 11
189.688612792647
 21
108.3151763457633
 31
0.0
  0
LINE
  5
216
330
1F
100
AcDbEntity
  8
1
  6
Continuous
 62
     4
100
AcDbLine
 10
189.063612792647
 20
108.4401763457633
 30
0.0
 11
189.313612792647
 21
108.4401763457633
 31
0.0
  0
LINE
  5
217
330
1F
100
AcDbEntity
  8
1
  6
Continuous
 62
     4
100
AcDbLine
 10
188.688612792647
 20
108.3151763457633
 30
0.0
 11
189.063612792647
 21
108.4401763457633
 31
0.0
  0
LINE
  5
218
330
1F
100
AcDbEntity
  8
1
  6
Continuous
 62
     4
100
AcDbLine
 10
188.313612792647
 20
108.0651763457633
 30
0.0
 11
188.688612792647
 21
108.3151763457633
 31
0.0
  0
LINE
  5
219
330
1F
100
AcDbEntity
  8
1
  6
Continuous
 62
     4
100
AcDbLine
 10
188.063612792647
 20
107.8151763457633
 30
0.0
 11
188.313612792647
 21
108.0651763457633
 31
0.0
  0
LINE
  5
21A
330
1F
100
AcDbEntity
  8
1
  6
Continuous
 62
     4
100
AcDbLine
 10
187.813612792647
 20
107.3151763457633
 30
0.0
 11
188.063612792647
 21
107.8151763457633
 31
0.0
  0
LINE
  5
21B
330
1F
100
AcDbEntity
  8
1
  6
Continuous
 62
     4
100
AcDbLine
 10
187.688612792647
 20
106.5651763457633
 30
0.0
 11
187.813612792647
 21
107.3151763457633
 31
0.0
  0
LINE
  5
21C
330
1F
100
AcDbEntity
  8
1
  6
Continuous
 62
     4
100
AcDbLine
 10
187.688612792647
 20
105.3151763457633
 30
0.0
 11
187.688612792647
 21
106.5651763457633
 31
0.0
  0
LINE
  5
21D
330
1F
100
AcDbEntity
  8
1
  6
Continuous
 62
     4
100
AcDbLine
 10
187.813612792647
 20
104.5651763457633
 30
0.0
 11
187.688612792647
 21
105.3151763457633
 31
0.0
  0
LINE
  5
21E
330
1F
100
AcDbEntity
  8
1
  6
Continuous
 62
     4
100
AcDbLine
 10
188.063612792647
 20
104.0651763457633
 30
0.0
 11
187.813612792647
 21
104.5651763457633
 31
0.0
  0
LINE
  5
21F
330
1F
100
AcDbEntity
  8
1
  6
Continuous
 62
     4
100
AcDbLine
 10
188.313612792647
 20
103.8151763457633
 30
0.0
 11
188.063612792647
 21
104.0651763457633
 31
0.0
  0
LINE
  5
220
330
1F
100
AcDbEntity
  8
1
  6
Continuous
 62
     4
100
AcDbLine
 10
188.688612792647
 20
103.5651763457633
 30
0.0
 11
188.313612792647
 21
103.8151763457633
 31
0.0
  0
LINE
  5
221
330
1F
100
AcDbEntity
  8
1
  6
Continuous
 62
     4
100
AcDbLine
 10
189.063612792647
 20
103.4401763457633
 30
0.0
 11
188.688612792647
 21
103.5651763457633
 31
0.0
  0
LINE
  5
222
330
1F
100
AcDbEntity
  8
1
  6
Continuous
 62
     4
100
AcDbLine
 10
189.313612792647
 20
103.4401763457633
 30
0.0
 11
189.063612792647
 21
103.4401763457633
 31
0.0
  0
LINE
  5
223
330
1F
100
AcDbEntity
  8
1
  6
Continuous
 62
     4
100
AcDbLine
 10
189.688612792647
 20
103.5651763457633
 30
0.0
 11
189.313612792647
 21
103.4401763457633
 31
0.0
  0
LINE
  5
224
330
1F
100
AcDbEntity
  8
1
  6
Continuous
 62
     4
100
AcDbLine
 10
190.063612792647
 20
103.8151763457633
 30
0.0
 11
189.688612792647
 21
103.5651763457633
 31
0.0
  0
LINE
  5
225
330
1F
100
AcDbEntity
  8
1
  6
Continuous
 62
     4
100
AcDbLine
 10
190.313612792647
 20
104.0651763457633
 30
0.0
 11
190.063612792647
 21
103.8151763457633
 31
0.0
  0
LINE
  5
226
330
1F
100
AcDbEntity
  8
1
  6
Continuous
 62
     4
100
AcDbLine
 10
190.563612792647
 20
104.5651763457633
 30
0.0
 11
190.313612792647
 21
104.0651763457633
 31
0.0
  0
LINE
  5
227
330
1F
100
AcDbEntity
  8
1
  6
Continuous
 62
     4
100
AcDbLine
 10
190.688612792647
 20
105.3151763457633
 30
0.0
 11
190.563612792647
 21
104.5651763457633
 31
0.0
  0
LINE
  5
228
330
1F
100
AcDbEntity
  8
1
  6
Continuous
 62
     4
100
AcDbLine
 10
220.313612792647
 20
114.8951763457633
 30
0.0
 11
220.313612792647
 21
113.6451763457633
 31
0.0
  0
LINE
  5
229
330
1F
100
AcDbEntity
  8
1
  6
Continuous
 62
     4
100
AcDbLine
 10
220.188612792647
 20
115.6451763457633
 30
0.0
 11
220.313612792647
 21
114.8951763457633
 31
0.0
  0
LINE
  5
22A
330
1F
100
AcDbEntity
  8
1
  6
Continuous
 62
     4
100
AcDbLine
 10
219.938612792647
 20
116.1451763457633
 30
0.0
 11
220.188612792647
 21
115.6451763457633
 31
0.0
  0
LINE
  5
22B
330
1F
100
AcDbEntity
  8
1
  6
Continuous
 62
     4
100
AcDbLine
 10
219.688612792647
 20
116.3951763457633
 30
0.0
 11
219.938612792647
 21
116.1451763457633
 31
0.0
  0
LINE
  5
22C
330
1F
100
AcDbEntity
  8
1
  6
Continuous
 62
     4
100
AcDbLine
 10
219.313612792647
 20
116.6451763457633
 30
0.0
 11
219.688612792647
 21
116.3951763457633
 31
0.0
  0
LINE
  5
22D
330
1F
100
AcDbEntity
  8
1
  6
Continuous
 62
     4
100
AcDbLine
 10
218.938612792647
 20
116.7701763457633
 30
0.0
 11
219.313612792647
 21
116.6451763457633
 31
0.0
  0
LINE
  5
22E
330
1F
100
AcDbEntity
  8
1
  6
Continuous
 62
     4
100
AcDbLine
 10
218.688612792647
 20
116.7701763457633
 30
0.0
 11
218.938612792647
 21
116.7701763457633
 31
0.0
  0
LINE
  5
22F
330
1F
100
AcDbEntity
  8
1
  6
Continuous
 62
     4
100
AcDbLine
 10
218.313612792647
 20
116.6451763457633
 30
0.0
 11
218.688612792647
 21
116.7701763457633
 31
0.0
  0
LINE
  5
230
330
1F
100
AcDbEntity
  8
1
  6
Continuous
 62
     4
100
AcDbLine
 10
217.938612792647
 20
116.3951763457633
 30
0.0
 11
218.313612792647
 21
116.6451763457633
 31
0.0
  0
LINE
  5
231
330
1F
100
AcDbEntity
  8
1
  6
Continuous
 62
     4
100
AcDbLine
 10
217.688612792647
 20
116.1451763457633
 30
0.0
 11
217.938612792647
 21
116.3951763457633
 31
0.0
  0
LINE
  5
232
330
1F
100
AcDbEntity
  8
1
  6
Continuous
 62
     4
100
AcDbLine
 10
217.438612792647
 20
115.6451763457633
 30
0.0
 11
217.688612792647
 21
116.1451763457633
 31
0.0
  0
LINE
  5
233
330
1F
100
AcDbEntity
  8
1
  6
Continuous
 62
     4
100
AcDbLine
 10
217.313612792647
 20
114.8951763457633
 30
0.0
 11
217.438612792647
 21
115.6451763457633
 31
0.0
  0
LINE
  5
234
330
1F
100
AcDbEntity
  8
1
  6
Continuous
 62
     4
100
AcDbLine
 10
217.313612792647
 20
113.6451763457633
 30
0.0
 11
217.313612792647
 21
114.8951763457633
 31
0.0
  0
LINE
  5
235
330
1F
100
AcDbEntity
  8
1
  6
Continuous
 62
     4
100
AcDbLine
 10
217.438612792647
 20
112.8951763457633
 30
0.0
 11
217.313612792647
 21
113.6451763457633
 31
0.0
  0
LINE
  5
236
330
1F
100
AcDbEntity
  8
1
  6
Continuous
 62
     4
100
AcDbLine
 10
217.688612792647
 20
112.3951763457633
 30
0.0
 11
217.438612792647
 21
112.8951763457633
 31
0.0
  0
LINE
  5
237
330
1F
100
AcDbEntity
  8
1
  6
Continuous
 62
     4
100
AcDbLine
 10
217.938612792647
 20
112.1451763457633
 30
0.0
 11
217.688612792647
 21
112.3951763457633
 31
0.0
  0
LINE
  5
238
330
1F
100
AcDbEntity
  8
1
  6
Continuous
 62
     4
100
AcDbLine
 10
218.313612792647
 20
111.8951763457633
 30
0.0
 11
217.938612792647
 21
112.1451763457633
 31
0.0
  0
LINE
  5
239
330
1F
100
AcDbEntity
  8
1
  6
Continuous
 62
     4
100
AcDbLine
 10
218.688612792647
 20
111.7701763457633
 30
0.0
 11
218.313612792647
 21
111.8951763457633
 31
0.0
  0
LINE
  5
23A
330
1F
100
AcDbEntity
  8
1
  6
Continuous
 62
     4
100
AcDbLine
 10
218.938612792647
 20
111.7701763457633
 30
0.0
 11
218.688612792647
 21
111.7701763457633
 31
0.0
  0
LINE
  5
23B
330
1F
100
AcDbEntity
  8
1
  6
Continuous
 62
     4
100
AcDbLine
 10
219.313612792647
 20
111.8951763457633
 30
0.0
 11
218.938612792647
 21
111.7701763457633
 31
0.0
  0
LINE
  5
23C
330
1F
100
AcDbEntity
  8
1
  6
Continuous
 62
     4
100
AcDbLine
 10
219.688612792647
 20
112.1451763457633
 30
0.0
 11
219.313612792647
 21
111.8951763457633
 31
0.0
  0
LINE
  5
23D
330
1F
100
AcDbEntity
  8
1
  6
Continuous
 62
     4
100
AcDbLine
 10
219.938612792647
 20
112.3951763457633
 30
0.0
 11
219.688612792647
 21
112.1451763457633
 31
0.0
  0
LINE
  5
23E
330
1F
100
AcDbEntity
  8
1
  6
Continuous
 62
     4
100
AcDbLine
 10
220.188612792647
 20
112.8951763457633
 30
0.0
 11
219.938612792647
 21
112.3951763457633
 31
0.0
  0
LINE
  5
23F
330
1F
100
AcDbEntity
  8
1
  6
Continuous
 62
     4
100
AcDbLine
 10
220.313612792647
 20
113.6451763457633
 30
0.0
 11
220.188612792647
 21
112.8951763457633
 31
0.0
  0
LINE
  5
240
330
1F
100
AcDbEntity
  8
1
  6
Continuous
 62
     4
100
AcDbLine
 10
215.813612792647
 20
114.8951763457633
 30
0.0
 11
215.813612792647
 21
113.6451763457633
 31
0.0
  0
LINE
  5
241
330
1F
100
AcDbEntity
  8
1
  6
Continuous
 62
     4
100
AcDbLine
 10
215.688612792647
 20
115.6451763457633
 30
0.0
 11
215.813612792647
 21
114.8951763457633
 31
0.0
  0
LINE
  5
242
330
1F
100
AcDbEntity
  8
1
  6
Continuous
 62
     4
100
AcDbLine
 10
215.438612792647
 20
116.1451763457633
 30
0.0
 11
215.688612792647
 21
115.6451763457633
 31
0.0
  0
LINE
  5
243
330
1F
100
AcDbEntity
  8
1
  6
Continuous
 62
     4
100
AcDbLine
 10
215.188612792647
 20
116.3951763457633
 30
0.0
 11
215.438612792647
 21
116.1451763457633
 31
0.0
  0
LINE
  5
244
330
1F
100
AcDbEntity
  8
1
  6
Continuous
 62
     4
100
AcDbLine
 10
214.813612792647
 20
116.6451763457633
 30
0.0
 11
215.188612792647
 21
116.3951763457633
 31
0.0
  0
LINE
  5
245
330
1F
100
AcDbEntity
  8
1
  6
Continuous
 62
     4
100
AcDbLine
 10
214.438612792647
 20
116.7701763457633
 30
0.0
 11
214.813612792647
 21
116.6451763457633
 31
0.0
  0
LINE
  5
246
330
1F
100
AcDbEntity
  8
1
  6
Continuous
 62
     4
100
AcDbLine
 10
214.188612792647
 20
116.7701763457633
 30
0.0
 11
214.438612792647
 21
116.7701763457633
 31
0.0
  0
LINE
  5
247
330
1F
100
AcDbEntity
  8
1
  6
Continuous
 62
     4
100
AcDbLine
 10
213.813612792647
 20
116.6451763457633
 30
0.0
 11
214.188612792647
 21
116.7701763457633
 31
0.0
  0
LINE
  5
248
330
1F
100
AcDbEntity
  8
1
  6
Continuous
 62
     4
100
AcDbLine
 10
213.438612792647
 20
116.3951763457633
 30
0.0
 11
213.813612792647
 21
116.6451763457633
 31
0.0
  0
LINE
  5
249
330
1F
100
AcDbEntity
  8
1
  6
Continuous
 62
     4
100
AcDbLine
 10
213.188612792647
 20
116.1451763457633
 30
0.0
 11
213.438612792647
 21
116.3951763457633
 31
0.0
  0
LINE
  5
24A
330
1F
100
AcDbEntity
  8
1
  6
Continuous
 62
     4
100
AcDbLine
 10
212.938612792647
 20
115.6451763457633
 30
0.0
 11
213.188612792647
 21
116.1451763457633
 31
0.0
  0
LINE
  5
24B
330
1F
100
AcDbEntity
  8
1
  6
Continuous
 62
     4
100
AcDbLine
 10
212.813612792647
 20
114.8951763457633
 30
0.0
 11
212.938612792647
 21
115.6451763457633
 31
0.0
  0
LINE
  5
24C
330
1F
100
AcDbEntity
  8
1
  6
Continuous
 62
     4
100
AcDbLine
 10
212.813612792647
 20
113.6451763457633
 30
0.0
 11
212.813612792647
 21
114.8951763457633
 31
0.0
  0
LINE
  5
24D
330
1F
100
AcDbEntity
  8
1
  6
Continuous
 62
     4
100
AcDbLine
 10
212.938612792647
 20
112.8951763457633
 30
0.0
 11
212.813612792647
 21
113.6451763457633
 31
0.0
  0
LINE
  5
24E
330
1F
100
AcDbEntity
  8
1
  6
Continuous
 62
     4
100
AcDbLine
 10
213.188612792647
 20
112.3951763457633
 30
0.0
 11
212.938612792647
 21
112.8951763457633
 31
0.0
  0
LINE
  5
24F
330
1F
100
AcDbEntity
  8
1
  6
Continuous
 62
     4
100
AcDbLine
 10
213.438612792647
 20
112.1451763457633
 30
0.0
 11
213.188612792647
 21
112.3951763457633
 31
0.0
  0
LINE
  5
250
330
1F
100
AcDbEntity
  8
1
  6
Continuous
 62
     4
100
AcDbLine
 10
213.813612792647
 20
111.8951763457633
 30
0.0
 11
213.438612792647
 21
112.1451763457633
 31
0.0
  0
LINE
  5
251
330
1F
100
AcDbEntity
  8
1
  6
Continuous
 62
     4
100
AcDbLine
 10
214.188612792647
 20
111.7701763457633
 30
0.0
 11
213.813612792647
 21
111.8951763457633
 31
0.0
  0
LINE
  5
252
330
1F
100
AcDbEntity
  8
1
  6
Continuous
 62
     4
100
AcDbLine
 10
214.438612792647
 20
111.7701763457633
 30
0.0
 11
214.188612792647
 21
111.7701763457633
 31
0.0
  0
LINE
  5
253
330
1F
100
AcDbEntity
  8
1
  6
Continuous
 62
     4
100
AcDbLine
 10
214.813612792647
 20
111.8951763457633
 30
0.0
 11
214.438612792647
 21
111.7701763457633
 31
0.0
  0
LINE
  5
254
330
1F
100
AcDbEntity
  8
1
  6
Continuous
 62
     4
100
AcDbLine
 10
215.188612792647
 20
112.1451763457633
 30
0.0
 11
214.813612792647
 21
111.8951763457633
 31
0.0
  0
LINE
  5
255
330
1F
100
AcDbEntity
  8
1
  6
Continuous
 62
     4
100
AcDbLine
 10
215.438612792647
 20
112.3951763457633
 30
0.0
 11
215.188612792647
 21
112.1451763457633
 31
0.0
  0
LINE
  5
256
330
1F
100
AcDbEntity
  8
1
  6
Continuous
 62
     4
100
AcDbLine
 10
215.688612792647
 20
112.8951763457633
 30
0.0
 11
215.438612792647
 21
112.3951763457633
 31
0.0
  0
LINE
  5
257
330
1F
100
AcDbEntity
  8
1
  6
Continuous
 62
     4
100
AcDbLine
 10
215.813612792647
 20
113.6451763457633
 30
0.0
 11
215.688612792647
 21
112.8951763457633
 31
0.0
  0
LINE
  5
258
330
1F
100
AcDbEntity
  8
1
  6
Continuous
 62
     4
100
AcDbLine
 10
209.188612792647
 20
115.6451763457633
 30
0.0
 11
210.563612792647
 21
116.7701763457633
 31
0.0
  0
LINE
  5
259
330
1F
100
AcDbEntity
  8
1
  6
Continuous
 62
     4
100
AcDbLine
 10
208.688612792647
 20
115.0201763457633
 30
0.0
 11
209.188612792647
 21
115.6451763457633
 31
0.0
  0
LINE
  5
25A
330
1F
100
AcDbEntity
  8
1
  6
Continuous
 62
     4
100
AcDbLine
 10
208.438612792647
 20
114.5201763457633
 30
0.0
 11
208.688612792647
 21
115.0201763457633
 31
0.0
  0
LINE
  5
25B
330
1F
100
AcDbEntity
  8
1
  6
Continuous
 62
     4
100
AcDbLine
 10
208.313612792647
 20
113.5201763457633
 30
0.0
 11
208.438612792647
 21
114.5201763457633
 31
0.0
  0
LINE
  5
25C
330
1F
100
AcDbEntity
  8
1
  6
Continuous
 62
     4
100
AcDbLine
 10
208.313612792647
 20
113.0201763457633
 30
0.0
 11
208.313612792647
 21
113.5201763457633
 31
0.0
  0
LINE
  5
25D
330
1F
100
AcDbEntity
  8
1
  6
Continuous
 62
     4
100
AcDbLine
 10
208.438612792647
 20
112.5201763457633
 30
0.0
 11
208.313612792647
 21
113.0201763457633
 31
0.0
  0
LINE
  5
25E
330
1F
100
AcDbEntity
  8
1
  6
Continuous
 62
     4
100
AcDbLine
 10
208.688612792647
 20
112.1451763457633
 30
0.0
 11
208.438612792647
 21
112.5201763457633
 31
0.0
  0
LINE
  5
25F
330
1F
100
AcDbEntity
  8
1
  6
Continuous
 62
     4
100
AcDbLine
 10
209.063612792647
 20
111.8951763457633
 30
0.0
 11
208.688612792647
 21
112.1451763457633
 31
0.0
  0
LINE
  5
260
330
1F
100
AcDbEntity
  8
1
  6
Continuous
 62
     4
100
AcDbLine
 10
209.438612792647
 20
111.7701763457633
 30
0.0
 11
209.063612792647
 21
111.8951763457633
 31
0.0
  0
LINE
  5
261
330
1F
100
AcDbEntity
  8
1
  6
Continuous
 62
     4
100
AcDbLine
 10
210.188612792647
 20
111.7701763457633
 30
0.0
 11
209.438612792647
 21
111.7701763457633
 31
0.0
  0
LINE
  5
262
330
1F
100
AcDbEntity
  8
1
  6
Continuous
 62
     4
100
AcDbLine
 10
210.563612792647
 20
111.8951763457633
 30
0.0
 11
210.188612792647
 21
111.7701763457633
 31
0.0
  0
LINE
  5
263
330
1F
100
AcDbEntity
  8
1
  6
Continuous
 62
     4
100
AcDbLine
 10
210.938612792647
 20
112.1451763457633
 30
0.0
 11
210.563612792647
 21
111.8951763457633
 31
0.0
  0
LINE
  5
264
330
1F
100
AcDbEntity
  8
1
  6
Continuous
 62
     4
100
AcDbLine
 10
211.188612792647
 20
112.5201763457633
 30
0.0
 11
210.938612792647
 21
112.1451763457633
 31
0.0
  0
LINE
  5
265
330
1F
100
AcDbEntity
  8
1
  6
Continuous
 62
     4
100
AcDbLine
 10
211.313612792647
 20
113.0201763457633
 30
0.0
 11
211.188612792647
 21
112.5201763457633
 31
0.0
  0
LINE
  5
266
330
1F
100
AcDbEntity
  8
1
  6
Continuous
 62
     4
100
AcDbLine
 10
211.313612792647
 20
113.5201763457633
 30
0.0
 11
211.313612792647
 21
113.0201763457633
 31
0.0
  0
LINE
  5
267
330
1F
100
AcDbEntity
  8
1
  6
Continuous
 62
     4
100
AcDbLine
 10
211.188612792647
 20
114.0201763457633
 30
0.0
 11
211.313612792647
 21
113.5201763457633
 31
0.0
  0
LINE
  5
268
330
1F
100
AcDbEntity
  8
1
  6
Continuous
 62
     4
100
AcDbLine
 10
210.938612792647
 20
114.3951763457633
 30
0.0
 11
211.188612792647
 21
114.0201763457633
 31
0.0
  0
LINE
  5
269
330
1F
100
AcDbEntity
  8
1
  6
Continuous
 62
     4
100
AcDbLine
 10
210.563612792647
 20
114.6451763457633
 30
0.0
 11
210.938612792647
 21
114.3951763457633
 31
0.0
  0
LINE
  5
26A
330
1F
100
AcDbEntity
  8
1
  6
Continuous
 62
     4
100
AcDbLine
 10
210.188612792647
 20
114.7701763457633
 30
0.0
 11
210.563612792647
 21
114.6451763457633
 31
0.0
  0
LINE
  5
26B
330
1F
100
AcDbEntity
  8
1
  6
Continuous
 62
     4
100
AcDbLine
 10
209.438612792647
 20
114.7701763457633
 30
0.0
 11
210.188612792647
 21
114.7701763457633
 31
0.0
  0
LINE
  5
26C
330
1F
100
AcDbEntity
  8
1
  6
Continuous
 62
     4
100
AcDbLine
 10
209.063612792647
 20
114.6451763457633
 30
0.0
 11
209.438612792647
 21
114.7701763457633
 31
0.0
  0
LINE
  5
26D
330
1F
100
AcDbEntity
  8
1
  6
Continuous
 62
     4
100
AcDbLine
 10
208.688612792647
 20
114.3951763457633
 30
0.0
 11
209.063612792647
 21
114.6451763457633
 31
0.0
  0
LINE
  5
26E
330
1F
100
AcDbEntity
  8
1
  6
Continuous
 62
     4
100
AcDbLine
 10
208.438612792647
 20
114.0201763457633
 30
0.0
 11
208.688612792647
 21
114.3951763457633
 31
0.0
  0
LINE
  5
26F
330
1F
100
AcDbEntity
  8
1
  6
Continuous
 62
     4
100
AcDbLine
 10
208.313612792647
 20
113.5201763457633
 30
0.0
 11
208.438612792647
 21
114.0201763457633
 31
0.0
  0
LINE
  5
270
330
1F
100
AcDbEntity
  8
1
  6
Continuous
 62
     4
100
AcDbLine
 10
194.688612792647
 20
115.6451763457633
 30
0.0
 11
196.063612792647
 21
116.7701763457633
 31
0.0
  0
LINE
  5
271
330
1F
100
AcDbEntity
  8
1
  6
Continuous
 62
     4
100
AcDbLine
 10
194.188612792647
 20
115.0201763457633
 30
0.0
 11
194.688612792647
 21
115.6451763457633
 31
0.0
  0
LINE
  5
272
330
1F
100
AcDbEntity
  8
1
  6
Continuous
 62
     4
100
AcDbLine
 10
193.938612792647
 20
114.5201763457633
 30
0.0
 11
194.188612792647
 21
115.0201763457633
 31
0.0
  0
LINE
  5
273
330
1F
100
AcDbEntity
  8
1
  6
Continuous
 62
     4
100
AcDbLine
 10
193.813612792647
 20
113.5201763457633
 30
0.0
 11
193.938612792647
 21
114.5201763457633
 31
0.0
  0
LINE
  5
274
330
1F
100
AcDbEntity
  8
1
  6
Continuous
 62
     4
100
AcDbLine
 10
193.813612792647
 20
113.0201763457633
 30
0.0
 11
193.813612792647
 21
113.5201763457633
 31
0.0
  0
LINE
  5
275
330
1F
100
AcDbEntity
  8
1
  6
Continuous
 62
     4
100
AcDbLine
 10
193.938612792647
 20
112.5201763457633
 30
0.0
 11
193.813612792647
 21
113.0201763457633
 31
0.0
  0
LINE
  5
276
330
1F
100
AcDbEntity
  8
1
  6
Continuous
 62
     4
100
AcDbLine
 10
194.188612792647
 20
112.1451763457633
 30
0.0
 11
193.938612792647
 21
112.5201763457633
 31
0.0
  0
LINE
  5
277
330
1F
100
AcDbEntity
  8
1
  6
Continuous
 62
     4
100
AcDbLine
 10
194.563612792647
 20
111.8951763457633
 30
0.0
 11
194.188612792647
 21
112.1451763457633
 31
0.0
  0
LINE
  5
278
330
1F
100
AcDbEntity
  8
1
  6
Continuous
 62
     4
100
AcDbLine
 10
194.938612792647
 20
111.7701763457633
 30
0.0
 11
194.563612792647
 21
111.8951763457633
 31
0.0
  0
LINE
  5
279
330
1F
100
AcDbEntity
  8
1
  6
Continuous
 62
     4
100
AcDbLine
 10
195.688612792647
 20
111.7701763457633
 30
0.0
 11
194.938612792647
 21
111.7701763457633
 31
0.0
  0
LINE
  5
27A
330
1F
100
AcDbEntity
  8
1
  6
Continuous
 62
     4
100
AcDbLine
 10
196.063612792647
 20
111.8951763457633
 30
0.0
 11
195.688612792647
 21
111.7701763457633
 31
0.0
  0
LINE
  5
27B
330
1F
100
AcDbEntity
  8
1
  6
Continuous
 62
     4
100
AcDbLine
 10
196.438612792647
 20
112.1451763457633
 30
0.0
 11
196.063612792647
 21
111.8951763457633
 31
0.0
  0
LINE
  5
27C
330
1F
100
AcDbEntity
  8
1
  6
Continuous
 62
     4
100
AcDbLine
 10
196.688612792647
 20
112.5201763457633
 30
0.0
 11
196.438612792647
 21
112.1451763457633
 31
0.0
  0
LINE
  5
27D
330
1F
100
AcDbEntity
  8
1
  6
Continuous
 62
     4
100
AcDbLine
 10
196.813612792647
 20
113.0201763457633
 30
0.0
 11
196.688612792647
 21
112.5201763457633
 31
0.0
  0
LINE
  5
27E
330
1F
100
AcDbEntity
  8
1
  6
Continuous
 62
     4
100
AcDbLine
 10
196.813612792647
 20
113.5201763457633
 30
0.0
 11
196.813612792647
 21
113.0201763457633
 31
0.0
  0
LINE
  5
27F
330
1F
100
AcDbEntity
  8
1
  6
Continuous
 62
     4
100
AcDbLine
 10
196.688612792647
 20
114.0201763457633
 30
0.0
 11
196.813612792647
 21
113.5201763457633
 31
0.0
  0
LINE
  5
280
330
1F
100
AcDbEntity
  8
1
  6
Continuous
 62
     4
100
AcDbLine
 10
196.438612792647
 20
114.3951763457633
 30
0.0
 11
196.688612792647
 21
114.0201763457633
 31
0.0
  0
LINE
  5
281
330
1F
100
AcDbEntity
  8
1
  6
Continuous
 62
     4
100
AcDbLine
 10
196.063612792647
 20
114.6451763457633
 30
0.0
 11
196.438612792647
 21
114.3951763457633
 31
0.0
  0
LINE
  5
282
330
1F
100
AcDbEntity
  8
1
  6
Continuous
 62
     4
100
AcDbLine
 10
195.688612792647
 20
114.7701763457633
 30
0.0
 11
196.063612792647
 21
114.6451763457633
 31
0.0
  0
LINE
  5
283
330
1F
100
AcDbEntity
  8
1
  6
Continuous
 62
     4
100
AcDbLine
 10
194.938612792647
 20
114.7701763457633
 30
0.0
 11
195.688612792647
 21
114.7701763457633
 31
0.0
  0
LINE
  5
284
330
1F
100
AcDbEntity
  8
1
  6
Continuous
 62
     4
100
AcDbLine
 10
194.563612792647
 20
114.6451763457633
 30
0.0
 11
194.938612792647
 21
114.7701763457633
 31
0.0
  0
LINE
  5
285
330
1F
100
AcDbEntity
  8
1
  6
Continuous
 62
     4
100
AcDbLine
 10
194.188612792647
 20
114.3951763457633
 30
0.0
 11
194.563612792647
 21
114.6451763457633
 31
0.0
  0
LINE
  5
286
330
1F
100
AcDbEntity
  8
1
  6
Continuous
 62
     4
100
AcDbLine
 10
193.938612792647
 20
114.0201763457633
 30
0.0
 11
194.188612792647
 21
114.3951763457633
 31
0.0
  0
LINE
  5
287
330
1F
100
AcDbEntity
  8
1
  6
Continuous
 62
     4
100
AcDbLine
 10
193.813612792647
 20
113.5201763457633
 30
0.0
 11
193.938612792647
 21
114.0201763457633
 31
0.0
  0
LINE
  5
288
330
1F
100
AcDbEntity
  8
1
  6
Continuous
 62
     4
100
AcDbLine
 10
192.438612792647
 20
112.0201763457633
 30
0.0
 11
192.438612792647
 21
111.8951763457633
 31
0.0
  0
LINE
  5
289
330
1F
100
AcDbEntity
  8
1
  6
Continuous
 62
     4
100
AcDbLine
 10
192.313612792647
 20
112.0201763457633
 30
0.0
 11
192.438612792647
 21
112.0201763457633
 31
0.0
  0
LINE
  5
28A
330
1F
100
AcDbEntity
  8
1
  6
Continuous
 62
     4
100
AcDbLine
 10
192.313612792647
 20
111.8951763457633
 30
0.0
 11
192.313612792647
 21
112.0201763457633
 31
0.0
  0
LINE
  5
28B
330
1F
100
AcDbEntity
  8
1
  6
Continuous
 62
     4
100
AcDbLine
 10
192.438612792647
 20
111.8951763457633
 30
0.0
 11
192.313612792647
 21
111.8951763457633
 31
0.0
  0
LINE
  5
28C
330
1F
100
AcDbEntity
  8
1
  6
Continuous
 62
     4
100
AcDbLine
 10
192.563612792647
 20
112.1451763457633
 30
0.0
 11
192.563612792647
 21
111.7701763457633
 31
0.0
  0
LINE
  5
28D
330
1F
100
AcDbEntity
  8
1
  6
Continuous
 62
     4
100
AcDbLine
 10
192.188612792647
 20
112.1451763457633
 30
0.0
 11
192.563612792647
 21
112.1451763457633
 31
0.0
  0
LINE
  5
28E
330
1F
100
AcDbEntity
  8
1
  6
Continuous
 62
     4
100
AcDbLine
 10
192.188612792647
 20
111.7701763457633
 30
0.0
 11
192.188612792647
 21
112.1451763457633
 31
0.0
  0
LINE
  5
28F
330
1F
100
AcDbEntity
  8
1
  6
Continuous
 62
     4
100
AcDbLine
 10
192.563612792647
 20
111.7701763457633
 30
0.0
 11
192.188612792647
 21
111.7701763457633
 31
0.0
  0
LINE
  5
290
330
1F
100
AcDbEntity
  8
1
  6
Continuous
 62
     4
100
AcDbLine
 10
190.688612792647
 20
114.8951763457633
 30
0.0
 11
190.688612792647
 21
113.6451763457633
 31
0.0
  0
LINE
  5
291
330
1F
100
AcDbEntity
  8
1
  6
Continuous
 62
     4
100
AcDbLine
 10
190.563612792647
 20
115.6451763457633
 30
0.0
 11
190.688612792647
 21
114.8951763457633
 31
0.0
  0
LINE
  5
292
330
1F
100
AcDbEntity
  8
1
  6
Continuous
 62
     4
100
AcDbLine
 10
190.313612792647
 20
116.1451763457633
 30
0.0
 11
190.563612792647
 21
115.6451763457633
 31
0.0
  0
LINE
  5
293
330
1F
100
AcDbEntity
  8
1
  6
Continuous
 62
     4
100
AcDbLine
 10
190.063612792647
 20
116.3951763457633
 30
0.0
 11
190.313612792647
 21
116.1451763457633
 31
0.0
  0
LINE
  5
294
330
1F
100
AcDbEntity
  8
1
  6
Continuous
 62
     4
100
AcDbLine
 10
189.688612792647
 20
116.6451763457633
 30
0.0
 11
190.063612792647
 21
116.3951763457633
 31
0.0
  0
LINE
  5
295
330
1F
100
AcDbEntity
  8
1
  6
Continuous
 62
     4
100
AcDbLine
 10
189.313612792647
 20
116.7701763457633
 30
0.0
 11
189.688612792647
 21
116.6451763457633
 31
0.0
  0
LINE
  5
296
330
1F
100
AcDbEntity
  8
1
  6
Continuous
 62
     4
100
AcDbLine
 10
189.063612792647
 20
116.7701763457633
 30
0.0
 11
189.313612792647
 21
116.7701763457633
 31
0.0
  0
LINE
  5
297
330
1F
100
AcDbEntity
  8
1
  6
Continuous
 62
     4
100
AcDbLine
 10
188.688612792647
 20
116.6451763457633
 30
0.0
 11
189.063612792647
 21
116.7701763457633
 31
0.0
  0
LINE
  5
298
330
1F
100
AcDbEntity
  8
1
  6
Continuous
 62
     4
100
AcDbLine
 10
188.313612792647
 20
116.3951763457633
 30
0.0
 11
188.688612792647
 21
116.6451763457633
 31
0.0
  0
LINE
  5
299
330
1F
100
AcDbEntity
  8
1
  6
Continuous
 62
     4
100
AcDbLine
 10
188.063612792647
 20
116.1451763457633
 30
0.0
 11
188.313612792647
 21
116.3951763457633
 31
0.0
  0
LINE
  5
29A
330
1F
100
AcDbEntity
  8
1
  6
Continuous
 62
     4
100
AcDbLine
 10
187.813612792647
 20
115.6451763457633
 30
0.0
 11
188.063612792647
 21
116.1451763457633
 31
0.0
  0
LINE
  5
29B
330
1F
100
AcDbEntity
  8
1
  6
Continuous
 62
     4
100
AcDbLine
 10
187.688612792647
 20
114.8951763457633
 30
0.0
 11
187.813612792647
 21
115.6451763457633
 31
0.0
  0
LINE
  5
29C
330
1F
100
AcDbEntity
  8
1
  6
Continuous
 62
     4
100
AcDbLine
 10
187.688612792647
 20
113.6451763457633
 30
0.0
 11
187.688612792647
 21
114.8951763457633
 31
0.0
  0
LINE
  5
29D
330
1F
100
AcDbEntity
  8
1
  6
Continuous
 62
     4
100
AcDbLine
 10
187.813612792647
 20
112.8951763457633
 30
0.0
 11
187.688612792647
 21
113.6451763457633
 31
0.0
  0
LINE
  5
29E
330
1F
100
AcDbEntity
  8
1
  6
Continuous
 62
     4
100
AcDbLine
 10
188.063612792647
 20
112.3951763457633
 30
0.0
 11
187.813612792647
 21
112.8951763457633
 31
0.0
  0
LINE
  5
29F
330
1F
100
AcDbEntity
  8
1
  6
Continuous
 62
     4
100
AcDbLine
 10
188.313612792647
 20
112.1451763457633
 30
0.0
 11
188.063612792647
 21
112.3951763457633
 31
0.0
  0
LINE
  5
2A0
330
1F
100
AcDbEntity
  8
1
  6
Continuous
 62
     4
100
AcDbLine
 10
188.688612792647
 20
111.8951763457633
 30
0.0
 11
188.313612792647
 21
112.1451763457633
 31
0.0
  0
LINE
  5
2A1
330
1F
100
AcDbEntity
  8
1
  6
Continuous
 62
     4
100
AcDbLine
 10
189.063612792647
 20
111.7701763457633
 30
0.0
 11
188.688612792647
 21
111.8951763457633
 31
0.0
  0
LINE
  5
2A2
330
1F
100
AcDbEntity
  8
1
  6
Continuous
 62
     4
100
AcDbLine
 10
189.313612792647
 20
111.7701763457633
 30
0.0
 11
189.063612792647
 21
111.7701763457633
 31
0.0
  0
LINE
  5
2A3
330
1F
100
AcDbEntity
  8
1
  6
Continuous
 62
     4
100
AcDbLine
 10
189.688612792647
 20
111.8951763457633
 30
0.0
 11
189.313612792647
 21
111.7701763457633
 31
0.0
  0
LINE
  5
2A4
330
1F
100
AcDbEntity
  8
1
  6
Continuous
 62
     4
100
AcDbLine
 10
190.063612792647
 20
112.1451763457633
 30
0.0
 11
189.688612792647
 21
111.8951763457633
 31
0.0
  0
LINE
  5
2A5
330
1F
100
AcDbEntity
  8
1
  6
Continuous
 62
     4
100
AcDbLine
 10
190.313612792647
 20
112.3951763457633
 30
0.0
 11
190.063612792647
 21
112.1451763457633
 31
0.0
  0
LINE
  5
2A6
330
1F
100
AcDbEntity
  8
1
  6
Continuous
 62
     4
100
AcDbLine
 10
190.563612792647
 20
112.8951763457633
 30
0.0
 11
190.313612792647
 21
112.3951763457633
 31
0.0
  0
LINE
  5
2A7
330
1F
100
AcDbEntity
  8
1
  6
Continuous
 62
     4
100
AcDbLine
 10
190.688612792647
 20
113.6451763457633
 30
0.0
 11
190.563612792647
 21
112.8951763457633
 31
0.0
  0
LINE
  5
2A8
330
1F
100
AcDbEntity
  8
1
  6
Continuous
 62
     4
100
AcDbLine
 10
220.313612792647
 20
123.2251763457633
 30
0.0
 11
220.313612792647
 21
121.9751763457633
 31
0.0
  0
LINE
  5
2A9
330
1F
100
AcDbEntity
  8
1
  6
Continuous
 62
     4
100
AcDbLine
 10
220.188612792647
 20
123.9751763457633
 30
0.0
 11
220.313612792647
 21
123.2251763457633
 31
0.0
  0
LINE
  5
2AA
330
1F
100
AcDbEntity
  8
1
  6
Continuous
 62
     4
100
AcDbLine
 10
219.938612792647
 20
124.4751763457633
 30
0.0
 11
220.188612792647
 21
123.9751763457633
 31
0.0
  0
LINE
  5
2AB
330
1F
100
AcDbEntity
  8
1
  6
Continuous
 62
     4
100
AcDbLine
 10
219.688612792647
 20
124.7251763457633
 30
0.0
 11
219.938612792647
 21
124.4751763457633
 31
0.0
  0
LINE
  5
2AC
330
1F
100
AcDbEntity
  8
1
  6
Continuous
 62
     4
100
AcDbLine
 10
219.313612792647
 20
124.9751763457633
 30
0.0
 11
219.688612792647
 21
124.7251763457633
 31
0.0
  0
LINE
  5
2AD
330
1F
100
AcDbEntity
  8
1
  6
Continuous
 62
     4
100
AcDbLine
 10
218.938612792647
 20
125.1001763457633
 30
0.0
 11
219.313612792647
 21
124.9751763457633
 31
0.0
  0
LINE
  5
2AE
330
1F
100
AcDbEntity
  8
1
  6
Continuous
 62
     4
100
AcDbLine
 10
218.688612792647
 20
125.1001763457633
 30
0.0
 11
218.938612792647
 21
125.1001763457633
 31
0.0
  0
LINE
  5
2AF
330
1F
100
AcDbEntity
  8
1
  6
Continuous
 62
     4
100
AcDbLine
 10
218.313612792647
 20
124.9751763457633
 30
0.0
 11
218.688612792647
 21
125.1001763457633
 31
0.0
  0
LINE
  5
2B0
330
1F
100
AcDbEntity
  8
1
  6
Continuous
 62
     4
100
AcDbLine
 10
217.938612792647
 20
124.7251763457633
 30
0.0
 11
218.313612792647
 21
124.9751763457633
 31
0.0
  0
LINE
  5
2B1
330
1F
100
AcDbEntity
  8
1
  6
Continuous
 62
     4
100
AcDbLine
 10
217.688612792647
 20
124.4751763457633
 30
0.0
 11
217.938612792647
 21
124.7251763457633
 31
0.0
  0
LINE
  5
2B2
330
1F
100
AcDbEntity
  8
1
  6
Continuous
 62
     4
100
AcDbLine
 10
217.438612792647
 20
123.9751763457633
 30
0.0
 11
217.688612792647
 21
124.4751763457633
 31
0.0
  0
LINE
  5
2B3
330
1F
100
AcDbEntity
  8
1
  6
Continuous
 62
     4
100
AcDbLine
 10
217.313612792647
 20
123.2251763457633
 30
0.0
 11
217.438612792647
 21
123.9751763457633
 31
0.0
  0
LINE
  5
2B4
330
1F
100
AcDbEntity
  8
1
  6
Continuous
 62
     4
100
AcDbLine
 10
217.313612792647
 20
121.9751763457633
 30
0.0
 11
217.313612792647
 21
123.2251763457633
 31
0.0
  0
LINE
  5
2B5
330
1F
100
AcDbEntity
  8
1
  6
Continuous
 62
     4
100
AcDbLine
 10
217.438612792647
 20
121.2251763457633
 30
0.0
 11
217.313612792647
 21
121.9751763457633
 31
0.0
  0
LINE
  5
2B6
330
1F
100
AcDbEntity
  8
1
  6
Continuous
 62
     4
100
AcDbLine
 10
217.688612792647
 20
120.7251763457633
 30
0.0
 11
217.438612792647
 21
121.2251763457633
 31
0.0
  0
LINE
  5
2B7
330
1F
100
AcDbEntity
  8
1
  6
Continuous
 62
     4
100
AcDbLine
 10
217.938612792647
 20
120.4751763457633
 30
0.0
 11
217.688612792647
 21
120.7251763457633
 31
0.0
  0
LINE
  5
2B8
330
1F
100
AcDbEntity
  8
1
  6
Continuous
 62
     4
100
AcDbLine
 10
218.313612792647
 20
120.2251763457633
 30
0.0
 11
217.938612792647
 21
120.4751763457633
 31
0.0
  0
LINE
  5
2B9
330
1F
100
AcDbEntity
  8
1
  6
Continuous
 62
     4
100
AcDbLine
 10
218.688612792647
 20
120.1001763457633
 30
0.0
 11
218.313612792647
 21
120.2251763457633
 31
0.0
  0
LINE
  5
2BA
330
1F
100
AcDbEntity
  8
1
  6
Continuous
 62
     4
100
AcDbLine
 10
218.938612792647
 20
120.1001763457633
 30
0.0
 11
218.688612792647
 21
120.1001763457633
 31
0.0
  0
LINE
  5
2BB
330
1F
100
AcDbEntity
  8
1
  6
Continuous
 62
     4
100
AcDbLine
 10
219.313612792647
 20
120.2251763457633
 30
0.0
 11
218.938612792647
 21
120.1001763457633
 31
0.0
  0
LINE
  5
2BC
330
1F
100
AcDbEntity
  8
1
  6
Continuous
 62
     4
100
AcDbLine
 10
219.688612792647
 20
120.4751763457633
 30
0.0
 11
219.313612792647
 21
120.2251763457633
 31
0.0
  0
LINE
  5
2BD
330
1F
100
AcDbEntity
  8
1
  6
Continuous
 62
     4
100
AcDbLine
 10
219.938612792647
 20
120.7251763457633
 30
0.0
 11
219.688612792647
 21
120.4751763457633
 31
0.0
  0
LINE
  5
2BE
330
1F
100
AcDbEntity
  8
1
  6
Continuous
 62
     4
100
AcDbLine
 10
220.188612792647
 20
121.2251763457633
 30
0.0
 11
219.938612792647
 21
120.7251763457633
 31
0.0
  0
LINE
  5
2BF
330
1F
100
AcDbEntity
  8
1
  6
Continuous
 62
     4
100
AcDbLine
 10
220.313612792647
 20
121.9751763457633
 30
0.0
 11
220.188612792647
 21
121.2251763457633
 31
0.0
  0
LINE
  5
2C0
330
1F
100
AcDbEntity
  8
1
  6
Continuous
 62
     4
100
AcDbLine
 10
215.813612792647
 20
123.2251763457633
 30
0.0
 11
215.813612792647
 21
121.9751763457633
 31
0.0
  0
LINE
  5
2C1
330
1F
100
AcDbEntity
  8
1
  6
Continuous
 62
     4
100
AcDbLine
 10
215.688612792647
 20
123.9751763457633
 30
0.0
 11
215.813612792647
 21
123.2251763457633
 31
0.0
  0
LINE
  5
2C2
330
1F
100
AcDbEntity
  8
1
  6
Continuous
 62
     4
100
AcDbLine
 10
215.438612792647
 20
124.4751763457633
 30
0.0
 11
215.688612792647
 21
123.9751763457633
 31
0.0
  0
LINE
  5
2C3
330
1F
100
AcDbEntity
  8
1
  6
Continuous
 62
     4
100
AcDbLine
 10
215.188612792647
 20
124.7251763457633
 30
0.0
 11
215.438612792647
 21
124.4751763457633
 31
0.0
  0
LINE
  5
2C4
330
1F
100
AcDbEntity
  8
1
  6
Continuous
 62
     4
100
AcDbLine
 10
214.813612792647
 20
124.9751763457633
 30
0.0
 11
215.188612792647
 21
124.7251763457633
 31
0.0
  0
LINE
  5
2C5
330
1F
100
AcDbEntity
  8
1
  6
Continuous
 62
     4
100
AcDbLine
 10
214.438612792647
 20
125.1001763457633
 30
0.0
 11
214.813612792647
 21
124.9751763457633
 31
0.0
  0
LINE
  5
2C6
330
1F
100
AcDbEntity
  8
1
  6
Continuous
 62
     4
100
AcDbLine
 10
214.188612792647
 20
125.1001763457633
 30
0.0
 11
214.438612792647
 21
125.1001763457633
 31
0.0
  0
LINE
  5
2C7
330
1F
100
AcDbEntity
  8
1
  6
Continuous
 62
     4
100
AcDbLine
 10
213.813612792647
 20
124.9751763457633
 30
0.0
 11
214.188612792647
 21
125.1001763457633
 31
0.0
  0
LINE
  5
2C8
330
1F
100
AcDbEntity
  8
1
  6
Continuous
 62
     4
100
AcDbLine
 10
213.438612792647
 20
124.7251763457633
 30
0.0
 11
213.813612792647
 21
124.9751763457633
 31
0.0
  0
LINE
  5
2C9
330
1F
100
AcDbEntity
  8
1
  6
Continuous
 62
     4
100
AcDbLine
 10
213.188612792647
 20
124.4751763457633
 30
0.0
 11
213.438612792647
 21
124.7251763457633
 31
0.0
  0
LINE
  5
2CA
330
1F
100
AcDbEntity
  8
1
  6
Continuous
 62
     4
100
AcDbLine
 10
212.938612792647
 20
123.9751763457633
 30
0.0
 11
213.188612792647
 21
124.4751763457633
 31
0.0
  0
LINE
  5
2CB
330
1F
100
AcDbEntity
  8
1
  6
Continuous
 62
     4
100
AcDbLine
 10
212.813612792647
 20
123.2251763457633
 30
0.0
 11
212.938612792647
 21
123.9751763457633
 31
0.0
  0
LINE
  5
2CC
330
1F
100
AcDbEntity
  8
1
  6
Continuous
 62
     4
100
AcDbLine
 10
212.813612792647
 20
121.9751763457633
 30
0.0
 11
212.813612792647
 21
123.2251763457633
 31
0.0
  0
LINE
  5
2CD
330
1F
100
AcDbEntity
  8
1
  6
Continuous
 62
     4
100
AcDbLine
 10
212.938612792647
 20
121.2251763457633
 30
0.0
 11
212.813612792647
 21
121.9751763457633
 31
0.0
  0
LINE
  5
2CE
330
1F
100
AcDbEntity
  8
1
  6
Continuous
 62
     4
100
AcDbLine
 10
213.188612792647
 20
120.7251763457633
 30
0.0
 11
212.938612792647
 21
121.2251763457633
 31
0.0
  0
LINE
  5
2CF
330
1F
100
AcDbEntity
  8
1
  6
Continuous
 62
     4
100
AcDbLine
 10
213.438612792647
 20
120.4751763457633
 30
0.0
 11
213.188612792647
 21
120.7251763457633
 31
0.0
  0
LINE
  5
2D0
330
1F
100
AcDbEntity
  8
1
  6
Continuous
 62
     4
100
AcDbLine
 10
213.813612792647
 20
120.2251763457633
 30
0.0
 11
213.438612792647
 21
120.4751763457633
 31
0.0
  0
LINE
  5
2D1
330
1F
100
AcDbEntity
  8
1
  6
Continuous
 62
     4
100
AcDbLine
 10
214.188612792647
 20
120.1001763457633
 30
0.0
 11
213.813612792647
 21
120.2251763457633
 31
0.0
  0
LINE
  5
2D2
330
1F
100
AcDbEntity
  8
1
  6
Continuous
 62
     4
100
AcDbLine
 10
214.438612792647
 20
120.1001763457633
 30
0.0
 11
214.188612792647
 21
120.1001763457633
 31
0.0
  0
LINE
  5
2D3
330
1F
100
AcDbEntity
  8
1
  6
Continuous
 62
     4
100
AcDbLine
 10
214.813612792647
 20
120.2251763457633
 30
0.0
 11
214.438612792647
 21
120.1001763457633
 31
0.0
  0
LINE
  5
2D4
330
1F
100
AcDbEntity
  8
1
  6
Continuous
 62
     4
100
AcDbLine
 10
215.188612792647
 20
120.4751763457633
 30
0.0
 11
214.813612792647
 21
120.2251763457633
 31
0.0
  0
LINE
  5
2D5
330
1F
100
AcDbEntity
  8
1
  6
Continuous
 62
     4
100
AcDbLine
 10
215.438612792647
 20
120.7251763457633
 30
0.0
 11
215.188612792647
 21
120.4751763457633
 31
0.0
  0
LINE
  5
2D6
330
1F
100
AcDbEntity
  8
1
  6
Continuous
 62
     4
100
AcDbLine
 10
215.688612792647
 20
121.2251763457633
 30
0.0
 11
215.438612792647
 21
120.7251763457633
 31
0.0
  0
LINE
  5
2D7
330
1F
100
AcDbEntity
  8
1
  6
Continuous
 62
     4
100
AcDbLine
 10
215.813612792647
 20
121.9751763457633
 30
0.0
 11
215.688612792647
 21
121.2251763457633
 31
0.0
  0
LINE
  5
2D8
330
1F
100
AcDbEntity
  8
1
  6
Continuous
 62
     4
100
AcDbLine
 10
210.188612792647
 20
120.1001763457633
 30
0.0
 11
208.313612792647
 21
120.1001763457633
 31
0.0
  0
LINE
  5
2D9
330
1F
100
AcDbEntity
  8
1
  6
Continuous
 62
     4
100
AcDbLine
 10
210.563612792647
 20
120.2251763457633
 30
0.0
 11
210.188612792647
 21
120.1001763457633
 31
0.0
  0
LINE
  5
2DA
330
1F
100
AcDbEntity
  8
1
  6
Continuous
 62
     4
100
AcDbLine
 10
210.938612792647
 20
120.4751763457633
 30
0.0
 11
210.563612792647
 21
120.2251763457633
 31
0.0
  0
LINE
  5
2DB
330
1F
100
AcDbEntity
  8
1
  6
Continuous
 62
     4
100
AcDbLine
 10
211.188612792647
 20
120.8501763457633
 30
0.0
 11
210.938612792647
 21
120.4751763457633
 31
0.0
  0
LINE
  5
2DC
330
1F
100
AcDbEntity
  8
1
  6
Continuous
 62
     4
100
AcDbLine
 10
211.313612792647
 20
121.3501763457633
 30
0.0
 11
211.188612792647
 21
120.8501763457633
 31
0.0
  0
LINE
  5
2DD
330
1F
100
AcDbEntity
  8
1
  6
Continuous
 62
     4
100
AcDbLine
 10
211.313612792647
 20
122.1001763457633
 30
0.0
 11
211.313612792647
 21
121.3501763457633
 31
0.0
  0
LINE
  5
2DE
330
1F
100
AcDbEntity
  8
1
  6
Continuous
 62
     4
100
AcDbLine
 10
211.188612792647
 20
122.6001763457633
 30
0.0
 11
211.313612792647
 21
122.1001763457633
 31
0.0
  0
LINE
  5
2DF
330
1F
100
AcDbEntity
  8
1
  6
Continuous
 62
     4
100
AcDbLine
 10
210.813612792647
 20
122.9751763457633
 30
0.0
 11
211.188612792647
 21
122.6001763457633
 31
0.0
  0
LINE
  5
2E0
330
1F
100
AcDbEntity
  8
1
  6
Continuous
 62
     4
100
AcDbLine
 10
210.188612792647
 20
123.1001763457633
 30
0.0
 11
210.813612792647
 21
122.9751763457633
 31
0.0
  0
LINE
  5
2E1
330
1F
100
AcDbEntity
  8
1
  6
Continuous
 62
     4
100
AcDbLine
 10
208.313612792647
 20
123.1001763457633
 30
0.0
 11
210.188612792647
 21
123.1001763457633
 31
0.0
  0
LINE
  5
2E2
330
1F
100
AcDbEntity
  8
1
  6
Continuous
 62
     4
100
AcDbLine
 10
208.313612792647
 20
125.1001763457633
 30
0.0
 11
208.313612792647
 21
123.1001763457633
 31
0.0
  0
LINE
  5
2E3
330
1F
100
AcDbEntity
  8
1
  6
Continuous
 62
     4
100
AcDbLine
 10
211.063612792647
 20
125.1001763457633
 30
0.0
 11
208.313612792647
 21
125.1001763457633
 31
0.0
  0
LINE
  5
2E4
330
1F
100
AcDbEntity
  8
1
  6
Continuous
 62
     4
100
AcDbLine
 10
195.688612792647
 20
120.1001763457633
 30
0.0
 11
193.813612792647
 21
120.1001763457633
 31
0.0
  0
LINE
  5
2E5
330
1F
100
AcDbEntity
  8
1
  6
Continuous
 62
     4
100
AcDbLine
 10
196.063612792647
 20
120.2251763457633
 30
0.0
 11
195.688612792647
 21
120.1001763457633
 31
0.0
  0
LINE
  5
2E6
330
1F
100
AcDbEntity
  8
1
  6
Continuous
 62
     4
100
AcDbLine
 10
196.438612792647
 20
120.4751763457633
 30
0.0
 11
196.063612792647
 21
120.2251763457633
 31
0.0
  0
LINE
  5
2E7
330
1F
100
AcDbEntity
  8
1
  6
Continuous
 62
     4
100
AcDbLine
 10
196.688612792647
 20
120.8501763457633
 30
0.0
 11
196.438612792647
 21
120.4751763457633
 31
0.0
  0
LINE
  5
2E8
330
1F
100
AcDbEntity
  8
1
  6
Continuous
 62
     4
100
AcDbLine
 10
196.813612792647
 20
121.3501763457633
 30
0.0
 11
196.688612792647
 21
120.8501763457633
 31
0.0
  0
LINE
  5
2E9
330
1F
100
AcDbEntity
  8
1
  6
Continuous
 62
     4
100
AcDbLine
 10
196.813612792647
 20
122.1001763457633
 30
0.0
 11
196.813612792647
 21
121.3501763457633
 31
0.0
  0
LINE
  5
2EA
330
1F
100
AcDbEntity
  8
1
  6
Continuous
 62
     4
100
AcDbLine
 10
196.688612792647
 20
122.6001763457633
 30
0.0
 11
196.813612792647
 21
122.1001763457633
 31
0.0
  0
LINE
  5
2EB
330
1F
100
AcDbEntity
  8
1
  6
Continuous
 62
     4
100
AcDbLine
 10
196.313612792647
 20
122.9751763457633
 30
0.0
 11
196.688612792647
 21
122.6001763457633
 31
0.0
  0
LINE
  5
2EC
330
1F
100
AcDbEntity
  8
1
  6
Continuous
 62
     4
100
AcDbLine
 10
195.688612792647
 20
123.1001763457633
 30
0.0
 11
196.313612792647
 21
122.9751763457633
 31
0.0
  0
LINE
  5
2ED
330
1F
100
AcDbEntity
  8
1
  6
Continuous
 62
     4
100
AcDbLine
 10
193.813612792647
 20
123.1001763457633
 30
0.0
 11
195.688612792647
 21
123.1001763457633
 31
0.0
  0
LINE
  5
2EE
330
1F
100
AcDbEntity
  8
1
  6
Continuous
 62
     4
100
AcDbLine
 10
193.813612792647
 20
125.1001763457633
 30
0.0
 11
193.813612792647
 21
123.1001763457633
 31
0.0
  0
LINE
  5
2EF
330
1F
100
AcDbEntity
  8
1
  6
Continuous
 62
     4
100
AcDbLine
 10
196.563612792647
 20
125.1001763457633
 30
0.0
 11
193.813612792647
 21
125.1001763457633
 31
0.0
  0
LINE
  5
2F0
330
1F
100
AcDbEntity
  8
1
  6
Continuous
 62
     4
100
AcDbLine
 10
192.438612792647
 20
120.3501763457633
 30
0.0
 11
192.438612792647
 21
120.2251763457633
 31
0.0
  0
LINE
  5
2F1
330
1F
100
AcDbEntity
  8
1
  6
Continuous
 62
     4
100
AcDbLine
 10
192.313612792647
 20
120.3501763457633
 30
0.0
 11
192.438612792647
 21
120.3501763457633
 31
0.0
  0
LINE
  5
2F2
330
1F
100
AcDbEntity
  8
1
  6
Continuous
 62
     4
100
AcDbLine
 10
192.313612792647
 20
120.2251763457633
 30
0.0
 11
192.313612792647
 21
120.3501763457633
 31
0.0
  0
LINE
  5
2F3
330
1F
100
AcDbEntity
  8
1
  6
Continuous
 62
     4
100
AcDbLine
 10
192.438612792647
 20
120.2251763457633
 30
0.0
 11
192.313612792647
 21
120.2251763457633
 31
0.0
  0
LINE
  5
2F4
330
1F
100
AcDbEntity
  8
1
  6
Continuous
 62
     4
100
AcDbLine
 10
192.563612792647
 20
120.4751763457633
 30
0.0
 11
192.563612792647
 21
120.1001763457633
 31
0.0
  0
LINE
  5
2F5
330
1F
100
AcDbEntity
  8
1
  6
Continuous
 62
     4
100
AcDbLine
 10
192.188612792647
 20
120.4751763457633
 30
0.0
 11
192.563612792647
 21
120.4751763457633
 31
0.0
  0
LINE
  5
2F6
330
1F
100
AcDbEntity
  8
1
  6
Continuous
 62
     4
100
AcDbLine
 10
192.188612792647
 20
120.1001763457633
 30
0.0
 11
192.188612792647
 21
120.4751763457633
 31
0.0
  0
LINE
  5
2F7
330
1F
100
AcDbEntity
  8
1
  6
Continuous
 62
     4
100
AcDbLine
 10
192.563612792647
 20
120.1001763457633
 30
0.0
 11
192.188612792647
 21
120.1001763457633
 31
0.0
  0
LINE
  5
2F8
330
1F
100
AcDbEntity
  8
1
  6
Continuous
 62
     4
100
AcDbLine
 10
190.688612792647
 20
123.2251763457633
 30
0.0
 11
190.688612792647
 21
121.9751763457633
 31
0.0
  0
LINE
  5
2F9
330
1F
100
AcDbEntity
  8
1
  6
Continuous
 62
     4
100
AcDbLine
 10
190.563612792647
 20
123.9751763457633
 30
0.0
 11
190.688612792647
 21
123.2251763457633
 31
0.0
  0
LINE
  5
2FA
330
1F
100
AcDbEntity
  8
1
  6
Continuous
 62
     4
100
AcDbLine
 10
190.313612792647
 20
124.4751763457633
 30
0.0
 11
190.563612792647
 21
123.9751763457633
 31
0.0
  0
LINE
  5
2FB
330
1F
100
AcDbEntity
  8
1
  6
Continuous
 62
     4
100
AcDbLine
 10
190.063612792647
 20
124.7251763457633
 30
0.0
 11
190.313612792647
 21
124.4751763457633
 31
0.0
  0
LINE
  5
2FC
330
1F
100
AcDbEntity
  8
1
  6
Continuous
 62
     4
100
AcDbLine
 10
189.688612792647
 20
124.9751763457633
 30
0.0
 11
190.063612792647
 21
124.7251763457633
 31
0.0
  0
LINE
  5
2FD
330
1F
100
AcDbEntity
  8
1
  6
Continuous
 62
     4
100
AcDbLine
 10
189.313612792647
 20
125.1001763457633
 30
0.0
 11
189.688612792647
 21
124.9751763457633
 31
0.0
  0
LINE
  5
2FE
330
1F
100
AcDbEntity
  8
1
  6
Continuous
 62
     4
100
AcDbLine
 10
189.063612792647
 20
125.1001763457633
 30
0.0
 11
189.313612792647
 21
125.1001763457633
 31
0.0
  0
LINE
  5
2FF
330
1F
100
AcDbEntity
  8
1
  6
Continuous
 62
     4
100
AcDbLine
 10
188.688612792647
 20
124.9751763457633
 30
0.0
 11
189.063612792647
 21
125.1001763457633
 31
0.0
  0
LINE
  5
300
330
1F
100
AcDbEntity
  8
1
  6
Continuous
 62
     4
100
AcDbLine
 10
188.313612792647
 20
124.7251763457633
 30
0.0
 11
188.688612792647
 21
124.9751763457633
 31
0.0
  0
LINE
  5
301
330
1F
100
AcDbEntity
  8
1
  6
Continuous
 62
     4
100
AcDbLine
 10
188.063612792647
 20
124.4751763457633
 30
0.0
 11
188.313612792647
 21
124.7251763457633
 31
0.0
  0
LINE
  5
302
330
1F
100
AcDbEntity
  8
1
  6
Continuous
 62
     4
100
AcDbLine
 10
187.813612792647
 20
123.9751763457633
 30
0.0
 11
188.063612792647
 21
124.4751763457633
 31
0.0
  0
LINE
  5
303
330
1F
100
AcDbEntity
  8
1
  6
Continuous
 62
     4
100
AcDbLine
 10
187.688612792647
 20
123.2251763457633
 30
0.0
 11
187.813612792647
 21
123.9751763457633
 31
0.0
  0
LINE
  5
304
330
1F
100
AcDbEntity
  8
1
  6
Continuous
 62
     4
100
AcDbLine
 10
187.688612792647
 20
121.9751763457633
 30
0.0
 11
187.688612792647
 21
123.2251763457633
 31
0.0
  0
LINE
  5
305
330
1F
100
AcDbEntity
  8
1
  6
Continuous
 62
     4
100
AcDbLine
 10
187.813612792647
 20
121.2251763457633
 30
0.0
 11
187.688612792647
 21
121.9751763457633
 31
0.0
  0
LINE
  5
306
330
1F
100
AcDbEntity
  8
1
  6
Continuous
 62
     4
100
AcDbLine
 10
188.063612792647
 20
120.7251763457633
 30
0.0
 11
187.813612792647
 21
121.2251763457633
 31
0.0
  0
LINE
  5
307
330
1F
100
AcDbEntity
  8
1
  6
Continuous
 62
     4
100
AcDbLine
 10
188.313612792647
 20
120.4751763457633
 30
0.0
 11
188.063612792647
 21
120.7251763457633
 31
0.0
  0
LINE
  5
308
330
1F
100
AcDbEntity
  8
1
  6
Continuous
 62
     4
100
AcDbLine
 10
188.688612792647
 20
120.2251763457633
 30
0.0
 11
188.313612792647
 21
120.4751763457633
 31
0.0
  0
LINE
  5
309
330
1F
100
AcDbEntity
  8
1
  6
Continuous
 62
     4
100
AcDbLine
 10
189.063612792647
 20
120.1001763457633
 30
0.0
 11
188.688612792647
 21
120.2251763457633
 31
0.0
  0
LINE
  5
30A
330
1F
100
AcDbEntity
  8
1
  6
Continuous
 62
     4
100
AcDbLine
 10
189.313612792647
 20
120.1001763457633
 30
0.0
 11
189.063612792647
 21
120.1001763457633
 31
0.0
  0
LINE
  5
30B
330
1F
100
AcDbEntity
  8
1
  6
Continuous
 62
     4
100
AcDbLine
 10
189.688612792647
 20
120.2251763457633
 30
0.0
 11
189.313612792647
 21
120.1001763457633
 31
0.0
  0
LINE
  5
30C
330
1F
100
AcDbEntity
  8
1
  6
Continuous
 62
     4
100
AcDbLine
 10
190.063612792647
 20
120.4751763457633
 30
0.0
 11
189.688612792647
 21
120.2251763457633
 31
0.0
  0
LINE
  5
30D
330
1F
100
AcDbEntity
  8
1
  6
Continuous
 62
     4
100
AcDbLine
 10
190.313612792647
 20
120.7251763457633
 30
0.0
 11
190.063612792647
 21
120.4751763457633
 31
0.0
  0
LINE
  5
30E
330
1F
100
AcDbEntity
  8
1
  6
Continuous
 62
     4
100
AcDbLine
 10
190.563612792647
 20
121.2251763457633
 30
0.0
 11
190.313612792647
 21
120.7251763457633
 31
0.0
  0
LINE
  5
30F
330
1F
100
AcDbEntity
  8
1
  6
Continuous
 62
     4
100
AcDbLine
 10
190.688612792647
 20
121.9751763457633
 30
0.0
 11
190.563612792647
 21
121.2251763457633
 31
0.0
  0
LINE
  5
310
330
1F
100
AcDbEntity
  8
1
  6
Continuous
 62
     4
100
AcDbLine
 10
220.313612792647
 20
131.5551763457633
 30
0.0
 11
220.313612792647
 21
130.3051763457633
 31
0.0
  0
LINE
  5
311
330
1F
100
AcDbEntity
  8
1
  6
Continuous
 62
     4
100
AcDbLine
 10
220.188612792647
 20
132.3051763457633
 30
0.0
 11
220.313612792647
 21
131.5551763457633
 31
0.0
  0
LINE
  5
312
330
1F
100
AcDbEntity
  8
1
  6
Continuous
 62
     4
100
AcDbLine
 10
219.938612792647
 20
132.8051763457633
 30
0.0
 11
220.188612792647
 21
132.3051763457633
 31
0.0
  0
LINE
  5
313
330
1F
100
AcDbEntity
  8
1
  6
Continuous
 62
     4
100
AcDbLine
 10
219.688612792647
 20
133.0551763457633
 30
0.0
 11
219.938612792647
 21
132.8051763457633
 31
0.0
  0
LINE
  5
314
330
1F
100
AcDbEntity
  8
1
  6
Continuous
 62
     4
100
AcDbLine
 10
219.313612792647
 20
133.3051763457633
 30
0.0
 11
219.688612792647
 21
133.0551763457633
 31
0.0
  0
LINE
  5
315
330
1F
100
AcDbEntity
  8
1
  6
Continuous
 62
     4
100
AcDbLine
 10
218.938612792647
 20
133.4301763457633
 30
0.0
 11
219.313612792647
 21
133.3051763457633
 31
0.0
  0
LINE
  5
316
330
1F
100
AcDbEntity
  8
1
  6
Continuous
 62
     4
100
AcDbLine
 10
218.688612792647
 20
133.4301763457633
 30
0.0
 11
218.938612792647
 21
133.4301763457633
 31
0.0
  0
LINE
  5
317
330
1F
100
AcDbEntity
  8
1
  6
Continuous
 62
     4
100
AcDbLine
 10
218.313612792647
 20
133.3051763457633
 30
0.0
 11
218.688612792647
 21
133.4301763457633
 31
0.0
  0
LINE
  5
318
330
1F
100
AcDbEntity
  8
1
  6
Continuous
 62
     4
100
AcDbLine
 10
217.938612792647
 20
133.0551763457633
 30
0.0
 11
218.313612792647
 21
133.3051763457633
 31
0.0
  0
LINE
  5
319
330
1F
100
AcDbEntity
  8
1
  6
Continuous
 62
     4
100
AcDbLine
 10
217.688612792647
 20
132.8051763457633
 30
0.0
 11
217.938612792647
 21
133.0551763457633
 31
0.0
  0
LINE
  5
31A
330
1F
100
AcDbEntity
  8
1
  6
Continuous
 62
     4
100
AcDbLine
 10
217.438612792647
 20
132.3051763457633
 30
0.0
 11
217.688612792647
 21
132.8051763457633
 31
0.0
  0
LINE
  5
31B
330
1F
100
AcDbEntity
  8
1
  6
Continuous
 62
     4
100
AcDbLine
 10
217.313612792647
 20
131.5551763457633
 30
0.0
 11
217.438612792647
 21
132.3051763457633
 31
0.0
  0
LINE
  5
31C
330
1F
100
AcDbEntity
  8
1
  6
Continuous
 62
     4
100
AcDbLine
 10
217.313612792647
 20
130.3051763457633
 30
0.0
 11
217.313612792647
 21
131.5551763457633
 31
0.0
  0
LINE
  5
31D
330
1F
100
AcDbEntity
  8
1
  6
Continuous
 62
     4
100
AcDbLine
 10
217.438612792647
 20
129.5551763457633
 30
0.0
 11
217.313612792647
 21
130.3051763457633
 31
0.0
  0
LINE
  5
31E
330
1F
100
AcDbEntity
  8
1
  6
Continuous
 62
     4
100
AcDbLine
 10
217.688612792647
 20
129.0551763457633
 30
0.0
 11
217.438612792647
 21
129.5551763457633
 31
0.0
  0
LINE
  5
31F
330
1F
100
AcDbEntity
  8
1
  6
Continuous
 62
     4
100
AcDbLine
 10
217.938612792647
 20
128.8051763457633
 30
0.0
 11
217.688612792647
 21
129.0551763457633
 31
0.0
  0
LINE
  5
320
330
1F
100
AcDbEntity
  8
1
  6
Continuous
 62
     4
100
AcDbLine
 10
218.313612792647
 20
128.5551763457633
 30
0.0
 11
217.938612792647
 21
128.8051763457633
 31
0.0
  0
LINE
  5
321
330
1F
100
AcDbEntity
  8
1
  6
Continuous
 62
     4
100
AcDbLine
 10
218.688612792647
 20
128.4301763457633
 30
0.0
 11
218.313612792647
 21
128.5551763457633
 31
0.0
  0
LINE
  5
322
330
1F
100
AcDbEntity
  8
1
  6
Continuous
 62
     4
100
AcDbLine
 10
218.938612792647
 20
128.4301763457633
 30
0.0
 11
218.688612792647
 21
128.4301763457633
 31
0.0
  0
LINE
  5
323
330
1F
100
AcDbEntity
  8
1
  6
Continuous
 62
     4
100
AcDbLine
 10
219.313612792647
 20
128.5551763457633
 30
0.0
 11
218.938612792647
 21
128.4301763457633
 31
0.0
  0
LINE
  5
324
330
1F
100
AcDbEntity
  8
1
  6
Continuous
 62
     4
100
AcDbLine
 10
219.688612792647
 20
128.8051763457633
 30
0.0
 11
219.313612792647
 21
128.5551763457633
 31
0.0
  0
LINE
  5
325
330
1F
100
AcDbEntity
  8
1
  6
Continuous
 62
     4
100
AcDbLine
 10
219.938612792647
 20
129.0551763457633
 30
0.0
 11
219.688612792647
 21
128.8051763457633
 31
0.0
  0
LINE
  5
326
330
1F
100
AcDbEntity
  8
1
  6
Continuous
 62
     4
100
AcDbLine
 10
220.188612792647
 20
129.5551763457633
 30
0.0
 11
219.938612792647
 21
129.0551763457633
 31
0.0
  0
LINE
  5
327
330
1F
100
AcDbEntity
  8
1
  6
Continuous
 62
     4
100
AcDbLine
 10
220.313612792647
 20
130.3051763457633
 30
0.0
 11
220.188612792647
 21
129.5551763457633
 31
0.0
  0
LINE
  5
328
330
1F
100
AcDbEntity
  8
1
  6
Continuous
 62
     4
100
AcDbLine
 10
215.813612792647
 20
131.5551763457633
 30
0.0
 11
215.813612792647
 21
130.3051763457633
 31
0.0
  0
LINE
  5
329
330
1F
100
AcDbEntity
  8
1
  6
Continuous
 62
     4
100
AcDbLine
 10
215.688612792647
 20
132.3051763457633
 30
0.0
 11
215.813612792647
 21
131.5551763457633
 31
0.0
  0
LINE
  5
32A
330
1F
100
AcDbEntity
  8
1
  6
Continuous
 62
     4
100
AcDbLine
 10
215.438612792647
 20
132.8051763457633
 30
0.0
 11
215.688612792647
 21
132.3051763457633
 31
0.0
  0
LINE
  5
32B
330
1F
100
AcDbEntity
  8
1
  6
Continuous
 62
     4
100
AcDbLine
 10
215.188612792647
 20
133.0551763457633
 30
0.0
 11
215.438612792647
 21
132.8051763457633
 31
0.0
  0
LINE
  5
32C
330
1F
100
AcDbEntity
  8
1
  6
Continuous
 62
     4
100
AcDbLine
 10
214.813612792647
 20
133.3051763457633
 30
0.0
 11
215.188612792647
 21
133.0551763457633
 31
0.0
  0
LINE
  5
32D
330
1F
100
AcDbEntity
  8
1
  6
Continuous
 62
     4
100
AcDbLine
 10
214.438612792647
 20
133.4301763457633
 30
0.0
 11
214.813612792647
 21
133.3051763457633
 31
0.0
  0
LINE
  5
32E
330
1F
100
AcDbEntity
  8
1
  6
Continuous
 62
     4
100
AcDbLine
 10
214.188612792647
 20
133.4301763457633
 30
0.0
 11
214.438612792647
 21
133.4301763457633
 31
0.0
  0
LINE
  5
32F
330
1F
100
AcDbEntity
  8
1
  6
Continuous
 62
     4
100
AcDbLine
 10
213.813612792647
 20
133.3051763457633
 30
0.0
 11
214.188612792647
 21
133.4301763457633
 31
0.0
  0
LINE
  5
330
330
1F
100
AcDbEntity
  8
1
  6
Continuous
 62
     4
100
AcDbLine
 10
213.438612792647
 20
133.0551763457633
 30
0.0
 11
213.813612792647
 21
133.3051763457633
 31
0.0
  0
LINE
  5
331
330
1F
100
AcDbEntity
  8
1
  6
Continuous
 62
     4
100
AcDbLine
 10
213.188612792647
 20
132.8051763457633
 30
0.0
 11
213.438612792647
 21
133.0551763457633
 31
0.0
  0
LINE
  5
332
330
1F
100
AcDbEntity
  8
1
  6
Continuous
 62
     4
100
AcDbLine
 10
212.938612792647
 20
132.3051763457633
 30
0.0
 11
213.188612792647
 21
132.8051763457633
 31
0.0
  0
LINE
  5
333
330
1F
100
AcDbEntity
  8
1
  6
Continuous
 62
     4
100
AcDbLine
 10
212.813612792647
 20
131.5551763457633
 30
0.0
 11
212.938612792647
 21
132.3051763457633
 31
0.0
  0
LINE
  5
334
330
1F
100
AcDbEntity
  8
1
  6
Continuous
 62
     4
100
AcDbLine
 10
212.813612792647
 20
130.3051763457633
 30
0.0
 11
212.813612792647
 21
131.5551763457633
 31
0.0
  0
LINE
  5
335
330
1F
100
AcDbEntity
  8
1
  6
Continuous
 62
     4
100
AcDbLine
 10
212.938612792647
 20
129.5551763457633
 30
0.0
 11
212.813612792647
 21
130.3051763457633
 31
0.0
  0
LINE
  5
336
330
1F
100
AcDbEntity
  8
1
  6
Continuous
 62
     4
100
AcDbLine
 10
213.188612792647
 20
129.0551763457633
 30
0.0
 11
212.938612792647
 21
129.5551763457633
 31
0.0
  0
LINE
  5
337
330
1F
100
AcDbEntity
  8
1
  6
Continuous
 62
     4
100
AcDbLine
 10
213.438612792647
 20
128.8051763457633
 30
0.0
 11
213.188612792647
 21
129.0551763457633
 31
0.0
  0
LINE
  5
338
330
1F
100
AcDbEntity
  8
1
  6
Continuous
 62
     4
100
AcDbLine
 10
213.813612792647
 20
128.5551763457633
 30
0.0
 11
213.438612792647
 21
128.8051763457633
 31
0.0
  0
LINE
  5
339
330
1F
100
AcDbEntity
  8
1
  6
Continuous
 62
     4
100
AcDbLine
 10
214.188612792647
 20
128.4301763457633
 30
0.0
 11
213.813612792647
 21
128.5551763457633
 31
0.0
  0
LINE
  5
33A
330
1F
100
AcDbEntity
  8
1
  6
Continuous
 62
     4
100
AcDbLine
 10
214.438612792647
 20
128.4301763457633
 30
0.0
 11
214.188612792647
 21
128.4301763457633
 31
0.0
  0
LINE
  5
33B
330
1F
100
AcDbEntity
  8
1
  6
Continuous
 62
     4
100
AcDbLine
 10
214.813612792647
 20
128.5551763457633
 30
0.0
 11
214.438612792647
 21
128.4301763457633
 31
0.0
  0
LINE
  5
33C
330
1F
100
AcDbEntity
  8
1
  6
Continuous
 62
     4
100
AcDbLine
 10
215.188612792647
 20
128.8051763457633
 30
0.0
 11
214.813612792647
 21
128.5551763457633
 31
0.0
  0
LINE
  5
33D
330
1F
100
AcDbEntity
  8
1
  6
Continuous
 62
     4
100
AcDbLine
 10
215.438612792647
 20
129.0551763457633
 30
0.0
 11
215.188612792647
 21
128.8051763457633
 31
0.0
  0
LINE
  5
33E
330
1F
100
AcDbEntity
  8
1
  6
Continuous
 62
     4
100
AcDbLine
 10
215.688612792647
 20
129.5551763457633
 30
0.0
 11
215.438612792647
 21
129.0551763457633
 31
0.0
  0
LINE
  5
33F
330
1F
100
AcDbEntity
  8
1
  6
Continuous
 62
     4
100
AcDbLine
 10
215.813612792647
 20
130.3051763457633
 30
0.0
 11
215.688612792647
 21
129.5551763457633
 31
0.0
  0
LINE
  5
340
330
1F
100
AcDbEntity
  8
1
  6
Continuous
 62
     4
100
AcDbLine
 10
210.563612792647
 20
130.4301763457633
 30
0.0
 11
210.563612792647
 21
128.4301763457633
 31
0.0
  0
LINE
  5
341
330
1F
100
AcDbEntity
  8
1
  6
Continuous
 62
     4
100
AcDbLine
 10
208.313612792647
 20
129.4301763457633
 30
0.0
 11
211.313612792647
 21
129.4301763457633
 31
0.0
  0
LINE
  5
342
330
1F
100
AcDbEntity
  8
1
  6
Continuous
 62
     4
100
AcDbLine
 10
210.563612792647
 20
133.4301763457633
 30
0.0
 11
208.313612792647
 21
129.4301763457633
 31
0.0
  0
LINE
  5
343
330
1F
100
AcDbEntity
  8
1
  6
Continuous
 62
     4
100
AcDbLine
 10
196.063612792647
 20
130.4301763457633
 30
0.0
 11
196.063612792647
 21
128.4301763457633
 31
0.0
  0
LINE
  5
344
330
1F
100
AcDbEntity
  8
1
  6
Continuous
 62
     4
100
AcDbLine
 10
193.813612792647
 20
129.4301763457633
 30
0.0
 11
196.813612792647
 21
129.4301763457633
 31
0.0
  0
LINE
  5
345
330
1F
100
AcDbEntity
  8
1
  6
Continuous
 62
     4
100
AcDbLine
 10
196.063612792647
 20
133.4301763457633
 30
0.0
 11
193.813612792647
 21
129.4301763457633
 31
0.0
  0
LINE
  5
346
330
1F
100
AcDbEntity
  8
1
  6
Continuous
 62
     4
100
AcDbLine
 10
192.438612792647
 20
128.6801763457633
 30
0.0
 11
192.438612792647
 21
128.5551763457633
 31
0.0
  0
LINE
  5
347
330
1F
100
AcDbEntity
  8
1
  6
Continuous
 62
     4
100
AcDbLine
 10
192.313612792647
 20
128.6801763457633
 30
0.0
 11
192.438612792647
 21
128.6801763457633
 31
0.0
  0
LINE
  5
348
330
1F
100
AcDbEntity
  8
1
  6
Continuous
 62
     4
100
AcDbLine
 10
192.313612792647
 20
128.5551763457633
 30
0.0
 11
192.313612792647
 21
128.6801763457633
 31
0.0
  0
LINE
  5
349
330
1F
100
AcDbEntity
  8
1
  6
Continuous
 62
     4
100
AcDbLine
 10
192.438612792647
 20
128.5551763457633
 30
0.0
 11
192.313612792647
 21
128.5551763457633
 31
0.0
  0
LINE
  5
34A
330
1F
100
AcDbEntity
  8
1
  6
Continuous
 62
     4
100
AcDbLine
 10
192.563612792647
 20
128.8051763457633
 30
0.0
 11
192.563612792647
 21
128.4301763457633
 31
0.0
  0
LINE
  5
34B
330
1F
100
AcDbEntity
  8
1
  6
Continuous
 62
     4
100
AcDbLine
 10
192.188612792647
 20
128.8051763457633
 30
0.0
 11
192.563612792647
 21
128.8051763457633
 31
0.0
  0
LINE
  5
34C
330
1F
100
AcDbEntity
  8
1
  6
Continuous
 62
     4
100
AcDbLine
 10
192.188612792647
 20
128.4301763457633
 30
0.0
 11
192.188612792647
 21
128.8051763457633
 31
0.0
  0
LINE
  5
34D
330
1F
100
AcDbEntity
  8
1
  6
Continuous
 62
     4
100
AcDbLine
 10
192.563612792647
 20
128.4301763457633
 30
0.0
 11
192.188612792647
 21
128.4301763457633
 31
0.0
  0
LINE
  5
34E
330
1F
100
AcDbEntity
  8
1
  6
Continuous
 62
     4
100
AcDbLine
 10
190.688612792647
 20
131.5551763457633
 30
0.0
 11
190.688612792647
 21
130.3051763457633
 31
0.0
  0
LINE
  5
34F
330
1F
100
AcDbEntity
  8
1
  6
Continuous
 62
     4
100
AcDbLine
 10
190.563612792647
 20
132.3051763457633
 30
0.0
 11
190.688612792647
 21
131.5551763457633
 31
0.0
  0
LINE
  5
350
330
1F
100
AcDbEntity
  8
1
  6
Continuous
 62
     4
100
AcDbLine
 10
190.313612792647
 20
132.8051763457633
 30
0.0
 11
190.563612792647
 21
132.3051763457633
 31
0.0
  0
LINE
  5
351
330
1F
100
AcDbEntity
  8
1
  6
Continuous
 62
     4
100
AcDbLine
 10
190.063612792647
 20
133.0551763457633
 30
0.0
 11
190.313612792647
 21
132.8051763457633
 31
0.0
  0
LINE
  5
352
330
1F
100
AcDbEntity
  8
1
  6
Continuous
 62
     4
100
AcDbLine
 10
189.688612792647
 20
133.3051763457633
 30
0.0
 11
190.063612792647
 21
133.0551763457633
 31
0.0
  0
LINE
  5
353
330
1F
100
AcDbEntity
  8
1
  6
Continuous
 62
     4
100
AcDbLine
 10
189.313612792647
 20
133.4301763457633
 30
0.0
 11
189.688612792647
 21
133.3051763457633
 31
0.0
  0
LINE
  5
354
330
1F
100
AcDbEntity
  8
1
  6
Continuous
 62
     4
100
AcDbLine
 10
189.063612792647
 20
133.4301763457633
 30
0.0
 11
189.313612792647
 21
133.4301763457633
 31
0.0
  0
LINE
  5
355
330
1F
100
AcDbEntity
  8
1
  6
Continuous
 62
     4
100
AcDbLine
 10
188.688612792647
 20
133.3051763457633
 30
0.0
 11
189.063612792647
 21
133.4301763457633
 31
0.0
  0
LINE
  5
356
330
1F
100
AcDbEntity
  8
1
  6
Continuous
 62
     4
100
AcDbLine
 10
188.313612792647
 20
133.0551763457633
 30
0.0
 11
188.688612792647
 21
133.3051763457633
 31
0.0
  0
LINE
  5
357
330
1F
100
AcDbEntity
  8
1
  6
Continuous
 62
     4
100
AcDbLine
 10
188.063612792647
 20
132.8051763457633
 30
0.0
 11
188.313612792647
 21
133.0551763457633
 31
0.0
  0
LINE
  5
358
330
1F
100
AcDbEntity
  8
1
  6
Continuous
 62
     4
100
AcDbLine
 10
187.813612792647
 20
132.3051763457633
 30
0.0
 11
188.063612792647
 21
132.8051763457633
 31
0.0
  0
LINE
  5
359
330
1F
100
AcDbEntity
  8
1
  6
Continuous
 62
     4
100
AcDbLine
 10
187.688612792647
 20
131.5551763457633
 30
0.0
 11
187.813612792647
 21
132.3051763457633
 31
0.0
  0
LINE
  5
35A
330
1F
100
AcDbEntity
  8
1
  6
Continuous
 62
     4
100
AcDbLine
 10
187.688612792647
 20
130.3051763457633
 30
0.0
 11
187.688612792647
 21
131.5551763457633
 31
0.0
  0
LINE
  5
35B
330
1F
100
AcDbEntity
  8
1
  6
Continuous
 62
     4
100
AcDbLine
 10
187.813612792647
 20
129.5551763457633
 30
0.0
 11
187.688612792647
 21
130.3051763457633
 31
0.0
  0
LINE
  5
35C
330
1F
100
AcDbEntity
  8
1
  6
Continuous
 62
     4
100
AcDbLine
 10
188.063612792647
 20
129.0551763457633
 30
0.0
 11
187.813612792647
 21
129.5551763457633
 31
0.0
  0
LINE
  5
35D
330
1F
100
AcDbEntity
  8
1
  6
Continuous
 62
     4
100
AcDbLine
 10
188.313612792647
 20
128.8051763457633
 30
0.0
 11
188.063612792647
 21
129.0551763457633
 31
0.0
  0
LINE
  5
35E
330
1F
100
AcDbEntity
  8
1
  6
Continuous
 62
     4
100
AcDbLine
 10
188.688612792647
 20
128.5551763457633
 30
0.0
 11
188.313612792647
 21
128.8051763457633
 31
0.0
  0
LINE
  5
35F
330
1F
100
AcDbEntity
  8
1
  6
Continuous
 62
     4
100
AcDbLine
 10
189.063612792647
 20
128.4301763457633
 30
0.0
 11
188.688612792647
 21
128.5551763457633
 31
0.0
  0
LINE
  5
360
330
1F
100
AcDbEntity
  8
1
  6
Continuous
 62
     4
100
AcDbLine
 10
189.313612792647
 20
128.4301763457633
 30
0.0
 11
189.063612792647
 21
128.4301763457633
 31
0.0
  0
LINE
  5
361
330
1F
100
AcDbEntity
  8
1
  6
Continuous
 62
     4
100
AcDbLine
 10
189.688612792647
 20
128.5551763457633
 30
0.0
 11
189.313612792647
 21
128.4301763457633
 31
0.0
  0
LINE
  5
362
330
1F
100
AcDbEntity
  8
1
  6
Continuous
 62
     4
100
AcDbLine
 10
190.063612792647
 20
128.8051763457633
 30
0.0
 11
189.688612792647
 21
128.5551763457633
 31
0.0
  0
LINE
  5
363
330
1F
100
AcDbEntity
  8
1
  6
Continuous
 62
     4
100
AcDbLine
 10
190.313612792647
 20
129.0551763457633
 30
0.0
 11
190.063612792647
 21
128.8051763457633
 31
0.0
  0
LINE
  5
364
330
1F
100
AcDbEntity
  8
1
  6
Continuous
 62
     4
100
AcDbLine
 10
190.563612792647
 20
129.5551763457633
 30
0.0
 11
190.313612792647
 21
129.0551763457633
 31
0.0
  0
LINE
  5
365
330
1F
100
AcDbEntity
  8
1
  6
Continuous
 62
     4
100
AcDbLine
 10
190.688612792647
 20
130.3051763457633
 30
0.0
 11
190.563612792647
 21
129.5551763457633
 31
0.0
  0
LINE
  5
366
330
1F
100
AcDbEntity
  8
1
  6
Continuous
 62
     4
100
AcDbLine
 10
220.313612792647
 20
139.8851763457633
 30
0.0
 11
220.313612792647
 21
138.6351763457633
 31
0.0
  0
LINE
  5
367
330
1F
100
AcDbEntity
  8
1
  6
Continuous
 62
     4
100
AcDbLine
 10
220.188612792647
 20
140.6351763457633
 30
0.0
 11
220.313612792647
 21
139.8851763457633
 31
0.0
  0
LINE
  5
368
330
1F
100
AcDbEntity
  8
1
  6
Continuous
 62
     4
100
AcDbLine
 10
219.938612792647
 20
141.1351763457633
 30
0.0
 11
220.188612792647
 21
140.6351763457633
 31
0.0
  0
LINE
  5
369
330
1F
100
AcDbEntity
  8
1
  6
Continuous
 62
     4
100
AcDbLine
 10
219.688612792647
 20
141.3851763457633
 30
0.0
 11
219.938612792647
 21
141.1351763457633
 31
0.0
  0
LINE
  5
36A
330
1F
100
AcDbEntity
  8
1
  6
Continuous
 62
     4
100
AcDbLine
 10
219.313612792647
 20
141.6351763457633
 30
0.0
 11
219.688612792647
 21
141.3851763457633
 31
0.0
  0
LINE
  5
36B
330
1F
100
AcDbEntity
  8
1
  6
Continuous
 62
     4
100
AcDbLine
 10
218.938612792647
 20
141.7601763457633
 30
0.0
 11
219.313612792647
 21
141.6351763457633
 31
0.0
  0
LINE
  5
36C
330
1F
100
AcDbEntity
  8
1
  6
Continuous
 62
     4
100
AcDbLine
 10
218.688612792647
 20
141.7601763457633
 30
0.0
 11
218.938612792647
 21
141.7601763457633
 31
0.0
  0
LINE
  5
36D
330
1F
100
AcDbEntity
  8
1
  6
Continuous
 62
     4
100
AcDbLine
 10
218.313612792647
 20
141.6351763457633
 30
0.0
 11
218.688612792647
 21
141.7601763457633
 31
0.0
  0
LINE
  5
36E
330
1F
100
AcDbEntity
  8
1
  6
Continuous
 62
     4
100
AcDbLine
 10
217.938612792647
 20
141.3851763457633
 30
0.0
 11
218.313612792647
 21
141.6351763457633
 31
0.0
  0
LINE
  5
36F
330
1F
100
AcDbEntity
  8
1
  6
Continuous
 62
     4
100
AcDbLine
 10
217.688612792647
 20
141.1351763457633
 30
0.0
 11
217.938612792647
 21
141.3851763457633
 31
0.0
  0
LINE
  5
370
330
1F
100
AcDbEntity
  8
1
  6
Continuous
 62
     4
100
AcDbLine
 10
217.438612792647
 20
140.6351763457633
 30
0.0
 11
217.688612792647
 21
141.1351763457633
 31
0.0
  0
LINE
  5
371
330
1F
100
AcDbEntity
  8
1
  6
Continuous
 62
     4
100
AcDbLine
 10
217.313612792647
 20
139.8851763457633
 30
0.0
 11
217.438612792647
 21
140.6351763457633
 31
0.0
  0
LINE
  5
372
330
1F
100
AcDbEntity
  8
1
  6
Continuous
 62
     4
100
AcDbLine
 10
217.313612792647
 20
138.6351763457633
 30
0.0
 11
217.313612792647
 21
139.8851763457633
 31
0.0
  0
LINE
  5
373
330
1F
100
AcDbEntity
  8
1
  6
Continuous
 62
     4
100
AcDbLine
 10
217.438612792647
 20
137.8851763457633
 30
0.0
 11
217.313612792647
 21
138.6351763457633
 31
0.0
  0
LINE
  5
374
330
1F
100
AcDbEntity
  8
1
  6
Continuous
 62
     4
100
AcDbLine
 10
217.688612792647
 20
137.3851763457633
 30
0.0
 11
217.438612792647
 21
137.8851763457633
 31
0.0
  0
LINE
  5
375
330
1F
100
AcDbEntity
  8
1
  6
Continuous
 62
     4
100
AcDbLine
 10
217.938612792647
 20
137.1351763457633
 30
0.0
 11
217.688612792647
 21
137.3851763457633
 31
0.0
  0
LINE
  5
376
330
1F
100
AcDbEntity
  8
1
  6
Continuous
 62
     4
100
AcDbLine
 10
218.313612792647
 20
136.8851763457633
 30
0.0
 11
217.938612792647
 21
137.1351763457633
 31
0.0
  0
LINE
  5
377
330
1F
100
AcDbEntity
  8
1
  6
Continuous
 62
     4
100
AcDbLine
 10
218.688612792647
 20
136.7601763457633
 30
0.0
 11
218.313612792647
 21
136.8851763457633
 31
0.0
  0
LINE
  5
378
330
1F
100
AcDbEntity
  8
1
  6
Continuous
 62
     4
100
AcDbLine
 10
218.938612792647
 20
136.7601763457633
 30
0.0
 11
218.688612792647
 21
136.7601763457633
 31
0.0
  0
LINE
  5
379
330
1F
100
AcDbEntity
  8
1
  6
Continuous
 62
     4
100
AcDbLine
 10
219.313612792647
 20
136.8851763457633
 30
0.0
 11
218.938612792647
 21
136.7601763457633
 31
0.0
  0
LINE
  5
37A
330
1F
100
AcDbEntity
  8
1
  6
Continuous
 62
     4
100
AcDbLine
 10
219.688612792647
 20
137.1351763457633
 30
0.0
 11
219.313612792647
 21
136.8851763457633
 31
0.0
  0
LINE
  5
37B
330
1F
100
AcDbEntity
  8
1
  6
Continuous
 62
     4
100
AcDbLine
 10
219.938612792647
 20
137.3851763457633
 30
0.0
 11
219.688612792647
 21
137.1351763457633
 31
0.0
  0
LINE
  5
37C
330
1F
100
AcDbEntity
  8
1
  6
Continuous
 62
     4
100
AcDbLine
 10
220.188612792647
 20
137.8851763457633
 30
0.0
 11
219.938612792647
 21
137.3851763457633
 31
0.0
  0
LINE
  5
37D
330
1F
100
AcDbEntity
  8
1
  6
Continuous
 62
     4
100
AcDbLine
 10
220.313612792647
 20
138.6351763457633
 30
0.0
 11
220.188612792647
 21
137.8851763457633
 31
0.0
  0
LINE
  5
37E
330
1F
100
AcDbEntity
  8
1
  6
Continuous
 62
     4
100
AcDbLine
 10
215.813612792647
 20
139.8851763457633
 30
0.0
 11
215.813612792647
 21
138.6351763457633
 31
0.0
  0
LINE
  5
37F
330
1F
100
AcDbEntity
  8
1
  6
Continuous
 62
     4
100
AcDbLine
 10
215.688612792647
 20
140.6351763457633
 30
0.0
 11
215.813612792647
 21
139.8851763457633
 31
0.0
  0
LINE
  5
380
330
1F
100
AcDbEntity
  8
1
  6
Continuous
 62
     4
100
AcDbLine
 10
215.438612792647
 20
141.1351763457633
 30
0.0
 11
215.688612792647
 21
140.6351763457633
 31
0.0
  0
LINE
  5
381
330
1F
100
AcDbEntity
  8
1
  6
Continuous
 62
     4
100
AcDbLine
 10
215.188612792647
 20
141.3851763457633
 30
0.0
 11
215.438612792647
 21
141.1351763457633
 31
0.0
  0
LINE
  5
382
330
1F
100
AcDbEntity
  8
1
  6
Continuous
 62
     4
100
AcDbLine
 10
214.813612792647
 20
141.6351763457633
 30
0.0
 11
215.188612792647
 21
141.3851763457633
 31
0.0
  0
LINE
  5
383
330
1F
100
AcDbEntity
  8
1
  6
Continuous
 62
     4
100
AcDbLine
 10
214.438612792647
 20
141.7601763457633
 30
0.0
 11
214.813612792647
 21
141.6351763457633
 31
0.0
  0
LINE
  5
384
330
1F
100
AcDbEntity
  8
1
  6
Continuous
 62
     4
100
AcDbLine
 10
214.188612792647
 20
141.7601763457633
 30
0.0
 11
214.438612792647
 21
141.7601763457633
 31
0.0
  0
LINE
  5
385
330
1F
100
AcDbEntity
  8
1
  6
Continuous
 62
     4
100
AcDbLine
 10
213.813612792647
 20
141.6351763457633
 30
0.0
 11
214.188612792647
 21
141.7601763457633
 31
0.0
  0
LINE
  5
386
330
1F
100
AcDbEntity
  8
1
  6
Continuous
 62
     4
100
AcDbLine
 10
213.438612792647
 20
141.3851763457633
 30
0.0
 11
213.813612792647
 21
141.6351763457633
 31
0.0
  0
LINE
  5
387
330
1F
100
AcDbEntity
  8
1
  6
Continuous
 62
     4
100
AcDbLine
 10
213.188612792647
 20
141.1351763457633
 30
0.0
 11
213.438612792647
 21
141.3851763457633
 31
0.0
  0
LINE
  5
388
330
1F
100
AcDbEntity
  8
1
  6
Continuous
 62
     4
100
AcDbLine
 10
212.938612792647
 20
140.6351763457633
 30
0.0
 11
213.188612792647
 21
141.1351763457633
 31
0.0
  0
LINE
  5
389
330
1F
100
AcDbEntity
  8
1
  6
Continuous
 62
     4
100
AcDbLine
 10
212.813612792647
 20
139.8851763457633
 30
0.0
 11
212.938612792647
 21
140.6351763457633
 31
0.0
  0
LINE
  5
38A
330
1F
100
AcDbEntity
  8
1
  6
Continuous
 62
     4
100
AcDbLine
 10
212.813612792647
 20
138.6351763457633
 30
0.0
 11
212.813612792647
 21
139.8851763457633
 31
0.0
  0
LINE
  5
38B
330
1F
100
AcDbEntity
  8
1
  6
Continuous
 62
     4
100
AcDbLine
 10
212.938612792647
 20
137.8851763457633
 30
0.0
 11
212.813612792647
 21
138.6351763457633
 31
0.0
  0
LINE
  5
38C
330
1F
100
AcDbEntity
  8
1
  6
Continuous
 62
     4
100
AcDbLine
 10
213.188612792647
 20
137.3851763457633
 30
0.0
 11
212.938612792647
 21
137.8851763457633
 31
0.0
  0
LINE
  5
38D
330
1F
100
AcDbEntity
  8
1
  6
Continuous
 62
     4
100
AcDbLine
 10
213.438612792647
 20
137.1351763457633
 30
0.0
 11
213.188612792647
 21
137.3851763457633
 31
0.0
  0
LINE
  5
38E
330
1F
100
AcDbEntity
  8
1
  6
Continuous
 62
     4
100
AcDbLine
 10
213.813612792647
 20
136.8851763457633
 30
0.0
 11
213.438612792647
 21
137.1351763457633
 31
0.0
  0
LINE
  5
38F
330
1F
100
AcDbEntity
  8
1
  6
Continuous
 62
     4
100
AcDbLine
 10
214.188612792647
 20
136.7601763457633
 30
0.0
 11
213.813612792647
 21
136.8851763457633
 31
0.0
  0
LINE
  5
390
330
1F
100
AcDbEntity
  8
1
  6
Continuous
 62
     4
100
AcDbLine
 10
214.438612792647
 20
136.7601763457633
 30
0.0
 11
214.188612792647
 21
136.7601763457633
 31
0.0
  0
LINE
  5
391
330
1F
100
AcDbEntity
  8
1
  6
Continuous
 62
     4
100
AcDbLine
 10
214.813612792647
 20
136.8851763457633
 30
0.0
 11
214.438612792647
 21
136.7601763457633
 31
0.0
  0
LINE
  5
392
330
1F
100
AcDbEntity
  8
1
  6
Continuous
 62
     4
100
AcDbLine
 10
215.188612792647
 20
137.1351763457633
 30
0.0
 11
214.813612792647
 21
136.8851763457633
 31
0.0
  0
LINE
  5
393
330
1F
100
AcDbEntity
  8
1
  6
Continuous
 62
     4
100
AcDbLine
 10
215.438612792647
 20
137.3851763457633
 30
0.0
 11
215.188612792647
 21
137.1351763457633
 31
0.0
  0
LINE
  5
394
330
1F
100
AcDbEntity
  8
1
  6
Continuous
 62
     4
100
AcDbLine
 10
215.688612792647
 20
137.8851763457633
 30
0.0
 11
215.438612792647
 21
137.3851763457633
 31
0.0
  0
LINE
  5
395
330
1F
100
AcDbEntity
  8
1
  6
Continuous
 62
     4
100
AcDbLine
 10
215.813612792647
 20
138.6351763457633
 30
0.0
 11
215.688612792647
 21
137.8851763457633
 31
0.0
  0
LINE
  5
396
330
1F
100
AcDbEntity
  8
1
  6
Continuous
 62
     4
100
AcDbLine
 10
210.188612792647
 20
136.7601763457633
 30
0.0
 11
208.313612792647
 21
136.7601763457633
 31
0.0
  0
LINE
  5
397
330
1F
100
AcDbEntity
  8
1
  6
Continuous
 62
     4
100
AcDbLine
 10
210.563612792647
 20
136.8851763457633
 30
0.0
 11
210.188612792647
 21
136.7601763457633
 31
0.0
  0
LINE
  5
398
330
1F
100
AcDbEntity
  8
1
  6
Continuous
 62
     4
100
AcDbLine
 10
210.938612792647
 20
137.1351763457633
 30
0.0
 11
210.563612792647
 21
136.8851763457633
 31
0.0
  0
LINE
  5
399
330
1F
100
AcDbEntity
  8
1
  6
Continuous
 62
     4
100
AcDbLine
 10
211.188612792647
 20
137.5101763457633
 30
0.0
 11
210.938612792647
 21
137.1351763457633
 31
0.0
  0
LINE
  5
39A
330
1F
100
AcDbEntity
  8
1
  6
Continuous
 62
     4
100
AcDbLine
 10
211.313612792647
 20
138.0101763457633
 30
0.0
 11
211.188612792647
 21
137.5101763457633
 31
0.0
  0
LINE
  5
39B
330
1F
100
AcDbEntity
  8
1
  6
Continuous
 62
     4
100
AcDbLine
 10
211.313612792647
 20
138.6351763457633
 30
0.0
 11
211.313612792647
 21
138.0101763457633
 31
0.0
  0
LINE
  5
39C
330
1F
100
AcDbEntity
  8
1
  6
Continuous
 62
     4
100
AcDbLine
 10
211.188612792647
 20
139.1351763457633
 30
0.0
 11
211.313612792647
 21
138.6351763457633
 31
0.0
  0
LINE
  5
39D
330
1F
100
AcDbEntity
  8
1
  6
Continuous
 62
     4
100
AcDbLine
 10
211.063612792647
 20
139.3851763457633
 30
0.0
 11
211.188612792647
 21
139.1351763457633
 31
0.0
  0
LINE
  5
39E
330
1F
100
AcDbEntity
  8
1
  6
Continuous
 62
     4
100
AcDbLine
 10
210.813612792647
 20
139.6351763457633
 30
0.0
 11
211.063612792647
 21
139.3851763457633
 31
0.0
  0
LINE
  5
39F
330
1F
100
AcDbEntity
  8
1
  6
Continuous
 62
     4
100
AcDbLine
 10
210.313612792647
 20
139.7601763457633
 30
0.0
 11
210.813612792647
 21
139.6351763457633
 31
0.0
  0
LINE
  5
3A0
330
1F
100
AcDbEntity
  8
1
  6
Continuous
 62
     4
100
AcDbLine
 10
210.688612792647
 20
139.8851763457633
 30
0.0
 11
210.313612792647
 21
139.7601763457633
 31
0.0
  0
LINE
  5
3A1
330
1F
100
AcDbEntity
  8
1
  6
Continuous
 62
     4
100
AcDbLine
 10
210.938612792647
 20
140.0101763457633
 30
0.0
 11
210.688612792647
 21
139.8851763457633
 31
0.0
  0
LINE
  5
3A2
330
1F
100
AcDbEntity
  8
1
  6
Continuous
 62
     4
100
AcDbLine
 10
211.188612792647
 20
140.2601763457633
 30
0.0
 11
210.938612792647
 21
140.0101763457633
 31
0.0
  0
LINE
  5
3A3
330
1F
100
AcDbEntity
  8
1
  6
Continuous
 62
     4
100
AcDbLine
 10
211.313612792647
 20
140.6351763457633
 30
0.0
 11
211.188612792647
 21
140.2601763457633
 31
0.0
  0
LINE
  5
3A4
330
1F
100
AcDbEntity
  8
1
  6
Continuous
 62
     4
100
AcDbLine
 10
211.313612792647
 20
141.0101763457633
 30
0.0
 11
211.313612792647
 21
140.6351763457633
 31
0.0
  0
LINE
  5
3A5
330
1F
100
AcDbEntity
  8
1
  6
Continuous
 62
     4
100
AcDbLine
 10
211.188612792647
 20
141.3851763457633
 30
0.0
 11
211.313612792647
 21
141.0101763457633
 31
0.0
  0
LINE
  5
3A6
330
1F
100
AcDbEntity
  8
1
  6
Continuous
 62
     4
100
AcDbLine
 10
210.813612792647
 20
141.6351763457633
 30
0.0
 11
211.188612792647
 21
141.3851763457633
 31
0.0
  0
LINE
  5
3A7
330
1F
100
AcDbEntity
  8
1
  6
Continuous
 62
     4
100
AcDbLine
 10
210.188612792647
 20
141.7601763457633
 30
0.0
 11
210.813612792647
 21
141.6351763457633
 31
0.0
  0
LINE
  5
3A8
330
1F
100
AcDbEntity
  8
1
  6
Continuous
 62
     4
100
AcDbLine
 10
208.313612792647
 20
141.7601763457633
 30
0.0
 11
210.188612792647
 21
141.7601763457633
 31
0.0
  0
LINE
  5
3A9
330
1F
100
AcDbEntity
  8
1
  6
Continuous
 62
     4
100
AcDbLine
 10
209.063612792647
 20
139.7601763457633
 30
0.0
 11
210.313612792647
 21
139.7601763457633
 31
0.0
  0
LINE
  5
3AA
330
1F
100
AcDbEntity
  8
1
  6
Continuous
 62
     4
100
AcDbLine
 10
195.688612792647
 20
136.7601763457633
 30
0.0
 11
193.813612792647
 21
136.7601763457633
 31
0.0
  0
LINE
  5
3AB
330
1F
100
AcDbEntity
  8
1
  6
Continuous
 62
     4
100
AcDbLine
 10
196.063612792647
 20
136.8851763457633
 30
0.0
 11
195.688612792647
 21
136.7601763457633
 31
0.0
  0
LINE
  5
3AC
330
1F
100
AcDbEntity
  8
1
  6
Continuous
 62
     4
100
AcDbLine
 10
196.438612792647
 20
137.1351763457633
 30
0.0
 11
196.063612792647
 21
136.8851763457633
 31
0.0
  0
LINE
  5
3AD
330
1F
100
AcDbEntity
  8
1
  6
Continuous
 62
     4
100
AcDbLine
 10
196.688612792647
 20
137.5101763457633
 30
0.0
 11
196.438612792647
 21
137.1351763457633
 31
0.0
  0
LINE
  5
3AE
330
1F
100
AcDbEntity
  8
1
  6
Continuous
 62
     4
100
AcDbLine
 10
196.813612792647
 20
138.0101763457633
 30
0.0
 11
196.688612792647
 21
137.5101763457633
 31
0.0
  0
LINE
  5
3AF
330
1F
100
AcDbEntity
  8
1
  6
Continuous
 62
     4
100
AcDbLine
 10
196.813612792647
 20
138.6351763457633
 30
0.0
 11
196.813612792647
 21
138.0101763457633
 31
0.0
  0
LINE
  5
3B0
330
1F
100
AcDbEntity
  8
1
  6
Continuous
 62
     4
100
AcDbLine
 10
196.688612792647
 20
139.1351763457633
 30
0.0
 11
196.813612792647
 21
138.6351763457633
 31
0.0
  0
LINE
  5
3B1
330
1F
100
AcDbEntity
  8
1
  6
Continuous
 62
     4
100
AcDbLine
 10
196.563612792647
 20
139.3851763457633
 30
0.0
 11
196.688612792647
 21
139.1351763457633
 31
0.0
  0
LINE
  5
3B2
330
1F
100
AcDbEntity
  8
1
  6
Continuous
 62
     4
100
AcDbLine
 10
196.313612792647
 20
139.6351763457633
 30
0.0
 11
196.563612792647
 21
139.3851763457633
 31
0.0
  0
LINE
  5
3B3
330
1F
100
AcDbEntity
  8
1
  6
Continuous
 62
     4
100
AcDbLine
 10
195.813612792647
 20
139.7601763457633
 30
0.0
 11
196.313612792647
 21
139.6351763457633
 31
0.0
  0
LINE
  5
3B4
330
1F
100
AcDbEntity
  8
1
  6
Continuous
 62
     4
100
AcDbLine
 10
196.188612792647
 20
139.8851763457633
 30
0.0
 11
195.813612792647
 21
139.7601763457633
 31
0.0
  0
LINE
  5
3B5
330
1F
100
AcDbEntity
  8
1
  6
Continuous
 62
     4
100
AcDbLine
 10
196.438612792647
 20
140.0101763457633
 30
0.0
 11
196.188612792647
 21
139.8851763457633
 31
0.0
  0
LINE
  5
3B6
330
1F
100
AcDbEntity
  8
1
  6
Continuous
 62
     4
100
AcDbLine
 10
196.688612792647
 20
140.2601763457633
 30
0.0
 11
196.438612792647
 21
140.0101763457633
 31
0.0
  0
LINE
  5
3B7
330
1F
100
AcDbEntity
  8
1
  6
Continuous
 62
     4
100
AcDbLine
 10
196.813612792647
 20
140.6351763457633
 30
0.0
 11
196.688612792647
 21
140.2601763457633
 31
0.0
  0
LINE
  5
3B8
330
1F
100
AcDbEntity
  8
1
  6
Continuous
 62
     4
100
AcDbLine
 10
196.813612792647
 20
141.0101763457633
 30
0.0
 11
196.813612792647
 21
140.6351763457633
 31
0.0
  0
LINE
  5
3B9
330
1F
100
AcDbEntity
  8
1
  6
Continuous
 62
     4
100
AcDbLine
 10
196.688612792647
 20
141.3851763457633
 30
0.0
 11
196.813612792647
 21
141.0101763457633
 31
0.0
  0
LINE
  5
3BA
330
1F
100
AcDbEntity
  8
1
  6
Continuous
 62
     4
100
AcDbLine
 10
196.313612792647
 20
141.6351763457633
 30
0.0
 11
196.688612792647
 21
141.3851763457633
 31
0.0
  0
LINE
  5
3BB
330
1F
100
AcDbEntity
  8
1
  6
Continuous
 62
     4
100
AcDbLine
 10
195.688612792647
 20
141.7601763457633
 30
0.0
 11
196.313612792647
 21
141.6351763457633
 31
0.0
  0
LINE
  5
3BC
330
1F
100
AcDbEntity
  8
1
  6
Continuous
 62
     4
100
AcDbLine
 10
193.813612792647
 20
141.7601763457633
 30
0.0
 11
195.688612792647
 21
141.7601763457633
 31
0.0
  0
LINE
  5
3BD
330
1F
100
AcDbEntity
  8
1
  6
Continuous
 62
     4
100
AcDbLine
 10
194.563612792647
 20
139.7601763457633
 30
0.0
 11
195.813612792647
 21
139.7601763457633
 31
0.0
  0
LINE
  5
3BE
330
1F
100
AcDbEntity
  8
1
  6
Continuous
 62
     4
100
AcDbLine
 10
192.438612792647
 20
137.0101763457633
 30
0.0
 11
192.438612792647
 21
136.8851763457633
 31
0.0
  0
LINE
  5
3BF
330
1F
100
AcDbEntity
  8
1
  6
Continuous
 62
     4
100
AcDbLine
 10
192.313612792647
 20
137.0101763457633
 30
0.0
 11
192.438612792647
 21
137.0101763457633
 31
0.0
  0
LINE
  5
3C0
330
1F
100
AcDbEntity
  8
1
  6
Continuous
 62
     4
100
AcDbLine
 10
192.313612792647
 20
136.8851763457633
 30
0.0
 11
192.313612792647
 21
137.0101763457633
 31
0.0
  0
LINE
  5
3C1
330
1F
100
AcDbEntity
  8
1
  6
Continuous
 62
     4
100
AcDbLine
 10
192.438612792647
 20
136.8851763457633
 30
0.0
 11
192.313612792647
 21
136.8851763457633
 31
0.0
  0
LINE
  5
3C2
330
1F
100
AcDbEntity
  8
1
  6
Continuous
 62
     4
100
AcDbLine
 10
192.563612792647
 20
137.1351763457633
 30
0.0
 11
192.563612792647
 21
136.7601763457633
 31
0.0
  0
LINE
  5
3C3
330
1F
100
AcDbEntity
  8
1
  6
Continuous
 62
     4
100
AcDbLine
 10
192.188612792647
 20
137.1351763457633
 30
0.0
 11
192.563612792647
 21
137.1351763457633
 31
0.0
  0
LINE
  5
3C4
330
1F
100
AcDbEntity
  8
1
  6
Continuous
 62
     4
100
AcDbLine
 10
192.188612792647
 20
136.7601763457633
 30
0.0
 11
192.188612792647
 21
137.1351763457633
 31
0.0
  0
LINE
  5
3C5
330
1F
100
AcDbEntity
  8
1
  6
Continuous
 62
     4
100
AcDbLine
 10
192.563612792647
 20
136.7601763457633
 30
0.0
 11
192.188612792647
 21
136.7601763457633
 31
0.0
  0
LINE
  5
3C6
330
1F
100
AcDbEntity
  8
1
  6
Continuous
 62
     4
100
AcDbLine
 10
190.688612792647
 20
139.8851763457633
 30
0.0
 11
190.688612792647
 21
138.6351763457633
 31
0.0
  0
LINE
  5
3C7
330
1F
100
AcDbEntity
  8
1
  6
Continuous
 62
     4
100
AcDbLine
 10
190.563612792647
 20
140.6351763457633
 30
0.0
 11
190.688612792647
 21
139.8851763457633
 31
0.0
  0
LINE
  5
3C8
330
1F
100
AcDbEntity
  8
1
  6
Continuous
 62
     4
100
AcDbLine
 10
190.313612792647
 20
141.1351763457633
 30
0.0
 11
190.563612792647
 21
140.6351763457633
 31
0.0
  0
LINE
  5
3C9
330
1F
100
AcDbEntity
  8
1
  6
Continuous
 62
     4
100
AcDbLine
 10
190.063612792647
 20
141.3851763457633
 30
0.0
 11
190.313612792647
 21
141.1351763457633
 31
0.0
  0
LINE
  5
3CA
330
1F
100
AcDbEntity
  8
1
  6
Continuous
 62
     4
100
AcDbLine
 10
189.688612792647
 20
141.6351763457633
 30
0.0
 11
190.063612792647
 21
141.3851763457633
 31
0.0
  0
LINE
  5
3CB
330
1F
100
AcDbEntity
  8
1
  6
Continuous
 62
     4
100
AcDbLine
 10
189.313612792647
 20
141.7601763457633
 30
0.0
 11
189.688612792647
 21
141.6351763457633
 31
0.0
  0
LINE
  5
3CC
330
1F
100
AcDbEntity
  8
1
  6
Continuous
 62
     4
100
AcDbLine
 10
189.063612792647
 20
141.7601763457633
 30
0.0
 11
189.313612792647
 21
141.7601763457633
 31
0.0
  0
LINE
  5
3CD
330
1F
100
AcDbEntity
  8
1
  6
Continuous
 62
     4
100
AcDbLine
 10
188.688612792647
 20
141.6351763457633
 30
0.0
 11
189.063612792647
 21
141.7601763457633
 31
0.0
  0
LINE
  5
3CE
330
1F
100
AcDbEntity
  8
1
  6
Continuous
 62
     4
100
AcDbLine
 10
188.313612792647
 20
141.3851763457633
 30
0.0
 11
188.688612792647
 21
141.6351763457633
 31
0.0
  0
LINE
  5
3CF
330
1F
100
AcDbEntity
  8
1
  6
Continuous
 62
     4
100
AcDbLine
 10
188.063612792647
 20
141.1351763457633
 30
0.0
 11
188.313612792647
 21
141.3851763457633
 31
0.0
  0
LINE
  5
3D0
330
1F
100
AcDbEntity
  8
1
  6
Continuous
 62
     4
100
AcDbLine
 10
187.813612792647
 20
140.6351763457633
 30
0.0
 11
188.063612792647
 21
141.1351763457633
 31
0.0
  0
LINE
  5
3D1
330
1F
100
AcDbEntity
  8
1
  6
Continuous
 62
     4
100
AcDbLine
 10
187.688612792647
 20
139.8851763457633
 30
0.0
 11
187.813612792647
 21
140.6351763457633
 31
0.0
  0
LINE
  5
3D2
330
1F
100
AcDbEntity
  8
1
  6
Continuous
 62
     4
100
AcDbLine
 10
187.688612792647
 20
138.6351763457633
 30
0.0
 11
187.688612792647
 21
139.8851763457633
 31
0.0
  0
LINE
  5
3D3
330
1F
100
AcDbEntity
  8
1
  6
Continuous
 62
     4
100
AcDbLine
 10
187.813612792647
 20
137.8851763457633
 30
0.0
 11
187.688612792647
 21
138.6351763457633
 31
0.0
  0
LINE
  5
3D4
330
1F
100
AcDbEntity
  8
1
  6
Continuous
 62
     4
100
AcDbLine
 10
188.063612792647
 20
137.3851763457633
 30
0.0
 11
187.813612792647
 21
137.8851763457633
 31
0.0
  0
LINE
  5
3D5
330
1F
100
AcDbEntity
  8
1
  6
Continuous
 62
     4
100
AcDbLine
 10
188.313612792647
 20
137.1351763457633
 30
0.0
 11
188.063612792647
 21
137.3851763457633
 31
0.0
  0
LINE
  5
3D6
330
1F
100
AcDbEntity
  8
1
  6
Continuous
 62
     4
100
AcDbLine
 10
188.688612792647
 20
136.8851763457633
 30
0.0
 11
188.313612792647
 21
137.1351763457633
 31
0.0
  0
LINE
  5
3D7
330
1F
100
AcDbEntity
  8
1
  6
Continuous
 62
     4
100
AcDbLine
 10
189.063612792647
 20
136.7601763457633
 30
0.0
 11
188.688612792647
 21
136.8851763457633
 31
0.0
  0
LINE
  5
3D8
330
1F
100
AcDbEntity
  8
1
  6
Continuous
 62
     4
100
AcDbLine
 10
189.313612792647
 20
136.7601763457633
 30
0.0
 11
189.063612792647
 21
136.7601763457633
 31
0.0
  0
LINE
  5
3D9
330
1F
100
AcDbEntity
  8
1
  6
Continuous
 62
     4
100
AcDbLine
 10
189.688612792647
 20
136.8851763457633
 30
0.0
 11
189.313612792647
 21
136.7601763457633
 31
0.0
  0
LINE
  5
3DA
330
1F
100
AcDbEntity
  8
1
  6
Continuous
 62
     4
100
AcDbLine
 10
190.063612792647
 20
137.1351763457633
 30
0.0
 11
189.688612792647
 21
136.8851763457633
 31
0.0
  0
LINE
  5
3DB
330
1F
100
AcDbEntity
  8
1
  6
Continuous
 62
     4
100
AcDbLine
 10
190.313612792647
 20
137.3851763457633
 30
0.0
 11
190.063612792647
 21
137.1351763457633
 31
0.0
  0
LINE
  5
3DC
330
1F
100
AcDbEntity
  8
1
  6
Continuous
 62
     4
100
AcDbLine
 10
190.563612792647
 20
137.8851763457633
 30
0.0
 11
190.313612792647
 21
137.3851763457633
 31
0.0
  0
LINE
  5
3DD
330
1F
100
AcDbEntity
  8
1
  6
Continuous
 62
     4
100
AcDbLine
 10
190.688612792647
 20
138.6351763457633
 30
0.0
 11
190.563612792647
 21
137.8851763457633
 31
0.0
  0
LINE
  5
3DE
330
1F
100
AcDbEntity
  8
1
  6
Continuous
 62
     4
100
AcDbLine
 10
217.188612792647
 20
145.0901763457633
 30
0.0
 11
217.188612792647
 21
150.0901763457633
 31
0.0
  0
LINE
  5
3DF
330
1F
100
AcDbEntity
  8
1
  6
Continuous
 62
     4
100
AcDbLine
 10
220.188612792647
 20
145.0901763457633
 30
0.0
 11
217.188612792647
 21
145.0901763457633
 31
0.0
  0
LINE
  5
3E0
330
1F
100
AcDbEntity
  8
1
  6
Continuous
 62
     4
100
AcDbLine
 10
205.438612792647
 20
146.0901763457633
 30
0.0
 11
204.938612792647
 21
145.0901763457633
 31
0.0
  0
LINE
  5
3E1
330
1F
100
AcDbEntity
  8
1
  6
Continuous
 62
     4
100
AcDbLine
 10
205.688612792647
 20
147.0901763457633
 30
0.0
 11
205.438612792647
 21
146.0901763457633
 31
0.0
  0
LINE
  5
3E2
330
1F
100
AcDbEntity
  8
1
  6
Continuous
 62
     4
100
AcDbLine
 10
205.688612792647
 20
148.0901763457633
 30
0.0
 11
205.688612792647
 21
147.0901763457633
 31
0.0
  0
LINE
  5
3E3
330
1F
100
AcDbEntity
  8
1
  6
Continuous
 62
     4
100
AcDbLine
 10
205.438612792647
 20
149.0901763457633
 30
0.0
 11
205.688612792647
 21
148.0901763457633
 31
0.0
  0
LINE
  5
3E4
330
1F
100
AcDbEntity
  8
1
  6
Continuous
 62
     4
100
AcDbLine
 10
204.938612792647
 20
150.0901763457633
 30
0.0
 11
205.438612792647
 21
149.0901763457633
 31
0.0
  0
LINE
  5
3E5
330
1F
100
AcDbEntity
  8
1
  6
Continuous
 62
     4
100
AcDbLine
 10
201.688612792647
 20
148.5901763457633
 30
0.0
 11
202.688612792647
 21
148.5901763457633
 31
0.0
  0
LINE
  5
3E6
330
1F
100
AcDbEntity
  8
1
  6
Continuous
 62
     4
100
AcDbLine
 10
201.688612792647
 20
148.5901763457633
 30
0.0
 11
201.688612792647
 21
145.0901763457633
 31
0.0
  0
LINE
  5
3E7
330
1F
100
AcDbEntity
  8
1
  6
Continuous
 62
     4
100
AcDbLine
 10
203.438612792647
 20
147.9651763457633
 30
0.0
 11
203.438612792647
 21
145.0901763457633
 31
0.0
  0
LINE
  5
3E8
330
1F
100
AcDbEntity
  8
1
  6
Continuous
 62
     4
100
AcDbLine
 10
203.313612792647
 20
148.2151763457633
 30
0.0
 11
203.438612792647
 21
147.9651763457633
 31
0.0
  0
LINE
  5
3E9
330
1F
100
AcDbEntity
  8
1
  6
Continuous
 62
     4
100
AcDbLine
 10
203.063612792647
 20
148.4651763457633
 30
0.0
 11
203.313612792647
 21
148.2151763457633
 31
0.0
  0
LINE
  5
3EA
330
1F
100
AcDbEntity
  8
1
  6
Continuous
 62
     4
100
AcDbLine
 10
202.688612792647
 20
148.5901763457633
 30
0.0
 11
203.063612792647
 21
148.4651763457633
 31
0.0
  0
LINE
  5
3EB
330
1F
100
AcDbEntity
  8
1
  6
Continuous
 62
     4
100
AcDbLine
 10
199.938612792647
 20
148.5901763457633
 30
0.0
 11
201.688612792647
 21
148.5901763457633
 31
0.0
  0
LINE
  5
3EC
330
1F
100
AcDbEntity
  8
1
  6
Continuous
 62
     4
100
AcDbLine
 10
199.938612792647
 20
145.0901763457633
 30
0.0
 11
199.938612792647
 21
148.5901763457633
 31
0.0
  0
LINE
  5
3ED
330
1F
100
AcDbEntity
  8
1
  6
Continuous
 62
     4
100
AcDbLine
 10
197.938612792647
 20
146.0901763457633
 30
0.0
 11
198.438612792647
 21
145.0901763457633
 31
0.0
  0
LINE
  5
3EE
330
1F
100
AcDbEntity
  8
1
  6
Continuous
 62
     4
100
AcDbLine
 10
197.688612792647
 20
147.0901763457633
 30
0.0
 11
197.938612792647
 21
146.0901763457633
 31
0.0
  0
LINE
  5
3EF
330
1F
100
AcDbEntity
  8
1
  6
Continuous
 62
     4
100
AcDbLine
 10
197.688612792647
 20
148.0901763457633
 30
0.0
 11
197.688612792647
 21
147.0901763457633
 31
0.0
  0
LINE
  5
3F0
330
1F
100
AcDbEntity
  8
1
  6
Continuous
 62
     4
100
AcDbLine
 10
197.938612792647
 20
149.0901763457633
 30
0.0
 11
197.688612792647
 21
148.0901763457633
 31
0.0
  0
LINE
  5
3F1
330
1F
100
AcDbEntity
  8
1
  6
Continuous
 62
     4
100
AcDbLine
 10
198.438612792647
 20
150.0901763457633
 30
0.0
 11
197.938612792647
 21
149.0901763457633
 31
0.0
  0
LINE
  5
3F2
330
1F
100
AcDbEntity
  8
1
  6
Continuous
 62
     4
100
AcDbLine
 10
194.751112792647
 20
145.7151763457633
 30
0.0
 11
195.626112792647
 21
145.5901763457633
 31
0.0
  0
LINE
  5
3F3
330
1F
100
AcDbEntity
  8
1
  6
Continuous
 62
     4
100
AcDbLine
 10
194.188612792647
 20
146.0276763457633
 30
0.0
 11
194.751112792647
 21
145.7151763457633
 31
0.0
  0
LINE
  5
3F4
330
1F
100
AcDbEntity
  8
1
  6
Continuous
 62
     4
100
AcDbLine
 10
193.938612792647
 20
146.5276763457633
 30
0.0
 11
194.188612792647
 21
146.0276763457633
 31
0.0
  0
LINE
  5
3F5
330
1F
100
AcDbEntity
  8
1
  6
Continuous
 62
     4
100
AcDbLine
 10
194.188612792647
 20
146.9651763457633
 30
0.0
 11
193.938612792647
 21
146.5276763457633
 31
0.0
  0
LINE
  5
3F6
330
1F
100
AcDbEntity
  8
1
  6
Continuous
 62
     4
100
AcDbLine
 10
195.063612792647
 20
147.2776763457633
 30
0.0
 11
194.188612792647
 21
146.9651763457633
 31
0.0
  0
LINE
  5
3F7
330
1F
100
AcDbEntity
  8
1
  6
Continuous
 62
     4
100
AcDbLine
 10
196.001112792647
 20
147.1526763457633
 30
0.0
 11
195.063612792647
 21
147.2776763457633
 31
0.0
  0
LINE
  5
3F8
330
1F
100
AcDbEntity
  8
1
  6
Continuous
 62
     4
100
AcDbLine
 10
195.438612792647
 20
148.2151763457633
 30
0.0
 11
196.001112792647
 21
147.1526763457633
 31
0.0
  0
LINE
  5
3F9
330
1F
100
AcDbEntity
  8
1
  6
Continuous
 62
     4
100
AcDbLine
 10
194.501112792647
 20
149.6526763457633
 30
0.0
 11
195.438612792647
 21
148.2151763457633
 31
0.0
  0
LINE
  5
3FA
330
1F
100
AcDbEntity
  8
1
  6
Continuous
 62
     4
100
AcDbLine
 10
194.938612792647
 20
148.7151763457633
 30
0.0
 11
195.876112792647
 21
149.1526763457633
 31
0.0
  0
LINE
  5
3FB
330
1F
100
AcDbEntity
  8
1
  6
Continuous
 62
     4
100
AcDbLine
 10
193.813612792647
 20
148.4026763457633
 30
0.0
 11
194.938612792647
 21
148.7151763457633
 31
0.0
  0
LINE
  5
3FC
330
1F
100
AcDbEntity
  8
1
  6
Continuous
 62
     4
100
AcDbLine
 10
188.938612792647
 20
149.1526763457633
 30
0.0
 11
188.938612792647
 21
145.5901763457633
 31
0.0
  0
LINE
  5
3FD
330
1F
100
AcDbEntity
  8
1
  6
Continuous
 62
     4
100
AcDbLine
 10
190.876112792647
 20
145.7151763457633
 30
0.0
 11
192.001112792647
 21
145.2776763457633
 31
0.0
  0
LINE
  5
3FE
330
1F
100
AcDbEntity
  8
1
  6
Continuous
 62
     4
100
AcDbLine
 10
190.313612792647
 20
146.3401763457633
 30
0.0
 11
190.876112792647
 21
145.7151763457633
 31
0.0
  0
LINE
  5
3FF
330
1F
100
AcDbEntity
  8
1
  6
Continuous
 62
     4
100
AcDbLine
 10
189.751112792647
 20
147.2776763457633
 30
0.0
 11
190.313612792647
 21
146.3401763457633
 31
0.0
  0
LINE
  5
400
330
1F
100
AcDbEntity
  8
1
  6
Continuous
 62
     4
100
AcDbLine
 10
188.938612792647
 20
149.9651763457633
 30
0.0
 11
188.938612792647
 21
149.1526763457633
 31
0.0
  0
LINE
  5
401
330
1F
100
AcDbEntity
  8
1
  6
Continuous
 62
     4
100
AcDbLine
 10
191.188612792647
 20
149.9651763457633
 30
0.0
 11
188.938612792647
 21
149.9651763457633
 31
0.0
  0
LINE
  5
402
330
1F
100
AcDbEntity
  8
1
  6
Continuous
 62
     4
100
AcDbLine
 10
191.001112792647
 20
149.1526763457633
 30
0.0
 11
188.938612792647
 21
149.1526763457633
 31
0.0
  0
LINE
  5
403
330
1F
100
AcDbEntity
  8
1
  6
Continuous
 62
     4
100
AcDbLine
 10
188.938612792647
 20
148.4026763457633
 30
0.0
 11
191.001112792647
 21
148.4026763457633
 31
0.0
  0
LINE
  5
404
330
1F
100
AcDbEntity
  8
1
  6
Continuous
 62
     4
100
AcDbLine
 10
192.001112792647
 20
147.5901763457633
 30
0.0
 11
187.813612792647
 21
147.5901763457633
 31
0.0
  0
LINE
  5
405
330
1F
100
AcDbEntity
  8
1
  6
Continuous
 62
     4
100
AcDbLine
 10
190.313612792647
 20
146.5276763457633
 30
0.0
 11
191.313612792647
 21
147.1526763457633
 31
0.0
  0
LINE
  5
406
330
1F
100
AcDbEntity
  8
1
  6
Continuous
 62
     4
100
AcDbLine
 10
188.126112792647
 20
145.2776763457633
 30
0.0
 11
189.938612792647
 21
146.0276763457633
 31
0.0
  0
LINE
  5
407
330
1F
100
AcDbEntity
  8
1
  6
Continuous
 62
     4
100
AcDbLine
 10
186.688612792647
 20
149.3401763457633
 30
0.0
 11
187.126112792647
 21
148.8401763457633
 31
0.0
  0
LINE
  5
408
330
1F
100
AcDbEntity
  8
1
  6
Continuous
 62
     4
100
AcDbLine
 10
186.313612792647
 20
149.0276763457633
 30
0.0
 11
186.688612792647
 21
148.5276763457633
 31
0.0
  0
LINE
  5
409
330
1F
100
AcDbEntity
  8
1
  6
Continuous
 62
     4
100
AcDbLine
 10
185.751112792647
 20
147.7776763457633
 30
0.0
 11
186.313612792647
 21
146.5276763457633
 31
0.0
  0
LINE
  5
40A
330
1F
100
AcDbEntity
  8
1
  6
Continuous
 62
     4
100
AcDbLine
 10
185.626112792647
 20
148.8401763457633
 30
0.0
 11
185.751112792647
 21
147.7776763457633
 31
0.0
  0
LINE
  5
40B
330
1F
100
AcDbEntity
  8
1
  6
Continuous
 62
     4
100
AcDbLine
 10
185.626112792647
 20
147.9026763457633
 30
0.0
 11
185.626112792647
 21
148.8401763457633
 31
0.0
  0
LINE
  5
40C
330
1F
100
AcDbEntity
  8
1
  6
Continuous
 62
     4
100
AcDbLine
 10
185.438612792647
 20
146.9651763457633
 30
0.0
 11
185.626112792647
 21
147.9026763457633
 31
0.0
  0
LINE
  5
40D
330
1F
100
AcDbEntity
  8
1
  6
Continuous
 62
     4
100
AcDbLine
 10
185.063612792647
 20
146.0276763457633
 30
0.0
 11
185.438612792647
 21
146.9651763457633
 31
0.0
  0
LINE
  5
40E
330
1F
100
AcDbEntity
  8
1
  6
Continuous
 62
     4
100
AcDbLine
 10
184.501112792647
 20
145.5901763457633
 30
0.0
 11
185.063612792647
 21
146.0276763457633
 31
0.0
  0
LINE
  5
40F
330
1F
100
AcDbEntity
  8
1
  6
Continuous
 62
     4
100
AcDbLine
 10
183.938612792647
 20
145.4026763457633
 30
0.0
 11
184.501112792647
 21
145.5901763457633
 31
0.0
  0
LINE
  5
410
330
1F
100
AcDbEntity
  8
1
  6
Continuous
 62
     4
100
AcDbLine
 10
183.376112792647
 20
145.5901763457633
 30
0.0
 11
183.938612792647
 21
145.4026763457633
 31
0.0
  0
LINE
  5
411
330
1F
100
AcDbEntity
  8
1
  6
Continuous
 62
     4
100
AcDbLine
 10
183.126112792647
 20
146.0276763457633
 30
0.0
 11
183.376112792647
 21
145.5901763457633
 31
0.0
  0
LINE
  5
412
330
1F
100
AcDbEntity
  8
1
  6
Continuous
 62
     4
100
AcDbLine
 10
183.126112792647
 20
146.6526763457633
 30
0.0
 11
183.126112792647
 21
146.0276763457633
 31
0.0
  0
LINE
  5
413
330
1F
100
AcDbEntity
  8
1
  6
Continuous
 62
     4
100
AcDbLine
 10
183.376112792647
 20
147.4651763457633
 30
0.0
 11
183.126112792647
 21
146.6526763457633
 31
0.0
  0
LINE
  5
414
330
1F
100
AcDbEntity
  8
1
  6
Continuous
 62
     4
100
AcDbLine
 10
183.813612792647
 20
148.0901763457633
 30
0.0
 11
183.376112792647
 21
147.4651763457633
 31
0.0
  0
LINE
  5
415
330
1F
100
AcDbEntity
  8
1
  6
Continuous
 62
     4
100
AcDbLine
 10
184.376112792647
 20
148.7151763457633
 30
0.0
 11
183.813612792647
 21
148.0901763457633
 31
0.0
  0
LINE
  5
416
330
1F
100
AcDbEntity
  8
1
  6
Continuous
 62
     4
100
AcDbLine
 10
183.813612792647
 20
148.5276763457633
 30
0.0
 11
184.376112792647
 21
148.7151763457633
 31
0.0
  0
LINE
  5
417
330
1F
100
AcDbEntity
  8
1
  6
Continuous
 62
     4
100
AcDbLine
 10
183.126112792647
 20
148.4026763457633
 30
0.0
 11
183.813612792647
 21
148.5276763457633
 31
0.0
  0
LINE
  5
418
330
1F
100
AcDbEntity
  8
1
  6
Continuous
 62
     4
100
AcDbLine
 10
180.751112792647
 20
145.2776763457633
 30
0.0
 11
180.188612792647
 21
145.2776763457633
 31
0.0
  0
LINE
  5
419
330
1F
100
AcDbEntity
  8
1
  6
Continuous
 62
     4
100
AcDbLine
 10
180.751112792647
 20
149.3401763457633
 30
0.0
 11
180.751112792647
 21
145.2776763457633
 31
0.0
  0
LINE
  5
41A
330
1F
100
AcDbEntity
  8
1
  6
Continuous
 62
     4
100
AcDbLine
 10
179.626112792647
 20
148.8401763457633
 30
0.0
 11
180.063612792647
 21
147.9026763457633
 31
0.0
  0
LINE
  5
41B
330
1F
100
AcDbEntity
  8
1
  6
Continuous
 62
     4
100
AcDbLine
 10
180.438612792647
 20
149.6526763457633
 30
0.0
 11
179.751112792647
 21
149.4651763457633
 31
0.0
  0
LINE
  5
41C
330
1F
100
AcDbEntity
  8
1
  6
Continuous
 62
     4
100
AcDbLine
 10
181.438612792647
 20
149.9651763457633
 30
0.0
 11
180.438612792647
 21
149.6526763457633
 31
0.0
  0
LINE
  5
41D
330
1F
100
AcDbEntity
  8
1
  6
Continuous
 62
     4
100
AcDbLine
 10
181.313612792647
 20
147.9026763457633
 30
0.0
 11
181.688612792647
 21
148.8401763457633
 31
0.0
  0
LINE
  5
41E
330
1F
100
AcDbEntity
  8
1
  6
Continuous
 62
     4
100
AcDbLine
 10
179.376112792647
 20
147.2776763457633
 30
0.0
 11
182.126112792647
 21
147.2776763457633
 31
0.0
  0
LINE
  5
41F
330
1F
100
AcDbEntity
  8
1
  6
Continuous
 62
     4
100
AcDbLine
 10
177.938612792647
 20
149.3401763457633
 30
0.0
 11
177.938612792647
 21
146.6526763457633
 31
0.0
  0
LINE
  5
420
330
1F
100
AcDbEntity
  8
1
  6
Continuous
 62
     4
100
AcDbLine
 10
178.938612792647
 20
149.3401763457633
 30
0.0
 11
177.938612792647
 21
149.3401763457633
 31
0.0
  0
LINE
  5
421
330
1F
100
AcDbEntity
  8
1
  6
Continuous
 62
     4
100
AcDbLine
 10
178.938612792647
 20
146.6526763457633
 30
0.0
 11
178.938612792647
 21
149.3401763457633
 31
0.0
  0
LINE
  5
422
330
1F
100
AcDbEntity
  8
1
  6
Continuous
 62
     4
100
AcDbLine
 10
177.938612792647
 20
146.6526763457633
 30
0.0
 11
178.938612792647
 21
146.6526763457633
 31
0.0
  0
LINE
  5
423
330
1F
100
AcDbEntity
  8
1
  6
Continuous
 62
     4
100
AcDbLine
 10
210.313612792647
 20
161.7501763457633
 30
0.0
 11
208.438612792647
 21
161.7501763457633
 31
0.0
  0
LINE
  5
424
330
1F
100
AcDbEntity
  8
1
  6
Continuous
 62
     4
100
AcDbLine
 10
210.688612792647
 20
161.8751763457633
 30
0.0
 11
210.313612792647
 21
161.7501763457633
 31
0.0
  0
LINE
  5
425
330
1F
100
AcDbEntity
  8
1
  6
Continuous
 62
     4
100
AcDbLine
 10
211.063612792647
 20
162.1251763457633
 30
0.0
 11
210.688612792647
 21
161.8751763457633
 31
0.0
  0
LINE
  5
426
330
1F
100
AcDbEntity
  8
1
  6
Continuous
 62
     4
100
AcDbLine
 10
211.313612792647
 20
162.5001763457633
 30
0.0
 11
211.063612792647
 21
162.1251763457633
 31
0.0
  0
LINE
  5
427
330
1F
100
AcDbEntity
  8
1
  6
Continuous
 62
     4
100
AcDbLine
 10
211.438612792647
 20
163.0001763457633
 30
0.0
 11
211.313612792647
 21
162.5001763457633
 31
0.0
  0
LINE
  5
428
330
1F
100
AcDbEntity
  8
1
  6
Continuous
 62
     4
100
AcDbLine
 10
211.438612792647
 20
163.6251763457633
 30
0.0
 11
211.438612792647
 21
163.0001763457633
 31
0.0
  0
LINE
  5
429
330
1F
100
AcDbEntity
  8
1
  6
Continuous
 62
     4
100
AcDbLine
 10
211.313612792647
 20
164.1251763457633
 30
0.0
 11
211.438612792647
 21
163.6251763457633
 31
0.0
  0
LINE
  5
42A
330
1F
100
AcDbEntity
  8
1
  6
Continuous
 62
     4
100
AcDbLine
 10
211.188612792647
 20
164.3751763457633
 30
0.0
 11
211.313612792647
 21
164.1251763457633
 31
0.0
  0
LINE
  5
42B
330
1F
100
AcDbEntity
  8
1
  6
Continuous
 62
     4
100
AcDbLine
 10
210.938612792647
 20
164.6251763457633
 30
0.0
 11
211.188612792647
 21
164.3751763457633
 31
0.0
  0
LINE
  5
42C
330
1F
100
AcDbEntity
  8
1
  6
Continuous
 62
     4
100
AcDbLine
 10
210.438612792647
 20
164.7501763457633
 30
0.0
 11
210.938612792647
 21
164.6251763457633
 31
0.0
  0
LINE
  5
42D
330
1F
100
AcDbEntity
  8
1
  6
Continuous
 62
     4
100
AcDbLine
 10
210.813612792647
 20
164.8751763457633
 30
0.0
 11
210.438612792647
 21
164.7501763457633
 31
0.0
  0
LINE
  5
42E
330
1F
100
AcDbEntity
  8
1
  6
Continuous
 62
     4
100
AcDbLine
 10
211.063612792647
 20
165.0001763457633
 30
0.0
 11
210.813612792647
 21
164.8751763457633
 31
0.0
  0
LINE
  5
42F
330
1F
100
AcDbEntity
  8
1
  6
Continuous
 62
     4
100
AcDbLine
 10
211.313612792647
 20
165.2501763457633
 30
0.0
 11
211.063612792647
 21
165.0001763457633
 31
0.0
  0
LINE
  5
430
330
1F
100
AcDbEntity
  8
1
  6
Continuous
 62
     4
100
AcDbLine
 10
211.438612792647
 20
165.6251763457633
 30
0.0
 11
211.313612792647
 21
165.2501763457633
 31
0.0
  0
LINE
  5
431
330
1F
100
AcDbEntity
  8
1
  6
Continuous
 62
     4
100
AcDbLine
 10
211.438612792647
 20
166.0001763457633
 30
0.0
 11
211.438612792647
 21
165.6251763457633
 31
0.0
  0
LINE
  5
432
330
1F
100
AcDbEntity
  8
1
  6
Continuous
 62
     4
100
AcDbLine
 10
211.313612792647
 20
166.3751763457633
 30
0.0
 11
211.438612792647
 21
166.0001763457633
 31
0.0
  0
LINE
  5
433
330
1F
100
AcDbEntity
  8
1
  6
Continuous
 62
     4
100
AcDbLine
 10
210.938612792647
 20
166.6251763457633
 30
0.0
 11
211.313612792647
 21
166.3751763457633
 31
0.0
  0
LINE
  5
434
330
1F
100
AcDbEntity
  8
1
  6
Continuous
 62
     4
100
AcDbLine
 10
210.313612792647
 20
166.7501763457633
 30
0.0
 11
210.938612792647
 21
166.6251763457633
 31
0.0
  0
LINE
  5
435
330
1F
100
AcDbEntity
  8
1
  6
Continuous
 62
     4
100
AcDbLine
 10
208.438612792647
 20
166.7501763457633
 30
0.0
 11
210.313612792647
 21
166.7501763457633
 31
0.0
  0
LINE
  5
436
330
1F
100
AcDbEntity
  8
1
  6
Continuous
 62
     4
100
AcDbLine
 10
209.188612792647
 20
164.7501763457633
 30
0.0
 11
210.438612792647
 21
164.7501763457633
 31
0.0
  0
LINE
  5
437
330
1F
100
AcDbEntity
  8
1
  6
Continuous
 62
     4
100
AcDbLine
 10
206.938612792647
 20
166.7501763457633
 30
0.0
 11
206.938612792647
 21
161.7501763457633
 31
0.0
  0
LINE
  5
438
330
1F
100
AcDbEntity
  8
1
  6
Continuous
 62
     4
100
AcDbLine
 10
205.438612792647
 20
165.2501763457633
 30
0.0
 11
206.938612792647
 21
166.7501763457633
 31
0.0
  0
LINE
  5
439
330
1F
100
AcDbEntity
  8
1
  6
Continuous
 62
     4
100
AcDbLine
 10
201.438612792647
 20
163.5001763457633
 30
0.0
 11
203.938612792647
 21
163.5001763457633
 31
0.0
  0
LINE
  5
43A
330
1F
100
AcDbEntity
  8
1
  6
Continuous
 62
     4
100
AcDbLine
 10
196.688612792647
 20
162.1251763457633
 30
0.0
 11
196.438612792647
 21
162.3751763457633
 31
0.0
  0
LINE
  5
43B
330
1F
100
AcDbEntity
  8
1
  6
Continuous
 62
     4
100
AcDbLine
 10
197.188612792647
 20
161.8751763457633
 30
0.0
 11
196.688612792647
 21
162.1251763457633
 31
0.0
  0
LINE
  5
43C
330
1F
100
AcDbEntity
  8
1
  6
Continuous
 62
     4
100
AcDbLine
 10
197.813612792647
 20
161.7501763457633
 30
0.0
 11
197.188612792647
 21
161.8751763457633
 31
0.0
  0
LINE
  5
43D
330
1F
100
AcDbEntity
  8
1
  6
Continuous
 62
     4
100
AcDbLine
 10
198.563612792647
 20
161.7501763457633
 30
0.0
 11
197.813612792647
 21
161.7501763457633
 31
0.0
  0
LINE
  5
43E
330
1F
100
AcDbEntity
  8
1
  6
Continuous
 62
     4
100
AcDbLine
 10
199.188612792647
 20
161.8751763457633
 30
0.0
 11
198.563612792647
 21
161.7501763457633
 31
0.0
  0
LINE
  5
43F
330
1F
100
AcDbEntity
  8
1
  6
Continuous
 62
     4
100
AcDbLine
 10
199.563612792647
 20
162.1251763457633
 30
0.0
 11
199.188612792647
 21
161.8751763457633
 31
0.0
  0
LINE
  5
440
330
1F
100
AcDbEntity
  8
1
  6
Continuous
 62
     4
100
AcDbLine
 10
199.813612792647
 20
162.5001763457633
 30
0.0
 11
199.563612792647
 21
162.1251763457633
 31
0.0
  0
LINE
  5
441
330
1F
100
AcDbEntity
  8
1
  6
Continuous
 62
     4
100
AcDbLine
 10
199.938612792647
 20
162.8751763457633
 30
0.0
 11
199.813612792647
 21
162.5001763457633
 31
0.0
  0
LINE
  5
442
330
1F
100
AcDbEntity
  8
1
  6
Continuous
 62
     4
100
AcDbLine
 10
199.938612792647
 20
163.1251763457633
 30
0.0
 11
199.938612792647
 21
162.8751763457633
 31
0.0
  0
LINE
  5
443
330
1F
100
AcDbEntity
  8
1
  6
Continuous
 62
     4
100
AcDbLine
 10
199.813612792647
 20
163.5001763457633
 30
0.0
 11
199.938612792647
 21
163.1251763457633
 31
0.0
  0
LINE
  5
444
330
1F
100
AcDbEntity
  8
1
  6
Continuous
 62
     4
100
AcDbLine
 10
199.563612792647
 20
163.8751763457633
 30
0.0
 11
199.813612792647
 21
163.5001763457633
 31
0.0
  0
LINE
  5
445
330
1F
100
AcDbEntity
  8
1
  6
Continuous
 62
     4
100
AcDbLine
 10
199.188612792647
 20
164.1251763457633
 30
0.0
 11
199.563612792647
 21
163.8751763457633
 31
0.0
  0
LINE
  5
446
330
1F
100
AcDbEntity
  8
1
  6
Continuous
 62
     4
100
AcDbLine
 10
197.063612792647
 20
165.0001763457633
 30
0.0
 11
199.188612792647
 21
164.1251763457633
 31
0.0
  0
LINE
  5
447
330
1F
100
AcDbEntity
  8
1
  6
Continuous
 62
     4
100
AcDbLine
 10
196.688612792647
 20
165.2501763457633
 30
0.0
 11
197.063612792647
 21
165.0001763457633
 31
0.0
  0
LINE
  5
448
330
1F
100
AcDbEntity
  8
1
  6
Continuous
 62
     4
100
AcDbLine
 10
196.563612792647
 20
165.6251763457633
 30
0.0
 11
196.688612792647
 21
165.2501763457633
 31
0.0
  0
LINE
  5
449
330
1F
100
AcDbEntity
  8
1
  6
Continuous
 62
     4
100
AcDbLine
 10
196.563612792647
 20
165.8751763457633
 30
0.0
 11
196.563612792647
 21
165.6251763457633
 31
0.0
  0
LINE
  5
44A
330
1F
100
AcDbEntity
  8
1
  6
Continuous
 62
     4
100
AcDbLine
 10
196.688612792647
 20
166.2501763457633
 30
0.0
 11
196.563612792647
 21
165.8751763457633
 31
0.0
  0
LINE
  5
44B
330
1F
100
AcDbEntity
  8
1
  6
Continuous
 62
     4
100
AcDbLine
 10
197.063612792647
 20
166.5001763457633
 30
0.0
 11
196.688612792647
 21
166.2501763457633
 31
0.0
  0
LINE
  5
44C
330
1F
100
AcDbEntity
  8
1
  6
Continuous
 62
     4
100
AcDbLine
 10
197.438612792647
 20
166.6251763457633
 30
0.0
 11
197.063612792647
 21
166.5001763457633
 31
0.0
  0
LINE
  5
44D
330
1F
100
AcDbEntity
  8
1
  6
Continuous
 62
     4
100
AcDbLine
 10
197.938612792647
 20
166.7501763457633
 30
0.0
 11
197.438612792647
 21
166.6251763457633
 31
0.0
  0
LINE
  5
44E
330
1F
100
AcDbEntity
  8
1
  6
Continuous
 62
     4
100
AcDbLine
 10
198.438612792647
 20
166.7501763457633
 30
0.0
 11
197.938612792647
 21
166.7501763457633
 31
0.0
  0
LINE
  5
44F
330
1F
100
AcDbEntity
  8
1
  6
Continuous
 62
     4
100
AcDbLine
 10
199.063612792647
 20
166.6251763457633
 30
0.0
 11
198.438612792647
 21
166.7501763457633
 31
0.0
  0
LINE
  5
450
330
1F
100
AcDbEntity
  8
1
  6
Continuous
 62
     4
100
AcDbLine
 10
199.438612792647
 20
166.5001763457633
 30
0.0
 11
199.063612792647
 21
166.6251763457633
 31
0.0
  0
LINE
  5
451
330
1F
100
AcDbEntity
  8
1
  6
Continuous
 62
     4
100
AcDbLine
 10
199.813612792647
 20
166.2501763457633
 30
0.0
 11
199.438612792647
 21
166.5001763457633
 31
0.0
  0
LINE
  5
452
330
1F
100
AcDbEntity
  8
1
  6
Continuous
 62
     4
100
AcDbLine
 10
194.813612792647
 20
165.7501763457633
 30
0.0
 11
194.938612792647
 21
165.2501763457633
 31
0.0
  0
LINE
  5
453
330
1F
100
AcDbEntity
  8
1
  6
Continuous
 62
     4
100
AcDbLine
 10
194.563612792647
 20
166.1251763457633
 30
0.0
 11
194.813612792647
 21
165.7501763457633
 31
0.0
  0
LINE
  5
454
330
1F
100
AcDbEntity
  8
1
  6
Continuous
 62
     4
100
AcDbLine
 10
194.313612792647
 20
166.3751763457633
 30
0.0
 11
194.563612792647
 21
166.1251763457633
 31
0.0
  0
LINE
  5
455
330
1F
100
AcDbEntity
  8
1
  6
Continuous
 62
     4
100
AcDbLine
 10
193.938612792647
 20
166.6251763457633
 30
0.0
 11
194.313612792647
 21
166.3751763457633
 31
0.0
  0
LINE
  5
456
330
1F
100
AcDbEntity
  8
1
  6
Continuous
 62
     4
100
AcDbLine
 10
193.438612792647
 20
166.7501763457633
 30
0.0
 11
193.938612792647
 21
166.6251763457633
 31
0.0
  0
LINE
  5
457
330
1F
100
AcDbEntity
  8
1
  6
Continuous
 62
     4
100
AcDbLine
 10
191.438612792647
 20
166.7501763457633
 30
0.0
 11
193.438612792647
 21
166.7501763457633
 31
0.0
  0
LINE
  5
458
330
1F
100
AcDbEntity
  8
1
  6
Continuous
 62
     4
100
AcDbLine
 10
191.438612792647
 20
161.7501763457633
 30
0.0
 11
191.438612792647
 21
166.7501763457633
 31
0.0
  0
LINE
  5
459
330
1F
100
AcDbEntity
  8
1
  6
Continuous
 62
     4
100
AcDbLine
 10
193.438612792647
 20
161.7501763457633
 30
0.0
 11
191.438612792647
 21
161.7501763457633
 31
0.0
  0
LINE
  5
45A
330
1F
100
AcDbEntity
  8
1
  6
Continuous
 62
     4
100
AcDbLine
 10
193.938612792647
 20
161.8751763457633
 30
0.0
 11
193.438612792647
 21
161.7501763457633
 31
0.0
  0
LINE
  5
45B
330
1F
100
AcDbEntity
  8
1
  6
Continuous
 62
     4
100
AcDbLine
 10
194.313612792647
 20
162.1251763457633
 30
0.0
 11
193.938612792647
 21
161.8751763457633
 31
0.0
  0
LINE
  5
45C
330
1F
100
AcDbEntity
  8
1
  6
Continuous
 62
     4
100
AcDbLine
 10
194.563612792647
 20
162.3751763457633
 30
0.0
 11
194.313612792647
 21
162.1251763457633
 31
0.0
  0
LINE
  5
45D
330
1F
100
AcDbEntity
  8
1
  6
Continuous
 62
     4
100
AcDbLine
 10
194.813612792647
 20
162.7501763457633
 30
0.0
 11
194.563612792647
 21
162.3751763457633
 31
0.0
  0
LINE
  5
45E
330
1F
100
AcDbEntity
  8
1
  6
Continuous
 62
     4
100
AcDbLine
 10
194.938612792647
 20
163.2501763457633
 30
0.0
 11
194.813612792647
 21
162.7501763457633
 31
0.0
  0
LINE
  5
45F
330
1F
100
AcDbEntity
  8
1
  6
Continuous
 62
     4
100
AcDbLine
 10
194.938612792647
 20
165.2501763457633
 30
0.0
 11
194.938612792647
 21
163.2501763457633
 31
0.0
  0
LINE
  5
460
330
1F
100
AcDbEntity
  8
1
  6
Continuous
 62
     4
100
AcDbLine
 10
187.438612792647
 20
163.5001763457633
 30
0.0
 11
189.938612792647
 21
163.5001763457633
 31
0.0
  0
LINE
  5
461
330
1F
100
AcDbEntity
  8
1
  6
Continuous
 62
     4
100
AcDbLine
 10
182.438612792647
 20
164.5001763457633
 30
0.0
 11
182.438612792647
 21
164.2501763457633
 31
0.0
  0
LINE
  5
462
330
1F
100
AcDbEntity
  8
1
  6
Continuous
 62
     4
100
AcDbLine
 10
185.938612792647
 20
164.5001763457633
 30
0.0
 11
185.938612792647
 21
161.7501763457633
 31
0.0
  0
LINE
  5
463
330
1F
100
AcDbEntity
  8
1
  6
Continuous
 62
     4
100
AcDbLine
 10
182.438612792647
 20
164.2501763457633
 30
0.0
 11
182.438612792647
 21
161.7501763457633
 31
0.0
  0
LINE
  5
464
330
1F
100
AcDbEntity
  8
1
  6
Continuous
 62
     4
100
AcDbLine
 10
182.438612792647
 20
166.7501763457633
 30
0.0
 11
182.438612792647
 21
164.5001763457633
 31
0.0
  0
LINE
  5
465
330
1F
100
AcDbEntity
  8
1
  6
Continuous
 62
     4
100
AcDbLine
 10
182.438612792647
 20
164.5001763457633
 30
0.0
 11
185.938612792647
 21
164.5001763457633
 31
0.0
  0
LINE
  5
466
330
1F
100
AcDbEntity
  8
1
  6
Continuous
 62
     4
100
AcDbLine
 10
185.938612792647
 20
166.7501763457633
 30
0.0
 11
185.938612792647
 21
164.5001763457633
 31
0.0
  0
LINE
  5
467
330
1F
100
AcDbEntity
  8
1
  6
Continuous
 62
     4
100
AcDbLine
 10
177.688612792647
 20
164.5001763457633
 30
0.0
 11
177.688612792647
 21
166.7501763457633
 31
0.0
  0
LINE
  5
468
330
1F
100
AcDbEntity
  8
1
  6
Continuous
 62
     4
100
AcDbLine
 10
180.063612792647
 20
164.6251763457633
 30
0.0
 11
179.688612792647
 21
164.5001763457633
 31
0.0
  0
LINE
  5
469
330
1F
100
AcDbEntity
  8
1
  6
Continuous
 62
     4
100
AcDbLine
 10
180.438612792647
 20
164.8751763457633
 30
0.0
 11
180.063612792647
 21
164.6251763457633
 31
0.0
  0
LINE
  5
46A
330
1F
100
AcDbEntity
  8
1
  6
Continuous
 62
     4
100
AcDbLine
 10
180.688612792647
 20
165.3751763457633
 30
0.0
 11
180.438612792647
 21
164.8751763457633
 31
0.0
  0
LINE
  5
46B
330
1F
100
AcDbEntity
  8
1
  6
Continuous
 62
     4
100
AcDbLine
 10
180.688612792647
 20
165.7501763457633
 30
0.0
 11
180.688612792647
 21
165.3751763457633
 31
0.0
  0
LINE
  5
46C
330
1F
100
AcDbEntity
  8
1
  6
Continuous
 62
     4
100
AcDbLine
 10
180.563612792647
 20
166.2501763457633
 30
0.0
 11
180.688612792647
 21
165.7501763457633
 31
0.0
  0
LINE
  5
46D
330
1F
100
AcDbEntity
  8
1
  6
Continuous
 62
     4
100
AcDbLine
 10
180.188612792647
 20
166.6251763457633
 30
0.0
 11
180.563612792647
 21
166.2501763457633
 31
0.0
  0
LINE
  5
46E
330
1F
100
AcDbEntity
  8
1
  6
Continuous
 62
     4
100
AcDbLine
 10
179.563612792647
 20
166.7501763457633
 30
0.0
 11
180.188612792647
 21
166.6251763457633
 31
0.0
  0
LINE
  5
46F
330
1F
100
AcDbEntity
  8
1
  6
Continuous
 62
     4
100
AcDbLine
 10
177.688612792647
 20
166.7501763457633
 30
0.0
 11
179.563612792647
 21
166.7501763457633
 31
0.0
  0
LINE
  5
470
330
1F
100
AcDbEntity
  8
1
  6
Continuous
 62
     4
100
AcDbLine
 10
177.688612792647
 20
161.7501763457633
 30
0.0
 11
177.688612792647
 21
164.5001763457633
 31
0.0
  0
LINE
  5
471
330
1F
100
AcDbEntity
  8
1
  6
Continuous
 62
     4
100
AcDbLine
 10
179.938612792647
 20
161.7501763457633
 30
0.0
 11
177.688612792647
 21
161.7501763457633
 31
0.0
  0
LINE
  5
472
330
1F
100
AcDbEntity
  8
1
  6
Continuous
 62
     4
100
AcDbLine
 10
180.438612792647
 20
162.0001763457633
 30
0.0
 11
179.938612792647
 21
161.7501763457633
 31
0.0
  0
LINE
  5
473
330
1F
100
AcDbEntity
  8
1
  6
Continuous
 62
     4
100
AcDbLine
 10
180.688612792647
 20
162.2501763457633
 30
0.0
 11
180.438612792647
 21
162.0001763457633
 31
0.0
  0
LINE
  5
474
330
1F
100
AcDbEntity
  8
1
  6
Continuous
 62
     4
100
AcDbLine
 10
180.938612792647
 20
162.7501763457633
 30
0.0
 11
180.688612792647
 21
162.2501763457633
 31
0.0
  0
LINE
  5
475
330
1F
100
AcDbEntity
  8
1
  6
Continuous
 62
     4
100
AcDbLine
 10
180.938612792647
 20
163.3751763457633
 30
0.0
 11
180.938612792647
 21
162.7501763457633
 31
0.0
  0
LINE
  5
476
330
1F
100
AcDbEntity
  8
1
  6
Continuous
 62
     4
100
AcDbLine
 10
180.688612792647
 20
164.0001763457633
 30
0.0
 11
180.938612792647
 21
163.3751763457633
 31
0.0
  0
LINE
  5
477
330
1F
100
AcDbEntity
  8
1
  6
Continuous
 62
     4
100
AcDbLine
 10
180.438612792647
 20
164.2501763457633
 30
0.0
 11
180.688612792647
 21
164.0001763457633
 31
0.0
  0
LINE
  5
478
330
1F
100
AcDbEntity
  8
1
  6
Continuous
 62
     4
100
AcDbLine
 10
179.938612792647
 20
164.5001763457633
 30
0.0
 11
180.438612792647
 21
164.2501763457633
 31
0.0
  0
LINE
  5
479
330
1F
100
AcDbEntity
  8
1
  6
Continuous
 62
     4
100
AcDbLine
 10
179.688612792647
 20
164.5001763457633
 30
0.0
 11
179.938612792647
 21
164.5001763457633
 31
0.0
  0
LINE
  5
47A
330
1F
100
AcDbEntity
  8
1
  6
Continuous
 62
     4
100
AcDbLine
 10
177.688612792647
 20
164.5001763457633
 30
0.0
 11
179.688612792647
 21
164.5001763457633
 31
0.0
  0
LINE
  5
503
330
1F
100
AcDbEntity
  8
2
  6
Continuous
 62
     2
100
AcDbLine
 10
55.0
 20
300.0
 30
0.0
 11
55.0
 21
152.5
 31
0.0
  0
LINE
  5
504
330
1F
100
AcDbEntity
  8
2
  6
Continuous
 62
     2
100
AcDbLine
 10
55.0
 20
0.0
 30
0.0
 11
55.0
 21
152.5
 31
0.0
  0
LINE
  5
505
330
1F
100
AcDbEntity
  8
2
  6
Continuous
 62
     2
100
AcDbLine
 10
13.5
 20
300.0
 30
0.0
 11
56.0
 21
300.0
 31
0.0
  0
LINE
  5
506
330
1F
100
AcDbEntity
  8
2
  6
Continuous
 62
     2
100
AcDbLine
 10
1.0
 20
0.0
 30
0.0
 11
56.0
 21
0.0
 31
0.0
  0
LINE
  5
507
330
1F
100
AcDbEntity
  8
100
  6
Continuous
 62
     3
100
AcDbLine
 10
-191.0
 20
290.024240303043
 30
0.0
 11
-191.0
 21
280.0
 31
0.0
  0
LINE
  5
508
330
1F
100
AcDbEntity
  8
100
  6
Continuous
 62
     3
100
AcDbLine
 10
-177.0
 20
228.5
 30
0.0
 11
-177.0
 21
232.0
 31
0.0
  0
LINE
  5
509
330
1F
100
AcDbEntity
  8
100
  6
Continuous
 62
     3
100
AcDbLine
 10
-177.0
 20
232.0
 30
0.0
 11
-143.0
 21
232.0
 31
0.0
  0
LINE
  5
50A
330
1F
100
AcDbEntity
  8
100
  6
Continuous
 62
     3
100
AcDbLine
 10
-143.0
 20
228.5
 30
0.0
 11
-143.0
 21
232.0
 31
0.0
  0
LINE
  5
50B
330
1F
100
AcDbEntity
  8
100
  6
Continuous
 62
     3
100
AcDbLine
 10
-151.0
 20
262.0
 30
0.0
 11
-169.0
 21
262.0
 31
0.0
  0
LINE
  5
50C
330
1F
100
AcDbEntity
  8
100
  6
Continuous
 62
     3
100
AcDbLine
 10
-146.5
 20
247.048426656989
 30
0.0
 11
-146.5
 21
232.0
 31
0.0
  0
LINE
  5
50D
330
1F
100
AcDbEntity
  8
100
  6
Continuous
 62
     3
100
AcDbLine
 10
-151.0
 20
262.0
 30
0.0
 11
-151.0
 21
254.930285549747
 31
0.0
  0
LINE
  5
50E
330
1F
100
AcDbEntity
  8
100
  6
Continuous
 62
     3
100
AcDbLine
 10
-173.5
 20
247.048426656989
 30
0.0
 11
-173.5
 21
232.0
 31
0.0
  0
LINE
  5
50F
330
1F
100
AcDbEntity
  8
100
  6
Continuous
 62
     3
100
AcDbLine
 10
-169.0
 20
262.0
 30
0.0
 11
-169.0
 21
254.930285549747
 31
0.0
  0
LINE
  5
510
330
1F
100
AcDbEntity
  8
100
  6
Continuous
 62
     3
100
AcDbLine
 10
-177.0
 20
228.5
 30
0.0
 11
-143.0
 21
228.5
 31
0.0
  0
LINE
  5
511
330
1F
100
AcDbEntity
  8
100
  6
Continuous
 62
     3
100
AcDbLine
 10
-176.0
 20
203.5
 30
0.0
 11
-144.0
 21
203.5
 31
0.0
  0
LINE
  5
512
330
1F
100
AcDbEntity
  8
100
  6
Continuous
 62
     3
100
AcDbLine
 10
-176.0
 20
203.5
 30
0.0
 11
-176.0
 21
228.5
 31
0.0
  0
LINE
  5
513
330
1F
100
AcDbEntity
  8
100
  6
Continuous
 62
     3
100
AcDbLine
 10
-144.0
 20
203.5
 30
0.0
 11
-144.0
 21
228.5
 31
0.0
  0
LINE
  5
514
330
1F
100
AcDbEntity
  8
100
  6
Continuous
 62
     3
100
AcDbLine
 10
-191.0
 20
280.0
 30
0.0
 11
-129.0
 21
280.0
 31
0.0
  0
LINE
  5
515
330
1F
100
AcDbEntity
  8
100
  6
Continuous
 62
     3
100
AcDbLine
 10
-173.229992139124
 20
299.891048196256
 30
0.0
 11
-186.751981133898
 21
295.762755974056
 31
0.0
  0
LINE
  5
516
330
1F
100
AcDbEntity
  8
100
  6
Continuous
 62
     3
100
AcDbLine
 10
-147.5
 20
300.0
 30
0.0
 11
-172.5
 21
300.0
 31
0.0
  0
LINE
  5
517
330
1F
100
AcDbEntity
  8
100
  6
Continuous
 62
     3
100
AcDbLine
 10
-179.996542879213
 20
290.044738518463
 30
0.0
 11
-179.996542879213
 21
282.0
 31
0.0
  0
LINE
  5
518
330
1F
100
AcDbEntity
  8
100
  6
Continuous
 62
     3
100
AcDbLine
 10
-140.003457120787
 20
290.044738518463
 30
0.0
 11
-140.003457120787
 21
282.0
 31
0.0
  0
LINE
  5
519
330
1F
100
AcDbEntity
  8
100
  6
Continuous
 62
     3
100
AcDbLine
 10
-129.0
 20
290.024240303043
 30
0.0
 11
-129.0
 21
280.0
 31
0.0
  0
LINE
  5
51A
330
1F
100
AcDbEntity
  8
100
  6
Continuous
 62
     3
100
AcDbLine
 10
-146.770007860876
 20
299.891048196256
 30
0.0
 11
-133.248018866102
 21
295.762755974056
 31
0.0
  0
LINE
  5
51B
330
1F
100
AcDbEntity
  8
100
  6
Continuous
 62
     3
100
AcDbLine
 10
-164.4
 20
280.0
 30
0.0
 11
-164.4
 21
262.0
 31
0.0
  0
LINE
  5
51C
330
1F
100
AcDbEntity
  8
100
  6
Continuous
 62
     3
100
AcDbLine
 10
105.6
 20
280.0
 30
0.0
 11
105.6
 21
262.0
 31
0.0
  0
LINE
  5
51D
330
1F
100
AcDbEntity
  8
100
  6
Continuous
 62
     3
100
AcDbLine
 10
125.5
 20
-8.94892917243921
 30
0.0
 11
125.5
 21
8.9489291724392
 31
0.0
  0
LINE
  5
51E
330
1F
100
AcDbEntity
  8
100
  6
Continuous
 62
     3
100
AcDbLine
 10
123.5
 20
-10.1036297108185
 30
0.0
 11
125.5
 21
-8.94892917243921
 31
0.0
  0
LINE
  5
51F
330
1F
100
AcDbEntity
  8
100
  6
Continuous
 62
     3
100
AcDbLine
 10
94.5
 20
-8.94892917243919
 30
0.0
 11
96.5
 21
-10.1036297108184
 31
0.0
  0
LINE
  5
520
330
1F
100
AcDbEntity
  8
100
  6
Continuous
 62
     3
100
AcDbLine
 10
94.5
 20
8.9489291724392
 30
0.0
 11
94.5
 21
-8.94892917243919
 31
0.0
  0
LINE
  5
521
330
1F
100
AcDbEntity
  8
100
  6
Continuous
 62
     3
100
AcDbLine
 10
97.25
 20
10.5366424127107
 30
0.0
 11
94.5
 21
8.9489291724392
 31
0.0
  0
LINE
  5
522
330
1F
100
AcDbEntity
  8
100
  6
Continuous
 62
     3
100
AcDbLine
 10
125.5
 20
8.9489291724392
 30
0.0
 11
122.75
 21
10.5366424127107
 31
0.0
  0
LINE
  5
523
330
1F
100
AcDbEntity
  8
100
  6
Continuous
 62
     3
100
AcDbLine
 10
-144.5
 20
-8.94892917243921
 30
0.0
 11
-144.5
 21
8.9489291724392
 31
0.0
  0
LINE
  5
524
330
1F
100
AcDbEntity
  8
100
  6
Continuous
 62
     3
100
AcDbLine
 10
-160.0
 20
-17.8978583448784
 30
0.0
 11
-144.5
 21
-8.94892917243921
 31
0.0
  0
LINE
  5
525
330
1F
100
AcDbEntity
  8
100
  6
Continuous
 62
     3
100
AcDbLine
 10
-175.5
 20
-8.94892917243919
 30
0.0
 11
-160.0
 21
-17.8978583448784
 31
0.0
  0
LINE
  5
526
330
1F
100
AcDbEntity
  8
100
  6
Continuous
 62
     3
100
AcDbLine
 10
-175.5
 20
8.9489291724392
 30
0.0
 11
-175.5
 21
-8.94892917243919
 31
0.0
  0
LINE
  5
527
330
1F
100
AcDbEntity
  8
100
  6
Continuous
 62
     3
100
AcDbLine
 10
-160.0
 20
17.8978583448784
 30
0.0
 11
-175.5
 21
8.9489291724392
 31
0.0
  0
LINE
  5
528
330
1F
100
AcDbEntity
  8
100
  6
Continuous
 62
     3
100
AcDbLine
 10
-144.5
 20
8.9489291724392
 30
0.0
 11
-160.0
 21
17.8978583448784
 31
0.0
  0
LINE
  5
529
330
1F
100
AcDbEntity
  8
100
  6
Continuous
 62
     3
100
AcDbLine
 10
120.2225
 20
-81.0
 30
0.0
 11
99.7775
 21
-81.0
 31
0.0
  0
LINE
  5
52A
330
1F
100
AcDbEntity
  8
2
  6
Continuous
 62
     1
100
AcDbLine
 10
119.52925
 20
-66.0
 30
0.0
 11
119.0605
 21
-81.0
 31
0.0
  0
LINE
  5
52B
330
1F
100
AcDbEntity
  8
2
  6
Continuous
 62
     1
100
AcDbLine
 10
100.47075
 20
-66.0
 30
0.0
 11
100.9395
 21
-81.0
 31
0.0
  0
LINE
  5
52C
330
1F
100
AcDbEntity
  8
100
  6
Continuous
 62
     3
100
AcDbLine
 10
120.2225
 20
-81.0
 30
0.0
 11
120.5
 21
-72.1199999999999
 31
0.0
  0
LINE
  5
52D
330
1F
100
AcDbEntity
  8
100
  6
Continuous
 62
     3
100
AcDbLine
 10
99.7775
 20
-81.0
 30
0.0
 11
99.5
 21
-72.1199999999999
 31
0.0
  0
LINE
  5
52E
330
1F
100
AcDbEntity
  8
100
  6
Continuous
 62
     3
100
AcDbLine
 10
110.0
 20
-42.5
 30
0.0
 11
110.0
 21
-24.5
 31
0.0
  0
LINE
  5
52F
330
1F
100
AcDbEntity
  8
100
  6
Continuous
 62
     3
100
AcDbLine
 10
125.5
 20
-42.5
 30
0.0
 11
125.5
 21
-24.5
 31
0.0
  0
LINE
  5
530
330
1F
100
AcDbEntity
  8
100
  6
Continuous
 62
     3
100
AcDbLine
 10
94.5
 20
-42.5
 30
0.0
 11
94.5
 21
-24.5
 31
0.0
  0
LINE
  5
531
330
1F
100
AcDbEntity
  8
2
  6
Continuous
 62
     3
100
AcDbLine
 10
119.52925
 20
-66.0
 30
0.0
 11
120.5
 21
-64.3186116785525
 31
0.0
  0
LINE
  5
532
330
1F
100
AcDbEntity
  8
2
  6
Continuous
 62
     3
100
AcDbLine
 10
100.47075
 20
-66.0
 30
0.0
 11
99.5
 21
-64.3186116785525
 31
0.0
  0
LINE
  5
533
330
1F
100
AcDbEntity
  8
100
  6
Continuous
 62
     3
100
AcDbLine
 10
120.5
 20
-72.1199999999999
 30
0.0
 11
120.5
 21
-42.5
 31
0.0
  0
LINE
  5
534
330
1F
100
AcDbEntity
  8
100
  6
Continuous
 62
     3
100
AcDbLine
 10
99.5
 20
-72.1199999999999
 30
0.0
 11
99.5
 21
-42.5
 31
0.0
  0
LINE
  5
535
330
1F
100
AcDbEntity
  8
100
  6
Continuous
 62
     3
100
AcDbLine
 10
125.5
 20
-24.5
 30
0.0
 11
94.5
 21
-24.5
 31
0.0
  0
LINE
  5
536
330
1F
100
AcDbEntity
  8
100
  6
Continuous
 62
     3
100
AcDbLine
 10
125.5
 20
-42.5
 30
0.0
 11
94.5
 21
-42.5
 31
0.0
  0
LINE
  5
537
330
1F
100
AcDbEntity
  8
100
  6
Continuous
 62
     3
100
AcDbLine
 10
120.5
 20
-66.0
 30
0.0
 11
99.5
 21
-66.0
 31
0.0
  0
LINE
  5
538
330
1F
100
AcDbEntity
  8
100
  6
Continuous
 62
     3
100
AcDbLine
 10
-149.7775
 20
-81.0
 30
0.0
 11
-170.2225
 21
-81.0
 31
0.0
  0
LINE
  5
539
330
1F
100
AcDbEntity
  8
2
  6
Continuous
 62
     1
100
AcDbLine
 10
-150.47075
 20
-66.0
 30
0.0
 11
-150.9395
 21
-81.0
 31
0.0
  0
LINE
  5
53A
330
1F
100
AcDbEntity
  8
2
  6
Continuous
 62
     1
100
AcDbLine
 10
-169.52925
 20
-66.0
 30
0.0
 11
-169.0605
 21
-81.0
 31
0.0
  0
LINE
  5
53B
330
1F
100
AcDbEntity
  8
100
  6
Continuous
 62
     3
100
AcDbLine
 10
-149.7775
 20
-81.0
 30
0.0
 11
-149.5
 21
-72.1199999999999
 31
0.0
  0
LINE
  5
53C
330
1F
100
AcDbEntity
  8
100
  6
Continuous
 62
     3
100
AcDbLine
 10
-170.2225
 20
-81.0
 30
0.0
 11
-170.5
 21
-72.1199999999999
 31
0.0
  0
LINE
  5
53D
330
1F
100
AcDbEntity
  8
100
  6
Continuous
 62
     3
100
AcDbLine
 10
-160.0
 20
-42.5
 30
0.0
 11
-160.0
 21
-24.5
 31
0.0
  0
LINE
  5
53E
330
1F
100
AcDbEntity
  8
100
  6
Continuous
 62
     3
100
AcDbLine
 10
-144.5
 20
-42.5
 30
0.0
 11
-144.5
 21
-24.5
 31
0.0
  0
LINE
  5
53F
330
1F
100
AcDbEntity
  8
100
  6
Continuous
 62
     3
100
AcDbLine
 10
-175.5
 20
-42.5
 30
0.0
 11
-175.5
 21
-24.5
 31
0.0
  0
LINE
  5
540
330
1F
100
AcDbEntity
  8
2
  6
Continuous
 62
     3
100
AcDbLine
 10
-150.47075
 20
-66.0
 30
0.0
 11
-149.5
 21
-64.3186116785525
 31
0.0
  0
LINE
  5
541
330
1F
100
AcDbEntity
  8
2
  6
Continuous
 62
     3
100
AcDbLine
 10
-169.52925
 20
-66.0
 30
0.0
 11
-170.5
 21
-64.3186116785525
 31
0.0
  0
LINE
  5
542
330
1F
100
AcDbEntity
  8
100
  6
Continuous
 62
     3
100
AcDbLine
 10
-149.5
 20
-72.1199999999999
 30
0.0
 11
-149.5
 21
-42.5
 31
0.0
  0
LINE
  5
543
330
1F
100
AcDbEntity
  8
100
  6
Continuous
 62
     3
100
AcDbLine
 10
-170.5
 20
-72.1199999999999
 30
0.0
 11
-170.5
 21
-42.5
 31
0.0
  0
LINE
  5
544
330
1F
100
AcDbEntity
  8
100
  6
Continuous
 62
     3
100
AcDbLine
 10
-144.5
 20
-24.5
 30
0.0
 11
-175.5
 21
-24.5
 31
0.0
  0
LINE
  5
545
330
1F
100
AcDbEntity
  8
100
  6
Continuous
 62
     3
100
AcDbLine
 10
-144.5
 20
-42.5
 30
0.0
 11
-175.5
 21
-42.5
 31
0.0
  0
LINE
  5
546
330
1F
100
AcDbEntity
  8
100
  6
Continuous
 62
     3
100
AcDbLine
 10
-149.5
 20
-66.0
 30
0.0
 11
-170.5
 21
-66.0
 31
0.0
  0
LINE
  5
547
330
1F
100
AcDbEntity
  8
100
  6
Continuous
 62
     3
100
AcDbLine
 10
10.2225
 20
-81.0
 30
0.0
 11
-10.2225
 21
-81.0
 31
0.0
  0
LINE
  5
548
330
1F
100
AcDbEntity
  8
2
  6
Continuous
 62
     1
100
AcDbLine
 10
-9.52924999999999
 20
-66.0
 30
0.0
 11
-9.06049999999999
 21
-81.0
 31
0.0
  0
LINE
  5
549
330
1F
100
AcDbEntity
  8
100
  6
Continuous
 62
     3
100
AcDbLine
 10
-10.2225
 20
-81.0
 30
0.0
 11
-10.5
 21
-72.1199999999999
 31
0.0
  0
LINE
  5
54A
330
1F
100
AcDbEntity
  8
2
  6
Continuous
 62
     1
100
AcDbLine
 10
9.52924999999999
 20
-66.0
 30
0.0
 11
9.06049999999999
 21
-81.0
 31
0.0
  0
LINE
  5
54B
330
1F
100
AcDbEntity
  8
100
  6
Continuous
 62
     3
100
AcDbLine
 10
10.2225
 20
-81.0
 30
0.0
 11
10.5
 21
-72.1199999999999
 31
0.0
  0
LINE
  5
54C
330
1F
100
AcDbEntity
  8
100
  6
Continuous
 62
     3
100
AcDbLine
 10
17.8978583448784
 20
-24.5
 30
0.0
 11
-17.8978583448784
 21
-24.5
 31
0.0
  0
LINE
  5
54D
330
1F
100
AcDbEntity
  8
100
  6
Continuous
 62
     3
100
AcDbLine
 10
17.8978583448784
 20
-42.5
 30
0.0
 11
-17.8978583448784
 21
-42.5
 31
0.0
  0
LINE
  5
54E
330
1F
100
AcDbEntity
  8
100
  6
Continuous
 62
     3
100
AcDbLine
 10
17.8978583448784
 20
-42.5
 30
0.0
 11
17.8978583448784
 21
-24.5
 31
0.0
  0
LINE
  5
54F
330
1F
100
AcDbEntity
  8
100
  6
Continuous
 62
     3
100
AcDbLine
 10
8.94892917243919
 20
-42.5
 30
0.0
 11
8.94892917243919
 21
-24.5
 31
0.0
  0
LINE
  5
550
330
1F
100
AcDbEntity
  8
100
  6
Continuous
 62
     3
100
AcDbLine
 10
-8.94892917243919
 20
-42.5
 30
0.0
 11
-8.94892917243919
 21
-24.5
 31
0.0
  0
LINE
  5
551
330
1F
100
AcDbEntity
  8
100
  6
Continuous
 62
     3
100
AcDbLine
 10
-17.8978583448784
 20
-42.5
 30
0.0
 11
-17.8978583448784
 21
-24.5
 31
0.0
  0
LINE
  5
552
330
1F
100
AcDbEntity
  8
100
  6
Continuous
 62
     3
100
AcDbLine
 10
10.5
 20
-72.1199999999999
 30
0.0
 11
10.5
 21
-42.5
 31
0.0
  0
LINE
  5
553
330
1F
100
AcDbEntity
  8
100
  6
Continuous
 62
     3
100
AcDbLine
 10
-10.5
 20
-72.1199999999999
 30
0.0
 11
-10.5
 21
-42.5
 31
0.0
  0
LINE
  5
554
330
1F
100
AcDbEntity
  8
2
  6
Continuous
 62
     3
100
AcDbLine
 10
9.52924999999999
 20
-66.0
 30
0.0
 11
10.5
 21
-64.3186116785525
 31
0.0
  0
LINE
  5
555
330
1F
100
AcDbEntity
  8
2
  6
Continuous
 62
     3
100
AcDbLine
 10
-9.52924999999999
 20
-66.0
 30
0.0
 11
-10.5
 21
-64.3186116785525
 31
0.0
  0
LINE
  5
556
330
1F
100
AcDbEntity
  8
100
  6
Continuous
 62
     3
100
AcDbLine
 10
10.5
 20
-66.0
 30
0.0
 11
-10.5
 21
-66.0
 31
0.0
  0
LINE
  5
557
330
1F
100
AcDbEntity
  8
100
  6
Continuous
 62
     3
100
AcDbLine
 10
-45.5
 20
355.5
 30
0.0
 11
-27.5
 21
355.5
 31
0.0
  0
LINE
  5
558
330
1F
100
AcDbEntity
  8
100
  6
Continuous
 62
     3
100
AcDbLine
 10
-45.5
 20
340.0
 30
0.0
 11
-27.5
 21
340.0
 31
0.0
  0
LINE
  5
559
330
1F
100
AcDbEntity
  8
100
  6
Continuous
 62
     3
100
AcDbLine
 10
-45.5
 20
371.0
 30
0.0
 11
-27.5
 21
371.0
 31
0.0
  0
LINE
  5
55A
330
1F
100
AcDbEntity
  8
2
  6
Continuous
 62
     1
100
AcDbLine
 10
-69.0
 20
345.97075
 30
0.0
 11
-84.0
 21
346.4395
 31
0.0
  0
LINE
  5
55B
330
1F
100
AcDbEntity
  8
2
  6
Continuous
 62
     1
100
AcDbLine
 10
-69.0
 20
365.02925
 30
0.0
 11
-84.0
 21
364.5605
 31
0.0
  0
LINE
  5
55C
330
1F
100
AcDbEntity
  8
2
  6
Continuous
 62
     3
100
AcDbLine
 10
-69.0
 20
345.97075
 30
0.0
 11
-67.3186116785525
 21
345.0
 31
0.0
  0
LINE
  5
55D
330
1F
100
AcDbEntity
  8
2
  6
Continuous
 62
     3
100
AcDbLine
 10
-69.0
 20
365.02925
 30
0.0
 11
-67.3186116785525
 21
366.0
 31
0.0
  0
LINE
  5
55E
330
1F
100
AcDbEntity
  8
100
  6
Continuous
 62
     3
100
AcDbLine
 10
-75.1199999999999
 20
345.0
 30
0.0
 11
-45.5
 21
345.0
 31
0.0
  0
LINE
  5
55F
330
1F
100
AcDbEntity
  8
100
  6
Continuous
 62
     3
100
AcDbLine
 10
-75.1199999999999
 20
366.0
 30
0.0
 11
-45.5
 21
366.0
 31
0.0
  0
LINE
  5
560
330
1F
100
AcDbEntity
  8
100
  6
Continuous
 62
     3
100
AcDbLine
 10
-27.5
 20
369.604953877141
 30
0.0
 11
-27.5
 21
371.0
 31
0.0
  0
LINE
  5
561
330
1F
100
AcDbEntity
  8
100
  6
Continuous
 62
     3
100
AcDbLine
 10
-27.5
 20
348.092869668585
 30
0.0
 11
-27.5
 21
363.395046122859
 31
0.0
  0
LINE
  5
562
330
1F
100
AcDbEntity
  8
100
  6
Continuous
 62
     3
100
AcDbLine
 10
-27.5
 20
340.0
 30
0.0
 11
-27.5
 21
341.395046122859
 31
0.0
  0
LINE
  5
563
330
1F
100
AcDbEntity
  8
100
  6
Continuous
 62
     3
100
AcDbLine
 10
-45.5
 20
340.0
 30
0.0
 11
-45.5
 21
371.0
 31
0.0
  0
LINE
  5
564
330
1F
100
AcDbEntity
  8
100
  6
Continuous
 62
     3
100
AcDbLine
 10
-84.0
 20
345.2775
 30
0.0
 11
-75.1199999999999
 21
345.0
 31
0.0
  0
LINE
  5
565
330
1F
100
AcDbEntity
  8
100
  6
Continuous
 62
     3
100
AcDbLine
 10
-84.0
 20
345.2775
 30
0.0
 11
-84.0
 21
365.7225
 31
0.0
  0
LINE
  5
566
330
1F
100
AcDbEntity
  8
100
  6
Continuous
 62
     3
100
AcDbLine
 10
-84.0
 20
365.7225
 30
0.0
 11
-75.1199999999999
 21
366.0
 31
0.0
  0
LINE
  5
567
330
1F
100
AcDbEntity
  8
100
  6
Continuous
 62
     3
100
AcDbLine
 10
-69.0
 20
345.0
 30
0.0
 11
-69.0
 21
366.0
 31
0.0
  0
LINE
  5
568
330
1F
100
AcDbEntity
  8
100
  6
Continuous
 62
     3
100
AcDbLine
 10
-75.1199999999999
 20
-10.5
 30
0.0
 11
-45.5
 21
-10.5
 31
0.0
  0
LINE
  5
569
330
1F
100
AcDbEntity
  8
100
  6
Continuous
 62
     3
100
AcDbLine
 10
-75.1199999999999
 20
10.5
 30
0.0
 11
-45.5
 21
10.5
 31
0.0
  0
LINE
  5
56A
330
1F
100
AcDbEntity
  8
100
  6
Continuous
 62
     3
100
AcDbLine
 10
-27.5
 20
-17.8978583448784
 30
0.0
 11
-27.5
 21
17.8978583448784
 31
0.0
  0
LINE
  5
56B
330
1F
100
AcDbEntity
  8
100
  6
Continuous
 62
     3
100
AcDbLine
 10
-45.5
 20
-17.8978583448784
 30
0.0
 11
-27.5
 21
-17.8978583448784
 31
0.0
  0
LINE
  5
56C
330
1F
100
AcDbEntity
  8
100
  6
Continuous
 62
     3
100
AcDbLine
 10
-45.5
 20
-8.9489291724392
 30
0.0
 11
-27.5
 21
-8.9489291724392
 31
0.0
  0
LINE
  5
56D
330
1F
100
AcDbEntity
  8
100
  6
Continuous
 62
     3
100
AcDbLine
 10
-45.5
 20
8.9489291724392
 30
0.0
 11
-27.5
 21
8.9489291724392
 31
0.0
  0
LINE
  5
56E
330
1F
100
AcDbEntity
  8
100
  6
Continuous
 62
     3
100
AcDbLine
 10
-45.5
 20
17.8978583448784
 30
0.0
 11
-27.5
 21
17.8978583448784
 31
0.0
  0
LINE
  5
56F
330
1F
100
AcDbEntity
  8
100
  6
Continuous
 62
     3
100
AcDbLine
 10
-45.5
 20
-17.8978583448784
 30
0.0
 11
-45.5
 21
17.8978583448784
 31
0.0
  0
LINE
  5
570
330
1F
100
AcDbEntity
  8
2
  6
Continuous
 62
     3
100
AcDbLine
 10
-69.0
 20
-9.52925
 30
0.0
 11
-67.3186116785525
 21
-10.5
 31
0.0
  0
LINE
  5
571
330
1F
100
AcDbEntity
  8
2
  6
Continuous
 62
     3
100
AcDbLine
 10
-69.0
 20
9.52925000000001
 30
0.0
 11
-67.3186116785525
 21
10.5
 31
0.0
  0
LINE
  5
572
330
1F
100
AcDbEntity
  8
100
  6
Continuous
 62
     3
100
AcDbLine
 10
-69.0
 20
-10.5
 30
0.0
 11
-69.0
 21
10.5
 31
0.0
  0
LINE
  5
573
330
1F
100
AcDbEntity
  8
2
  6
Continuous
 62
     1
100
AcDbLine
 10
-69.0
 20
9.52925000000001
 30
0.0
 11
-84.0
 21
9.0605
 31
0.0
  0
LINE
  5
574
330
1F
100
AcDbEntity
  8
100
  6
Continuous
 62
     3
100
AcDbLine
 10
-84.0
 20
10.2225
 30
0.0
 11
-75.1199999999999
 21
10.5
 31
0.0
  0
LINE
  5
575
330
1F
100
AcDbEntity
  8
2
  6
Continuous
 62
     1
100
AcDbLine
 10
-69.0
 20
-9.52925
 30
0.0
 11
-84.0
 21
-9.0605
 31
0.0
  0
LINE
  5
576
330
1F
100
AcDbEntity
  8
100
  6
Continuous
 62
     3
100
AcDbLine
 10
-84.0
 20
-10.2225
 30
0.0
 11
-75.1199999999999
 21
-10.5
 31
0.0
  0
LINE
  5
577
330
1F
100
AcDbEntity
  8
100
  6
Continuous
 62
     3
100
AcDbLine
 10
-84.0
 20
-10.2225
 30
0.0
 11
-84.0
 21
10.2225
 31
0.0
  0
LINE
  5
578
330
1F
100
AcDbEntity
  8
100
  6
Continuous
 62
     3
100
AcDbLine
 10
-21.5
 20
0.0
 30
0.0
 11
-16.0
 21
0.0
 31
0.0
  0
LINE
  5
579
330
1F
100
AcDbEntity
  8
100
  6
Continuous
 62
     3
100
AcDbLine
 10
-8.0
 20
0.0
 30
0.0
 11
-1.5
 21
0.0
 31
0.0
  0
LINE
  5
57A
330
1F
100
AcDbEntity
  8
2
  6
CENTER
 62
     6
100
AcDbLine
 10
-13.229992139124
 20
293.340846174107
 30
0.0
 11
-23.8045400171553
 21
290.11241404219
 31
0.0
  0
LINE
  5
57B
330
1F
100
AcDbEntity
  8
2
  6
CENTER
 62
     6
100
AcDbLine
 10
-28.0525588832576
 20
284.373898371176
 30
0.0
 11
-28.0525588832576
 21
273.449797977851
 31
0.0
  0
LINE
  5
57C
330
1F
100
AcDbEntity
  8
100
  6
Continuous
 62
     3
100
AcDbLine
 10
-28.0525588832576
 20
290.924100393325
 30
0.0
 11
-28.0525588832576
 21
280.0
 31
0.0
  0
LINE
  5
57D
330
1F
100
AcDbEntity
  8
100
  6
Continuous
 62
     3
100
AcDbLine
 10
-13.229992139124
 20
299.891048196256
 30
0.0
 11
-23.8045400171553
 21
296.662616064339
 31
0.0
  0
LINE
  5
57E
330
1F
100
AcDbEntity
  8
2
  6
CENTER
 62
     6
100
AcDbLine
 10
28.0525588832576
 20
284.373898371176
 30
0.0
 11
28.0525588832576
 21
273.449797977851
 31
0.0
  0
LINE
  5
57F
330
1F
100
AcDbEntity
  8
2
  6
CENTER
 62
     6
100
AcDbLine
 10
-28.0525588832576
 20
273.449797977851
 30
0.0
 11
28.0525588832576
 21
273.449797977851
 31
0.0
  0
LINE
  5
580
330
1F
100
AcDbEntity
  8
100
  6
Continuous
 62
     3
100
AcDbLine
 10
-28.0525588832576
 20
280.0
 30
0.0
 11
28.0525588832576
 21
280.0
 31
0.0
  0
LINE
  5
581
330
1F
100
AcDbEntity
  8
2
  6
CENTER
 62
     6
100
AcDbLine
 10
13.229992139124
 20
293.340846174107
 30
0.0
 11
23.8045400171553
 21
290.11241404219
 31
0.0
  0
LINE
  5
582
330
1F
100
AcDbEntity
  8
2
  6
CENTER
 62
     6
100
AcDbLine
 10
12.5
 20
293.449797977851
 30
0.0
 11
-12.5
 21
293.449797977851
 31
0.0
  0
LINE
  5
583
330
1F
100
AcDbEntity
  8
100
  6
Continuous
 62
     3
100
AcDbLine
 10
13.229992139124
 20
299.891048196256
 30
0.0
 11
23.8045400171553
 21
296.662616064339
 31
0.0
  0
LINE
  5
584
330
1F
100
AcDbEntity
  8
100
  6
Continuous
 62
     3
100
AcDbLine
 10
28.0525588832576
 20
290.924100393325
 30
0.0
 11
28.0525588832576
 21
280.0
 31
0.0
  0
LINE
  5
585
330
1F
100
AcDbEntity
  8
100
  6
Continuous
 62
     3
100
AcDbLine
 10
12.5
 20
300.0
 30
0.0
 11
-12.5
 21
300.0
 31
0.0
  0
LINE
  5
586
330
1F
100
AcDbEntity
  8
2
  6
DOT_CENTER
 62
     1
100
AcDbLine
 10
0.0
 20
389.0
 30
0.0
 11
0.0
 21
322.0
 31
0.0
  0
LINE
  5
587
330
1F
100
AcDbEntity
  8
2
  6
DOT_CENTER
 62
     1
100
AcDbLine
 10
-89.9194320003328
 20
355.5
 30
0.0
 11
34.6822702702703
 21
355.5
 31
0.0
  0
LINE
  5
588
330
1F
100
AcDbEntity
  8
100
  6
Continuous
 62
     3
100
AcDbLine
 10
17.5
 20
203.5
 30
0.0
 11
17.5
 21
228.5
 31
0.0
  0
LINE
  5
589
330
1F
100
AcDbEntity
  8
100
  6
Continuous
 62
     3
100
AcDbLine
 10
-17.5
 20
203.5
 30
0.0
 11
-17.5
 21
228.5
 31
0.0
  0
LINE
  5
58A
330
1F
100
AcDbEntity
  8
100
  6
Continuous
 62
     3
100
AcDbLine
 10
-17.5
 20
203.5
 30
0.0
 11
17.5
 21
203.5
 31
0.0
  0
LINE
  5
58B
330
1F
100
AcDbEntity
  8
100
  6
Continuous
 62
     3
100
AcDbLine
 10
-17.5
 20
228.5
 30
0.0
 11
17.5
 21
228.5
 31
0.0
  0
LINE
  5
58C
330
1F
100
AcDbEntity
  8
100
  6
Continuous
 62
     3
100
AcDbLine
 10
-15.5884572681199
 20
232.0
 30
0.0
 11
-15.5884572681199
 21
246.0
 31
0.0
  0
LINE
  5
58D
330
1F
100
AcDbEntity
  8
100
  6
Continuous
 62
     3
100
AcDbLine
 10
15.5884572681199
 20
232.0
 30
0.0
 11
15.5884572681199
 21
246.0
 31
0.0
  0
LINE
  5
58E
330
1F
100
AcDbEntity
  8
100
  6
Continuous
 62
     3
100
AcDbLine
 10
9.0
 20
262.0
 30
0.0
 11
9.0
 21
255.400073201234
 31
0.0
  0
LINE
  5
58F
330
1F
100
AcDbEntity
  8
100
  6
Continuous
 62
     3
100
AcDbLine
 10
9.0
 20
262.0
 30
0.0
 11
-9.0
 21
262.0
 31
0.0
  0
LINE
  5
590
330
1F
100
AcDbEntity
  8
100
  6
Continuous
 62
     3
100
AcDbLine
 10
-9.0
 20
262.0
 30
0.0
 11
-9.0
 21
255.400073201234
 31
0.0
  0
LINE
  5
591
330
1F
100
AcDbEntity
  8
100
  6
Continuous
 62
     3
100
AcDbLine
 10
-17.0
 20
232.0
 30
0.0
 11
17.0
 21
232.0
 31
0.0
  0
LINE
  5
592
330
1F
100
AcDbEntity
  8
100
  6
Continuous
 62
     3
100
AcDbLine
 10
17.0
 20
228.5
 30
0.0
 11
17.0
 21
232.0
 31
0.0
  0
LINE
  5
593
330
1F
100
AcDbEntity
  8
100
  6
Continuous
 62
     3
100
AcDbLine
 10
-17.0
 20
228.5
 30
0.0
 11
-17.0
 21
232.0
 31
0.0
  0
LINE
  5
594
330
1F
100
AcDbEntity
  8
100
  6
Continuous
 62
     3
100
AcDbLine
 10
-4.39999999999998
 20
280.0
 30
0.0
 11
-4.39999999999998
 21
262.0
 31
0.0
  0
LINE
  5
595
330
1F
100
AcDbEntity
  8
100
  6
Continuous
 62
     3
100
AcDbLine
 10
-168.483339501605
 20
-13.0
 30
0.0
 11
-173.5
 21
-13.0
 31
0.0
  0
LINE
  5
596
330
1F
100
AcDbEntity
  8
100
  6
Continuous
 62
     3
100
AcDbLine
 10
-146.5
 20
-13.0
 30
0.0
 11
-151.516660498395
 21
-13.0
 31
0.0
  0
LINE
  5
597
330
1F
100
AcDbEntity
  8
100
  6
Continuous
 62
     3
100
AcDbLine
 10
-170.215390309173
 20
12.0
 30
0.0
 11
-176.0
 21
12.0
 31
0.0
  0
LINE
  5
598
330
1F
100
AcDbEntity
  8
100
  6
Continuous
 62
     3
100
AcDbLine
 10
-144.0
 20
12.0
 30
0.0
 11
-149.784609690827
 21
12.0
 31
0.0
  0
LINE
  5
599
330
1F
100
AcDbEntity
  8
100
  6
Continuous
 62
     3
100
AcDbLine
 10
-13.6
 20
26.0
 30
0.0
 11
-13.6
 21
76.6889311249324
 31
0.0
  0
LINE
  5
59A
330
1F
100
AcDbEntity
  8
100
  6
Continuous
 62
     3
100
AcDbLine
 10
-13.6
 20
81.6889311249324
 30
0.0
 11
-13.6
 21
203.5
 31
0.0
  0
LINE
  5
59B
330
1F
100
AcDbEntity
  8
100
  6
Continuous
 62
     3
100
AcDbLine
 10
13.6
 20
75.0000000000007
 30
0.0
 11
13.6
 21
26.0
 31
0.0
  0
LINE
  5
59C
330
1F
100
AcDbEntity
  8
100
  6
Continuous
 62
     3
100
AcDbLine
 10
13.6
 20
80.0000000000007
 30
0.0
 11
13.6
 21
203.5
 31
0.0
  0
LINE
  5
59D
330
1F
100
AcDbEntity
  8
100
  6
Continuous
 62
     3
100
AcDbLine
 10
-4.5
 20
-1.5
 30
0.0
 11
-1.5
 21
0.0
 31
0.0
  0
LINE
  5
59E
330
1F
100
AcDbEntity
  8
100
  6
Continuous
 62
     3
100
AcDbLine
 10
-1.5
 20
0.0
 30
0.0
 11
-4.5
 21
1.5
 31
0.0
  0
LINE
  5
59F
330
1F
100
AcDbEntity
  8
2
  6
DOT_CENTER
 62
     1
100
AcDbLine
 10
0.0
 20
310.5
 30
0.0
 11
0.0
 21
-88.2430510712578
 31
0.0
  0
LINE
  5
5A0
330
1F
100
AcDbEntity
  8
100
  6
Continuous
 62
     3
100
AcDbLine
 10
-173.6
 20
26.0
 30
0.0
 11
-173.6
 21
76.6889311249324
 31
0.0
  0
LINE
  5
5A1
330
1F
100
AcDbEntity
  8
100
  6
Continuous
 62
     3
100
AcDbLine
 10
-146.4
 20
203.5
 30
0.0
 11
-146.4
 21
80.0000000000007
 31
0.0
  0
LINE
  5
5A2
330
1F
100
AcDbEntity
  8
2
  6
DOT_CENTER
 62
     1
100
AcDbLine
 10
-160.0
 20
306.89340942854
 30
0.0
 11
-160.0
 21
-85.7663780819536
 31
0.0
  0
LINE
  5
5A3
330
1F
100
AcDbEntity
  8
100
  6
Continuous
 62
     3
100
AcDbLine
 10
-146.9
 20
-20.0
 30
0.0
 11
-146.9
 21
-24.5
 31
0.0
  0
LINE
  5
5A4
330
1F
100
AcDbEntity
  8
100
  6
Continuous
 62
     3
100
AcDbLine
 10
-146.9
 20
-20.0
 30
0.0
 11
-148.5
 21
-19.0762395692965
 31
0.0
  0
LINE
  5
5A5
330
1F
100
AcDbEntity
  8
100
  6
Continuous
 62
     3
100
AcDbLine
 10
-148.5
 20
-13.0
 30
0.0
 11
-148.5
 21
-19.0762395692965
 31
0.0
  0
LINE
  5
5A6
330
1F
100
AcDbEntity
  8
100
  6
Continuous
 62
     3
100
AcDbLine
 10
-146.5
 20
-10.1036297108185
 30
0.0
 11
-146.5
 21
-13.0
 31
0.0
  0
LINE
  5
5A7
330
1F
100
AcDbEntity
  8
100
  6
Continuous
 62
     3
100
AcDbLine
 10
-147.25
 20
12.0
 30
0.0
 11
-147.25
 21
10.5366424127107
 31
0.0
  0
LINE
  5
5A8
330
1F
100
AcDbEntity
  8
100
  6
Continuous
 62
     3
100
AcDbLine
 10
-144.0
 20
26.0
 30
0.0
 11
-144.0
 21
12.0
 31
0.0
  0
LINE
  5
5A9
330
1F
100
AcDbEntity
  8
2
  6
DOT_CENTER
 62
     1
100
AcDbLine
 10
-135.0
 20
0.0
 30
0.0
 11
-185.0
 21
0.0
 31
0.0
  0
LINE
  5
5AA
330
1F
100
AcDbEntity
  8
100
  6
Continuous
 62
     3
100
AcDbLine
 10
-144.0
 20
26.0
 30
0.0
 11
-176.0
 21
26.0
 31
0.0
  0
LINE
  5
5AB
330
1F
100
AcDbEntity
  8
100
  6
Continuous
 62
     3
100
AcDbLine
 10
-172.75
 20
12.0
 30
0.0
 11
-172.75
 21
10.5366424127107
 31
0.0
  0
LINE
  5
5AC
330
1F
100
AcDbEntity
  8
100
  6
Continuous
 62
     3
100
AcDbLine
 10
-176.0
 20
26.0
 30
0.0
 11
-176.0
 21
12.0
 31
0.0
  0
LINE
  5
5AD
330
1F
100
AcDbEntity
  8
100
  6
Continuous
 62
     3
100
AcDbLine
 10
-171.5
 20
-13.0
 30
0.0
 11
-171.5
 21
-19.0762395692964
 31
0.0
  0
LINE
  5
5AE
330
1F
100
AcDbEntity
  8
100
  6
Continuous
 62
     3
100
AcDbLine
 10
-173.1
 20
-20.0
 30
0.0
 11
-171.5
 21
-19.0762395692964
 31
0.0
  0
LINE
  5
5AF
330
1F
100
AcDbEntity
  8
100
  6
Continuous
 62
     3
100
AcDbLine
 10
-173.1
 20
-20.0
 30
0.0
 11
-173.1
 21
-24.5
 31
0.0
  0
LINE
  5
5B0
330
1F
100
AcDbEntity
  8
100
  6
Continuous
 62
     3
100
AcDbLine
 10
-173.5
 20
-10.1036297108184
 30
0.0
 11
-173.5
 21
-13.0
 31
0.0
  0
LINE
  5
5B1
330
1F
100
AcDbEntity
  8
100
  6
Continuous
 62
     3
100
AcDbLine
 10
13.1
 20
-20.0
 30
0.0
 11
13.1
 21
-24.5
 31
0.0
  0
LINE
  5
5B2
330
1F
100
AcDbEntity
  8
100
  6
Continuous
 62
     3
100
AcDbLine
 10
13.1
 20
-20.0
 30
0.0
 11
11.5
 21
-19.0762395692965
 31
0.0
  0
LINE
  5
5B3
330
1F
100
AcDbEntity
  8
100
  6
Continuous
 62
     3
100
AcDbLine
 10
-13.1
 20
-20.0
 30
0.0
 11
-13.1
 21
-24.5
 31
0.0
  0
LINE
  5
5B4
330
1F
100
AcDbEntity
  8
100
  6
Continuous
 62
     3
100
AcDbLine
 10
-13.1
 20
-20.0
 30
0.0
 11
-11.5
 21
-19.0762395692966
 31
0.0
  0
LINE
  5
5B5
330
1F
100
AcDbEntity
  8
100
  6
Continuous
 62
     3
100
AcDbLine
 10
11.5
 20
-13.0
 30
0.0
 11
11.5
 21
-19.0762395692965
 31
0.0
  0
LINE
  5
5B6
330
1F
100
AcDbEntity
  8
100
  6
Continuous
 62
     3
100
AcDbLine
 10
-11.5
 20
-13.0
 30
0.0
 11
-11.5
 21
-19.0762395692966
 31
0.0
  0
LINE
  5
5B7
330
1F
100
AcDbEntity
  8
100
  6
Continuous
 62
     3
100
AcDbLine
 10
-12.5
 20
-13.0
 30
0.0
 11
13.5
 21
-13.0
 31
0.0
  0
LINE
  5
5B8
330
1F
100
AcDbEntity
  8
100
  6
Continuous
 62
     3
100
AcDbLine
 10
13.5
 20
5.0
 30
0.0
 11
13.5
 21
-13.0
 31
0.0
  0
LINE
  5
5B9
330
1F
100
AcDbEntity
  8
100
  6
Continuous
 62
     3
100
AcDbLine
 10
12.75
 20
12.0
 30
0.0
 11
12.75
 21
5.0
 31
0.0
  0
LINE
  5
5BA
330
1F
100
AcDbEntity
  8
100
  6
Continuous
 62
     3
100
AcDbLine
 10
16.0
 20
26.0
 30
0.0
 11
16.0
 21
12.0
 31
0.0
  0
LINE
  5
5BB
330
1F
100
AcDbEntity
  8
100
  6
Continuous
 62
     3
100
AcDbLine
 10
-7.2347635400663
 20
5.0
 30
0.0
 11
13.5
 21
5.0
 31
0.0
  0
LINE
  5
5BC
330
1F
100
AcDbEntity
  8
100
  6
Continuous
 62
     3
100
AcDbLine
 10
-16.0
 20
26.0
 30
0.0
 11
-16.0
 21
12.0
 31
0.0
  0
LINE
  5
5BD
330
1F
100
AcDbEntity
  8
100
  6
Continuous
 62
     3
100
AcDbLine
 10
-16.0
 20
12.0
 30
0.0
 11
16.0
 21
12.0
 31
0.0
  0
LINE
  5
5BE
330
1F
100
AcDbEntity
  8
100
  6
Continuous
 62
     3
100
AcDbLine
 10
-16.0
 20
26.0
 30
0.0
 11
16.0
 21
26.0
 31
0.0
  0
LINE
  5
5BF
330
1F
100
AcDbEntity
  8
100
  6
Continuous
 62
     3
100
AcDbLine
 10
-22.0762395692965
 20
-11.5
 30
0.0
 11
-14.4364916731037
 21
-11.5
 31
0.0
  0
LINE
  5
5C0
330
1F
100
AcDbEntity
  8
100
  6
Continuous
 62
     3
100
AcDbLine
 10
-13.75
 20
10.0
 30
0.0
 11
-21.2102141655122
 21
10.0
 31
0.0
  0
LINE
  5
5C1
330
1F
100
AcDbEntity
  8
100
  6
Continuous
 62
     3
100
AcDbLine
 10
-23.0
 20
-13.1
 30
0.0
 11
-22.0762395692965
 21
-11.5
 31
0.0
  0
LINE
  5
5C2
330
1F
100
AcDbEntity
  8
100
  6
Continuous
 62
     3
100
AcDbLine
 10
-23.0
 20
13.1
 30
0.0
 11
-21.2102141655122
 21
10.0
 31
0.0
  0
LINE
  5
5C3
330
1F
100
AcDbEntity
  8
100
  6
Continuous
 62
     3
100
AcDbLine
 10
-23.0
 20
-13.1
 30
0.0
 11
-27.5
 21
-13.1
 31
0.0
  0
LINE
  5
5C4
330
1F
100
AcDbEntity
  8
100
  6
Continuous
 62
     3
100
AcDbLine
 10
-23.0
 20
13.1
 30
0.0
 11
-27.5
 21
13.1
 31
0.0
  0
LINE
  5
5C5
330
1F
100
AcDbEntity
  8
2
  6
DOT_CENTER
 62
     1
100
AcDbLine
 10
-90.1116671303491
 20
0.0
 30
0.0
 11
-22.3669376719184
 21
0.0
 31
0.0
  0
LINE
  5
5C6
330
1F
100
AcDbEntity
  8
100
  6
Continuous
 62
     3
100
AcDbLine
 10
123.229992139124
 20
299.891048196256
 30
0.0
 11
136.751981133898
 21
295.762755974056
 31
0.0
  0
LINE
  5
5C7
330
1F
100
AcDbEntity
  8
100
  6
Continuous
 62
     3
100
AcDbLine
 10
141.0
 20
290.024240303043
 30
0.0
 11
141.0
 21
280.0
 31
0.0
  0
LINE
  5
5C8
330
1F
100
AcDbEntity
  8
100
  6
Continuous
 62
     3
100
AcDbLine
 10
129.996542879213
 20
290.044738518463
 30
0.0
 11
129.996542879213
 21
282.0
 31
0.0
  0
LINE
  5
5C9
330
1F
100
AcDbEntity
  8
100
  6
Continuous
 62
     3
100
AcDbLine
 10
90.0034571207873
 20
290.044738518463
 30
0.0
 11
90.0034571207873
 21
282.0
 31
0.0
  0
LINE
  5
5CA
330
1F
100
AcDbEntity
  8
100
  6
Continuous
 62
     3
100
AcDbLine
 10
122.5
 20
300.0
 30
0.0
 11
97.5
 21
300.0
 31
0.0
  0
LINE
  5
5CB
330
1F
100
AcDbEntity
  8
100
  6
Continuous
 62
     3
100
AcDbLine
 10
96.770007860876
 20
299.891048196256
 30
0.0
 11
83.2480188661024
 21
295.762755974056
 31
0.0
  0
LINE
  5
5CC
330
1F
100
AcDbEntity
  8
100
  6
Continuous
 62
     3
100
AcDbLine
 10
79.0
 20
280.0
 30
0.0
 11
141.0
 21
280.0
 31
0.0
  0
LINE
  5
5CD
330
1F
100
AcDbEntity
  8
100
  6
Continuous
 62
     3
100
AcDbLine
 10
96.4
 20
75.0000000000007
 30
0.0
 11
96.4
 21
26.0
 31
0.0
  0
LINE
  5
5CE
330
1F
100
AcDbEntity
  8
100
  6
Continuous
 62
     3
100
AcDbLine
 10
123.6
 20
26.0
 30
0.0
 11
123.6
 21
76.6889311249324
 31
0.0
  0
LINE
  5
5CF
330
1F
100
AcDbEntity
  8
100
  6
Continuous
 62
     3
100
AcDbLine
 10
96.9
 20
-20.0
 30
0.0
 11
96.9
 21
-24.5
 31
0.0
  0
LINE
  5
5D0
330
1F
100
AcDbEntity
  8
100
  6
Continuous
 62
     3
100
AcDbLine
 10
96.9
 20
-20.0
 30
0.0
 11
98.5
 21
-19.0762395692964
 31
0.0
  0
LINE
  5
5D1
330
1F
100
AcDbEntity
  8
100
  6
Continuous
 62
     3
100
AcDbLine
 10
98.5
 20
-13.0
 30
0.0
 11
98.5
 21
-19.0762395692964
 31
0.0
  0
LINE
  5
5D2
330
1F
100
AcDbEntity
  8
100
  6
Continuous
 62
     3
100
AcDbLine
 10
96.5
 20
5.0
 30
0.0
 11
96.5
 21
-13.0
 31
0.0
  0
LINE
  5
5D3
330
1F
100
AcDbEntity
  8
100
  6
Continuous
 62
     3
100
AcDbLine
 10
97.25
 20
12.0
 30
0.0
 11
97.25
 21
5.0
 31
0.0
  0
LINE
  5
5D4
330
1F
100
AcDbEntity
  8
100
  6
Continuous
 62
     3
100
AcDbLine
 10
94.0
 20
26.0
 30
0.0
 11
94.0
 21
12.0
 31
0.0
  0
LINE
  5
5D5
330
1F
100
AcDbEntity
  8
2
  6
DOT_CENTER
 62
     1
100
AcDbLine
 10
85.0
 20
0.0
 30
0.0
 11
135.0
 21
0.0
 31
0.0
  0
LINE
  5
5D6
330
1F
100
AcDbEntity
  8
100
  6
Continuous
 62
     3
100
AcDbLine
 10
94.0
 20
26.0
 30
0.0
 11
126.0
 21
26.0
 31
0.0
  0
LINE
  5
5D7
330
1F
100
AcDbEntity
  8
100
  6
Continuous
 62
     3
100
AcDbLine
 10
96.5
 20
5.0
 30
0.0
 11
123.5
 21
5.0
 31
0.0
  0
LINE
  5
5D8
330
1F
100
AcDbEntity
  8
100
  6
Continuous
 62
     3
100
AcDbLine
 10
122.75
 20
12.0
 30
0.0
 11
122.75
 21
5.0
 31
0.0
  0
LINE
  5
5D9
330
1F
100
AcDbEntity
  8
100
  6
Continuous
 62
     3
100
AcDbLine
 10
94.0
 20
12.0
 30
0.0
 11
126.0
 21
12.0
 31
0.0
  0
LINE
  5
5DA
330
1F
100
AcDbEntity
  8
100
  6
Continuous
 62
     3
100
AcDbLine
 10
126.0
 20
26.0
 30
0.0
 11
126.0
 21
12.0
 31
0.0
  0
LINE
  5
5DB
330
1F
100
AcDbEntity
  8
100
  6
Continuous
 62
     3
100
AcDbLine
 10
121.5
 20
-13.0
 30
0.0
 11
121.5
 21
-19.0762395692964
 31
0.0
  0
LINE
  5
5DC
330
1F
100
AcDbEntity
  8
100
  6
Continuous
 62
     3
100
AcDbLine
 10
123.1
 20
-20.0
 30
0.0
 11
121.5
 21
-19.0762395692964
 31
0.0
  0
LINE
  5
5DD
330
1F
100
AcDbEntity
  8
100
  6
Continuous
 62
     3
100
AcDbLine
 10
123.1
 20
-20.0
 30
0.0
 11
123.1
 21
-24.5
 31
0.0
  0
LINE
  5
5DE
330
1F
100
AcDbEntity
  8
100
  6
Continuous
 62
     3
100
AcDbLine
 10
96.5
 20
-13.0
 30
0.0
 11
123.5
 21
-13.0
 31
0.0
  0
LINE
  5
5DF
330
1F
100
AcDbEntity
  8
100
  6
Continuous
 62
     3
100
AcDbLine
 10
123.5
 20
5.0
 30
0.0
 11
123.5
 21
-13.0
 31
0.0
  0
LINE
  5
5E0
330
1F
100
AcDbEntity
  8
100
  6
Continuous
 62
     3
100
AcDbLine
 10
126.0
 20
203.5
 30
0.0
 11
126.0
 21
228.5
 31
0.0
  0
LINE
  5
5E1
330
1F
100
AcDbEntity
  8
100
  6
Continuous
 62
     3
100
AcDbLine
 10
94.0
 20
203.5
 30
0.0
 11
94.0
 21
228.5
 31
0.0
  0
LINE
  5
5E2
330
1F
100
AcDbEntity
  8
100
  6
Continuous
 62
     3
100
AcDbLine
 10
94.0
 20
203.5
 30
0.0
 11
126.0
 21
203.5
 31
0.0
  0
LINE
  5
5E3
330
1F
100
AcDbEntity
  8
100
  6
Continuous
 62
     3
100
AcDbLine
 10
96.4
 20
80.0000000000007
 30
0.0
 11
96.4
 21
203.5
 31
0.0
  0
LINE
  5
5E4
330
1F
100
AcDbEntity
  8
100
  6
Continuous
 62
     3
100
AcDbLine
 10
123.6
 20
81.6889311249324
 30
0.0
 11
123.6
 21
203.5
 31
0.0
  0
LINE
  5
5E5
330
1F
100
AcDbEntity
  8
100
  6
Continuous
 62
     3
100
AcDbLine
 10
93.0
 20
228.5
 30
0.0
 11
127.0
 21
228.5
 31
0.0
  0
LINE
  5
5E6
330
1F
100
AcDbEntity
  8
100
  6
Continuous
 62
     3
100
AcDbLine
 10
101.0
 20
262.0
 30
0.0
 11
101.0
 21
254.930285549747
 31
0.0
  0
LINE
  5
5E7
330
1F
100
AcDbEntity
  8
100
  6
Continuous
 62
     3
100
AcDbLine
 10
96.5
 20
247.048426656989
 30
0.0
 11
96.5
 21
232.0
 31
0.0
  0
LINE
  5
5E8
330
1F
100
AcDbEntity
  8
100
  6
Continuous
 62
     3
100
AcDbLine
 10
119.0
 20
262.0
 30
0.0
 11
119.0
 21
254.930285549747
 31
0.0
  0
LINE
  5
5E9
330
1F
100
AcDbEntity
  8
100
  6
Continuous
 62
     3
100
AcDbLine
 10
123.5
 20
247.048426656989
 30
0.0
 11
123.5
 21
232.0
 31
0.0
  0
LINE
  5
5EA
330
1F
100
AcDbEntity
  8
100
  6
Continuous
 62
     3
100
AcDbLine
 10
119.0
 20
262.0
 30
0.0
 11
101.0
 21
262.0
 31
0.0
  0
LINE
  5
5EB
330
1F
100
AcDbEntity
  8
2
  6
DOT_CENTER
 62
     1
100
AcDbLine
 10
110.0
 20
310.5
 30
0.0
 11
110.0
 21
-87.7751559906587
 31
0.0
  0
LINE
  5
5EC
330
1F
100
AcDbEntity
  8
100
  6
Continuous
 62
     3
100
AcDbLine
 10
127.0
 20
228.5
 30
0.0
 11
127.0
 21
232.0
 31
0.0
  0
LINE
  5
5ED
330
1F
100
AcDbEntity
  8
100
  6
Continuous
 62
     3
100
AcDbLine
 10
93.0
 20
232.0
 30
0.0
 11
127.0
 21
232.0
 31
0.0
  0
LINE
  5
5EE
330
1F
100
AcDbEntity
  8
100
  6
Continuous
 62
     3
100
AcDbLine
 10
93.0
 20
228.5
 30
0.0
 11
93.0
 21
232.0
 31
0.0
  0
LINE
  5
5EF
330
1F
100
AcDbEntity
  8
100
  6
Continuous
 62
     3
100
AcDbLine
 10
79.0
 20
290.024240303043
 30
0.0
 11
79.0
 21
280.0
 31
0.0
  0
LINE
  5
5F0
330
1F
100
AcDbEntity
  8
1
  6
Continuous
 62
     4
100
AcDbLine
 10
10.4999914169312
 20
-72.120002746582
 30
0.0
 11
12.6283575127818
 21
-74.3819109431174
 31
0.0
  0
LINE
  5
5F1
330
1F
100
AcDbEntity
  8
1
  6
Continuous
 62
     4
100
AcDbLine
 10
10.4999914169312
 20
-72.120002746582
 30
0.0
 11
11.2122564262236
 21
-75.1430557537352
 31
0.0
  0
LINE
  5
5F2
330
1F
100
AcDbEntity
  8
1
  6
Continuous
 62
     4
100
AcDbLine
 10
-75.1200103759766
 20
-10.5
 30
0.0
 11
-75.872599018464
 21
-13.5132675391872
 31
0.0
  0
LINE
  5
5F3
330
1F
100
AcDbEntity
  8
1
  6
Continuous
 62
     4
100
AcDbLine
 10
-75.1200103759766
 20
-10.5
 30
0.0
 11
-77.2784050285639
 21
-12.7332719160915
 31
0.0
  0
LINE
  5
5F4
330
1F
100
AcDbEntity
  8
100
  6
Continuous
 62
     3
100
AcDbLine
 10
-146.4
 20
75.0000000000007
 30
0.0
 11
-146.4
 21
26.0
 31
0.0
  0
LINE
  5
5F5
330
1F
100
AcDbEntity
  8
100
  6
Continuous
 62
     3
100
AcDbLine
 10
-173.6
 20
81.6889311249324
 30
0.0
 11
-173.6
 21
203.5
 31
0.0
  0
ARC
  5
5F6
330
1F
100
AcDbEntity
  8
100
  6
Continuous
 62
     3
100
AcDbCircle
 10
-179.0
 20
255.400073201234
 30
0.0
 40
9.999999999999972
100
AcDbArc
 50
303.3670129692318
 51
0.0
  0
ARC
  5
5F7
330
1F
100
AcDbEntity
  8
100
  6
Continuous
 62
     3
100
AcDbCircle
 10
-141.0
 20
255.400073201234
 30
0.0
 40
10.0
100
AcDbArc
 50
180.0
 51
236.6329870307681
  0
ARC
  5
5F8
330
1F
100
AcDbEntity
  8
100
  6
Continuous
 62
     3
100
AcDbCircle
 10
-185.0
 20
290.024240303043
 30
0.0
 40
5.999999999999724
100
AcDbArc
 50
106.977542740951
 51
180.0
  0
ARC
  5
5F9
330
1F
100
AcDbEntity
  8
100
  6
Continuous
 62
     3
100
AcDbCircle
 10
-172.5
 20
297.5
 30
0.0
 40
2.5
100
AcDbArc
 50
90.0
 51
106.9775427409434
  0
ARC
  5
5FA
330
1F
100
AcDbEntity
  8
100
  6
Continuous
 62
     3
100
AcDbCircle
 10
-173.996542879213
 20
290.044738518463
 30
0.0
 40
5.999999999999352
100
AcDbArc
 50
121.2094430364593
 51
180.0
  0
ARC
  5
5FB
330
1F
100
AcDbEntity
  8
100
  6
Continuous
 62
     3
100
AcDbCircle
 10
-146.003457120787
 20
290.044738518463
 30
0.0
 40
6.0
100
AcDbArc
 50
0.0
 51
58.7905569635458
  0
ARC
  5
5FC
330
1F
100
AcDbEntity
  8
100
  6
Continuous
 62
     3
100
AcDbCircle
 10
-147.5
 20
297.5
 30
0.0
 40
2.500000000000387
100
AcDbArc
 50
73.02245725905664
 51
90.0
  0
ARC
  5
5FD
330
1F
100
AcDbEntity
  8
100
  6
Continuous
 62
     3
100
AcDbCircle
 10
-135.0
 20
290.024240303043
 30
0.0
 40
6.0
100
AcDbArc
 50
0.0
 51
73.02245725904896
  0
ARC
  5
5FE
330
1F
100
AcDbEntity
  8
2
  6
CENTER
 62
     6
100
AcDbCircle
 10
-12.5
 20
290.949797977851
 30
0.0
 40
2.5
100
AcDbArc
 50
90.0
 51
106.9775427409435
  0
ARC
  5
5FF
330
1F
100
AcDbEntity
  8
2
  6
CENTER
 62
     6
100
AcDbCircle
 10
-22.0525588832576
 20
284.373898371176
 30
0.0
 40
6.00000000000056
100
AcDbArc
 50
106.9775427409456
 51
180.0
  0
ARC
  5
600
330
1F
100
AcDbEntity
  8
100
  6
Continuous
 62
     3
100
AcDbCircle
 10
-22.0525588832576
 20
290.924100393325
 30
0.0
 40
6.00000000000056
100
AcDbArc
 50
106.9775427409456
 51
180.0
  0
ARC
  5
601
330
1F
100
AcDbEntity
  8
100
  6
Continuous
 62
     3
100
AcDbCircle
 10
-12.5
 20
297.5
 30
0.0
 40
2.5
100
AcDbArc
 50
90.0
 51
106.9775427409435
  0
ARC
  5
602
330
1F
100
AcDbEntity
  8
2
  6
CENTER
 62
     6
100
AcDbCircle
 10
22.0525588832576
 20
284.373898371176
 30
0.0
 40
6.0
100
AcDbArc
 50
0.0
 51
73.02245725905439
  0
ARC
  5
603
330
1F
100
AcDbEntity
  8
2
  6
CENTER
 62
     6
100
AcDbCircle
 10
12.5
 20
290.949797977851
 30
0.0
 40
2.500000000000389
100
AcDbArc
 50
73.02245725905647
 51
90.0
  0
ARC
  5
604
330
1F
100
AcDbEntity
  8
100
  6
Continuous
 62
     3
100
AcDbCircle
 10
22.0525588832576
 20
290.924100393325
 30
0.0
 40
6.0
100
AcDbArc
 50
0.0
 51
73.02245725905439
  0
ARC
  5
605
330
1F
100
AcDbEntity
  8
100
  6
Continuous
 62
     3
100
AcDbCircle
 10
12.5
 20
297.5
 30
0.0
 40
2.500000000000389
100
AcDbArc
 50
73.02245725905647
 51
90.0
  0
ARC
  5
606
330
1F
100
AcDbEntity
  8
100
  6
Continuous
 62
     3
100
AcDbCircle
 10
-18.470551351628
 20
323.50806661517
 30
0.0
 40
12.00000000000018
100
AcDbArc
 50
28.41186449480033
 51
91.58813550520111
  0
ARC
  5
607
330
1F
100
AcDbEntity
  8
100
  6
Continuous
 62
     3
100
AcDbCircle
 10
-19.0525588832577
 20
344.5
 30
0.0
 40
9.000000000000087
100
AcDbArc
 50
148.411864494797
 51
271.5881355052014
  0
ARC
  5
608
330
1F
100
AcDbEntity
  8
100
  6
Continuous
 62
     3
100
AcDbCircle
 10
-0.00000000000001
 20
333.5
 30
0.0
 40
8.99999999999999
100
AcDbArc
 50
208.4118644947988
 51
331.5881355052016
  0
ARC
  5
609
330
1F
100
AcDbEntity
  8
100
  6
Continuous
 62
     3
100
AcDbCircle
 10
18.470551351628
 20
323.50806661517
 30
0.0
 40
12.00000000000007
100
AcDbArc
 50
88.41186449479889
 51
151.5881355051994
  0
ARC
  5
60A
330
1F
100
AcDbEntity
  8
100
  6
Continuous
 62
     3
100
AcDbCircle
 10
19.0525588832576
 20
344.5
 30
0.0
 40
9.000000000000279
100
AcDbArc
 50
268.4118644947993
 51
31.58813550520268
  0
ARC
  5
60B
330
1F
100
AcDbEntity
  8
100
  6
Continuous
 62
     3
100
AcDbCircle
 10
-18.470551351628
 20
387.49193338483
 30
0.0
 40
12.00000000000007
100
AcDbArc
 50
268.4118644947989
 51
331.5881355051996
  0
ARC
  5
60C
330
1F
100
AcDbEntity
  8
100
  6
Continuous
 62
     3
100
AcDbCircle
 10
-19.0525588832577
 20
366.5
 30
0.0
 40
9.000000000000282
100
AcDbArc
 50
88.4118644947986
 51
211.5881355052026
  0
ARC
  5
60D
330
1F
100
AcDbEntity
  8
100
  6
Continuous
 62
     3
100
AcDbCircle
 10
-36.941102703256
 20
355.5
 30
0.0
 40
11.9999999999999
100
AcDbArc
 50
328.4118644948002
 51
31.58813550520007
  0
ARC
  5
60E
330
1F
100
AcDbEntity
  8
100
  6
Continuous
 62
     3
100
AcDbCircle
 10
18.470551351628
 20
387.49193338483
 30
0.0
 40
12.00000000000019
100
AcDbArc
 50
208.4118644948003
 51
271.5881355052011
  0
ARC
  5
60F
330
1F
100
AcDbEntity
  8
100
  6
Continuous
 62
     3
100
AcDbCircle
 10
36.941102703256
 20
355.5
 30
0.0
 40
11.9999999999999
100
AcDbArc
 50
148.4118644948002
 51
211.5881355051998
  0
ARC
  5
610
330
1F
100
AcDbEntity
  8
100
  6
Continuous
 62
     3
100
AcDbCircle
 10
19.0525588832576
 20
366.5
 30
0.0
 40
9.000000000000172
100
AcDbArc
 50
328.4118644947973
 51
0.0
  0
ARC
  5
611
330
1F
100
AcDbEntity
  8
100
  6
Continuous
 62
     3
100
AcDbCircle
 10
19.0525588832576
 20
366.5
 30
0.0
 40
9.000000000000199
100
AcDbArc
 50
0.0
 51
91.58813550520077
  0
ARC
  5
612
330
1F
100
AcDbEntity
  8
100
  6
Continuous
 62
     3
100
AcDbCircle
 10
-0.00000000000001
 20
377.5
 30
0.0
 40
8.999999999999998
100
AcDbArc
 50
28.41186449479876
 51
151.5881355052013
  0
ARC
  5
613
330
1F
100
AcDbEntity
  8
100
  6
Continuous
 62
     3
100
AcDbCircle
 10
-19.0
 20
255.400073201234
 30
0.0
 40
10.00000000000007
100
AcDbArc
 50
289.9472142336065
 51
0.0
  0
ARC
  5
614
330
1F
100
AcDbEntity
  8
100
  6
Continuous
 62
     3
100
AcDbCircle
 10
19.0
 20
255.400073201234
 30
0.0
 40
10.0
100
AcDbArc
 50
180.0
 51
250.0527857663935
  0
ARC
  5
615
330
1F
100
AcDbEntity
  8
100
  6
Continuous
 62
     3
100
AcDbCircle
 10
-14.4364916731037
 20
-12.5
 30
0.0
 40
0.9999999999999474
100
AcDbArc
 50
14.4775121859307
 51
90.0
  0
ARC
  5
616
330
1F
100
AcDbEntity
  8
100
  6
Continuous
 62
     3
100
AcDbCircle
 10
-12.5
 20
-12.0
 30
0.0
 40
1.000000000000044
100
AcDbArc
 50
194.4775121859293
 51
270.0
  0
ARC
  5
617
330
1F
100
AcDbEntity
  8
100
  6
Continuous
 62
     3
100
AcDbCircle
 10
-13.75
 20
11.0
 30
0.0
 40
1.0
100
AcDbArc
 50
270.0
 51
0.0
  0
ARC
  5
618
330
1F
100
AcDbEntity
  8
100
  6
Continuous
 62
     3
100
AcDbCircle
 10
-13.75
 20
11.0
 30
0.0
 40
1.0
100
AcDbArc
 50
0.0
 51
90.0
  0
ARC
  5
619
330
1F
100
AcDbEntity
  8
100
  6
Continuous
 62
     3
100
AcDbCircle
 10
135.0
 20
290.024240303043
 30
0.0
 40
6.0
100
AcDbArc
 50
0.0
 51
73.02245725904896
  0
ARC
  5
61A
330
1F
100
AcDbEntity
  8
100
  6
Continuous
 62
     3
100
AcDbCircle
 10
122.5
 20
297.5
 30
0.0
 40
2.500000000000387
100
AcDbArc
 50
73.02245725905664
 51
90.0
  0
ARC
  5
61B
330
1F
100
AcDbEntity
  8
100
  6
Continuous
 62
     3
100
AcDbCircle
 10
123.996542879213
 20
290.044738518463
 30
0.0
 40
6.0
100
AcDbArc
 50
0.0
 51
58.7905569635458
  0
ARC
  5
61C
330
1F
100
AcDbEntity
  8
100
  6
Continuous
 62
     3
100
AcDbCircle
 10
96.0034571207873
 20
290.044738518463
 30
0.0
 40
5.999999999999661
100
AcDbArc
 50
121.2094430364642
 51
180.0
  0
ARC
  5
61D
330
1F
100
AcDbEntity
  8
100
  6
Continuous
 62
     3
100
AcDbCircle
 10
97.5
 20
297.5
 30
0.0
 40
2.5
100
AcDbArc
 50
90.0
 51
106.9775427409434
  0
ARC
  5
61E
330
1F
100
AcDbEntity
  8
100
  6
Continuous
 62
     3
100
AcDbCircle
 10
85.0
 20
290.024240303043
 30
0.0
 40
5.999999999999607
100
AcDbArc
 50
106.9775427409474
 51
180.0
  0
ARC
  5
61F
330
1F
100
AcDbEntity
  8
100
  6
Continuous
 62
     3
100
AcDbCircle
 10
129.0
 20
255.400073201234
 30
0.0
 40
10.0
100
AcDbArc
 50
180.0
 51
236.6329870307681
  0
ARC
  5
620
330
1F
100
AcDbEntity
  8
100
  6
Continuous
 62
     3
100
AcDbCircle
 10
91.0
 20
255.400073201234
 30
0.0
 40
9.999999999999972
100
AcDbArc
 50
303.3670129692318
 51
0.0
  0
CIRCLE
  5
621
330
1F
100
AcDbEntity
  8
100
  6
Continuous
 62
     3
100
AcDbCircle
 10
-160.0
 20
0.0
 30
0.0
 40
7.5
  0
CIRCLE
  5
622
330
1F
100
AcDbEntity
  8
2
  6
Continuous
 62
     3
100
AcDbCircle
 10
-160.0
 20
0.0
 30
0.0
 40
9.315499999999986
  0
CIRCLE
  5
623
330
1F
100
AcDbEntity
  8
100
  6
Continuous
 62
     3
100
AcDbCircle
 10
-160.0
 20
0.0
 30
0.0
 40
10.47749999999999
  0
CIRCLE
  5
624
330
1F
100
AcDbEntity
  8
100
  6
Continuous
 62
     3
100
AcDbCircle
 10
0.0
 20
355.5
 30
0.0
 40
10.0
  0
LWPOLYLINE
  5
625
330
1F
100
AcDbEntity
  8
100
  6
Continuous
 62
     3
100
AcDbPolyline
 90
        3
 70
     0
 43
0.0
 10
-14.0678806304932
 20
-2.96661043167114
 10
-14.0678806304932
 20
3.03338956832886
 10
-15.0991306304932
 20
1.25213956832886
  0
LWPOLYLINE
  5
626
330
1F
100
AcDbEntity
  8
100
  6
Continuous
 62
     3
100
AcDbPolyline
 90
        7
 70
     0
 43
0.0
 10
-11.4428806304932
 20
1.90838956832886
 10
-10.5053806304932
 20
3.03338956832886
 10
-9.38038063049316
 20
3.03338956832886
 10
-8.44288063049316
 20
1.90838956832886
 10
-8.44288063049316
 20
0.97088956832886
 10
-9.56788063049316
 20
0.03338956832886
 10
-10.6928806304932
 20
0.03338956832886
  0
LWPOLYLINE
  5
627
330
1F
100
AcDbEntity
  8
100
  6
Continuous
 62
     3
100
AcDbPolyline
 90
        6
 70
     0
 43
0.0
 10
-9.56788063049316
 20
0.03338956832886
 10
-8.44288063049316
 20
-1.09161043167114
 10
-8.44288063049316
 20
-2.02911043167114
 10
-9.38038063049316
 20
-2.96661043167114
 10
-10.5053806304932
 20
-2.96661043167114
 10
-11.4428806304932
 20
-2.02911043167114
  0
LWPOLYLINE
  5
628
330
1F
100
AcDbEntity
  8
2
  6
Continuous
 62
     2
100
AcDbPolyline
 90
        3
 70
     0
 43
0.0
 10
54.25
 20
297.0
 10
55.0
 20
300.0
 10
55.75
 20
297.0
  0
LWPOLYLINE
  5
629
330
1F
100
AcDbEntity
  8
2
  6
Continuous
 62
     2
100
AcDbPolyline
 90
        3
 70
     0
 43
0.0
 10
55.75
 20
3.0
 10
55.0
 20
0.0
 10
54.25
 20
3.0
  0
LWPOLYLINE
  5
62A
330
1F
100
AcDbEntity
  8
2
  6
Continuous
 62
     2
100
AcDbPolyline
 90
        3
 70
     0
 43
0.0
 10
46.2000007629395
 20
150.925003051758
 10
52.5
 20
150.925003051758
 10
52.5
 20
154.075004577637
  0
LWPOLYLINE
  5
62B
330
1F
100
AcDbEntity
  8
100
  6
Continuous
 62
     3
100
AcDbPolyline
 90
        2
 70
     0
 43
0.0
 10
-155.6
 20
262.0
 10
-155.6
 20
280.0
  0
LWPOLYLINE
  5
62C
330
1F
100
AcDbEntity
  8
100
  6
Continuous
 62
     3
100
AcDbPolyline
 90
        2
 70
     0
 43
0.0
 10
4.39999999999998
 20
262.0
 10
4.39999999999998
 20
280.0
  0
LWPOLYLINE
  5
62D
330
1F
100
AcDbEntity
  8
2
  6
Continuous
 62
     1
100
AcDbPolyline
 90
       20
 70
     0
 43
0.0
 10
13.6
 20
75.0000000000007
 10
11.9738486969133
 20
75.5506927839538
 10
10.5057632179954
 20
75.9142491104436
 10
9.0819315735014
 20
76.1192883131609
 10
8.39323129560129
 20
76.1602819512559
 10
7.72045371349344
 20
76.1602266461601
 10
6.42928484184467
 20
76.0497186303252
 10
4.97807787476323
 20
75.7911230449614
 10
3.34631035895618
 20
75.3858499316395
 10
1.12341525626216
 20
74.7318920761439
 10
-0.10437257233659
 20
74.3626314183342
 10
-2.32086542560122
 20
73.7813668857945
 10
-4.09224655625565
 20
73.4986638405479
 10
-5.71562573590698
 20
73.4678685755341
 10
-7.25950651838843
 20
73.692939078556
 10
-7.9165873392892
 20
73.8694661679593
 10
-8.61037293177008
 20
74.1015687246661
 10
-10.1067036656296
 20
74.732030468519
 10
-11.7279429424935
 20
75.5725820698445
 10
-13.6
 20
76.6889311249324
  0
LWPOLYLINE
  5
62E
330
1F
100
AcDbEntity
  8
2
  6
Continuous
 62
     1
100
AcDbPolyline
 90
       20
 70
     0
 43
0.0
 10
13.6
 20
80.0000000000007
 10
11.9738486969133
 20
80.5506927839538
 10
10.5057632179954
 20
80.9142491104436
 10
9.0819315735014
 20
81.1192883131609
 10
8.39323129560129
 20
81.1602819512559
 10
7.72045371349344
 20
81.1602266461601
 10
6.42928484184467
 20
81.0497186303252
 10
4.97807787476323
 20
80.7911230449614
 10
3.34631035895618
 20
80.3858499316395
 10
1.12341525626216
 20
79.7318920761439
 10
-0.10437257233659
 20
79.3626314183342
 10
-2.32086542560122
 20
78.7813668857945
 10
-4.09224655625565
 20
78.4986638405479
 10
-5.71562573590698
 20
78.4678685755341
 10
-7.25950651838843
 20
78.692939078556
 10
-7.9165873392892
 20
78.8694661679593
 10
-8.61037293177008
 20
79.1015687246661
 10
-10.1067036656296
 20
79.732030468519
 10
-11.7279429424935
 20
80.5725820698445
 10
-13.6
 20
81.6889311249324
  0
LWPOLYLINE
  5
62F
330
1F
100
AcDbEntity
  8
2
  6
Continuous
 62
     1
100
AcDbPolyline
 90
       20
 70
     0
 43
0.0
 10
96.4
 20
75.0000000000007
 10
98.0261513030867
 20
75.5506927839539
 10
99.4942367820046
 20
75.9142491104437
 10
100.918068426499
 20
76.1192883131609
 10
101.606768704399
 20
76.1602819512559
 10
102.279546286507
 20
76.1602266461601
 10
103.570715158155
 20
76.0497186303252
 10
105.021922125237
 20
75.7911230449614
 10
106.653689641044
 20
75.3858499316395
 10
108.876584743738
 20
74.7318920761439
 10
110.104372572337
 20
74.3626314183342
 10
112.320865425601
 20
73.7813668857945
 10
114.092246556256
 20
73.4986638405479
 10
115.715625735907
 20
73.4678685755341
 10
117.259506518388
 20
73.692939078556
 10
117.916587339289
 20
73.8694661679593
 10
118.61037293177
 20
74.1015687246662
 10
120.10670366563
 20
74.7320304685191
 10
121.727942942493
 20
75.5725820698445
 10
123.6
 20
76.6889311249324
  0
LWPOLYLINE
  5
630
330
1F
100
AcDbEntity
  8
2
  6
Continuous
 62
     1
100
AcDbPolyline
 90
       20
 70
     0
 43
0.0
 10
96.4
 20
80.0000000000007
 10
98.0261513030867
 20
80.5506927839539
 10
99.4942367820046
 20
80.9142491104437
 10
100.918068426499
 20
81.1192883131609
 10
101.606768704399
 20
81.1602819512559
 10
102.279546286507
 20
81.1602266461601
 10
103.570715158155
 20
81.0497186303252
 10
105.021922125237
 20
80.7911230449614
 10
106.653689641044
 20
80.3858499316395
 10
108.876584743738
 20
79.7318920761439
 10
110.104372572337
 20
79.3626314183342
 10
112.320865425601
 20
78.7813668857945
 10
114.092246556256
 20
78.4986638405479
 10
115.715625735907
 20
78.4678685755341
 10
117.259506518388
 20
78.692939078556
 10
117.916587339289
 20
78.8694661679593
 10
118.61037293177
 20
79.1015687246662
 10
120.10670366563
 20
79.7320304685191
 10
121.727942942493
 20
80.5725820698445
 10
123.6
 20
81.6889311249324
  0
LWPOLYLINE
  5
631
330
1F
100
AcDbEntity
  8
100
  6
Continuous
 62
     3
100
AcDbPolyline
 90
        2
 70
     0
 43
0.0
 10
114.4
 20
262.0
 10
114.4
 20
280.0
  0
LWPOLYLINE
  5
632
330
1F
100
AcDbEntity
  8
2
  6
Continuous
 62
     1
100
AcDbPolyline
 90
       20
 70
     0
 43
0.0
 10
-146.4
 20
80.0000000000007
 10
-148.026151303087
 20
80.5506927839538
 10
-149.494236782005
 20
80.9142491104436
 10
-150.918068426499
 20
81.1192883131609
 10
-151.606768704399
 20
81.1602819512559
 10
-152.279546286507
 20
81.1602266461601
 10
-153.570715158155
 20
81.0497186303252
 10
-155.021922125237
 20
80.7911230449614
 10
-156.653689641044
 20
80.3858499316395
 10
-158.876584743738
 20
79.7318920761439
 10
-160.104372572337
 20
79.3626314183342
 10
-162.320865425601
 20
78.7813668857945
 10
-164.092246556256
 20
78.4986638405479
 10
-165.715625735907
 20
78.4678685755341
 10
-167.259506518388
 20
78.692939078556
 10
-167.916587339289
 20
78.8694661679593
 10
-168.61037293177
 20
79.1015687246661
 10
-170.10670366563
 20
79.732030468519
 10
-171.727942942494
 20
80.5725820698445
 10
-173.6
 20
81.6889311249324
  0
LWPOLYLINE
  5
633
330
1F
100
AcDbEntity
  8
2
  6
Continuous
 62
     1
100
AcDbPolyline
 90
       20
 70
     0
 43
0.0
 10
-146.4
 20
75.0000000000007
 10
-148.026151303087
 20
75.5506927839538
 10
-149.494236782005
 20
75.9142491104436
 10
-150.918068426499
 20
76.1192883131609
 10
-151.606768704399
 20
76.1602819512559
 10
-152.279546286507
 20
76.1602266461601
 10
-153.570715158155
 20
76.0497186303252
 10
-155.021922125237
 20
75.7911230449614
 10
-156.653689641044
 20
75.3858499316395
 10
-158.876584743738
 20
74.7318920761439
 10
-160.104372572337
 20
74.3626314183342
 10
-162.320865425601
 20
73.7813668857945
 10
-164.092246556256
 20
73.4986638405479
 10
-165.715625735907
 20
73.4678685755341
 10
-167.259506518388
 20
73.692939078556
 10
-167.916587339289
 20
73.8694661679593
 10
-168.61037293177
 20
74.1015687246661
 10
-170.10670366563
 20
74.732030468519
 10
-171.727942942494
 20
75.5725820698445
 10
-173.6
 20
76.6889311249324
  0
LEADER
  5
634
330
1F
100
AcDbEntity
  8
1
  6
Continuous
 62
     4
100
AcDbLeader
  3
Standard
 71
     0
 76
     3
 10
10.4999914169312
 20
-72.120002746582
 30
0.0
 10
20.9882309030057
 20
-91.6332505873674
 30
0.0
 10
53.0132946029532
 20
-91.6332505873674
 30
0.0
  0
LEADER
  5
635
330
1F
100
AcDbEntity
  8
1
  6
Continuous
 62
     4
100
AcDbLeader
  3
Standard
 71
     0
 76
     3
 10
-75.1200103759766
 20
-10.5
 30
0.0
 10
-85.2250137329102
 20
-28.7125053405762
 30
0.0
 10
-118.501322742585
 20
-28.7125053405762
 30
0.0
  0
ENDSEC
  0
SECTION
  2
OBJECTS
  0
DICTIONARY
  5
C
330
0
100
AcDbDictionary
281
     1
  3
ACAD_GROUP
350
D
  3
ACAD_LAYOUT
350
1A
  3
ACAD_MATERIAL
350
3B
  3
ACAD_MLEADERSTYLE
350
638
  3
ACAD_MLINESTYLE
350
17
  3
ACAD_PLOTSETTINGS
350
19
  3
ACAD_PLOTSTYLENAME
350
E
  3
ACAD_VISUALSTYLE
350
2A
  3
AcDbVariableDictionary
350
636
  0
DICTIONARY
  5
D
102
{ACAD_REACTORS
330
C
102
}
330
C
100
AcDbDictionary
281
     1
  0
DICTIONARY
  5
1A
102
{ACAD_REACTORS
330
C
102
}
330
C
100
AcDbDictionary
281
     1
  3
Layout1
350
1E
  3
Layout2
350
26
  3
Model
350
22
  0
DICTIONARY
  5
3B
102
{ACAD_REACTORS
330
C
102
}
330
C
100
AcDbDictionary
281
     1
  3
ByBlock
350
3D
  3
ByLayer
350
3C
  3
Global
350
3E
  0
DICTIONARY
  5
638
102
{ACAD_REACTORS
330
C
102
}
330
C
100
AcDbDictionary
281
     1
  0
DICTIONARY
  5
17
102
{ACAD_REACTORS
330
C
102
}
330
C
100
AcDbDictionary
281
     1
  3
Standard
350
18
  0
DICTIONARY
  5
19
102
{ACAD_REACTORS
330
C
102
}
330
C
100
AcDbDictionary
281
     1
  0
ACDBDICTIONARYWDFLT
  5
E
102
{ACAD_REACTORS
330
C
102
}
330
C
100
AcDbDictionary
281
     1
  3
Normal
350
F
100
AcDbDictionaryWithDefault
340
F
  0
DICTIONARY
  5
2A
102
{ACAD_REACTORS
330
C
102
}
330
C
100
AcDbDictionary
281
     1
  3
2dWireframe
350
2F
  3
3D Hidden
350
31
  3
3dWireframe
350
30
  3
Basic
350
32
  3
Brighten
350
36
  3
ColorChange
350
3A
  3
Conceptual
350
34
  3
Dim
350
35
  3
Facepattern
350
39
  3
Flat
350
2B
  3
FlatWithEdges
350
2C
  3
Gouraud
350
2D
  3
GouraudWithEdges
350
2E
  3
Linepattern
350
38
  3
Realistic
350
33
  3
Thicken
350
37
  0
DICTIONARY
  5
636
102
{ACAD_REACTORS
330
C
102
}
330
C
100
AcDbDictionary
281
     1
  3
DIMASSOC
350
639
  3
HIDETEXT
350
63A
  0
LAYOUT
  5
1E
102
{ACAD_REACTORS
330
1A
102
}
330
1A
100
AcDbPlotSettings
  1

  2
none_device
  4

  6

 40
0.0
 41
0.0
 42
0.0
 43
0.0
 44
0.0
 45
0.0
 46
0.0
 47
0.0
 48
0.0
 49
0.0
140
0.0
141
0.0
142
1.0
143
1.0
 70
   688
 72
     0
 73
     0
 74
     5
  7

 75
    16
147
1.0
148
0.0
149
0.0
100
AcDbLayout
  1
Layout1
 70
     1
 71
     1
 10
0.0
 20
0.0
 11
12.0
 21
9.0
 12
0.0
 22
0.0
 32
0.0
 14
1.00000000000000E+20
 24
1.00000000000000E+20
 34
1.00000000000000E+20
 15
-1.00000000000000E+20
 25
-1.00000000000000E+20
 35
-1.00000000000000E+20
146
0.0
 13
0.0
 23
0.0
 33
0.0
 16
1.0
 26
0.0
 36
0.0
 17
0.0
 27
1.0
 37
0.0
 76
     0
330
1B
  0
LAYOUT
  5
26
102
{ACAD_REACTORS
330
1A
102
}
330
1A
100
AcDbPlotSettings
  1

  2
none_device
  4

  6

 40
0.0
 41
0.0
 42
0.0
 43
0.0
 44
0.0
 45
0.0
 46
0.0
 47
0.0
 48
0.0
 49
0.0
140
0.0
141
0.0
142
1.0
143
1.0
 70
   688
 72
     0
 73
     0
 74
     5
  7

 75
    16
147
1.0
148
0.0
149
0.0
100
AcDbLayout
  1
Layout2
 70
     1
 71
     2
 10
0.0
 20
0.0
 11
0.0
 21
0.0
 12
0.0
 22
0.0
 32
0.0
 14
0.0
 24
0.0
 34
0.0
 15
0.0
 25
0.0
 35
0.0
146
0.0
 13
0.0
 23
0.0
 33
0.0
 16
1.0
 26
0.0
 36
0.0
 17
0.0
 27
1.0
 37
0.0
 76
     0
330
23
  0
LAYOUT
  5
22
102
{ACAD_REACTORS
330
1A
102
}
330
1A
100
AcDbPlotSettings
  1

  2
none_device
  4

  6

 40
0.0
 41
0.0
 42
0.0
 43
0.0
 44
0.0
 45
0.0
 46
0.0
 47
0.0
 48
0.0
 49
0.0
140
0.0
141
0.0
142
1.0
143
1.0
 70
  1712
 72
     0
 73
     0
 74
     0
  7

 75
     0
147
1.0
148
0.0
149
0.0
100
AcDbLayout
  1
Model
 70
     1
 71
     0
 10
0.0
 20
0.0
 11
12.0
 21
9.0
 12
0.0
 22
0.0
 32
0.0
 14
-191.0
 24
-110.799324111231
 34
0.0
 15
221.813612792647
 25
389.0
 35
0.0
146
0.0
 13
0.0
 23
0.0
 33
0.0
 16
1.0
 26
0.0
 36
0.0
 17
0.0
 27
1.0
 37
0.0
 76
     0
330
1F
331
29
  0
MATERIAL
  5
3D
102
{ACAD_REACTORS
330
3B
102
}
102
{ACAD_XDICTIONARY
360
65D
102
}
330
3B
100
AcDbMaterial
  1
ByBlock
  0
MATERIAL
  5
3C
102
{ACAD_REACTORS
330
3B
102
}
102
{ACAD_XDICTIONARY
360
65B
102
}
330
3B
100
AcDbMaterial
  1
ByLayer
  0
MATERIAL
  5
3E
102
{ACAD_REACTORS
330
3B
102
}
102
{ACAD_XDICTIONARY
360
65F
102
}
330
3B
100
AcDbMaterial
  1
Global
  0
MLINESTYLE
  5
18
102
{ACAD_REACTORS
330
17
102
}
330
17
100
AcDbMlineStyle
  2
Standard
 70
     0
  3

 62
   256
 51
90.0
 52
90.0
 71
     2
 49
0.5
 62
   256
  6
BYLAYER
 49
-0.5
 62
   256
  6
BYLAYER
  0
ACDBPLACEHOLDER
  5
F
102
{ACAD_REACTORS
330
E
102
}
330
E
  0
VISUALSTYLE
  5
2F
102
{ACAD_REACTORS
330
2A
102
}
102
{ACAD_XDICTIONARY
360
643
102
}
330
2A
100
AcDbVisualStyle
  2
2dWireframe
 70
     4
 71
     0
 72
     2
 73
     0
 90
        0
 40
-0.6
 41
-30.0
 62
     5
 63
     7
 74
     1
 91
        4
 64
     7
 65
   257
 75
     1
175
     1
 42
1.0
 92
        0
 66
   257
 43
1.0
 76
     1
 77
     6
 78
     2
 67
     7
 79
     5
170
     0
171
     0
290
     0
174
     0
 93
        1
 44
0.0
173
     0
291
     0
 45
0.0
1001
ACAD
1000
AcDbSavedByObjectVersion
1070
     0
  0
VISUALSTYLE
  5
31
102
{ACAD_REACTORS
330
2A
102
}
102
{ACAD_XDICTIONARY
360
647
102
}
330
2A
100
AcDbVisualStyle
  2
3D Hidden
 70
     6
 71
     1
 72
     2
 73
     2
 90
        0
 40
-0.6
 41
-30.0
 62
     5
 63
     7
 74
     2
 91
        2
 64
     7
 65
   257
 75
     2
175
     1
 42
40.0
 92
        0
 66
   257
 43
1.0
 76
     1
 77
     6
 78
     2
 67
     7
 79
     3
170
     0
171
     0
290
     0
174
     0
 93
        1
 44
0.0
173
     0
291
     0
 45
0.0
1001
ACAD
1000
AcDbSavedByObjectVersion
1070
     0
  0
VISUALSTYLE
  5
30
102
{ACAD_REACTORS
330
2A
102
}
102
{ACAD_XDICTIONARY
360
645
102
}
330
2A
100
AcDbVisualStyle
  2
3dWireframe
 70
     5
 71
     0
 72
     2
 73
     0
 90
        0
 40
-0.6
 41
-30.0
 62
     5
 63
     7
 74
     1
 91
        4
 64
     7
 65
   257
 75
     1
175
     1
 42
1.0
 92
        0
 66
   257
 43
1.0
 76
     1
 77
     6
 78
     2
 67
     7
 79
     5
170
     0
171
     0
290
     0
174
     0
 93
        1
 44
0.0
173
     0
291
     0
 45
0.0
1001
ACAD
1000
AcDbSavedByObjectVersion
1070
     0
  0
VISUALSTYLE
  5
32
102
{ACAD_REACTORS
330
2A
102
}
102
{ACAD_XDICTIONARY
360
649
102
}
330
2A
100
AcDbVisualStyle
  2
Basic
 70
     7
 71
     1
 72
     0
 73
     1
 90
        0
 40
-0.6
 41
-30.0
 62
     5
 63
     7
 74
     0
 91
        4
 64
     7
 65
   257
 75
     1
175
     1
 42
1.0
 92
        8
 66
     7
 43
1.0
 76
     1
 77
     6
 78
     2
 67
     7
 79
     5
170
     0
171
     0
290
     0
174
     0
 93
        1
 44
0.0
173
     0
291
     1
 45
0.0
1001
ACAD
1000
AcDbSavedByObjectVersion
1070
     0
  0
VISUALSTYLE
  5
36
102
{ACAD_REACTORS
330
2A
102
}
102
{ACAD_XDICTIONARY
360
651
102
}
330
2A
100
AcDbVisualStyle
  2
Brighten
 70
    12
 71
     2
 72
     2
 73
     0
 90
        0
 40
-0.6
 41
-30.0
 62
     5
 63
     7
 74
     1
 91
        4
 64
     7
 65
   257
 75
     1
175
     1
 42
1.0
 92
        8
 66
     7
 43
1.0
 76
     1
 77
     6
 78
     2
 67
     7
 79
     5
170
     0
171
     0
290
     0
174
     0
 93
        1
 44
50.0
173
     0
291
     1
 45
0.0
1001
ACAD
1000
AcDbSavedByObjectVersion
1070
     0
  0
VISUALSTYLE
  5
3A
102
{ACAD_REACTORS
330
2A
102
}
102
{ACAD_XDICTIONARY
360
659
102
}
330
2A
100
AcDbVisualStyle
  2
ColorChange
 70
    16
 71
     2
 72
     2
 73
     3
 90
        0
 40
-0.6
 41
-30.0
 62
     5
 63
     8
 74
     1
 91
        4
 64
     7
 65
   257
 75
     1
175
     1
 42
1.0
 92
        8
 66
     8
 43
1.0
 76
     1
 77
     6
 78
     2
 67
     7
 79
     5
170
     0
171
     0
290
     0
174
     0
 93
        1
 44
0.0
173
     0
291
     1
 45
0.0
1001
ACAD
1000
AcDbSavedByObjectVersion
1070
     0
  0
VISUALSTYLE
  5
34
102
{ACAD_REACTORS
330
2A
102
}
102
{ACAD_XDICTIONARY
360
64D
102
}
330
2A
100
AcDbVisualStyle
  2
Conceptual
 70
     9
 71
     3
 72
     2
 73
     0
 90
        0
 40
-0.6
 41
-30.0
 62
     5
 63
     7
 74
     2
 91
        2
 64
     7
 65
   257
 75
     1
175
     1
 42
40.0
 92
        8
 66
     7
 43
1.0
 76
     1
 77
     6
 78
     2
 67
     7
 79
     3
170
     0
171
     0
290
     0
174
     0
 93
        1
 44
0.0
173
     0
291
     0
 45
0.0
1001
ACAD
1000
AcDbSavedByObjectVersion
1070
     0
  0
VISUALSTYLE
  5
35
102
{ACAD_REACTORS
330
2A
102
}
102
{ACAD_XDICTIONARY
360
64F
102
}
330
2A
100
AcDbVisualStyle
  2
Dim
 70
    11
 71
     2
 72
     2
 73
     0
 90
        0
 40
-0.6
 41
-30.0
 62
     5
 63
     7
 74
     1
 91
        4
 64
     7
 65
   257
 75
     1
175
     1
 42
1.0
 92
        8
 66
     7
 43
1.0
 76
     1
 77
     6
 78
     2
 67
     7
 79
     5
170
     0
171
     0
290
     0
174
     0
 93
        1
 44
-50.0
173
     0
291
     1
 45
0.0
1001
ACAD
1000
AcDbSavedByObjectVersion
1070
     0
  0
VISUALSTYLE
  5
39
102
{ACAD_REACTORS
330
2A
102
}
102
{ACAD_XDICTIONARY
360
657
102
}
330
2A
100
AcDbVisualStyle
  2
Facepattern
 70
    15
 71
     2
 72
     2
 73
     0
 90
        0
 40
-0.6
 41
-30.0
 62
     5
 63
     7
 74
     1
 91
        4
 64
     7
 65
   257
 75
     1
175
     1
 42
1.0
 92
        8
 66
     7
 43
1.0
 76
     1
 77
     6
 78
     2
 67
     7
 79
     5
170
     0
171
     0
290
     0
174
     0
 93
        1
 44
0.0
173
     0
291
     1
 45
0.0
1001
ACAD
1000
AcDbSavedByObjectVersion
1070
     0
  0
VISUALSTYLE
  5
2B
102
{ACAD_REACTORS
330
2A
102
}
102
{ACAD_XDICTIONARY
360
63B
102
}
330
2A
100
AcDbVisualStyle
  2
Flat
 70
     0
 71
     2
 72
     1
 73
     1
 90
        2
 40
-0.6
 41
30.0
 62
     5
 63
     7
 74
     0
 91
        4
 64
     7
 65
   257
 75
     1
175
     1
 42
1.0
 92
        8
 66
     7
 43
1.0
 76
     1
 77
     6
 78
     2
 67
     7
 79
     5
170
     0
171
     0
290
     0
174
     0
 93
       13
 44
0.0
173
     0
291
     1
 45
0.0
1001
ACAD
1000
AcDbSavedByObjectVersion
1070
     0
  0
VISUALSTYLE
  5
2C
102
{ACAD_REACTORS
330
2A
102
}
102
{ACAD_XDICTIONARY
360
63D
102
}
330
2A
100
AcDbVisualStyle
  2
FlatWithEdges
 70
     1
 71
     2
 72
     1
 73
     1
 90
        2
 40
-0.6
 41
30.0
 62
     5
 63
     7
 74
     1
 91
        4
 64
     7
 65
   257
 75
     1
175
     1
 42
1.0
 92
        0
 66
   257
 43
1.0
 76
     1
 77
     6
 78
     2
 67
     7
 79
     5
170
     0
171
     0
290
     0
174
     0
 93
       13
 44
0.0
173
     0
291
     1
 45
0.0
1001
ACAD
1000
AcDbSavedByObjectVersion
1070
     0
  0
VISUALSTYLE
  5
2D
102
{ACAD_REACTORS
330
2A
102
}
102
{ACAD_XDICTIONARY
360
63F
102
}
330
2A
100
AcDbVisualStyle
  2
Gouraud
 70
     2
 71
     2
 72
     2
 73
     1
 90
        2
 40
-0.6
 41
30.0
 62
     5
 63
     7
 74
     0
 91
        4
 64
     7
 65
   257
 75
     1
175
     1
 42
1.0
 92
        0
 66
     7
 43
1.0
 76
     1
 77
     6
 78
     2
 67
     7
 79
     5
170
     0
171
     0
290
     0
174
     0
 93
       13
 44
0.0
173
     0
291
     1
 45
0.0
1001
ACAD
1000
AcDbSavedByObjectVersion
1070
     0
  0
VISUALSTYLE
  5
2E
102
{ACAD_REACTORS
330
2A
102
}
102
{ACAD_XDICTIONARY
360
641
102
}
330
2A
100
AcDbVisualStyle
  2
GouraudWithEdges
 70
     3
 71
     2
 72
     2
 73
     1
 90
        2
 40
-0.6
 41
30.0
 62
     5
 63
     7
 74
     1
 91
        4
 64
     7
 65
   257
 75
     1
175
     1
 42
1.0
 92
        0
 66
   257
 43
1.0
 76
     1
 77
     6
 78
     2
 67
     7
 79
     5
170
     0
171
     0
290
     0
174
     0
 93
       13
 44
0.0
173
     0
291
     1
 45
0.0
1001
ACAD
1000
AcDbSavedByObjectVersion
1070
     0
  0
VISUALSTYLE
  5
38
102
{ACAD_REACTORS
330
2A
102
}
102
{ACAD_XDICTIONARY
360
655
102
}
330
2A
100
AcDbVisualStyle
  2
Linepattern
 70
    14
 71
     2
 72
     2
 73
     0
 90
        0
 40
-0.6
 41
-30.0
 62
     5
 63
     7
 74
     1
 91
        4
 64
     7
 65
   257
 75
     7
175
     7
 42
1.0
 92
        8
 66
     7
 43
1.0
 76
     1
 77
     6
 78
     2
 67
     7
 79
     5
170
     0
171
     0
290
     0
174
     0
 93
        1
 44
0.0
173
     0
291
     1
 45
0.0
1001
ACAD
1000
AcDbSavedByObjectVersion
1070
     0
  0
VISUALSTYLE
  5
33
102
{ACAD_REACTORS
330
2A
102
}
102
{ACAD_XDICTIONARY
360
64B
102
}
330
2A
100
AcDbVisualStyle
  2
Realistic
 70
     8
 71
     2
 72
     2
 73
     0
 90
        0
 40
-0.6
 41
-30.0
 62
     5
 63
     7
 74
     1
 91
        0
 64
     7
 65
   257
 75
     1
175
     1
 42
1.0
 92
        8
 66
     8
 43
1.0
 76
     1
 77
     6
 78
     2
 67
     7
 79
     5
170
     0
171
     0
290
     0
174
     0
 93
       13
 44
0.0
173
     0
291
     0
 45
0.0
1001
ACAD
1000
AcDbSavedByObjectVersion
1070
     0
  0
VISUALSTYLE
  5
37
102
{ACAD_REACTORS
330
2A
102
}
102
{ACAD_XDICTIONARY
360
653
102
}
330
2A
100
AcDbVisualStyle
  2
Thicken
 70
    13
 71
     2
 72
     2
 73
     0
 90
        0
 40
-0.6
 41
-30.0
 62
     5
 63
     7
 74
     1
 91
        4
 64
     7
 65
   257
 75
     1
175
     1
 42
1.0
 92
       12
 66
     7
 43
1.0
 76
     1
 77
     6
 78
     2
 67
     7
 79
     5
170
     0
171
     0
290
     0
174
     0
 93
        1
 44
0.0
173
     0
291
     1
 45
0.0
1001
ACAD
1000
AcDbSavedByObjectVersion
1070
     0
  0
DICTIONARYVAR
  5
639
102
{ACAD_REACTORS
330
636
102
}
330
636
100
DictionaryVariables
280
     0
  1
2
  0
DICTIONARYVAR
  5
63A
102
{ACAD_REACTORS
330
636
102
}
330
636
100
DictionaryVariables
280
     0
  1
1
  0
DICTIONARY
  5
65D
330
3D
100
AcDbDictionary
280
     1
281
     1
  3
ACAD_XREC_ROUNDTRIP
360
65E
  0
DICTIONARY
  5
65B
330
3C
100
AcDbDictionary
280
     1
281
     1
  3
ACAD_XREC_ROUNDTRIP
360
65C
  0
DICTIONARY
  5
65F
330
3E
100
AcDbDictionary
280
     1
281
     1
  3
ACAD_XREC_ROUNDTRIP
360
660
  0
DICTIONARY
  5
643
330
2F
100
AcDbDictionary
280
     1
281
     1
  3
ACAD_XREC_ROUNDTRIP
360
644
  0
DICTIONARY
  5
647
330
31
100
AcDbDictionary
280
     1
281
     1
  3
ACAD_XREC_ROUNDTRIP
360
648
  0
DICTIONARY
  5
645
330
30
100
AcDbDictionary
280
     1
281
     1
  3
ACAD_XREC_ROUNDTRIP
360
646
  0
DICTIONARY
  5
649
330
32
100
AcDbDictionary
280
     1
281
     1
  3
ACAD_XREC_ROUNDTRIP
360
64A
  0
DICTIONARY
  5
651
330
36
100
AcDbDictionary
280
     1
281
     1
  3
ACAD_XREC_ROUNDTRIP
360
652
  0
DICTIONARY
  5
659
330
3A
100
AcDbDictionary
280
     1
281
     1
  3
ACAD_XREC_ROUNDTRIP
360
65A
  0
DICTIONARY
  5
64D
330
34
100
AcDbDictionary
280
     1
281
     1
  3
ACAD_XREC_ROUNDTRIP
360
64E
  0
DICTIONARY
  5
64F
330
35
100
AcDbDictionary
280
     1
281
     1
  3
ACAD_XREC_ROUNDTRIP
360
650
  0
DICTIONARY
  5
657
330
39
100
AcDbDictionary
280
     1
281
     1
  3
ACAD_XREC_ROUNDTRIP
360
658
  0
DICTIONARY
  5
63B
330
2B
100
AcDbDictionary
280
     1
281
     1
  3
ACAD_XREC_ROUNDTRIP
360
63C
  0
DICTIONARY
  5
63D
330
2C
100
AcDbDictionary
280
     1
281
     1
  3
ACAD_XREC_ROUNDTRIP
360
63E
  0
DICTIONARY
  5
63F
330
2D
100
AcDbDictionary
280
     1
281
     1
  3
ACAD_XREC_ROUNDTRIP
360
640
  0
DICTIONARY
  5
641
330
2E
100
AcDbDictionary
280
     1
281
     1
  3
ACAD_XREC_ROUNDTRIP
360
642
  0
DICTIONARY
  5
655
330
38
100
AcDbDictionary
280
     1
281
     1
  3
ACAD_XREC_ROUNDTRIP
360
656
  0
DICTIONARY
  5
64B
330
33
100
AcDbDictionary
280
     1
281
     1
  3
ACAD_XREC_ROUNDTRIP
360
64C
  0
DICTIONARY
  5
653
330
37
100
AcDbDictionary
280
     1
281
     1
  3
ACAD_XREC_ROUNDTRIP
360
654
  0
XRECORD
  5
65E
102
{ACAD_REACTORS
330
65D
102
}
330
65D
100
AcDbXrecord
280
     1
102
MATERIAL
148
0.0
149
0.0
149
0.0
 93
        0
 94
      127
282
     0
 72
     1
 77
     1
171
     1
175
     1
179
     1
273
     0
  0
XRECORD
  5
65C
102
{ACAD_REACTORS
330
65B
102
}
330
65B
100
AcDbXrecord
280
     1
102
MATERIAL
148
0.0
149
0.0
149
0.0
 93
        0
 94
      127
282
     0
 72
     1
 77
     1
171
     1
175
     1
179
     1
273
     0
  0
XRECORD
  5
660
102
{ACAD_REACTORS
330
65F
102
}
330
65F
100
AcDbXrecord
280
     1
102
MATERIAL
148
0.0
149
0.0
149
0.0
 93
        0
 94
      127
282
     0
 72
     1
 77
     1
171
     1
175
     1
179
     1
273
     0
  0
XRECORD
  5
644
102
{ACAD_REACTORS
330
643
102
}
330
643
100
AcDbXrecord
280
     1
102
RTVSPropertyOp0
 70
     1
102
RTVSPropertyOp1
 70
     1
102
RTVSPropertyOp2
 70
     1
102
RTVSPropertyOp3
 70
     1
102
RTVSPropertyOp4
 70
     1
102
RTVSPropertyOp5
 70
     1
102
RTVSPropertyOp6
 70
     1
102
RTVSPropertyOp7
 70
     1
102
RTVSPropertyOp8
 70
     1
102
RTVSPropertyOp9
 70
     1
102
RTVSPropertyOp10
 70
     1
102
RTVSPropertyOp11
 70
     1
102
RTVSPropertyOp12
 70
     1
102
RTVSPropertyOp13
 70
     1
102
RTVSPropertyOp14
 70
     1
102
RTVSPropertyOp15
 70
     1
102
RTVSPropertyOp16
 70
     1
102
RTVSPropertyOp17
 70
     1
102
RTVSPropertyOp18
 70
     1
102
RTVSPropertyOp19
 70
     1
102
RTVSPropertyOp20
 70
     1
102
RTVSPropertyOp21
 70
     1
102
RTVSPropertyOp22
 70
     1
102
RTVSPropertyOp23
 70
     1
102
RTVSPropertyOp24
 70
     1
102
RTVSPropertyOp25
 70
     1
102
RTVSPropertyOp26
 70
     1
102
RTVSPropertyOp27
 70
     1
  0
XRECORD
  5
648
102
{ACAD_REACTORS
330
647
102
}
330
647
100
AcDbXrecord
280
     1
102
RTVSPropertyOp0
 70
     1
102
RTVSPropertyOp1
 70
     1
102
RTVSPropertyOp2
 70
     1
102
RTVSPropertyOp3
 70
     1
102
RTVSPropertyOp4
 70
     1
102
RTVSPropertyOp5
 70
     1
102
RTVSPropertyOp6
 70
     1
102
RTVSPropertyOp7
 70
     1
102
RTVSPropertyOp8
 70
     1
102
RTVSPropertyOp9
 70
     1
102
RTVSPropertyOp10
 70
     1
102
RTVSPropertyOp11
 70
     1
102
RTVSPropertyOp12
 70
     1
102
RTVSPropertyOp13
 70
     1
102
RTVSPropertyOp14
 70
     1
102
RTVSPropertyOp15
 70
     1
102
RTVSPropertyOp16
 70
     1
102
RTVSPropertyOp17
 70
     1
102
RTVSPropertyOp18
 70
     1
102
RTVSPropertyOp19
 70
     1
102
RTVSPropertyOp20
 70
     1
102
RTVSPropertyOp21
 70
     1
102
RTVSPropertyOp22
 70
     1
102
RTVSPropertyOp23
 70
     1
102
RTVSPropertyOp24
 70
     1
102
RTVSPropertyOp25
 70
     1
102
RTVSPropertyOp26
 70
     1
102
RTVSPropertyOp27
 70
     1
  0
XRECORD
  5
646
102
{ACAD_REACTORS
330
645
102
}
330
645
100
AcDbXrecord
280
     1
102
RTVSPropertyOp0
 70
     1
102
RTVSPropertyOp1
 70
     1
102
RTVSPropertyOp2
 70
     1
102
RTVSPropertyOp3
 70
     1
102
RTVSPropertyOp4
 70
     1
102
RTVSPropertyOp5
 70
     1
102
RTVSPropertyOp6
 70
     1
102
RTVSPropertyOp7
 70
     1
102
RTVSPropertyOp8
 70
     1
102
RTVSPropertyOp9
 70
     1
102
RTVSPropertyOp10
 70
     1
102
RTVSPropertyOp11
 70
     1
102
RTVSPropertyOp12
 70
     1
102
RTVSPropertyOp13
 70
     1
102
RTVSPropertyOp14
 70
     1
102
RTVSPropertyOp15
 70
     1
102
RTVSPropertyOp16
 70
     1
102
RTVSPropertyOp17
 70
     1
102
RTVSPropertyOp18
 70
     1
102
RTVSPropertyOp19
 70
     1
102
RTVSPropertyOp20
 70
     1
102
RTVSPropertyOp21
 70
     1
102
RTVSPropertyOp22
 70
     1
102
RTVSPropertyOp23
 70
     1
102
RTVSPropertyOp24
 70
     1
102
RTVSPropertyOp25
 70
     1
102
RTVSPropertyOp26
 70
     1
102
RTVSPropertyOp27
 70
     1
  0
XRECORD
  5
64A
102
{ACAD_REACTORS
330
649
102
}
330
649
100
AcDbXrecord
280
     1
102
RTVSPropertyOp0
 70
     1
102
RTVSPropertyOp1
 70
     1
102
RTVSPropertyOp2
 70
     1
102
RTVSPropertyOp3
 70
     1
102
RTVSPropertyOp4
 70
     1
102
RTVSPropertyOp5
 70
     1
102
RTVSPropertyOp6
 70
     1
102
RTVSPropertyOp7
 70
     1
102
RTVSPropertyOp8
 70
     1
102
RTVSPropertyOp9
 70
     1
102
RTVSPropertyOp10
 70
     1
102
RTVSPropertyOp11
 70
     1
102
RTVSPropertyOp12
 70
     1
102
RTVSPropertyOp13
 70
     1
102
RTVSPropertyOp14
 70
     1
102
RTVSPropertyOp15
 70
     1
102
RTVSPropertyOp16
 70
     1
102
RTVSPropertyOp17
 70
     1
102
RTVSPropertyOp18
 70
     1
102
RTVSPropertyOp19
 70
     1
102
RTVSPropertyOp20
 70
     1
102
RTVSPropertyOp21
 70
     1
102
RTVSPropertyOp22
 70
     1
102
RTVSPropertyOp23
 70
     1
102
RTVSPropertyOp24
 70
     1
102
RTVSPropertyOp25
 70
     1
102
RTVSPropertyOp26
 70
     1
102
RTVSPropertyOp27
 70
     1
  0
XRECORD
  5
652
102
{ACAD_REACTORS
330
651
102
}
330
651
100
AcDbXrecord
280
     1
102
RTVSPropertyOp0
 70
     1
102
RTVSPropertyOp1
 70
     1
102
RTVSPropertyOp2
 70
     1
102
RTVSPropertyOp3
 70
     1
102
RTVSPropertyOp4
 70
     1
102
RTVSPropertyOp5
 70
     1
102
RTVSPropertyOp6
 70
     1
102
RTVSPropertyOp7
 70
     1
102
RTVSPropertyOp8
 70
     1
102
RTVSPropertyOp9
 70
     1
102
RTVSPropertyOp10
 70
     1
102
RTVSPropertyOp11
 70
     1
102
RTVSPropertyOp12
 70
     1
102
RTVSPropertyOp13
 70
     1
102
RTVSPropertyOp14
 70
     1
102
RTVSPropertyOp15
 70
     1
102
RTVSPropertyOp16
 70
     1
102
RTVSPropertyOp17
 70
     1
102
RTVSPropertyOp18
 70
     1
102
RTVSPropertyOp19
 70
     1
102
RTVSPropertyOp20
 70
     1
102
RTVSPropertyOp21
 70
     1
102
RTVSPropertyOp22
 70
     1
102
RTVSPropertyOp23
 70
     1
102
RTVSPropertyOp24
 70
     1
102
RTVSPropertyOp25
 70
     1
102
RTVSPropertyOp26
 70
     1
102
RTVSPropertyOp27
 70
     1
  0
XRECORD
  5
65A
102
{ACAD_REACTORS
330
659
102
}
330
659
100
AcDbXrecord
280
     1
102
RTVSPropertyOp0
 70
     1
102
RTVSPropertyOp1
 70
     1
102
RTVSPropertyOp2
 70
     1
102
RTVSPropertyOp3
 70
     1
102
RTVSPropertyOp4
 70
     1
102
RTVSPropertyOp5
 70
     1
102
RTVSPropertyOp6
 70
     1
102
RTVSPropertyOp7
 70
     1
102
RTVSPropertyOp8
 70
     1
102
RTVSPropertyOp9
 70
     1
102
RTVSPropertyOp10
 70
     1
102
RTVSPropertyOp11
 70
     1
102
RTVSPropertyOp12
 70
     1
102
RTVSPropertyOp13
 70
     1
102
RTVSPropertyOp14
 70
     1
102
RTVSPropertyOp15
 70
     1
102
RTVSPropertyOp16
 70
     1
102
RTVSPropertyOp17
 70
     1
102
RTVSPropertyOp18
 70
     1
102
RTVSPropertyOp19
 70
     1
102
RTVSPropertyOp20
 70
     1
102
RTVSPropertyOp21
 70
     1
102
RTVSPropertyOp22
 70
     1
102
RTVSPropertyOp23
 70
     1
102
RTVSPropertyOp24
 70
     1
102
RTVSPropertyOp25
 70
     1
102
RTVSPropertyOp26
 70
     1
102
RTVSPropertyOp27
 70
     1
  0
XRECORD
  5
64E
102
{ACAD_REACTORS
330
64D
102
}
330
64D
100
AcDbXrecord
280
     1
102
RTVSPropertyOp0
 70
     1
102
RTVSPropertyOp1
 70
     1
102
RTVSPropertyOp2
 70
     1
102
RTVSPropertyOp3
 70
     1
102
RTVSPropertyOp4
 70
     1
102
RTVSPropertyOp5
 70
     1
102
RTVSPropertyOp6
 70
     1
102
RTVSPropertyOp7
 70
     1
102
RTVSPropertyOp8
 70
     1
102
RTVSPropertyOp9
 70
     1
102
RTVSPropertyOp10
 70
     1
102
RTVSPropertyOp11
 70
     1
102
RTVSPropertyOp12
 70
     1
102
RTVSPropertyOp13
 70
     1
102
RTVSPropertyOp14
 70
     1
102
RTVSPropertyOp15
 70
     1
102
RTVSPropertyOp16
 70
     1
102
RTVSPropertyOp17
 70
     1
102
RTVSPropertyOp18
 70
     1
102
RTVSPropertyOp19
 70
     1
102
RTVSPropertyOp20
 70
     1
102
RTVSPropertyOp21
 70
     1
102
RTVSPropertyOp22
 70
     1
102
RTVSPropertyOp23
 70
     1
102
RTVSPropertyOp24
 70
     1
102
RTVSPropertyOp25
 70
     1
102
RTVSPropertyOp26
 70
     1
102
RTVSPropertyOp27
 70
     1
  0
XRECORD
  5
650
102
{ACAD_REACTORS
330
64F
102
}
330
64F
100
AcDbXrecord
280
     1
102
RTVSPropertyOp0
 70
     1
102
RTVSPropertyOp1
 70
     1
102
RTVSPropertyOp2
 70
     1
102
RTVSPropertyOp3
 70
     1
102
RTVSPropertyOp4
 70
     1
102
RTVSPropertyOp5
 70
     1
102
RTVSPropertyOp6
 70
     1
102
RTVSPropertyOp7
 70
     1
102
RTVSPropertyOp8
 70
     1
102
RTVSPropertyOp9
 70
     1
102
RTVSPropertyOp10
 70
     1
102
RTVSPropertyOp11
 70
     1
102
RTVSPropertyOp12
 70
     1
102
RTVSPropertyOp13
 70
     1
102
RTVSPropertyOp14
 70
     1
102
RTVSPropertyOp15
 70
     1
102
RTVSPropertyOp16
 70
     1
102
RTVSPropertyOp17
 70
     1
102
RTVSPropertyOp18
 70
     1
102
RTVSPropertyOp19
 70
     1
102
RTVSPropertyOp20
 70
     1
102
RTVSPropertyOp21
 70
     1
102
RTVSPropertyOp22
 70
     1
102
RTVSPropertyOp23
 70
     1
102
RTVSPropertyOp24
 70
     1
102
RTVSPropertyOp25
 70
     1
102
RTVSPropertyOp26
 70
     1
102
RTVSPropertyOp27
 70
     1
  0
XRECORD
  5
658
102
{ACAD_REACTORS
330
657
102
}
330
657
100
AcDbXrecord
280
     1
102
RTVSPropertyOp0
 70
     1
102
RTVSPropertyOp1
 70
     1
102
RTVSPropertyOp2
 70
     1
102
RTVSPropertyOp3
 70
     1
102
RTVSPropertyOp4
 70
     1
102
RTVSPropertyOp5
 70
     1
102
RTVSPropertyOp6
 70
     1
102
RTVSPropertyOp7
 70
     1
102
RTVSPropertyOp8
 70
     1
102
RTVSPropertyOp9
 70
     1
102
RTVSPropertyOp10
 70
     1
102
RTVSPropertyOp11
 70
     1
102
RTVSPropertyOp12
 70
     1
102
RTVSPropertyOp13
 70
     1
102
RTVSPropertyOp14
 70
     1
102
RTVSPropertyOp15
 70
     1
102
RTVSPropertyOp16
 70
     1
102
RTVSPropertyOp17
 70
     1
102
RTVSPropertyOp18
 70
     1
102
RTVSPropertyOp19
 70
     1
102
RTVSPropertyOp20
 70
     1
102
RTVSPropertyOp21
 70
     1
102
RTVSPropertyOp22
 70
     1
102
RTVSPropertyOp23
 70
     1
102
RTVSPropertyOp24
 70
     1
102
RTVSPropertyOp25
 70
     1
102
RTVSPropertyOp26
 70
     1
102
RTVSPropertyOp27
 70
     1
  0
XRECORD
  5
63C
102
{ACAD_REACTORS
330
63B
102
}
330
63B
100
AcDbXrecord
280
     1
102
RTVSPropertyOp0
 70
     1
102
RTVSPropertyOp1
 70
     1
102
RTVSPropertyOp2
 70
     1
102
RTVSPropertyOp3
 70
     1
102
RTVSPropertyOp4
 70
     1
102
RTVSPropertyOp5
 70
     1
102
RTVSPropertyOp6
 70
     1
102
RTVSPropertyOp7
 70
     1
102
RTVSPropertyOp8
 70
     1
102
RTVSPropertyOp9
 70
     1
102
RTVSPropertyOp10
 70
     1
102
RTVSPropertyOp11
 70
     1
102
RTVSPropertyOp12
 70
     1
102
RTVSPropertyOp13
 70
     1
102
RTVSPropertyOp14
 70
     1
102
RTVSPropertyOp15
 70
     1
102
RTVSPropertyOp16
 70
     1
102
RTVSPropertyOp17
 70
     1
102
RTVSPropertyOp18
 70
     1
102
RTVSPropertyOp19
 70
     1
102
RTVSPropertyOp20
 70
     1
102
RTVSPropertyOp21
 70
     1
102
RTVSPropertyOp22
 70
     1
102
RTVSPropertyOp23
 70
     1
102
RTVSPropertyOp24
 70
     1
102
RTVSPropertyOp25
 70
     1
102
RTVSPropertyOp26
 70
     1
102
RTVSPropertyOp27
 70
     1
  0
XRECORD
  5
63E
102
{ACAD_REACTORS
330
63D
102
}
330
63D
100
AcDbXrecord
280
     1
102
RTVSPropertyOp0
 70
     1
102
RTVSPropertyOp1
 70
     1
102
RTVSPropertyOp2
 70
     1
102
RTVSPropertyOp3
 70
     1
102
RTVSPropertyOp4
 70
     1
102
RTVSPropertyOp5
 70
     1
102
RTVSPropertyOp6
 70
     1
102
RTVSPropertyOp7
 70
     1
102
RTVSPropertyOp8
 70
     1
102
RTVSPropertyOp9
 70
     1
102
RTVSPropertyOp10
 70
     1
102
RTVSPropertyOp11
 70
     1
102
RTVSPropertyOp12
 70
     1
102
RTVSPropertyOp13
 70
     1
102
RTVSPropertyOp14
 70
     1
102
RTVSPropertyOp15
 70
     1
102
RTVSPropertyOp16
 70
     1
102
RTVSPropertyOp17
 70
     1
102
RTVSPropertyOp18
 70
     1
102
RTVSPropertyOp19
 70
     1
102
RTVSPropertyOp20
 70
     1
102
RTVSPropertyOp21
 70
     1
102
RTVSPropertyOp22
 70
     1
102
RTVSPropertyOp23
 70
     1
102
RTVSPropertyOp24
 70
     1
102
RTVSPropertyOp25
 70
     1
102
RTVSPropertyOp26
 70
     1
102
RTVSPropertyOp27
 70
     1
  0
XRECORD
  5
640
102
{ACAD_REACTORS
330
63F
102
}
330
63F
100
AcDbXrecord
280
     1
102
RTVSPropertyOp0
 70
     1
102
RTVSPropertyOp1
 70
     1
102
RTVSPropertyOp2
 70
     1
102
RTVSPropertyOp3
 70
     1
102
RTVSPropertyOp4
 70
     1
102
RTVSPropertyOp5
 70
     1
102
RTVSPropertyOp6
 70
     1
102
RTVSPropertyOp7
 70
     1
102
RTVSPropertyOp8
 70
     1
102
RTVSPropertyOp9
 70
     1
102
RTVSPropertyOp10
 70
     1
102
RTVSPropertyOp11
 70
     1
102
RTVSPropertyOp12
 70
     1
102
RTVSPropertyOp13
 70
     1
102
RTVSPropertyOp14
 70
     1
102
RTVSPropertyOp15
 70
     1
102
RTVSPropertyOp16
 70
     1
102
RTVSPropertyOp17
 70
     1
102
RTVSPropertyOp18
 70
     1
102
RTVSPropertyOp19
 70
     1
102
RTVSPropertyOp20
 70
     1
102
RTVSPropertyOp21
 70
     1
102
RTVSPropertyOp22
 70
     1
102
RTVSPropertyOp23
 70
     1
102
RTVSPropertyOp24
 70
     1
102
RTVSPropertyOp25
 70
     1
102
RTVSPropertyOp26
 70
     1
102
RTVSPropertyOp27
 70
     1
  0
XRECORD
  5
642
102
{ACAD_REACTORS
330
641
102
}
330
641
100
AcDbXrecord
280
     1
102
RTVSPropertyOp0
 70
     1
102
RTVSPropertyOp1
 70
     1
102
RTVSPropertyOp2
 70
     1
102
RTVSPropertyOp3
 70
     1
102
RTVSPropertyOp4
 70
     1
102
RTVSPropertyOp5
 70
     1
102
RTVSPropertyOp6
 70
     1
102
RTVSPropertyOp7
 70
     1
102
RTVSPropertyOp8
 70
     1
102
RTVSPropertyOp9
 70
     1
102
RTVSPropertyOp10
 70
     1
102
RTVSPropertyOp11
 70
     1
102
RTVSPropertyOp12
 70
     1
102
RTVSPropertyOp13
 70
     1
102
RTVSPropertyOp14
 70
     1
102
RTVSPropertyOp15
 70
     1
102
RTVSPropertyOp16
 70
     1
102
RTVSPropertyOp17
 70
     1
102
RTVSPropertyOp18
 70
     1
102
RTVSPropertyOp19
 70
     1
102
RTVSPropertyOp20
 70
     1
102
RTVSPropertyOp21
 70
     1
102
RTVSPropertyOp22
 70
     1
102
RTVSPropertyOp23
 70
     1
102
RTVSPropertyOp24
 70
     1
102
RTVSPropertyOp25
 70
     1
102
RTVSPropertyOp26
 70
     1
102
RTVSPropertyOp27
 70
     1
  0
XRECORD
  5
656
102
{ACAD_REACTORS
330
655
102
}
330
655
100
AcDbXrecord
280
     1
102
RTVSPropertyOp0
 70
     1
102
RTVSPropertyOp1
 70
     1
102
RTVSPropertyOp2
 70
     1
102
RTVSPropertyOp3
 70
     1
102
RTVSPropertyOp4
 70
     1
102
RTVSPropertyOp5
 70
     1
102
RTVSPropertyOp6
 70
     1
102
RTVSPropertyOp7
 70
     1
102
RTVSPropertyOp8
 70
     1
102
RTVSPropertyOp9
 70
     1
102
RTVSPropertyOp10
 70
     1
102
RTVSPropertyOp11
 70
     1
102
RTVSPropertyOp12
 70
     1
102
RTVSPropertyOp13
 70
     1
102
RTVSPropertyOp14
 70
     1
102
RTVSPropertyOp15
 70
     1
102
RTVSPropertyOp16
 70
     1
102
RTVSPropertyOp17
 70
     1
102
RTVSPropertyOp18
 70
     1
102
RTVSPropertyOp19
 70
     1
102
RTVSPropertyOp20
 70
     1
102
RTVSPropertyOp21
 70
     1
102
RTVSPropertyOp22
 70
     1
102
RTVSPropertyOp23
 70
     1
102
RTVSPropertyOp24
 70
     1
102
RTVSPropertyOp25
 70
     1
102
RTVSPropertyOp26
 70
     1
102
RTVSPropertyOp27
 70
     1
  0
XRECORD
  5
64C
102
{ACAD_REACTORS
330
64B
102
}
330
64B
100
AcDbXrecord
280
     1
102
RTVSPropertyOp0
 70
     1
102
RTVSPropertyOp1
 70
     1
102
RTVSPropertyOp2
 70
     1
102
RTVSPropertyOp3
 70
     1
102
RTVSPropertyOp4
 70
     1
102
RTVSPropertyOp5
 70
     1
102
RTVSPropertyOp6
 70
     1
102
RTVSPropertyOp7
 70
     1
102
RTVSPropertyOp8
 70
     1
102
RTVSPropertyOp9
 70
     1
102
RTVSPropertyOp10
 70
     1
102
RTVSPropertyOp11
 70
     1
102
RTVSPropertyOp12
 70
     1
102
RTVSPropertyOp13
 70
     1
102
RTVSPropertyOp14
 70
     1
102
RTVSPropertyOp15
 70
     1
102
RTVSPropertyOp16
 70
     1
102
RTVSPropertyOp17
 70
     1
102
RTVSPropertyOp18
 70
     1
102
RTVSPropertyOp19
 70
     1
102
RTVSPropertyOp20
 70
     1
102
RTVSPropertyOp21
 70
     1
102
RTVSPropertyOp22
 70
     1
102
RTVSPropertyOp23
 70
     1
102
RTVSPropertyOp24
 70
     1
102
RTVSPropertyOp25
 70
     1
102
RTVSPropertyOp26
 70
     1
102
RTVSPropertyOp27
 70
     1
  0
XRECORD
  5
654
102
{ACAD_REACTORS
330
653
102
}
330
653
100
AcDbXrecord
280
     1
102
RTVSPropertyOp0
 70
     1
102
RTVSPropertyOp1
 70
     1
102
RTVSPropertyOp2
 70
     1
102
RTVSPropertyOp3
 70
     1
102
RTVSPropertyOp4
 70
     1
102
RTVSPropertyOp5
 70
     1
102
RTVSPropertyOp6
 70
     1
102
RTVSPropertyOp7
 70
     1
102
RTVSPropertyOp8
 70
     1
102
RTVSPropertyOp9
 70
     1
102
RTVSPropertyOp10
 70
     1
102
RTVSPropertyOp11
 70
     1
102
RTVSPropertyOp12
 70
     1
102
RTVSPropertyOp13
 70
     1
102
RTVSPropertyOp14
 70
     1
102
RTVSPropertyOp15
 70
     1
102
RTVSPropertyOp16
 70
     1
102
RTVSPropertyOp17
 70
     1
102
RTVSPropertyOp18
 70
     1
102
RTVSPropertyOp19
 70
     1
102
RTVSPropertyOp20
 70
     1
102
RTVSPropertyOp21
 70
     1
102
RTVSPropertyOp22
 70
     1
102
RTVSPropertyOp23
 70
     1
102
RTVSPropertyOp24
 70
     1
102
RTVSPropertyOp25
 70
     1
102
RTVSPropertyOp26
 70
     1
102
RTVSPropertyOp27
 70
     1
  0
ENDSEC
  0
EOF
